  0
SECTION
  2
HEADER
  9
$ACADVER
  1
AC1015
  9
$ACADMAINTVER
 70
     6
  9
$DWGCODEPAGE
  3
ANSI_932
  9
$INSBASE
 10
0.0
 20
0.0
 30
0.0
  9
$EXTMIN
 10
1.000000000000000E+20
 20
1.000000000000000E+20
 30
1.000000000000000E+20
  9
$EXTMAX
 10
-1.000000000000000E+20
 20
-1.000000000000000E+20
 30
-1.000000000000000E+20
  9
$LIMMIN
 10
0.0
 20
0.0
  9
$LIMMAX
 10
12.0
 20
9.0
  9
$ORTHOMODE
 70
     0
  9
$REGENMODE
 70
     1
  9
$FILLMODE
 70
     1
  9
$QTEXTMODE
 70
     0
  9
$MIRRTEXT
 70
     1
  9
$LTSCALE
 40
1.0
  9
$ATTMODE
 70
     1
  9
$TEXTSIZE
 40
0.2
  9
$TRACEWID
 40
0.05
  9
$TEXTSTYLE
  7
Standard
  9
$CLAYER
  8
0
  9
$CELTYPE
  6
ByLayer
  9
$CECOLOR
 62
   256
  9
$CELTSCALE
 40
1.0
  9
$DISPSILH
 70
     0
  9
$DIMSCALE
 40
1.0
  9
$DIMASZ
 40
0.18
  9
$DIMEXO
 40
0.0625
  9
$DIMDLI
 40
0.38
  9
$DIMRND
 40
0.0
  9
$DIMDLE
 40
0.0
  9
$DIMEXE
 40
0.18
  9
$DIMTP
 40
0.0
  9
$DIMTM
 40
0.0
  9
$DIMTXT
 40
0.18
  9
$DIMCEN
 40
0.09
  9
$DIMTSZ
 40
0.0
  9
$DIMTOL
 70
     0
  9
$DIMLIM
 70
     0
  9
$DIMTIH
 70
     1
  9
$DIMTOH
 70
     1
  9
$DIMSE1
 70
     0
  9
$DIMSE2
 70
     0
  9
$DIMTAD
 70
     0
  9
$DIMZIN
 70
     0
  9
$DIMBLK
  1

  9
$DIMASO
 70
     1
  9
$DIMSHO
 70
     1
  9
$DIMPOST
  1

  9
$DIMAPOST
  1

  9
$DIMALT
 70
     0
  9
$DIMALTD
 70
     2
  9
$DIMALTF
 40
25.4
  9
$DIMLFAC
 40
1.0
  9
$DIMTOFL
 70
     0
  9
$DIMTVP
 40
0.0
  9
$DIMTIX
 70
     0
  9
$DIMSOXD
 70
     0
  9
$DIMSAH
 70
     0
  9
$DIMBLK1
  1

  9
$DIMBLK2
  1

  9
$DIMSTYLE
  2
Standard
  9
$DIMCLRD
 70
     0
  9
$DIMCLRE
 70
     0
  9
$DIMCLRT
 70
     0
  9
$DIMTFAC
 40
1.0
  9
$DIMGAP
 40
0.09
  9
$DIMJUST
 70
     0
  9
$DIMSD1
 70
     0
  9
$DIMSD2
 70
     0
  9
$DIMTOLJ
 70
     1
  9
$DIMTZIN
 70
     0
  9
$DIMALTZ
 70
     0
  9
$DIMALTTZ
 70
     0
  9
$DIMUPT
 70
     0
  9
$DIMDEC
 70
     4
  9
$DIMTDEC
 70
     4
  9
$DIMALTU
 70
     2
  9
$DIMALTTD
 70
     2
  9
$DIMTXSTY
  7
Standard
  9
$DIMAUNIT
 70
     0
  9
$DIMADEC
 70
     0
  9
$DIMALTRND
 40
0.0
  9
$DIMAZIN
 70
     0
  9
$DIMDSEP
 70
    46
  9
$DIMATFIT
 70
     3
  9
$DIMFRAC
 70
     0
  9
$DIMLDRBLK
  1

  9
$DIMLUNIT
 70
     2
  9
$DIMLWD
 70
    -2
  9
$DIMLWE
 70
    -2
  9
$DIMTMOVE
 70
     0
  9
$LUNITS
 70
     2
  9
$LUPREC
 70
     4
  9
$SKETCHINC
 40
0.1
  9
$FILLETRAD
 40
0.5
  9
$AUNITS
 70
     0
  9
$AUPREC
 70
     0
  9
$MENU
  1
.
  9
$ELEVATION
 40
0.0
  9
$PELEVATION
 40
0.0
  9
$THICKNESS
 40
0.0
  9
$LIMCHECK
 70
     0
  9
$CHAMFERA
 40
0.5
  9
$CHAMFERB
 40
0.5
  9
$CHAMFERC
 40
1.0
  9
$CHAMFERD
 40
0.0
  9
$SKPOLY
 70
     0
  9
$TDCREATE
 40
2456275.681921296
  9
$TDUCREATE
 40
2456275.598587963
  9
$TDUPDATE
 40
2460427.595573704
  9
$TDUUPDATE
 40
2460427.51224037
  9
$TDINDWG
 40
0.0000000116
  9
$TDUSRTIMER
 40
0.0000000116
  9
$USRTIMER
 70
     1
  9
$ANGBASE
 50
0.0
  9
$ANGDIR
 70
     0
  9
$PDMODE
 70
     0
  9
$PDSIZE
 40
0.0
  9
$PLINEWID
 40
0.0
  9
$SPLFRAME
 70
     0
  9
$SPLINETYPE
 70
     6
  9
$SPLINESEGS
 70
     8
  9
$HANDSEED
  5
4E0
  9
$SURFTAB1
 70
     6
  9
$SURFTAB2
 70
     6
  9
$SURFTYPE
 70
     6
  9
$SURFU
 70
     6
  9
$SURFV
 70
     6
  9
$UCSBASE
  2

  9
$UCSNAME
  2

  9
$UCSORG
 10
0.0
 20
0.0
 30
0.0
  9
$UCSXDIR
 10
1.0
 20
0.0
 30
0.0
  9
$UCSYDIR
 10
0.0
 20
1.0
 30
0.0
  9
$UCSORTHOREF
  2

  9
$UCSORTHOVIEW
 70
     0
  9
$UCSORGTOP
 10
0.0
 20
0.0
 30
0.0
  9
$UCSORGBOTTOM
 10
0.0
 20
0.0
 30
0.0
  9
$UCSORGLEFT
 10
0.0
 20
0.0
 30
0.0
  9
$UCSORGRIGHT
 10
0.0
 20
0.0
 30
0.0
  9
$UCSORGFRONT
 10
0.0
 20
0.0
 30
0.0
  9
$UCSORGBACK
 10
0.0
 20
0.0
 30
0.0
  9
$PUCSBASE
  2

  9
$PUCSNAME
  2

  9
$PUCSORG
 10
0.0
 20
0.0
 30
0.0
  9
$PUCSXDIR
 10
1.0
 20
0.0
 30
0.0
  9
$PUCSYDIR
 10
0.0
 20
1.0
 30
0.0
  9
$PUCSORTHOREF
  2

  9
$PUCSORTHOVIEW
 70
     0
  9
$PUCSORGTOP
 10
0.0
 20
0.0
 30
0.0
  9
$PUCSORGBOTTOM
 10
0.0
 20
0.0
 30
0.0
  9
$PUCSORGLEFT
 10
0.0
 20
0.0
 30
0.0
  9
$PUCSORGRIGHT
 10
0.0
 20
0.0
 30
0.0
  9
$PUCSORGFRONT
 10
0.0
 20
0.0
 30
0.0
  9
$PUCSORGBACK
 10
0.0
 20
0.0
 30
0.0
  9
$USERI1
 70
     0
  9
$USERI2
 70
     0
  9
$USERI3
 70
     0
  9
$USERI4
 70
     0
  9
$USERI5
 70
     0
  9
$USERR1
 40
0.0
  9
$USERR2
 40
0.0
  9
$USERR3
 40
0.0
  9
$USERR4
 40
0.0
  9
$USERR5
 40
0.0
  9
$WORLDVIEW
 70
     1
  9
$SHADEDGE
 70
     3
  9
$SHADEDIF
 70
    70
  9
$TILEMODE
 70
     1
  9
$MAXACTVP
 70
    64
  9
$PINSBASE
 10
0.0
 20
0.0
 30
0.0
  9
$PLIMCHECK
 70
     0
  9
$PEXTMIN
 10
1.000000000000000E+20
 20
1.000000000000000E+20
 30
1.000000000000000E+20
  9
$PEXTMAX
 10
-1.000000000000000E+20
 20
-1.000000000000000E+20
 30
-1.000000000000000E+20
  9
$PLIMMIN
 10
0.0
 20
0.0
  9
$PLIMMAX
 10
12.0
 20
9.0
  9
$UNITMODE
 70
     0
  9
$VISRETAIN
 70
     1
  9
$PLINEGEN
 70
     0
  9
$PSLTSCALE
 70
     1
  9
$TREEDEPTH
 70
  3020
  9
$CMLSTYLE
  2
Standard
  9
$CMLJUST
 70
     0
  9
$CMLSCALE
 40
1.0
  9
$PROXYGRAPHICS
 70
     1
  9
$MEASUREMENT
 70
     0
  9
$CELWEIGHT
370
    -1
  9
$ENDCAPS
280
     0
  9
$JOINSTYLE
280
     0
  9
$LWDISPLAY
290
     1
  9
$INSUNITS
 70
     1
  9
$HYPERLINKBASE
  1

  9
$STYLESHEET
  1

  9
$XEDIT
290
     1
  9
$CEPSNTYPE
380
     0
  9
$PSTYLEMODE
290
     1
  9
$FINGERPRINTGUID
  2
{2B134E14-F824-66F3-9139-947C12AA1759}
  9
$VERSIONGUID
  2
{FAEB1C32-E019-11D5-929B-00C0DF256EC4}
  9
$EXTNAMES
290
     1
  9
$PSVPSCALE
 40
0.0
  9
$OLESTARTUP
290
     0
  0
ENDSEC
  0
SECTION
  2
CLASSES
  0
CLASS
  1
ACDBDICTIONARYWDFLT
  2
AcDbDictionaryWithDefault
  3
ObjectDBX Classes
 90
        0
280
     0
281
     0
  0
CLASS
  1
VISUALSTYLE
  2
AcDbVisualStyle
  3
ObjectDBX Classes
 90
     4095
280
     0
281
     0
  0
CLASS
  1
SCALE
  2
AcDbScale
  3
ObjectDBX Classes
 90
     1153
280
     0
281
     0
  0
CLASS
  1
MATERIAL
  2
AcDbMaterial
  3
ObjectDBX Classes
 90
     1153
280
     0
281
     0
  0
CLASS
  1
MLEADERSTYLE
  2
AcDbMLeaderStyle
  3
ACDB_MLEADERSTYLE_CLASS
 90
     4095
280
     0
281
     0
  0
CLASS
  1
TABLESTYLE
  2
AcDbTableStyle
  3
ObjectDBX Classes
 90
     4095
280
     0
281
     0
  0
CLASS
  1
DICTIONARYVAR
  2
AcDbDictionaryVar
  3
ObjectDBX Classes
 90
        0
280
     0
281
     0
  0
CLASS
  1
ACDBPLACEHOLDER
  2
AcDbPlaceHolder
  3
ObjectDBX Classes
 90
        0
280
     0
281
     0
  0
CLASS
  1
LAYOUT
  2
AcDbLayout
  3
ObjectDBX Classes
 90
        0
280
     0
281
     0
  0
ENDSEC
  0
SECTION
  2
TABLES
  0
TABLE
  2
VPORT
  5
8
102
{ACAD_XDICTIONARY
360
4A0
102
}
330
0
100
AcDbSymbolTable
 70
     1
  0
VPORT
  5
29
330
8
100
AcDbSymbolTableRecord
100
AcDbViewportTableRecord
  2
*Active
 70
     0
 10
0.0
 20
0.0
 11
1.0
 21
1.0
 12
0.0
 22
0.0
 13
0.0
 23
0.0
 14
0.5
 24
0.5
 15
0.5
 25
0.5
 16
0.0
 26
0.0
 36
1.0
 17
104.9514580985449
 27
148.5195423848316
 37
0.0
 40
297.0390847696631
 41
0.7066508313539193
 42
50.0
 43
0.0
 44
0.0
 50
0.0
 51
0.0
 71
     0
 72
   100
 73
     1
 74
     3
 75
     0
 76
     0
 77
     0
 78
     0
281
     0
 65
     1
110
0.0
120
0.0
130
0.0
111
1.0
121
0.0
131
0.0
112
0.0
122
1.0
132
0.0
 79
     0
146
0.0
  0
ENDTAB
  0
TABLE
  2
LTYPE
  5
5
330
0
100
AcDbSymbolTable
 70
     1
  0
LTYPE
  5
14
330
5
100
AcDbSymbolTableRecord
100
AcDbLinetypeTableRecord
  2
ByBlock
 70
     0
  3

 72
    65
 73
     0
 40
0.0
  0
LTYPE
  5
15
330
5
100
AcDbSymbolTableRecord
100
AcDbLinetypeTableRecord
  2
ByLayer
 70
     0
  3

 72
    65
 73
     0
 40
0.0
  0
LTYPE
  5
16
330
5
100
AcDbSymbolTableRecord
100
AcDbLinetypeTableRecord
  2
Continuous
 70
     0
  3
Solid line
 72
    65
 73
     0
 40
0.0
  0
ENDTAB
  0
TABLE
  2
LAYER
  5
2
330
0
100
AcDbSymbolTable
 70
     2
  0
LAYER
  5
10
330
2
100
AcDbSymbolTableRecord
100
AcDbLayerTableRecord
  2
0
 70
     0
 62
     7
  6
Continuous
370
    -3
390
F
  0
LAYER
  5
3B
330
2
100
AcDbSymbolTableRecord
100
AcDbLayerTableRecord
  2
Capa 1
 70
     0
 62
     7
  6
Continuous
370
    -3
390
F
  0
ENDTAB
  0
TABLE
  2
STYLE
  5
3
330
0
100
AcDbSymbolTable
 70
     4
  0
STYLE
  5
11
330
3
100
AcDbSymbolTableRecord
100
AcDbTextStyleTableRecord
  2
Standard
 70
     0
 40
0.0
 41
1.0
 50
0.0
 71
     0
 42
0.2
  3
txt
  4

  0
STYLE
  5
493
330
3
100
AcDbSymbolTableRecord
100
AcDbTextStyleTableRecord
  2
MtXpl_Helvetica
 70
     0
 40
0.2
 41
1.0
 50
0.0
 71
     0
 42
0.2
  3

  4

1001
ACAD
1000
Helvetica
1071
       34
  0
STYLE
  5
494
330
3
100
AcDbSymbolTableRecord
100
AcDbTextStyleTableRecord
  2
MtXpl_Helvetica1
 70
     0
 40
0.2
 41
1.0
 50
0.0
 71
     0
 42
0.2
  3

  4

1001
ACAD
1000
Helvetica
1071
 33554466
  0
STYLE
  5
495
330
3
100
AcDbSymbolTableRecord
100
AcDbTextStyleTableRecord
  2
MtXpl_Arial
 70
     0
 40
0.2
 41
1.0
 50
0.0
 71
     0
 42
0.2
  3

  4

1001
ACAD
1000
Arial
1071
       34
  0
ENDTAB
  0
TABLE
  2
VIEW
  5
6
330
0
100
AcDbSymbolTable
 70
     0
  0
ENDTAB
  0
TABLE
  2
UCS
  5
7
330
0
100
AcDbSymbolTable
 70
     0
  0
ENDTAB
  0
TABLE
  2
APPID
  5
9
330
0
100
AcDbSymbolTable
 70
     2
  0
APPID
  5
12
330
9
100
AcDbSymbolTableRecord
100
AcDbRegAppTableRecord
  2
ACAD
 70
     0
  0
APPID
  5
4DD
330
9
100
AcDbSymbolTableRecord
100
AcDbRegAppTableRecord
  2
ACAD_MLEADERVER
 70
     0
  0
ENDTAB
  0
TABLE
  2
DIMSTYLE
  5
A
330
0
100
AcDbSymbolTable
 70
     1
100
AcDbDimStyleTable
  0
DIMSTYLE
105
27
330
A
100
AcDbSymbolTableRecord
100
AcDbDimStyleTableRecord
  2
Standard
 70
     0
178
     0
340
11
  0
ENDTAB
  0
TABLE
  2
BLOCK_RECORD
  5
1
330
0
100
AcDbSymbolTable
 70
     1
  0
BLOCK_RECORD
  5
1F
330
1
100
AcDbSymbolTableRecord
100
AcDbBlockTableRecord
  2
*Model_Space
340
22
  0
BLOCK_RECORD
  5
1B
330
1
100
AcDbSymbolTableRecord
100
AcDbBlockTableRecord
  2
*Paper_Space
340
1E
  0
BLOCK_RECORD
  5
23
330
1
100
AcDbSymbolTableRecord
100
AcDbBlockTableRecord
  2
*Paper_Space0
340
26
  0
ENDTAB
  0
ENDSEC
  0
SECTION
  2
BLOCKS
  0
BLOCK
  5
20
330
1F
100
AcDbEntity
  8
0
100
AcDbBlockBegin
  2
*Model_Space
 70
     0
 10
0.0
 20
0.0
 30
0.0
  3
*Model_Space
  1

  0
ENDBLK
  5
21
330
1F
100
AcDbEntity
  8
0
100
AcDbBlockEnd
  0
BLOCK
  5
1C
330
1B
100
AcDbEntity
 67
     1
  8
0
100
AcDbBlockBegin
  2
*Paper_Space
 70
     0
 10
0.0
 20
0.0
 30
0.0
  3
*Paper_Space
  1

  0
ENDBLK
  5
1D
330
1B
100
AcDbEntity
 67
     1
  8
0
100
AcDbBlockEnd
  0
BLOCK
  5
24
330
23
100
AcDbEntity
  8
0
100
AcDbBlockBegin
  2
*Paper_Space0
 70
     0
 10
0.0
 20
0.0
 30
0.0
  3
*Paper_Space0
  1

  0
ENDBLK
  5
25
330
23
100
AcDbEntity
  8
0
100
AcDbBlockEnd
  0
ENDSEC
  0
SECTION
  2
ENTITIES
  0
MTEXT
  5
3C
330
1F
100
AcDbEntity
  8
Capa 1
 62
     7
100
AcDbMText
 10
189.4131972816126
 20
286.3856367178303
 30
0.0
 40
1.906658725071642
 41
0.0
 71
     7
 72
     1
  1
\fHelvetica|b0|i0|c0|p34;\W1;8
 11
-0.9999999999999962
 21
-8.742278000372475E-8
 31
0.0
 73
     1
 44
1.0
  0
MTEXT
  5
3D
330
1F
100
AcDbEntity
  8
Capa 1
 62
     7
100
AcDbMText
 10
7.379916162217631
 20
284.2686241455629
 30
0.0
 40
1.417169546283001
 41
0.0
 71
     7
 72
     1
  1
\fHelvetica|b0|i0|c0|p34;\W1;V1 10/10/2011
 11
1.192488045480604E-8
 21
-0.9999999999999999
 31
0.0
 73
     1
 44
1.0
  0
POLYLINE
  5
3E
330
1F
100
AcDbEntity
  8
Capa 1
 62
     7
370
    35
100
AcDb2dPolyline
 66
     1
 10
0.0
 20
0.0
 30
0.0
  0
VERTEX
  5
3F
330
3E
100
AcDbEntity
  8
Capa 1
 62
     7
370
    35
100
AcDbVertex
100
AcDb2dVertex
 10
9.962189186697815
 20
286.9778490224239
 30
0.0
  0
VERTEX
  5
40
330
3E
100
AcDbEntity
  8
Capa 1
 62
     7
370
    35
100
AcDbVertex
100
AcDb2dVertex
 10
190.005754095982
 20
286.9778490224239
 30
0.0
  0
SEQEND
  5
41
330
3E
100
AcDbEntity
  8
Capa 1
370
    35
  0
POLYLINE
  5
42
330
1F
100
AcDbEntity
  8
Capa 1
 62
     7
370
    35
100
AcDb2dPolyline
 66
     1
 10
0.0
 20
0.0
 30
0.0
  0
VERTEX
  5
43
330
42
100
AcDbEntity
  8
Capa 1
 62
     7
370
    35
100
AcDbVertex
100
AcDb2dVertex
 10
9.962189186697815
 20
286.9778490224239
 30
0.0
  0
VERTEX
  5
44
330
42
100
AcDbEntity
  8
Capa 1
 62
     7
370
    35
100
AcDbVertex
100
AcDb2dVertex
 10
9.962189186697815
 20
9.906034093243038
 30
0.0
  0
SEQEND
  5
45
330
42
100
AcDbEntity
  8
Capa 1
370
    35
  0
POLYLINE
  5
46
330
1F
100
AcDbEntity
  8
Capa 1
 62
     7
370
    35
100
AcDb2dPolyline
 66
     1
 10
0.0
 20
0.0
 30
0.0
  0
VERTEX
  5
47
330
46
100
AcDbEntity
  8
Capa 1
 62
     7
370
    35
100
AcDbVertex
100
AcDb2dVertex
 10
9.962189186697815
 20
9.948408795665967
 30
0.0
  0
VERTEX
  5
48
330
46
100
AcDbEntity
  8
Capa 1
 62
     7
370
    35
100
AcDbVertex
100
AcDb2dVertex
 10
190.005754095982
 20
9.948408795665967
 30
0.0
  0
SEQEND
  5
49
330
46
100
AcDbEntity
  8
Capa 1
370
    35
  0
POLYLINE
  5
4A
330
1F
100
AcDbEntity
  8
Capa 1
 62
     7
370
    35
100
AcDb2dPolyline
 66
     1
 10
0.0
 20
0.0
 30
0.0
  0
VERTEX
  5
4B
330
4A
100
AcDbEntity
  8
Capa 1
 62
     7
370
    35
100
AcDbVertex
100
AcDb2dVertex
 10
189.9633793935591
 20
9.948408795665967
 30
0.0
  0
VERTEX
  5
4C
330
4A
100
AcDbEntity
  8
Capa 1
 62
     7
370
    35
100
AcDbVertex
100
AcDb2dVertex
 10
189.9633793935591
 20
286.9778490224239
 30
0.0
  0
SEQEND
  5
4D
330
4A
100
AcDbEntity
  8
Capa 1
370
    35
  0
POLYLINE
  5
4E
330
1F
100
AcDbEntity
  8
Capa 1
 62
     7
370
    35
100
AcDb2dPolyline
 66
     1
 10
0.0
 20
0.0
 30
0.0
  0
VERTEX
  5
4F
330
4E
100
AcDbEntity
  8
Capa 1
 62
     7
370
    35
100
AcDbVertex
100
AcDb2dVertex
 10
189.9633793935591
 20
29.9720059844909
 30
0.0
  0
VERTEX
  5
50
330
4E
100
AcDbEntity
  8
Capa 1
 62
     7
370
    35
100
AcDbVertex
100
AcDb2dVertex
 10
9.962189186697815
 20
29.9720059844909
 30
0.0
  0
SEQEND
  5
51
330
4E
100
AcDbEntity
  8
Capa 1
370
    35
  0
POLYLINE
  5
52
330
1F
100
AcDbEntity
  8
Capa 1
 62
     7
370
    35
100
AcDb2dPolyline
 66
     1
 10
0.0
 20
0.0
 30
0.0
  0
VERTEX
  5
53
330
52
100
AcDbEntity
  8
Capa 1
 62
     7
370
    35
100
AcDbVertex
100
AcDb2dVertex
 10
91.96154474726244
 20
13.96987140853465
 30
0.0
  0
VERTEX
  5
54
330
52
100
AcDbEntity
  8
Capa 1
 62
     7
370
    35
100
AcDbVertex
100
AcDb2dVertex
 10
150.0005899109793
 20
13.96987140853465
 30
0.0
  0
SEQEND
  5
55
330
52
100
AcDbEntity
  8
Capa 1
370
    35
  0
POLYLINE
  5
56
330
1F
100
AcDbEntity
  8
Capa 1
 62
     7
370
    35
100
AcDb2dPolyline
 66
     1
 10
0.0
 20
0.0
 30
0.0
  0
VERTEX
  5
57
330
56
100
AcDbEntity
  8
Capa 1
 62
     7
370
    35
100
AcDbVertex
100
AcDb2dVertex
 10
149.9582152085564
 20
25.95019886184642
 30
0.0
  0
VERTEX
  5
58
330
56
100
AcDbEntity
  8
Capa 1
 62
     7
370
    35
100
AcDbVertex
100
AcDb2dVertex
 10
91.96154474726244
 20
25.95019886184642
 30
0.0
  0
SEQEND
  5
59
330
56
100
AcDbEntity
  8
Capa 1
370
    35
  0
POLYLINE
  5
5A
330
1F
100
AcDbEntity
  8
Capa 1
 62
     7
370
    35
100
AcDb2dPolyline
 66
     1
 10
0.0
 20
0.0
 30
0.0
  0
VERTEX
  5
5B
330
5A
100
AcDbEntity
  8
Capa 1
 62
     7
370
    35
100
AcDbVertex
100
AcDb2dVertex
 10
37.94465121596583
 20
13.96987140853465
 30
0.0
  0
VERTEX
  5
5C
330
5A
100
AcDbEntity
  8
Capa 1
 62
     7
370
    35
100
AcDbVertex
100
AcDb2dVertex
 10
37.94465121596583
 20
25.95019886184642
 30
0.0
  0
SEQEND
  5
5D
330
5A
100
AcDbEntity
  8
Capa 1
370
    35
  0
POLYLINE
  5
5E
330
1F
100
AcDbEntity
  8
Capa 1
 62
     7
370
    35
100
AcDb2dPolyline
 66
     1
 10
0.0
 20
0.0
 30
0.0
  0
VERTEX
  5
5F
330
5E
100
AcDbEntity
  8
Capa 1
 62
     7
370
    35
100
AcDbVertex
100
AcDb2dVertex
 10
89.97200079203955
 20
13.96987140853465
 30
0.0
  0
VERTEX
  5
60
330
5E
100
AcDbEntity
  8
Capa 1
 62
     7
370
    35
100
AcDbVertex
100
AcDb2dVertex
 10
89.97200079203955
 20
25.95019886184642
 30
0.0
  0
SEQEND
  5
61
330
5E
100
AcDbEntity
  8
Capa 1
370
    35
  0
POLYLINE
  5
62
330
1F
100
AcDbEntity
  8
Capa 1
 62
     7
370
    35
100
AcDb2dPolyline
 66
     1
 10
0.0
 20
0.0
 30
0.0
  0
VERTEX
  5
63
330
62
100
AcDbEntity
  8
Capa 1
 62
     7
370
    35
100
AcDbVertex
100
AcDb2dVertex
 10
149.9582152085564
 20
25.95019886184642
 30
0.0
  0
VERTEX
  5
64
330
62
100
AcDbEntity
  8
Capa 1
 62
     7
370
    35
100
AcDbVertex
100
AcDb2dVertex
 10
149.9582152085564
 20
13.92784121588751
 30
0.0
  0
SEQEND
  5
65
330
62
100
AcDbEntity
  8
Capa 1
370
    35
  0
POLYLINE
  5
66
330
1F
100
AcDbEntity
  8
Capa 1
 62
     7
370
    35
100
AcDb2dPolyline
 66
     1
 10
0.0
 20
0.0
 30
0.0
  0
VERTEX
  5
67
330
66
100
AcDbEntity
  8
Capa 1
 62
     7
370
    35
100
AcDbVertex
100
AcDb2dVertex
 10
11.95190539680859
 20
13.96987140853465
 30
0.0
  0
VERTEX
  5
68
330
66
100
AcDbEntity
  8
Capa 1
 62
     7
370
    35
100
AcDbVertex
100
AcDb2dVertex
 10
35.99730970827799
 20
13.96987140853465
 30
0.0
  0
SEQEND
  5
69
330
66
100
AcDbEntity
  8
Capa 1
370
    35
  0
POLYLINE
  5
6A
330
1F
100
AcDbEntity
  8
Capa 1
 62
     7
370
    35
100
AcDb2dPolyline
 66
     1
 10
0.0
 20
0.0
 30
0.0
  0
VERTEX
  5
6B
330
6A
100
AcDbEntity
  8
Capa 1
 62
     7
370
    35
100
AcDbVertex
100
AcDb2dVertex
 10
35.95493500585506
 20
25.95019886184642
 30
0.0
  0
VERTEX
  5
6C
330
6A
100
AcDbEntity
  8
Capa 1
 62
     7
370
    35
100
AcDbVertex
100
AcDb2dVertex
 10
11.95190539680859
 20
25.95019886184642
 30
0.0
  0
SEQEND
  5
6D
330
6A
100
AcDbEntity
  8
Capa 1
370
    35
  0
POLYLINE
  5
6E
330
1F
100
AcDbEntity
  8
Capa 1
 62
     7
370
    35
100
AcDb2dPolyline
 66
     1
 10
0.0
 20
0.0
 30
0.0
  0
VERTEX
  5
6F
330
6E
100
AcDbEntity
  8
Capa 1
 62
     7
370
    35
100
AcDbVertex
100
AcDb2dVertex
 10
37.94465121596583
 20
13.96987140853465
 30
0.0
  0
VERTEX
  5
70
330
6E
100
AcDbEntity
  8
Capa 1
 62
     7
370
    35
100
AcDbVertex
100
AcDb2dVertex
 10
90.01420323957458
 20
13.96987140853465
 30
0.0
  0
SEQEND
  5
71
330
6E
100
AcDbEntity
  8
Capa 1
370
    35
  0
POLYLINE
  5
72
330
1F
100
AcDbEntity
  8
Capa 1
 62
     7
370
    35
100
AcDb2dPolyline
 66
     1
 10
0.0
 20
0.0
 30
0.0
  0
VERTEX
  5
73
330
72
100
AcDbEntity
  8
Capa 1
 62
     7
370
    35
100
AcDbVertex
100
AcDb2dVertex
 10
89.97200079203955
 20
25.95019886184642
 30
0.0
  0
VERTEX
  5
74
330
72
100
AcDbEntity
  8
Capa 1
 62
     7
370
    35
100
AcDbVertex
100
AcDb2dVertex
 10
37.94465121596583
 20
25.95019886184642
 30
0.0
  0
SEQEND
  5
75
330
72
100
AcDbEntity
  8
Capa 1
370
    35
  0
POLYLINE
  5
76
330
1F
100
AcDbEntity
  8
Capa 1
 62
     7
370
    35
100
AcDb2dPolyline
 66
     1
 10
0.0
 20
0.0
 30
0.0
  0
VERTEX
  5
77
330
76
100
AcDbEntity
  8
Capa 1
 62
     7
370
    35
100
AcDbVertex
100
AcDb2dVertex
 10
89.97200079203955
 20
19.93884778397907
 30
0.0
  0
VERTEX
  5
78
330
76
100
AcDbEntity
  8
Capa 1
 62
     7
370
    35
100
AcDbVertex
100
AcDb2dVertex
 10
37.94465121596583
 20
19.93884778397907
 30
0.0
  0
SEQEND
  5
79
330
76
100
AcDbEntity
  8
Capa 1
370
    35
  0
POLYLINE
  5
7A
330
1F
100
AcDbEntity
  8
Capa 1
 62
     7
370
    35
100
AcDb2dPolyline
 66
     1
 10
0.0
 20
0.0
 30
0.0
  0
VERTEX
  5
7B
330
7A
100
AcDbEntity
  8
Capa 1
 62
     7
370
    35
100
AcDbVertex
100
AcDb2dVertex
 10
11.95190539680859
 20
25.95019886184642
 30
0.0
  0
VERTEX
  5
7C
330
7A
100
AcDbEntity
  8
Capa 1
 62
     7
370
    35
100
AcDbVertex
100
AcDb2dVertex
 10
11.95190539680859
 20
13.92784121588751
 30
0.0
  0
SEQEND
  5
7D
330
7A
100
AcDbEntity
  8
Capa 1
370
    35
  0
POLYLINE
  5
7E
330
1F
100
AcDbEntity
  8
Capa 1
 62
     7
370
    35
100
AcDb2dPolyline
 66
     1
 10
0.0
 20
0.0
 30
0.0
  0
VERTEX
  5
7F
330
7E
100
AcDbEntity
  8
Capa 1
 62
     7
370
    35
100
AcDbVertex
100
AcDb2dVertex
 10
91.96154474726244
 20
25.95019886184642
 30
0.0
  0
VERTEX
  5
80
330
7E
100
AcDbEntity
  8
Capa 1
 62
     7
370
    35
100
AcDbVertex
100
AcDb2dVertex
 10
91.96154474726244
 20
13.92784121588751
 30
0.0
  0
SEQEND
  5
81
330
7E
100
AcDbEntity
  8
Capa 1
370
    35
  0
POLYLINE
  5
82
330
1F
100
AcDbEntity
  8
Capa 1
 62
     7
370
    35
100
AcDb2dPolyline
 66
     1
 10
0.0
 20
0.0
 30
0.0
  0
VERTEX
  5
83
330
82
100
AcDbEntity
  8
Capa 1
 62
     7
370
    35
100
AcDbVertex
100
AcDb2dVertex
 10
35.95493500585506
 20
25.95019886184642
 30
0.0
  0
VERTEX
  5
84
330
82
100
AcDbEntity
  8
Capa 1
 62
     7
370
    35
100
AcDbVertex
100
AcDb2dVertex
 10
35.95493500585506
 20
13.92784121588751
 30
0.0
  0
SEQEND
  5
85
330
82
100
AcDbEntity
  8
Capa 1
370
    35
  0
MTEXT
  5
86
330
1F
100
AcDbEntity
  8
Capa 1
 62
     7
100
AcDbMText
 10
126.1677481311761
 20
21.84398684413188
 30
0.0
 40
3.81347095885471
 41
0.0
 71
     7
 72
     1
  1
\fHelvetica|b0|i0|c0|p34;\W1;Sol
 11
-0.9999999999999962
 21
-8.742278000372475E-8
 31
0.0
 73
     1
 44
1.0
  0
MTEXT
  5
87
330
1F
100
AcDbEntity
  8
Capa 1
 62
     7
100
AcDbMText
 10
179.7190367004842
 20
25.14611304513816
 30
0.0
 40
1.906658725071642
 41
0.0
 71
     7
 72
     1
  1
\fHelvetica|b0|i0|c0|p34;\W1;www.benito.com
 11
-0.9999999999999962
 21
-8.742278000372475E-8
 31
0.0
 73
     1
 44
1.0
  0
MTEXT
  5
88
330
1F
100
AcDbEntity
  8
Capa 1
 62
     7
100
AcDbMText
 10
183.6988136304816
 20
28.27874043645272
 30
0.0
 40
1.906658725071642
 41
0.0
 71
     7
 72
     1
  1
\fHelvetica|b0|i0|c0|p34;\W1;Tel.
 11
-0.9999999999999962
 21
-8.742278000372475E-8
 31
0.0
 73
     1
 44
1.0
  0
MTEXT
  5
89
330
1F
100
AcDbEntity
  8
Capa 1
 62
     7
100
AcDbMText
 10
177.4335588478524
 20
28.27874043645272
 30
0.0
 40
1.417169546283001
 41
0.0
 71
     7
 72
     1
  1
\fHelvetica|b0|i0|c0|p34;\W1;+34
 11
-0.9999999999999962
 21
-8.742278000372475E-8
 31
0.0
 73
     1
 44
1.0
  0
MTEXT
  5
8A
330
1F
100
AcDbEntity
  8
Capa 1
 62
     7
100
AcDbMText
 10
173.8775289420844
 20
28.27874043645272
 30
0.0
 40
1.906658725071642
 41
0.0
 71
     7
 72
     1
  1
\fHelvetica|b0|i0|c0|p34;\W1;   93 852 10 00
 11
-0.9999999999999962
 21
-8.742278000372475E-8
 31
0.0
 73
     1
 44
1.0
  0
POLYLINE
  5
8B
330
1F
100
AcDbEntity
  8
Capa 1
370
     0
100
AcDb2dPolyline
 66
     1
 10
0.0
 20
0.0
 30
0.0
  0
VERTEX
  5
8C
330
8B
100
AcDbEntity
  8
Capa 1
370
     0
100
AcDbVertex
100
AcDb2dVertex
 10
178.9142618642244
 20
19.68494407921729
 30
0.0
  0
VERTEX
  5
8D
330
8B
100
AcDbEntity
  8
Capa 1
370
     0
100
AcDbVertex
100
AcDb2dVertex
 10
162.6582235835064
 20
19.68494407921729
 30
0.0
  0
VERTEX
  5
8E
330
8B
100
AcDbEntity
  8
Capa 1
370
     0
100
AcDbVertex
100
AcDb2dVertex
 10
161.9809173642911
 20
18.2455822359409
 30
0.0
  0
VERTEX
  5
8F
330
8B
100
AcDbEntity
  8
Capa 1
370
     0
100
AcDbVertex
100
AcDb2dVertex
 10
164.2247095340515
 20
18.71135945281732
 30
0.0
  0
VERTEX
  5
90
330
8B
100
AcDbEntity
  8
Capa 1
370
     0
100
AcDbVertex
100
AcDb2dVertex
 10
164.0552107243598
 20
18.2455822359409
 30
0.0
  0
VERTEX
  5
91
330
8B
100
AcDbEntity
  8
Capa 1
370
     0
100
AcDbVertex
100
AcDb2dVertex
 10
166.3413775965432
 20
18.71135945281732
 30
0.0
  0
VERTEX
  5
92
330
8B
100
AcDbEntity
  8
Capa 1
370
     0
100
AcDbVertex
100
AcDb2dVertex
 10
166.1295040844285
 20
18.2455822359409
 30
0.0
  0
VERTEX
  5
93
330
8B
100
AcDbEntity
  8
Capa 1
370
     0
100
AcDbVertex
100
AcDb2dVertex
 10
168.373296254189
 20
18.71135945281732
 30
0.0
  0
VERTEX
  5
94
330
8B
100
AcDbEntity
  8
Capa 1
370
     0
100
AcDbVertex
100
AcDb2dVertex
 10
168.1617672518501
 20
18.2455822359409
 30
0.0
  0
VERTEX
  5
95
330
8B
100
AcDbEntity
  8
Capa 1
370
     0
100
AcDbVertex
100
AcDb2dVertex
 10
170.4475896142577
 20
18.71135945281732
 30
0.0
  0
VERTEX
  5
96
330
8B
100
AcDbEntity
  8
Capa 1
370
     0
100
AcDbVertex
100
AcDb2dVertex
 10
170.1936859094959
 20
18.2455822359409
 30
0.0
  0
VERTEX
  5
97
330
8B
100
AcDbEntity
  8
Capa 1
370
     0
100
AcDbVertex
100
AcDb2dVertex
 10
172.4795082719035
 20
18.71135945281732
 30
0.0
  0
VERTEX
  5
98
330
8B
100
AcDbEntity
  8
Capa 1
370
     0
100
AcDbVertex
100
AcDb2dVertex
 10
172.3103539719876
 20
18.2455822359409
 30
0.0
  0
VERTEX
  5
99
330
8B
100
AcDbEntity
  8
Capa 1
370
     0
100
AcDbVertex
100
AcDb2dVertex
 10
174.5961763343952
 20
18.71135945281732
 30
0.0
  0
VERTEX
  5
9A
330
8B
100
AcDbEntity
  8
Capa 1
370
     0
100
AcDbVertex
100
AcDb2dVertex
 10
174.4270220344793
 20
18.2455822359409
 30
0.0
  0
VERTEX
  5
9B
330
8B
100
AcDbEntity
  8
Capa 1
370
     0
100
AcDbVertex
100
AcDb2dVertex
 10
176.6284395018168
 20
18.71135945281732
 30
0.0
  0
VERTEX
  5
9C
330
8B
100
AcDbEntity
  8
Capa 1
370
     0
100
AcDbVertex
100
AcDb2dVertex
 10
176.3318165848563
 20
18.2455822359409
 30
0.0
  0
VERTEX
  5
9D
330
8B
100
AcDbEntity
  8
Capa 1
370
     0
100
AcDbVertex
100
AcDb2dVertex
 10
178.9142618642244
 20
18.8384835600861
 30
0.0
  0
VERTEX
  5
9E
330
8B
100
AcDbEntity
  8
Capa 1
370
     0
100
AcDbVertex
100
AcDb2dVertex
 10
178.9142618642244
 20
19.68494407921729
 30
0.0
  0
SEQEND
  5
9F
330
8B
100
AcDbEntity
  8
Capa 1
370
     0
  0
HATCH
  5
A0
330
1F
100
AcDbEntity
  8
Capa 1
 62
     7
100
AcDbHatch
 10
0.0
 20
0.0
 30
0.0
210
0.0
220
0.0
230
1.0
  2
SOLID
 70
     1
 71
     0
 91
        1
 92
        1
 93
       18
 72
     1
 10
178.9142618642244
 20
19.68494407921729
 11
162.6582235835064
 21
19.68494407921729
 72
     1
 10
162.6582235835064
 20
19.68494407921729
 11
161.9809173642911
 21
18.2455822359409
 72
     1
 10
161.9809173642911
 20
18.2455822359409
 11
164.2247095340515
 21
18.71135945281732
 72
     1
 10
164.2247095340515
 20
18.71135945281732
 11
164.0552107243598
 21
18.2455822359409
 72
     1
 10
164.0552107243598
 20
18.2455822359409
 11
166.3413775965432
 21
18.71135945281732
 72
     1
 10
166.3413775965432
 20
18.71135945281732
 11
166.1295040844285
 21
18.2455822359409
 72
     1
 10
166.1295040844285
 20
18.2455822359409
 11
168.373296254189
 21
18.71135945281732
 72
     1
 10
168.373296254189
 20
18.71135945281732
 11
168.1617672518501
 21
18.2455822359409
 72
     1
 10
168.1617672518501
 20
18.2455822359409
 11
170.4475896142577
 21
18.71135945281732
 72
     1
 10
170.4475896142577
 20
18.71135945281732
 11
170.1936859094959
 21
18.2455822359409
 72
     1
 10
170.1936859094959
 20
18.2455822359409
 11
172.4795082719035
 21
18.71135945281732
 72
     1
 10
172.4795082719035
 20
18.71135945281732
 11
172.3103539719876
 21
18.2455822359409
 72
     1
 10
172.3103539719876
 20
18.2455822359409
 11
174.5961763343952
 21
18.71135945281732
 72
     1
 10
174.5961763343952
 20
18.71135945281732
 11
174.4270220344793
 21
18.2455822359409
 72
     1
 10
174.4270220344793
 20
18.2455822359409
 11
176.6284395018168
 21
18.71135945281732
 72
     1
 10
176.6284395018168
 20
18.71135945281732
 11
176.3318165848563
 21
18.2455822359409
 72
     1
 10
176.3318165848563
 20
18.2455822359409
 11
178.9142618642244
 21
18.8384835600861
 72
     1
 10
178.9142618642244
 20
18.8384835600861
 11
178.9142618642244
 21
19.68494407921729
 97
        0
 75
     0
 76
     1
 98
        0
  0
POLYLINE
  5
A1
330
1F
100
AcDbEntity
  8
Capa 1
 62
     7
370
    35
100
AcDb2dPolyline
 66
     1
 10
0.0
 20
0.0
 30
0.0
  0
VERTEX
  5
A2
330
A1
100
AcDbEntity
  8
Capa 1
 62
     7
370
    35
100
AcDbVertex
100
AcDb2dVertex
 10
178.9142618642244
 20
19.68494407921729
 30
0.0
  0
VERTEX
  5
A3
330
A1
100
AcDbEntity
  8
Capa 1
 62
     7
370
    35
100
AcDbVertex
100
AcDb2dVertex
 10
162.6582235835064
 20
19.68494407921729
 30
0.0
  0
SEQEND
  5
A4
330
A1
100
AcDbEntity
  8
Capa 1
370
    35
  0
POLYLINE
  5
A5
330
1F
100
AcDbEntity
  8
Capa 1
 62
     7
370
    35
100
AcDb2dPolyline
 66
     1
 10
0.0
 20
0.0
 30
0.0
  0
VERTEX
  5
A6
330
A5
100
AcDbEntity
  8
Capa 1
 62
     7
370
    35
100
AcDbVertex
100
AcDb2dVertex
 10
162.6582235835064
 20
19.68494407921729
 30
0.0
  0
VERTEX
  5
A7
330
A5
100
AcDbEntity
  8
Capa 1
 62
     7
370
    35
100
AcDbVertex
100
AcDb2dVertex
 10
161.9809173642911
 20
18.20320753351797
 30
0.0
  0
SEQEND
  5
A8
330
A5
100
AcDbEntity
  8
Capa 1
370
    35
  0
POLYLINE
  5
A9
330
1F
100
AcDbEntity
  8
Capa 1
 62
     7
370
    35
100
AcDb2dPolyline
 66
     1
 10
0.0
 20
0.0
 30
0.0
  0
VERTEX
  5
AA
330
A9
100
AcDbEntity
  8
Capa 1
 62
     7
370
    35
100
AcDbVertex
100
AcDb2dVertex
 10
164.2247095340515
 20
18.71135945281732
 30
0.0
  0
VERTEX
  5
AB
330
A9
100
AcDbEntity
  8
Capa 1
 62
     7
370
    35
100
AcDbVertex
100
AcDb2dVertex
 10
161.9809173642911
 20
18.2455822359409
 30
0.0
  0
SEQEND
  5
AC
330
A9
100
AcDbEntity
  8
Capa 1
370
    35
  0
POLYLINE
  5
AD
330
1F
100
AcDbEntity
  8
Capa 1
 62
     7
370
    35
100
AcDb2dPolyline
 66
     1
 10
0.0
 20
0.0
 30
0.0
  0
VERTEX
  5
AE
330
AD
100
AcDbEntity
  8
Capa 1
 62
     7
370
    35
100
AcDbVertex
100
AcDb2dVertex
 10
164.2247095340515
 20
18.71135945281732
 30
0.0
  0
VERTEX
  5
AF
330
AD
100
AcDbEntity
  8
Capa 1
 62
     7
370
    35
100
AcDbVertex
100
AcDb2dVertex
 10
164.0552107243598
 20
18.20320753351797
 30
0.0
  0
SEQEND
  5
B0
330
AD
100
AcDbEntity
  8
Capa 1
370
    35
  0
POLYLINE
  5
B1
330
1F
100
AcDbEntity
  8
Capa 1
 62
     7
370
    35
100
AcDb2dPolyline
 66
     1
 10
0.0
 20
0.0
 30
0.0
  0
VERTEX
  5
B2
330
B1
100
AcDbEntity
  8
Capa 1
 62
     7
370
    35
100
AcDbVertex
100
AcDb2dVertex
 10
166.3413775965432
 20
18.71135945281732
 30
0.0
  0
VERTEX
  5
B3
330
B1
100
AcDbEntity
  8
Capa 1
 62
     7
370
    35
100
AcDbVertex
100
AcDb2dVertex
 10
164.0552107243598
 20
18.2455822359409
 30
0.0
  0
SEQEND
  5
B4
330
B1
100
AcDbEntity
  8
Capa 1
370
    35
  0
POLYLINE
  5
B5
330
1F
100
AcDbEntity
  8
Capa 1
 62
     7
370
    35
100
AcDb2dPolyline
 66
     1
 10
0.0
 20
0.0
 30
0.0
  0
VERTEX
  5
B6
330
B5
100
AcDbEntity
  8
Capa 1
 62
     7
370
    35
100
AcDbVertex
100
AcDb2dVertex
 10
166.3413775965432
 20
18.71135945281732
 30
0.0
  0
VERTEX
  5
B7
330
B5
100
AcDbEntity
  8
Capa 1
 62
     7
370
    35
100
AcDbVertex
100
AcDb2dVertex
 10
166.1295040844285
 20
18.20320753351797
 30
0.0
  0
SEQEND
  5
B8
330
B5
100
AcDbEntity
  8
Capa 1
370
    35
  0
POLYLINE
  5
B9
330
1F
100
AcDbEntity
  8
Capa 1
 62
     7
370
    35
100
AcDb2dPolyline
 66
     1
 10
0.0
 20
0.0
 30
0.0
  0
VERTEX
  5
BA
330
B9
100
AcDbEntity
  8
Capa 1
 62
     7
370
    35
100
AcDbVertex
100
AcDb2dVertex
 10
168.373296254189
 20
18.71135945281732
 30
0.0
  0
VERTEX
  5
BB
330
B9
100
AcDbEntity
  8
Capa 1
 62
     7
370
    35
100
AcDbVertex
100
AcDb2dVertex
 10
166.1295040844285
 20
18.2455822359409
 30
0.0
  0
SEQEND
  5
BC
330
B9
100
AcDbEntity
  8
Capa 1
370
    35
  0
POLYLINE
  5
BD
330
1F
100
AcDbEntity
  8
Capa 1
 62
     7
370
    35
100
AcDb2dPolyline
 66
     1
 10
0.0
 20
0.0
 30
0.0
  0
VERTEX
  5
BE
330
BD
100
AcDbEntity
  8
Capa 1
 62
     7
370
    35
100
AcDbVertex
100
AcDb2dVertex
 10
168.373296254189
 20
18.71135945281732
 30
0.0
  0
VERTEX
  5
BF
330
BD
100
AcDbEntity
  8
Capa 1
 62
     7
370
    35
100
AcDbVertex
100
AcDb2dVertex
 10
168.1617672518501
 20
18.20320753351797
 30
0.0
  0
SEQEND
  5
C0
330
BD
100
AcDbEntity
  8
Capa 1
370
    35
  0
POLYLINE
  5
C1
330
1F
100
AcDbEntity
  8
Capa 1
 62
     7
370
    35
100
AcDb2dPolyline
 66
     1
 10
0.0
 20
0.0
 30
0.0
  0
VERTEX
  5
C2
330
C1
100
AcDbEntity
  8
Capa 1
 62
     7
370
    35
100
AcDbVertex
100
AcDb2dVertex
 10
170.4475896142577
 20
18.71135945281732
 30
0.0
  0
VERTEX
  5
C3
330
C1
100
AcDbEntity
  8
Capa 1
 62
     7
370
    35
100
AcDbVertex
100
AcDb2dVertex
 10
168.1617672518501
 20
18.2455822359409
 30
0.0
  0
SEQEND
  5
C4
330
C1
100
AcDbEntity
  8
Capa 1
370
    35
  0
POLYLINE
  5
C5
330
1F
100
AcDbEntity
  8
Capa 1
 62
     7
370
    35
100
AcDb2dPolyline
 66
     1
 10
0.0
 20
0.0
 30
0.0
  0
VERTEX
  5
C6
330
C5
100
AcDbEntity
  8
Capa 1
 62
     7
370
    35
100
AcDbVertex
100
AcDb2dVertex
 10
170.4475896142577
 20
18.71135945281732
 30
0.0
  0
VERTEX
  5
C7
330
C5
100
AcDbEntity
  8
Capa 1
 62
     7
370
    35
100
AcDbVertex
100
AcDb2dVertex
 10
170.1936859094959
 20
18.20320753351797
 30
0.0
  0
SEQEND
  5
C8
330
C5
100
AcDbEntity
  8
Capa 1
370
    35
  0
POLYLINE
  5
C9
330
1F
100
AcDbEntity
  8
Capa 1
 62
     7
370
    35
100
AcDb2dPolyline
 66
     1
 10
0.0
 20
0.0
 30
0.0
  0
VERTEX
  5
CA
330
C9
100
AcDbEntity
  8
Capa 1
 62
     7
370
    35
100
AcDbVertex
100
AcDb2dVertex
 10
172.4795082719035
 20
18.71135945281732
 30
0.0
  0
VERTEX
  5
CB
330
C9
100
AcDbEntity
  8
Capa 1
 62
     7
370
    35
100
AcDbVertex
100
AcDb2dVertex
 10
170.1936859094959
 20
18.2455822359409
 30
0.0
  0
SEQEND
  5
CC
330
C9
100
AcDbEntity
  8
Capa 1
370
    35
  0
POLYLINE
  5
CD
330
1F
100
AcDbEntity
  8
Capa 1
 62
     7
370
    35
100
AcDb2dPolyline
 66
     1
 10
0.0
 20
0.0
 30
0.0
  0
VERTEX
  5
CE
330
CD
100
AcDbEntity
  8
Capa 1
 62
     7
370
    35
100
AcDbVertex
100
AcDb2dVertex
 10
172.4795082719035
 20
18.71135945281732
 30
0.0
  0
VERTEX
  5
CF
330
CD
100
AcDbEntity
  8
Capa 1
 62
     7
370
    35
100
AcDbVertex
100
AcDb2dVertex
 10
172.3103539719876
 20
18.20320753351797
 30
0.0
  0
SEQEND
  5
D0
330
CD
100
AcDbEntity
  8
Capa 1
370
    35
  0
POLYLINE
  5
D1
330
1F
100
AcDbEntity
  8
Capa 1
 62
     7
370
    35
100
AcDb2dPolyline
 66
     1
 10
0.0
 20
0.0
 30
0.0
  0
VERTEX
  5
D2
330
D1
100
AcDbEntity
  8
Capa 1
 62
     7
370
    35
100
AcDbVertex
100
AcDb2dVertex
 10
174.5961763343952
 20
18.71135945281732
 30
0.0
  0
VERTEX
  5
D3
330
D1
100
AcDbEntity
  8
Capa 1
 62
     7
370
    35
100
AcDbVertex
100
AcDb2dVertex
 10
172.3103539719876
 20
18.2455822359409
 30
0.0
  0
SEQEND
  5
D4
330
D1
100
AcDbEntity
  8
Capa 1
370
    35
  0
POLYLINE
  5
D5
330
1F
100
AcDbEntity
  8
Capa 1
 62
     7
370
    35
100
AcDb2dPolyline
 66
     1
 10
0.0
 20
0.0
 30
0.0
  0
VERTEX
  5
D6
330
D5
100
AcDbEntity
  8
Capa 1
 62
     7
370
    35
100
AcDbVertex
100
AcDb2dVertex
 10
174.5961763343952
 20
18.71135945281732
 30
0.0
  0
VERTEX
  5
D7
330
D5
100
AcDbEntity
  8
Capa 1
 62
     7
370
    35
100
AcDbVertex
100
AcDb2dVertex
 10
174.4270220344793
 20
18.20320753351797
 30
0.0
  0
SEQEND
  5
D8
330
D5
100
AcDbEntity
  8
Capa 1
370
    35
  0
POLYLINE
  5
D9
330
1F
100
AcDbEntity
  8
Capa 1
 62
     7
370
    35
100
AcDb2dPolyline
 66
     1
 10
0.0
 20
0.0
 30
0.0
  0
VERTEX
  5
DA
330
D9
100
AcDbEntity
  8
Capa 1
 62
     7
370
    35
100
AcDbVertex
100
AcDb2dVertex
 10
176.6708142042397
 20
18.71135945281732
 30
0.0
  0
VERTEX
  5
DB
330
D9
100
AcDbEntity
  8
Capa 1
 62
     7
370
    35
100
AcDbVertex
100
AcDb2dVertex
 10
174.4270220344793
 20
18.2455822359409
 30
0.0
  0
SEQEND
  5
DC
330
D9
100
AcDbEntity
  8
Capa 1
370
    35
  0
POLYLINE
  5
DD
330
1F
100
AcDbEntity
  8
Capa 1
 62
     7
370
    35
100
AcDb2dPolyline
 66
     1
 10
0.0
 20
0.0
 30
0.0
  0
VERTEX
  5
DE
330
DD
100
AcDbEntity
  8
Capa 1
 62
     7
370
    35
100
AcDbVertex
100
AcDb2dVertex
 10
176.6284395018168
 20
18.71135945281732
 30
0.0
  0
VERTEX
  5
DF
330
DD
100
AcDbEntity
  8
Capa 1
 62
     7
370
    35
100
AcDbVertex
100
AcDb2dVertex
 10
176.3318165848563
 20
18.20320753351797
 30
0.0
  0
SEQEND
  5
E0
330
DD
100
AcDbEntity
  8
Capa 1
370
    35
  0
POLYLINE
  5
E1
330
1F
100
AcDbEntity
  8
Capa 1
 62
     7
370
    35
100
AcDb2dPolyline
 66
     1
 10
0.0
 20
0.0
 30
0.0
  0
VERTEX
  5
E2
330
E1
100
AcDbEntity
  8
Capa 1
 62
     7
370
    35
100
AcDbVertex
100
AcDb2dVertex
 10
176.3318165848563
 20
18.2455822359409
 30
0.0
  0
VERTEX
  5
E3
330
E1
100
AcDbEntity
  8
Capa 1
 62
     7
370
    35
100
AcDbVertex
100
AcDb2dVertex
 10
178.9566365666473
 20
18.8384835600861
 30
0.0
  0
SEQEND
  5
E4
330
E1
100
AcDbEntity
  8
Capa 1
370
    35
  0
POLYLINE
  5
E5
330
1F
100
AcDbEntity
  8
Capa 1
 62
     7
370
    35
100
AcDb2dPolyline
 66
     1
 10
0.0
 20
0.0
 30
0.0
  0
VERTEX
  5
E6
330
E5
100
AcDbEntity
  8
Capa 1
 62
     7
370
    35
100
AcDbVertex
100
AcDb2dVertex
 10
178.9142618642244
 20
18.8384835600861
 30
0.0
  0
VERTEX
  5
E7
330
E5
100
AcDbEntity
  8
Capa 1
 62
     7
370
    35
100
AcDbVertex
100
AcDb2dVertex
 10
178.9142618642244
 20
19.68494407921729
 30
0.0
  0
SEQEND
  5
E8
330
E5
100
AcDbEntity
  8
Capa 1
370
    35
  0
MTEXT
  5
E9
330
1F
100
AcDbEntity
  8
Capa 1
 62
     7
100
AcDbMText
 10
179.126135376339
 20
16.93334449993329
 30
0.0
 40
1.958273341170382
 41
0.0
 71
     7
 72
     1
  1
\fHelvetica|b1|i0|c0|p34;\W1;B E N I T O
 11
-0.9999999999999962
 21
-8.742278000372475E-8
 31
0.0
 73
     1
 44
1.0
  0
MTEXT
  5
EA
330
1F
100
AcDbEntity
  8
Capa 1
 62
     7
100
AcDbMText
 10
164.9450794752413
 20
16.93334449993329
 30
0.0
 40
0.9790934319168458
 41
0.0
 71
     7
 72
     1
  1
\fHelvetica|b1|i0|c0|p34;\W1;.com
 11
-0.9999999999999962
 21
-8.742278000372475E-8
 31
0.0
 73
     1
 44
1.0
  0
POLYLINE
  5
EB
330
1F
100
AcDbEntity
  8
Capa 1
 62
     7
370
    35
100
AcDb2dPolyline
 66
     1
 10
0.0
 20
0.0
 30
0.0
  0
VERTEX
  5
EC
330
EB
100
AcDbEntity
  8
Capa 1
 62
     7
370
    35
100
AcDbVertex
100
AcDb2dVertex
 10
179.6763174882855
 20
13.37731459416524
 30
0.0
  0
VERTEX
  5
ED
330
EB
100
AcDbEntity
  8
Capa 1
 62
     7
370
    35
100
AcDbVertex
100
AcDb2dVertex
 10
161.3883605499217
 20
13.37731459416524
 30
0.0
  0
SEQEND
  5
EE
330
EB
100
AcDbEntity
  8
Capa 1
370
    35
  0
POLYLINE
  5
EF
330
1F
100
AcDbEntity
  8
Capa 1
 62
     7
370
    35
100
AcDb2dPolyline
 66
     1
 10
0.0
 20
0.0
 30
0.0
  0
VERTEX
  5
F0
330
EF
100
AcDbEntity
  8
Capa 1
 62
     7
370
    35
100
AcDbVertex
100
AcDb2dVertex
 10
161.3883605499217
 20
13.37731459416524
 30
0.0
  0
VERTEX
  5
F1
330
EF
100
AcDbEntity
  8
Capa 1
 62
     7
370
    35
100
AcDbVertex
100
AcDb2dVertex
 10
161.3883605499217
 20
21.16668062491662
 30
0.0
  0
SEQEND
  5
F2
330
EF
100
AcDbEntity
  8
Capa 1
370
    35
  0
POLYLINE
  5
F3
330
1F
100
AcDbEntity
  8
Capa 1
 62
     7
370
    35
100
AcDb2dPolyline
 66
     1
 10
0.0
 20
0.0
 30
0.0
  0
VERTEX
  5
F4
330
F3
100
AcDbEntity
  8
Capa 1
 62
     7
370
    35
100
AcDbVertex
100
AcDb2dVertex
 10
161.3883605499217
 20
21.16668062491662
 30
0.0
  0
VERTEX
  5
F5
330
F3
100
AcDbEntity
  8
Capa 1
 62
     7
370
    35
100
AcDbVertex
100
AcDb2dVertex
 10
179.7186921907084
 20
21.16668062491662
 30
0.0
  0
SEQEND
  5
F6
330
F3
100
AcDbEntity
  8
Capa 1
370
    35
  0
POLYLINE
  5
F7
330
1F
100
AcDbEntity
  8
Capa 1
 62
     7
370
    35
100
AcDb2dPolyline
 66
     1
 10
0.0
 20
0.0
 30
0.0
  0
VERTEX
  5
F8
330
F7
100
AcDbEntity
  8
Capa 1
 62
     7
370
    35
100
AcDbVertex
100
AcDb2dVertex
 10
179.6763174882855
 20
21.16668062491662
 30
0.0
  0
VERTEX
  5
F9
330
F7
100
AcDbEntity
  8
Capa 1
 62
     7
370
    35
100
AcDbVertex
100
AcDb2dVertex
 10
179.6763174882855
 20
13.33493989174231
 30
0.0
  0
SEQEND
  5
FA
330
F7
100
AcDbEntity
  8
Capa 1
370
    35
  0
MTEXT
  5
FB
330
1F
100
AcDbEntity
  8
Capa 1
 62
     7
100
AcDbMText
 10
89.29486682771218
 20
23.96065490662354
 30
0.0
 40
1.906658725071642
 41
0.0
 71
     7
 72
     1
  1
\fHelvetica|b0|i0|c0|p34;\W1;\U+00AE
 11
-0.9999999999999962
 21
-8.742278000372475E-8
 31
0.0
 73
     1
 44
1.0
  0
MTEXT
  5
FC
330
1F
100
AcDbEntity
  8
Capa 1
 62
     7
100
AcDbMText
 10
86.45851784358233
 20
23.96065490662354
 30
0.0
 40
1.958273341170382
 41
0.0
 71
     7
 72
     1
  1
\fHelvetica|b1|i0|c0|p34;\W1;BENITO
 11
-0.9999999999999962
 21
-8.742278000372475E-8
 31
0.0
 73
     1
 44
1.0
  0
MTEXT
  5
FD
330
1F
100
AcDbEntity
  8
Capa 1
 62
     7
100
AcDbMText
 10
75.28244846186672
 20
23.96065490662354
 30
0.0
 40
1.957495960244263
 41
0.0
 71
     7
 72
     1
  1
\fHelvetica Narrow|b0|i0|c0|p34;\W1;URBAN
 11
-0.9999999999999962
 21
-8.742278000372475E-8
 31
0.0
 73
     1
 44
1.0
  0
MTEXT
  5
FE
330
1F
100
AcDbEntity
  8
Capa 1
 62
     7
100
AcDbMText
 10
32.14465688554943
 20
21.12430592249369
 30
0.0
 40
2.860103161947027
 41
0.0
 71
     7
 72
     1
  1
\fHelvetica|b0|i0|c0|p34;\W1;H307-2M
 11
-0.9999999999999962
 21
-8.742278000372475E-8
 31
0.0
 73
     1
 44
1.0
  0
MTEXT
  5
FF
330
1F
100
AcDbEntity
  8
Capa 1
 62
     7
100
AcDbMText
 10
90.0572669615491
 20
17.99167853117912
 30
0.0
 40
1.958273341170382
 41
0.0
 71
     7
 72
     1
  1
\fHelvetica|b1|i0|c0|p34;\W1; BENITO
 11
-0.9999999999999962
 21
-8.742278000372475E-8
 31
0.0
 73
     1
 44
1.0
  0
MTEXT
  5
100
330
1F
100
AcDbEntity
  8
Capa 1
 62
     7
100
AcDbMText
 10
78.11879744599658
 20
17.99167853117912
 30
0.0
 40
1.957495960244263
 41
0.0
 71
     7
 72
     1
  1
\fHelvetica Narrow|b0|i0|c0|p34;\W1;URBAN
 11
-0.9999999999999962
 21
-8.742278000372475E-8
 31
0.0
 73
     1
 44
1.0
  0
POLYLINE
  5
101
330
1F
100
AcDbEntity
  8
Capa 1
 62
     7
370
    35
100
AcDb2dPolyline
 66
     1
 10
0.0
 20
0.0
 30
0.0
  0
VERTEX
  5
102
330
101
100
AcDbEntity
  8
Capa 1
 62
     7
370
    35
100
AcDbVertex
100
AcDb2dVertex
 10
149.5771873965258
 20
158.0727984676593
 30
0.0
  0
VERTEX
  5
103
330
101
100
AcDbEntity
  8
Capa 1
 62
     7
370
    35
100
AcDbVertex
100
AcDb2dVertex
 10
140.9413608466432
 20
158.0727984676593
 30
0.0
  0
SEQEND
  5
104
330
101
100
AcDbEntity
  8
Capa 1
370
    35
  0
POLYLINE
  5
105
330
1F
100
AcDbEntity
  8
Capa 1
 62
     7
370
    35
100
AcDb2dPolyline
 66
     1
 10
0.0
 20
0.0
 30
0.0
  0
VERTEX
  5
106
330
105
100
AcDbEntity
  8
Capa 1
 62
     7
370
    35
100
AcDbVertex
100
AcDb2dVertex
 10
147.7567977412189
 20
174.5827404531391
 30
0.0
  0
VERTEX
  5
107
330
105
100
AcDbEntity
  8
Capa 1
 62
     7
370
    35
100
AcDbVertex
100
AcDb2dVertex
 10
149.6195620989487
 20
174.5827404531391
 30
0.0
  0
SEQEND
  5
108
330
105
100
AcDbEntity
  8
Capa 1
370
    35
  0
POLYLINE
  5
109
330
1F
100
AcDbEntity
  8
Capa 1
 62
     7
370
    35
100
AcDb2dPolyline
 66
     1
 10
0.0
 20
0.0
 30
0.0
  0
VERTEX
  5
10A
330
109
100
AcDbEntity
  8
Capa 1
 62
     7
370
    35
100
AcDbVertex
100
AcDb2dVertex
 10
140.9413608466432
 20
174.5827404531391
 30
0.0
  0
VERTEX
  5
10B
330
109
100
AcDbEntity
  8
Capa 1
 62
     7
370
    35
100
AcDbVertex
100
AcDb2dVertex
 10
142.8041252043731
 20
174.5827404531391
 30
0.0
  0
SEQEND
  5
10C
330
109
100
AcDbEntity
  8
Capa 1
370
    35
  0
POLYLINE
  5
10D
330
1F
100
AcDbEntity
  8
Capa 1
 62
     7
370
    35
100
AcDb2dPolyline
 66
     1
 10
0.0
 20
0.0
 30
0.0
  0
VERTEX
  5
10E
330
10D
100
AcDbEntity
  8
Capa 1
 62
     7
370
    35
100
AcDbVertex
100
AcDb2dVertex
 10
147.7567977412189
 20
174.5827404531391
 30
0.0
  0
VERTEX
  5
10F
330
10D
100
AcDbEntity
  8
Capa 1
 62
     7
370
    35
100
AcDbVertex
100
AcDb2dVertex
 10
142.7617505019502
 20
174.5827404531391
 30
0.0
  0
SEQEND
  5
110
330
10D
100
AcDbEntity
  8
Capa 1
370
    35
  0
POLYLINE
  5
111
330
1F
100
AcDbEntity
  8
Capa 1
 62
     7
370
    35
100
AcDb2dPolyline
 66
     1
 10
0.0
 20
0.0
 30
0.0
  0
VERTEX
  5
112
330
111
100
AcDbEntity
  8
Capa 1
 62
     7
370
    35
100
AcDbVertex
100
AcDb2dVertex
 10
147.7567977412189
 20
176.1068517012614
 30
0.0
  0
VERTEX
  5
113
330
111
100
AcDbEntity
  8
Capa 1
 62
     7
370
    35
100
AcDbVertex
100
AcDb2dVertex
 10
147.7567977412189
 20
174.5403657507162
 30
0.0
  0
SEQEND
  5
114
330
111
100
AcDbEntity
  8
Capa 1
370
    35
  0
POLYLINE
  5
115
330
1F
100
AcDbEntity
  8
Capa 1
 62
     7
370
    35
100
AcDb2dPolyline
 66
     1
 10
0.0
 20
0.0
 30
0.0
  0
VERTEX
  5
116
330
115
100
AcDbEntity
  8
Capa 1
 62
     7
370
    35
100
AcDbVertex
100
AcDb2dVertex
 10
147.7567977412189
 20
176.1068517012614
 30
0.0
  0
VERTEX
  5
117
330
115
100
AcDbEntity
  8
Capa 1
 62
     7
370
    35
100
AcDbVertex
100
AcDb2dVertex
 10
142.7617505019502
 20
176.1068517012614
 30
0.0
  0
SEQEND
  5
118
330
115
100
AcDbEntity
  8
Capa 1
370
    35
  0
POLYLINE
  5
119
330
1F
100
AcDbEntity
  8
Capa 1
 62
     7
370
    35
100
AcDb2dPolyline
 66
     1
 10
0.0
 20
0.0
 30
0.0
  0
VERTEX
  5
11A
330
119
100
AcDbEntity
  8
Capa 1
 62
     7
370
    35
100
AcDbVertex
100
AcDb2dVertex
 10
142.7617505019502
 20
176.1068517012614
 30
0.0
  0
VERTEX
  5
11B
330
119
100
AcDbEntity
  8
Capa 1
 62
     7
370
    35
100
AcDbVertex
100
AcDb2dVertex
 10
142.7617505019502
 20
174.5403657507162
 30
0.0
  0
SEQEND
  5
11C
330
119
100
AcDbEntity
  8
Capa 1
370
    35
  0
POLYLINE
  5
11D
330
1F
100
AcDbEntity
  8
Capa 1
 62
     7
370
    35
100
AcDb2dPolyline
 66
     1
 10
0.0
 20
0.0
 30
0.0
  0
VERTEX
  5
11E
330
11D
100
AcDbEntity
  8
Capa 1
 62
     7
370
    35
100
AcDbVertex
100
AcDb2dVertex
 10
140.9413608466432
 20
174.5827404531391
 30
0.0
  0
VERTEX
  5
11F
330
11D
100
AcDbEntity
  8
Capa 1
 62
     7
370
    35
100
AcDbVertex
100
AcDb2dVertex
 10
140.9413608466432
 20
158.0304237652364
 30
0.0
  0
SEQEND
  5
120
330
11D
100
AcDbEntity
  8
Capa 1
370
    35
  0
POLYLINE
  5
121
330
1F
100
AcDbEntity
  8
Capa 1
 62
     7
370
    35
100
AcDb2dPolyline
 66
     1
 10
0.0
 20
0.0
 30
0.0
  0
VERTEX
  5
122
330
121
100
AcDbEntity
  8
Capa 1
 62
     7
370
    35
100
AcDbVertex
100
AcDb2dVertex
 10
149.5771873965258
 20
158.0727984676593
 30
0.0
  0
VERTEX
  5
123
330
121
100
AcDbEntity
  8
Capa 1
 62
     7
370
    35
100
AcDbVertex
100
AcDb2dVertex
 10
149.5771873965258
 20
174.5827404531391
 30
0.0
  0
SEQEND
  5
124
330
121
100
AcDbEntity
  8
Capa 1
370
    35
  0
POLYLINE
  5
125
330
1F
100
AcDbEntity
  8
Capa 1
 62
     7
370
    35
100
AcDb2dPolyline
 66
     1
 10
0.0
 20
0.0
 30
0.0
  0
VERTEX
  5
126
330
125
100
AcDbEntity
  8
Capa 1
 62
     7
370
    35
100
AcDbVertex
100
AcDb2dVertex
 10
149.2809089893411
 20
64.47362650114981
 30
0.0
  0
VERTEX
  5
127
330
125
100
AcDbEntity
  8
Capa 1
 62
     7
370
    35
100
AcDbVertex
100
AcDb2dVertex
 10
141.2800139562509
 20
64.47362650114981
 30
0.0
  0
SEQEND
  5
128
330
125
100
AcDbEntity
  8
Capa 1
370
    35
  0
POLYLINE
  5
129
330
1F
100
AcDbEntity
  8
Capa 1
 62
     7
370
    35
100
AcDb2dPolyline
 66
     1
 10
0.0
 20
0.0
 30
0.0
  0
VERTEX
  5
12A
330
129
100
AcDbEntity
  8
Capa 1
 62
     7
370
    35
100
AcDbVertex
100
AcDb2dVertex
 10
148.2225749580953
 20
62.35695843865815
 30
0.0
  0
VERTEX
  5
12B
330
129
100
AcDbEntity
  8
Capa 1
 62
     7
370
    35
100
AcDbVertex
100
AcDb2dVertex
 10
142.2959732850738
 20
62.35695843865815
 30
0.0
  0
SEQEND
  5
12C
330
129
100
AcDbEntity
  8
Capa 1
370
    35
  0
POLYLINE
  5
12D
330
1F
100
AcDbEntity
  8
Capa 1
 62
     7
370
    35
100
AcDb2dPolyline
 66
     1
 10
0.0
 20
0.0
 30
0.0
  0
VERTEX
  5
12E
330
12D
100
AcDbEntity
  8
Capa 1
 62
     7
370
    35
100
AcDbVertex
100
AcDb2dVertex
 10
141.0681404441362
 20
156.8027631791868
 30
0.0
  0
VERTEX
  5
12F
330
12D
100
AcDbEntity
  8
Capa 1
 62
     7
370
    35
100
AcDbVertex
100
AcDb2dVertex
 10
149.4927825014558
 20
156.8027631791868
 30
0.0
  0
SEQEND
  5
130
330
12D
100
AcDbEntity
  8
Capa 1
370
    35
  0
POLYLINE
  5
131
330
1F
100
AcDbEntity
  8
Capa 1
 62
     7
370
    35
100
AcDb2dPolyline
 66
     1
 10
0.0
 20
0.0
 30
0.0
  0
VERTEX
  5
132
330
131
100
AcDbEntity
  8
Capa 1
 62
     7
370
    35
100
AcDbVertex
100
AcDb2dVertex
 10
140.264054627428
 20
157.9880490628135
 30
0.0
  0
VERTEX
  5
133
330
131
100
AcDbEntity
  8
Capa 1
 62
     7
370
    35
100
AcDbVertex
100
AcDb2dVertex
 10
150.296868318164
 20
157.9880490628135
 30
0.0
  0
SEQEND
  5
134
330
131
100
AcDbEntity
  8
Capa 1
370
    35
  0
POLYLINE
  5
135
330
1F
100
AcDbEntity
  8
Capa 1
 62
     7
370
    35
100
AcDb2dPolyline
 66
     1
 10
0.0
 20
0.0
 30
0.0
  0
VERTEX
  5
136
330
135
100
AcDbEntity
  8
Capa 1
 62
     7
370
    35
100
AcDbVertex
100
AcDb2dVertex
 10
141.4491682561668
 20
158.0727984676593
 30
0.0
  0
VERTEX
  5
137
330
135
100
AcDbEntity
  8
Capa 1
 62
     7
370
    35
100
AcDbVertex
100
AcDb2dVertex
 10
141.4491682561668
 20
157.9456743603905
 30
0.0
  0
SEQEND
  5
138
330
135
100
AcDbEntity
  8
Capa 1
370
    35
  0
POLYLINE
  5
139
330
1F
100
AcDbEntity
  8
Capa 1
 62
     7
370
    35
100
AcDb2dPolyline
 66
     1
 10
0.0
 20
0.0
 30
0.0
  0
VERTEX
  5
13A
330
139
100
AcDbEntity
  8
Capa 1
 62
     7
370
    35
100
AcDbVertex
100
AcDb2dVertex
 10
149.0693799870023
 20
157.9880490628135
 30
0.0
  0
VERTEX
  5
13B
330
139
100
AcDbEntity
  8
Capa 1
 62
     7
370
    35
100
AcDbVertex
100
AcDb2dVertex
 10
149.0693799870023
 20
158.0727984676593
 30
0.0
  0
SEQEND
  5
13C
330
139
100
AcDbEntity
  8
Capa 1
370
    35
  0
POLYLINE
  5
13D
330
1F
100
AcDbEntity
  8
Capa 1
 62
     7
370
    35
100
AcDb2dPolyline
 66
     1
 10
0.0
 20
0.0
 30
0.0
  0
VERTEX
  5
13E
330
13D
100
AcDbEntity
  8
Capa 1
 62
     7
370
    35
100
AcDbVertex
100
AcDb2dVertex
 10
148.2225749580953
 20
62.35695843865815
 30
0.0
  0
VERTEX
  5
13F
330
13D
100
AcDbEntity
  8
Capa 1
 62
     7
370
    35
100
AcDbVertex
100
AcDb2dVertex
 10
148.0110459557564
 20
62.78036095311165
 30
0.0
  0
VERTEX
  5
140
330
13D
100
AcDbEntity
  8
Capa 1
 62
     7
370
    35
100
AcDbVertex
100
AcDb2dVertex
 10
147.9686712533335
 20
63.288512872411
 30
0.0
  0
VERTEX
  5
141
330
13D
100
AcDbEntity
  8
Capa 1
 62
     7
370
    35
100
AcDbVertex
100
AcDb2dVertex
 10
148.0957953606023
 20
63.75394557951162
 30
0.0
  0
VERTEX
  5
142
330
13D
100
AcDbEntity
  8
Capa 1
 62
     7
370
    35
100
AcDbVertex
100
AcDb2dVertex
 10
148.392073767787
 20
64.13497339154218
 30
0.0
  0
VERTEX
  5
143
330
13D
100
AcDbEntity
  8
Capa 1
 62
     7
370
    35
100
AcDbVertex
100
AcDb2dVertex
 10
148.7731015798176
 20
64.38887709630396
 30
0.0
  0
VERTEX
  5
144
330
13D
100
AcDbEntity
  8
Capa 1
 62
     7
370
    35
100
AcDbVertex
100
AcDb2dVertex
 10
149.2809089893411
 20
64.47362650114981
 30
0.0
  0
SEQEND
  5
145
330
13D
100
AcDbEntity
  8
Capa 1
370
    35
  0
POLYLINE
  5
146
330
1F
100
AcDbEntity
  8
Capa 1
 62
     7
370
    35
100
AcDb2dPolyline
 66
     1
 10
0.0
 20
0.0
 30
0.0
  0
VERTEX
  5
147
330
146
100
AcDbEntity
  8
Capa 1
 62
     7
370
    35
100
AcDbVertex
100
AcDb2dVertex
 10
141.2800139562509
 20
64.47362650114981
 30
0.0
  0
VERTEX
  5
148
330
146
100
AcDbEntity
  8
Capa 1
 62
     7
370
    35
100
AcDbVertex
100
AcDb2dVertex
 10
141.7457911731273
 20
64.38887709630396
 30
0.0
  0
VERTEX
  5
149
330
146
100
AcDbEntity
  8
Capa 1
 62
     7
370
    35
100
AcDbVertex
100
AcDb2dVertex
 10
142.168849177805
 20
64.13497339154218
 30
0.0
  0
VERTEX
  5
14A
330
146
100
AcDbEntity
  8
Capa 1
 62
     7
370
    35
100
AcDbVertex
100
AcDb2dVertex
 10
142.4230973923426
 20
63.75394557951162
 30
0.0
  0
VERTEX
  5
14B
330
146
100
AcDbEntity
  8
Capa 1
 62
     7
370
    35
100
AcDbVertex
100
AcDb2dVertex
 10
142.5498769898356
 20
63.288512872411
 30
0.0
  0
VERTEX
  5
14C
330
146
100
AcDbEntity
  8
Capa 1
 62
     7
370
    35
100
AcDbVertex
100
AcDb2dVertex
 10
142.5075022874126
 20
62.78036095311165
 30
0.0
  0
VERTEX
  5
14D
330
146
100
AcDbEntity
  8
Capa 1
 62
     7
370
    35
100
AcDbVertex
100
AcDb2dVertex
 10
142.2959732850738
 20
62.35695843865815
 30
0.0
  0
SEQEND
  5
14E
330
146
100
AcDbEntity
  8
Capa 1
370
    35
  0
POLYLINE
  5
14F
330
1F
100
AcDbEntity
  8
Capa 1
 62
     7
370
    35
100
AcDb2dPolyline
 66
     1
 10
0.0
 20
0.0
 30
0.0
  0
VERTEX
  5
150
330
14F
100
AcDbEntity
  8
Capa 1
 62
     7
370
    35
100
AcDbVertex
100
AcDb2dVertex
 10
142.2959732850738
 20
62.35695843865815
 30
0.0
  0
VERTEX
  5
151
330
14F
100
AcDbEntity
  8
Capa 1
 62
     7
370
    35
100
AcDbVertex
100
AcDb2dVertex
 10
141.7034164707044
 20
61.72202692186581
 30
0.0
  0
VERTEX
  5
152
330
14F
100
AcDbEntity
  8
Capa 1
 62
     7
370
    35
100
AcDbVertex
100
AcDb2dVertex
 10
141.237639253828
 20
61.00234600022762
 30
0.0
  0
VERTEX
  5
153
330
14F
100
AcDbEntity
  8
Capa 1
 62
     7
370
    35
100
AcDbVertex
100
AcDb2dVertex
 10
140.9413608466432
 20
60.24029037616649
 30
0.0
  0
VERTEX
  5
154
330
14F
100
AcDbEntity
  8
Capa 1
 62
     7
370
    35
100
AcDbVertex
100
AcDb2dVertex
 10
140.7718620369515
 20
59.39382985703531
 30
0.0
  0
VERTEX
  5
155
330
14F
100
AcDbEntity
  8
Capa 1
 62
     7
370
    35
100
AcDbVertex
100
AcDb2dVertex
 10
140.7718620369515
 20
58.54702482812832
 30
0.0
  0
VERTEX
  5
156
330
14F
100
AcDbEntity
  8
Capa 1
 62
     7
370
    35
100
AcDbVertex
100
AcDb2dVertex
 10
140.9413608466432
 20
57.70021979922134
 30
0.0
  0
VERTEX
  5
157
330
14F
100
AcDbEntity
  8
Capa 1
 62
     7
370
    35
100
AcDbVertex
100
AcDb2dVertex
 10
141.2800139562509
 20
56.89613398251308
 30
0.0
  0
VERTEX
  5
158
330
14F
100
AcDbEntity
  8
Capa 1
 62
     7
370
    35
100
AcDbVertex
100
AcDb2dVertex
 10
141.7457911731273
 20
56.17645306087488
 30
0.0
  0
VERTEX
  5
159
330
14F
100
AcDbEntity
  8
Capa 1
 62
     7
370
    35
100
AcDbVertex
100
AcDb2dVertex
 10
142.3383479874967
 20
55.58355173672967
 30
0.0
  0
VERTEX
  5
15A
330
14F
100
AcDbEntity
  8
Capa 1
 62
     7
370
    35
100
AcDbVertex
100
AcDb2dVertex
 10
143.015654206712
 20
55.07574432720612
 30
0.0
  0
VERTEX
  5
15B
330
14F
100
AcDbEntity
  8
Capa 1
 62
     7
370
    35
100
AcDbVertex
100
AcDb2dVertex
 10
143.820084533196
 20
54.73709121759849
 30
0.0
  0
VERTEX
  5
15C
330
14F
100
AcDbEntity
  8
Capa 1
 62
     7
370
    35
100
AcDbVertex
100
AcDb2dVertex
 10
144.6241703499043
 20
54.52521770548385
 30
0.0
  0
VERTEX
  5
15D
330
14F
100
AcDbEntity
  8
Capa 1
 62
     7
370
    35
100
AcDbVertex
100
AcDb2dVertex
 10
145.4709753788113
 20
54.48318751283671
 30
0.0
  0
VERTEX
  5
15E
330
14F
100
AcDbEntity
  8
Capa 1
 62
     7
370
    35
100
AcDbVertex
100
AcDb2dVertex
 10
146.3177804077183
 20
54.60996711032971
 30
0.0
  0
VERTEX
  5
15F
330
14F
100
AcDbEntity
  8
Capa 1
 62
     7
370
    35
100
AcDbVertex
100
AcDb2dVertex
 10
147.1218662244265
 20
54.90624551751441
 30
0.0
  0
VERTEX
  5
160
330
14F
100
AcDbEntity
  8
Capa 1
 62
     7
370
    35
100
AcDbVertex
100
AcDb2dVertex
 10
147.8839218484876
 20
55.3296480319679
 30
0.0
  0
VERTEX
  5
161
330
14F
100
AcDbEntity
  8
Capa 1
 62
     7
370
    35
100
AcDbVertex
100
AcDb2dVertex
 10
148.51885336528
 20
55.88017465369018
 30
0.0
  0
VERTEX
  5
162
330
14F
100
AcDbEntity
  8
Capa 1
 62
     7
370
    35
100
AcDbVertex
100
AcDb2dVertex
 10
149.0693799870023
 20
56.55748087290544
 30
0.0
  0
VERTEX
  5
163
330
14F
100
AcDbEntity
  8
Capa 1
 62
     7
370
    35
100
AcDbVertex
100
AcDb2dVertex
 10
149.4504077990328
 20
57.31953649696657
 30
0.0
  0
VERTEX
  5
164
330
14F
100
AcDbEntity
  8
Capa 1
 62
     7
370
    35
100
AcDbVertex
100
AcDb2dVertex
 10
149.6619368013717
 20
58.12362231367483
 30
0.0
  0
VERTEX
  5
165
330
14F
100
AcDbEntity
  8
Capa 1
 62
     7
370
    35
100
AcDbVertex
100
AcDb2dVertex
 10
149.7466862062175
 20
58.97042734258181
 30
0.0
  0
SEQEND
  5
166
330
14F
100
AcDbEntity
  8
Capa 1
370
    35
  0
POLYLINE
  5
167
330
1F
100
AcDbEntity
  8
Capa 1
 62
     7
370
    35
100
AcDb2dPolyline
 66
     1
 10
0.0
 20
0.0
 30
0.0
  0
VERTEX
  5
168
330
167
100
AcDbEntity
  8
Capa 1
 62
     7
370
    35
100
AcDbVertex
100
AcDb2dVertex
 10
149.7466862062175
 20
58.97042734258181
 30
0.0
  0
VERTEX
  5
169
330
167
100
AcDbEntity
  8
Capa 1
 62
     7
370
    35
100
AcDbVertex
100
AcDb2dVertex
 10
149.6619368013717
 20
59.94401196898179
 30
0.0
  0
VERTEX
  5
16A
330
167
100
AcDbEntity
  8
Capa 1
 62
     7
370
    35
100
AcDbVertex
100
AcDb2dVertex
 10
149.365658394187
 20
60.8331917003117
 30
0.0
  0
VERTEX
  5
16B
330
167
100
AcDbEntity
  8
Capa 1
 62
     7
370
    35
100
AcDbVertex
100
AcDb2dVertex
 10
148.8998811773105
 20
61.63727751701996
 30
0.0
  0
VERTEX
  5
16C
330
167
100
AcDbEntity
  8
Capa 1
 62
     7
370
    35
100
AcDbVertex
100
AcDb2dVertex
 10
148.2225749580953
 20
62.35695843865815
 30
0.0
  0
SEQEND
  5
16D
330
167
100
AcDbEntity
  8
Capa 1
370
    35
  0
POLYLINE
  5
16E
330
1F
100
AcDbEntity
  8
Capa 1
 62
     7
370
    35
100
AcDb2dPolyline
 66
     1
 10
0.0
 20
0.0
 30
0.0
  0
VERTEX
  5
16F
330
16E
100
AcDbEntity
  8
Capa 1
 62
     7
370
    35
100
AcDbVertex
100
AcDb2dVertex
 10
141.4491682561668
 20
156.8027631791868
 30
0.0
  0
VERTEX
  5
170
330
16E
100
AcDbEntity
  8
Capa 1
 62
     7
370
    35
100
AcDbVertex
100
AcDb2dVertex
 10
141.4491682561668
 20
64.43125179872689
 30
0.0
  0
SEQEND
  5
171
330
16E
100
AcDbEntity
  8
Capa 1
370
    35
  0
POLYLINE
  5
172
330
1F
100
AcDbEntity
  8
Capa 1
 62
     7
370
    35
100
AcDb2dPolyline
 66
     1
 10
0.0
 20
0.0
 30
0.0
  0
VERTEX
  5
173
330
172
100
AcDbEntity
  8
Capa 1
 62
     7
370
    35
100
AcDbVertex
100
AcDb2dVertex
 10
149.0693799870023
 20
64.47362650114981
 30
0.0
  0
VERTEX
  5
174
330
172
100
AcDbEntity
  8
Capa 1
 62
     7
370
    35
100
AcDbVertex
100
AcDb2dVertex
 10
149.0693799870023
 20
156.8027631791868
 30
0.0
  0
SEQEND
  5
175
330
172
100
AcDbEntity
  8
Capa 1
370
    35
  0
POLYLINE
  5
176
330
1F
100
AcDbEntity
  8
Capa 1
 62
     7
370
    35
100
AcDb2dPolyline
 66
     1
 10
0.0
 20
0.0
 30
0.0
  0
VERTEX
  5
177
330
176
100
AcDbEntity
  8
Capa 1
 62
     7
370
    35
100
AcDbVertex
100
AcDb2dVertex
 10
149.4504077990328
 20
156.8027631791868
 30
0.0
  0
VERTEX
  5
178
330
176
100
AcDbEntity
  8
Capa 1
 62
     7
370
    35
100
AcDbVertex
100
AcDb2dVertex
 10
149.8734658037105
 20
156.8873403291447
 30
0.0
  0
VERTEX
  5
179
330
176
100
AcDbEntity
  8
Capa 1
 62
     7
370
    35
100
AcDbVertex
100
AcDb2dVertex
 10
150.170088720671
 20
157.1837909912173
 30
0.0
  0
VERTEX
  5
17A
330
176
100
AcDbEntity
  8
Capa 1
 62
     7
370
    35
100
AcDbVertex
100
AcDb2dVertex
 10
150.2544936157411
 20
157.6070212507829
 30
0.0
  0
SEQEND
  5
17B
330
176
100
AcDbEntity
  8
Capa 1
370
    35
  0
POLYLINE
  5
17C
330
1F
100
AcDbEntity
  8
Capa 1
 62
     7
370
    35
100
AcDb2dPolyline
 66
     1
 10
0.0
 20
0.0
 30
0.0
  0
VERTEX
  5
17D
330
17C
100
AcDbEntity
  8
Capa 1
 62
     7
370
    35
100
AcDbVertex
100
AcDb2dVertex
 10
140.264054627428
 20
157.6070212507829
 30
0.0
  0
VERTEX
  5
17E
330
17C
100
AcDbEntity
  8
Capa 1
 62
     7
370
    35
100
AcDbVertex
100
AcDb2dVertex
 10
140.348459522498
 20
157.1837909912173
 30
0.0
  0
VERTEX
  5
17F
330
17C
100
AcDbEntity
  8
Capa 1
 62
     7
370
    35
100
AcDbVertex
100
AcDb2dVertex
 10
140.6450824394585
 20
156.8873403291447
 30
0.0
  0
VERTEX
  5
180
330
17C
100
AcDbEntity
  8
Capa 1
 62
     7
370
    35
100
AcDbVertex
100
AcDb2dVertex
 10
141.0681404441362
 20
156.8027631791868
 30
0.0
  0
SEQEND
  5
181
330
17C
100
AcDbEntity
  8
Capa 1
370
    35
  0
POLYLINE
  5
182
330
1F
100
AcDbEntity
  8
Capa 1
 62
     7
370
    35
100
AcDb2dPolyline
 66
     1
 10
0.0
 20
0.0
 30
0.0
  0
VERTEX
  5
183
330
182
100
AcDbEntity
  8
Capa 1
 62
     7
370
    35
100
AcDbVertex
100
AcDb2dVertex
 10
150.2544936157411
 20
157.6070212507829
 30
0.0
  0
VERTEX
  5
184
330
182
100
AcDbEntity
  8
Capa 1
 62
     7
370
    35
100
AcDbVertex
100
AcDb2dVertex
 10
150.2544936157411
 20
157.9880490628135
 30
0.0
  0
SEQEND
  5
185
330
182
100
AcDbEntity
  8
Capa 1
370
    35
  0
POLYLINE
  5
186
330
1F
100
AcDbEntity
  8
Capa 1
 62
     7
370
    35
100
AcDb2dPolyline
 66
     1
 10
0.0
 20
0.0
 30
0.0
  0
VERTEX
  5
187
330
186
100
AcDbEntity
  8
Capa 1
 62
     7
370
    35
100
AcDbVertex
100
AcDb2dVertex
 10
140.264054627428
 20
157.9880490628135
 30
0.0
  0
VERTEX
  5
188
330
186
100
AcDbEntity
  8
Capa 1
 62
     7
370
    35
100
AcDbVertex
100
AcDb2dVertex
 10
140.264054627428
 20
157.5648188032479
 30
0.0
  0
SEQEND
  5
189
330
186
100
AcDbEntity
  8
Capa 1
370
    35
  0
POLYLINE
  5
18A
330
1F
100
AcDbEntity
  8
Capa 1
 62
     7
370
    35
100
AcDb2dPolyline
 66
     1
 10
0.0
 20
0.0
 30
0.0
  0
VERTEX
  5
18B
330
18A
100
AcDbEntity
  8
Capa 1
 62
     7
370
    35
100
AcDbVertex
100
AcDb2dVertex
 10
142.7617505019502
 20
217.4664560698068
 30
0.0
  0
VERTEX
  5
18C
330
18A
100
AcDbEntity
  8
Capa 1
 62
     7
370
    35
100
AcDbVertex
100
AcDb2dVertex
 10
142.7617505019502
 20
216.2387954837571
 30
0.0
  0
SEQEND
  5
18D
330
18A
100
AcDbEntity
  8
Capa 1
370
    35
  0
POLYLINE
  5
18E
330
1F
100
AcDbEntity
  8
Capa 1
 62
     7
370
    35
100
AcDb2dPolyline
 66
     1
 10
0.0
 20
0.0
 30
0.0
  0
VERTEX
  5
18F
330
18E
100
AcDbEntity
  8
Capa 1
 62
     7
370
    35
100
AcDbVertex
100
AcDb2dVertex
 10
142.7617505019502
 20
216.28117018618
 30
0.0
  0
VERTEX
  5
190
330
18E
100
AcDbEntity
  8
Capa 1
 62
     7
370
    35
100
AcDbVertex
100
AcDb2dVertex
 10
147.7991724436418
 20
216.28117018618
 30
0.0
  0
SEQEND
  5
191
330
18E
100
AcDbEntity
  8
Capa 1
370
    35
  0
POLYLINE
  5
192
330
1F
100
AcDbEntity
  8
Capa 1
 62
     7
370
    35
100
AcDb2dPolyline
 66
     1
 10
0.0
 20
0.0
 30
0.0
  0
VERTEX
  5
193
330
192
100
AcDbEntity
  8
Capa 1
 62
     7
370
    35
100
AcDbVertex
100
AcDb2dVertex
 10
147.7567977412189
 20
216.28117018618
 30
0.0
  0
VERTEX
  5
194
330
192
100
AcDbEntity
  8
Capa 1
 62
     7
370
    35
100
AcDbVertex
100
AcDb2dVertex
 10
147.7567977412189
 20
217.4664560698068
 30
0.0
  0
SEQEND
  5
195
330
192
100
AcDbEntity
  8
Capa 1
370
    35
  0
POLYLINE
  5
196
330
1F
100
AcDbEntity
  8
Capa 1
 62
     7
370
    35
100
AcDb2dPolyline
 66
     1
 10
0.0
 20
0.0
 30
0.0
  0
VERTEX
  5
197
330
196
100
AcDbEntity
  8
Capa 1
 62
     7
370
    35
100
AcDbVertex
100
AcDb2dVertex
 10
147.7567977412189
 20
226.1024548745772
 30
0.0
  0
VERTEX
  5
198
330
196
100
AcDbEntity
  8
Capa 1
 62
     7
370
    35
100
AcDbVertex
100
AcDb2dVertex
 10
147.7567977412189
 20
227.2877407582039
 30
0.0
  0
SEQEND
  5
199
330
196
100
AcDbEntity
  8
Capa 1
370
    35
  0
POLYLINE
  5
19A
330
1F
100
AcDbEntity
  8
Capa 1
 62
     7
370
    35
100
AcDb2dPolyline
 66
     1
 10
0.0
 20
0.0
 30
0.0
  0
VERTEX
  5
19B
330
19A
100
AcDbEntity
  8
Capa 1
 62
     7
370
    35
100
AcDbVertex
100
AcDb2dVertex
 10
147.7567977412189
 20
227.2877407582039
 30
0.0
  0
VERTEX
  5
19C
330
19A
100
AcDbEntity
  8
Capa 1
 62
     7
370
    35
100
AcDbVertex
100
AcDb2dVertex
 10
142.7617505019502
 20
227.2877407582039
 30
0.0
  0
SEQEND
  5
19D
330
19A
100
AcDbEntity
  8
Capa 1
370
    35
  0
POLYLINE
  5
19E
330
1F
100
AcDbEntity
  8
Capa 1
 62
     7
370
    35
100
AcDb2dPolyline
 66
     1
 10
0.0
 20
0.0
 30
0.0
  0
VERTEX
  5
19F
330
19E
100
AcDbEntity
  8
Capa 1
 62
     7
370
    35
100
AcDbVertex
100
AcDb2dVertex
 10
142.7617505019502
 20
227.2877407582039
 30
0.0
  0
VERTEX
  5
1A0
330
19E
100
AcDbEntity
  8
Capa 1
 62
     7
370
    35
100
AcDbVertex
100
AcDb2dVertex
 10
142.7617505019502
 20
226.0600801721543
 30
0.0
  0
SEQEND
  5
1A1
330
19E
100
AcDbEntity
  8
Capa 1
370
    35
  0
POLYLINE
  5
1A2
330
1F
100
AcDbEntity
  8
Capa 1
 62
     7
370
    35
100
AcDb2dPolyline
 66
     1
 10
0.0
 20
0.0
 30
0.0
  0
VERTEX
  5
1A3
330
1A2
100
AcDbEntity
  8
Capa 1
 62
     7
370
    35
100
AcDbVertex
100
AcDb2dVertex
 10
140.264054627428
 20
221.784369344748
 30
0.0
  0
VERTEX
  5
1A4
330
1A2
100
AcDbEntity
  8
Capa 1
 62
     7
370
    35
100
AcDbVertex
100
AcDb2dVertex
 10
140.348459522498
 20
222.715751523613
 30
0.0
  0
VERTEX
  5
1A5
330
1A2
100
AcDbEntity
  8
Capa 1
 62
     7
370
    35
100
AcDbVertex
100
AcDb2dVertex
 10
140.6027077370356
 20
223.604759000055
 30
0.0
  0
VERTEX
  5
1A6
330
1A2
100
AcDbEntity
  8
Capa 1
 62
     7
370
    35
100
AcDbVertex
100
AcDb2dVertex
 10
141.0261102514891
 20
224.409189326539
 30
0.0
  0
VERTEX
  5
1A7
330
1A2
100
AcDbEntity
  8
Capa 1
 62
     7
370
    35
100
AcDbVertex
100
AcDb2dVertex
 10
141.5762923634356
 20
225.1710726957123
 30
0.0
  0
VERTEX
  5
1A8
330
1A2
100
AcDbEntity
  8
Capa 1
 62
     7
370
    35
100
AcDbVertex
100
AcDb2dVertex
 10
142.2535985826509
 20
225.7638017649696
 30
0.0
  0
VERTEX
  5
1A9
330
1A2
100
AcDbEntity
  8
Capa 1
 62
     7
370
    35
100
AcDbVertex
100
AcDb2dVertex
 10
143.015654206712
 20
226.271781429381
 30
0.0
  0
VERTEX
  5
1AA
330
1A2
100
AcDbEntity
  8
Capa 1
 62
     7
370
    35
100
AcDbVertex
100
AcDb2dVertex
 10
143.9044894282661
 20
226.6104345389887
 30
0.0
  0
VERTEX
  5
1AB
330
1A2
100
AcDbEntity
  8
Capa 1
 62
     7
370
    35
100
AcDbVertex
100
AcDb2dVertex
 10
144.793669159596
 20
226.7797610937925
 30
0.0
  0
VERTEX
  5
1AC
330
1A2
100
AcDbEntity
  8
Capa 1
 62
     7
370
    35
100
AcDbVertex
100
AcDb2dVertex
 10
145.7248790835731
 20
226.7797610937925
 30
0.0
  0
VERTEX
  5
1AD
330
1A2
100
AcDbEntity
  8
Capa 1
 62
     7
370
    35
100
AcDbVertex
100
AcDb2dVertex
 10
146.614058814903
 20
226.6104345389887
 30
0.0
  0
VERTEX
  5
1AE
330
1A2
100
AcDbEntity
  8
Capa 1
 62
     7
370
    35
100
AcDbVertex
100
AcDb2dVertex
 10
147.5028940364571
 20
226.271781429381
 30
0.0
  0
VERTEX
  5
1AF
330
1A2
100
AcDbEntity
  8
Capa 1
 62
     7
370
    35
100
AcDbVertex
100
AcDb2dVertex
 10
148.2649496605182
 20
225.7638017649696
 30
0.0
  0
VERTEX
  5
1B0
330
1A2
100
AcDbEntity
  8
Capa 1
 62
     7
370
    35
100
AcDbVertex
100
AcDb2dVertex
 10
148.9422558797335
 20
225.1710726957123
 30
0.0
  0
VERTEX
  5
1B1
330
1A2
100
AcDbEntity
  8
Capa 1
 62
     7
370
    35
100
AcDbVertex
100
AcDb2dVertex
 10
149.4927825014558
 20
224.409189326539
 30
0.0
  0
VERTEX
  5
1B2
330
1A2
100
AcDbEntity
  8
Capa 1
 62
     7
370
    35
100
AcDbVertex
100
AcDb2dVertex
 10
149.9158405061334
 20
223.604759000055
 30
0.0
  0
VERTEX
  5
1B3
330
1A2
100
AcDbEntity
  8
Capa 1
 62
     7
370
    35
100
AcDbVertex
100
AcDb2dVertex
 10
150.170088720671
 20
222.715751523613
 30
0.0
  0
VERTEX
  5
1B4
330
1A2
100
AcDbEntity
  8
Capa 1
 62
     7
370
    35
100
AcDbVertex
100
AcDb2dVertex
 10
150.2544936157411
 20
221.784369344748
 30
0.0
  0
VERTEX
  5
1B5
330
1A2
100
AcDbEntity
  8
Capa 1
 62
     7
370
    35
100
AcDbVertex
100
AcDb2dVertex
 10
150.170088720671
 20
220.853159420771
 30
0.0
  0
VERTEX
  5
1B6
330
1A2
100
AcDbEntity
  8
Capa 1
 62
     7
370
    35
100
AcDbVertex
100
AcDb2dVertex
 10
149.9158405061334
 20
219.964151944329
 30
0.0
  0
VERTEX
  5
1B7
330
1A2
100
AcDbEntity
  8
Capa 1
 62
     7
370
    35
100
AcDbVertex
100
AcDb2dVertex
 10
149.4927825014558
 20
219.1597216178449
 30
0.0
  0
VERTEX
  5
1B8
330
1A2
100
AcDbEntity
  8
Capa 1
 62
     7
370
    35
100
AcDbVertex
100
AcDb2dVertex
 10
148.9422558797335
 20
218.4402129510946
 30
0.0
  0
VERTEX
  5
1B9
330
1A2
100
AcDbEntity
  8
Capa 1
 62
     7
370
    35
100
AcDbVertex
100
AcDb2dVertex
 10
148.2649496605182
 20
217.8051091794144
 30
0.0
  0
VERTEX
  5
1BA
330
1A2
100
AcDbEntity
  8
Capa 1
 62
     7
370
    35
100
AcDbVertex
100
AcDb2dVertex
 10
147.5028940364571
 20
217.2971295150029
 30
0.0
  0
VERTEX
  5
1BB
330
1A2
100
AcDbEntity
  8
Capa 1
 62
     7
370
    35
100
AcDbVertex
100
AcDb2dVertex
 10
146.614058814903
 20
216.9584764053953
 30
0.0
  0
VERTEX
  5
1BC
330
1A2
100
AcDbEntity
  8
Capa 1
 62
     7
370
    35
100
AcDbVertex
100
AcDb2dVertex
 10
145.7248790835731
 20
216.7891498505915
 30
0.0
  0
VERTEX
  5
1BD
330
1A2
100
AcDbEntity
  8
Capa 1
 62
     7
370
    35
100
AcDbVertex
100
AcDb2dVertex
 10
144.793669159596
 20
216.7891498505915
 30
0.0
  0
VERTEX
  5
1BE
330
1A2
100
AcDbEntity
  8
Capa 1
 62
     7
370
    35
100
AcDbVertex
100
AcDb2dVertex
 10
143.9044894282661
 20
216.9584764053953
 30
0.0
  0
VERTEX
  5
1BF
330
1A2
100
AcDbEntity
  8
Capa 1
 62
     7
370
    35
100
AcDbVertex
100
AcDb2dVertex
 10
143.015654206712
 20
217.2971295150029
 30
0.0
  0
VERTEX
  5
1C0
330
1A2
100
AcDbEntity
  8
Capa 1
 62
     7
370
    35
100
AcDbVertex
100
AcDb2dVertex
 10
142.2535985826509
 20
217.8051091794144
 30
0.0
  0
VERTEX
  5
1C1
330
1A2
100
AcDbEntity
  8
Capa 1
 62
     7
370
    35
100
AcDbVertex
100
AcDb2dVertex
 10
141.5762923634356
 20
218.4402129510946
 30
0.0
  0
VERTEX
  5
1C2
330
1A2
100
AcDbEntity
  8
Capa 1
 62
     7
370
    35
100
AcDbVertex
100
AcDb2dVertex
 10
141.0261102514891
 20
219.1597216178449
 30
0.0
  0
VERTEX
  5
1C3
330
1A2
100
AcDbEntity
  8
Capa 1
 62
     7
370
    35
100
AcDbVertex
100
AcDb2dVertex
 10
140.6027077370356
 20
219.964151944329
 30
0.0
  0
VERTEX
  5
1C4
330
1A2
100
AcDbEntity
  8
Capa 1
 62
     7
370
    35
100
AcDbVertex
100
AcDb2dVertex
 10
140.348459522498
 20
220.853159420771
 30
0.0
  0
VERTEX
  5
1C5
330
1A2
100
AcDbEntity
  8
Capa 1
 62
     7
370
    35
100
AcDbVertex
100
AcDb2dVertex
 10
140.264054627428
 20
221.784369344748
 30
0.0
  0
SEQEND
  5
1C6
330
1A2
100
AcDbEntity
  8
Capa 1
370
    35
  0
POLYLINE
  5
1C7
330
1F
100
AcDbEntity
  8
Capa 1
 62
     7
370
    35
100
AcDb2dPolyline
 66
     1
 10
0.0
 20
0.0
 30
0.0
  0
VERTEX
  5
1C8
330
1C7
100
AcDbEntity
  8
Capa 1
 62
     7
370
    35
100
AcDbVertex
100
AcDb2dVertex
 10
140.7718620369515
 20
221.784369344748
 30
0.0
  0
VERTEX
  5
1C9
330
1C7
100
AcDbEntity
  8
Capa 1
 62
     7
370
    35
100
AcDbVertex
100
AcDb2dVertex
 10
140.8566114417974
 20
222.6735490760779
 30
0.0
  0
VERTEX
  5
1CA
330
1C7
100
AcDbEntity
  8
Capa 1
 62
     7
370
    35
100
AcDbVertex
100
AcDb2dVertex
 10
141.1105151465592
 20
223.520181850097
 30
0.0
  0
VERTEX
  5
1CB
330
1C7
100
AcDbEntity
  8
Capa 1
 62
     7
370
    35
100
AcDbVertex
100
AcDb2dVertex
 10
141.5339176610127
 20
224.2820652192702
 30
0.0
  0
VERTEX
  5
1CC
330
1C7
100
AcDbEntity
  8
Capa 1
 62
     7
370
    35
100
AcDbVertex
100
AcDb2dVertex
 10
142.0844442827349
 20
224.9593714384855
 30
0.0
  0
VERTEX
  5
1CD
330
1C7
100
AcDbEntity
  8
Capa 1
 62
     7
370
    35
100
AcDbVertex
100
AcDb2dVertex
 10
142.7617505019502
 20
225.5097258053199
 30
0.0
  0
VERTEX
  5
1CE
330
1C7
100
AcDbEntity
  8
Capa 1
 62
     7
370
    35
100
AcDbVertex
100
AcDb2dVertex
 10
143.5234616162355
 20
225.9331283197734
 30
0.0
  0
VERTEX
  5
1CF
330
1C7
100
AcDbEntity
  8
Capa 1
 62
     7
370
    35
100
AcDbVertex
100
AcDb2dVertex
 10
144.3702666451425
 20
226.1872042794231
 30
0.0
  0
VERTEX
  5
1D0
330
1C7
100
AcDbEntity
  8
Capa 1
 62
     7
370
    35
100
AcDbVertex
100
AcDb2dVertex
 10
145.2594463764724
 20
226.271781429381
 30
0.0
  0
VERTEX
  5
1D1
330
1C7
100
AcDbEntity
  8
Capa 1
 62
     7
370
    35
100
AcDbVertex
100
AcDb2dVertex
 10
146.1482815980266
 20
226.1872042794231
 30
0.0
  0
VERTEX
  5
1D2
330
1C7
100
AcDbEntity
  8
Capa 1
 62
     7
370
    35
100
AcDbVertex
100
AcDb2dVertex
 10
146.9950866269335
 20
225.9331283197734
 30
0.0
  0
VERTEX
  5
1D3
330
1C7
100
AcDbEntity
  8
Capa 1
 62
     7
370
    35
100
AcDbVertex
100
AcDb2dVertex
 10
147.7567977412189
 20
225.5097258053199
 30
0.0
  0
VERTEX
  5
1D4
330
1C7
100
AcDbEntity
  8
Capa 1
 62
     7
370
    35
100
AcDbVertex
100
AcDb2dVertex
 10
148.4344484702099
 20
224.9593714384855
 30
0.0
  0
VERTEX
  5
1D5
330
1C7
100
AcDbEntity
  8
Capa 1
 62
     7
370
    35
100
AcDbVertex
100
AcDb2dVertex
 10
148.9846305821564
 20
224.2820652192702
 30
0.0
  0
VERTEX
  5
1D6
330
1C7
100
AcDbEntity
  8
Capa 1
 62
     7
370
    35
100
AcDbVertex
100
AcDb2dVertex
 10
149.4080330966099
 20
223.520181850097
 30
0.0
  0
VERTEX
  5
1D7
330
1C7
100
AcDbEntity
  8
Capa 1
 62
     7
370
    35
100
AcDbVertex
100
AcDb2dVertex
 10
149.6619368013717
 20
222.6735490760779
 30
0.0
  0
VERTEX
  5
1D8
330
1C7
100
AcDbEntity
  8
Capa 1
 62
     7
370
    35
100
AcDbVertex
100
AcDb2dVertex
 10
149.7466862062175
 20
221.784369344748
 30
0.0
  0
VERTEX
  5
1D9
330
1C7
100
AcDbEntity
  8
Capa 1
 62
     7
370
    35
100
AcDbVertex
100
AcDb2dVertex
 10
149.6619368013717
 20
220.8955341231939
 30
0.0
  0
VERTEX
  5
1DA
330
1C7
100
AcDbEntity
  8
Capa 1
 62
     7
370
    35
100
AcDbVertex
100
AcDb2dVertex
 10
149.4080330966099
 20
220.0487290942869
 30
0.0
  0
VERTEX
  5
1DB
330
1C7
100
AcDbEntity
  8
Capa 1
 62
     7
370
    35
100
AcDbVertex
100
AcDb2dVertex
 10
148.9846305821564
 20
219.2868457251137
 30
0.0
  0
VERTEX
  5
1DC
330
1C7
100
AcDbEntity
  8
Capa 1
 62
     7
370
    35
100
AcDbVertex
100
AcDb2dVertex
 10
148.4344484702099
 20
218.6093672510105
 30
0.0
  0
VERTEX
  5
1DD
330
1C7
100
AcDbEntity
  8
Capa 1
 62
     7
370
    35
100
AcDbVertex
100
AcDb2dVertex
 10
147.7567977412189
 20
218.0591851390641
 30
0.0
  0
VERTEX
  5
1DE
330
1C7
100
AcDbEntity
  8
Capa 1
 62
     7
370
    35
100
AcDbVertex
100
AcDb2dVertex
 10
146.9950866269335
 20
217.6357826246106
 30
0.0
  0
VERTEX
  5
1DF
330
1C7
100
AcDbEntity
  8
Capa 1
 62
     7
370
    35
100
AcDbVertex
100
AcDb2dVertex
 10
146.1482815980266
 20
217.3818789198488
 30
0.0
  0
VERTEX
  5
1E0
330
1C7
100
AcDbEntity
  8
Capa 1
 62
     7
370
    35
100
AcDbVertex
100
AcDb2dVertex
 10
145.2594463764724
 20
217.2971295150029
 30
0.0
  0
VERTEX
  5
1E1
330
1C7
100
AcDbEntity
  8
Capa 1
 62
     7
370
    35
100
AcDbVertex
100
AcDb2dVertex
 10
144.3702666451425
 20
217.3818789198488
 30
0.0
  0
VERTEX
  5
1E2
330
1C7
100
AcDbEntity
  8
Capa 1
 62
     7
370
    35
100
AcDbVertex
100
AcDb2dVertex
 10
143.5234616162355
 20
217.6357826246106
 30
0.0
  0
VERTEX
  5
1E3
330
1C7
100
AcDbEntity
  8
Capa 1
 62
     7
370
    35
100
AcDbVertex
100
AcDb2dVertex
 10
142.7617505019502
 20
218.0591851390641
 30
0.0
  0
VERTEX
  5
1E4
330
1C7
100
AcDbEntity
  8
Capa 1
 62
     7
370
    35
100
AcDbVertex
100
AcDb2dVertex
 10
142.0844442827349
 20
218.6093672510105
 30
0.0
  0
VERTEX
  5
1E5
330
1C7
100
AcDbEntity
  8
Capa 1
 62
     7
370
    35
100
AcDbVertex
100
AcDb2dVertex
 10
141.5339176610127
 20
219.2868457251137
 30
0.0
  0
VERTEX
  5
1E6
330
1C7
100
AcDbEntity
  8
Capa 1
 62
     7
370
    35
100
AcDbVertex
100
AcDb2dVertex
 10
141.1105151465592
 20
220.0487290942869
 30
0.0
  0
VERTEX
  5
1E7
330
1C7
100
AcDbEntity
  8
Capa 1
 62
     7
370
    35
100
AcDbVertex
100
AcDb2dVertex
 10
140.8566114417974
 20
220.8955341231939
 30
0.0
  0
VERTEX
  5
1E8
330
1C7
100
AcDbEntity
  8
Capa 1
 62
     7
370
    35
100
AcDbVertex
100
AcDb2dVertex
 10
140.7718620369515
 20
221.784369344748
 30
0.0
  0
SEQEND
  5
1E9
330
1C7
100
AcDbEntity
  8
Capa 1
370
    35
  0
POLYLINE
  5
1EA
330
1F
100
AcDbEntity
  8
Capa 1
 62
     7
370
    25
100
AcDb2dPolyline
 66
     1
 10
0.0
 20
0.0
 30
0.0
  0
VERTEX
  5
1EB
330
1EA
100
AcDbEntity
  8
Capa 1
 62
     7
370
    25
100
AcDbVertex
100
AcDb2dVertex
 10
157.9170800489995
 20
219.2868457251137
 30
0.0
  0
VERTEX
  5
1EC
330
1EA
100
AcDbEntity
  8
Capa 1
 62
     7
370
    25
100
AcDbVertex
100
AcDb2dVertex
 10
157.4089281297001
 20
216.28117018618
 30
0.0
  0
VERTEX
  5
1ED
330
1EA
100
AcDbEntity
  8
Capa 1
 62
     7
370
    25
100
AcDbVertex
100
AcDb2dVertex
 10
156.9011207201766
 20
219.2868457251137
 30
0.0
  0
VERTEX
  5
1EE
330
1EA
100
AcDbEntity
  8
Capa 1
 62
     7
370
    25
100
AcDbVertex
100
AcDb2dVertex
 10
157.9170800489995
 20
219.2868457251137
 30
0.0
  0
SEQEND
  5
1EF
330
1EA
100
AcDbEntity
  8
Capa 1
370
    25
  0
POLYLINE
  5
1F0
330
1F
100
AcDbEntity
  8
Capa 1
370
     0
100
AcDb2dPolyline
 66
     1
 10
0.0
 20
0.0
 30
0.0
  0
VERTEX
  5
1F1
330
1F0
100
AcDbEntity
  8
Capa 1
370
     0
100
AcDbVertex
100
AcDb2dVertex
 10
157.9170800489995
 20
219.2868457251137
 30
0.0
  0
VERTEX
  5
1F2
330
1F0
100
AcDbEntity
  8
Capa 1
370
     0
100
AcDbVertex
100
AcDb2dVertex
 10
157.4089281297001
 20
216.28117018618
 30
0.0
  0
VERTEX
  5
1F3
330
1F0
100
AcDbEntity
  8
Capa 1
370
     0
100
AcDbVertex
100
AcDb2dVertex
 10
156.9011207201766
 20
219.2868457251137
 30
0.0
  0
VERTEX
  5
1F4
330
1F0
100
AcDbEntity
  8
Capa 1
370
     0
100
AcDbVertex
100
AcDb2dVertex
 10
157.9170800489995
 20
219.2868457251137
 30
0.0
  0
SEQEND
  5
1F5
330
1F0
100
AcDbEntity
  8
Capa 1
370
     0
  0
HATCH
  5
1F6
330
1F
100
AcDbEntity
  8
Capa 1
 62
     7
100
AcDbHatch
 10
0.0
 20
0.0
 30
0.0
210
0.0
220
0.0
230
1.0
  2
SOLID
 70
     1
 71
     0
 91
        1
 92
        1
 93
        3
 72
     1
 10
157.9170800489995
 20
219.2868457251137
 11
157.4089281297001
 21
216.28117018618
 72
     1
 10
157.4089281297001
 20
216.28117018618
 11
156.9011207201766
 21
219.2868457251137
 72
     1
 10
156.9011207201766
 20
219.2868457251137
 11
157.9170800489995
 21
219.2868457251137
 97
        0
 75
     0
 76
     1
 98
        0
  0
POLYLINE
  5
1F7
330
1F
100
AcDbEntity
  8
Capa 1
 62
     7
370
    25
100
AcDb2dPolyline
 66
     1
 10
0.0
 20
0.0
 30
0.0
  0
VERTEX
  5
1F8
330
1F7
100
AcDbEntity
  8
Capa 1
 62
     7
370
    25
100
AcDbVertex
100
AcDb2dVertex
 10
157.9170800489995
 20
224.2820652192702
 30
0.0
  0
VERTEX
  5
1F9
330
1F7
100
AcDbEntity
  8
Capa 1
 62
     7
370
    25
100
AcDbVertex
100
AcDb2dVertex
 10
157.4089281297001
 20
227.2877407582039
 30
0.0
  0
VERTEX
  5
1FA
330
1F7
100
AcDbEntity
  8
Capa 1
 62
     7
370
    25
100
AcDbVertex
100
AcDb2dVertex
 10
156.9011207201766
 20
224.2820652192702
 30
0.0
  0
VERTEX
  5
1FB
330
1F7
100
AcDbEntity
  8
Capa 1
 62
     7
370
    25
100
AcDbVertex
100
AcDb2dVertex
 10
157.9170800489995
 20
224.2820652192702
 30
0.0
  0
SEQEND
  5
1FC
330
1F7
100
AcDbEntity
  8
Capa 1
370
    25
  0
POLYLINE
  5
1FD
330
1F
100
AcDbEntity
  8
Capa 1
370
     0
100
AcDb2dPolyline
 66
     1
 10
0.0
 20
0.0
 30
0.0
  0
VERTEX
  5
1FE
330
1FD
100
AcDbEntity
  8
Capa 1
370
     0
100
AcDbVertex
100
AcDb2dVertex
 10
157.9170800489995
 20
224.2820652192702
 30
0.0
  0
VERTEX
  5
1FF
330
1FD
100
AcDbEntity
  8
Capa 1
370
     0
100
AcDbVertex
100
AcDb2dVertex
 10
157.4089281297001
 20
227.2877407582039
 30
0.0
  0
VERTEX
  5
200
330
1FD
100
AcDbEntity
  8
Capa 1
370
     0
100
AcDbVertex
100
AcDb2dVertex
 10
156.9011207201766
 20
224.2820652192702
 30
0.0
  0
VERTEX
  5
201
330
1FD
100
AcDbEntity
  8
Capa 1
370
     0
100
AcDbVertex
100
AcDb2dVertex
 10
157.9170800489995
 20
224.2820652192702
 30
0.0
  0
SEQEND
  5
202
330
1FD
100
AcDbEntity
  8
Capa 1
370
     0
  0
HATCH
  5
203
330
1F
100
AcDbEntity
  8
Capa 1
 62
     7
100
AcDbHatch
 10
0.0
 20
0.0
 30
0.0
210
0.0
220
0.0
230
1.0
  2
SOLID
 70
     1
 71
     0
 91
        1
 92
        1
 93
        3
 72
     1
 10
157.9170800489995
 20
224.2820652192702
 11
157.4089281297001
 21
227.2877407582039
 72
     1
 10
157.4089281297001
 20
227.2877407582039
 11
156.9011207201766
 21
224.2820652192702
 72
     1
 10
156.9011207201766
 20
224.2820652192702
 11
157.9170800489995
 21
224.2820652192702
 97
        0
 75
     0
 76
     1
 98
        0
  0
POLYLINE
  5
204
330
1F
100
AcDbEntity
  8
Capa 1
 62
     7
370
    25
100
AcDb2dPolyline
 66
     1
 10
0.0
 20
0.0
 30
0.0
  0
VERTEX
  5
205
330
204
100
AcDbEntity
  8
Capa 1
 62
     7
370
    25
100
AcDbVertex
100
AcDb2dVertex
 10
145.2594463764724
 20
216.28117018618
 30
0.0
  0
VERTEX
  5
206
330
204
100
AcDbEntity
  8
Capa 1
 62
     7
370
    25
100
AcDbVertex
100
AcDb2dVertex
 10
158.9330393778224
 20
216.28117018618
 30
0.0
  0
SEQEND
  5
207
330
204
100
AcDbEntity
  8
Capa 1
370
    25
  0
POLYLINE
  5
208
330
1F
100
AcDbEntity
  8
Capa 1
 62
     7
370
    25
100
AcDb2dPolyline
 66
     1
 10
0.0
 20
0.0
 30
0.0
  0
VERTEX
  5
209
330
208
100
AcDbEntity
  8
Capa 1
 62
     7
370
    25
100
AcDbVertex
100
AcDb2dVertex
 10
145.2594463764724
 20
227.2877407582039
 30
0.0
  0
VERTEX
  5
20A
330
208
100
AcDbEntity
  8
Capa 1
 62
     7
370
    25
100
AcDbVertex
100
AcDb2dVertex
 10
158.9330393778224
 20
227.2877407582039
 30
0.0
  0
SEQEND
  5
20B
330
208
100
AcDbEntity
  8
Capa 1
370
    25
  0
POLYLINE
  5
20C
330
1F
100
AcDbEntity
  8
Capa 1
 62
     7
370
    25
100
AcDb2dPolyline
 66
     1
 10
0.0
 20
0.0
 30
0.0
  0
VERTEX
  5
20D
330
20C
100
AcDbEntity
  8
Capa 1
 62
     7
370
    25
100
AcDbVertex
100
AcDb2dVertex
 10
157.4089281297001
 20
216.28117018618
 30
0.0
  0
VERTEX
  5
20E
330
20C
100
AcDbEntity
  8
Capa 1
 62
     7
370
    25
100
AcDbVertex
100
AcDb2dVertex
 10
157.4089281297001
 20
227.2877407582039
 30
0.0
  0
SEQEND
  5
20F
330
20C
100
AcDbEntity
  8
Capa 1
370
    25
  0
MTEXT
  5
210
330
1F
100
AcDbEntity
  8
Capa 1
 62
     7
100
AcDbMText
 10
158.1286090513383
 20
225.2983690578689
 30
0.0
 40
2.860103161947027
 41
0.0
 71
     7
 72
     1
  1
\fHelvetica|b0|i0|c0|p34;\W1;110
 11
1.192488045480604E-8
 21
-0.9999999999999999
 31
0.0
 73
     1
 44
1.0
  0
POLYLINE
  5
211
330
1F
100
AcDbEntity
  8
Capa 1
 62
     7
370
    35
100
AcDb2dPolyline
 66
     1
 10
0.0
 20
0.0
 30
0.0
  0
VERTEX
  5
212
330
211
100
AcDbEntity
  8
Capa 1
 62
     7
370
    35
100
AcDbVertex
100
AcDb2dVertex
 10
62.79431359903139
 20
158.0727984676593
 30
0.0
  0
VERTEX
  5
213
330
211
100
AcDbEntity
  8
Capa 1
 62
     7
370
    35
100
AcDbVertex
100
AcDb2dVertex
 10
54.20051724179596
 20
158.0727984676593
 30
0.0
  0
SEQEND
  5
214
330
211
100
AcDbEntity
  8
Capa 1
370
    35
  0
POLYLINE
  5
215
330
1F
100
AcDbEntity
  8
Capa 1
 62
     7
370
    35
100
AcDb2dPolyline
 66
     1
 10
0.0
 20
0.0
 30
0.0
  0
VERTEX
  5
216
330
215
100
AcDbEntity
  8
Capa 1
 62
     7
370
    35
100
AcDbVertex
100
AcDb2dVertex
 10
61.98988327254734
 20
174.5827404531391
 30
0.0
  0
VERTEX
  5
217
330
215
100
AcDbEntity
  8
Capa 1
 62
     7
370
    35
100
AcDbVertex
100
AcDb2dVertex
 10
55.00494756828001
 20
174.5827404531391
 30
0.0
  0
SEQEND
  5
218
330
215
100
AcDbEntity
  8
Capa 1
370
    35
  0
POLYLINE
  5
219
330
1F
100
AcDbEntity
  8
Capa 1
 62
     7
370
    35
100
AcDb2dPolyline
 66
     1
 10
0.0
 20
0.0
 30
0.0
  0
VERTEX
  5
21A
330
219
100
AcDbEntity
  8
Capa 1
 62
     7
370
    35
100
AcDbVertex
100
AcDb2dVertex
 10
63.97959948265811
 20
174.5827404531391
 30
0.0
  0
VERTEX
  5
21B
330
219
100
AcDbEntity
  8
Capa 1
 62
     7
370
    35
100
AcDbVertex
100
AcDb2dVertex
 10
61.98988327254734
 20
174.5827404531391
 30
0.0
  0
SEQEND
  5
21C
330
219
100
AcDbEntity
  8
Capa 1
370
    35
  0
POLYLINE
  5
21D
330
1F
100
AcDbEntity
  8
Capa 1
 62
     7
370
    35
100
AcDb2dPolyline
 66
     1
 10
0.0
 20
0.0
 30
0.0
  0
VERTEX
  5
21E
330
21D
100
AcDbEntity
  8
Capa 1
 62
     7
370
    35
100
AcDbVertex
100
AcDb2dVertex
 10
55.00494756828001
 20
174.5827404531391
 30
0.0
  0
VERTEX
  5
21F
330
21D
100
AcDbEntity
  8
Capa 1
 62
     7
370
    35
100
AcDbVertex
100
AcDb2dVertex
 10
52.97285665574631
 20
174.5827404531391
 30
0.0
  0
SEQEND
  5
220
330
21D
100
AcDbEntity
  8
Capa 1
370
    35
  0
POLYLINE
  5
221
330
1F
100
AcDbEntity
  8
Capa 1
 62
     7
370
    35
100
AcDb2dPolyline
 66
     1
 10
0.0
 20
0.0
 30
0.0
  0
VERTEX
  5
222
330
221
100
AcDbEntity
  8
Capa 1
 62
     7
370
    35
100
AcDbVertex
100
AcDb2dVertex
 10
63.97959948265811
 20
176.1068517012614
 30
0.0
  0
VERTEX
  5
223
330
221
100
AcDbEntity
  8
Capa 1
 62
     7
370
    35
100
AcDbVertex
100
AcDb2dVertex
 10
63.97959948265811
 20
174.5403657507162
 30
0.0
  0
SEQEND
  5
224
330
221
100
AcDbEntity
  8
Capa 1
370
    35
  0
POLYLINE
  5
225
330
1F
100
AcDbEntity
  8
Capa 1
 62
     7
370
    35
100
AcDb2dPolyline
 66
     1
 10
0.0
 20
0.0
 30
0.0
  0
VERTEX
  5
226
330
225
100
AcDbEntity
  8
Capa 1
 62
     7
370
    35
100
AcDbVertex
100
AcDb2dVertex
 10
63.97959948265811
 20
176.1068517012614
 30
0.0
  0
VERTEX
  5
227
330
225
100
AcDbEntity
  8
Capa 1
 62
     7
370
    35
100
AcDbVertex
100
AcDb2dVertex
 10
52.97285665574631
 20
176.1068517012614
 30
0.0
  0
SEQEND
  5
228
330
225
100
AcDbEntity
  8
Capa 1
370
    35
  0
POLYLINE
  5
229
330
1F
100
AcDbEntity
  8
Capa 1
 62
     7
370
    35
100
AcDb2dPolyline
 66
     1
 10
0.0
 20
0.0
 30
0.0
  0
VERTEX
  5
22A
330
229
100
AcDbEntity
  8
Capa 1
 62
     7
370
    35
100
AcDbVertex
100
AcDb2dVertex
 10
52.97285665574631
 20
176.1068517012614
 30
0.0
  0
VERTEX
  5
22B
330
229
100
AcDbEntity
  8
Capa 1
 62
     7
370
    35
100
AcDbVertex
100
AcDb2dVertex
 10
52.97285665574631
 20
174.5403657507162
 30
0.0
  0
SEQEND
  5
22C
330
229
100
AcDbEntity
  8
Capa 1
370
    35
  0
POLYLINE
  5
22D
330
1F
100
AcDbEntity
  8
Capa 1
 62
     7
370
    35
100
AcDb2dPolyline
 66
     1
 10
0.0
 20
0.0
 30
0.0
  0
VERTEX
  5
22E
330
22D
100
AcDbEntity
  8
Capa 1
 62
     7
370
    35
100
AcDbVertex
100
AcDb2dVertex
 10
54.20051724179596
 20
174.5827404531391
 30
0.0
  0
VERTEX
  5
22F
330
22D
100
AcDbEntity
  8
Capa 1
 62
     7
370
    35
100
AcDbVertex
100
AcDb2dVertex
 10
54.20051724179596
 20
158.0304237652364
 30
0.0
  0
SEQEND
  5
230
330
22D
100
AcDbEntity
  8
Capa 1
370
    35
  0
POLYLINE
  5
231
330
1F
100
AcDbEntity
  8
Capa 1
 62
     7
370
    35
100
AcDb2dPolyline
 66
     1
 10
0.0
 20
0.0
 30
0.0
  0
VERTEX
  5
232
330
231
100
AcDbEntity
  8
Capa 1
 62
     7
370
    35
100
AcDbVertex
100
AcDb2dVertex
 10
62.79431359903139
 20
158.0727984676593
 30
0.0
  0
VERTEX
  5
233
330
231
100
AcDbEntity
  8
Capa 1
 62
     7
370
    35
100
AcDbVertex
100
AcDb2dVertex
 10
62.79431359903139
 20
174.5827404531391
 30
0.0
  0
SEQEND
  5
234
330
231
100
AcDbEntity
  8
Capa 1
370
    35
  0
POLYLINE
  5
235
330
1F
100
AcDbEntity
  8
Capa 1
 62
     7
370
    35
100
AcDb2dPolyline
 66
     1
 10
0.0
 20
0.0
 30
0.0
  0
VERTEX
  5
236
330
235
100
AcDbEntity
  8
Capa 1
 62
     7
370
    35
100
AcDbVertex
100
AcDb2dVertex
 10
62.49786293695879
 20
64.47362650114981
 30
0.0
  0
VERTEX
  5
237
330
235
100
AcDbEntity
  8
Capa 1
 62
     7
370
    35
100
AcDbVertex
100
AcDb2dVertex
 10
54.49696790386856
 20
64.47362650114981
 30
0.0
  0
SEQEND
  5
238
330
235
100
AcDbEntity
  8
Capa 1
370
    35
  0
POLYLINE
  5
239
330
1F
100
AcDbEntity
  8
Capa 1
 62
     7
370
    35
100
AcDb2dPolyline
 66
     1
 10
0.0
 20
0.0
 30
0.0
  0
VERTEX
  5
23A
330
239
100
AcDbEntity
  8
Capa 1
 62
     7
370
    35
100
AcDbVertex
100
AcDb2dVertex
 10
61.48190360813589
 20
62.35695843865815
 30
0.0
  0
VERTEX
  5
23B
330
239
100
AcDbEntity
  8
Capa 1
 62
     7
370
    35
100
AcDbVertex
100
AcDb2dVertex
 10
55.51292723269146
 20
62.35695843865815
 30
0.0
  0
SEQEND
  5
23C
330
239
100
AcDbEntity
  8
Capa 1
370
    35
  0
POLYLINE
  5
23D
330
1F
100
AcDbEntity
  8
Capa 1
 62
     7
370
    35
100
AcDb2dPolyline
 66
     1
 10
0.0
 20
0.0
 30
0.0
  0
VERTEX
  5
23E
330
23D
100
AcDbEntity
  8
Capa 1
 62
     7
370
    35
100
AcDbVertex
100
AcDb2dVertex
 10
62.70956419418553
 20
156.8027631791868
 30
0.0
  0
VERTEX
  5
23F
330
23D
100
AcDbEntity
  8
Capa 1
 62
     7
370
    35
100
AcDbVertex
100
AcDb2dVertex
 10
54.28526664664182
 20
156.8027631791868
 30
0.0
  0
SEQEND
  5
240
330
23D
100
AcDbEntity
  8
Capa 1
370
    35
  0
POLYLINE
  5
241
330
1F
100
AcDbEntity
  8
Capa 1
 62
     7
370
    35
100
AcDb2dPolyline
 66
     1
 10
0.0
 20
0.0
 30
0.0
  0
VERTEX
  5
242
330
241
100
AcDbEntity
  8
Capa 1
 62
     7
370
    35
100
AcDbVertex
100
AcDb2dVertex
 10
63.47161981824666
 20
157.9880490628135
 30
0.0
  0
VERTEX
  5
243
330
241
100
AcDbEntity
  8
Capa 1
 62
     7
370
    35
100
AcDbVertex
100
AcDb2dVertex
 10
53.48083632015776
 20
157.9880490628135
 30
0.0
  0
SEQEND
  5
244
330
241
100
AcDbEntity
  8
Capa 1
370
    35
  0
POLYLINE
  5
245
330
1F
100
AcDbEntity
  8
Capa 1
 62
     7
370
    35
100
AcDb2dPolyline
 66
     1
 10
0.0
 20
0.0
 30
0.0
  0
VERTEX
  5
246
330
245
100
AcDbEntity
  8
Capa 1
 62
     7
370
    35
100
AcDbVertex
100
AcDb2dVertex
 10
54.70849690620741
 20
158.0727984676593
 30
0.0
  0
VERTEX
  5
247
330
245
100
AcDbEntity
  8
Capa 1
 62
     7
370
    35
100
AcDbVertex
100
AcDb2dVertex
 10
54.70849690620741
 20
157.9456743603905
 30
0.0
  0
SEQEND
  5
248
330
245
100
AcDbEntity
  8
Capa 1
370
    35
  0
POLYLINE
  5
249
330
1F
100
AcDbEntity
  8
Capa 1
 62
     7
370
    35
100
AcDb2dPolyline
 66
     1
 10
0.0
 20
0.0
 30
0.0
  0
VERTEX
  5
24A
330
249
100
AcDbEntity
  8
Capa 1
 62
     7
370
    35
100
AcDbVertex
100
AcDb2dVertex
 10
62.28633393461994
 20
157.9880490628135
 30
0.0
  0
VERTEX
  5
24B
330
249
100
AcDbEntity
  8
Capa 1
 62
     7
370
    35
100
AcDbVertex
100
AcDb2dVertex
 10
62.28633393461994
 20
158.0727984676593
 30
0.0
  0
SEQEND
  5
24C
330
249
100
AcDbEntity
  8
Capa 1
370
    35
  0
POLYLINE
  5
24D
330
1F
100
AcDbEntity
  8
Capa 1
 62
     7
370
    35
100
AcDb2dPolyline
 66
     1
 10
0.0
 20
0.0
 30
0.0
  0
VERTEX
  5
24E
330
24D
100
AcDbEntity
  8
Capa 1
 62
     7
370
    35
100
AcDbVertex
100
AcDb2dVertex
 10
61.48190360813589
 20
62.35695843865815
 30
0.0
  0
VERTEX
  5
24F
330
24D
100
AcDbEntity
  8
Capa 1
 62
     7
370
    35
100
AcDbVertex
100
AcDb2dVertex
 10
61.2279999033741
 20
62.78036095311165
 30
0.0
  0
VERTEX
  5
250
330
24D
100
AcDbEntity
  8
Capa 1
 62
     7
370
    35
100
AcDbVertex
100
AcDb2dVertex
 10
61.18562520095118
 20
63.288512872411
 30
0.0
  0
VERTEX
  5
251
330
24D
100
AcDbEntity
  8
Capa 1
 62
     7
370
    35
100
AcDbVertex
100
AcDb2dVertex
 10
61.31257705333207
 20
63.75394557951162
 30
0.0
  0
VERTEX
  5
252
330
24D
100
AcDbEntity
  8
Capa 1
 62
     7
370
    35
100
AcDbVertex
100
AcDb2dVertex
 10
61.60885546051677
 20
64.13497339154218
 30
0.0
  0
VERTEX
  5
253
330
24D
100
AcDbEntity
  8
Capa 1
 62
     7
370
    35
100
AcDbVertex
100
AcDb2dVertex
 10
62.03225797497026
 20
64.38887709630396
 30
0.0
  0
VERTEX
  5
254
330
24D
100
AcDbEntity
  8
Capa 1
 62
     7
370
    35
100
AcDbVertex
100
AcDb2dVertex
 10
62.49786293695879
 20
64.47362650114981
 30
0.0
  0
SEQEND
  5
255
330
24D
100
AcDbEntity
  8
Capa 1
370
    35
  0
POLYLINE
  5
256
330
1F
100
AcDbEntity
  8
Capa 1
 62
     7
370
    35
100
AcDb2dPolyline
 66
     1
 10
0.0
 20
0.0
 30
0.0
  0
VERTEX
  5
257
330
256
100
AcDbEntity
  8
Capa 1
 62
     7
370
    35
100
AcDbVertex
100
AcDb2dVertex
 10
54.49696790386856
 20
64.47362650114981
 30
0.0
  0
VERTEX
  5
258
330
256
100
AcDbEntity
  8
Capa 1
 62
     7
370
    35
100
AcDbVertex
100
AcDb2dVertex
 10
54.96257286585708
 20
64.38887709630396
 30
0.0
  0
VERTEX
  5
259
330
256
100
AcDbEntity
  8
Capa 1
 62
     7
370
    35
100
AcDbVertex
100
AcDb2dVertex
 10
55.38597538031058
 20
64.13497339154218
 30
0.0
  0
VERTEX
  5
25A
330
256
100
AcDbEntity
  8
Capa 1
 62
     7
370
    35
100
AcDbVertex
100
AcDb2dVertex
 10
55.68225378749528
 20
63.75394557951162
 30
0.0
  0
VERTEX
  5
25B
330
256
100
AcDbEntity
  8
Capa 1
 62
     7
370
    35
100
AcDbVertex
100
AcDb2dVertex
 10
55.80920563987617
 20
63.288512872411
 30
0.0
  0
VERTEX
  5
25C
330
256
100
AcDbEntity
  8
Capa 1
 62
     7
370
    35
100
AcDbVertex
100
AcDb2dVertex
 10
55.72462848991821
 20
62.78036095311165
 30
0.0
  0
VERTEX
  5
25D
330
256
100
AcDbEntity
  8
Capa 1
 62
     7
370
    35
100
AcDbVertex
100
AcDb2dVertex
 10
55.51292723269146
 20
62.35695843865815
 30
0.0
  0
SEQEND
  5
25E
330
256
100
AcDbEntity
  8
Capa 1
370
    35
  0
POLYLINE
  5
25F
330
1F
100
AcDbEntity
  8
Capa 1
 62
     7
370
    35
100
AcDb2dPolyline
 66
     1
 10
0.0
 20
0.0
 30
0.0
  0
VERTEX
  5
260
330
25F
100
AcDbEntity
  8
Capa 1
 62
     7
370
    35
100
AcDbVertex
100
AcDb2dVertex
 10
55.51292723269146
 20
62.35695843865815
 30
0.0
  0
VERTEX
  5
261
330
25F
100
AcDbEntity
  8
Capa 1
 62
     7
370
    35
100
AcDbVertex
100
AcDb2dVertex
 10
54.92019816343416
 20
61.72202692186581
 30
0.0
  0
VERTEX
  5
262
330
25F
100
AcDbEntity
  8
Capa 1
 62
     7
370
    35
100
AcDbVertex
100
AcDb2dVertex
 10
54.49696790386856
 20
61.00234600022762
 30
0.0
  0
VERTEX
  5
263
330
25F
100
AcDbEntity
  8
Capa 1
 62
     7
370
    35
100
AcDbVertex
100
AcDb2dVertex
 10
54.15831479426092
 20
60.24029037616649
 30
0.0
  0
VERTEX
  5
264
330
25F
100
AcDbEntity
  8
Capa 1
 62
     7
370
    35
100
AcDbVertex
100
AcDb2dVertex
 10
53.98898823945711
 20
59.39382985703531
 30
0.0
  0
VERTEX
  5
265
330
25F
100
AcDbEntity
  8
Capa 1
 62
     7
370
    35
100
AcDbVertex
100
AcDb2dVertex
 10
54.03119068699214
 20
58.54702482812832
 30
0.0
  0
VERTEX
  5
266
330
25F
100
AcDbEntity
  8
Capa 1
 62
     7
370
    35
100
AcDbVertex
100
AcDb2dVertex
 10
54.20051724179596
 20
57.70021979922134
 30
0.0
  0
VERTEX
  5
267
330
25F
100
AcDbEntity
  8
Capa 1
 62
     7
370
    35
100
AcDbVertex
100
AcDb2dVertex
 10
54.49696790386856
 20
56.89613398251308
 30
0.0
  0
VERTEX
  5
268
330
25F
100
AcDbEntity
  8
Capa 1
 62
     7
370
    35
100
AcDbVertex
100
AcDb2dVertex
 10
54.96257286585708
 20
56.17645306087488
 30
0.0
  0
VERTEX
  5
269
330
25F
100
AcDbEntity
  8
Capa 1
 62
     7
370
    35
100
AcDbVertex
100
AcDb2dVertex
 10
55.55530193511439
 20
55.58355173672967
 30
0.0
  0
VERTEX
  5
26A
330
25F
100
AcDbEntity
  8
Capa 1
 62
     7
370
    35
100
AcDbVertex
100
AcDb2dVertex
 10
56.27498285675259
 20
55.07574432720612
 30
0.0
  0
VERTEX
  5
26B
330
25F
100
AcDbEntity
  8
Capa 1
 62
     7
370
    35
100
AcDbVertex
100
AcDb2dVertex
 10
57.03686622592581
 20
54.73709121759849
 30
0.0
  0
VERTEX
  5
26C
330
25F
100
AcDbEntity
  8
Capa 1
 62
     7
370
    35
100
AcDbVertex
100
AcDb2dVertex
 10
57.8834989999449
 20
54.52521770548385
 30
0.0
  0
VERTEX
  5
26D
330
25F
100
AcDbEntity
  8
Capa 1
 62
     7
370
    35
100
AcDbVertex
100
AcDb2dVertex
 10
58.73030402885188
 20
54.48318751283671
 30
0.0
  0
VERTEX
  5
26E
330
25F
100
AcDbEntity
  8
Capa 1
 62
     7
370
    35
100
AcDbVertex
100
AcDb2dVertex
 10
59.57693680287097
 20
54.60996711032971
 30
0.0
  0
VERTEX
  5
26F
330
25F
100
AcDbEntity
  8
Capa 1
 62
     7
370
    35
100
AcDbVertex
100
AcDb2dVertex
 10
60.38119487446713
 20
54.90624551751441
 30
0.0
  0
VERTEX
  5
270
330
25F
100
AcDbEntity
  8
Capa 1
 62
     7
370
    35
100
AcDbVertex
100
AcDb2dVertex
 10
61.10087579610532
 20
55.3296480319679
 30
0.0
  0
VERTEX
  5
271
330
25F
100
AcDbEntity
  8
Capa 1
 62
     7
370
    35
100
AcDbVertex
100
AcDb2dVertex
 10
61.73597956778556
 20
55.88017465369018
 30
0.0
  0
VERTEX
  5
272
330
25F
100
AcDbEntity
  8
Capa 1
 62
     7
370
    35
100
AcDbVertex
100
AcDb2dVertex
 10
62.28633393461994
 20
56.55748087290544
 30
0.0
  0
VERTEX
  5
273
330
25F
100
AcDbEntity
  8
Capa 1
 62
     7
370
    35
100
AcDbVertex
100
AcDb2dVertex
 10
62.66718949176261
 20
57.31953649696657
 30
0.0
  0
VERTEX
  5
274
330
25F
100
AcDbEntity
  8
Capa 1
 62
     7
370
    35
100
AcDbVertex
100
AcDb2dVertex
 10
62.92126545141227
 20
58.12362231367483
 30
0.0
  0
VERTEX
  5
275
330
25F
100
AcDbEntity
  8
Capa 1
 62
     7
370
    35
100
AcDbVertex
100
AcDb2dVertex
 10
63.00584260137024
 20
58.97042734258181
 30
0.0
  0
SEQEND
  5
276
330
25F
100
AcDbEntity
  8
Capa 1
370
    35
  0
POLYLINE
  5
277
330
1F
100
AcDbEntity
  8
Capa 1
 62
     7
370
    35
100
AcDb2dPolyline
 66
     1
 10
0.0
 20
0.0
 30
0.0
  0
VERTEX
  5
278
330
277
100
AcDbEntity
  8
Capa 1
 62
     7
370
    35
100
AcDbVertex
100
AcDb2dVertex
 10
63.00584260137024
 20
58.97042734258181
 30
0.0
  0
VERTEX
  5
279
330
277
100
AcDbEntity
  8
Capa 1
 62
     7
370
    35
100
AcDbVertex
100
AcDb2dVertex
 10
62.87889074898935
 20
59.94401196898179
 30
0.0
  0
VERTEX
  5
27A
330
277
100
AcDbEntity
  8
Capa 1
 62
     7
370
    35
100
AcDbVertex
100
AcDb2dVertex
 10
62.58261234180464
 20
60.8331917003117
 30
0.0
  0
VERTEX
  5
27B
330
277
100
AcDbEntity
  8
Capa 1
 62
     7
370
    35
100
AcDbVertex
100
AcDb2dVertex
 10
62.11683512492822
 20
61.63727751701996
 30
0.0
  0
VERTEX
  5
27C
330
277
100
AcDbEntity
  8
Capa 1
 62
     7
370
    35
100
AcDbVertex
100
AcDb2dVertex
 10
61.48190360813589
 20
62.35695843865815
 30
0.0
  0
SEQEND
  5
27D
330
277
100
AcDbEntity
  8
Capa 1
370
    35
  0
POLYLINE
  5
27E
330
1F
100
AcDbEntity
  8
Capa 1
 62
     7
370
    35
100
AcDb2dPolyline
 66
     1
 10
0.0
 20
0.0
 30
0.0
  0
VERTEX
  5
27F
330
27E
100
AcDbEntity
  8
Capa 1
 62
     7
370
    35
100
AcDbVertex
100
AcDb2dVertex
 10
54.70849690620741
 20
156.8027631791868
 30
0.0
  0
VERTEX
  5
280
330
27E
100
AcDbEntity
  8
Capa 1
 62
     7
370
    35
100
AcDbVertex
100
AcDb2dVertex
 10
54.70849690620741
 20
64.43125179872689
 30
0.0
  0
SEQEND
  5
281
330
27E
100
AcDbEntity
  8
Capa 1
370
    35
  0
POLYLINE
  5
282
330
1F
100
AcDbEntity
  8
Capa 1
 62
     7
370
    35
100
AcDb2dPolyline
 66
     1
 10
0.0
 20
0.0
 30
0.0
  0
VERTEX
  5
283
330
282
100
AcDbEntity
  8
Capa 1
 62
     7
370
    35
100
AcDbVertex
100
AcDb2dVertex
 10
62.28633393461994
 20
64.47362650114981
 30
0.0
  0
VERTEX
  5
284
330
282
100
AcDbEntity
  8
Capa 1
 62
     7
370
    35
100
AcDbVertex
100
AcDb2dVertex
 10
62.28633393461994
 20
156.8027631791868
 30
0.0
  0
SEQEND
  5
285
330
282
100
AcDbEntity
  8
Capa 1
370
    35
  0
POLYLINE
  5
286
330
1F
100
AcDbEntity
  8
Capa 1
 62
     7
370
    35
100
AcDb2dPolyline
 66
     1
 10
0.0
 20
0.0
 30
0.0
  0
VERTEX
  5
287
330
286
100
AcDbEntity
  8
Capa 1
 62
     7
370
    35
100
AcDbVertex
100
AcDb2dVertex
 10
62.70956419418553
 20
156.8027631791868
 30
0.0
  0
VERTEX
  5
288
330
286
100
AcDbEntity
  8
Capa 1
 62
     7
370
    35
100
AcDbVertex
100
AcDb2dVertex
 10
63.09059200621609
 20
156.8873403291447
 30
0.0
  0
VERTEX
  5
289
330
286
100
AcDbEntity
  8
Capa 1
 62
     7
370
    35
100
AcDbVertex
100
AcDb2dVertex
 10
63.3868704134008
 20
157.1837909912173
 30
0.0
  0
VERTEX
  5
28A
330
286
100
AcDbEntity
  8
Capa 1
 62
     7
370
    35
100
AcDbVertex
100
AcDb2dVertex
 10
63.47161981824666
 20
157.6070212507829
 30
0.0
  0
SEQEND
  5
28B
330
286
100
AcDbEntity
  8
Capa 1
370
    35
  0
POLYLINE
  5
28C
330
1F
100
AcDbEntity
  8
Capa 1
 62
     7
370
    35
100
AcDb2dPolyline
 66
     1
 10
0.0
 20
0.0
 30
0.0
  0
VERTEX
  5
28D
330
28C
100
AcDbEntity
  8
Capa 1
 62
     7
370
    35
100
AcDbVertex
100
AcDb2dVertex
 10
53.48083632015776
 20
157.6070212507829
 30
0.0
  0
VERTEX
  5
28E
330
28C
100
AcDbEntity
  8
Capa 1
 62
     7
370
    35
100
AcDbVertex
100
AcDb2dVertex
 10
53.60796042742655
 20
157.1837909912173
 30
0.0
  0
VERTEX
  5
28F
330
28C
100
AcDbEntity
  8
Capa 1
 62
     7
370
    35
100
AcDbVertex
100
AcDb2dVertex
 10
53.90423883461126
 20
156.8873403291447
 30
0.0
  0
VERTEX
  5
290
330
28C
100
AcDbEntity
  8
Capa 1
 62
     7
370
    35
100
AcDbVertex
100
AcDb2dVertex
 10
54.28526664664182
 20
156.8027631791868
 30
0.0
  0
SEQEND
  5
291
330
28C
100
AcDbEntity
  8
Capa 1
370
    35
  0
POLYLINE
  5
292
330
1F
100
AcDbEntity
  8
Capa 1
 62
     7
370
    35
100
AcDb2dPolyline
 66
     1
 10
0.0
 20
0.0
 30
0.0
  0
VERTEX
  5
293
330
292
100
AcDbEntity
  8
Capa 1
 62
     7
370
    35
100
AcDbVertex
100
AcDb2dVertex
 10
63.47161981824666
 20
157.6070212507829
 30
0.0
  0
VERTEX
  5
294
330
292
100
AcDbEntity
  8
Capa 1
 62
     7
370
    35
100
AcDbVertex
100
AcDb2dVertex
 10
63.47161981824666
 20
157.9880490628135
 30
0.0
  0
SEQEND
  5
295
330
292
100
AcDbEntity
  8
Capa 1
370
    35
  0
POLYLINE
  5
296
330
1F
100
AcDbEntity
  8
Capa 1
 62
     7
370
    35
100
AcDb2dPolyline
 66
     1
 10
0.0
 20
0.0
 30
0.0
  0
VERTEX
  5
297
330
296
100
AcDbEntity
  8
Capa 1
 62
     7
370
    35
100
AcDbVertex
100
AcDb2dVertex
 10
53.48083632015776
 20
157.9880490628135
 30
0.0
  0
VERTEX
  5
298
330
296
100
AcDbEntity
  8
Capa 1
 62
     7
370
    35
100
AcDbVertex
100
AcDb2dVertex
 10
53.48083632015776
 20
157.5648188032479
 30
0.0
  0
SEQEND
  5
299
330
296
100
AcDbEntity
  8
Capa 1
370
    35
  0
POLYLINE
  5
29A
330
1F
100
AcDbEntity
  8
Capa 1
 62
     7
370
    35
100
AcDb2dPolyline
 66
     1
 10
0.0
 20
0.0
 30
0.0
  0
VERTEX
  5
29B
330
29A
100
AcDbEntity
  8
Capa 1
 62
     7
370
    35
100
AcDbVertex
100
AcDb2dVertex
 10
61.48190360813589
 20
275.4207518286777
 30
0.0
  0
VERTEX
  5
29C
330
29A
100
AcDbEntity
  8
Capa 1
 62
     7
370
    35
100
AcDbVertex
100
AcDb2dVertex
 10
61.354951755755
 20
275.9289037479771
 30
0.0
  0
VERTEX
  5
29D
330
29A
100
AcDbEntity
  8
Capa 1
 62
     7
370
    35
100
AcDbVertex
100
AcDb2dVertex
 10
61.10087579610532
 20
276.3521340075427
 30
0.0
  0
VERTEX
  5
29E
330
29A
100
AcDbEntity
  8
Capa 1
 62
     7
370
    35
100
AcDbVertex
100
AcDb2dVertex
 10
60.67764553653973
 20
276.7755365219962
 30
0.0
  0
VERTEX
  5
29F
330
29A
100
AcDbEntity
  8
Capa 1
 62
     7
370
    35
100
AcDbVertex
100
AcDb2dVertex
 10
60.08491646728242
 20
277.1141896316038
 30
0.0
  0
VERTEX
  5
2A0
330
29A
100
AcDbEntity
  8
Capa 1
 62
     7
370
    35
100
AcDbVertex
100
AcDb2dVertex
 10
59.40761024806715
 20
277.4104680387885
 30
0.0
  0
VERTEX
  5
2A1
330
29A
100
AcDbEntity
  8
Capa 1
 62
     7
370
    35
100
AcDbVertex
100
AcDb2dVertex
 10
58.6031799215831
 20
277.5797945935923
 30
0.0
  0
VERTEX
  5
2A2
330
29A
100
AcDbEntity
  8
Capa 1
 62
     7
370
    35
100
AcDbVertex
100
AcDb2dVertex
 10
57.79892184998694
 20
277.6645439984382
 30
0.0
  0
VERTEX
  5
2A3
330
29A
100
AcDbEntity
  8
Capa 1
 62
     7
370
    35
100
AcDbVertex
100
AcDb2dVertex
 10
56.95228907596785
 20
277.6221692960153
 30
0.0
  0
SEQEND
  5
2A4
330
29A
100
AcDbEntity
  8
Capa 1
370
    35
  0
POLYLINE
  5
2A5
330
1F
100
AcDbEntity
  8
Capa 1
 62
     7
370
    35
100
AcDb2dPolyline
 66
     1
 10
0.0
 20
0.0
 30
0.0
  0
VERTEX
  5
2A6
330
2A5
100
AcDbEntity
  8
Capa 1
 62
     7
370
    35
100
AcDbVertex
100
AcDb2dVertex
 10
56.95228907596785
 20
277.6221692960153
 30
0.0
  0
VERTEX
  5
2A7
330
2A5
100
AcDbEntity
  8
Capa 1
 62
     7
370
    35
100
AcDbVertex
100
AcDb2dVertex
 10
56.19023345190673
 20
277.4952174436344
 30
0.0
  0
VERTEX
  5
2A8
330
2A5
100
AcDbEntity
  8
Capa 1
 62
     7
370
    35
100
AcDbVertex
100
AcDb2dVertex
 10
55.47055253026853
 20
277.2835161864077
 30
0.0
  0
VERTEX
  5
2A9
330
2A5
100
AcDbEntity
  8
Capa 1
 62
     7
370
    35
100
AcDbVertex
100
AcDb2dVertex
 10
54.83562101347619
 20
276.9872377792229
 30
0.0
  0
VERTEX
  5
2AA
330
2A5
100
AcDbEntity
  8
Capa 1
 62
     7
370
    35
100
AcDbVertex
100
AcDb2dVertex
 10
54.36984379659977
 20
276.6485846696153
 30
0.0
  0
VERTEX
  5
2AB
330
2A5
100
AcDbEntity
  8
Capa 1
 62
     7
370
    35
100
AcDbVertex
100
AcDb2dVertex
 10
53.98898823945711
 20
276.2251821551618
 30
0.0
  0
VERTEX
  5
2AC
330
2A5
100
AcDbEntity
  8
Capa 1
 62
     7
370
    35
100
AcDbVertex
100
AcDb2dVertex
 10
53.77728698223036
 20
275.8017796407083
 30
0.0
  0
SEQEND
  5
2AD
330
2A5
100
AcDbEntity
  8
Capa 1
370
    35
  0
POLYLINE
  5
2AE
330
1F
100
AcDbEntity
  8
Capa 1
 62
     7
370
    35
100
AcDb2dPolyline
 66
     1
 10
0.0
 20
0.0
 30
0.0
  0
VERTEX
  5
2AF
330
2AE
100
AcDbEntity
  8
Capa 1
 62
     7
370
    35
100
AcDbVertex
100
AcDb2dVertex
 10
53.77728698223036
 20
275.8017796407083
 30
0.0
  0
VERTEX
  5
2B0
330
2AE
100
AcDbEntity
  8
Capa 1
 62
     7
370
    35
100
AcDbVertex
100
AcDb2dVertex
 10
53.73491227980744
 20
275.3785493811427
 30
0.0
  0
SEQEND
  5
2B1
330
2AE
100
AcDbEntity
  8
Capa 1
370
    35
  0
POLYLINE
  5
2B2
330
1F
100
AcDbEntity
  8
Capa 1
 62
     7
370
    35
100
AcDb2dPolyline
 66
     1
 10
0.0
 20
0.0
 30
0.0
  0
VERTEX
  5
2B3
330
2B2
100
AcDbEntity
  8
Capa 1
 62
     7
370
    35
100
AcDbVertex
100
AcDb2dVertex
 10
61.48190360813589
 20
273.6005344282587
 30
0.0
  0
VERTEX
  5
2B4
330
2B2
100
AcDbEntity
  8
Capa 1
 62
     7
370
    35
100
AcDbVertex
100
AcDb2dVertex
 10
62.70956419418553
 20
274.3202153498969
 30
0.0
  0
SEQEND
  5
2B5
330
2B2
100
AcDbEntity
  8
Capa 1
370
    35
  0
POLYLINE
  5
2B6
330
1F
100
AcDbEntity
  8
Capa 1
 62
     7
370
    35
100
AcDb2dPolyline
 66
     1
 10
0.0
 20
0.0
 30
0.0
  0
VERTEX
  5
2B7
330
2B6
100
AcDbEntity
  8
Capa 1
 62
     7
370
    35
100
AcDbVertex
100
AcDb2dVertex
 10
62.66718949176261
 20
274.3202153498969
 30
0.0
  0
VERTEX
  5
2B8
330
2B6
100
AcDbEntity
  8
Capa 1
 62
     7
370
    35
100
AcDbVertex
100
AcDb2dVertex
 10
61.48190360813589
 20
275.0398962715351
 30
0.0
  0
SEQEND
  5
2B9
330
2B6
100
AcDbEntity
  8
Capa 1
370
    35
  0
POLYLINE
  5
2BA
330
1F
100
AcDbEntity
  8
Capa 1
 62
     7
370
    35
100
AcDb2dPolyline
 66
     1
 10
0.0
 20
0.0
 30
0.0
  0
VERTEX
  5
2BB
330
2BA
100
AcDbEntity
  8
Capa 1
 62
     7
370
    35
100
AcDbVertex
100
AcDb2dVertex
 10
56.95228907596785
 20
277.6221692960153
 30
0.0
  0
VERTEX
  5
2BC
330
2BA
100
AcDbEntity
  8
Capa 1
 62
     7
370
    35
100
AcDbVertex
100
AcDb2dVertex
 10
55.68225378749528
 20
278.3842249200764
 30
0.0
  0
SEQEND
  5
2BD
330
2BA
100
AcDbEntity
  8
Capa 1
370
    35
  0
POLYLINE
  5
2BE
330
1F
100
AcDbEntity
  8
Capa 1
 62
     7
370
    35
100
AcDb2dPolyline
 66
     1
 10
0.0
 20
0.0
 30
0.0
  0
VERTEX
  5
2BF
330
2BE
100
AcDbEntity
  8
Capa 1
 62
     7
370
    35
100
AcDbVertex
100
AcDb2dVertex
 10
55.68225378749528
 20
278.3842249200764
 30
0.0
  0
VERTEX
  5
2C0
330
2BE
100
AcDbEntity
  8
Capa 1
 62
     7
370
    35
100
AcDbVertex
100
AcDb2dVertex
 10
52.50725169375779
 20
276.4790858599236
 30
0.0
  0
SEQEND
  5
2C1
330
2BE
100
AcDbEntity
  8
Capa 1
370
    35
  0
POLYLINE
  5
2C2
330
1F
100
AcDbEntity
  8
Capa 1
 62
     7
370
    35
100
AcDb2dPolyline
 66
     1
 10
0.0
 20
0.0
 30
0.0
  0
VERTEX
  5
2C3
330
2C2
100
AcDbEntity
  8
Capa 1
 62
     7
370
    35
100
AcDbVertex
100
AcDb2dVertex
 10
52.50725169375779
 20
276.5214605623465
 30
0.0
  0
VERTEX
  5
2C4
330
2C2
100
AcDbEntity
  8
Capa 1
 62
     7
370
    35
100
AcDbVertex
100
AcDb2dVertex
 10
53.81966168465329
 20
275.7594049382854
 30
0.0
  0
SEQEND
  5
2C5
330
2C2
100
AcDbEntity
  8
Capa 1
370
    35
  0
POLYLINE
  5
2C6
330
1F
100
AcDbEntity
  8
Capa 1
 62
     7
370
    35
100
AcDb2dPolyline
 66
     1
 10
0.0
 20
0.0
 30
0.0
  0
VERTEX
  5
2C7
330
2C6
100
AcDbEntity
  8
Capa 1
 62
     7
370
    35
100
AcDbVertex
100
AcDb2dVertex
 10
62.66718949176261
 20
275.4207518286777
 30
0.0
  0
VERTEX
  5
2C8
330
2C6
100
AcDbEntity
  8
Capa 1
 62
     7
370
    35
100
AcDbVertex
100
AcDb2dVertex
 10
62.66718949176261
 20
274.277840647474
 30
0.0
  0
SEQEND
  5
2C9
330
2C6
100
AcDbEntity
  8
Capa 1
370
    35
  0
POLYLINE
  5
2CA
330
1F
100
AcDbEntity
  8
Capa 1
 62
     7
370
    35
100
AcDb2dPolyline
 66
     1
 10
0.0
 20
0.0
 30
0.0
  0
VERTEX
  5
2CB
330
2CA
100
AcDbEntity
  8
Capa 1
 62
     7
370
    35
100
AcDbVertex
100
AcDb2dVertex
 10
62.66718949176261
 20
275.4207518286777
 30
0.0
  0
VERTEX
  5
2CC
330
2CA
100
AcDbEntity
  8
Capa 1
 62
     7
370
    35
100
AcDbVertex
100
AcDb2dVertex
 10
61.14325049852825
 20
276.3097593051198
 30
0.0
  0
SEQEND
  5
2CD
330
2CA
100
AcDbEntity
  8
Capa 1
370
    35
  0
POLYLINE
  5
2CE
330
1F
100
AcDbEntity
  8
Capa 1
 62
     7
370
    35
100
AcDb2dPolyline
 66
     1
 10
0.0
 20
0.0
 30
0.0
  0
VERTEX
  5
2CF
330
2CE
100
AcDbEntity
  8
Capa 1
 62
     7
370
    35
100
AcDbVertex
100
AcDb2dVertex
 10
59.15353428841748
 20
277.4952174436344
 30
0.0
  0
VERTEX
  5
2D0
330
2CE
100
AcDbEntity
  8
Capa 1
 62
     7
370
    35
100
AcDbVertex
100
AcDb2dVertex
 10
55.68225378749528
 20
279.4847613988572
 30
0.0
  0
SEQEND
  5
2D1
330
2CE
100
AcDbEntity
  8
Capa 1
370
    35
  0
POLYLINE
  5
2D2
330
1F
100
AcDbEntity
  8
Capa 1
 62
     7
370
    35
100
AcDb2dPolyline
 66
     1
 10
0.0
 20
0.0
 30
0.0
  0
VERTEX
  5
2D3
330
2D2
100
AcDbEntity
  8
Capa 1
 62
     7
370
    35
100
AcDbVertex
100
AcDb2dVertex
 10
55.68225378749528
 20
279.4847613988572
 30
0.0
  0
VERTEX
  5
2D4
330
2D2
100
AcDbEntity
  8
Capa 1
 62
     7
370
    35
100
AcDbVertex
100
AcDb2dVertex
 10
55.68225378749528
 20
278.3418502176535
 30
0.0
  0
SEQEND
  5
2D5
330
2D2
100
AcDbEntity
  8
Capa 1
370
    35
  0
POLYLINE
  5
2D6
330
1F
100
AcDbEntity
  8
Capa 1
 62
     7
370
    35
100
AcDb2dPolyline
 66
     1
 10
0.0
 20
0.0
 30
0.0
  0
VERTEX
  5
2D7
330
2D6
100
AcDbEntity
  8
Capa 1
 62
     7
370
    35
100
AcDbVertex
100
AcDb2dVertex
 10
55.68225378749528
 20
279.4847613988572
 30
0.0
  0
VERTEX
  5
2D8
330
2D6
100
AcDbEntity
  8
Capa 1
 62
     7
370
    35
100
AcDbVertex
100
AcDb2dVertex
 10
52.50725169375779
 20
277.5797945935923
 30
0.0
  0
SEQEND
  5
2D9
330
2D6
100
AcDbEntity
  8
Capa 1
370
    35
  0
POLYLINE
  5
2DA
330
1F
100
AcDbEntity
  8
Capa 1
 62
     7
370
    35
100
AcDb2dPolyline
 66
     1
 10
0.0
 20
0.0
 30
0.0
  0
VERTEX
  5
2DB
330
2DA
100
AcDbEntity
  8
Capa 1
 62
     7
370
    35
100
AcDbVertex
100
AcDb2dVertex
 10
52.50725169375779
 20
277.6221692960153
 30
0.0
  0
VERTEX
  5
2DC
330
2DA
100
AcDbEntity
  8
Capa 1
 62
     7
370
    35
100
AcDbVertex
100
AcDb2dVertex
 10
52.50725169375779
 20
276.4790858599236
 30
0.0
  0
SEQEND
  5
2DD
330
2DA
100
AcDbEntity
  8
Capa 1
370
    35
  0
POLYLINE
  5
2DE
330
1F
100
AcDbEntity
  8
Capa 1
 62
     7
370
    35
100
AcDb2dPolyline
 66
     1
 10
0.0
 20
0.0
 30
0.0
  0
VERTEX
  5
2DF
330
2DE
100
AcDbEntity
  8
Capa 1
 62
     7
370
    35
100
AcDbVertex
100
AcDb2dVertex
 10
53.73491227980744
 20
275.4207518286777
 30
0.0
  0
VERTEX
  5
2E0
330
2DE
100
AcDbEntity
  8
Capa 1
 62
     7
370
    35
100
AcDbVertex
100
AcDb2dVertex
 10
53.73491227980744
 20
264.4987584066118
 30
0.0
  0
SEQEND
  5
2E1
330
2DE
100
AcDbEntity
  8
Capa 1
370
    35
  0
POLYLINE
  5
2E2
330
1F
100
AcDbEntity
  8
Capa 1
 62
     7
370
    35
100
AcDb2dPolyline
 66
     1
 10
0.0
 20
0.0
 30
0.0
  0
VERTEX
  5
2E3
330
2E2
100
AcDbEntity
  8
Capa 1
 62
     7
370
    35
100
AcDbVertex
100
AcDb2dVertex
 10
61.48190360813589
 20
264.5411331090347
 30
0.0
  0
VERTEX
  5
2E4
330
2E2
100
AcDbEntity
  8
Capa 1
 62
     7
370
    35
100
AcDbVertex
100
AcDb2dVertex
 10
61.48190360813589
 20
275.4207518286777
 30
0.0
  0
SEQEND
  5
2E5
330
2E2
100
AcDbEntity
  8
Capa 1
370
    35
  0
POLYLINE
  5
2E6
330
1F
100
AcDbEntity
  8
Capa 1
 62
     7
370
    35
100
AcDb2dPolyline
 66
     1
 10
0.0
 20
0.0
 30
0.0
  0
VERTEX
  5
2E7
330
2E6
100
AcDbEntity
  8
Capa 1
 62
     7
370
    35
100
AcDbVertex
100
AcDb2dVertex
 10
61.18562520095118
 20
194.5217604920061
 30
0.0
  0
VERTEX
  5
2E8
330
2E6
100
AcDbEntity
  8
Capa 1
 62
     7
370
    35
100
AcDbVertex
100
AcDb2dVertex
 10
61.10087579610532
 20
194.9873654539946
 30
0.0
  0
VERTEX
  5
2E9
330
2E6
100
AcDbEntity
  8
Capa 1
 62
     7
370
    35
100
AcDbVertex
100
AcDb2dVertex
 10
60.84697209134355
 20
195.4107679684481
 30
0.0
  0
VERTEX
  5
2EA
330
2E6
100
AcDbEntity
  8
Capa 1
 62
     7
370
    35
100
AcDbVertex
100
AcDb2dVertex
 10
60.42356957689005
 20
195.7917957804787
 30
0.0
  0
VERTEX
  5
2EB
330
2E6
100
AcDbEntity
  8
Capa 1
 62
     7
370
    35
100
AcDbVertex
100
AcDb2dVertex
 10
59.87321521005568
 20
196.1304488900863
 30
0.0
  0
VERTEX
  5
2EC
330
2E6
100
AcDbEntity
  8
Capa 1
 62
     7
370
    35
100
AcDbVertex
100
AcDb2dVertex
 10
59.19590899084041
 20
196.3843525948481
 30
0.0
  0
VERTEX
  5
2ED
330
2E6
100
AcDbEntity
  8
Capa 1
 62
     7
370
    35
100
AcDbVertex
100
AcDb2dVertex
 10
58.43385336677928
 20
196.5538514045398
 30
0.0
  0
VERTEX
  5
2EE
330
2E6
100
AcDbEntity
  8
Capa 1
 62
     7
370
    35
100
AcDbVertex
100
AcDb2dVertex
 10
57.67196999760606
 20
196.5960538520748
 30
0.0
  0
VERTEX
  5
2EF
330
2E6
100
AcDbEntity
  8
Capa 1
 62
     7
370
    35
100
AcDbVertex
100
AcDb2dVertex
 10
56.867539671122
 20
196.5538514045398
 30
0.0
  0
VERTEX
  5
2F0
330
2E6
100
AcDbEntity
  8
Capa 1
 62
     7
370
    35
100
AcDbVertex
100
AcDb2dVertex
 10
56.10565630194877
 20
196.426727297271
 30
0.0
  0
VERTEX
  5
2F1
330
2E6
100
AcDbEntity
  8
Capa 1
 62
     7
370
    35
100
AcDbVertex
100
AcDb2dVertex
 10
55.42817782784561
 20
196.1728235925092
 30
0.0
  0
VERTEX
  5
2F2
330
2E6
100
AcDbEntity
  8
Capa 1
 62
     7
370
    35
100
AcDbVertex
100
AcDb2dVertex
 10
54.83562101347619
 20
195.8763729304366
 30
0.0
  0
VERTEX
  5
2F3
330
2E6
100
AcDbEntity
  8
Capa 1
 62
     7
370
    35
100
AcDbVertex
100
AcDb2dVertex
 10
54.41221849902271
 20
195.453142670871
 30
0.0
  0
VERTEX
  5
2F4
330
2E6
100
AcDbEntity
  8
Capa 1
 62
     7
370
    35
100
AcDbVertex
100
AcDb2dVertex
 10
54.115940091838
 20
195.0297401564175
 30
0.0
  0
VERTEX
  5
2F5
330
2E6
100
AcDbEntity
  8
Capa 1
 62
     7
370
    35
100
AcDbVertex
100
AcDb2dVertex
 10
53.98898823945711
 20
194.6065098968519
 30
0.0
  0
VERTEX
  5
2F6
330
2E6
100
AcDbEntity
  8
Capa 1
 62
     7
370
    35
100
AcDbVertex
100
AcDb2dVertex
 10
54.07356538941507
 20
194.1407326799755
 30
0.0
  0
VERTEX
  5
2F7
330
2E6
100
AcDbEntity
  8
Capa 1
 62
     7
370
    35
100
AcDbVertex
100
AcDb2dVertex
 10
54.28526664664182
 20
193.675127717987
 30
0.0
  0
VERTEX
  5
2F8
330
2E6
100
AcDbEntity
  8
Capa 1
 62
     7
370
    35
100
AcDbVertex
100
AcDb2dVertex
 10
54.66629445867238
 20
193.2940999059564
 30
0.0
  0
SEQEND
  5
2F9
330
2E6
100
AcDbEntity
  8
Capa 1
370
    35
  0
POLYLINE
  5
2FA
330
1F
100
AcDbEntity
  8
Capa 1
 62
     7
370
    35
100
AcDb2dPolyline
 66
     1
 10
0.0
 20
0.0
 30
0.0
  0
VERTEX
  5
2FB
330
2FA
100
AcDbEntity
  8
Capa 1
 62
     7
370
    35
100
AcDbVertex
100
AcDb2dVertex
 10
60.50831898173591
 20
193.2940999059564
 30
0.0
  0
VERTEX
  5
2FC
330
2FA
100
AcDbEntity
  8
Capa 1
 62
     7
370
    35
100
AcDbVertex
100
AcDb2dVertex
 10
60.88917453887858
 20
193.675127717987
 30
0.0
  0
VERTEX
  5
2FD
330
2FA
100
AcDbEntity
  8
Capa 1
 62
     7
370
    35
100
AcDbVertex
100
AcDb2dVertex
 10
61.10087579610532
 20
194.0985302324405
 30
0.0
  0
VERTEX
  5
2FE
330
2FA
100
AcDbEntity
  8
Capa 1
 62
     7
370
    35
100
AcDbVertex
100
AcDb2dVertex
 10
61.18562520095118
 20
194.5217604920061
 30
0.0
  0
SEQEND
  5
2FF
330
2FA
100
AcDbEntity
  8
Capa 1
370
    35
  0
POLYLINE
  5
300
330
1F
100
AcDbEntity
  8
Capa 1
 62
     7
370
    35
100
AcDb2dPolyline
 66
     1
 10
0.0
 20
0.0
 30
0.0
  0
VERTEX
  5
301
330
300
100
AcDbEntity
  8
Capa 1
 62
     7
370
    35
100
AcDbVertex
100
AcDb2dVertex
 10
59.19590899084041
 20
194.1831073823985
 30
0.0
  0
VERTEX
  5
302
330
300
100
AcDbEntity
  8
Capa 1
 62
     7
370
    35
100
AcDbVertex
100
AcDb2dVertex
 10
58.6031799215831
 20
194.3948086396252
 30
0.0
  0
VERTEX
  5
303
330
300
100
AcDbEntity
  8
Capa 1
 62
     7
370
    35
100
AcDbVertex
100
AcDb2dVertex
 10
57.92587370236783
 20
194.4793857895832
 30
0.0
  0
VERTEX
  5
304
330
300
100
AcDbEntity
  8
Capa 1
 62
     7
370
    35
100
AcDbVertex
100
AcDb2dVertex
 10
57.24856748315256
 20
194.4793857895832
 30
0.0
  0
VERTEX
  5
305
330
300
100
AcDbEntity
  8
Capa 1
 62
     7
370
    35
100
AcDbVertex
100
AcDb2dVertex
 10
56.57126126393729
 20
194.3948086396252
 30
0.0
  0
VERTEX
  5
306
330
300
100
AcDbEntity
  8
Capa 1
 62
     7
370
    35
100
AcDbVertex
100
AcDb2dVertex
 10
55.97853219467999
 20
194.1831073823985
 30
0.0
  0
SEQEND
  5
307
330
300
100
AcDbEntity
  8
Capa 1
370
    35
  0
POLYLINE
  5
308
330
1F
100
AcDbEntity
  8
Capa 1
 62
     7
370
    35
100
AcDb2dPolyline
 66
     1
 10
0.0
 20
0.0
 30
0.0
  0
VERTEX
  5
309
330
308
100
AcDbEntity
  8
Capa 1
 62
     7
370
    35
100
AcDbVertex
100
AcDb2dVertex
 10
54.15831479426092
 20
262.3398878965851
 30
0.0
  0
VERTEX
  5
30A
330
308
100
AcDbEntity
  8
Capa 1
 62
     7
370
    35
100
AcDbVertex
100
AcDb2dVertex
 10
54.24289194421889
 20
262.8054928585736
 30
0.0
  0
VERTEX
  5
30B
330
308
100
AcDbEntity
  8
Capa 1
 62
     7
370
    35
100
AcDbVertex
100
AcDb2dVertex
 10
54.49696790386856
 20
263.1865206706042
 30
0.0
  0
VERTEX
  5
30C
330
308
100
AcDbEntity
  8
Capa 1
 62
     7
370
    35
100
AcDbVertex
100
AcDb2dVertex
 10
54.92019816343416
 20
263.5675484826348
 30
0.0
  0
VERTEX
  5
30D
330
308
100
AcDbEntity
  8
Capa 1
 62
     7
370
    35
100
AcDbVertex
100
AcDb2dVertex
 10
55.47055253026853
 20
263.9062015922424
 30
0.0
  0
VERTEX
  5
30E
330
308
100
AcDbEntity
  8
Capa 1
 62
     7
370
    35
100
AcDbVertex
100
AcDb2dVertex
 10
56.10565630194877
 20
264.1177305945812
 30
0.0
  0
VERTEX
  5
30F
330
308
100
AcDbEntity
  8
Capa 1
 62
     7
370
    35
100
AcDbVertex
100
AcDb2dVertex
 10
56.82516496869907
 20
264.287229404273
 30
0.0
  0
VERTEX
  5
310
330
308
100
AcDbEntity
  8
Capa 1
 62
     7
370
    35
100
AcDbVertex
100
AcDb2dVertex
 10
57.5872205927602
 20
264.329431851808
 30
0.0
  0
VERTEX
  5
311
330
308
100
AcDbEntity
  8
Capa 1
 62
     7
370
    35
100
AcDbVertex
100
AcDb2dVertex
 10
58.34927621682132
 20
264.287229404273
 30
0.0
  0
VERTEX
  5
312
330
308
100
AcDbEntity
  8
Capa 1
 62
     7
370
    35
100
AcDbVertex
100
AcDb2dVertex
 10
59.06895713845952
 20
264.1177305945812
 30
0.0
  0
VERTEX
  5
313
330
308
100
AcDbEntity
  8
Capa 1
 62
     7
370
    35
100
AcDbVertex
100
AcDb2dVertex
 10
59.70388865525186
 20
263.9062015922424
 30
0.0
  0
VERTEX
  5
314
330
308
100
AcDbEntity
  8
Capa 1
 62
     7
370
    35
100
AcDbVertex
100
AcDb2dVertex
 10
60.25424302208624
 20
263.5675484826348
 30
0.0
  0
VERTEX
  5
315
330
308
100
AcDbEntity
  8
Capa 1
 62
     7
370
    35
100
AcDbVertex
100
AcDb2dVertex
 10
60.67764553653973
 20
263.1865206706042
 30
0.0
  0
VERTEX
  5
316
330
308
100
AcDbEntity
  8
Capa 1
 62
     7
370
    35
100
AcDbVertex
100
AcDb2dVertex
 10
60.9315492413015
 20
262.8054928585736
 30
0.0
  0
VERTEX
  5
317
330
308
100
AcDbEntity
  8
Capa 1
 62
     7
370
    35
100
AcDbVertex
100
AcDb2dVertex
 10
61.01629864614736
 20
262.3398878965851
 30
0.0
  0
SEQEND
  5
318
330
308
100
AcDbEntity
  8
Capa 1
370
    35
  0
POLYLINE
  5
319
330
1F
100
AcDbEntity
  8
Capa 1
 62
     7
370
    25
100
AcDb2dPolyline
 66
     1
 10
0.0
 20
0.0
 30
0.0
  0
VERTEX
  5
31A
330
319
100
AcDbEntity
  8
Capa 1
 62
     7
370
    25
100
AcDbVertex
100
AcDb2dVertex
 10
53.86186413218832
 20
262.0434372345125
 30
0.0
  0
VERTEX
  5
31B
330
319
100
AcDbEntity
  8
Capa 1
 62
     7
370
    25
100
AcDbVertex
100
AcDb2dVertex
 10
53.90423883461126
 20
261.8741106797087
 30
0.0
  0
VERTEX
  5
31C
330
319
100
AcDbEntity
  8
Capa 1
 62
     7
370
    25
100
AcDbVertex
100
AcDb2dVertex
 10
54.03119068699214
 20
261.6202069749469
 30
0.0
  0
SEQEND
  5
31D
330
319
100
AcDbEntity
  8
Capa 1
370
    25
  0
POLYLINE
  5
31E
330
1F
100
AcDbEntity
  8
Capa 1
 62
     7
370
    25
100
AcDb2dPolyline
 66
     1
 10
0.0
 20
0.0
 30
0.0
  0
VERTEX
  5
31F
330
31E
100
AcDbEntity
  8
Capa 1
 62
     7
370
    25
100
AcDbVertex
100
AcDb2dVertex
 10
61.2279999033741
 20
262.9324447109545
 30
0.0
  0
VERTEX
  5
320
330
31E
100
AcDbEntity
  8
Capa 1
 62
     7
370
    25
100
AcDbVertex
100
AcDb2dVertex
 10
61.05850109368239
 20
263.1865206706042
 30
0.0
  0
VERTEX
  5
321
330
31E
100
AcDbEntity
  8
Capa 1
 62
     7
370
    25
100
AcDbVertex
100
AcDb2dVertex
 10
60.67764553653973
 20
263.6097509301698
 30
0.0
  0
VERTEX
  5
322
330
31E
100
AcDbEntity
  8
Capa 1
 62
     7
370
    25
100
AcDbVertex
100
AcDb2dVertex
 10
60.16966587212828
 20
263.9485762946653
 30
0.0
  0
VERTEX
  5
323
330
31E
100
AcDbEntity
  8
Capa 1
 62
     7
370
    25
100
AcDbVertex
100
AcDb2dVertex
 10
59.53456210044804
 20
264.2024799994271
 30
0.0
  0
VERTEX
  5
324
330
31E
100
AcDbEntity
  8
Capa 1
 62
     7
370
    25
100
AcDbVertex
100
AcDb2dVertex
 10
58.81488117880984
 20
264.4141812566539
 30
0.0
  0
VERTEX
  5
325
330
31E
100
AcDbEntity
  8
Capa 1
 62
     7
370
    25
100
AcDbVertex
100
AcDb2dVertex
 10
58.01062310721369
 20
264.4987584066118
 30
0.0
  0
VERTEX
  5
326
330
31E
100
AcDbEntity
  8
Capa 1
 62
     7
370
    25
100
AcDbVertex
100
AcDb2dVertex
 10
57.24856748315256
 20
264.4987584066118
 30
0.0
  0
VERTEX
  5
327
330
31E
100
AcDbEntity
  8
Capa 1
 62
     7
370
    25
100
AcDbVertex
100
AcDb2dVertex
 10
56.4443094115564
 20
264.4141812566539
 30
0.0
  0
VERTEX
  5
328
330
31E
100
AcDbEntity
  8
Capa 1
 62
     7
370
    25
100
AcDbVertex
100
AcDb2dVertex
 10
55.72462848991821
 20
264.24485470185
 30
0.0
  0
VERTEX
  5
329
330
31E
100
AcDbEntity
  8
Capa 1
 62
     7
370
    25
100
AcDbVertex
100
AcDb2dVertex
 10
55.08952471823797
 20
263.9907787422003
 30
0.0
  0
VERTEX
  5
32A
330
31E
100
AcDbEntity
  8
Capa 1
 62
     7
370
    25
100
AcDbVertex
100
AcDb2dVertex
 10
54.58154505382652
 20
263.6521256325927
 30
0.0
  0
SEQEND
  5
32B
330
31E
100
AcDbEntity
  8
Capa 1
370
    25
  0
POLYLINE
  5
32C
330
1F
100
AcDbEntity
  8
Capa 1
 62
     7
370
    25
100
AcDb2dPolyline
 66
     1
 10
0.0
 20
0.0
 30
0.0
  0
VERTEX
  5
32D
330
32C
100
AcDbEntity
  8
Capa 1
 62
     7
370
    25
100
AcDbVertex
100
AcDb2dVertex
 10
61.354951755755
 20
264.329431851808
 30
0.0
  0
VERTEX
  5
32E
330
32C
100
AcDbEntity
  8
Capa 1
 62
     7
370
    25
100
AcDbVertex
100
AcDb2dVertex
 10
61.354951755755
 20
264.3718065542309
 30
0.0
  0
VERTEX
  5
32F
330
32C
100
AcDbEntity
  8
Capa 1
 62
     7
370
    25
100
AcDbVertex
100
AcDb2dVertex
 10
60.76222268649769
 20
264.7528343662615
 30
0.0
  0
VERTEX
  5
330
330
32C
100
AcDbEntity
  8
Capa 1
 62
     7
370
    25
100
AcDbVertex
100
AcDb2dVertex
 10
60.08491646728242
 20
265.0914874758691
 30
0.0
  0
VERTEX
  5
331
330
32C
100
AcDbEntity
  8
Capa 1
 62
     7
370
    25
100
AcDbVertex
100
AcDb2dVertex
 10
59.32286084322129
 20
265.3455634355188
 30
0.0
  0
VERTEX
  5
332
330
32C
100
AcDbEntity
  8
Capa 1
 62
     7
370
    25
100
AcDbVertex
100
AcDb2dVertex
 10
58.47622806920221
 20
265.4725152878997
 30
0.0
  0
VERTEX
  5
333
330
32C
100
AcDbEntity
  8
Capa 1
 62
     7
370
    25
100
AcDbVertex
100
AcDb2dVertex
 10
57.5872205927602
 20
265.5148899903226
 30
0.0
  0
VERTEX
  5
334
330
32C
100
AcDbEntity
  8
Capa 1
 62
     7
370
    25
100
AcDbVertex
100
AcDb2dVertex
 10
56.69821311631818
 20
265.4725152878997
 30
0.0
  0
VERTEX
  5
335
330
32C
100
AcDbEntity
  8
Capa 1
 62
     7
370
    25
100
AcDbVertex
100
AcDb2dVertex
 10
55.85158034229909
 20
265.3455634355188
 30
0.0
  0
VERTEX
  5
336
330
32C
100
AcDbEntity
  8
Capa 1
 62
     7
370
    25
100
AcDbVertex
100
AcDb2dVertex
 10
55.08952471823797
 20
265.0914874758691
 30
0.0
  0
VERTEX
  5
337
330
32C
100
AcDbEntity
  8
Capa 1
 62
     7
370
    25
100
AcDbVertex
100
AcDb2dVertex
 10
54.41221849902271
 20
264.7528343662615
 30
0.0
  0
VERTEX
  5
338
330
32C
100
AcDbEntity
  8
Capa 1
 62
     7
370
    25
100
AcDbVertex
100
AcDb2dVertex
 10
53.86186413218832
 20
264.3718065542309
 30
0.0
  0
VERTEX
  5
339
330
32C
100
AcDbEntity
  8
Capa 1
 62
     7
370
    25
100
AcDbVertex
100
AcDb2dVertex
 10
53.77728698223036
 20
264.329431851808
 30
0.0
  0
SEQEND
  5
33A
330
32C
100
AcDbEntity
  8
Capa 1
370
    25
  0
POLYLINE
  5
33B
330
1F
100
AcDbEntity
  8
Capa 1
 62
     7
370
    35
100
AcDb2dPolyline
 66
     1
 10
0.0
 20
0.0
 30
0.0
  0
VERTEX
  5
33C
330
33B
100
AcDbEntity
  8
Capa 1
 62
     7
370
    35
100
AcDbVertex
100
AcDb2dVertex
 10
62.07463267739319
 20
263.2288953730271
 30
0.0
  0
VERTEX
  5
33D
330
33B
100
AcDbEntity
  8
Capa 1
 62
     7
370
    35
100
AcDbVertex
100
AcDb2dVertex
 10
61.98988327254734
 20
263.7368750374386
 30
0.0
  0
VERTEX
  5
33E
330
33B
100
AcDbEntity
  8
Capa 1
 62
     7
370
    35
100
AcDbVertex
100
AcDb2dVertex
 10
61.73597956778556
 20
264.2024799994271
 30
0.0
  0
VERTEX
  5
33F
330
33B
100
AcDbEntity
  8
Capa 1
 62
     7
370
    35
100
AcDbVertex
100
AcDb2dVertex
 10
61.354951755755
 20
264.6680849614156
 30
0.0
  0
VERTEX
  5
340
330
33B
100
AcDbEntity
  8
Capa 1
 62
     7
370
    35
100
AcDbVertex
100
AcDb2dVertex
 10
60.76222268649769
 20
265.0491127734462
 30
0.0
  0
VERTEX
  5
341
330
33B
100
AcDbEntity
  8
Capa 1
 62
     7
370
    35
100
AcDbVertex
100
AcDb2dVertex
 10
60.08491646728242
 20
265.3877658830538
 30
0.0
  0
VERTEX
  5
342
330
33B
100
AcDbEntity
  8
Capa 1
 62
     7
370
    35
100
AcDbVertex
100
AcDb2dVertex
 10
59.32286084322129
 20
265.6418418427035
 30
0.0
  0
VERTEX
  5
343
330
33B
100
AcDbEntity
  8
Capa 1
 62
     7
370
    35
100
AcDbVertex
100
AcDb2dVertex
 10
58.47622806920221
 20
265.7687936950844
 30
0.0
  0
VERTEX
  5
344
330
33B
100
AcDbEntity
  8
Capa 1
 62
     7
370
    35
100
AcDbVertex
100
AcDb2dVertex
 10
57.5872205927602
 20
265.8111683975073
 30
0.0
  0
VERTEX
  5
345
330
33B
100
AcDbEntity
  8
Capa 1
 62
     7
370
    35
100
AcDbVertex
100
AcDb2dVertex
 10
56.69821311631818
 20
265.7687936950844
 30
0.0
  0
VERTEX
  5
346
330
33B
100
AcDbEntity
  8
Capa 1
 62
     7
370
    35
100
AcDbVertex
100
AcDb2dVertex
 10
55.85158034229909
 20
265.6418418427035
 30
0.0
  0
VERTEX
  5
347
330
33B
100
AcDbEntity
  8
Capa 1
 62
     7
370
    35
100
AcDbVertex
100
AcDb2dVertex
 10
55.08952471823797
 20
265.3877658830538
 30
0.0
  0
VERTEX
  5
348
330
33B
100
AcDbEntity
  8
Capa 1
 62
     7
370
    35
100
AcDbVertex
100
AcDb2dVertex
 10
54.41221849902271
 20
265.0491127734462
 30
0.0
  0
VERTEX
  5
349
330
33B
100
AcDbEntity
  8
Capa 1
 62
     7
370
    35
100
AcDbVertex
100
AcDb2dVertex
 10
53.86186413218832
 20
264.6680849614156
 30
0.0
  0
VERTEX
  5
34A
330
33B
100
AcDbEntity
  8
Capa 1
 62
     7
370
    35
100
AcDbVertex
100
AcDb2dVertex
 10
53.43863387262273
 20
264.2024799994271
 30
0.0
  0
VERTEX
  5
34B
330
33B
100
AcDbEntity
  8
Capa 1
 62
     7
370
    35
100
AcDbVertex
100
AcDb2dVertex
 10
53.18455791297306
 20
263.7368750374386
 30
0.0
  0
VERTEX
  5
34C
330
33B
100
AcDbEntity
  8
Capa 1
 62
     7
370
    35
100
AcDbVertex
100
AcDb2dVertex
 10
53.0999807630151
 20
263.2288953730271
 30
0.0
  0
SEQEND
  5
34D
330
33B
100
AcDbEntity
  8
Capa 1
370
    35
  0
POLYLINE
  5
34E
330
1F
100
AcDbEntity
  8
Capa 1
 62
     7
370
    35
100
AcDb2dPolyline
 66
     1
 10
0.0
 20
0.0
 30
0.0
  0
VERTEX
  5
34F
330
34E
100
AcDbEntity
  8
Capa 1
 62
     7
370
    35
100
AcDbVertex
100
AcDb2dVertex
 10
55.97853219467999
 20
194.1831073823985
 30
0.0
  0
VERTEX
  5
350
330
34E
100
AcDbEntity
  8
Capa 1
 62
     7
370
    35
100
AcDbVertex
100
AcDb2dVertex
 10
55.25885127304179
 20
193.8020795703679
 30
0.0
  0
VERTEX
  5
351
330
34E
100
AcDbEntity
  8
Capa 1
 62
     7
370
    35
100
AcDbVertex
100
AcDb2dVertex
 10
54.62391975624945
 20
193.2517252035335
 30
0.0
  0
VERTEX
  5
352
330
34E
100
AcDbEntity
  8
Capa 1
 62
     7
370
    35
100
AcDbVertex
100
AcDb2dVertex
 10
54.15831479426092
 20
192.5744189843183
 30
0.0
  0
VERTEX
  5
353
330
34E
100
AcDbEntity
  8
Capa 1
 62
     7
370
    35
100
AcDbVertex
100
AcDb2dVertex
 10
53.77728698223036
 20
191.8547380626801
 30
0.0
  0
VERTEX
  5
354
330
34E
100
AcDbEntity
  8
Capa 1
 62
     7
370
    35
100
AcDbVertex
100
AcDb2dVertex
 10
53.56558572500362
 20
191.0504799910839
 30
0.0
  0
VERTEX
  5
355
330
34E
100
AcDbEntity
  8
Capa 1
 62
     7
370
    35
100
AcDbVertex
100
AcDb2dVertex
 10
53.56558572500362
 20
190.2038472170648
 30
0.0
  0
VERTEX
  5
356
330
34E
100
AcDbEntity
  8
Capa 1
 62
     7
370
    35
100
AcDbVertex
100
AcDb2dVertex
 10
53.69253757738451
 20
189.3994168905808
 30
0.0
  0
VERTEX
  5
357
330
34E
100
AcDbEntity
  8
Capa 1
 62
     7
370
    35
100
AcDbVertex
100
AcDb2dVertex
 10
53.98898823945711
 20
188.6373612665196
 30
0.0
  0
VERTEX
  5
358
330
34E
100
AcDbEntity
  8
Capa 1
 62
     7
370
    35
100
AcDbVertex
100
AcDb2dVertex
 10
54.45459320144563
 20
187.9176803448814
 30
0.0
  0
VERTEX
  5
359
330
34E
100
AcDbEntity
  8
Capa 1
 62
     7
370
    35
100
AcDbVertex
100
AcDb2dVertex
 10
55.04732227070294
 20
187.325123530512
 30
0.0
  0
VERTEX
  5
35A
330
34E
100
AcDbEntity
  8
Capa 1
 62
     7
370
    35
100
AcDbVertex
100
AcDb2dVertex
 10
55.72462848991821
 20
186.9017210160585
 30
0.0
  0
VERTEX
  5
35B
330
34E
100
AcDbEntity
  8
Capa 1
 62
     7
370
    35
100
AcDbVertex
100
AcDb2dVertex
 10
56.48651185909144
 20
186.5630679064509
 30
0.0
  0
VERTEX
  5
35C
330
34E
100
AcDbEntity
  8
Capa 1
 62
     7
370
    35
100
AcDbVertex
100
AcDb2dVertex
 10
57.29094218557549
 20
186.43611605407
 30
0.0
  0
VERTEX
  5
35D
330
34E
100
AcDbEntity
  8
Capa 1
 62
     7
370
    35
100
AcDbVertex
100
AcDb2dVertex
 10
58.13757495959457
 20
186.478490756493
 30
0.0
  0
VERTEX
  5
35E
330
34E
100
AcDbEntity
  8
Capa 1
 62
     7
370
    35
100
AcDbVertex
100
AcDb2dVertex
 10
58.94183303119073
 20
186.6478173112968
 30
0.0
  0
VERTEX
  5
35F
330
34E
100
AcDbEntity
  8
Capa 1
 62
     7
370
    35
100
AcDbVertex
100
AcDb2dVertex
 10
59.70388865525186
 20
187.0288451233273
 30
0.0
  0
VERTEX
  5
360
330
34E
100
AcDbEntity
  8
Capa 1
 62
     7
370
    35
100
AcDbVertex
100
AcDb2dVertex
 10
60.33899242693209
 20
187.4944500853159
 30
0.0
  0
VERTEX
  5
361
330
34E
100
AcDbEntity
  8
Capa 1
 62
     7
370
    35
100
AcDbVertex
100
AcDb2dVertex
 10
60.88917453887858
 20
188.1293816021082
 30
0.0
  0
VERTEX
  5
362
330
34E
100
AcDbEntity
  8
Capa 1
 62
     7
370
    35
100
AcDbVertex
100
AcDb2dVertex
 10
61.31257705333207
 20
188.8490625237464
 30
0.0
  0
VERTEX
  5
363
330
34E
100
AcDbEntity
  8
Capa 1
 62
     7
370
    35
100
AcDbVertex
100
AcDb2dVertex
 10
61.56665301298174
 20
189.6534928502304
 30
0.0
  0
VERTEX
  5
364
330
34E
100
AcDbEntity
  8
Capa 1
 62
     7
370
    35
100
AcDbVertex
100
AcDb2dVertex
 10
61.6512301629397
 20
190.4577509218266
 30
0.0
  0
SEQEND
  5
365
330
34E
100
AcDbEntity
  8
Capa 1
370
    35
  0
POLYLINE
  5
366
330
1F
100
AcDbEntity
  8
Capa 1
 62
     7
370
    35
100
AcDb2dPolyline
 66
     1
 10
0.0
 20
0.0
 30
0.0
  0
VERTEX
  5
367
330
366
100
AcDbEntity
  8
Capa 1
 62
     7
370
    35
100
AcDbVertex
100
AcDb2dVertex
 10
61.6512301629397
 20
190.4577509218266
 30
0.0
  0
VERTEX
  5
368
330
366
100
AcDbEntity
  8
Capa 1
 62
     7
370
    35
100
AcDbVertex
100
AcDb2dVertex
 10
61.56665301298174
 20
191.2621812483106
 30
0.0
  0
VERTEX
  5
369
330
366
100
AcDbEntity
  8
Capa 1
 62
     7
370
    35
100
AcDbVertex
100
AcDb2dVertex
 10
61.354951755755
 20
192.0240646174839
 30
0.0
  0
VERTEX
  5
36A
330
366
100
AcDbEntity
  8
Capa 1
 62
     7
370
    35
100
AcDbVertex
100
AcDb2dVertex
 10
60.97392394372444
 20
192.7013708366991
 30
0.0
  0
VERTEX
  5
36B
330
366
100
AcDbEntity
  8
Capa 1
 62
     7
370
    35
100
AcDbVertex
100
AcDb2dVertex
 10
60.46594427931299
 20
193.2940999059564
 30
0.0
  0
VERTEX
  5
36C
330
366
100
AcDbEntity
  8
Capa 1
 62
     7
370
    35
100
AcDbVertex
100
AcDb2dVertex
 10
59.87321521005568
 20
193.8020795703679
 30
0.0
  0
VERTEX
  5
36D
330
366
100
AcDbEntity
  8
Capa 1
 62
     7
370
    35
100
AcDbVertex
100
AcDb2dVertex
 10
59.19590899084041
 20
194.1831073823985
 30
0.0
  0
SEQEND
  5
36E
330
366
100
AcDbEntity
  8
Capa 1
370
    35
  0
POLYLINE
  5
36F
330
1F
100
AcDbEntity
  8
Capa 1
 62
     7
370
    35
100
AcDb2dPolyline
 66
     1
 10
0.0
 20
0.0
 30
0.0
  0
VERTEX
  5
370
330
36F
100
AcDbEntity
  8
Capa 1
 62
     7
370
    35
100
AcDbVertex
100
AcDb2dVertex
 10
54.15831479426092
 20
262.3398878965851
 30
0.0
  0
VERTEX
  5
371
330
36F
100
AcDbEntity
  8
Capa 1
 62
     7
370
    35
100
AcDbVertex
100
AcDb2dVertex
 10
54.15831479426092
 20
195.1144895612634
 30
0.0
  0
SEQEND
  5
372
330
36F
100
AcDbEntity
  8
Capa 1
370
    35
  0
POLYLINE
  5
373
330
1F
100
AcDbEntity
  8
Capa 1
 62
     7
370
    35
100
AcDb2dPolyline
 66
     1
 10
0.0
 20
0.0
 30
0.0
  0
VERTEX
  5
374
330
373
100
AcDbEntity
  8
Capa 1
 62
     7
370
    35
100
AcDbVertex
100
AcDb2dVertex
 10
61.01629864614736
 20
195.1568642636863
 30
0.0
  0
VERTEX
  5
375
330
373
100
AcDbEntity
  8
Capa 1
 62
     7
370
    35
100
AcDbVertex
100
AcDb2dVertex
 10
61.01629864614736
 20
262.3398878965851
 30
0.0
  0
SEQEND
  5
376
330
373
100
AcDbEntity
  8
Capa 1
370
    35
  0
POLYLINE
  5
377
330
1F
100
AcDbEntity
  8
Capa 1
 62
     7
370
    35
100
AcDb2dPolyline
 66
     1
 10
0.0
 20
0.0
 30
0.0
  0
VERTEX
  5
378
330
377
100
AcDbEntity
  8
Capa 1
 62
     7
370
    35
100
AcDbVertex
100
AcDb2dVertex
 10
53.0999807630151
 20
262.9324447109545
 30
0.0
  0
VERTEX
  5
379
330
377
100
AcDbEntity
  8
Capa 1
 62
     7
370
    35
100
AcDbVertex
100
AcDb2dVertex
 10
53.0999807630151
 20
262.5937916013469
 30
0.0
  0
VERTEX
  5
37A
330
377
100
AcDbEntity
  8
Capa 1
 62
     7
370
    35
100
AcDbVertex
100
AcDb2dVertex
 10
53.14218321055013
 20
262.5092144513889
 30
0.0
  0
VERTEX
  5
37B
330
377
100
AcDbEntity
  8
Capa 1
 62
     7
370
    35
100
AcDbVertex
100
AcDb2dVertex
 10
53.14218321055013
 20
262.466839748966
 30
0.0
  0
VERTEX
  5
37C
330
377
100
AcDbEntity
  8
Capa 1
 62
     7
370
    35
100
AcDbVertex
100
AcDb2dVertex
 10
53.18455791297306
 20
262.3820903441202
 30
0.0
  0
VERTEX
  5
37D
330
377
100
AcDbEntity
  8
Capa 1
 62
     7
370
    35
100
AcDbVertex
100
AcDb2dVertex
 10
53.18455791297306
 20
262.3398878965851
 30
0.0
  0
VERTEX
  5
37E
330
377
100
AcDbEntity
  8
Capa 1
 62
     7
370
    35
100
AcDbVertex
100
AcDb2dVertex
 10
53.22693261539599
 20
262.2551384917393
 30
0.0
  0
VERTEX
  5
37F
330
377
100
AcDbEntity
  8
Capa 1
 62
     7
370
    35
100
AcDbVertex
100
AcDb2dVertex
 10
53.22693261539599
 20
262.2127637893163
 30
0.0
  0
VERTEX
  5
380
330
377
100
AcDbEntity
  8
Capa 1
 62
     7
370
    35
100
AcDbVertex
100
AcDb2dVertex
 10
53.26930731781891
 20
262.1281866393584
 30
0.0
  0
VERTEX
  5
381
330
377
100
AcDbEntity
  8
Capa 1
 62
     7
370
    35
100
AcDbVertex
100
AcDb2dVertex
 10
53.26930731781891
 20
262.0434372345125
 30
0.0
  0
VERTEX
  5
382
330
377
100
AcDbEntity
  8
Capa 1
 62
     7
370
    35
100
AcDbVertex
100
AcDb2dVertex
 10
53.31150976535395
 20
262.0010625320896
 30
0.0
  0
VERTEX
  5
383
330
377
100
AcDbEntity
  8
Capa 1
 62
     7
370
    35
100
AcDbVertex
100
AcDb2dVertex
 10
53.35388446777687
 20
261.9164853821316
 30
0.0
  0
VERTEX
  5
384
330
377
100
AcDbEntity
  8
Capa 1
 62
     7
370
    35
100
AcDbVertex
100
AcDb2dVertex
 10
53.39625917019981
 20
261.8741106797087
 30
0.0
  0
VERTEX
  5
385
330
377
100
AcDbEntity
  8
Capa 1
 62
     7
370
    35
100
AcDbVertex
100
AcDb2dVertex
 10
53.43863387262273
 20
261.7895335297508
 30
0.0
  0
VERTEX
  5
386
330
377
100
AcDbEntity
  8
Capa 1
 62
     7
370
    35
100
AcDbVertex
100
AcDb2dVertex
 10
53.48083632015776
 20
261.7471588273278
 30
0.0
  0
VERTEX
  5
387
330
377
100
AcDbEntity
  8
Capa 1
 62
     7
370
    35
100
AcDbVertex
100
AcDb2dVertex
 10
53.52321102258069
 20
261.662409422482
 30
0.0
  0
VERTEX
  5
388
330
377
100
AcDbEntity
  8
Capa 1
 62
     7
370
    35
100
AcDbVertex
100
AcDb2dVertex
 10
53.56558572500362
 20
261.6202069749469
 30
0.0
  0
VERTEX
  5
389
330
377
100
AcDbEntity
  8
Capa 1
 62
     7
370
    35
100
AcDbVertex
100
AcDb2dVertex
 10
53.60796042742655
 20
261.5354575701011
 30
0.0
  0
VERTEX
  5
38A
330
377
100
AcDbEntity
  8
Capa 1
 62
     7
370
    35
100
AcDbVertex
100
AcDb2dVertex
 10
53.65016287496158
 20
261.4930828676781
 30
0.0
  0
VERTEX
  5
38B
330
377
100
AcDbEntity
  8
Capa 1
 62
     7
370
    35
100
AcDbVertex
100
AcDb2dVertex
 10
53.69253757738451
 20
261.4508804201431
 30
0.0
  0
VERTEX
  5
38C
330
377
100
AcDbEntity
  8
Capa 1
 62
     7
370
    35
100
AcDbVertex
100
AcDb2dVertex
 10
53.77728698223036
 20
261.3661310152972
 30
0.0
  0
VERTEX
  5
38D
330
377
100
AcDbEntity
  8
Capa 1
 62
     7
370
    35
100
AcDbVertex
100
AcDb2dVertex
 10
53.81966168465329
 20
261.3237563128743
 30
0.0
  0
VERTEX
  5
38E
330
377
100
AcDbEntity
  8
Capa 1
 62
     7
370
    35
100
AcDbVertex
100
AcDb2dVertex
 10
53.86186413218832
 20
261.2815538653393
 30
0.0
  0
VERTEX
  5
38F
330
377
100
AcDbEntity
  8
Capa 1
 62
     7
370
    35
100
AcDbVertex
100
AcDb2dVertex
 10
53.94661353703418
 20
261.1968044604934
 30
0.0
  0
VERTEX
  5
390
330
377
100
AcDbEntity
  8
Capa 1
 62
     7
370
    35
100
AcDbVertex
100
AcDb2dVertex
 10
53.98898823945711
 20
261.1544297580705
 30
0.0
  0
VERTEX
  5
391
330
377
100
AcDbEntity
  8
Capa 1
 62
     7
370
    35
100
AcDbVertex
100
AcDb2dVertex
 10
54.07356538941507
 20
261.1122273105355
 30
0.0
  0
VERTEX
  5
392
330
377
100
AcDbEntity
  8
Capa 1
 62
     7
370
    35
100
AcDbVertex
100
AcDb2dVertex
 10
54.115940091838
 20
261.0698526081126
 30
0.0
  0
VERTEX
  5
393
330
377
100
AcDbEntity
  8
Capa 1
 62
     7
370
    35
100
AcDbVertex
100
AcDb2dVertex
 10
54.15831479426092
 20
261.0274779056896
 30
0.0
  0
SEQEND
  5
394
330
377
100
AcDbEntity
  8
Capa 1
370
    35
  0
POLYLINE
  5
395
330
1F
100
AcDbEntity
  8
Capa 1
 62
     7
370
    35
100
AcDb2dPolyline
 66
     1
 10
0.0
 20
0.0
 30
0.0
  0
VERTEX
  5
396
330
395
100
AcDbEntity
  8
Capa 1
 62
     7
370
    35
100
AcDbVertex
100
AcDb2dVertex
 10
61.01629864614736
 20
261.0274779056896
 30
0.0
  0
VERTEX
  5
397
330
395
100
AcDbEntity
  8
Capa 1
 62
     7
370
    35
100
AcDbVertex
100
AcDb2dVertex
 10
61.05850109368239
 20
261.0274779056896
 30
0.0
  0
VERTEX
  5
398
330
395
100
AcDbEntity
  8
Capa 1
 62
     7
370
    35
100
AcDbVertex
100
AcDb2dVertex
 10
61.05850109368239
 20
261.0698526081126
 30
0.0
  0
VERTEX
  5
399
330
395
100
AcDbEntity
  8
Capa 1
 62
     7
370
    35
100
AcDbVertex
100
AcDb2dVertex
 10
61.14325049852825
 20
261.1122273105355
 30
0.0
  0
VERTEX
  5
39A
330
395
100
AcDbEntity
  8
Capa 1
 62
     7
370
    35
100
AcDbVertex
100
AcDb2dVertex
 10
61.18562520095118
 20
261.1544297580705
 30
0.0
  0
VERTEX
  5
39B
330
395
100
AcDbEntity
  8
Capa 1
 62
     7
370
    35
100
AcDbVertex
100
AcDb2dVertex
 10
61.27020235090914
 20
261.2391791629163
 30
0.0
  0
VERTEX
  5
39C
330
395
100
AcDbEntity
  8
Capa 1
 62
     7
370
    35
100
AcDbVertex
100
AcDb2dVertex
 10
61.31257705333207
 20
261.2815538653393
 30
0.0
  0
VERTEX
  5
39D
330
395
100
AcDbEntity
  8
Capa 1
 62
     7
370
    35
100
AcDbVertex
100
AcDb2dVertex
 10
61.39732645817792
 20
261.3661310152972
 30
0.0
  0
VERTEX
  5
39E
330
395
100
AcDbEntity
  8
Capa 1
 62
     7
370
    35
100
AcDbVertex
100
AcDb2dVertex
 10
61.43952890571295
 20
261.4085057177202
 30
0.0
  0
VERTEX
  5
39F
330
395
100
AcDbEntity
  8
Capa 1
 62
     7
370
    35
100
AcDbVertex
100
AcDb2dVertex
 10
61.48190360813589
 20
261.4508804201431
 30
0.0
  0
VERTEX
  5
3A0
330
395
100
AcDbEntity
  8
Capa 1
 62
     7
370
    35
100
AcDbVertex
100
AcDb2dVertex
 10
61.56665301298174
 20
261.5354575701011
 30
0.0
  0
VERTEX
  5
3A1
330
395
100
AcDbEntity
  8
Capa 1
 62
     7
370
    35
100
AcDbVertex
100
AcDb2dVertex
 10
61.60885546051677
 20
261.577832272524
 30
0.0
  0
VERTEX
  5
3A2
330
395
100
AcDbEntity
  8
Capa 1
 62
     7
370
    35
100
AcDbVertex
100
AcDb2dVertex
 10
61.6512301629397
 20
261.662409422482
 30
0.0
  0
VERTEX
  5
3A3
330
395
100
AcDbEntity
  8
Capa 1
 62
     7
370
    35
100
AcDbVertex
100
AcDb2dVertex
 10
61.69360486536263
 20
261.7047841249049
 30
0.0
  0
VERTEX
  5
3A4
330
395
100
AcDbEntity
  8
Capa 1
 62
     7
370
    35
100
AcDbVertex
100
AcDb2dVertex
 10
61.73597956778556
 20
261.7895335297508
 30
0.0
  0
VERTEX
  5
3A5
330
395
100
AcDbEntity
  8
Capa 1
 62
     7
370
    35
100
AcDbVertex
100
AcDb2dVertex
 10
61.77818201532059
 20
261.8319082321736
 30
0.0
  0
VERTEX
  5
3A6
330
395
100
AcDbEntity
  8
Capa 1
 62
     7
370
    35
100
AcDbVertex
100
AcDb2dVertex
 10
61.82055671774352
 20
261.9164853821316
 30
0.0
  0
VERTEX
  5
3A7
330
395
100
AcDbEntity
  8
Capa 1
 62
     7
370
    35
100
AcDbVertex
100
AcDb2dVertex
 10
61.86293142016645
 20
262.0010625320896
 30
0.0
  0
VERTEX
  5
3A8
330
395
100
AcDbEntity
  8
Capa 1
 62
     7
370
    35
100
AcDbVertex
100
AcDb2dVertex
 10
61.90530612258937
 20
262.0434372345125
 30
0.0
  0
VERTEX
  5
3A9
330
395
100
AcDbEntity
  8
Capa 1
 62
     7
370
    35
100
AcDbVertex
100
AcDb2dVertex
 10
61.90530612258937
 20
262.1281866393584
 30
0.0
  0
VERTEX
  5
3AA
330
395
100
AcDbEntity
  8
Capa 1
 62
     7
370
    35
100
AcDbVertex
100
AcDb2dVertex
 10
61.94750857012441
 20
262.1705613417813
 30
0.0
  0
VERTEX
  5
3AB
330
395
100
AcDbEntity
  8
Capa 1
 62
     7
370
    35
100
AcDbVertex
100
AcDb2dVertex
 10
61.98988327254734
 20
262.2551384917393
 30
0.0
  0
VERTEX
  5
3AC
330
395
100
AcDbEntity
  8
Capa 1
 62
     7
370
    35
100
AcDbVertex
100
AcDb2dVertex
 10
61.98988327254734
 20
262.3398878965851
 30
0.0
  0
VERTEX
  5
3AD
330
395
100
AcDbEntity
  8
Capa 1
 62
     7
370
    35
100
AcDbVertex
100
AcDb2dVertex
 10
62.03225797497026
 20
262.3820903441202
 30
0.0
  0
VERTEX
  5
3AE
330
395
100
AcDbEntity
  8
Capa 1
 62
     7
370
    35
100
AcDbVertex
100
AcDb2dVertex
 10
62.03225797497026
 20
262.5092144513889
 30
0.0
  0
VERTEX
  5
3AF
330
395
100
AcDbEntity
  8
Capa 1
 62
     7
370
    35
100
AcDbVertex
100
AcDb2dVertex
 10
62.07463267739319
 20
262.5937916013469
 30
0.0
  0
VERTEX
  5
3B0
330
395
100
AcDbEntity
  8
Capa 1
 62
     7
370
    35
100
AcDbVertex
100
AcDb2dVertex
 10
62.07463267739319
 20
262.9324447109545
 30
0.0
  0
SEQEND
  5
3B1
330
395
100
AcDbEntity
  8
Capa 1
370
    35
  0
POLYLINE
  5
3B2
330
1F
100
AcDbEntity
  8
Capa 1
 62
     7
370
    35
100
AcDb2dPolyline
 66
     1
 10
0.0
 20
0.0
 30
0.0
  0
VERTEX
  5
3B3
330
3B2
100
AcDbEntity
  8
Capa 1
 62
     7
370
    35
100
AcDbVertex
100
AcDb2dVertex
 10
62.07463267739319
 20
262.9324447109545
 30
0.0
  0
VERTEX
  5
3B4
330
3B2
100
AcDbEntity
  8
Capa 1
 62
     7
370
    35
100
AcDbVertex
100
AcDb2dVertex
 10
62.07463267739319
 20
263.2288953730271
 30
0.0
  0
SEQEND
  5
3B5
330
3B2
100
AcDbEntity
  8
Capa 1
370
    35
  0
POLYLINE
  5
3B6
330
1F
100
AcDbEntity
  8
Capa 1
 62
     7
370
    35
100
AcDb2dPolyline
 66
     1
 10
0.0
 20
0.0
 30
0.0
  0
VERTEX
  5
3B7
330
3B6
100
AcDbEntity
  8
Capa 1
 62
     7
370
    35
100
AcDbVertex
100
AcDb2dVertex
 10
53.0999807630151
 20
263.2288953730271
 30
0.0
  0
VERTEX
  5
3B8
330
3B6
100
AcDbEntity
  8
Capa 1
 62
     7
370
    35
100
AcDbVertex
100
AcDb2dVertex
 10
53.0999807630151
 20
262.8902422634195
 30
0.0
  0
SEQEND
  5
3B9
330
3B6
100
AcDbEntity
  8
Capa 1
370
    35
  0
POLYLINE
  5
3BA
330
1F
100
AcDbEntity
  8
Capa 1
 62
     7
370
    25
100
AcDb2dPolyline
 66
     1
 10
0.0
 20
0.0
 30
0.0
  0
VERTEX
  5
3BB
330
3BA
100
AcDbEntity
  8
Capa 1
 62
     7
370
    25
100
AcDbVertex
100
AcDb2dVertex
 10
152.074883271048
 20
148.7594934436736
 30
0.0
  0
VERTEX
  5
3BC
330
3BA
100
AcDbEntity
  8
Capa 1
 62
     7
370
    25
100
AcDbVertex
100
AcDb2dVertex
 10
149.0693799870023
 20
149.2674731080851
 30
0.0
  0
VERTEX
  5
3BD
330
3BA
100
AcDbEntity
  8
Capa 1
 62
     7
370
    25
100
AcDbVertex
100
AcDb2dVertex
 10
152.074883271048
 20
149.7754527724965
 30
0.0
  0
VERTEX
  5
3BE
330
3BA
100
AcDbEntity
  8
Capa 1
 62
     7
370
    25
100
AcDbVertex
100
AcDb2dVertex
 10
152.074883271048
 20
148.7594934436736
 30
0.0
  0
SEQEND
  5
3BF
330
3BA
100
AcDbEntity
  8
Capa 1
370
    25
  0
POLYLINE
  5
3C0
330
1F
100
AcDbEntity
  8
Capa 1
370
     0
100
AcDb2dPolyline
 66
     1
 10
0.0
 20
0.0
 30
0.0
  0
VERTEX
  5
3C1
330
3C0
100
AcDbEntity
  8
Capa 1
370
     0
100
AcDbVertex
100
AcDb2dVertex
 10
152.074883271048
 20
148.7594934436736
 30
0.0
  0
VERTEX
  5
3C2
330
3C0
100
AcDbEntity
  8
Capa 1
370
     0
100
AcDbVertex
100
AcDb2dVertex
 10
149.0693799870023
 20
149.2674731080851
 30
0.0
  0
VERTEX
  5
3C3
330
3C0
100
AcDbEntity
  8
Capa 1
370
     0
100
AcDbVertex
100
AcDb2dVertex
 10
152.074883271048
 20
149.7754527724965
 30
0.0
  0
VERTEX
  5
3C4
330
3C0
100
AcDbEntity
  8
Capa 1
370
     0
100
AcDbVertex
100
AcDb2dVertex
 10
152.074883271048
 20
148.7594934436736
 30
0.0
  0
SEQEND
  5
3C5
330
3C0
100
AcDbEntity
  8
Capa 1
370
     0
  0
HATCH
  5
3C6
330
1F
100
AcDbEntity
  8
Capa 1
 62
     7
100
AcDbHatch
 10
0.0
 20
0.0
 30
0.0
210
0.0
220
0.0
230
1.0
  2
SOLID
 70
     1
 71
     0
 91
        1
 92
        1
 93
        3
 72
     1
 10
152.074883271048
 20
148.7594934436736
 11
149.0693799870023
 21
149.2674731080851
 72
     1
 10
149.0693799870023
 20
149.2674731080851
 11
152.074883271048
 21
149.7754527724965
 72
     1
 10
152.074883271048
 20
149.7754527724965
 11
152.074883271048
 21
148.7594934436736
 97
        0
 75
     0
 76
     1
 98
        0
  0
POLYLINE
  5
3C7
330
1F
100
AcDbEntity
  8
Capa 1
 62
     7
370
    25
100
AcDb2dPolyline
 66
     1
 10
0.0
 20
0.0
 30
0.0
  0
VERTEX
  5
3C8
330
3C7
100
AcDbEntity
  8
Capa 1
 62
     7
370
    25
100
AcDbVertex
100
AcDb2dVertex
 10
138.443664972121
 20
148.7594934436736
 30
0.0
  0
VERTEX
  5
3C9
330
3C7
100
AcDbEntity
  8
Capa 1
 62
     7
370
    25
100
AcDbVertex
100
AcDb2dVertex
 10
141.4491682561668
 20
149.2674731080851
 30
0.0
  0
VERTEX
  5
3CA
330
3C7
100
AcDbEntity
  8
Capa 1
 62
     7
370
    25
100
AcDbVertex
100
AcDb2dVertex
 10
138.443664972121
 20
149.7754527724965
 30
0.0
  0
VERTEX
  5
3CB
330
3C7
100
AcDbEntity
  8
Capa 1
 62
     7
370
    25
100
AcDbVertex
100
AcDb2dVertex
 10
138.443664972121
 20
148.7594934436736
 30
0.0
  0
SEQEND
  5
3CC
330
3C7
100
AcDbEntity
  8
Capa 1
370
    25
  0
POLYLINE
  5
3CD
330
1F
100
AcDbEntity
  8
Capa 1
370
     0
100
AcDb2dPolyline
 66
     1
 10
0.0
 20
0.0
 30
0.0
  0
VERTEX
  5
3CE
330
3CD
100
AcDbEntity
  8
Capa 1
370
     0
100
AcDbVertex
100
AcDb2dVertex
 10
138.443664972121
 20
148.7594934436736
 30
0.0
  0
VERTEX
  5
3CF
330
3CD
100
AcDbEntity
  8
Capa 1
370
     0
100
AcDbVertex
100
AcDb2dVertex
 10
141.4491682561668
 20
149.2674731080851
 30
0.0
  0
VERTEX
  5
3D0
330
3CD
100
AcDbEntity
  8
Capa 1
370
     0
100
AcDbVertex
100
AcDb2dVertex
 10
138.443664972121
 20
149.7754527724965
 30
0.0
  0
VERTEX
  5
3D1
330
3CD
100
AcDbEntity
  8
Capa 1
370
     0
100
AcDbVertex
100
AcDb2dVertex
 10
138.443664972121
 20
148.7594934436736
 30
0.0
  0
SEQEND
  5
3D2
330
3CD
100
AcDbEntity
  8
Capa 1
370
     0
  0
HATCH
  5
3D3
330
1F
100
AcDbEntity
  8
Capa 1
 62
     7
100
AcDbHatch
 10
0.0
 20
0.0
 30
0.0
210
0.0
220
0.0
230
1.0
  2
SOLID
 70
     1
 71
     0
 91
        1
 92
        1
 93
        3
 72
     1
 10
138.443664972121
 20
148.7594934436736
 11
141.4491682561668
 21
149.2674731080851
 72
     1
 10
141.4491682561668
 20
149.2674731080851
 11
138.443664972121
 21
149.7754527724965
 72
     1
 10
138.443664972121
 20
149.7754527724965
 11
138.443664972121
 21
148.7594934436736
 97
        0
 75
     0
 76
     1
 98
        0
  0
POLYLINE
  5
3D4
330
1F
100
AcDbEntity
  8
Capa 1
 62
     7
370
    25
100
AcDb2dPolyline
 66
     1
 10
0.0
 20
0.0
 30
0.0
  0
VERTEX
  5
3D5
330
3D4
100
AcDbEntity
  8
Capa 1
 62
     7
370
    25
100
AcDbVertex
100
AcDb2dVertex
 10
155.0807310648696
 20
149.2674731080851
 30
0.0
  0
VERTEX
  5
3D6
330
3D4
100
AcDbEntity
  8
Capa 1
 62
     7
370
    25
100
AcDbVertex
100
AcDb2dVertex
 10
119.6899308168808
 20
149.2674731080851
 30
0.0
  0
SEQEND
  5
3D7
330
3D4
100
AcDbEntity
  8
Capa 1
370
    25
  0
MTEXT
  5
3D8
330
1F
100
AcDbEntity
  8
Capa 1
 62
     7
100
AcDbMText
 10
125.4473781899864
 20
148.5054174840239
 30
0.0
 40
2.860103161947027
 41
0.0
 71
     7
 72
     1
  1
\fHelvetica|b0|i0|c0|p34;\W1;76
 11
-0.9999999999999962
 21
-8.742278000372475E-8
 31
0.0
 73
     1
 44
1.0
  0
MTEXT
  5
3D9
330
1F
100
AcDbEntity
  8
Capa 1
 62
     7
100
AcDbMText
 10
130.9509218583302
 20
148.5054174840239
 30
0.0
 40
3.161356115347859
 41
0.0
 71
     7
 72
     1
  1
\fMyriad Pro|b0|i0|c0|p34;\W1;\U+F001
 11
-0.9999999999999962
 21
-8.742278000372475E-8
 31
0.0
 73
     1
 44
1.0
  0
POLYLINE
  5
3DA
330
1F
100
AcDbEntity
  8
Capa 1
 62
     7
370
    25
100
AcDb2dPolyline
 66
     1
 10
0.0
 20
0.0
 30
0.0
  0
VERTEX
  5
3DB
330
3DA
100
AcDbEntity
  8
Capa 1
 62
     7
370
    25
100
AcDbVertex
100
AcDb2dVertex
 10
79.64290869411883
 20
57.48869079688249
 30
0.0
  0
VERTEX
  5
3DC
330
3DA
100
AcDbEntity
  8
Capa 1
 62
     7
370
    25
100
AcDbVertex
100
AcDb2dVertex
 10
79.13492902970738
 20
54.48318751283671
 30
0.0
  0
VERTEX
  5
3DD
330
3DA
100
AcDbEntity
  8
Capa 1
 62
     7
370
    25
100
AcDbVertex
100
AcDb2dVertex
 10
78.66932406771885
 20
57.48869079688249
 30
0.0
  0
VERTEX
  5
3DE
330
3DA
100
AcDbEntity
  8
Capa 1
 62
     7
370
    25
100
AcDbVertex
100
AcDb2dVertex
 10
79.64290869411883
 20
57.48869079688249
 30
0.0
  0
SEQEND
  5
3DF
330
3DA
100
AcDbEntity
  8
Capa 1
370
    25
  0
POLYLINE
  5
3E0
330
1F
100
AcDbEntity
  8
Capa 1
370
     0
100
AcDb2dPolyline
 66
     1
 10
0.0
 20
0.0
 30
0.0
  0
VERTEX
  5
3E1
330
3E0
100
AcDbEntity
  8
Capa 1
370
     0
100
AcDbVertex
100
AcDb2dVertex
 10
79.64290869411883
 20
57.48869079688249
 30
0.0
  0
VERTEX
  5
3E2
330
3E0
100
AcDbEntity
  8
Capa 1
370
     0
100
AcDbVertex
100
AcDb2dVertex
 10
79.13492902970738
 20
54.48318751283671
 30
0.0
  0
VERTEX
  5
3E3
330
3E0
100
AcDbEntity
  8
Capa 1
370
     0
100
AcDbVertex
100
AcDb2dVertex
 10
78.66932406771885
 20
57.48869079688249
 30
0.0
  0
VERTEX
  5
3E4
330
3E0
100
AcDbEntity
  8
Capa 1
370
     0
100
AcDbVertex
100
AcDb2dVertex
 10
79.64290869411883
 20
57.48869079688249
 30
0.0
  0
SEQEND
  5
3E5
330
3E0
100
AcDbEntity
  8
Capa 1
370
     0
  0
HATCH
  5
3E6
330
1F
100
AcDbEntity
  8
Capa 1
 62
     7
100
AcDbHatch
 10
0.0
 20
0.0
 30
0.0
210
0.0
220
0.0
230
1.0
  2
SOLID
 70
     1
 71
     0
 91
        1
 92
        1
 93
        3
 72
     1
 10
79.64290869411883
 20
57.48869079688249
 11
79.13492902970738
 21
54.48318751283671
 72
     1
 10
79.13492902970738
 20
54.48318751283671
 11
78.66932406771885
 21
57.48869079688249
 72
     1
 10
78.66932406771885
 20
57.48869079688249
 11
79.64290869411883
 21
57.48869079688249
 97
        0
 75
     0
 76
     1
 98
        0
  0
POLYLINE
  5
3E7
330
1F
100
AcDbEntity
  8
Capa 1
 62
     7
370
    25
100
AcDb2dPolyline
 66
     1
 10
0.0
 20
0.0
 30
0.0
  0
VERTEX
  5
3E8
330
3E7
100
AcDbEntity
  8
Capa 1
 62
     7
370
    25
100
AcDbVertex
100
AcDb2dVertex
 10
79.64290869411883
 20
173.1011761623277
 30
0.0
  0
VERTEX
  5
3E9
330
3E7
100
AcDbEntity
  8
Capa 1
 62
     7
370
    25
100
AcDbVertex
100
AcDb2dVertex
 10
79.13492902970738
 20
176.1068517012614
 30
0.0
  0
VERTEX
  5
3EA
330
3E7
100
AcDbEntity
  8
Capa 1
 62
     7
370
    25
100
AcDbVertex
100
AcDb2dVertex
 10
78.66932406771885
 20
173.1011761623277
 30
0.0
  0
VERTEX
  5
3EB
330
3E7
100
AcDbEntity
  8
Capa 1
 62
     7
370
    25
100
AcDbVertex
100
AcDb2dVertex
 10
79.64290869411883
 20
173.1011761623277
 30
0.0
  0
SEQEND
  5
3EC
330
3E7
100
AcDbEntity
  8
Capa 1
370
    25
  0
POLYLINE
  5
3ED
330
1F
100
AcDbEntity
  8
Capa 1
370
     0
100
AcDb2dPolyline
 66
     1
 10
0.0
 20
0.0
 30
0.0
  0
VERTEX
  5
3EE
330
3ED
100
AcDbEntity
  8
Capa 1
370
     0
100
AcDbVertex
100
AcDb2dVertex
 10
79.64290869411883
 20
173.1011761623277
 30
0.0
  0
VERTEX
  5
3EF
330
3ED
100
AcDbEntity
  8
Capa 1
370
     0
100
AcDbVertex
100
AcDb2dVertex
 10
79.13492902970738
 20
176.1068517012614
 30
0.0
  0
VERTEX
  5
3F0
330
3ED
100
AcDbEntity
  8
Capa 1
370
     0
100
AcDbVertex
100
AcDb2dVertex
 10
78.66932406771885
 20
173.1011761623277
 30
0.0
  0
VERTEX
  5
3F1
330
3ED
100
AcDbEntity
  8
Capa 1
370
     0
100
AcDbVertex
100
AcDb2dVertex
 10
79.64290869411883
 20
173.1011761623277
 30
0.0
  0
SEQEND
  5
3F2
330
3ED
100
AcDbEntity
  8
Capa 1
370
     0
  0
HATCH
  5
3F3
330
1F
100
AcDbEntity
  8
Capa 1
 62
     7
100
AcDbHatch
 10
0.0
 20
0.0
 30
0.0
210
0.0
220
0.0
230
1.0
  2
SOLID
 70
     1
 71
     0
 91
        1
 92
        1
 93
        3
 72
     1
 10
79.64290869411883
 20
173.1011761623277
 11
79.13492902970738
 21
176.1068517012614
 72
     1
 10
79.13492902970738
 20
176.1068517012614
 11
78.66932406771885
 21
173.1011761623277
 72
     1
 10
78.66932406771885
 20
173.1011761623277
 11
79.64290869411883
 21
173.1011761623277
 97
        0
 75
     0
 76
     1
 98
        0
  0
POLYLINE
  5
3F4
330
1F
100
AcDbEntity
  8
Capa 1
 62
     7
370
    25
100
AcDb2dPolyline
 66
     1
 10
0.0
 20
0.0
 30
0.0
  0
VERTEX
  5
3F5
330
3F4
100
AcDbEntity
  8
Capa 1
 62
     7
370
    25
100
AcDbVertex
100
AcDb2dVertex
 10
58.47622806920221
 20
54.48318751283671
 30
0.0
  0
VERTEX
  5
3F6
330
3F4
100
AcDbEntity
  8
Capa 1
 62
     7
370
    25
100
AcDbVertex
100
AcDb2dVertex
 10
80.70124272536465
 20
54.48318751283671
 30
0.0
  0
SEQEND
  5
3F7
330
3F4
100
AcDbEntity
  8
Capa 1
370
    25
  0
POLYLINE
  5
3F8
330
1F
100
AcDbEntity
  8
Capa 1
 62
     7
370
    25
100
AcDb2dPolyline
 66
     1
 10
0.0
 20
0.0
 30
0.0
  0
VERTEX
  5
3F9
330
3F8
100
AcDbEntity
  8
Capa 1
 62
     7
370
    25
100
AcDbVertex
100
AcDb2dVertex
 10
58.47622806920221
 20
176.1068517012614
 30
0.0
  0
VERTEX
  5
3FA
330
3F8
100
AcDbEntity
  8
Capa 1
 62
     7
370
    25
100
AcDbVertex
100
AcDb2dVertex
 10
80.70124272536465
 20
176.1068517012614
 30
0.0
  0
SEQEND
  5
3FB
330
3F8
100
AcDbEntity
  8
Capa 1
370
    25
  0
POLYLINE
  5
3FC
330
1F
100
AcDbEntity
  8
Capa 1
 62
     7
370
    25
100
AcDb2dPolyline
 66
     1
 10
0.0
 20
0.0
 30
0.0
  0
VERTEX
  5
3FD
330
3FC
100
AcDbEntity
  8
Capa 1
 62
     7
370
    25
100
AcDbVertex
100
AcDb2dVertex
 10
79.13492902970738
 20
54.48318751283671
 30
0.0
  0
VERTEX
  5
3FE
330
3FC
100
AcDbEntity
  8
Capa 1
 62
     7
370
    25
100
AcDbVertex
100
AcDb2dVertex
 10
79.13492902970738
 20
176.1068517012614
 30
0.0
  0
SEQEND
  5
3FF
330
3FC
100
AcDbEntity
  8
Capa 1
370
    25
  0
MTEXT
  5
400
330
1F
100
AcDbEntity
  8
Capa 1
 62
     7
100
AcDbMText
 10
79.8973291635443
 20
119.9727733428094
 30
0.0
 40
2.860103161947027
 41
0.0
 71
     7
 72
     1
  1
\fHelvetica|b0|i0|c0|p34;\W1;1216
 11
1.192488045480604E-8
 21
-0.9999999999999999
 31
0.0
 73
     1
 44
1.0
  0
POLYLINE
  5
401
330
1F
100
AcDbEntity
  8
Capa 1
 62
     7
370
    25
100
AcDb2dPolyline
 66
     1
 10
0.0
 20
0.0
 30
0.0
  0
VERTEX
  5
402
330
401
100
AcDbEntity
  8
Capa 1
 62
     7
370
    25
100
AcDbVertex
100
AcDb2dVertex
 10
65.79998913796507
 20
167.8517084536336
 30
0.0
  0
VERTEX
  5
403
330
401
100
AcDbEntity
  8
Capa 1
 62
     7
370
    25
100
AcDbVertex
100
AcDb2dVertex
 10
62.79431359903139
 20
167.3437287892221
 30
0.0
  0
VERTEX
  5
404
330
401
100
AcDbEntity
  8
Capa 1
 62
     7
370
    25
100
AcDbVertex
100
AcDb2dVertex
 10
65.79998913796507
 20
166.8781238272336
 30
0.0
  0
VERTEX
  5
405
330
401
100
AcDbEntity
  8
Capa 1
 62
     7
370
    25
100
AcDbVertex
100
AcDb2dVertex
 10
65.79998913796507
 20
167.8517084536336
 30
0.0
  0
SEQEND
  5
406
330
401
100
AcDbEntity
  8
Capa 1
370
    25
  0
POLYLINE
  5
407
330
1F
100
AcDbEntity
  8
Capa 1
370
     0
100
AcDb2dPolyline
 66
     1
 10
0.0
 20
0.0
 30
0.0
  0
VERTEX
  5
408
330
407
100
AcDbEntity
  8
Capa 1
370
     0
100
AcDbVertex
100
AcDb2dVertex
 10
65.79998913796507
 20
167.8517084536336
 30
0.0
  0
VERTEX
  5
409
330
407
100
AcDbEntity
  8
Capa 1
370
     0
100
AcDbVertex
100
AcDb2dVertex
 10
62.79431359903139
 20
167.3437287892221
 30
0.0
  0
VERTEX
  5
40A
330
407
100
AcDbEntity
  8
Capa 1
370
     0
100
AcDbVertex
100
AcDb2dVertex
 10
65.79998913796507
 20
166.8781238272336
 30
0.0
  0
VERTEX
  5
40B
330
407
100
AcDbEntity
  8
Capa 1
370
     0
100
AcDbVertex
100
AcDb2dVertex
 10
65.79998913796507
 20
167.8517084536336
 30
0.0
  0
SEQEND
  5
40C
330
407
100
AcDbEntity
  8
Capa 1
370
     0
  0
HATCH
  5
40D
330
1F
100
AcDbEntity
  8
Capa 1
 62
     7
100
AcDbHatch
 10
0.0
 20
0.0
 30
0.0
210
0.0
220
0.0
230
1.0
  2
SOLID
 70
     1
 71
     0
 91
        1
 92
        1
 93
        3
 72
     1
 10
65.79998913796507
 20
167.8517084536336
 11
62.79431359903139
 21
167.3437287892221
 72
     1
 10
62.79431359903139
 20
167.3437287892221
 11
65.79998913796507
 21
166.8781238272336
 72
     1
 10
65.79998913796507
 20
166.8781238272336
 11
65.79998913796507
 21
167.8517084536336
 97
        0
 75
     0
 76
     1
 98
        0
  0
POLYLINE
  5
40E
330
1F
100
AcDbEntity
  8
Capa 1
 62
     7
370
    25
100
AcDb2dPolyline
 66
     1
 10
0.0
 20
0.0
 30
0.0
  0
VERTEX
  5
40F
330
40E
100
AcDbEntity
  8
Capa 1
 62
     7
370
    25
100
AcDbVertex
100
AcDb2dVertex
 10
51.19484170286228
 20
167.8517084536336
 30
0.0
  0
VERTEX
  5
410
330
40E
100
AcDbEntity
  8
Capa 1
 62
     7
370
    25
100
AcDbVertex
100
AcDb2dVertex
 10
54.20051724179596
 20
167.3437287892221
 30
0.0
  0
VERTEX
  5
411
330
40E
100
AcDbEntity
  8
Capa 1
 62
     7
370
    25
100
AcDbVertex
100
AcDb2dVertex
 10
51.19484170286228
 20
166.8781238272336
 30
0.0
  0
VERTEX
  5
412
330
40E
100
AcDbEntity
  8
Capa 1
 62
     7
370
    25
100
AcDbVertex
100
AcDb2dVertex
 10
51.19484170286228
 20
167.8517084536336
 30
0.0
  0
SEQEND
  5
413
330
40E
100
AcDbEntity
  8
Capa 1
370
    25
  0
POLYLINE
  5
414
330
1F
100
AcDbEntity
  8
Capa 1
370
     0
100
AcDb2dPolyline
 66
     1
 10
0.0
 20
0.0
 30
0.0
  0
VERTEX
  5
415
330
414
100
AcDbEntity
  8
Capa 1
370
     0
100
AcDbVertex
100
AcDb2dVertex
 10
51.19484170286228
 20
167.8517084536336
 30
0.0
  0
VERTEX
  5
416
330
414
100
AcDbEntity
  8
Capa 1
370
     0
100
AcDbVertex
100
AcDb2dVertex
 10
54.20051724179596
 20
167.3437287892221
 30
0.0
  0
VERTEX
  5
417
330
414
100
AcDbEntity
  8
Capa 1
370
     0
100
AcDbVertex
100
AcDb2dVertex
 10
51.19484170286228
 20
166.8781238272336
 30
0.0
  0
VERTEX
  5
418
330
414
100
AcDbEntity
  8
Capa 1
370
     0
100
AcDbVertex
100
AcDb2dVertex
 10
51.19484170286228
 20
167.8517084536336
 30
0.0
  0
SEQEND
  5
419
330
414
100
AcDbEntity
  8
Capa 1
370
     0
  0
HATCH
  5
41A
330
1F
100
AcDbEntity
  8
Capa 1
 62
     7
100
AcDbHatch
 10
0.0
 20
0.0
 30
0.0
210
0.0
220
0.0
230
1.0
  2
SOLID
 70
     1
 71
     0
 91
        1
 92
        1
 93
        3
 72
     1
 10
51.19484170286228
 20
167.8517084536336
 11
54.20051724179596
 21
167.3437287892221
 72
     1
 10
54.20051724179596
 20
167.3437287892221
 11
51.19484170286228
 21
166.8781238272336
 72
     1
 10
51.19484170286228
 20
166.8781238272336
 11
51.19484170286228
 21
167.8517084536336
 97
        0
 75
     0
 76
     1
 98
        0
  0
POLYLINE
  5
41B
330
1F
100
AcDbEntity
  8
Capa 1
 62
     7
370
    25
100
AcDb2dPolyline
 66
     1
 10
0.0
 20
0.0
 30
0.0
  0
VERTEX
  5
41C
330
41B
100
AcDbEntity
  8
Capa 1
 62
     7
370
    25
100
AcDbVertex
100
AcDb2dVertex
 10
68.80566467689874
 20
167.3437287892221
 30
0.0
  0
VERTEX
  5
41D
330
41B
100
AcDbEntity
  8
Capa 1
 62
     7
370
    25
100
AcDbVertex
100
AcDb2dVertex
 10
35.74323374862831
 20
167.3437287892221
 30
0.0
  0
SEQEND
  5
41E
330
41B
100
AcDbEntity
  8
Capa 1
370
    25
  0
MTEXT
  5
41F
330
1F
100
AcDbEntity
  8
Capa 1
 62
     7
100
AcDbMText
 10
41.50050886684599
 20
166.6243923773597
 30
0.0
 40
2.860103161947027
 41
0.0
 71
     7
 72
     1
  1
\fHelvetica|b0|i0|c0|p34;\W1;86
 11
-0.9999999999999962
 21
-8.742278000372475E-8
 31
0.0
 73
     1
 44
1.0
  0
MTEXT
  5
420
330
1F
100
AcDbEntity
  8
Capa 1
 62
     7
100
AcDbMText
 10
47.00405253518979
 20
166.6243923773597
 30
0.0
 40
3.161356115347859
 41
0.0
 71
     7
 72
     1
  1
\fMyriad Pro|b0|i0|c0|p34;\W1;\U+F001
 11
-0.9999999999999962
 21
-8.742278000372475E-8
 31
0.0
 73
     1
 44
1.0
  0
POLYLINE
  5
421
330
1F
100
AcDbEntity
  8
Capa 1
 62
     7
370
    25
100
AcDb2dPolyline
 66
     1
 10
0.0
 20
0.0
 30
0.0
  0
VERTEX
  5
422
330
421
100
AcDbEntity
  8
Capa 1
 62
     7
370
    25
100
AcDbVertex
100
AcDb2dVertex
 10
162.9545019906911
 20
161.078474006593
 30
0.0
  0
VERTEX
  5
423
330
421
100
AcDbEntity
  8
Capa 1
 62
     7
370
    25
100
AcDbVertex
100
AcDb2dVertex
 10
162.4466945811675
 20
158.0727984676593
 30
0.0
  0
VERTEX
  5
424
330
421
100
AcDbEntity
  8
Capa 1
 62
     7
370
    25
100
AcDbVertex
100
AcDb2dVertex
 10
161.9385426618682
 20
161.078474006593
 30
0.0
  0
VERTEX
  5
425
330
421
100
AcDbEntity
  8
Capa 1
 62
     7
370
    25
100
AcDbVertex
100
AcDb2dVertex
 10
162.9545019906911
 20
161.078474006593
 30
0.0
  0
SEQEND
  5
426
330
421
100
AcDbEntity
  8
Capa 1
370
    25
  0
POLYLINE
  5
427
330
1F
100
AcDbEntity
  8
Capa 1
370
     0
100
AcDb2dPolyline
 66
     1
 10
0.0
 20
0.0
 30
0.0
  0
VERTEX
  5
428
330
427
100
AcDbEntity
  8
Capa 1
370
     0
100
AcDbVertex
100
AcDb2dVertex
 10
162.9545019906911
 20
161.078474006593
 30
0.0
  0
VERTEX
  5
429
330
427
100
AcDbEntity
  8
Capa 1
370
     0
100
AcDbVertex
100
AcDb2dVertex
 10
162.4466945811675
 20
158.0727984676593
 30
0.0
  0
VERTEX
  5
42A
330
427
100
AcDbEntity
  8
Capa 1
370
     0
100
AcDbVertex
100
AcDb2dVertex
 10
161.9385426618682
 20
161.078474006593
 30
0.0
  0
VERTEX
  5
42B
330
427
100
AcDbEntity
  8
Capa 1
370
     0
100
AcDbVertex
100
AcDb2dVertex
 10
162.9545019906911
 20
161.078474006593
 30
0.0
  0
SEQEND
  5
42C
330
427
100
AcDbEntity
  8
Capa 1
370
     0
  0
HATCH
  5
42D
330
1F
100
AcDbEntity
  8
Capa 1
 62
     7
100
AcDbHatch
 10
0.0
 20
0.0
 30
0.0
210
0.0
220
0.0
230
1.0
  2
SOLID
 70
     1
 71
     0
 91
        1
 92
        1
 93
        3
 72
     1
 10
162.9545019906911
 20
161.078474006593
 11
162.4466945811675
 21
158.0727984676593
 72
     1
 10
162.4466945811675
 20
158.0727984676593
 11
161.9385426618682
 21
161.078474006593
 72
     1
 10
161.9385426618682
 20
161.078474006593
 11
162.9545019906911
 21
161.078474006593
 97
        0
 75
     0
 76
     1
 98
        0
  0
POLYLINE
  5
42E
330
1F
100
AcDbEntity
  8
Capa 1
 62
     7
370
    25
100
AcDb2dPolyline
 66
     1
 10
0.0
 20
0.0
 30
0.0
  0
VERTEX
  5
42F
330
42E
100
AcDbEntity
  8
Capa 1
 62
     7
370
    25
100
AcDbVertex
100
AcDb2dVertex
 10
162.9545019906911
 20
173.1011761623277
 30
0.0
  0
VERTEX
  5
430
330
42E
100
AcDbEntity
  8
Capa 1
 62
     7
370
    25
100
AcDbVertex
100
AcDb2dVertex
 10
162.4466945811675
 20
176.1068517012614
 30
0.0
  0
VERTEX
  5
431
330
42E
100
AcDbEntity
  8
Capa 1
 62
     7
370
    25
100
AcDbVertex
100
AcDb2dVertex
 10
161.9385426618682
 20
173.1011761623277
 30
0.0
  0
VERTEX
  5
432
330
42E
100
AcDbEntity
  8
Capa 1
 62
     7
370
    25
100
AcDbVertex
100
AcDb2dVertex
 10
162.9545019906911
 20
173.1011761623277
 30
0.0
  0
SEQEND
  5
433
330
42E
100
AcDbEntity
  8
Capa 1
370
    25
  0
POLYLINE
  5
434
330
1F
100
AcDbEntity
  8
Capa 1
370
     0
100
AcDb2dPolyline
 66
     1
 10
0.0
 20
0.0
 30
0.0
  0
VERTEX
  5
435
330
434
100
AcDbEntity
  8
Capa 1
370
     0
100
AcDbVertex
100
AcDb2dVertex
 10
162.9545019906911
 20
173.1011761623277
 30
0.0
  0
VERTEX
  5
436
330
434
100
AcDbEntity
  8
Capa 1
370
     0
100
AcDbVertex
100
AcDb2dVertex
 10
162.4466945811675
 20
176.1068517012614
 30
0.0
  0
VERTEX
  5
437
330
434
100
AcDbEntity
  8
Capa 1
370
     0
100
AcDbVertex
100
AcDb2dVertex
 10
161.9385426618682
 20
173.1011761623277
 30
0.0
  0
VERTEX
  5
438
330
434
100
AcDbEntity
  8
Capa 1
370
     0
100
AcDbVertex
100
AcDb2dVertex
 10
162.9545019906911
 20
173.1011761623277
 30
0.0
  0
SEQEND
  5
439
330
434
100
AcDbEntity
  8
Capa 1
370
     0
  0
HATCH
  5
43A
330
1F
100
AcDbEntity
  8
Capa 1
 62
     7
100
AcDbHatch
 10
0.0
 20
0.0
 30
0.0
210
0.0
220
0.0
230
1.0
  2
SOLID
 70
     1
 71
     0
 91
        1
 92
        1
 93
        3
 72
     1
 10
162.9545019906911
 20
173.1011761623277
 11
162.4466945811675
 21
176.1068517012614
 72
     1
 10
162.4466945811675
 20
176.1068517012614
 11
161.9385426618682
 21
173.1011761623277
 72
     1
 10
161.9385426618682
 20
173.1011761623277
 11
162.9545019906911
 21
173.1011761623277
 97
        0
 75
     0
 76
     1
 98
        0
  0
POLYLINE
  5
43B
330
1F
100
AcDbEntity
  8
Capa 1
 62
     7
370
    25
100
AcDb2dPolyline
 66
     1
 10
0.0
 20
0.0
 30
0.0
  0
VERTEX
  5
43C
330
43B
100
AcDbEntity
  8
Capa 1
 62
     7
370
    25
100
AcDbVertex
100
AcDb2dVertex
 10
149.5771873965258
 20
158.0727984676593
 30
0.0
  0
VERTEX
  5
43D
330
43B
100
AcDbEntity
  8
Capa 1
 62
     7
370
    25
100
AcDbVertex
100
AcDb2dVertex
 10
164.0128360219369
 20
158.0727984676593
 30
0.0
  0
SEQEND
  5
43E
330
43B
100
AcDbEntity
  8
Capa 1
370
    25
  0
POLYLINE
  5
43F
330
1F
100
AcDbEntity
  8
Capa 1
 62
     7
370
    25
100
AcDb2dPolyline
 66
     1
 10
0.0
 20
0.0
 30
0.0
  0
VERTEX
  5
440
330
43F
100
AcDbEntity
  8
Capa 1
 62
     7
370
    25
100
AcDbVertex
100
AcDb2dVertex
 10
147.7567977412189
 20
176.1068517012614
 30
0.0
  0
VERTEX
  5
441
330
43F
100
AcDbEntity
  8
Capa 1
 62
     7
370
    25
100
AcDbVertex
100
AcDb2dVertex
 10
164.0128360219369
 20
176.1068517012614
 30
0.0
  0
SEQEND
  5
442
330
43F
100
AcDbEntity
  8
Capa 1
370
    25
  0
POLYLINE
  5
443
330
1F
100
AcDbEntity
  8
Capa 1
 62
     7
370
    25
100
AcDb2dPolyline
 66
     1
 10
0.0
 20
0.0
 30
0.0
  0
VERTEX
  5
444
330
443
100
AcDbEntity
  8
Capa 1
 62
     7
370
    25
100
AcDbVertex
100
AcDb2dVertex
 10
162.4466945811675
 20
158.0727984676593
 30
0.0
  0
VERTEX
  5
445
330
443
100
AcDbEntity
  8
Capa 1
 62
     7
370
    25
100
AcDbVertex
100
AcDb2dVertex
 10
162.4466945811675
 20
176.1068517012614
 30
0.0
  0
SEQEND
  5
446
330
443
100
AcDbEntity
  8
Capa 1
370
    25
  0
MTEXT
  5
447
330
1F
100
AcDbEntity
  8
Capa 1
 62
     7
100
AcDbMText
 10
163.2087502052286
 20
170.6036525426934
 30
0.0
 40
2.860103161947027
 41
0.0
 71
     7
 72
     1
  1
\fHelvetica|b0|i0|c0|p34;\W1;180
 11
1.192488045480604E-8
 21
-0.9999999999999999
 31
0.0
 73
     1
 44
1.0
  0
POLYLINE
  5
448
330
1F
100
AcDbEntity
  8
Capa 1
 62
     7
370
    25
100
AcDb2dPolyline
 66
     1
 10
0.0
 20
0.0
 30
0.0
  0
VERTEX
  5
449
330
448
100
AcDbEntity
  8
Capa 1
 62
     7
370
    25
100
AcDbVertex
100
AcDb2dVertex
 10
162.9545019906911
 20
155.1094976311486
 30
0.0
  0
VERTEX
  5
44A
330
448
100
AcDbEntity
  8
Capa 1
 62
     7
370
    25
100
AcDbVertex
100
AcDb2dVertex
 10
162.4466945811675
 20
158.0727984676593
 30
0.0
  0
VERTEX
  5
44B
330
448
100
AcDbEntity
  8
Capa 1
 62
     7
370
    25
100
AcDbVertex
100
AcDb2dVertex
 10
161.9385426618682
 20
155.1094976311486
 30
0.0
  0
VERTEX
  5
44C
330
448
100
AcDbEntity
  8
Capa 1
 62
     7
370
    25
100
AcDbVertex
100
AcDb2dVertex
 10
162.9545019906911
 20
155.1094976311486
 30
0.0
  0
SEQEND
  5
44D
330
448
100
AcDbEntity
  8
Capa 1
370
    25
  0
POLYLINE
  5
44E
330
1F
100
AcDbEntity
  8
Capa 1
370
     0
100
AcDb2dPolyline
 66
     1
 10
0.0
 20
0.0
 30
0.0
  0
VERTEX
  5
44F
330
44E
100
AcDbEntity
  8
Capa 1
370
     0
100
AcDbVertex
100
AcDb2dVertex
 10
162.9545019906911
 20
155.1094976311486
 30
0.0
  0
VERTEX
  5
450
330
44E
100
AcDbEntity
  8
Capa 1
370
     0
100
AcDbVertex
100
AcDb2dVertex
 10
162.4466945811675
 20
158.0727984676593
 30
0.0
  0
VERTEX
  5
451
330
44E
100
AcDbEntity
  8
Capa 1
370
     0
100
AcDbVertex
100
AcDb2dVertex
 10
161.9385426618682
 20
155.1094976311486
 30
0.0
  0
VERTEX
  5
452
330
44E
100
AcDbEntity
  8
Capa 1
370
     0
100
AcDbVertex
100
AcDb2dVertex
 10
162.9545019906911
 20
155.1094976311486
 30
0.0
  0
SEQEND
  5
453
330
44E
100
AcDbEntity
  8
Capa 1
370
     0
  0
HATCH
  5
454
330
1F
100
AcDbEntity
  8
Capa 1
 62
     7
100
AcDbHatch
 10
0.0
 20
0.0
 30
0.0
210
0.0
220
0.0
230
1.0
  2
SOLID
 70
     1
 71
     0
 91
        1
 92
        1
 93
        3
 72
     1
 10
162.9545019906911
 20
155.1094976311486
 11
162.4466945811675
 21
158.0727984676593
 72
     1
 10
162.4466945811675
 20
158.0727984676593
 11
161.9385426618682
 21
155.1094976311486
 72
     1
 10
161.9385426618682
 20
155.1094976311486
 11
162.9545019906911
 21
155.1094976311486
 97
        0
 75
     0
 76
     1
 98
        0
  0
POLYLINE
  5
455
330
1F
100
AcDbEntity
  8
Capa 1
 62
     7
370
    25
100
AcDb2dPolyline
 66
     1
 10
0.0
 20
0.0
 30
0.0
  0
VERTEX
  5
456
330
455
100
AcDbEntity
  8
Capa 1
 62
     7
370
    25
100
AcDbVertex
100
AcDb2dVertex
 10
162.9545019906911
 20
57.48869079688249
 30
0.0
  0
VERTEX
  5
457
330
455
100
AcDbEntity
  8
Capa 1
 62
     7
370
    25
100
AcDbVertex
100
AcDb2dVertex
 10
162.4466945811675
 20
54.48318751283671
 30
0.0
  0
VERTEX
  5
458
330
455
100
AcDbEntity
  8
Capa 1
 62
     7
370
    25
100
AcDbVertex
100
AcDb2dVertex
 10
161.9385426618682
 20
57.48869079688249
 30
0.0
  0
VERTEX
  5
459
330
455
100
AcDbEntity
  8
Capa 1
 62
     7
370
    25
100
AcDbVertex
100
AcDb2dVertex
 10
162.9545019906911
 20
57.48869079688249
 30
0.0
  0
SEQEND
  5
45A
330
455
100
AcDbEntity
  8
Capa 1
370
    25
  0
POLYLINE
  5
45B
330
1F
100
AcDbEntity
  8
Capa 1
370
     0
100
AcDb2dPolyline
 66
     1
 10
0.0
 20
0.0
 30
0.0
  0
VERTEX
  5
45C
330
45B
100
AcDbEntity
  8
Capa 1
370
     0
100
AcDbVertex
100
AcDb2dVertex
 10
162.9545019906911
 20
57.48869079688249
 30
0.0
  0
VERTEX
  5
45D
330
45B
100
AcDbEntity
  8
Capa 1
370
     0
100
AcDbVertex
100
AcDb2dVertex
 10
162.4466945811675
 20
54.48318751283671
 30
0.0
  0
VERTEX
  5
45E
330
45B
100
AcDbEntity
  8
Capa 1
370
     0
100
AcDbVertex
100
AcDb2dVertex
 10
161.9385426618682
 20
57.48869079688249
 30
0.0
  0
VERTEX
  5
45F
330
45B
100
AcDbEntity
  8
Capa 1
370
     0
100
AcDbVertex
100
AcDb2dVertex
 10
162.9545019906911
 20
57.48869079688249
 30
0.0
  0
SEQEND
  5
460
330
45B
100
AcDbEntity
  8
Capa 1
370
     0
  0
HATCH
  5
461
330
1F
100
AcDbEntity
  8
Capa 1
 62
     7
100
AcDbHatch
 10
0.0
 20
0.0
 30
0.0
210
0.0
220
0.0
230
1.0
  2
SOLID
 70
     1
 71
     0
 91
        1
 92
        1
 93
        3
 72
     1
 10
162.9545019906911
 20
57.48869079688249
 11
162.4466945811675
 21
54.48318751283671
 72
     1
 10
162.4466945811675
 20
54.48318751283671
 11
161.9385426618682
 21
57.48869079688249
 72
     1
 10
161.9385426618682
 20
57.48869079688249
 11
162.9545019906911
 21
57.48869079688249
 97
        0
 75
     0
 76
     1
 98
        0
  0
POLYLINE
  5
462
330
1F
100
AcDbEntity
  8
Capa 1
 62
     7
370
    25
100
AcDb2dPolyline
 66
     1
 10
0.0
 20
0.0
 30
0.0
  0
VERTEX
  5
463
330
462
100
AcDbEntity
  8
Capa 1
 62
     7
370
    25
100
AcDbVertex
100
AcDb2dVertex
 10
149.5771873965258
 20
158.0727984676593
 30
0.0
  0
VERTEX
  5
464
330
462
100
AcDbEntity
  8
Capa 1
 62
     7
370
    25
100
AcDbVertex
100
AcDb2dVertex
 10
164.0128360219369
 20
158.0727984676593
 30
0.0
  0
SEQEND
  5
465
330
462
100
AcDbEntity
  8
Capa 1
370
    25
  0
POLYLINE
  5
466
330
1F
100
AcDbEntity
  8
Capa 1
 62
     7
370
    25
100
AcDb2dPolyline
 66
     1
 10
0.0
 20
0.0
 30
0.0
  0
VERTEX
  5
467
330
466
100
AcDbEntity
  8
Capa 1
 62
     7
370
    25
100
AcDbVertex
100
AcDb2dVertex
 10
145.2594463764724
 20
54.48318751283671
 30
0.0
  0
VERTEX
  5
468
330
466
100
AcDbEntity
  8
Capa 1
 62
     7
370
    25
100
AcDbVertex
100
AcDb2dVertex
 10
164.0128360219369
 20
54.48318751283671
 30
0.0
  0
SEQEND
  5
469
330
466
100
AcDbEntity
  8
Capa 1
370
    25
  0
POLYLINE
  5
46A
330
1F
100
AcDbEntity
  8
Capa 1
 62
     7
370
    25
100
AcDb2dPolyline
 66
     1
 10
0.0
 20
0.0
 30
0.0
  0
VERTEX
  5
46B
330
46A
100
AcDbEntity
  8
Capa 1
 62
     7
370
    25
100
AcDbVertex
100
AcDb2dVertex
 10
162.4466945811675
 20
158.0727984676593
 30
0.0
  0
VERTEX
  5
46C
330
46A
100
AcDbEntity
  8
Capa 1
 62
     7
370
    25
100
AcDbVertex
100
AcDb2dVertex
 10
162.4466945811675
 20
54.44081281041379
 30
0.0
  0
SEQEND
  5
46D
330
46A
100
AcDbEntity
  8
Capa 1
370
    25
  0
MTEXT
  5
46E
330
1F
100
AcDbEntity
  8
Capa 1
 62
     7
100
AcDbMText
 10
163.2084056954528
 20
110.9982936833192
 30
0.0
 40
2.860103161947027
 41
0.0
 71
     7
 72
     1
  1
\fHelvetica|b0|i0|c0|p34;\W1;1036
 11
1.192488045480604E-8
 21
-0.9999999999999999
 31
0.0
 73
     1
 44
1.0
  0
ENDSEC
  0
SECTION
  2
OBJECTS
  0
DICTIONARY
  5
C
330
0
100
AcDbDictionary
281
     1
  3
ACAD_GROUP
350
D
  3
ACAD_LAYOUT
350
1A
  3
ACAD_MATERIAL
350
482
  3
ACAD_MLEADERSTYLE
350
486
  3
ACAD_MLINESTYLE
350
17
  3
ACAD_PLOTSETTINGS
350
19
  3
ACAD_PLOTSTYLENAME
350
E
  3
ACAD_SCALELIST
350
470
  3
ACAD_TABLESTYLE
350
46F
  3
ACAD_VISUALSTYLE
350
2A
  3
AcDbVariableDictionary
350
496
  3
DWGPROPS
350
49F
  0
DICTIONARY
  5
4A0
330
8
100
AcDbDictionary
280
     1
281
     1
  3
ACAD_XREC_ROUNDTRIP
360
4A1
  0
DICTIONARY
  5
D
102
{ACAD_REACTORS
330
C
102
}
330
C
100
AcDbDictionary
281
     1
  0
DICTIONARY
  5
1A
102
{ACAD_REACTORS
330
C
102
}
330
C
100
AcDbDictionary
281
     1
  3
Layout1
350
1E
  3
Layout2
350
26
  3
Model
350
22
  0
DICTIONARY
  5
482
102
{ACAD_REACTORS
330
C
102
}
330
C
100
AcDbDictionary
281
     1
  3
ByBlock
350
484
  3
ByLayer
350
483
  3
Global
350
485
  0
DICTIONARY
  5
486
102
{ACAD_REACTORS
330
C
102
}
330
C
100
AcDbDictionary
281
     1
  3
Standard
350
487
  0
DICTIONARY
  5
17
102
{ACAD_REACTORS
330
C
102
}
330
C
100
AcDbDictionary
281
     1
  3
Standard
350
18
  0
DICTIONARY
  5
19
102
{ACAD_REACTORS
330
C
102
}
330
C
100
AcDbDictionary
281
     1
  0
ACDBDICTIONARYWDFLT
  5
E
102
{ACAD_REACTORS
330
C
102
}
330
C
100
AcDbDictionary
281
     1
  3
Normal
350
F
100
AcDbDictionaryWithDefault
340
F
  0
DICTIONARY
  5
470
102
{ACAD_REACTORS
330
C
102
}
330
C
100
AcDbDictionary
281
     1
  3
A0
350
471
  3
A1
350
472
  3
A2
350
473
  3
A3
350
474
  3
A4
350
475
  3
A5
350
476
  3
A6
350
477
  3
A7
350
478
  3
A8
350
479
  3
A9
350
47A
  3
B1
350
47B
  3
B2
350
47C
  3
B3
350
47D
  3
B4
350
47E
  3
B5
350
47F
  3
B6
350
480
  3
B7
350
481
  0
DICTIONARY
  5
46F
102
{ACAD_REACTORS
330
C
102
}
330
C
100
AcDbDictionary
281
     1
  3
Standard
350
492
  0
DICTIONARY
  5
2A
102
{ACAD_REACTORS
330
C
102
}
330
C
100
AcDbDictionary
281
     1
  3
2dWireframe
350
2F
  3
3D Hidden
350
31
  3
3dWireframe
350
30
  3
Basic
350
32
  3
Brighten
350
36
  3
ColorChange
350
3A
  3
Conceptual
350
34
  3
Dim
350
35
  3
EdgeColorOff
350
48C
  3
Facepattern
350
39
  3
Flat
350
2B
  3
FlatWithEdges
350
2C
  3
Gouraud
350
2D
  3
GouraudWithEdges
350
2E
  3
Hidden
350
489
  3
JitterOff
350
48A
  3
Linepattern
350
38
  3
OverhangOff
350
48B
  3
Realistic
350
33
  3
Shaded
350
491
  3
Shaded with edges
350
490
  3
Shades of Gray
350
48D
  3
Sketchy
350
48E
  3
Thicken
350
37
  3
Wireframe
350
488
  3
X-Ray
350
48F
  0
DICTIONARY
  5
496
102
{ACAD_REACTORS
330
C
102
}
330
C
100
AcDbDictionary
281
     1
  3
CANNOSCALE
350
4A2
  3
CMLEADERSTYLE
350
498
  3
CTABLESTYLE
350
497
  3
DIMASSOC
350
49D
  3
HIDETEXT
350
49E
  3
MSLTSCALE
350
499
  3
XCLIPFRAME
350
49A
  0
XRECORD
  5
49F
102
{ACAD_REACTORS
330
C
102
}
330
C
100
AcDbXrecord
280
     1
  1
DWGPROPS COOKIE
  2

  3

  4

  6

  7

  8
acae2
  9

300
=
301
=
302
=
303
=
304
=
305
=
306
=
307
=
308
=
309
=
 40
0.0
 41
2456275.598587963
 42
2460427.51224037
  1

 90
        0
  0
XRECORD
  5
4A1
102
{ACAD_REACTORS
330
4A0
102
}
330
4A0
100
AcDbXrecord
280
     1
102
VTR_0.000_0.000_1.000_1.000_VISUALSTYLE
340
2F
102
VTR_0.000_0.000_1.000_1.000_GRIDDISPLAY
 70
     3
102
VTR_0.000_0.000_1.000_1.000_GRIDMAJOR
 70
     5
102
VTR_0.000_0.000_1.000_1.000_DEFAULTLIGHTING
280
     1
102
VTR_0.000_0.000_1.000_1.000_DEFAULTLIGHTINGTYPE
 70
     1
102
VTR_0.000_0.000_1.000_1.000_BRIGHTNESS
141
0.0
102
VTR_0.000_0.000_1.000_1.000_CONTRAST
142
0.0
  0
LAYOUT
  5
1E
102
{ACAD_REACTORS
330
1A
102
}
330
1A
100
AcDbPlotSettings
  1

  2
none_device
  4

  6

 40
0.0
 41
0.0
 42
0.0
 43
0.0
 44
0.0
 45
0.0
 46
0.0
 47
0.0
 48
0.0
 49
0.0
140
0.0
141
0.0
142
1.0
143
1.0
 70
   688
 72
     0
 73
     0
 74
     5
  7

 75
    16
147
1.0
148
0.0
149
0.0
100
AcDbLayout
  1
Layout1
 70
     1
 71
     1
 10
0.0
 20
0.0
 11
12.0
 21
9.0
 12
0.0
 22
0.0
 32
0.0
 14
1.000000000000000E+20
 24
1.000000000000000E+20
 34
1.000000000000000E+20
 15
-1.000000000000000E+20
 25
-1.000000000000000E+20
 35
-1.000000000000000E+20
146
0.0
 13
0.0
 23
0.0
 33
0.0
 16
1.0
 26
0.0
 36
0.0
 17
0.0
 27
1.0
 37
0.0
 76
     0
330
1B
  0
LAYOUT
  5
26
102
{ACAD_REACTORS
330
1A
102
}
330
1A
100
AcDbPlotSettings
  1

  2
none_device
  4

  6

 40
0.0
 41
0.0
 42
0.0
 43
0.0
 44
0.0
 45
0.0
 46
0.0
 47
0.0
 48
0.0
 49
0.0
140
0.0
141
0.0
142
1.0
143
1.0
 70
   688
 72
     0
 73
     0
 74
     5
  7

 75
    16
147
1.0
148
0.0
149
0.0
100
AcDbLayout
  1
Layout2
 70
     1
 71
     2
 10
0.0
 20
0.0
 11
0.0
 21
0.0
 12
0.0
 22
0.0
 32
0.0
 14
0.0
 24
0.0
 34
0.0
 15
0.0
 25
0.0
 35
0.0
146
0.0
 13
0.0
 23
0.0
 33
0.0
 16
1.0
 26
0.0
 36
0.0
 17
0.0
 27
1.0
 37
0.0
 76
     0
330
23
  0
LAYOUT
  5
22
102
{ACAD_REACTORS
330
1A
102
}
330
1A
100
AcDbPlotSettings
  1

  2
none_device
  4

  6

 40
0.0
 41
0.0
 42
0.0
 43
0.0
 44
0.0
 45
0.0
 46
0.0
 47
0.0
 48
0.0
 49
0.0
140
0.0
141
0.0
142
1.0
143
1.0
 70
  1712
 72
     0
 73
     0
 74
     0
  7

 75
     0
147
1.0
148
0.0
149
0.0
100
AcDbLayout
  1
Model
 70
     1
 71
     0
 10
0.0
 20
0.0
 11
12.0
 21
9.0
 12
0.0
 22
0.0
 32
0.0
 14
1.000000000000000E+20
 24
1.000000000000000E+20
 34
1.000000000000000E+20
 15
-1.000000000000000E+20
 25
-1.000000000000000E+20
 35
-1.000000000000000E+20
146
0.0
 13
0.0
 23
0.0
 33
0.0
 16
1.0
 26
0.0
 36
0.0
 17
0.0
 27
1.0
 37
0.0
 76
     0
330
1F
331
29
  0
MATERIAL
  5
484
102
{ACAD_REACTORS
330
482
102
}
102
{ACAD_XDICTIONARY
360
4D9
102
}
330
482
100
AcDbMaterial
  1
ByBlock
  0
MATERIAL
  5
483
102
{ACAD_REACTORS
330
482
102
}
102
{ACAD_XDICTIONARY
360
4D7
102
}
330
482
100
AcDbMaterial
  1
ByLayer
  0
MATERIAL
  5
485
102
{ACAD_REACTORS
330
482
102
}
102
{ACAD_XDICTIONARY
360
4DB
102
}
330
482
100
AcDbMaterial
  1
Global
  0
MLEADERSTYLE
  5
487
102
{ACAD_REACTORS
330
486
102
}
102
{ACAD_XDICTIONARY
360
4DE
102
}
330
486
100
AcDbMLeaderStyle
170
     2
171
     1
172
     0
 90
        2
 40
0.0
 41
0.0
173
     1
 91
-1056964608
340
14
 92
       -2
290
     1
 42
0.09
291
     1
 43
0.36
  3
Standard
341
0
 44
0.18
300

342
11
174
     1
178
     6
175
     1
176
     0
 93
-1056964608
 45
0.18
292
     0
297
     0
 46
0.18
343
0
 94
-1056964608
 47
1.0
 49
1.0
140
1.0
293
     1
141
0.0
294
     1
177
     0
142
1.0
295
     0
296
     0
143
0.125
1001
ACAD_MLEADERVER
1070
     2
  0
MLINESTYLE
  5
18
102
{ACAD_REACTORS
330
17
102
}
330
17
100
AcDbMlineStyle
  2
Standard
 70
     0
  3

 62
   256
 51
90.0
 52
90.0
 71
     2
 49
0.5
 62
   256
  6
BYLAYER
 49
-0.5
 62
   256
  6
BYLAYER
  0
ACDBPLACEHOLDER
  5
F
102
{ACAD_REACTORS
330
E
102
}
330
E
  0
SCALE
  5
471
102
{ACAD_REACTORS
330
470
102
}
330
470
100
AcDbScale
 70
     0
300
1:1
140
1.0
141
1.0
290
     1
  0
SCALE
  5
472
102
{ACAD_REACTORS
330
470
102
}
330
470
100
AcDbScale
 70
     0
300
1/128" = 1'-0"
140
0.0078125
141
12.0
290
     0
  0
SCALE
  5
473
102
{ACAD_REACTORS
330
470
102
}
330
470
100
AcDbScale
 70
     0
300
1/64" = 1'-0"
140
0.015625
141
12.0
290
     0
  0
SCALE
  5
474
102
{ACAD_REACTORS
330
470
102
}
330
470
100
AcDbScale
 70
     0
300
1/32" = 1'-0"
140
0.03125
141
12.0
290
     0
  0
SCALE
  5
475
102
{ACAD_REACTORS
330
470
102
}
330
470
100
AcDbScale
 70
     0
300
1/16" = 1'-0"
140
0.0625
141
12.0
290
     0
  0
SCALE
  5
476
102
{ACAD_REACTORS
330
470
102
}
330
470
100
AcDbScale
 70
     0
300
3/32" = 1'-0"
140
0.09375
141
12.0
290
     0
  0
SCALE
  5
477
102
{ACAD_REACTORS
330
470
102
}
330
470
100
AcDbScale
 70
     0
300
1/8" = 1'-0"
140
0.125
141
12.0
290
     0
  0
SCALE
  5
478
102
{ACAD_REACTORS
330
470
102
}
330
470
100
AcDbScale
 70
     0
300
3/16" = 1'-0"
140
0.1875
141
12.0
290
     0
  0
SCALE
  5
479
102
{ACAD_REACTORS
330
470
102
}
330
470
100
AcDbScale
 70
     0
300
1/4" = 1'-0"
140
0.25
141
12.0
290
     0
  0
SCALE
  5
47A
102
{ACAD_REACTORS
330
470
102
}
330
470
100
AcDbScale
 70
     0
300
3/8" = 1'-0"
140
0.375
141
12.0
290
     0
  0
SCALE
  5
47B
102
{ACAD_REACTORS
330
470
102
}
330
470
100
AcDbScale
 70
     0
300
1/2" = 1'-0"
140
0.5
141
12.0
290
     0
  0
SCALE
  5
47C
102
{ACAD_REACTORS
330
470
102
}
330
470
100
AcDbScale
 70
     0
300
3/4" = 1'-0"
140
0.75
141
12.0
290
     0
  0
SCALE
  5
47D
102
{ACAD_REACTORS
330
470
102
}
330
470
100
AcDbScale
 70
     0
300
1" = 1'-0"
140
1.0
141
12.0
290
     0
  0
SCALE
  5
47E
102
{ACAD_REACTORS
330
470
102
}
330
470
100
AcDbScale
 70
     0
300
1-1/2" = 1'-0"
140
1.5
141
12.0
290
     0
  0
SCALE
  5
47F
102
{ACAD_REACTORS
330
470
102
}
330
470
100
AcDbScale
 70
     0
300
3" = 1'-0"
140
3.0
141
12.0
290
     0
  0
SCALE
  5
480
102
{ACAD_REACTORS
330
470
102
}
330
470
100
AcDbScale
 70
     0
300
6" = 1'-0"
140
6.0
141
12.0
290
     0
  0
SCALE
  5
481
102
{ACAD_REACTORS
330
470
102
}
330
470
100
AcDbScale
 70
     0
300
1'-0" = 1'-0"
140
12.0
141
12.0
290
     0
  0
TABLESTYLE
  5
492
102
{ACAD_REACTORS
330
46F
102
}
330
46F
100
AcDbTableStyle
  3
Standard
 70
     0
 71
     0
 40
0.06
 41
0.06
280
     0
281
     0
  7
Standard
140
0.18
170
     2
 62
     0
 63
   257
283
     0
274
    -2
284
     1
 64
     0
275
    -2
285
     1
 65
     0
276
    -2
286
     1
 66
     0
277
    -2
287
     1
 67
     0
278
    -2
288
     1
 68
     0
279
    -2
289
     1
 69
     0
  7
Standard
140
0.25
170
     5
 62
     0
 63
   257
283
     0
274
    -2
284
     1
 64
     0
275
    -2
285
     1
 65
     0
276
    -2
286
     1
 66
     0
277
    -2
287
     1
 67
     0
278
    -2
288
     1
 68
     0
279
    -2
289
     1
 69
     0
  7
Standard
140
0.18
170
     5
 62
     0
 63
   257
283
     0
274
    -2
284
     1
 64
     0
275
    -2
285
     1
 65
     0
276
    -2
286
     1
 66
     0
277
    -2
287
     1
 67
     0
278
    -2
288
     1
 68
     0
279
    -2
289
     1
 69
     0
  0
VISUALSTYLE
  5
2F
102
{ACAD_REACTORS
330
2A
102
}
102
{ACAD_XDICTIONARY
360
4AB
102
}
330
2A
100
AcDbVisualStyle
  2
2dWireframe
 70
     4
 71
     0
 72
     2
 73
     0
 90
        0
 40
-0.6
 41
-30.0
 62
     5
 63
     7
 74
     1
 91
        4
 64
     7
 65
   257
 75
     1
175
     1
 42
1.0
 92
        0
 66
   257
 43
1.0
 76
     1
 77
     6
 78
     2
 67
     7
 79
     5
170
     0
171
     0
290
     0
174
     0
 93
        1
 44
0.0
173
     0
291
     0
 45
0.0
1001
ACAD
1000
AcDbSavedByObjectVersion
1070
     0
  0
VISUALSTYLE
  5
31
102
{ACAD_REACTORS
330
2A
102
}
102
{ACAD_XDICTIONARY
360
4AF
102
}
330
2A
100
AcDbVisualStyle
  2
3D Hidden
 70
     6
 71
     1
 72
     2
 73
     2
 90
        0
 40
-0.6
 41
-30.0
 62
     5
 63
     7
 74
     2
 91
        2
 64
     7
 65
   257
 75
     2
175
     1
 42
40.0
 92
        0
 66
   257
 43
1.0
 76
     1
 77
     6
 78
     2
 67
     7
 79
     3
170
     0
171
     0
290
     0
174
     0
 93
        1
 44
0.0
173
     0
291
     0
 45
0.0
1001
ACAD
1000
AcDbSavedByObjectVersion
1070
     0
  0
VISUALSTYLE
  5
30
102
{ACAD_REACTORS
330
2A
102
}
102
{ACAD_XDICTIONARY
360
4AD
102
}
330
2A
100
AcDbVisualStyle
  2
3dWireframe
 70
     5
 71
     0
 72
     2
 73
     0
 90
        0
 40
-0.6
 41
-30.0
 62
     5
 63
     7
 74
     1
 91
        4
 64
     7
 65
   257
 75
     1
175
     1
 42
1.0
 92
        0
 66
   257
 43
1.0
 76
     1
 77
     6
 78
     2
 67
     7
 79
     5
170
     0
171
     0
290
     0
174
     0
 93
        1
 44
0.0
173
     0
291
     0
 45
0.0
1001
ACAD
1000
AcDbSavedByObjectVersion
1070
     0
  0
VISUALSTYLE
  5
32
102
{ACAD_REACTORS
330
2A
102
}
102
{ACAD_XDICTIONARY
360
4B1
102
}
330
2A
100
AcDbVisualStyle
  2
Basic
 70
     7
 71
     1
 72
     0
 73
     1
 90
        0
 40
-0.6
 41
-30.0
 62
     5
 63
     7
 74
     0
 91
        4
 64
     7
 65
   257
 75
     1
175
     1
 42
1.0
 92
        8
 66
     7
 43
1.0
 76
     1
 77
     6
 78
     2
 67
     7
 79
     5
170
     0
171
     0
290
     0
174
     0
 93
        1
 44
0.0
173
     0
291
     1
 45
0.0
1001
ACAD
1000
AcDbSavedByObjectVersion
1070
     0
  0
VISUALSTYLE
  5
36
102
{ACAD_REACTORS
330
2A
102
}
102
{ACAD_XDICTIONARY
360
4B9
102
}
330
2A
100
AcDbVisualStyle
  2
Brighten
 70
    12
 71
     2
 72
     2
 73
     0
 90
        0
 40
-0.6
 41
-30.0
 62
     5
 63
     7
 74
     1
 91
        4
 64
     7
 65
   257
 75
     1
175
     1
 42
1.0
 92
        8
 66
     7
 43
1.0
 76
     1
 77
     6
 78
     2
 67
     7
 79
     5
170
     0
171
     0
290
     0
174
     0
 93
        1
 44
50.0
173
     0
291
     1
 45
0.0
1001
ACAD
1000
AcDbSavedByObjectVersion
1070
     0
  0
VISUALSTYLE
  5
3A
102
{ACAD_REACTORS
330
2A
102
}
102
{ACAD_XDICTIONARY
360
4C1
102
}
330
2A
100
AcDbVisualStyle
  2
ColorChange
 70
    16
 71
     2
 72
     2
 73
     3
 90
        0
 40
-0.6
 41
-30.0
 62
     5
 63
     8
 74
     1
 91
        4
 64
     7
 65
   257
 75
     1
175
     1
 42
1.0
 92
        8
 66
     8
 43
1.0
 76
     1
 77
     6
 78
     2
 67
     7
 79
     5
170
     0
171
     0
290
     0
174
     0
 93
        1
 44
0.0
173
     0
291
     1
 45
0.0
1001
ACAD
1000
AcDbSavedByObjectVersion
1070
     0
  0
VISUALSTYLE
  5
34
102
{ACAD_REACTORS
330
2A
102
}
102
{ACAD_XDICTIONARY
360
4B5
102
}
330
2A
100
AcDbVisualStyle
  2
Conceptual
 70
     9
 71
     3
 72
     2
 73
     0
 90
        0
 40
-0.6
 41
-30.0
 62
     5
 63
     7
 74
     2
 91
        2
 64
     7
 65
   257
 75
     1
175
     1
 42
40.0
 92
        8
 66
     7
 43
1.0
 76
     1
 77
     6
 78
     2
 67
     7
 79
     3
170
     0
171
     0
290
     0
174
     0
 93
        1
 44
0.0
173
     0
291
     0
 45
0.0
1001
ACAD
1000
AcDbSavedByObjectVersion
1070
     0
  0
VISUALSTYLE
  5
35
102
{ACAD_REACTORS
330
2A
102
}
102
{ACAD_XDICTIONARY
360
4B7
102
}
330
2A
100
AcDbVisualStyle
  2
Dim
 70
    11
 71
     2
 72
     2
 73
     0
 90
        0
 40
-0.6
 41
-30.0
 62
     5
 63
     7
 74
     1
 91
        4
 64
     7
 65
   257
 75
     1
175
     1
 42
1.0
 92
        8
 66
     7
 43
1.0
 76
     1
 77
     6
 78
     2
 67
     7
 79
     5
170
     0
171
     0
290
     0
174
     0
 93
        1
 44
-50.0
173
     0
291
     1
 45
0.0
1001
ACAD
1000
AcDbSavedByObjectVersion
1070
     0
  0
VISUALSTYLE
  5
48C
102
{ACAD_REACTORS
330
2A
102
}
102
{ACAD_XDICTIONARY
360
4CB
102
}
330
2A
100
AcDbVisualStyle
  2
EdgeColorOff
 70
    22
 71
     2
 72
     2
 73
     0
 90
        0
 40
0.6
 41
30.0
 62
     5
 63
     7
 74
     1
 91
        4
 64
     7
 65
   257
 75
     1
175
     1
 42
1.0
 92
        8
 66
     7
 43
1.0
 76
     1
 77
     6
 78
     2
 67
     7
 79
     5
170
     0
171
     0
290
     0
174
     0
 93
        1
 44
0.0
173
     0
291
     1
 45
0.0
1001
ACAD
1000
AcDbSavedByObjectVersion
1070
     0
  0
VISUALSTYLE
  5
39
102
{ACAD_REACTORS
330
2A
102
}
102
{ACAD_XDICTIONARY
360
4BF
102
}
330
2A
100
AcDbVisualStyle
  2
Facepattern
 70
    15
 71
     2
 72
     2
 73
     0
 90
        0
 40
-0.6
 41
-30.0
 62
     5
 63
     7
 74
     1
 91
        4
 64
     7
 65
   257
 75
     1
175
     1
 42
1.0
 92
        8
 66
     7
 43
1.0
 76
     1
 77
     6
 78
     2
 67
     7
 79
     5
170
     0
171
     0
290
     0
174
     0
 93
        1
 44
0.0
173
     0
291
     1
 45
0.0
1001
ACAD
1000
AcDbSavedByObjectVersion
1070
     0
  0
VISUALSTYLE
  5
2B
102
{ACAD_REACTORS
330
2A
102
}
102
{ACAD_XDICTIONARY
360
4A3
102
}
330
2A
100
AcDbVisualStyle
  2
Flat
 70
     0
 71
     2
 72
     1
 73
     1
 90
        2
 40
-0.6
 41
30.0
 62
     5
 63
     7
 74
     0
 91
        4
 64
     7
 65
   257
 75
     1
175
     1
 42
1.0
 92
        8
 66
     7
 43
1.0
 76
     1
 77
     6
 78
     2
 67
     7
 79
     5
170
     0
171
     0
290
     0
174
     0
 93
       13
 44
0.0
173
     0
291
     1
 45
0.0
1001
ACAD
1000
AcDbSavedByObjectVersion
1070
     0
  0
VISUALSTYLE
  5
2C
102
{ACAD_REACTORS
330
2A
102
}
102
{ACAD_XDICTIONARY
360
4A5
102
}
330
2A
100
AcDbVisualStyle
  2
FlatWithEdges
 70
     1
 71
     2
 72
     1
 73
     1
 90
        2
 40
-0.6
 41
30.0
 62
     5
 63
     7
 74
     1
 91
        4
 64
     7
 65
   257
 75
     1
175
     1
 42
1.0
 92
        0
 66
   257
 43
1.0
 76
     1
 77
     6
 78
     2
 67
     7
 79
     5
170
     0
171
     0
290
     0
174
     0
 93
       13
 44
0.0
173
     0
291
     1
 45
0.0
1001
ACAD
1000
AcDbSavedByObjectVersion
1070
     0
  0
VISUALSTYLE
  5
2D
102
{ACAD_REACTORS
330
2A
102
}
102
{ACAD_XDICTIONARY
360
4A7
102
}
330
2A
100
AcDbVisualStyle
  2
Gouraud
 70
     2
 71
     2
 72
     2
 73
     1
 90
        2
 40
-0.6
 41
30.0
 62
     5
 63
     7
 74
     0
 91
        4
 64
     7
 65
   257
 75
     1
175
     1
 42
1.0
 92
        0
 66
     7
 43
1.0
 76
     1
 77
     6
 78
     2
 67
     7
 79
     5
170
     0
171
     0
290
     0
174
     0
 93
       13
 44
0.0
173
     0
291
     1
 45
0.0
1001
ACAD
1000
AcDbSavedByObjectVersion
1070
     0
  0
VISUALSTYLE
  5
2E
102
{ACAD_REACTORS
330
2A
102
}
102
{ACAD_XDICTIONARY
360
4A9
102
}
330
2A
100
AcDbVisualStyle
  2
GouraudWithEdges
 70
     3
 71
     2
 72
     2
 73
     1
 90
        2
 40
-0.6
 41
30.0
 62
     5
 63
     7
 74
     1
 91
        4
 64
     7
 65
   257
 75
     1
175
     1
 42
1.0
 92
        0
 66
   257
 43
1.0
 76
     1
 77
     6
 78
     2
 67
     7
 79
     5
170
     0
171
     0
290
     0
174
     0
 93
       13
 44
0.0
173
     0
291
     1
 45
0.0
1001
ACAD
1000
AcDbSavedByObjectVersion
1070
     0
  0
VISUALSTYLE
  5
489
102
{ACAD_REACTORS
330
2A
102
}
102
{ACAD_XDICTIONARY
360
4C5
102
}
330
2A
100
AcDbVisualStyle
  2
Hidden
 70
     6
 71
     1
 72
     2
 73
     2
 90
        0
 40
0.6
 41
30.0
 62
     5
 63
     7
 74
     2
 91
        2
 64
     7
 65
   257
 75
     2
175
     1
 42
40.0
 92
        0
 66
   257
 43
1.0
 76
     1
 77
     6
 78
     2
 67
     7
 79
     3
170
     0
171
     0
290
     0
174
     0
 93
        1
 44
0.0
173
     0
291
     0
 45
0.0
1001
ACAD
1000
AcDbSavedByObjectVersion
1070
     0
  0
VISUALSTYLE
  5
48A
102
{ACAD_REACTORS
330
2A
102
}
102
{ACAD_XDICTIONARY
360
4C7
102
}
330
2A
100
AcDbVisualStyle
  2
JitterOff
 70
    20
 71
     2
 72
     2
 73
     0
 90
        0
 40
0.6
 41
30.0
 62
     5
 63
     7
 74
     1
 91
        4
 64
     7
 65
   257
 75
     1
175
     1
 42
1.0
 92
       10
 66
     7
 43
1.0
 76
     1
 77
     6
 78
     2
 67
     7
 79
     5
170
     0
171
     0
290
     0
174
     0
 93
        1
 44
0.0
173
     0
291
     1
 45
0.0
1001
ACAD
1000
AcDbSavedByObjectVersion
1070
     0
  0
VISUALSTYLE
  5
38
102
{ACAD_REACTORS
330
2A
102
}
102
{ACAD_XDICTIONARY
360
4BD
102
}
330
2A
100
AcDbVisualStyle
  2
Linepattern
 70
    14
 71
     2
 72
     2
 73
     0
 90
        0
 40
-0.6
 41
-30.0
 62
     5
 63
     7
 74
     1
 91
        4
 64
     7
 65
   257
 75
     7
175
     7
 42
1.0
 92
        8
 66
     7
 43
1.0
 76
     1
 77
     6
 78
     2
 67
     7
 79
     5
170
     0
171
     0
290
     0
174
     0
 93
        1
 44
0.0
173
     0
291
     1
 45
0.0
1001
ACAD
1000
AcDbSavedByObjectVersion
1070
     0
  0
VISUALSTYLE
  5
48B
102
{ACAD_REACTORS
330
2A
102
}
102
{ACAD_XDICTIONARY
360
4C9
102
}
330
2A
100
AcDbVisualStyle
  2
OverhangOff
 70
    21
 71
     2
 72
     2
 73
     0
 90
        0
 40
0.6
 41
30.0
 62
     5
 63
     7
 74
     1
 91
        4
 64
     7
 65
   257
 75
     1
175
     1
 42
1.0
 92
        9
 66
     7
 43
1.0
 76
     1
 77
     6
 78
     2
 67
     7
 79
     5
170
     0
171
     0
290
     0
174
     0
 93
        1
 44
0.0
173
     0
291
     1
 45
0.0
1001
ACAD
1000
AcDbSavedByObjectVersion
1070
     0
  0
VISUALSTYLE
  5
33
102
{ACAD_REACTORS
330
2A
102
}
102
{ACAD_XDICTIONARY
360
4B3
102
}
330
2A
100
AcDbVisualStyle
  2
Realistic
 70
     8
 71
     2
 72
     2
 73
     0
 90
        0
 40
-0.6
 41
-30.0
 62
     5
 63
     7
 74
     1
 91
        0
 64
     7
 65
   257
 75
     1
175
     1
 42
1.0
 92
        8
 66
     8
 43
1.0
 76
     1
 77
     6
 78
     2
 67
     7
 79
     5
170
     0
171
     0
290
     0
174
     0
 93
       13
 44
0.0
173
     0
291
     0
 45
0.0
1001
ACAD
1000
AcDbSavedByObjectVersion
1070
     0
  0
VISUALSTYLE
  5
491
102
{ACAD_REACTORS
330
2A
102
}
102
{ACAD_XDICTIONARY
360
4D5
102
}
330
2A
100
AcDbVisualStyle
  2
Shaded
 70
    27
 71
     2
 72
     2
 73
     1
 90
        2
 40
0.6
 41
30.0
 62
     5
 63
     7
 74
     0
 91
        4
 64
     7
 65
   257
 75
     1
175
     1
 42
1.0
 92
        8
 66
   257
 43
1.0
 76
     1
 77
     6
 78
     2
 67
     8
 79
     3
170
     0
171
     0
290
     0
174
     0
 93
        5
 44
0.0
173
     0
291
     0
 45
0.0
1001
ACAD
1000
AcDbSavedByObjectVersion
1070
     0
  0
VISUALSTYLE
  5
490
102
{ACAD_REACTORS
330
2A
102
}
102
{ACAD_XDICTIONARY
360
4D3
102
}
330
2A
100
AcDbVisualStyle
  2
Shaded with edges
 70
    26
 71
     2
 72
     2
 73
     1
 90
        2
 40
0.6
 41
30.0
 62
     5
 63
     7
 74
     1
 91
       10
 64
     7
 65
   257
 75
     2
175
     1
 42
1.0
 92
        8
 66
   257
 43
1.0
 76
     1
 77
     6
 78
     2
 67
     7
 79
     3
170
     0
171
     0
290
     0
174
     0
 93
        5
 44
0.0
173
     0
291
     0
 45
0.0
1001
ACAD
1000
AcDbSavedByObjectVersion
1070
     0
  0
VISUALSTYLE
  5
48D
102
{ACAD_REACTORS
330
2A
102
}
102
{ACAD_XDICTIONARY
360
4CD
102
}
330
2A
100
AcDbVisualStyle
  2
Shades of Gray
 70
    23
 71
     2
 72
     2
 73
     3
 90
        0
 40
0.6
 41
30.0
 62
     5
 63
     7
 74
     2
 91
        2
 64
     7
 65
     7
 75
     1
175
     1
 42
40.0
 92
        8
 66
     7
 43
1.0
 76
     1
 77
     6
 78
     2
 67
     7
 79
     3
170
     0
171
     0
290
     0
174
     0
 93
        1
 44
0.0
173
     0
291
     0
 45
0.0
1001
ACAD
1000
AcDbSavedByObjectVersion
1070
     0
  0
VISUALSTYLE
  5
48E
102
{ACAD_REACTORS
330
2A
102
}
102
{ACAD_XDICTIONARY
360
4CF
102
}
330
2A
100
AcDbVisualStyle
  2
Sketchy
 70
    24
 71
     1
 72
     2
 73
     2
 90
        0
 40
0.6
 41
30.0
 62
     5
 63
     7
 74
     2
 91
        2
 64
     7
 65
     7
 75
     1
175
     1
 42
40.0
 92
       11
 66
     7
 43
1.0
 76
     1
 77
     6
 78
     2
 67
     7
 79
     6
170
     0
171
     0
290
     0
174
     0
 93
        1
 44
0.0
173
     0
291
     0
 45
0.0
1001
ACAD
1000
AcDbSavedByObjectVersion
1070
     0
  0
VISUALSTYLE
  5
37
102
{ACAD_REACTORS
330
2A
102
}
102
{ACAD_XDICTIONARY
360
4BB
102
}
330
2A
100
AcDbVisualStyle
  2
Thicken
 70
    13
 71
     2
 72
     2
 73
     0
 90
        0
 40
-0.6
 41
-30.0
 62
     5
 63
     7
 74
     1
 91
        4
 64
     7
 65
   257
 75
     1
175
     1
 42
1.0
 92
       12
 66
     7
 43
1.0
 76
     1
 77
     6
 78
     2
 67
     7
 79
     5
170
     0
171
     0
290
     0
174
     0
 93
        1
 44
0.0
173
     0
291
     1
 45
0.0
1001
ACAD
1000
AcDbSavedByObjectVersion
1070
     0
  0
VISUALSTYLE
  5
488
102
{ACAD_REACTORS
330
2A
102
}
102
{ACAD_XDICTIONARY
360
4C3
102
}
330
2A
100
AcDbVisualStyle
  2
Wireframe
 70
     5
 71
     0
 72
     2
 73
     0
 90
        0
 40
0.6
 41
30.0
 62
     5
 63
     7
 74
     1
 91
        4
 64
     7
 65
   257
 75
     1
175
     1
 42
1.0
 92
        0
 66
   257
 43
1.0
 76
     1
 77
     6
 78
     2
 67
     7
 79
     3
170
     0
171
     0
290
     0
174
     0
 93
        1
 44
0.0
173
     0
291
     0
 45
0.0
1001
ACAD
1000
AcDbSavedByObjectVersion
1070
     0
  0
VISUALSTYLE
  5
48F
102
{ACAD_REACTORS
330
2A
102
}
102
{ACAD_XDICTIONARY
360
4D1
102
}
330
2A
100
AcDbVisualStyle
  2
X-Ray
 70
    25
 71
     2
 72
     2
 73
     1
 90
        1
 40
0.5
 41
30.0
 62
     5
 63
     7
 74
     1
 91
        0
 64
     7
 65
   257
 75
     1
175
     1
 42
1.0
 92
        8
 66
     7
 43
1.0
 76
     1
 77
     6
 78
     2
 67
     7
 79
     3
170
     0
171
     0
290
     0
174
     0
 93
       13
 44
0.0
173
     0
291
     0
 45
0.0
1001
ACAD
1000
AcDbSavedByObjectVersion
1070
     0
  0
DICTIONARYVAR
  5
4A2
102
{ACAD_REACTORS
330
496
102
}
330
496
100
DictionaryVariables
280
     0
  1
1:1
  0
DICTIONARYVAR
  5
498
102
{ACAD_REACTORS
330
496
102
}
330
496
100
DictionaryVariables
280
     0
  1
Standard
  0
DICTIONARYVAR
  5
497
102
{ACAD_REACTORS
330
496
102
}
330
496
100
DictionaryVariables
280
     0
  1
Standard
  0
DICTIONARYVAR
  5
49D
102
{ACAD_REACTORS
330
496
102
}
330
496
100
DictionaryVariables
280
     0
  1
2
  0
DICTIONARYVAR
  5
49E
102
{ACAD_REACTORS
330
496
102
}
330
496
100
DictionaryVariables
280
     0
  1
1
  0
DICTIONARYVAR
  5
499
102
{ACAD_REACTORS
330
496
102
}
330
496
100
DictionaryVariables
280
     0
  1
0
  0
DICTIONARYVAR
  5
49A
102
{ACAD_REACTORS
330
496
102
}
330
496
100
DictionaryVariables
280
     0
  1
0
  0
DICTIONARY
  5
4D9
330
484
100
AcDbDictionary
280
     1
281
     1
  3
ACAD_XREC_ROUNDTRIP
360
4DA
  0
DICTIONARY
  5
4D7
330
483
100
AcDbDictionary
280
     1
281
     1
  3
ACAD_XREC_ROUNDTRIP
360
4D8
  0
DICTIONARY
  5
4DB
330
485
100
AcDbDictionary
280
     1
281
     1
  3
ACAD_XREC_ROUNDTRIP
360
4DC
  0
DICTIONARY
  5
4DE
330
487
100
AcDbDictionary
280
     1
281
     1
  3
ACAD_XREC_ROUNDTRIP
360
4DF
  0
DICTIONARY
  5
4AB
330
2F
100
AcDbDictionary
280
     1
281
     1
  3
ACAD_XREC_ROUNDTRIP
360
4AC
  0
DICTIONARY
  5
4AF
330
31
100
AcDbDictionary
280
     1
281
     1
  3
ACAD_XREC_ROUNDTRIP
360
4B0
  0
DICTIONARY
  5
4AD
330
30
100
AcDbDictionary
280
     1
281
     1
  3
ACAD_XREC_ROUNDTRIP
360
4AE
  0
DICTIONARY
  5
4B1
330
32
100
AcDbDictionary
280
     1
281
     1
  3
ACAD_XREC_ROUNDTRIP
360
4B2
  0
DICTIONARY
  5
4B9
330
36
100
AcDbDictionary
280
     1
281
     1
  3
ACAD_XREC_ROUNDTRIP
360
4BA
  0
DICTIONARY
  5
4C1
330
3A
100
AcDbDictionary
280
     1
281
     1
  3
ACAD_XREC_ROUNDTRIP
360
4C2
  0
DICTIONARY
  5
4B5
330
34
100
AcDbDictionary
280
     1
281
     1
  3
ACAD_XREC_ROUNDTRIP
360
4B6
  0
DICTIONARY
  5
4B7
330
35
100
AcDbDictionary
280
     1
281
     1
  3
ACAD_XREC_ROUNDTRIP
360
4B8
  0
DICTIONARY
  5
4CB
330
48C
100
AcDbDictionary
280
     1
281
     1
  3
ACAD_XREC_ROUNDTRIP
360
4CC
  0
DICTIONARY
  5
4BF
330
39
100
AcDbDictionary
280
     1
281
     1
  3
ACAD_XREC_ROUNDTRIP
360
4C0
  0
DICTIONARY
  5
4A3
330
2B
100
AcDbDictionary
280
     1
281
     1
  3
ACAD_XREC_ROUNDTRIP
360
4A4
  0
DICTIONARY
  5
4A5
330
2C
100
AcDbDictionary
280
     1
281
     1
  3
ACAD_XREC_ROUNDTRIP
360
4A6
  0
DICTIONARY
  5
4A7
330
2D
100
AcDbDictionary
280
     1
281
     1
  3
ACAD_XREC_ROUNDTRIP
360
4A8
  0
DICTIONARY
  5
4A9
330
2E
100
AcDbDictionary
280
     1
281
     1
  3
ACAD_XREC_ROUNDTRIP
360
4AA
  0
DICTIONARY
  5
4C5
330
489
100
AcDbDictionary
280
     1
281
     1
  3
ACAD_XREC_ROUNDTRIP
360
4C6
  0
DICTIONARY
  5
4C7
330
48A
100
AcDbDictionary
280
     1
281
     1
  3
ACAD_XREC_ROUNDTRIP
360
4C8
  0
DICTIONARY
  5
4BD
330
38
100
AcDbDictionary
280
     1
281
     1
  3
ACAD_XREC_ROUNDTRIP
360
4BE
  0
DICTIONARY
  5
4C9
330
48B
100
AcDbDictionary
280
     1
281
     1
  3
ACAD_XREC_ROUNDTRIP
360
4CA
  0
DICTIONARY
  5
4B3
330
33
100
AcDbDictionary
280
     1
281
     1
  3
ACAD_XREC_ROUNDTRIP
360
4B4
  0
DICTIONARY
  5
4D5
330
491
100
AcDbDictionary
280
     1
281
     1
  3
ACAD_XREC_ROUNDTRIP
360
4D6
  0
DICTIONARY
  5
4D3
330
490
100
AcDbDictionary
280
     1
281
     1
  3
ACAD_XREC_ROUNDTRIP
360
4D4
  0
DICTIONARY
  5
4CD
330
48D
100
AcDbDictionary
280
     1
281
     1
  3
ACAD_XREC_ROUNDTRIP
360
4CE
  0
DICTIONARY
  5
4CF
330
48E
100
AcDbDictionary
280
     1
281
     1
  3
ACAD_XREC_ROUNDTRIP
360
4D0
  0
DICTIONARY
  5
4BB
330
37
100
AcDbDictionary
280
     1
281
     1
  3
ACAD_XREC_ROUNDTRIP
360
4BC
  0
DICTIONARY
  5
4C3
330
488
100
AcDbDictionary
280
     1
281
     1
  3
ACAD_XREC_ROUNDTRIP
360
4C4
  0
DICTIONARY
  5
4D1
330
48F
100
AcDbDictionary
280
     1
281
     1
  3
ACAD_XREC_ROUNDTRIP
360
4D2
  0
XRECORD
  5
4DA
102
{ACAD_REACTORS
330
4D9
102
}
330
4D9
100
AcDbXrecord
280
     1
102
MATERIAL
148
0.0
149
0.0
149
0.0
 93
        0
 94
      127
282
     0
 72
     1
 77
     1
171
     1
175
     1
179
     1
273
     0
  0
XRECORD
  5
4D8
102
{ACAD_REACTORS
330
4D7
102
}
330
4D7
100
AcDbXrecord
280
     1
102
MATERIAL
148
0.0
149
0.0
149
0.0
 93
        0
 94
      127
282
     0
 72
     1
 77
     1
171
     1
175
     1
179
     1
273
     0
  0
XRECORD
  5
4DC
102
{ACAD_REACTORS
330
4DB
102
}
330
4DB
100
AcDbXrecord
280
     1
102
MATERIAL
148
0.0
149
0.0
149
0.0
 93
        0
 94
      127
282
     0
 72
     1
 77
     1
171
     1
175
     1
179
     1
273
     0
  0
XRECORD
  5
4DF
102
{ACAD_REACTORS
330
4DE
102
}
330
4DE
100
AcDbXrecord
280
     1
102
ACAD_ROUNDTRIP_2010_MLEADER_STYLE
  0
XRECORD
  5
4AC
102
{ACAD_REACTORS
330
4AB
102
}
330
4AB
100
AcDbXrecord
280
     1
102
RTVSPropertyOp0
 70
     1
102
RTVSPropertyOp1
 70
     1
102
RTVSPropertyOp2
 70
     1
102
RTVSPropertyOp3
 70
     1
102
RTVSPropertyOp4
 70
     1
102
RTVSPropertyOp5
 70
     1
102
RTVSPropertyOp6
 70
     1
102
RTVSPropertyOp7
 70
     1
102
RTVSPropertyOp8
 70
     1
102
RTVSPropertyOp9
 70
     1
102
RTVSPropertyOp10
 70
     1
102
RTVSPropertyOp11
 70
     1
102
RTVSPropertyOp12
 70
     1
102
RTVSPropertyOp13
 70
     1
102
RTVSPropertyOp14
 70
     1
102
RTVSPropertyOp15
 70
     1
102
RTVSPropertyOp16
 70
     1
102
RTVSPropertyOp17
 70
     1
102
RTVSPropertyOp18
 70
     1
102
RTVSPropertyOp19
 70
     1
102
RTVSPropertyOp20
 70
     1
102
RTVSPropertyOp21
 70
     1
102
RTVSPropertyOp22
 70
     1
102
RTVSPropertyOp23
 70
     1
102
RTVSPropertyOp24
 70
     1
102
RTVSPropertyOp25
 70
     1
102
RTVSPropertyOp26
 70
     1
102
RTVSPropertyOp27
 70
     1
102
RTVSPropertyOp28
 70
     1
102
RTVSPropertyOp29
 70
     1
102
RTVSPropertyOp30
 70
     1
102
RTVSPropertyOp31
 70
     1
102
RTVSPropertyOp32
 70
     1
102
RTVSPropertyOp33
 70
     1
102
RTVSPropertyOp34
 70
     1
102
RTVSPropertyOp35
 70
     1
102
RTVSPropertyOp36
 70
     1
102
RTVSPropertyOp37
 70
     1
102
RTVSPropertyOp38
 70
     1
102
RTVSPropertyOp39
 70
     1
102
RTVSPropertyOp40
 70
     1
102
RTVSPropertyOp41
 70
     1
102
RTVSPropertyOp42
 70
     1
102
RTVSPropertyOp43
 70
     1
102
RTVSPropertyOp44
 70
     1
102
RTVSPropertyOp45
 70
     1
102
RTVSPropertyOp46
 70
     1
102
RTVSPropertyOp47
 70
     1
102
RTVSPropertyOp48
 70
     1
102
RTVSPropertyOp49
 70
     1
102
RTVSPropertyOp50
 70
     1
102
RTVSPropertyOp51
 70
     0
102
RTVSPropertyOp52
 70
     0
102
RTVSPropertyOp53
 70
     1
102
RTVSPropertyOp54
 70
     1
102
RTVSPropertyOp55
 70
     1
102
RTVSPropertyOp56
 70
     1
102
RTVSPropertyOp57
 70
     1
102
RTVSPost2010Prop28
280
     1
102
RTVSPost2010PropOp28
 70
     1
102
RTVSPost2010Prop29
280
     1
102
RTVSPost2010PropOp29
 70
     1
102
RTVSPost2010Prop30
280
     0
102
RTVSPost2010PropOp30
 70
     1
102
RTVSPost2010Prop31
280
     0
102
RTVSPost2010PropOp31
 70
     1
102
RTVSPost2010Prop32
280
     0
102
RTVSPost2010PropOp32
 70
     1
102
RTVSPost2010Prop33
280
     0
102
RTVSPost2010PropOp33
 70
     1
102
RTVSPost2010Prop34
280
     0
102
RTVSPost2010PropOp34
 70
     1
102
RTVSPost2010Prop35
280
     0
102
RTVSPost2010PropOp35
 70
     1
102
RTVSPost2010Prop36
280
     0
102
RTVSPost2010PropOp36
 70
     1
102
RTVSPost2010Prop37
 90
       50
102
RTVSPost2010PropOp37
 70
     1
102
RTVSPost2010Prop38
140
0.0
102
RTVSPost2010PropOp38
 70
     1
102
RTVSPost2010Prop39
140
1.0
102
RTVSPost2010PropOp39
 70
     1
102
RTVSPost2010Prop40
 90
        0
102
RTVSPost2010PropOp40
 70
     1
102
RTVSPost2010Prop41ColorIndex
 90
       18
102
RTVSPost2010Prop41ColorRGB
 90
        0
102
RTVSPost2010PropOp41
 70
     1
102
RTVSPost2010Prop42
 90
       50
102
RTVSPost2010PropOp42
 70
     1
102
RTVSPost2010Prop43
 90
        3
102
RTVSPost2010PropOp43
 70
     1
102
RTVSPost2010Prop44ColorIndex
 90
        5
102
RTVSPost2010Prop44ColorRGB
 90
      255
102
RTVSPost2010PropOp44
 70
     1
102
RTVSPost2010Prop45
280
     0
102
RTVSPost2010PropOp45
 70
     1
102
RTVSPost2010Prop46
 90
       50
102
RTVSPost2010PropOp46
 70
     1
102
RTVSPost2010Prop47
 90
       50
102
RTVSPost2010PropOp47
 70
     1
102
RTVSPost2010Prop48
 90
       50
102
RTVSPost2010PropOp48
 70
     1
102
RTVSPost2010Prop49
280
     0
102
RTVSPost2010PropOp49
 70
     1
102
RTVSPost2010Prop50
 90
       50
102
RTVSPost2010PropOp50
 70
     1
102
RTVSPost2010Prop51ColorIndex
 90
      256
102
RTVSPost2010Prop51ColorRGB
 90
-16777216
102
RTVSPost2010PropOp51
 70
     0
102
RTVSPost2010Prop52
140
1.0
102
RTVSPost2010PropOp52
 70
     0
102
RTVSPost2010Prop53
 90
        2
102
RTVSPost2010PropOp53
 70
     1
102
RTVSPost2010Prop54
  1
strokes_ogs.tif
102
RTVSPost2010PropOp54
 70
     1
102
RTVSPost2010Prop55
280
     0
102
RTVSPost2010PropOp55
 70
     1
102
RTVSPost2010Prop56
140
1.0
102
RTVSPost2010PropOp56
 70
     1
102
RTVSPost2010Prop57
140
1.0
102
RTVSPost2010PropOp57
 70
     1
  0
XRECORD
  5
4B0
102
{ACAD_REACTORS
330
4AF
102
}
330
4AF
100
AcDbXrecord
280
     1
102
RTVSPropertyOp0
 70
     1
102
RTVSPropertyOp1
 70
     1
102
RTVSPropertyOp2
 70
     1
102
RTVSPropertyOp3
 70
     1
102
RTVSPropertyOp4
 70
     1
102
RTVSPropertyOp5
 70
     1
102
RTVSPropertyOp6
 70
     1
102
RTVSPropertyOp7
 70
     1
102
RTVSPropertyOp8
 70
     1
102
RTVSPropertyOp9
 70
     1
102
RTVSPropertyOp10
 70
     1
102
RTVSPropertyOp11
 70
     1
102
RTVSPropertyOp12
 70
     1
102
RTVSPropertyOp13
 70
     1
102
RTVSPropertyOp14
 70
     1
102
RTVSPropertyOp15
 70
     1
102
RTVSPropertyOp16
 70
     1
102
RTVSPropertyOp17
 70
     1
102
RTVSPropertyOp18
 70
     1
102
RTVSPropertyOp19
 70
     1
102
RTVSPropertyOp20
 70
     1
102
RTVSPropertyOp21
 70
     1
102
RTVSPropertyOp22
 70
     1
102
RTVSPropertyOp23
 70
     1
102
RTVSPropertyOp24
 70
     1
102
RTVSPropertyOp25
 70
     1
102
RTVSPropertyOp26
 70
     1
102
RTVSPropertyOp27
 70
     1
102
RTVSPropertyOp28
 70
     1
102
RTVSPropertyOp29
 70
     1
102
RTVSPropertyOp30
 70
     1
102
RTVSPropertyOp31
 70
     1
102
RTVSPropertyOp32
 70
     1
102
RTVSPropertyOp33
 70
     1
102
RTVSPropertyOp34
 70
     1
102
RTVSPropertyOp35
 70
     1
102
RTVSPropertyOp36
 70
     1
102
RTVSPropertyOp37
 70
     1
102
RTVSPropertyOp38
 70
     1
102
RTVSPropertyOp39
 70
     1
102
RTVSPropertyOp40
 70
     1
102
RTVSPropertyOp41
 70
     1
102
RTVSPropertyOp42
 70
     1
102
RTVSPropertyOp43
 70
     1
102
RTVSPropertyOp44
 70
     1
102
RTVSPropertyOp45
 70
     1
102
RTVSPropertyOp46
 70
     1
102
RTVSPropertyOp47
 70
     1
102
RTVSPropertyOp48
 70
     1
102
RTVSPropertyOp49
 70
     1
102
RTVSPropertyOp50
 70
     1
102
RTVSPropertyOp51
 70
     0
102
RTVSPropertyOp52
 70
     0
102
RTVSPropertyOp53
 70
     1
102
RTVSPropertyOp54
 70
     1
102
RTVSPropertyOp55
 70
     1
102
RTVSPropertyOp56
 70
     1
102
RTVSPropertyOp57
 70
     1
102
RTVSPost2010Prop28
280
     0
102
RTVSPost2010PropOp28
 70
     1
102
RTVSPost2010Prop29
280
     1
102
RTVSPost2010PropOp29
 70
     1
102
RTVSPost2010Prop30
280
     1
102
RTVSPost2010PropOp30
 70
     1
102
RTVSPost2010Prop31
280
     0
102
RTVSPost2010PropOp31
 70
     1
102
RTVSPost2010Prop32
280
     0
102
RTVSPost2010PropOp32
 70
     1
102
RTVSPost2010Prop33
280
     0
102
RTVSPost2010PropOp33
 70
     1
102
RTVSPost2010Prop34
280
     0
102
RTVSPost2010PropOp34
 70
     1
102
RTVSPost2010Prop35
280
     0
102
RTVSPost2010PropOp35
 70
     1
102
RTVSPost2010Prop36
280
     0
102
RTVSPost2010PropOp36
 70
     1
102
RTVSPost2010Prop37
 90
       50
102
RTVSPost2010PropOp37
 70
     1
102
RTVSPost2010Prop38
140
0.0
102
RTVSPost2010PropOp38
 70
     1
102
RTVSPost2010Prop39
140
1.0
102
RTVSPost2010PropOp39
 70
     1
102
RTVSPost2010Prop40
 90
        0
102
RTVSPost2010PropOp40
 70
     1
102
RTVSPost2010Prop41ColorIndex
 90
       18
102
RTVSPost2010Prop41ColorRGB
 90
        0
102
RTVSPost2010PropOp41
 70
     1
102
RTVSPost2010Prop42
 90
       50
102
RTVSPost2010PropOp42
 70
     1
102
RTVSPost2010Prop43
 90
        3
102
RTVSPost2010PropOp43
 70
     1
102
RTVSPost2010Prop44ColorIndex
 90
        5
102
RTVSPost2010Prop44ColorRGB
 90
      255
102
RTVSPost2010PropOp44
 70
     1
102
RTVSPost2010Prop45
280
     0
102
RTVSPost2010PropOp45
 70
     1
102
RTVSPost2010Prop46
 90
       50
102
RTVSPost2010PropOp46
 70
     1
102
RTVSPost2010Prop47
 90
       50
102
RTVSPost2010PropOp47
 70
     1
102
RTVSPost2010Prop48
 90
       50
102
RTVSPost2010PropOp48
 70
     1
102
RTVSPost2010Prop49
280
     0
102
RTVSPost2010PropOp49
 70
     1
102
RTVSPost2010Prop50
 90
       50
102
RTVSPost2010PropOp50
 70
     1
102
RTVSPost2010Prop51ColorIndex
 90
      256
102
RTVSPost2010Prop51ColorRGB
 90
-16777216
102
RTVSPost2010PropOp51
 70
     0
102
RTVSPost2010Prop52
140
1.0
102
RTVSPost2010PropOp52
 70
     0
102
RTVSPost2010Prop53
 90
        2
102
RTVSPost2010PropOp53
 70
     1
102
RTVSPost2010Prop54
  1
strokes_ogs.tif
102
RTVSPost2010PropOp54
 70
     1
102
RTVSPost2010Prop55
280
     0
102
RTVSPost2010PropOp55
 70
     1
102
RTVSPost2010Prop56
140
1.0
102
RTVSPost2010PropOp56
 70
     1
102
RTVSPost2010Prop57
140
1.0
102
RTVSPost2010PropOp57
 70
     1
  0
XRECORD
  5
4AE
102
{ACAD_REACTORS
330
4AD
102
}
330
4AD
100
AcDbXrecord
280
     1
102
RTVSPropertyOp0
 70
     1
102
RTVSPropertyOp1
 70
     1
102
RTVSPropertyOp2
 70
     1
102
RTVSPropertyOp3
 70
     1
102
RTVSPropertyOp4
 70
     1
102
RTVSPropertyOp5
 70
     1
102
RTVSPropertyOp6
 70
     1
102
RTVSPropertyOp7
 70
     1
102
RTVSPropertyOp8
 70
     1
102
RTVSPropertyOp9
 70
     1
102
RTVSPropertyOp10
 70
     1
102
RTVSPropertyOp11
 70
     1
102
RTVSPropertyOp12
 70
     1
102
RTVSPropertyOp13
 70
     1
102
RTVSPropertyOp14
 70
     1
102
RTVSPropertyOp15
 70
     1
102
RTVSPropertyOp16
 70
     1
102
RTVSPropertyOp17
 70
     1
102
RTVSPropertyOp18
 70
     1
102
RTVSPropertyOp19
 70
     1
102
RTVSPropertyOp20
 70
     1
102
RTVSPropertyOp21
 70
     1
102
RTVSPropertyOp22
 70
     1
102
RTVSPropertyOp23
 70
     1
102
RTVSPropertyOp24
 70
     1
102
RTVSPropertyOp25
 70
     1
102
RTVSPropertyOp26
 70
     1
102
RTVSPropertyOp27
 70
     1
102
RTVSPropertyOp28
 70
     1
102
RTVSPropertyOp29
 70
     1
102
RTVSPropertyOp30
 70
     1
102
RTVSPropertyOp31
 70
     1
102
RTVSPropertyOp32
 70
     1
102
RTVSPropertyOp33
 70
     1
102
RTVSPropertyOp34
 70
     1
102
RTVSPropertyOp35
 70
     1
102
RTVSPropertyOp36
 70
     1
102
RTVSPropertyOp37
 70
     1
102
RTVSPropertyOp38
 70
     1
102
RTVSPropertyOp39
 70
     1
102
RTVSPropertyOp40
 70
     1
102
RTVSPropertyOp41
 70
     1
102
RTVSPropertyOp42
 70
     1
102
RTVSPropertyOp43
 70
     1
102
RTVSPropertyOp44
 70
     1
102
RTVSPropertyOp45
 70
     1
102
RTVSPropertyOp46
 70
     1
102
RTVSPropertyOp47
 70
     1
102
RTVSPropertyOp48
 70
     1
102
RTVSPropertyOp49
 70
     1
102
RTVSPropertyOp50
 70
     1
102
RTVSPropertyOp51
 70
     0
102
RTVSPropertyOp52
 70
     0
102
RTVSPropertyOp53
 70
     1
102
RTVSPropertyOp54
 70
     1
102
RTVSPropertyOp55
 70
     1
102
RTVSPropertyOp56
 70
     1
102
RTVSPropertyOp57
 70
     1
102
RTVSPost2010Prop28
280
     0
102
RTVSPost2010PropOp28
 70
     1
102
RTVSPost2010Prop29
280
     1
102
RTVSPost2010PropOp29
 70
     1
102
RTVSPost2010Prop30
280
     1
102
RTVSPost2010PropOp30
 70
     1
102
RTVSPost2010Prop31
280
     0
102
RTVSPost2010PropOp31
 70
     1
102
RTVSPost2010Prop32
280
     0
102
RTVSPost2010PropOp32
 70
     1
102
RTVSPost2010Prop33
280
     0
102
RTVSPost2010PropOp33
 70
     1
102
RTVSPost2010Prop34
280
     0
102
RTVSPost2010PropOp34
 70
     1
102
RTVSPost2010Prop35
280
     0
102
RTVSPost2010PropOp35
 70
     1
102
RTVSPost2010Prop36
280
     0
102
RTVSPost2010PropOp36
 70
     1
102
RTVSPost2010Prop37
 90
       50
102
RTVSPost2010PropOp37
 70
     1
102
RTVSPost2010Prop38
140
0.0
102
RTVSPost2010PropOp38
 70
     1
102
RTVSPost2010Prop39
140
1.0
102
RTVSPost2010PropOp39
 70
     1
102
RTVSPost2010Prop40
 90
        0
102
RTVSPost2010PropOp40
 70
     1
102
RTVSPost2010Prop41ColorIndex
 90
       18
102
RTVSPost2010Prop41ColorRGB
 90
        0
102
RTVSPost2010PropOp41
 70
     1
102
RTVSPost2010Prop42
 90
       50
102
RTVSPost2010PropOp42
 70
     1
102
RTVSPost2010Prop43
 90
        3
102
RTVSPost2010PropOp43
 70
     1
102
RTVSPost2010Prop44ColorIndex
 90
        5
102
RTVSPost2010Prop44ColorRGB
 90
      255
102
RTVSPost2010PropOp44
 70
     1
102
RTVSPost2010Prop45
280
     0
102
RTVSPost2010PropOp45
 70
     1
102
RTVSPost2010Prop46
 90
       50
102
RTVSPost2010PropOp46
 70
     1
102
RTVSPost2010Prop47
 90
       50
102
RTVSPost2010PropOp47
 70
     1
102
RTVSPost2010Prop48
 90
       50
102
RTVSPost2010PropOp48
 70
     1
102
RTVSPost2010Prop49
280
     0
102
RTVSPost2010PropOp49
 70
     1
102
RTVSPost2010Prop50
 90
       50
102
RTVSPost2010PropOp50
 70
     1
102
RTVSPost2010Prop51ColorIndex
 90
      256
102
RTVSPost2010Prop51ColorRGB
 90
-16777216
102
RTVSPost2010PropOp51
 70
     0
102
RTVSPost2010Prop52
140
1.0
102
RTVSPost2010PropOp52
 70
     0
102
RTVSPost2010Prop53
 90
        2
102
RTVSPost2010PropOp53
 70
     1
102
RTVSPost2010Prop54
  1
strokes_ogs.tif
102
RTVSPost2010PropOp54
 70
     1
102
RTVSPost2010Prop55
280
     0
102
RTVSPost2010PropOp55
 70
     1
102
RTVSPost2010Prop56
140
1.0
102
RTVSPost2010PropOp56
 70
     1
102
RTVSPost2010Prop57
140
1.0
102
RTVSPost2010PropOp57
 70
     1
  0
XRECORD
  5
4B2
102
{ACAD_REACTORS
330
4B1
102
}
330
4B1
100
AcDbXrecord
280
     1
102
RTVSPropertyOp0
 70
     1
102
RTVSPropertyOp1
 70
     1
102
RTVSPropertyOp2
 70
     1
102
RTVSPropertyOp3
 70
     1
102
RTVSPropertyOp4
 70
     1
102
RTVSPropertyOp5
 70
     1
102
RTVSPropertyOp6
 70
     1
102
RTVSPropertyOp7
 70
     1
102
RTVSPropertyOp8
 70
     1
102
RTVSPropertyOp9
 70
     1
102
RTVSPropertyOp10
 70
     1
102
RTVSPropertyOp11
 70
     1
102
RTVSPropertyOp12
 70
     1
102
RTVSPropertyOp13
 70
     1
102
RTVSPropertyOp14
 70
     1
102
RTVSPropertyOp15
 70
     1
102
RTVSPropertyOp16
 70
     1
102
RTVSPropertyOp17
 70
     1
102
RTVSPropertyOp18
 70
     1
102
RTVSPropertyOp19
 70
     1
102
RTVSPropertyOp20
 70
     1
102
RTVSPropertyOp21
 70
     1
102
RTVSPropertyOp22
 70
     1
102
RTVSPropertyOp23
 70
     1
102
RTVSPropertyOp24
 70
     1
102
RTVSPropertyOp25
 70
     1
102
RTVSPropertyOp26
 70
     1
102
RTVSPropertyOp27
 70
     1
102
RTVSPropertyOp28
 70
     1
102
RTVSPropertyOp29
 70
     1
102
RTVSPropertyOp30
 70
     1
102
RTVSPropertyOp31
 70
     1
102
RTVSPropertyOp32
 70
     1
102
RTVSPropertyOp33
 70
     1
102
RTVSPropertyOp34
 70
     1
102
RTVSPropertyOp35
 70
     1
102
RTVSPropertyOp36
 70
     1
102
RTVSPropertyOp37
 70
     1
102
RTVSPropertyOp38
 70
     1
102
RTVSPropertyOp39
 70
     1
102
RTVSPropertyOp40
 70
     1
102
RTVSPropertyOp41
 70
     1
102
RTVSPropertyOp42
 70
     1
102
RTVSPropertyOp43
 70
     1
102
RTVSPropertyOp44
 70
     1
102
RTVSPropertyOp45
 70
     1
102
RTVSPropertyOp46
 70
     1
102
RTVSPropertyOp47
 70
     1
102
RTVSPropertyOp48
 70
     1
102
RTVSPropertyOp49
 70
     1
102
RTVSPropertyOp50
 70
     1
102
RTVSPropertyOp51
 70
     0
102
RTVSPropertyOp52
 70
     0
102
RTVSPropertyOp53
 70
     1
102
RTVSPropertyOp54
 70
     1
102
RTVSPropertyOp55
 70
     1
102
RTVSPropertyOp56
 70
     1
102
RTVSPropertyOp57
 70
     1
102
RTVSPost2010Prop28
280
     0
102
RTVSPost2010PropOp28
 70
     1
102
RTVSPost2010Prop29
280
     1
102
RTVSPost2010PropOp29
 70
     1
102
RTVSPost2010Prop30
280
     1
102
RTVSPost2010PropOp30
 70
     1
102
RTVSPost2010Prop31
280
     0
102
RTVSPost2010PropOp31
 70
     1
102
RTVSPost2010Prop32
280
     0
102
RTVSPost2010PropOp32
 70
     1
102
RTVSPost2010Prop33
280
     0
102
RTVSPost2010PropOp33
 70
     1
102
RTVSPost2010Prop34
280
     0
102
RTVSPost2010PropOp34
 70
     1
102
RTVSPost2010Prop35
280
     0
102
RTVSPost2010PropOp35
 70
     1
102
RTVSPost2010Prop36
280
     0
102
RTVSPost2010PropOp36
 70
     1
102
RTVSPost2010Prop37
 90
       50
102
RTVSPost2010PropOp37
 70
     1
102
RTVSPost2010Prop38
140
0.0
102
RTVSPost2010PropOp38
 70
     1
102
RTVSPost2010Prop39
140
1.0
102
RTVSPost2010PropOp39
 70
     1
102
RTVSPost2010Prop40
 90
        0
102
RTVSPost2010PropOp40
 70
     1
102
RTVSPost2010Prop41ColorIndex
 90
       18
102
RTVSPost2010Prop41ColorRGB
 90
        0
102
RTVSPost2010PropOp41
 70
     1
102
RTVSPost2010Prop42
 90
       50
102
RTVSPost2010PropOp42
 70
     1
102
RTVSPost2010Prop43
 90
        3
102
RTVSPost2010PropOp43
 70
     1
102
RTVSPost2010Prop44ColorIndex
 90
        5
102
RTVSPost2010Prop44ColorRGB
 90
      255
102
RTVSPost2010PropOp44
 70
     1
102
RTVSPost2010Prop45
280
     0
102
RTVSPost2010PropOp45
 70
     1
102
RTVSPost2010Prop46
 90
       50
102
RTVSPost2010PropOp46
 70
     1
102
RTVSPost2010Prop47
 90
       50
102
RTVSPost2010PropOp47
 70
     1
102
RTVSPost2010Prop48
 90
       50
102
RTVSPost2010PropOp48
 70
     1
102
RTVSPost2010Prop49
280
     0
102
RTVSPost2010PropOp49
 70
     1
102
RTVSPost2010Prop50
 90
       50
102
RTVSPost2010PropOp50
 70
     1
102
RTVSPost2010Prop51ColorIndex
 90
      256
102
RTVSPost2010Prop51ColorRGB
 90
-16777216
102
RTVSPost2010PropOp51
 70
     0
102
RTVSPost2010Prop52
140
1.0
102
RTVSPost2010PropOp52
 70
     0
102
RTVSPost2010Prop53
 90
        2
102
RTVSPost2010PropOp53
 70
     1
102
RTVSPost2010Prop54
  1
strokes_ogs.tif
102
RTVSPost2010PropOp54
 70
     1
102
RTVSPost2010Prop55
280
     0
102
RTVSPost2010PropOp55
 70
     1
102
RTVSPost2010Prop56
140
1.0
102
RTVSPost2010PropOp56
 70
     1
102
RTVSPost2010Prop57
140
1.0
102
RTVSPost2010PropOp57
 70
     1
  0
XRECORD
  5
4BA
102
{ACAD_REACTORS
330
4B9
102
}
330
4B9
100
AcDbXrecord
280
     1
102
RTVSPropertyOp0
 70
     1
102
RTVSPropertyOp1
 70
     1
102
RTVSPropertyOp2
 70
     1
102
RTVSPropertyOp3
 70
     1
102
RTVSPropertyOp4
 70
     1
102
RTVSPropertyOp5
 70
     1
102
RTVSPropertyOp6
 70
     1
102
RTVSPropertyOp7
 70
     1
102
RTVSPropertyOp8
 70
     1
102
RTVSPropertyOp9
 70
     1
102
RTVSPropertyOp10
 70
     1
102
RTVSPropertyOp11
 70
     1
102
RTVSPropertyOp12
 70
     1
102
RTVSPropertyOp13
 70
     1
102
RTVSPropertyOp14
 70
     1
102
RTVSPropertyOp15
 70
     1
102
RTVSPropertyOp16
 70
     1
102
RTVSPropertyOp17
 70
     1
102
RTVSPropertyOp18
 70
     1
102
RTVSPropertyOp19
 70
     1
102
RTVSPropertyOp20
 70
     1
102
RTVSPropertyOp21
 70
     1
102
RTVSPropertyOp22
 70
     1
102
RTVSPropertyOp23
 70
     1
102
RTVSPropertyOp24
 70
     1
102
RTVSPropertyOp25
 70
     1
102
RTVSPropertyOp26
 70
     1
102
RTVSPropertyOp27
 70
     1
102
RTVSPropertyOp28
 70
     1
102
RTVSPropertyOp29
 70
     1
102
RTVSPropertyOp30
 70
     1
102
RTVSPropertyOp31
 70
     1
102
RTVSPropertyOp32
 70
     1
102
RTVSPropertyOp33
 70
     1
102
RTVSPropertyOp34
 70
     1
102
RTVSPropertyOp35
 70
     1
102
RTVSPropertyOp36
 70
     1
102
RTVSPropertyOp37
 70
     1
102
RTVSPropertyOp38
 70
     1
102
RTVSPropertyOp39
 70
     1
102
RTVSPropertyOp40
 70
     1
102
RTVSPropertyOp41
 70
     1
102
RTVSPropertyOp42
 70
     1
102
RTVSPropertyOp43
 70
     1
102
RTVSPropertyOp44
 70
     1
102
RTVSPropertyOp45
 70
     1
102
RTVSPropertyOp46
 70
     1
102
RTVSPropertyOp47
 70
     1
102
RTVSPropertyOp48
 70
     1
102
RTVSPropertyOp49
 70
     1
102
RTVSPropertyOp50
 70
     1
102
RTVSPropertyOp51
 70
     0
102
RTVSPropertyOp52
 70
     0
102
RTVSPropertyOp53
 70
     1
102
RTVSPropertyOp54
 70
     1
102
RTVSPropertyOp55
 70
     1
102
RTVSPropertyOp56
 70
     1
102
RTVSPropertyOp57
 70
     1
102
RTVSPost2010Prop28
280
     0
102
RTVSPost2010PropOp28
 70
     1
102
RTVSPost2010Prop29
280
     1
102
RTVSPost2010PropOp29
 70
     1
102
RTVSPost2010Prop30
280
     1
102
RTVSPost2010PropOp30
 70
     1
102
RTVSPost2010Prop31
280
     0
102
RTVSPost2010PropOp31
 70
     1
102
RTVSPost2010Prop32
280
     0
102
RTVSPost2010PropOp32
 70
     1
102
RTVSPost2010Prop33
280
     0
102
RTVSPost2010PropOp33
 70
     1
102
RTVSPost2010Prop34
280
     0
102
RTVSPost2010PropOp34
 70
     1
102
RTVSPost2010Prop35
280
     0
102
RTVSPost2010PropOp35
 70
     1
102
RTVSPost2010Prop36
280
     0
102
RTVSPost2010PropOp36
 70
     1
102
RTVSPost2010Prop37
 90
       50
102
RTVSPost2010PropOp37
 70
     1
102
RTVSPost2010Prop38
140
0.0
102
RTVSPost2010PropOp38
 70
     1
102
RTVSPost2010Prop39
140
1.0
102
RTVSPost2010PropOp39
 70
     1
102
RTVSPost2010Prop40
 90
        0
102
RTVSPost2010PropOp40
 70
     1
102
RTVSPost2010Prop41ColorIndex
 90
       18
102
RTVSPost2010Prop41ColorRGB
 90
        0
102
RTVSPost2010PropOp41
 70
     1
102
RTVSPost2010Prop42
 90
       50
102
RTVSPost2010PropOp42
 70
     1
102
RTVSPost2010Prop43
 90
        3
102
RTVSPost2010PropOp43
 70
     1
102
RTVSPost2010Prop44ColorIndex
 90
        5
102
RTVSPost2010Prop44ColorRGB
 90
      255
102
RTVSPost2010PropOp44
 70
     1
102
RTVSPost2010Prop45
280
     0
102
RTVSPost2010PropOp45
 70
     1
102
RTVSPost2010Prop46
 90
       50
102
RTVSPost2010PropOp46
 70
     1
102
RTVSPost2010Prop47
 90
       50
102
RTVSPost2010PropOp47
 70
     1
102
RTVSPost2010Prop48
 90
       50
102
RTVSPost2010PropOp48
 70
     1
102
RTVSPost2010Prop49
280
     0
102
RTVSPost2010PropOp49
 70
     1
102
RTVSPost2010Prop50
 90
       50
102
RTVSPost2010PropOp50
 70
     1
102
RTVSPost2010Prop51ColorIndex
 90
      256
102
RTVSPost2010Prop51ColorRGB
 90
-16777216
102
RTVSPost2010PropOp51
 70
     0
102
RTVSPost2010Prop52
140
1.0
102
RTVSPost2010PropOp52
 70
     0
102
RTVSPost2010Prop53
 90
        2
102
RTVSPost2010PropOp53
 70
     1
102
RTVSPost2010Prop54
  1
strokes_ogs.tif
102
RTVSPost2010PropOp54
 70
     1
102
RTVSPost2010Prop55
280
     0
102
RTVSPost2010PropOp55
 70
     1
102
RTVSPost2010Prop56
140
1.0
102
RTVSPost2010PropOp56
 70
     1
102
RTVSPost2010Prop57
140
1.0
102
RTVSPost2010PropOp57
 70
     1
  0
XRECORD
  5
4C2
102
{ACAD_REACTORS
330
4C1
102
}
330
4C1
100
AcDbXrecord
280
     1
102
RTVSPropertyOp0
 70
     1
102
RTVSPropertyOp1
 70
     1
102
RTVSPropertyOp2
 70
     1
102
RTVSPropertyOp3
 70
     1
102
RTVSPropertyOp4
 70
     1
102
RTVSPropertyOp5
 70
     1
102
RTVSPropertyOp6
 70
     1
102
RTVSPropertyOp7
 70
     1
102
RTVSPropertyOp8
 70
     1
102
RTVSPropertyOp9
 70
     1
102
RTVSPropertyOp10
 70
     1
102
RTVSPropertyOp11
 70
     1
102
RTVSPropertyOp12
 70
     1
102
RTVSPropertyOp13
 70
     1
102
RTVSPropertyOp14
 70
     1
102
RTVSPropertyOp15
 70
     1
102
RTVSPropertyOp16
 70
     1
102
RTVSPropertyOp17
 70
     1
102
RTVSPropertyOp18
 70
     1
102
RTVSPropertyOp19
 70
     1
102
RTVSPropertyOp20
 70
     1
102
RTVSPropertyOp21
 70
     1
102
RTVSPropertyOp22
 70
     1
102
RTVSPropertyOp23
 70
     1
102
RTVSPropertyOp24
 70
     1
102
RTVSPropertyOp25
 70
     1
102
RTVSPropertyOp26
 70
     1
102
RTVSPropertyOp27
 70
     1
102
RTVSPropertyOp28
 70
     1
102
RTVSPropertyOp29
 70
     1
102
RTVSPropertyOp30
 70
     1
102
RTVSPropertyOp31
 70
     1
102
RTVSPropertyOp32
 70
     1
102
RTVSPropertyOp33
 70
     1
102
RTVSPropertyOp34
 70
     1
102
RTVSPropertyOp35
 70
     1
102
RTVSPropertyOp36
 70
     1
102
RTVSPropertyOp37
 70
     1
102
RTVSPropertyOp38
 70
     1
102
RTVSPropertyOp39
 70
     1
102
RTVSPropertyOp40
 70
     1
102
RTVSPropertyOp41
 70
     1
102
RTVSPropertyOp42
 70
     1
102
RTVSPropertyOp43
 70
     1
102
RTVSPropertyOp44
 70
     1
102
RTVSPropertyOp45
 70
     1
102
RTVSPropertyOp46
 70
     1
102
RTVSPropertyOp47
 70
     1
102
RTVSPropertyOp48
 70
     1
102
RTVSPropertyOp49
 70
     1
102
RTVSPropertyOp50
 70
     1
102
RTVSPropertyOp51
 70
     0
102
RTVSPropertyOp52
 70
     0
102
RTVSPropertyOp53
 70
     1
102
RTVSPropertyOp54
 70
     1
102
RTVSPropertyOp55
 70
     1
102
RTVSPropertyOp56
 70
     1
102
RTVSPropertyOp57
 70
     1
102
RTVSPost2010Prop28
280
     0
102
RTVSPost2010PropOp28
 70
     1
102
RTVSPost2010Prop29
280
     1
102
RTVSPost2010PropOp29
 70
     1
102
RTVSPost2010Prop30
280
     1
102
RTVSPost2010PropOp30
 70
     1
102
RTVSPost2010Prop31
280
     0
102
RTVSPost2010PropOp31
 70
     1
102
RTVSPost2010Prop32
280
     0
102
RTVSPost2010PropOp32
 70
     1
102
RTVSPost2010Prop33
280
     0
102
RTVSPost2010PropOp33
 70
     1
102
RTVSPost2010Prop34
280
     0
102
RTVSPost2010PropOp34
 70
     1
102
RTVSPost2010Prop35
280
     0
102
RTVSPost2010PropOp35
 70
     1
102
RTVSPost2010Prop36
280
     0
102
RTVSPost2010PropOp36
 70
     1
102
RTVSPost2010Prop37
 90
       50
102
RTVSPost2010PropOp37
 70
     1
102
RTVSPost2010Prop38
140
0.0
102
RTVSPost2010PropOp38
 70
     1
102
RTVSPost2010Prop39
140
1.0
102
RTVSPost2010PropOp39
 70
     1
102
RTVSPost2010Prop40
 90
        0
102
RTVSPost2010PropOp40
 70
     1
102
RTVSPost2010Prop41ColorIndex
 90
       18
102
RTVSPost2010Prop41ColorRGB
 90
        0
102
RTVSPost2010PropOp41
 70
     1
102
RTVSPost2010Prop42
 90
       50
102
RTVSPost2010PropOp42
 70
     1
102
RTVSPost2010Prop43
 90
        3
102
RTVSPost2010PropOp43
 70
     1
102
RTVSPost2010Prop44ColorIndex
 90
        5
102
RTVSPost2010Prop44ColorRGB
 90
      255
102
RTVSPost2010PropOp44
 70
     1
102
RTVSPost2010Prop45
280
     0
102
RTVSPost2010PropOp45
 70
     1
102
RTVSPost2010Prop46
 90
       50
102
RTVSPost2010PropOp46
 70
     1
102
RTVSPost2010Prop47
 90
       50
102
RTVSPost2010PropOp47
 70
     1
102
RTVSPost2010Prop48
 90
       50
102
RTVSPost2010PropOp48
 70
     1
102
RTVSPost2010Prop49
280
     0
102
RTVSPost2010PropOp49
 70
     1
102
RTVSPost2010Prop50
 90
       50
102
RTVSPost2010PropOp50
 70
     1
102
RTVSPost2010Prop51ColorIndex
 90
      256
102
RTVSPost2010Prop51ColorRGB
 90
-16777216
102
RTVSPost2010PropOp51
 70
     0
102
RTVSPost2010Prop52
140
1.0
102
RTVSPost2010PropOp52
 70
     0
102
RTVSPost2010Prop53
 90
        2
102
RTVSPost2010PropOp53
 70
     1
102
RTVSPost2010Prop54
  1
strokes_ogs.tif
102
RTVSPost2010PropOp54
 70
     1
102
RTVSPost2010Prop55
280
     0
102
RTVSPost2010PropOp55
 70
     1
102
RTVSPost2010Prop56
140
1.0
102
RTVSPost2010PropOp56
 70
     1
102
RTVSPost2010Prop57
140
1.0
102
RTVSPost2010PropOp57
 70
     1
  0
XRECORD
  5
4B6
102
{ACAD_REACTORS
330
4B5
102
}
330
4B5
100
AcDbXrecord
280
     1
102
RTVSPropertyOp0
 70
     1
102
RTVSPropertyOp1
 70
     1
102
RTVSPropertyOp2
 70
     1
102
RTVSPropertyOp3
 70
     1
102
RTVSPropertyOp4
 70
     1
102
RTVSPropertyOp5
 70
     1
102
RTVSPropertyOp6
 70
     1
102
RTVSPropertyOp7
 70
     1
102
RTVSPropertyOp8
 70
     1
102
RTVSPropertyOp9
 70
     1
102
RTVSPropertyOp10
 70
     1
102
RTVSPropertyOp11
 70
     1
102
RTVSPropertyOp12
 70
     1
102
RTVSPropertyOp13
 70
     1
102
RTVSPropertyOp14
 70
     1
102
RTVSPropertyOp15
 70
     1
102
RTVSPropertyOp16
 70
     1
102
RTVSPropertyOp17
 70
     1
102
RTVSPropertyOp18
 70
     1
102
RTVSPropertyOp19
 70
     1
102
RTVSPropertyOp20
 70
     1
102
RTVSPropertyOp21
 70
     1
102
RTVSPropertyOp22
 70
     1
102
RTVSPropertyOp23
 70
     1
102
RTVSPropertyOp24
 70
     1
102
RTVSPropertyOp25
 70
     1
102
RTVSPropertyOp26
 70
     1
102
RTVSPropertyOp27
 70
     1
102
RTVSPropertyOp28
 70
     1
102
RTVSPropertyOp29
 70
     1
102
RTVSPropertyOp30
 70
     1
102
RTVSPropertyOp31
 70
     1
102
RTVSPropertyOp32
 70
     1
102
RTVSPropertyOp33
 70
     1
102
RTVSPropertyOp34
 70
     1
102
RTVSPropertyOp35
 70
     1
102
RTVSPropertyOp36
 70
     1
102
RTVSPropertyOp37
 70
     1
102
RTVSPropertyOp38
 70
     1
102
RTVSPropertyOp39
 70
     1
102
RTVSPropertyOp40
 70
     1
102
RTVSPropertyOp41
 70
     1
102
RTVSPropertyOp42
 70
     1
102
RTVSPropertyOp43
 70
     1
102
RTVSPropertyOp44
 70
     1
102
RTVSPropertyOp45
 70
     1
102
RTVSPropertyOp46
 70
     1
102
RTVSPropertyOp47
 70
     1
102
RTVSPropertyOp48
 70
     1
102
RTVSPropertyOp49
 70
     1
102
RTVSPropertyOp50
 70
     1
102
RTVSPropertyOp51
 70
     0
102
RTVSPropertyOp52
 70
     0
102
RTVSPropertyOp53
 70
     1
102
RTVSPropertyOp54
 70
     1
102
RTVSPropertyOp55
 70
     1
102
RTVSPropertyOp56
 70
     1
102
RTVSPropertyOp57
 70
     1
102
RTVSPost2010Prop28
280
     0
102
RTVSPost2010PropOp28
 70
     1
102
RTVSPost2010Prop29
280
     1
102
RTVSPost2010PropOp29
 70
     1
102
RTVSPost2010Prop30
280
     1
102
RTVSPost2010PropOp30
 70
     1
102
RTVSPost2010Prop31
280
     0
102
RTVSPost2010PropOp31
 70
     1
102
RTVSPost2010Prop32
280
     0
102
RTVSPost2010PropOp32
 70
     1
102
RTVSPost2010Prop33
280
     0
102
RTVSPost2010PropOp33
 70
     1
102
RTVSPost2010Prop34
280
     0
102
RTVSPost2010PropOp34
 70
     1
102
RTVSPost2010Prop35
280
     0
102
RTVSPost2010PropOp35
 70
     1
102
RTVSPost2010Prop36
280
     0
102
RTVSPost2010PropOp36
 70
     1
102
RTVSPost2010Prop37
 90
       50
102
RTVSPost2010PropOp37
 70
     1
102
RTVSPost2010Prop38
140
0.0
102
RTVSPost2010PropOp38
 70
     1
102
RTVSPost2010Prop39
140
1.0
102
RTVSPost2010PropOp39
 70
     1
102
RTVSPost2010Prop40
 90
        0
102
RTVSPost2010PropOp40
 70
     1
102
RTVSPost2010Prop41ColorIndex
 90
       18
102
RTVSPost2010Prop41ColorRGB
 90
        0
102
RTVSPost2010PropOp41
 70
     1
102
RTVSPost2010Prop42
 90
       50
102
RTVSPost2010PropOp42
 70
     1
102
RTVSPost2010Prop43
 90
        3
102
RTVSPost2010PropOp43
 70
     1
102
RTVSPost2010Prop44ColorIndex
 90
        5
102
RTVSPost2010Prop44ColorRGB
 90
      255
102
RTVSPost2010PropOp44
 70
     1
102
RTVSPost2010Prop45
280
     0
102
RTVSPost2010PropOp45
 70
     1
102
RTVSPost2010Prop46
 90
       50
102
RTVSPost2010PropOp46
 70
     1
102
RTVSPost2010Prop47
 90
       50
102
RTVSPost2010PropOp47
 70
     1
102
RTVSPost2010Prop48
 90
       50
102
RTVSPost2010PropOp48
 70
     1
102
RTVSPost2010Prop49
280
     0
102
RTVSPost2010PropOp49
 70
     1
102
RTVSPost2010Prop50
 90
       50
102
RTVSPost2010PropOp50
 70
     1
102
RTVSPost2010Prop51ColorIndex
 90
      256
102
RTVSPost2010Prop51ColorRGB
 90
-16777216
102
RTVSPost2010PropOp51
 70
     0
102
RTVSPost2010Prop52
140
1.0
102
RTVSPost2010PropOp52
 70
     0
102
RTVSPost2010Prop53
 90
        2
102
RTVSPost2010PropOp53
 70
     1
102
RTVSPost2010Prop54
  1
strokes_ogs.tif
102
RTVSPost2010PropOp54
 70
     1
102
RTVSPost2010Prop55
280
     0
102
RTVSPost2010PropOp55
 70
     1
102
RTVSPost2010Prop56
140
1.0
102
RTVSPost2010PropOp56
 70
     1
102
RTVSPost2010Prop57
140
1.0
102
RTVSPost2010PropOp57
 70
     1
  0
XRECORD
  5
4B8
102
{ACAD_REACTORS
330
4B7
102
}
330
4B7
100
AcDbXrecord
280
     1
102
RTVSPropertyOp0
 70
     1
102
RTVSPropertyOp1
 70
     1
102
RTVSPropertyOp2
 70
     1
102
RTVSPropertyOp3
 70
     1
102
RTVSPropertyOp4
 70
     1
102
RTVSPropertyOp5
 70
     1
102
RTVSPropertyOp6
 70
     1
102
RTVSPropertyOp7
 70
     1
102
RTVSPropertyOp8
 70
     1
102
RTVSPropertyOp9
 70
     1
102
RTVSPropertyOp10
 70
     1
102
RTVSPropertyOp11
 70
     1
102
RTVSPropertyOp12
 70
     1
102
RTVSPropertyOp13
 70
     1
102
RTVSPropertyOp14
 70
     1
102
RTVSPropertyOp15
 70
     1
102
RTVSPropertyOp16
 70
     1
102
RTVSPropertyOp17
 70
     1
102
RTVSPropertyOp18
 70
     1
102
RTVSPropertyOp19
 70
     1
102
RTVSPropertyOp20
 70
     1
102
RTVSPropertyOp21
 70
     1
102
RTVSPropertyOp22
 70
     1
102
RTVSPropertyOp23
 70
     1
102
RTVSPropertyOp24
 70
     1
102
RTVSPropertyOp25
 70
     1
102
RTVSPropertyOp26
 70
     1
102
RTVSPropertyOp27
 70
     1
102
RTVSPropertyOp28
 70
     1
102
RTVSPropertyOp29
 70
     1
102
RTVSPropertyOp30
 70
     1
102
RTVSPropertyOp31
 70
     1
102
RTVSPropertyOp32
 70
     1
102
RTVSPropertyOp33
 70
     1
102
RTVSPropertyOp34
 70
     1
102
RTVSPropertyOp35
 70
     1
102
RTVSPropertyOp36
 70
     1
102
RTVSPropertyOp37
 70
     1
102
RTVSPropertyOp38
 70
     1
102
RTVSPropertyOp39
 70
     1
102
RTVSPropertyOp40
 70
     1
102
RTVSPropertyOp41
 70
     1
102
RTVSPropertyOp42
 70
     1
102
RTVSPropertyOp43
 70
     1
102
RTVSPropertyOp44
 70
     1
102
RTVSPropertyOp45
 70
     1
102
RTVSPropertyOp46
 70
     1
102
RTVSPropertyOp47
 70
     1
102
RTVSPropertyOp48
 70
     1
102
RTVSPropertyOp49
 70
     1
102
RTVSPropertyOp50
 70
     1
102
RTVSPropertyOp51
 70
     0
102
RTVSPropertyOp52
 70
     0
102
RTVSPropertyOp53
 70
     1
102
RTVSPropertyOp54
 70
     1
102
RTVSPropertyOp55
 70
     1
102
RTVSPropertyOp56
 70
     1
102
RTVSPropertyOp57
 70
     1
102
RTVSPost2010Prop28
280
     0
102
RTVSPost2010PropOp28
 70
     1
102
RTVSPost2010Prop29
280
     1
102
RTVSPost2010PropOp29
 70
     1
102
RTVSPost2010Prop30
280
     1
102
RTVSPost2010PropOp30
 70
     1
102
RTVSPost2010Prop31
280
     0
102
RTVSPost2010PropOp31
 70
     1
102
RTVSPost2010Prop32
280
     0
102
RTVSPost2010PropOp32
 70
     1
102
RTVSPost2010Prop33
280
     0
102
RTVSPost2010PropOp33
 70
     1
102
RTVSPost2010Prop34
280
     0
102
RTVSPost2010PropOp34
 70
     1
102
RTVSPost2010Prop35
280
     0
102
RTVSPost2010PropOp35
 70
     1
102
RTVSPost2010Prop36
280
     0
102
RTVSPost2010PropOp36
 70
     1
102
RTVSPost2010Prop37
 90
       50
102
RTVSPost2010PropOp37
 70
     1
102
RTVSPost2010Prop38
140
0.0
102
RTVSPost2010PropOp38
 70
     1
102
RTVSPost2010Prop39
140
1.0
102
RTVSPost2010PropOp39
 70
     1
102
RTVSPost2010Prop40
 90
        0
102
RTVSPost2010PropOp40
 70
     1
102
RTVSPost2010Prop41ColorIndex
 90
       18
102
RTVSPost2010Prop41ColorRGB
 90
        0
102
RTVSPost2010PropOp41
 70
     1
102
RTVSPost2010Prop42
 90
       50
102
RTVSPost2010PropOp42
 70
     1
102
RTVSPost2010Prop43
 90
        3
102
RTVSPost2010PropOp43
 70
     1
102
RTVSPost2010Prop44ColorIndex
 90
        5
102
RTVSPost2010Prop44ColorRGB
 90
      255
102
RTVSPost2010PropOp44
 70
     1
102
RTVSPost2010Prop45
280
     0
102
RTVSPost2010PropOp45
 70
     1
102
RTVSPost2010Prop46
 90
       50
102
RTVSPost2010PropOp46
 70
     1
102
RTVSPost2010Prop47
 90
       50
102
RTVSPost2010PropOp47
 70
     1
102
RTVSPost2010Prop48
 90
       50
102
RTVSPost2010PropOp48
 70
     1
102
RTVSPost2010Prop49
280
     0
102
RTVSPost2010PropOp49
 70
     1
102
RTVSPost2010Prop50
 90
       50
102
RTVSPost2010PropOp50
 70
     1
102
RTVSPost2010Prop51ColorIndex
 90
      256
102
RTVSPost2010Prop51ColorRGB
 90
-16777216
102
RTVSPost2010PropOp51
 70
     0
102
RTVSPost2010Prop52
140
1.0
102
RTVSPost2010PropOp52
 70
     0
102
RTVSPost2010Prop53
 90
        2
102
RTVSPost2010PropOp53
 70
     1
102
RTVSPost2010Prop54
  1
strokes_ogs.tif
102
RTVSPost2010PropOp54
 70
     1
102
RTVSPost2010Prop55
280
     0
102
RTVSPost2010PropOp55
 70
     1
102
RTVSPost2010Prop56
140
1.0
102
RTVSPost2010PropOp56
 70
     1
102
RTVSPost2010Prop57
140
1.0
102
RTVSPost2010PropOp57
 70
     1
  0
XRECORD
  5
4CC
102
{ACAD_REACTORS
330
4CB
102
}
330
4CB
100
AcDbXrecord
280
     1
102
RTVSPropertyOp0
 70
     0
102
RTVSPropertyOp1
 70
     0
102
RTVSPropertyOp2
 70
     0
102
RTVSPropertyOp3
 70
     0
102
RTVSPropertyOp4
 70
     0
102
RTVSPropertyOp5
 70
     0
102
RTVSPropertyOp6
 70
     0
102
RTVSPropertyOp7
 70
     0
102
RTVSPropertyOp8
 70
     0
102
RTVSPropertyOp9
 70
     0
102
RTVSPropertyOp10
 70
     0
102
RTVSPropertyOp11
 70
     0
102
RTVSPropertyOp12
 70
     0
102
RTVSPropertyOp13
 70
     0
102
RTVSPropertyOp14
 70
     2
102
RTVSPropertyOp15
 70
     0
102
RTVSPropertyOp16
 70
     0
102
RTVSPropertyOp17
 70
     0
102
RTVSPropertyOp18
 70
     0
102
RTVSPropertyOp19
 70
     0
102
RTVSPropertyOp20
 70
     0
102
RTVSPropertyOp21
 70
     0
102
RTVSPropertyOp22
 70
     0
102
RTVSPropertyOp23
 70
     0
102
RTVSPropertyOp24
 70
     0
102
RTVSPropertyOp25
 70
     0
102
RTVSPropertyOp26
 70
     0
102
RTVSPropertyOp27
 70
     0
102
RTVSPropertyOp28
 70
     0
102
RTVSPropertyOp29
 70
     0
102
RTVSPropertyOp30
 70
     0
102
RTVSPropertyOp31
 70
     0
102
RTVSPropertyOp32
 70
     0
102
RTVSPropertyOp33
 70
     0
102
RTVSPropertyOp34
 70
     0
102
RTVSPropertyOp35
 70
     0
102
RTVSPropertyOp36
 70
     0
102
RTVSPropertyOp37
 70
     0
102
RTVSPropertyOp38
 70
     0
102
RTVSPropertyOp39
 70
     0
102
RTVSPropertyOp40
 70
     0
102
RTVSPropertyOp41
 70
     0
102
RTVSPropertyOp42
 70
     0
102
RTVSPropertyOp43
 70
     0
102
RTVSPropertyOp44
 70
     0
102
RTVSPropertyOp45
 70
     0
102
RTVSPropertyOp46
 70
     0
102
RTVSPropertyOp47
 70
     0
102
RTVSPropertyOp48
 70
     0
102
RTVSPropertyOp49
 70
     0
102
RTVSPropertyOp50
 70
     0
102
RTVSPropertyOp51
 70
     0
102
RTVSPropertyOp52
 70
     0
102
RTVSPropertyOp53
 70
     0
102
RTVSPropertyOp54
 70
     0
102
RTVSPropertyOp55
 70
     0
102
RTVSPropertyOp56
 70
     0
102
RTVSPropertyOp57
 70
     0
102
RTVSPost2010Prop28
280
     0
102
RTVSPost2010PropOp28
 70
     0
102
RTVSPost2010Prop29
280
     1
102
RTVSPost2010PropOp29
 70
     0
102
RTVSPost2010Prop30
280
     1
102
RTVSPost2010PropOp30
 70
     0
102
RTVSPost2010Prop31
280
     0
102
RTVSPost2010PropOp31
 70
     0
102
RTVSPost2010Prop32
280
     0
102
RTVSPost2010PropOp32
 70
     0
102
RTVSPost2010Prop33
280
     0
102
RTVSPost2010PropOp33
 70
     0
102
RTVSPost2010Prop34
280
     0
102
RTVSPost2010PropOp34
 70
     0
102
RTVSPost2010Prop35
280
     0
102
RTVSPost2010PropOp35
 70
     0
102
RTVSPost2010Prop36
280
     0
102
RTVSPost2010PropOp36
 70
     0
102
RTVSPost2010Prop37
 90
       50
102
RTVSPost2010PropOp37
 70
     0
102
RTVSPost2010Prop38
140
0.0
102
RTVSPost2010PropOp38
 70
     0
102
RTVSPost2010Prop39
140
1.0
102
RTVSPost2010PropOp39
 70
     0
102
RTVSPost2010Prop40
 90
        0
102
RTVSPost2010PropOp40
 70
     0
102
RTVSPost2010Prop41ColorIndex
 90
       18
102
RTVSPost2010Prop41ColorRGB
 90
        0
102
RTVSPost2010PropOp41
 70
     0
102
RTVSPost2010Prop42
 90
       50
102
RTVSPost2010PropOp42
 70
     0
102
RTVSPost2010Prop43
 90
        3
102
RTVSPost2010PropOp43
 70
     0
102
RTVSPost2010Prop44ColorIndex
 90
        5
102
RTVSPost2010Prop44ColorRGB
 90
      255
102
RTVSPost2010PropOp44
 70
     0
102
RTVSPost2010Prop45
280
     0
102
RTVSPost2010PropOp45
 70
     0
102
RTVSPost2010Prop46
 90
       50
102
RTVSPost2010PropOp46
 70
     0
102
RTVSPost2010Prop47
 90
       50
102
RTVSPost2010PropOp47
 70
     0
102
RTVSPost2010Prop48
 90
       50
102
RTVSPost2010PropOp48
 70
     0
102
RTVSPost2010Prop49
280
     0
102
RTVSPost2010PropOp49
 70
     0
102
RTVSPost2010Prop50
 90
       50
102
RTVSPost2010PropOp50
 70
     0
102
RTVSPost2010Prop51ColorIndex
 90
      256
102
RTVSPost2010Prop51ColorRGB
 90
-16777216
102
RTVSPost2010PropOp51
 70
     0
102
RTVSPost2010Prop52
140
1.0
102
RTVSPost2010PropOp52
 70
     0
102
RTVSPost2010Prop53
 90
        2
102
RTVSPost2010PropOp53
 70
     0
102
RTVSPost2010Prop54
  1
strokes_ogs.tif
102
RTVSPost2010PropOp54
 70
     0
102
RTVSPost2010Prop55
280
     0
102
RTVSPost2010PropOp55
 70
     0
102
RTVSPost2010Prop56
140
1.0
102
RTVSPost2010PropOp56
 70
     0
102
RTVSPost2010Prop57
140
1.0
102
RTVSPost2010PropOp57
 70
     0
  0
XRECORD
  5
4C0
102
{ACAD_REACTORS
330
4BF
102
}
330
4BF
100
AcDbXrecord
280
     1
102
RTVSPropertyOp0
 70
     1
102
RTVSPropertyOp1
 70
     1
102
RTVSPropertyOp2
 70
     1
102
RTVSPropertyOp3
 70
     1
102
RTVSPropertyOp4
 70
     1
102
RTVSPropertyOp5
 70
     1
102
RTVSPropertyOp6
 70
     1
102
RTVSPropertyOp7
 70
     1
102
RTVSPropertyOp8
 70
     1
102
RTVSPropertyOp9
 70
     1
102
RTVSPropertyOp10
 70
     1
102
RTVSPropertyOp11
 70
     1
102
RTVSPropertyOp12
 70
     1
102
RTVSPropertyOp13
 70
     1
102
RTVSPropertyOp14
 70
     1
102
RTVSPropertyOp15
 70
     1
102
RTVSPropertyOp16
 70
     1
102
RTVSPropertyOp17
 70
     1
102
RTVSPropertyOp18
 70
     1
102
RTVSPropertyOp19
 70
     1
102
RTVSPropertyOp20
 70
     1
102
RTVSPropertyOp21
 70
     1
102
RTVSPropertyOp22
 70
     1
102
RTVSPropertyOp23
 70
     1
102
RTVSPropertyOp24
 70
     1
102
RTVSPropertyOp25
 70
     1
102
RTVSPropertyOp26
 70
     1
102
RTVSPropertyOp27
 70
     1
102
RTVSPropertyOp28
 70
     1
102
RTVSPropertyOp29
 70
     1
102
RTVSPropertyOp30
 70
     1
102
RTVSPropertyOp31
 70
     1
102
RTVSPropertyOp32
 70
     1
102
RTVSPropertyOp33
 70
     1
102
RTVSPropertyOp34
 70
     1
102
RTVSPropertyOp35
 70
     1
102
RTVSPropertyOp36
 70
     1
102
RTVSPropertyOp37
 70
     1
102
RTVSPropertyOp38
 70
     1
102
RTVSPropertyOp39
 70
     1
102
RTVSPropertyOp40
 70
     1
102
RTVSPropertyOp41
 70
     1
102
RTVSPropertyOp42
 70
     1
102
RTVSPropertyOp43
 70
     1
102
RTVSPropertyOp44
 70
     1
102
RTVSPropertyOp45
 70
     1
102
RTVSPropertyOp46
 70
     1
102
RTVSPropertyOp47
 70
     1
102
RTVSPropertyOp48
 70
     1
102
RTVSPropertyOp49
 70
     1
102
RTVSPropertyOp50
 70
     1
102
RTVSPropertyOp51
 70
     0
102
RTVSPropertyOp52
 70
     0
102
RTVSPropertyOp53
 70
     1
102
RTVSPropertyOp54
 70
     1
102
RTVSPropertyOp55
 70
     1
102
RTVSPropertyOp56
 70
     1
102
RTVSPropertyOp57
 70
     1
102
RTVSPost2010Prop28
280
     0
102
RTVSPost2010PropOp28
 70
     1
102
RTVSPost2010Prop29
280
     1
102
RTVSPost2010PropOp29
 70
     1
102
RTVSPost2010Prop30
280
     1
102
RTVSPost2010PropOp30
 70
     1
102
RTVSPost2010Prop31
280
     0
102
RTVSPost2010PropOp31
 70
     1
102
RTVSPost2010Prop32
280
     0
102
RTVSPost2010PropOp32
 70
     1
102
RTVSPost2010Prop33
280
     0
102
RTVSPost2010PropOp33
 70
     1
102
RTVSPost2010Prop34
280
     0
102
RTVSPost2010PropOp34
 70
     1
102
RTVSPost2010Prop35
280
     0
102
RTVSPost2010PropOp35
 70
     1
102
RTVSPost2010Prop36
280
     0
102
RTVSPost2010PropOp36
 70
     1
102
RTVSPost2010Prop37
 90
       50
102
RTVSPost2010PropOp37
 70
     1
102
RTVSPost2010Prop38
140
0.0
102
RTVSPost2010PropOp38
 70
     1
102
RTVSPost2010Prop39
140
1.0
102
RTVSPost2010PropOp39
 70
     1
102
RTVSPost2010Prop40
 90
        0
102
RTVSPost2010PropOp40
 70
     1
102
RTVSPost2010Prop41ColorIndex
 90
       18
102
RTVSPost2010Prop41ColorRGB
 90
        0
102
RTVSPost2010PropOp41
 70
     1
102
RTVSPost2010Prop42
 90
       50
102
RTVSPost2010PropOp42
 70
     1
102
RTVSPost2010Prop43
 90
        3
102
RTVSPost2010PropOp43
 70
     1
102
RTVSPost2010Prop44ColorIndex
 90
        5
102
RTVSPost2010Prop44ColorRGB
 90
      255
102
RTVSPost2010PropOp44
 70
     1
102
RTVSPost2010Prop45
280
     0
102
RTVSPost2010PropOp45
 70
     1
102
RTVSPost2010Prop46
 90
       50
102
RTVSPost2010PropOp46
 70
     1
102
RTVSPost2010Prop47
 90
       50
102
RTVSPost2010PropOp47
 70
     1
102
RTVSPost2010Prop48
 90
       50
102
RTVSPost2010PropOp48
 70
     1
102
RTVSPost2010Prop49
280
     0
102
RTVSPost2010PropOp49
 70
     1
102
RTVSPost2010Prop50
 90
       50
102
RTVSPost2010PropOp50
 70
     1
102
RTVSPost2010Prop51ColorIndex
 90
      256
102
RTVSPost2010Prop51ColorRGB
 90
-16777216
102
RTVSPost2010PropOp51
 70
     0
102
RTVSPost2010Prop52
140
1.0
102
RTVSPost2010PropOp52
 70
     0
102
RTVSPost2010Prop53
 90
        2
102
RTVSPost2010PropOp53
 70
     1
102
RTVSPost2010Prop54
  1
strokes_ogs.tif
102
RTVSPost2010PropOp54
 70
     1
102
RTVSPost2010Prop55
280
     0
102
RTVSPost2010PropOp55
 70
     1
102
RTVSPost2010Prop56
140
1.0
102
RTVSPost2010PropOp56
 70
     1
102
RTVSPost2010Prop57
140
1.0
102
RTVSPost2010PropOp57
 70
     1
  0
XRECORD
  5
4A4
102
{ACAD_REACTORS
330
4A3
102
}
330
4A3
100
AcDbXrecord
280
     1
102
RTVSPropertyOp0
 70
     1
102
RTVSPropertyOp1
 70
     1
102
RTVSPropertyOp2
 70
     1
102
RTVSPropertyOp3
 70
     1
102
RTVSPropertyOp4
 70
     1
102
RTVSPropertyOp5
 70
     1
102
RTVSPropertyOp6
 70
     1
102
RTVSPropertyOp7
 70
     1
102
RTVSPropertyOp8
 70
     1
102
RTVSPropertyOp9
 70
     1
102
RTVSPropertyOp10
 70
     1
102
RTVSPropertyOp11
 70
     1
102
RTVSPropertyOp12
 70
     1
102
RTVSPropertyOp13
 70
     1
102
RTVSPropertyOp14
 70
     1
102
RTVSPropertyOp15
 70
     1
102
RTVSPropertyOp16
 70
     1
102
RTVSPropertyOp17
 70
     1
102
RTVSPropertyOp18
 70
     1
102
RTVSPropertyOp19
 70
     1
102
RTVSPropertyOp20
 70
     1
102
RTVSPropertyOp21
 70
     1
102
RTVSPropertyOp22
 70
     1
102
RTVSPropertyOp23
 70
     1
102
RTVSPropertyOp24
 70
     1
102
RTVSPropertyOp25
 70
     1
102
RTVSPropertyOp26
 70
     1
102
RTVSPropertyOp27
 70
     1
102
RTVSPropertyOp28
 70
     1
102
RTVSPropertyOp29
 70
     1
102
RTVSPropertyOp30
 70
     1
102
RTVSPropertyOp31
 70
     1
102
RTVSPropertyOp32
 70
     1
102
RTVSPropertyOp33
 70
     1
102
RTVSPropertyOp34
 70
     1
102
RTVSPropertyOp35
 70
     1
102
RTVSPropertyOp36
 70
     1
102
RTVSPropertyOp37
 70
     1
102
RTVSPropertyOp38
 70
     1
102
RTVSPropertyOp39
 70
     1
102
RTVSPropertyOp40
 70
     1
102
RTVSPropertyOp41
 70
     1
102
RTVSPropertyOp42
 70
     1
102
RTVSPropertyOp43
 70
     1
102
RTVSPropertyOp44
 70
     1
102
RTVSPropertyOp45
 70
     1
102
RTVSPropertyOp46
 70
     1
102
RTVSPropertyOp47
 70
     1
102
RTVSPropertyOp48
 70
     1
102
RTVSPropertyOp49
 70
     1
102
RTVSPropertyOp50
 70
     1
102
RTVSPropertyOp51
 70
     0
102
RTVSPropertyOp52
 70
     0
102
RTVSPropertyOp53
 70
     1
102
RTVSPropertyOp54
 70
     1
102
RTVSPropertyOp55
 70
     1
102
RTVSPropertyOp56
 70
     1
102
RTVSPropertyOp57
 70
     1
102
RTVSPost2010Prop28
280
     0
102
RTVSPost2010PropOp28
 70
     1
102
RTVSPost2010Prop29
280
     1
102
RTVSPost2010PropOp29
 70
     1
102
RTVSPost2010Prop30
280
     1
102
RTVSPost2010PropOp30
 70
     1
102
RTVSPost2010Prop31
280
     0
102
RTVSPost2010PropOp31
 70
     1
102
RTVSPost2010Prop32
280
     0
102
RTVSPost2010PropOp32
 70
     1
102
RTVSPost2010Prop33
280
     0
102
RTVSPost2010PropOp33
 70
     1
102
RTVSPost2010Prop34
280
     0
102
RTVSPost2010PropOp34
 70
     1
102
RTVSPost2010Prop35
280
     0
102
RTVSPost2010PropOp35
 70
     1
102
RTVSPost2010Prop36
280
     0
102
RTVSPost2010PropOp36
 70
     1
102
RTVSPost2010Prop37
 90
       50
102
RTVSPost2010PropOp37
 70
     1
102
RTVSPost2010Prop38
140
0.0
102
RTVSPost2010PropOp38
 70
     1
102
RTVSPost2010Prop39
140
1.0
102
RTVSPost2010PropOp39
 70
     1
102
RTVSPost2010Prop40
 90
        0
102
RTVSPost2010PropOp40
 70
     1
102
RTVSPost2010Prop41ColorIndex
 90
       18
102
RTVSPost2010Prop41ColorRGB
 90
        0
102
RTVSPost2010PropOp41
 70
     1
102
RTVSPost2010Prop42
 90
       50
102
RTVSPost2010PropOp42
 70
     1
102
RTVSPost2010Prop43
 90
        3
102
RTVSPost2010PropOp43
 70
     1
102
RTVSPost2010Prop44ColorIndex
 90
        5
102
RTVSPost2010Prop44ColorRGB
 90
      255
102
RTVSPost2010PropOp44
 70
     1
102
RTVSPost2010Prop45
280
     0
102
RTVSPost2010PropOp45
 70
     1
102
RTVSPost2010Prop46
 90
       50
102
RTVSPost2010PropOp46
 70
     1
102
RTVSPost2010Prop47
 90
       50
102
RTVSPost2010PropOp47
 70
     1
102
RTVSPost2010Prop48
 90
       50
102
RTVSPost2010PropOp48
 70
     1
102
RTVSPost2010Prop49
280
     0
102
RTVSPost2010PropOp49
 70
     1
102
RTVSPost2010Prop50
 90
       50
102
RTVSPost2010PropOp50
 70
     1
102
RTVSPost2010Prop51ColorIndex
 90
      256
102
RTVSPost2010Prop51ColorRGB
 90
-16777216
102
RTVSPost2010PropOp51
 70
     0
102
RTVSPost2010Prop52
140
1.0
102
RTVSPost2010PropOp52
 70
     0
102
RTVSPost2010Prop53
 90
        2
102
RTVSPost2010PropOp53
 70
     1
102
RTVSPost2010Prop54
  1
strokes_ogs.tif
102
RTVSPost2010PropOp54
 70
     1
102
RTVSPost2010Prop55
280
     0
102
RTVSPost2010PropOp55
 70
     1
102
RTVSPost2010Prop56
140
1.0
102
RTVSPost2010PropOp56
 70
     1
102
RTVSPost2010Prop57
140
1.0
102
RTVSPost2010PropOp57
 70
     1
  0
XRECORD
  5
4A6
102
{ACAD_REACTORS
330
4A5
102
}
330
4A5
100
AcDbXrecord
280
     1
102
RTVSPropertyOp0
 70
     1
102
RTVSPropertyOp1
 70
     1
102
RTVSPropertyOp2
 70
     1
102
RTVSPropertyOp3
 70
     1
102
RTVSPropertyOp4
 70
     1
102
RTVSPropertyOp5
 70
     1
102
RTVSPropertyOp6
 70
     1
102
RTVSPropertyOp7
 70
     1
102
RTVSPropertyOp8
 70
     1
102
RTVSPropertyOp9
 70
     1
102
RTVSPropertyOp10
 70
     1
102
RTVSPropertyOp11
 70
     1
102
RTVSPropertyOp12
 70
     1
102
RTVSPropertyOp13
 70
     1
102
RTVSPropertyOp14
 70
     1
102
RTVSPropertyOp15
 70
     1
102
RTVSPropertyOp16
 70
     1
102
RTVSPropertyOp17
 70
     1
102
RTVSPropertyOp18
 70
     1
102
RTVSPropertyOp19
 70
     1
102
RTVSPropertyOp20
 70
     1
102
RTVSPropertyOp21
 70
     1
102
RTVSPropertyOp22
 70
     1
102
RTVSPropertyOp23
 70
     1
102
RTVSPropertyOp24
 70
     1
102
RTVSPropertyOp25
 70
     1
102
RTVSPropertyOp26
 70
     1
102
RTVSPropertyOp27
 70
     1
102
RTVSPropertyOp28
 70
     1
102
RTVSPropertyOp29
 70
     1
102
RTVSPropertyOp30
 70
     1
102
RTVSPropertyOp31
 70
     1
102
RTVSPropertyOp32
 70
     1
102
RTVSPropertyOp33
 70
     1
102
RTVSPropertyOp34
 70
     1
102
RTVSPropertyOp35
 70
     1
102
RTVSPropertyOp36
 70
     1
102
RTVSPropertyOp37
 70
     1
102
RTVSPropertyOp38
 70
     1
102
RTVSPropertyOp39
 70
     1
102
RTVSPropertyOp40
 70
     1
102
RTVSPropertyOp41
 70
     1
102
RTVSPropertyOp42
 70
     1
102
RTVSPropertyOp43
 70
     1
102
RTVSPropertyOp44
 70
     1
102
RTVSPropertyOp45
 70
     1
102
RTVSPropertyOp46
 70
     1
102
RTVSPropertyOp47
 70
     1
102
RTVSPropertyOp48
 70
     1
102
RTVSPropertyOp49
 70
     1
102
RTVSPropertyOp50
 70
     1
102
RTVSPropertyOp51
 70
     0
102
RTVSPropertyOp52
 70
     0
102
RTVSPropertyOp53
 70
     1
102
RTVSPropertyOp54
 70
     1
102
RTVSPropertyOp55
 70
     1
102
RTVSPropertyOp56
 70
     1
102
RTVSPropertyOp57
 70
     1
102
RTVSPost2010Prop28
280
     0
102
RTVSPost2010PropOp28
 70
     1
102
RTVSPost2010Prop29
280
     1
102
RTVSPost2010PropOp29
 70
     1
102
RTVSPost2010Prop30
280
     1
102
RTVSPost2010PropOp30
 70
     1
102
RTVSPost2010Prop31
280
     0
102
RTVSPost2010PropOp31
 70
     1
102
RTVSPost2010Prop32
280
     0
102
RTVSPost2010PropOp32
 70
     1
102
RTVSPost2010Prop33
280
     0
102
RTVSPost2010PropOp33
 70
     1
102
RTVSPost2010Prop34
280
     0
102
RTVSPost2010PropOp34
 70
     1
102
RTVSPost2010Prop35
280
     0
102
RTVSPost2010PropOp35
 70
     1
102
RTVSPost2010Prop36
280
     0
102
RTVSPost2010PropOp36
 70
     1
102
RTVSPost2010Prop37
 90
       50
102
RTVSPost2010PropOp37
 70
     1
102
RTVSPost2010Prop38
140
0.0
102
RTVSPost2010PropOp38
 70
     1
102
RTVSPost2010Prop39
140
1.0
102
RTVSPost2010PropOp39
 70
     1
102
RTVSPost2010Prop40
 90
        0
102
RTVSPost2010PropOp40
 70
     1
102
RTVSPost2010Prop41ColorIndex
 90
       18
102
RTVSPost2010Prop41ColorRGB
 90
        0
102
RTVSPost2010PropOp41
 70
     1
102
RTVSPost2010Prop42
 90
       50
102
RTVSPost2010PropOp42
 70
     1
102
RTVSPost2010Prop43
 90
        3
102
RTVSPost2010PropOp43
 70
     1
102
RTVSPost2010Prop44ColorIndex
 90
        5
102
RTVSPost2010Prop44ColorRGB
 90
      255
102
RTVSPost2010PropOp44
 70
     1
102
RTVSPost2010Prop45
280
     0
102
RTVSPost2010PropOp45
 70
     1
102
RTVSPost2010Prop46
 90
       50
102
RTVSPost2010PropOp46
 70
     1
102
RTVSPost2010Prop47
 90
       50
102
RTVSPost2010PropOp47
 70
     1
102
RTVSPost2010Prop48
 90
       50
102
RTVSPost2010PropOp48
 70
     1
102
RTVSPost2010Prop49
280
     0
102
RTVSPost2010PropOp49
 70
     1
102
RTVSPost2010Prop50
 90
       50
102
RTVSPost2010PropOp50
 70
     1
102
RTVSPost2010Prop51ColorIndex
 90
      256
102
RTVSPost2010Prop51ColorRGB
 90
-16777216
102
RTVSPost2010PropOp51
 70
     0
102
RTVSPost2010Prop52
140
1.0
102
RTVSPost2010PropOp52
 70
     0
102
RTVSPost2010Prop53
 90
        2
102
RTVSPost2010PropOp53
 70
     1
102
RTVSPost2010Prop54
  1
strokes_ogs.tif
102
RTVSPost2010PropOp54
 70
     1
102
RTVSPost2010Prop55
280
     0
102
RTVSPost2010PropOp55
 70
     1
102
RTVSPost2010Prop56
140
1.0
102
RTVSPost2010PropOp56
 70
     1
102
RTVSPost2010Prop57
140
1.0
102
RTVSPost2010PropOp57
 70
     1
  0
XRECORD
  5
4A8
102
{ACAD_REACTORS
330
4A7
102
}
330
4A7
100
AcDbXrecord
280
     1
102
RTVSPropertyOp0
 70
     1
102
RTVSPropertyOp1
 70
     1
102
RTVSPropertyOp2
 70
     1
102
RTVSPropertyOp3
 70
     1
102
RTVSPropertyOp4
 70
     1
102
RTVSPropertyOp5
 70
     1
102
RTVSPropertyOp6
 70
     1
102
RTVSPropertyOp7
 70
     1
102
RTVSPropertyOp8
 70
     1
102
RTVSPropertyOp9
 70
     1
102
RTVSPropertyOp10
 70
     1
102
RTVSPropertyOp11
 70
     1
102
RTVSPropertyOp12
 70
     1
102
RTVSPropertyOp13
 70
     1
102
RTVSPropertyOp14
 70
     1
102
RTVSPropertyOp15
 70
     1
102
RTVSPropertyOp16
 70
     1
102
RTVSPropertyOp17
 70
     1
102
RTVSPropertyOp18
 70
     1
102
RTVSPropertyOp19
 70
     1
102
RTVSPropertyOp20
 70
     1
102
RTVSPropertyOp21
 70
     1
102
RTVSPropertyOp22
 70
     1
102
RTVSPropertyOp23
 70
     1
102
RTVSPropertyOp24
 70
     1
102
RTVSPropertyOp25
 70
     1
102
RTVSPropertyOp26
 70
     1
102
RTVSPropertyOp27
 70
     1
102
RTVSPropertyOp28
 70
     1
102
RTVSPropertyOp29
 70
     1
102
RTVSPropertyOp30
 70
     1
102
RTVSPropertyOp31
 70
     1
102
RTVSPropertyOp32
 70
     1
102
RTVSPropertyOp33
 70
     1
102
RTVSPropertyOp34
 70
     1
102
RTVSPropertyOp35
 70
     1
102
RTVSPropertyOp36
 70
     1
102
RTVSPropertyOp37
 70
     1
102
RTVSPropertyOp38
 70
     1
102
RTVSPropertyOp39
 70
     1
102
RTVSPropertyOp40
 70
     1
102
RTVSPropertyOp41
 70
     1
102
RTVSPropertyOp42
 70
     1
102
RTVSPropertyOp43
 70
     1
102
RTVSPropertyOp44
 70
     1
102
RTVSPropertyOp45
 70
     1
102
RTVSPropertyOp46
 70
     1
102
RTVSPropertyOp47
 70
     1
102
RTVSPropertyOp48
 70
     1
102
RTVSPropertyOp49
 70
     1
102
RTVSPropertyOp50
 70
     1
102
RTVSPropertyOp51
 70
     0
102
RTVSPropertyOp52
 70
     0
102
RTVSPropertyOp53
 70
     1
102
RTVSPropertyOp54
 70
     1
102
RTVSPropertyOp55
 70
     1
102
RTVSPropertyOp56
 70
     1
102
RTVSPropertyOp57
 70
     1
102
RTVSPost2010Prop28
280
     0
102
RTVSPost2010PropOp28
 70
     1
102
RTVSPost2010Prop29
280
     1
102
RTVSPost2010PropOp29
 70
     1
102
RTVSPost2010Prop30
280
     1
102
RTVSPost2010PropOp30
 70
     1
102
RTVSPost2010Prop31
280
     0
102
RTVSPost2010PropOp31
 70
     1
102
RTVSPost2010Prop32
280
     0
102
RTVSPost2010PropOp32
 70
     1
102
RTVSPost2010Prop33
280
     0
102
RTVSPost2010PropOp33
 70
     1
102
RTVSPost2010Prop34
280
     0
102
RTVSPost2010PropOp34
 70
     1
102
RTVSPost2010Prop35
280
     0
102
RTVSPost2010PropOp35
 70
     1
102
RTVSPost2010Prop36
280
     0
102
RTVSPost2010PropOp36
 70
     1
102
RTVSPost2010Prop37
 90
       50
102
RTVSPost2010PropOp37
 70
     1
102
RTVSPost2010Prop38
140
0.0
102
RTVSPost2010PropOp38
 70
     1
102
RTVSPost2010Prop39
140
1.0
102
RTVSPost2010PropOp39
 70
     1
102
RTVSPost2010Prop40
 90
        0
102
RTVSPost2010PropOp40
 70
     1
102
RTVSPost2010Prop41ColorIndex
 90
       18
102
RTVSPost2010Prop41ColorRGB
 90
        0
102
RTVSPost2010PropOp41
 70
     1
102
RTVSPost2010Prop42
 90
       50
102
RTVSPost2010PropOp42
 70
     1
102
RTVSPost2010Prop43
 90
        3
102
RTVSPost2010PropOp43
 70
     1
102
RTVSPost2010Prop44ColorIndex
 90
        5
102
RTVSPost2010Prop44ColorRGB
 90
      255
102
RTVSPost2010PropOp44
 70
     1
102
RTVSPost2010Prop45
280
     0
102
RTVSPost2010PropOp45
 70
     1
102
RTVSPost2010Prop46
 90
       50
102
RTVSPost2010PropOp46
 70
     1
102
RTVSPost2010Prop47
 90
       50
102
RTVSPost2010PropOp47
 70
     1
102
RTVSPost2010Prop48
 90
       50
102
RTVSPost2010PropOp48
 70
     1
102
RTVSPost2010Prop49
280
     0
102
RTVSPost2010PropOp49
 70
     1
102
RTVSPost2010Prop50
 90
       50
102
RTVSPost2010PropOp50
 70
     1
102
RTVSPost2010Prop51ColorIndex
 90
      256
102
RTVSPost2010Prop51ColorRGB
 90
-16777216
102
RTVSPost2010PropOp51
 70
     0
102
RTVSPost2010Prop52
140
1.0
102
RTVSPost2010PropOp52
 70
     0
102
RTVSPost2010Prop53
 90
        2
102
RTVSPost2010PropOp53
 70
     1
102
RTVSPost2010Prop54
  1
strokes_ogs.tif
102
RTVSPost2010PropOp54
 70
     1
102
RTVSPost2010Prop55
280
     0
102
RTVSPost2010PropOp55
 70
     1
102
RTVSPost2010Prop56
140
1.0
102
RTVSPost2010PropOp56
 70
     1
102
RTVSPost2010Prop57
140
1.0
102
RTVSPost2010PropOp57
 70
     1
  0
XRECORD
  5
4AA
102
{ACAD_REACTORS
330
4A9
102
}
330
4A9
100
AcDbXrecord
280
     1
102
RTVSPropertyOp0
 70
     1
102
RTVSPropertyOp1
 70
     1
102
RTVSPropertyOp2
 70
     1
102
RTVSPropertyOp3
 70
     1
102
RTVSPropertyOp4
 70
     1
102
RTVSPropertyOp5
 70
     1
102
RTVSPropertyOp6
 70
     1
102
RTVSPropertyOp7
 70
     1
102
RTVSPropertyOp8
 70
     1
102
RTVSPropertyOp9
 70
     1
102
RTVSPropertyOp10
 70
     1
102
RTVSPropertyOp11
 70
     1
102
RTVSPropertyOp12
 70
     1
102
RTVSPropertyOp13
 70
     1
102
RTVSPropertyOp14
 70
     1
102
RTVSPropertyOp15
 70
     1
102
RTVSPropertyOp16
 70
     1
102
RTVSPropertyOp17
 70
     1
102
RTVSPropertyOp18
 70
     1
102
RTVSPropertyOp19
 70
     1
102
RTVSPropertyOp20
 70
     1
102
RTVSPropertyOp21
 70
     1
102
RTVSPropertyOp22
 70
     1
102
RTVSPropertyOp23
 70
     1
102
RTVSPropertyOp24
 70
     1
102
RTVSPropertyOp25
 70
     1
102
RTVSPropertyOp26
 70
     1
102
RTVSPropertyOp27
 70
     1
102
RTVSPropertyOp28
 70
     1
102
RTVSPropertyOp29
 70
     1
102
RTVSPropertyOp30
 70
     1
102
RTVSPropertyOp31
 70
     1
102
RTVSPropertyOp32
 70
     1
102
RTVSPropertyOp33
 70
     1
102
RTVSPropertyOp34
 70
     1
102
RTVSPropertyOp35
 70
     1
102
RTVSPropertyOp36
 70
     1
102
RTVSPropertyOp37
 70
     1
102
RTVSPropertyOp38
 70
     1
102
RTVSPropertyOp39
 70
     1
102
RTVSPropertyOp40
 70
     1
102
RTVSPropertyOp41
 70
     1
102
RTVSPropertyOp42
 70
     1
102
RTVSPropertyOp43
 70
     1
102
RTVSPropertyOp44
 70
     1
102
RTVSPropertyOp45
 70
     1
102
RTVSPropertyOp46
 70
     1
102
RTVSPropertyOp47
 70
     1
102
RTVSPropertyOp48
 70
     1
102
RTVSPropertyOp49
 70
     1
102
RTVSPropertyOp50
 70
     1
102
RTVSPropertyOp51
 70
     0
102
RTVSPropertyOp52
 70
     0
102
RTVSPropertyOp53
 70
     1
102
RTVSPropertyOp54
 70
     1
102
RTVSPropertyOp55
 70
     1
102
RTVSPropertyOp56
 70
     1
102
RTVSPropertyOp57
 70
     1
102
RTVSPost2010Prop28
280
     0
102
RTVSPost2010PropOp28
 70
     1
102
RTVSPost2010Prop29
280
     1
102
RTVSPost2010PropOp29
 70
     1
102
RTVSPost2010Prop30
280
     1
102
RTVSPost2010PropOp30
 70
     1
102
RTVSPost2010Prop31
280
     0
102
RTVSPost2010PropOp31
 70
     1
102
RTVSPost2010Prop32
280
     0
102
RTVSPost2010PropOp32
 70
     1
102
RTVSPost2010Prop33
280
     0
102
RTVSPost2010PropOp33
 70
     1
102
RTVSPost2010Prop34
280
     0
102
RTVSPost2010PropOp34
 70
     1
102
RTVSPost2010Prop35
280
     0
102
RTVSPost2010PropOp35
 70
     1
102
RTVSPost2010Prop36
280
     0
102
RTVSPost2010PropOp36
 70
     1
102
RTVSPost2010Prop37
 90
       50
102
RTVSPost2010PropOp37
 70
     1
102
RTVSPost2010Prop38
140
0.0
102
RTVSPost2010PropOp38
 70
     1
102
RTVSPost2010Prop39
140
1.0
102
RTVSPost2010PropOp39
 70
     1
102
RTVSPost2010Prop40
 90
        0
102
RTVSPost2010PropOp40
 70
     1
102
RTVSPost2010Prop41ColorIndex
 90
       18
102
RTVSPost2010Prop41ColorRGB
 90
        0
102
RTVSPost2010PropOp41
 70
     1
102
RTVSPost2010Prop42
 90
       50
102
RTVSPost2010PropOp42
 70
     1
102
RTVSPost2010Prop43
 90
        3
102
RTVSPost2010PropOp43
 70
     1
102
RTVSPost2010Prop44ColorIndex
 90
        5
102
RTVSPost2010Prop44ColorRGB
 90
      255
102
RTVSPost2010PropOp44
 70
     1
102
RTVSPost2010Prop45
280
     0
102
RTVSPost2010PropOp45
 70
     1
102
RTVSPost2010Prop46
 90
       50
102
RTVSPost2010PropOp46
 70
     1
102
RTVSPost2010Prop47
 90
       50
102
RTVSPost2010PropOp47
 70
     1
102
RTVSPost2010Prop48
 90
       50
102
RTVSPost2010PropOp48
 70
     1
102
RTVSPost2010Prop49
280
     0
102
RTVSPost2010PropOp49
 70
     1
102
RTVSPost2010Prop50
 90
       50
102
RTVSPost2010PropOp50
 70
     1
102
RTVSPost2010Prop51ColorIndex
 90
      256
102
RTVSPost2010Prop51ColorRGB
 90
-16777216
102
RTVSPost2010PropOp51
 70
     0
102
RTVSPost2010Prop52
140
1.0
102
RTVSPost2010PropOp52
 70
     0
102
RTVSPost2010Prop53
 90
        2
102
RTVSPost2010PropOp53
 70
     1
102
RTVSPost2010Prop54
  1
strokes_ogs.tif
102
RTVSPost2010PropOp54
 70
     1
102
RTVSPost2010Prop55
280
     0
102
RTVSPost2010PropOp55
 70
     1
102
RTVSPost2010Prop56
140
1.0
102
RTVSPost2010PropOp56
 70
     1
102
RTVSPost2010Prop57
140
1.0
102
RTVSPost2010PropOp57
 70
     1
  0
XRECORD
  5
4C6
102
{ACAD_REACTORS
330
4C5
102
}
330
4C5
100
AcDbXrecord
280
     1
102
RTVSPropertyOp0
 70
     1
102
RTVSPropertyOp1
 70
     1
102
RTVSPropertyOp2
 70
     1
102
RTVSPropertyOp3
 70
     1
102
RTVSPropertyOp4
 70
     1
102
RTVSPropertyOp5
 70
     1
102
RTVSPropertyOp6
 70
     1
102
RTVSPropertyOp7
 70
     1
102
RTVSPropertyOp8
 70
     1
102
RTVSPropertyOp9
 70
     1
102
RTVSPropertyOp10
 70
     1
102
RTVSPropertyOp11
 70
     1
102
RTVSPropertyOp12
 70
     1
102
RTVSPropertyOp13
 70
     1
102
RTVSPropertyOp14
 70
     1
102
RTVSPropertyOp15
 70
     1
102
RTVSPropertyOp16
 70
     1
102
RTVSPropertyOp17
 70
     1
102
RTVSPropertyOp18
 70
     1
102
RTVSPropertyOp19
 70
     1
102
RTVSPropertyOp20
 70
     1
102
RTVSPropertyOp21
 70
     1
102
RTVSPropertyOp22
 70
     1
102
RTVSPropertyOp23
 70
     1
102
RTVSPropertyOp24
 70
     1
102
RTVSPropertyOp25
 70
     1
102
RTVSPropertyOp26
 70
     1
102
RTVSPropertyOp27
 70
     1
102
RTVSPropertyOp28
 70
     1
102
RTVSPropertyOp29
 70
     1
102
RTVSPropertyOp30
 70
     1
102
RTVSPropertyOp31
 70
     1
102
RTVSPropertyOp32
 70
     1
102
RTVSPropertyOp33
 70
     1
102
RTVSPropertyOp34
 70
     1
102
RTVSPropertyOp35
 70
     1
102
RTVSPropertyOp36
 70
     1
102
RTVSPropertyOp37
 70
     1
102
RTVSPropertyOp38
 70
     1
102
RTVSPropertyOp39
 70
     1
102
RTVSPropertyOp40
 70
     1
102
RTVSPropertyOp41
 70
     1
102
RTVSPropertyOp42
 70
     1
102
RTVSPropertyOp43
 70
     1
102
RTVSPropertyOp44
 70
     1
102
RTVSPropertyOp45
 70
     1
102
RTVSPropertyOp46
 70
     1
102
RTVSPropertyOp47
 70
     1
102
RTVSPropertyOp48
 70
     1
102
RTVSPropertyOp49
 70
     1
102
RTVSPropertyOp50
 70
     1
102
RTVSPropertyOp51
 70
     0
102
RTVSPropertyOp52
 70
     0
102
RTVSPropertyOp53
 70
     1
102
RTVSPropertyOp54
 70
     1
102
RTVSPropertyOp55
 70
     1
102
RTVSPropertyOp56
 70
     1
102
RTVSPropertyOp57
 70
     1
102
RTVSPost2010Prop28
280
     0
102
RTVSPost2010PropOp28
 70
     1
102
RTVSPost2010Prop29
280
     1
102
RTVSPost2010PropOp29
 70
     1
102
RTVSPost2010Prop30
280
     1
102
RTVSPost2010PropOp30
 70
     1
102
RTVSPost2010Prop31
280
     0
102
RTVSPost2010PropOp31
 70
     1
102
RTVSPost2010Prop32
280
     0
102
RTVSPost2010PropOp32
 70
     1
102
RTVSPost2010Prop33
280
     0
102
RTVSPost2010PropOp33
 70
     1
102
RTVSPost2010Prop34
280
     0
102
RTVSPost2010PropOp34
 70
     1
102
RTVSPost2010Prop35
280
     0
102
RTVSPost2010PropOp35
 70
     1
102
RTVSPost2010Prop36
280
     0
102
RTVSPost2010PropOp36
 70
     1
102
RTVSPost2010Prop37
 90
       50
102
RTVSPost2010PropOp37
 70
     1
102
RTVSPost2010Prop38
140
0.0
102
RTVSPost2010PropOp38
 70
     1
102
RTVSPost2010Prop39
140
1.0
102
RTVSPost2010PropOp39
 70
     1
102
RTVSPost2010Prop40
 90
        0
102
RTVSPost2010PropOp40
 70
     1
102
RTVSPost2010Prop41ColorIndex
 90
       18
102
RTVSPost2010Prop41ColorRGB
 90
        0
102
RTVSPost2010PropOp41
 70
     1
102
RTVSPost2010Prop42
 90
       50
102
RTVSPost2010PropOp42
 70
     1
102
RTVSPost2010Prop43
 90
        3
102
RTVSPost2010PropOp43
 70
     1
102
RTVSPost2010Prop44ColorIndex
 90
        5
102
RTVSPost2010Prop44ColorRGB
 90
      255
102
RTVSPost2010PropOp44
 70
     1
102
RTVSPost2010Prop45
280
     0
102
RTVSPost2010PropOp45
 70
     1
102
RTVSPost2010Prop46
 90
       50
102
RTVSPost2010PropOp46
 70
     1
102
RTVSPost2010Prop47
 90
       50
102
RTVSPost2010PropOp47
 70
     1
102
RTVSPost2010Prop48
 90
       50
102
RTVSPost2010PropOp48
 70
     1
102
RTVSPost2010Prop49
280
     0
102
RTVSPost2010PropOp49
 70
     1
102
RTVSPost2010Prop50
 90
       50
102
RTVSPost2010PropOp50
 70
     1
102
RTVSPost2010Prop51ColorIndex
 90
      256
102
RTVSPost2010Prop51ColorRGB
 90
-16777216
102
RTVSPost2010PropOp51
 70
     0
102
RTVSPost2010Prop52
140
1.0
102
RTVSPost2010PropOp52
 70
     0
102
RTVSPost2010Prop53
 90
        2
102
RTVSPost2010PropOp53
 70
     1
102
RTVSPost2010Prop54
  1
strokes_ogs.tif
102
RTVSPost2010PropOp54
 70
     1
102
RTVSPost2010Prop55
280
     0
102
RTVSPost2010PropOp55
 70
     1
102
RTVSPost2010Prop56
140
1.0
102
RTVSPost2010PropOp56
 70
     1
102
RTVSPost2010Prop57
140
1.0
102
RTVSPost2010PropOp57
 70
     1
  0
XRECORD
  5
4C8
102
{ACAD_REACTORS
330
4C7
102
}
330
4C7
100
AcDbXrecord
280
     1
102
RTVSPropertyOp0
 70
     0
102
RTVSPropertyOp1
 70
     0
102
RTVSPropertyOp2
 70
     0
102
RTVSPropertyOp3
 70
     0
102
RTVSPropertyOp4
 70
     0
102
RTVSPropertyOp5
 70
     0
102
RTVSPropertyOp6
 70
     0
102
RTVSPropertyOp7
 70
     0
102
RTVSPropertyOp8
 70
     0
102
RTVSPropertyOp9
 70
     0
102
RTVSPropertyOp10
 70
     0
102
RTVSPropertyOp11
 70
     0
102
RTVSPropertyOp12
 70
     0
102
RTVSPropertyOp13
 70
     0
102
RTVSPropertyOp14
 70
     2
102
RTVSPropertyOp15
 70
     0
102
RTVSPropertyOp16
 70
     0
102
RTVSPropertyOp17
 70
     0
102
RTVSPropertyOp18
 70
     0
102
RTVSPropertyOp19
 70
     0
102
RTVSPropertyOp20
 70
     0
102
RTVSPropertyOp21
 70
     0
102
RTVSPropertyOp22
 70
     0
102
RTVSPropertyOp23
 70
     0
102
RTVSPropertyOp24
 70
     0
102
RTVSPropertyOp25
 70
     0
102
RTVSPropertyOp26
 70
     0
102
RTVSPropertyOp27
 70
     0
102
RTVSPropertyOp28
 70
     0
102
RTVSPropertyOp29
 70
     0
102
RTVSPropertyOp30
 70
     0
102
RTVSPropertyOp31
 70
     0
102
RTVSPropertyOp32
 70
     0
102
RTVSPropertyOp33
 70
     0
102
RTVSPropertyOp34
 70
     0
102
RTVSPropertyOp35
 70
     0
102
RTVSPropertyOp36
 70
     0
102
RTVSPropertyOp37
 70
     0
102
RTVSPropertyOp38
 70
     0
102
RTVSPropertyOp39
 70
     0
102
RTVSPropertyOp40
 70
     0
102
RTVSPropertyOp41
 70
     0
102
RTVSPropertyOp42
 70
     0
102
RTVSPropertyOp43
 70
     0
102
RTVSPropertyOp44
 70
     0
102
RTVSPropertyOp45
 70
     0
102
RTVSPropertyOp46
 70
     0
102
RTVSPropertyOp47
 70
     0
102
RTVSPropertyOp48
 70
     0
102
RTVSPropertyOp49
 70
     0
102
RTVSPropertyOp50
 70
     0
102
RTVSPropertyOp51
 70
     0
102
RTVSPropertyOp52
 70
     0
102
RTVSPropertyOp53
 70
     0
102
RTVSPropertyOp54
 70
     0
102
RTVSPropertyOp55
 70
     0
102
RTVSPropertyOp56
 70
     0
102
RTVSPropertyOp57
 70
     0
102
RTVSPost2010Prop28
280
     0
102
RTVSPost2010PropOp28
 70
     0
102
RTVSPost2010Prop29
280
     1
102
RTVSPost2010PropOp29
 70
     0
102
RTVSPost2010Prop30
280
     1
102
RTVSPost2010PropOp30
 70
     0
102
RTVSPost2010Prop31
280
     0
102
RTVSPost2010PropOp31
 70
     0
102
RTVSPost2010Prop32
280
     0
102
RTVSPost2010PropOp32
 70
     0
102
RTVSPost2010Prop33
280
     0
102
RTVSPost2010PropOp33
 70
     0
102
RTVSPost2010Prop34
280
     0
102
RTVSPost2010PropOp34
 70
     0
102
RTVSPost2010Prop35
280
     0
102
RTVSPost2010PropOp35
 70
     0
102
RTVSPost2010Prop36
280
     0
102
RTVSPost2010PropOp36
 70
     0
102
RTVSPost2010Prop37
 90
       50
102
RTVSPost2010PropOp37
 70
     0
102
RTVSPost2010Prop38
140
0.0
102
RTVSPost2010PropOp38
 70
     0
102
RTVSPost2010Prop39
140
1.0
102
RTVSPost2010PropOp39
 70
     0
102
RTVSPost2010Prop40
 90
        0
102
RTVSPost2010PropOp40
 70
     0
102
RTVSPost2010Prop41ColorIndex
 90
       18
102
RTVSPost2010Prop41ColorRGB
 90
        0
102
RTVSPost2010PropOp41
 70
     0
102
RTVSPost2010Prop42
 90
       50
102
RTVSPost2010PropOp42
 70
     0
102
RTVSPost2010Prop43
 90
        3
102
RTVSPost2010PropOp43
 70
     0
102
RTVSPost2010Prop44ColorIndex
 90
        5
102
RTVSPost2010Prop44ColorRGB
 90
      255
102
RTVSPost2010PropOp44
 70
     0
102
RTVSPost2010Prop45
280
     0
102
RTVSPost2010PropOp45
 70
     0
102
RTVSPost2010Prop46
 90
       50
102
RTVSPost2010PropOp46
 70
     0
102
RTVSPost2010Prop47
 90
       50
102
RTVSPost2010PropOp47
 70
     0
102
RTVSPost2010Prop48
 90
       50
102
RTVSPost2010PropOp48
 70
     0
102
RTVSPost2010Prop49
280
     0
102
RTVSPost2010PropOp49
 70
     0
102
RTVSPost2010Prop50
 90
       50
102
RTVSPost2010PropOp50
 70
     0
102
RTVSPost2010Prop51ColorIndex
 90
      256
102
RTVSPost2010Prop51ColorRGB
 90
-16777216
102
RTVSPost2010PropOp51
 70
     0
102
RTVSPost2010Prop52
140
1.0
102
RTVSPost2010PropOp52
 70
     0
102
RTVSPost2010Prop53
 90
        2
102
RTVSPost2010PropOp53
 70
     0
102
RTVSPost2010Prop54
  1
strokes_ogs.tif
102
RTVSPost2010PropOp54
 70
     0
102
RTVSPost2010Prop55
280
     0
102
RTVSPost2010PropOp55
 70
     0
102
RTVSPost2010Prop56
140
1.0
102
RTVSPost2010PropOp56
 70
     0
102
RTVSPost2010Prop57
140
1.0
102
RTVSPost2010PropOp57
 70
     0
  0
XRECORD
  5
4BE
102
{ACAD_REACTORS
330
4BD
102
}
330
4BD
100
AcDbXrecord
280
     1
102
RTVSPropertyOp0
 70
     1
102
RTVSPropertyOp1
 70
     1
102
RTVSPropertyOp2
 70
     1
102
RTVSPropertyOp3
 70
     1
102
RTVSPropertyOp4
 70
     1
102
RTVSPropertyOp5
 70
     1
102
RTVSPropertyOp6
 70
     1
102
RTVSPropertyOp7
 70
     1
102
RTVSPropertyOp8
 70
     1
102
RTVSPropertyOp9
 70
     1
102
RTVSPropertyOp10
 70
     1
102
RTVSPropertyOp11
 70
     1
102
RTVSPropertyOp12
 70
     1
102
RTVSPropertyOp13
 70
     1
102
RTVSPropertyOp14
 70
     1
102
RTVSPropertyOp15
 70
     1
102
RTVSPropertyOp16
 70
     1
102
RTVSPropertyOp17
 70
     1
102
RTVSPropertyOp18
 70
     1
102
RTVSPropertyOp19
 70
     1
102
RTVSPropertyOp20
 70
     1
102
RTVSPropertyOp21
 70
     1
102
RTVSPropertyOp22
 70
     1
102
RTVSPropertyOp23
 70
     1
102
RTVSPropertyOp24
 70
     1
102
RTVSPropertyOp25
 70
     1
102
RTVSPropertyOp26
 70
     1
102
RTVSPropertyOp27
 70
     1
102
RTVSPropertyOp28
 70
     1
102
RTVSPropertyOp29
 70
     1
102
RTVSPropertyOp30
 70
     1
102
RTVSPropertyOp31
 70
     1
102
RTVSPropertyOp32
 70
     1
102
RTVSPropertyOp33
 70
     1
102
RTVSPropertyOp34
 70
     1
102
RTVSPropertyOp35
 70
     1
102
RTVSPropertyOp36
 70
     1
102
RTVSPropertyOp37
 70
     1
102
RTVSPropertyOp38
 70
     1
102
RTVSPropertyOp39
 70
     1
102
RTVSPropertyOp40
 70
     1
102
RTVSPropertyOp41
 70
     1
102
RTVSPropertyOp42
 70
     1
102
RTVSPropertyOp43
 70
     1
102
RTVSPropertyOp44
 70
     1
102
RTVSPropertyOp45
 70
     1
102
RTVSPropertyOp46
 70
     1
102
RTVSPropertyOp47
 70
     1
102
RTVSPropertyOp48
 70
     1
102
RTVSPropertyOp49
 70
     1
102
RTVSPropertyOp50
 70
     1
102
RTVSPropertyOp51
 70
     0
102
RTVSPropertyOp52
 70
     0
102
RTVSPropertyOp53
 70
     1
102
RTVSPropertyOp54
 70
     1
102
RTVSPropertyOp55
 70
     1
102
RTVSPropertyOp56
 70
     1
102
RTVSPropertyOp57
 70
     1
102
RTVSPost2010Prop28
280
     0
102
RTVSPost2010PropOp28
 70
     1
102
RTVSPost2010Prop29
280
     1
102
RTVSPost2010PropOp29
 70
     1
102
RTVSPost2010Prop30
280
     1
102
RTVSPost2010PropOp30
 70
     1
102
RTVSPost2010Prop31
280
     0
102
RTVSPost2010PropOp31
 70
     1
102
RTVSPost2010Prop32
280
     0
102
RTVSPost2010PropOp32
 70
     1
102
RTVSPost2010Prop33
280
     0
102
RTVSPost2010PropOp33
 70
     1
102
RTVSPost2010Prop34
280
     0
102
RTVSPost2010PropOp34
 70
     1
102
RTVSPost2010Prop35
280
     0
102
RTVSPost2010PropOp35
 70
     1
102
RTVSPost2010Prop36
280
     0
102
RTVSPost2010PropOp36
 70
     1
102
RTVSPost2010Prop37
 90
       50
102
RTVSPost2010PropOp37
 70
     1
102
RTVSPost2010Prop38
140
0.0
102
RTVSPost2010PropOp38
 70
     1
102
RTVSPost2010Prop39
140
1.0
102
RTVSPost2010PropOp39
 70
     1
102
RTVSPost2010Prop40
 90
        0
102
RTVSPost2010PropOp40
 70
     1
102
RTVSPost2010Prop41ColorIndex
 90
       18
102
RTVSPost2010Prop41ColorRGB
 90
        0
102
RTVSPost2010PropOp41
 70
     1
102
RTVSPost2010Prop42
 90
       50
102
RTVSPost2010PropOp42
 70
     1
102
RTVSPost2010Prop43
 90
        3
102
RTVSPost2010PropOp43
 70
     1
102
RTVSPost2010Prop44ColorIndex
 90
        5
102
RTVSPost2010Prop44ColorRGB
 90
      255
102
RTVSPost2010PropOp44
 70
     1
102
RTVSPost2010Prop45
280
     0
102
RTVSPost2010PropOp45
 70
     1
102
RTVSPost2010Prop46
 90
       50
102
RTVSPost2010PropOp46
 70
     1
102
RTVSPost2010Prop47
 90
       50
102
RTVSPost2010PropOp47
 70
     1
102
RTVSPost2010Prop48
 90
       50
102
RTVSPost2010PropOp48
 70
     1
102
RTVSPost2010Prop49
280
     0
102
RTVSPost2010PropOp49
 70
     1
102
RTVSPost2010Prop50
 90
       50
102
RTVSPost2010PropOp50
 70
     1
102
RTVSPost2010Prop51ColorIndex
 90
      256
102
RTVSPost2010Prop51ColorRGB
 90
-16777216
102
RTVSPost2010PropOp51
 70
     0
102
RTVSPost2010Prop52
140
1.0
102
RTVSPost2010PropOp52
 70
     0
102
RTVSPost2010Prop53
 90
        2
102
RTVSPost2010PropOp53
 70
     1
102
RTVSPost2010Prop54
  1
strokes_ogs.tif
102
RTVSPost2010PropOp54
 70
     1
102
RTVSPost2010Prop55
280
     0
102
RTVSPost2010PropOp55
 70
     1
102
RTVSPost2010Prop56
140
1.0
102
RTVSPost2010PropOp56
 70
     1
102
RTVSPost2010Prop57
140
1.0
102
RTVSPost2010PropOp57
 70
     1
  0
XRECORD
  5
4CA
102
{ACAD_REACTORS
330
4C9
102
}
330
4C9
100
AcDbXrecord
280
     1
102
RTVSPropertyOp0
 70
     0
102
RTVSPropertyOp1
 70
     0
102
RTVSPropertyOp2
 70
     0
102
RTVSPropertyOp3
 70
     0
102
RTVSPropertyOp4
 70
     0
102
RTVSPropertyOp5
 70
     0
102
RTVSPropertyOp6
 70
     0
102
RTVSPropertyOp7
 70
     0
102
RTVSPropertyOp8
 70
     0
102
RTVSPropertyOp9
 70
     0
102
RTVSPropertyOp10
 70
     0
102
RTVSPropertyOp11
 70
     0
102
RTVSPropertyOp12
 70
     0
102
RTVSPropertyOp13
 70
     0
102
RTVSPropertyOp14
 70
     2
102
RTVSPropertyOp15
 70
     0
102
RTVSPropertyOp16
 70
     0
102
RTVSPropertyOp17
 70
     0
102
RTVSPropertyOp18
 70
     0
102
RTVSPropertyOp19
 70
     0
102
RTVSPropertyOp20
 70
     0
102
RTVSPropertyOp21
 70
     0
102
RTVSPropertyOp22
 70
     0
102
RTVSPropertyOp23
 70
     0
102
RTVSPropertyOp24
 70
     0
102
RTVSPropertyOp25
 70
     0
102
RTVSPropertyOp26
 70
     0
102
RTVSPropertyOp27
 70
     0
102
RTVSPropertyOp28
 70
     0
102
RTVSPropertyOp29
 70
     0
102
RTVSPropertyOp30
 70
     0
102
RTVSPropertyOp31
 70
     0
102
RTVSPropertyOp32
 70
     0
102
RTVSPropertyOp33
 70
     0
102
RTVSPropertyOp34
 70
     0
102
RTVSPropertyOp35
 70
     0
102
RTVSPropertyOp36
 70
     0
102
RTVSPropertyOp37
 70
     0
102
RTVSPropertyOp38
 70
     0
102
RTVSPropertyOp39
 70
     0
102
RTVSPropertyOp40
 70
     0
102
RTVSPropertyOp41
 70
     0
102
RTVSPropertyOp42
 70
     0
102
RTVSPropertyOp43
 70
     0
102
RTVSPropertyOp44
 70
     0
102
RTVSPropertyOp45
 70
     0
102
RTVSPropertyOp46
 70
     0
102
RTVSPropertyOp47
 70
     0
102
RTVSPropertyOp48
 70
     0
102
RTVSPropertyOp49
 70
     0
102
RTVSPropertyOp50
 70
     0
102
RTVSPropertyOp51
 70
     0
102
RTVSPropertyOp52
 70
     0
102
RTVSPropertyOp53
 70
     0
102
RTVSPropertyOp54
 70
     0
102
RTVSPropertyOp55
 70
     0
102
RTVSPropertyOp56
 70
     0
102
RTVSPropertyOp57
 70
     0
102
RTVSPost2010Prop28
280
     0
102
RTVSPost2010PropOp28
 70
     0
102
RTVSPost2010Prop29
280
     1
102
RTVSPost2010PropOp29
 70
     0
102
RTVSPost2010Prop30
280
     1
102
RTVSPost2010PropOp30
 70
     0
102
RTVSPost2010Prop31
280
     0
102
RTVSPost2010PropOp31
 70
     0
102
RTVSPost2010Prop32
280
     0
102
RTVSPost2010PropOp32
 70
     0
102
RTVSPost2010Prop33
280
     0
102
RTVSPost2010PropOp33
 70
     0
102
RTVSPost2010Prop34
280
     0
102
RTVSPost2010PropOp34
 70
     0
102
RTVSPost2010Prop35
280
     0
102
RTVSPost2010PropOp35
 70
     0
102
RTVSPost2010Prop36
280
     0
102
RTVSPost2010PropOp36
 70
     0
102
RTVSPost2010Prop37
 90
       50
102
RTVSPost2010PropOp37
 70
     0
102
RTVSPost2010Prop38
140
0.0
102
RTVSPost2010PropOp38
 70
     0
102
RTVSPost2010Prop39
140
1.0
102
RTVSPost2010PropOp39
 70
     0
102
RTVSPost2010Prop40
 90
        0
102
RTVSPost2010PropOp40
 70
     0
102
RTVSPost2010Prop41ColorIndex
 90
       18
102
RTVSPost2010Prop41ColorRGB
 90
        0
102
RTVSPost2010PropOp41
 70
     0
102
RTVSPost2010Prop42
 90
       50
102
RTVSPost2010PropOp42
 70
     0
102
RTVSPost2010Prop43
 90
        3
102
RTVSPost2010PropOp43
 70
     0
102
RTVSPost2010Prop44ColorIndex
 90
        5
102
RTVSPost2010Prop44ColorRGB
 90
      255
102
RTVSPost2010PropOp44
 70
     0
102
RTVSPost2010Prop45
280
     0
102
RTVSPost2010PropOp45
 70
     0
102
RTVSPost2010Prop46
 90
       50
102
RTVSPost2010PropOp46
 70
     0
102
RTVSPost2010Prop47
 90
       50
102
RTVSPost2010PropOp47
 70
     0
102
RTVSPost2010Prop48
 90
       50
102
RTVSPost2010PropOp48
 70
     0
102
RTVSPost2010Prop49
280
     0
102
RTVSPost2010PropOp49
 70
     0
102
RTVSPost2010Prop50
 90
       50
102
RTVSPost2010PropOp50
 70
     0
102
RTVSPost2010Prop51ColorIndex
 90
      256
102
RTVSPost2010Prop51ColorRGB
 90
-16777216
102
RTVSPost2010PropOp51
 70
     0
102
RTVSPost2010Prop52
140
1.0
102
RTVSPost2010PropOp52
 70
     0
102
RTVSPost2010Prop53
 90
        2
102
RTVSPost2010PropOp53
 70
     0
102
RTVSPost2010Prop54
  1
strokes_ogs.tif
102
RTVSPost2010PropOp54
 70
     0
102
RTVSPost2010Prop55
280
     0
102
RTVSPost2010PropOp55
 70
     0
102
RTVSPost2010Prop56
140
1.0
102
RTVSPost2010PropOp56
 70
     0
102
RTVSPost2010Prop57
140
1.0
102
RTVSPost2010PropOp57
 70
     0
  0
XRECORD
  5
4B4
102
{ACAD_REACTORS
330
4B3
102
}
330
4B3
100
AcDbXrecord
280
     1
102
RTVSPropertyOp0
 70
     1
102
RTVSPropertyOp1
 70
     1
102
RTVSPropertyOp2
 70
     1
102
RTVSPropertyOp3
 70
     1
102
RTVSPropertyOp4
 70
     1
102
RTVSPropertyOp5
 70
     1
102
RTVSPropertyOp6
 70
     1
102
RTVSPropertyOp7
 70
     1
102
RTVSPropertyOp8
 70
     1
102
RTVSPropertyOp9
 70
     1
102
RTVSPropertyOp10
 70
     1
102
RTVSPropertyOp11
 70
     1
102
RTVSPropertyOp12
 70
     1
102
RTVSPropertyOp13
 70
     1
102
RTVSPropertyOp14
 70
     1
102
RTVSPropertyOp15
 70
     1
102
RTVSPropertyOp16
 70
     1
102
RTVSPropertyOp17
 70
     1
102
RTVSPropertyOp18
 70
     1
102
RTVSPropertyOp19
 70
     1
102
RTVSPropertyOp20
 70
     1
102
RTVSPropertyOp21
 70
     1
102
RTVSPropertyOp22
 70
     1
102
RTVSPropertyOp23
 70
     1
102
RTVSPropertyOp24
 70
     1
102
RTVSPropertyOp25
 70
     1
102
RTVSPropertyOp26
 70
     1
102
RTVSPropertyOp27
 70
     1
102
RTVSPropertyOp28
 70
     1
102
RTVSPropertyOp29
 70
     1
102
RTVSPropertyOp30
 70
     1
102
RTVSPropertyOp31
 70
     1
102
RTVSPropertyOp32
 70
     1
102
RTVSPropertyOp33
 70
     1
102
RTVSPropertyOp34
 70
     1
102
RTVSPropertyOp35
 70
     1
102
RTVSPropertyOp36
 70
     1
102
RTVSPropertyOp37
 70
     1
102
RTVSPropertyOp38
 70
     1
102
RTVSPropertyOp39
 70
     1
102
RTVSPropertyOp40
 70
     1
102
RTVSPropertyOp41
 70
     1
102
RTVSPropertyOp42
 70
     1
102
RTVSPropertyOp43
 70
     1
102
RTVSPropertyOp44
 70
     1
102
RTVSPropertyOp45
 70
     1
102
RTVSPropertyOp46
 70
     1
102
RTVSPropertyOp47
 70
     1
102
RTVSPropertyOp48
 70
     1
102
RTVSPropertyOp49
 70
     1
102
RTVSPropertyOp50
 70
     1
102
RTVSPropertyOp51
 70
     0
102
RTVSPropertyOp52
 70
     0
102
RTVSPropertyOp53
 70
     1
102
RTVSPropertyOp54
 70
     1
102
RTVSPropertyOp55
 70
     1
102
RTVSPropertyOp56
 70
     1
102
RTVSPropertyOp57
 70
     1
102
RTVSPost2010Prop28
280
     0
102
RTVSPost2010PropOp28
 70
     1
102
RTVSPost2010Prop29
280
     1
102
RTVSPost2010PropOp29
 70
     1
102
RTVSPost2010Prop30
280
     1
102
RTVSPost2010PropOp30
 70
     1
102
RTVSPost2010Prop31
280
     0
102
RTVSPost2010PropOp31
 70
     1
102
RTVSPost2010Prop32
280
     0
102
RTVSPost2010PropOp32
 70
     1
102
RTVSPost2010Prop33
280
     0
102
RTVSPost2010PropOp33
 70
     1
102
RTVSPost2010Prop34
280
     0
102
RTVSPost2010PropOp34
 70
     1
102
RTVSPost2010Prop35
280
     0
102
RTVSPost2010PropOp35
 70
     1
102
RTVSPost2010Prop36
280
     0
102
RTVSPost2010PropOp36
 70
     1
102
RTVSPost2010Prop37
 90
       50
102
RTVSPost2010PropOp37
 70
     1
102
RTVSPost2010Prop38
140
0.0
102
RTVSPost2010PropOp38
 70
     1
102
RTVSPost2010Prop39
140
1.0
102
RTVSPost2010PropOp39
 70
     1
102
RTVSPost2010Prop40
 90
        0
102
RTVSPost2010PropOp40
 70
     1
102
RTVSPost2010Prop41ColorIndex
 90
       18
102
RTVSPost2010Prop41ColorRGB
 90
        0
102
RTVSPost2010PropOp41
 70
     1
102
RTVSPost2010Prop42
 90
       50
102
RTVSPost2010PropOp42
 70
     1
102
RTVSPost2010Prop43
 90
        3
102
RTVSPost2010PropOp43
 70
     1
102
RTVSPost2010Prop44ColorIndex
 90
        5
102
RTVSPost2010Prop44ColorRGB
 90
      255
102
RTVSPost2010PropOp44
 70
     1
102
RTVSPost2010Prop45
280
     0
102
RTVSPost2010PropOp45
 70
     1
102
RTVSPost2010Prop46
 90
       50
102
RTVSPost2010PropOp46
 70
     1
102
RTVSPost2010Prop47
 90
       50
102
RTVSPost2010PropOp47
 70
     1
102
RTVSPost2010Prop48
 90
       50
102
RTVSPost2010PropOp48
 70
     1
102
RTVSPost2010Prop49
280
     0
102
RTVSPost2010PropOp49
 70
     1
102
RTVSPost2010Prop50
 90
       50
102
RTVSPost2010PropOp50
 70
     1
102
RTVSPost2010Prop51ColorIndex
 90
      256
102
RTVSPost2010Prop51ColorRGB
 90
-16777216
102
RTVSPost2010PropOp51
 70
     0
102
RTVSPost2010Prop52
140
1.0
102
RTVSPost2010PropOp52
 70
     0
102
RTVSPost2010Prop53
 90
        2
102
RTVSPost2010PropOp53
 70
     1
102
RTVSPost2010Prop54
  1
strokes_ogs.tif
102
RTVSPost2010PropOp54
 70
     1
102
RTVSPost2010Prop55
280
     0
102
RTVSPost2010PropOp55
 70
     1
102
RTVSPost2010Prop56
140
1.0
102
RTVSPost2010PropOp56
 70
     1
102
RTVSPost2010Prop57
140
1.0
102
RTVSPost2010PropOp57
 70
     1
  0
XRECORD
  5
4D6
102
{ACAD_REACTORS
330
4D5
102
}
330
4D5
100
AcDbXrecord
280
     1
102
RTVSPropertyOp0
 70
     1
102
RTVSPropertyOp1
 70
     1
102
RTVSPropertyOp2
 70
     1
102
RTVSPropertyOp3
 70
     1
102
RTVSPropertyOp4
 70
     1
102
RTVSPropertyOp5
 70
     1
102
RTVSPropertyOp6
 70
     1
102
RTVSPropertyOp7
 70
     1
102
RTVSPropertyOp8
 70
     1
102
RTVSPropertyOp9
 70
     1
102
RTVSPropertyOp10
 70
     1
102
RTVSPropertyOp11
 70
     1
102
RTVSPropertyOp12
 70
     1
102
RTVSPropertyOp13
 70
     1
102
RTVSPropertyOp14
 70
     1
102
RTVSPropertyOp15
 70
     1
102
RTVSPropertyOp16
 70
     1
102
RTVSPropertyOp17
 70
     1
102
RTVSPropertyOp18
 70
     1
102
RTVSPropertyOp19
 70
     1
102
RTVSPropertyOp20
 70
     1
102
RTVSPropertyOp21
 70
     1
102
RTVSPropertyOp22
 70
     1
102
RTVSPropertyOp23
 70
     1
102
RTVSPropertyOp24
 70
     1
102
RTVSPropertyOp25
 70
     1
102
RTVSPropertyOp26
 70
     1
102
RTVSPropertyOp27
 70
     1
102
RTVSPropertyOp28
 70
     1
102
RTVSPropertyOp29
 70
     1
102
RTVSPropertyOp30
 70
     1
102
RTVSPropertyOp31
 70
     1
102
RTVSPropertyOp32
 70
     1
102
RTVSPropertyOp33
 70
     1
102
RTVSPropertyOp34
 70
     1
102
RTVSPropertyOp35
 70
     1
102
RTVSPropertyOp36
 70
     1
102
RTVSPropertyOp37
 70
     1
102
RTVSPropertyOp38
 70
     1
102
RTVSPropertyOp39
 70
     1
102
RTVSPropertyOp40
 70
     1
102
RTVSPropertyOp41
 70
     1
102
RTVSPropertyOp42
 70
     1
102
RTVSPropertyOp43
 70
     1
102
RTVSPropertyOp44
 70
     1
102
RTVSPropertyOp45
 70
     1
102
RTVSPropertyOp46
 70
     1
102
RTVSPropertyOp47
 70
     1
102
RTVSPropertyOp48
 70
     1
102
RTVSPropertyOp49
 70
     1
102
RTVSPropertyOp50
 70
     1
102
RTVSPropertyOp51
 70
     0
102
RTVSPropertyOp52
 70
     0
102
RTVSPropertyOp53
 70
     1
102
RTVSPropertyOp54
 70
     1
102
RTVSPropertyOp55
 70
     1
102
RTVSPropertyOp56
 70
     1
102
RTVSPropertyOp57
 70
     1
102
RTVSPost2010Prop28
280
     0
102
RTVSPost2010PropOp28
 70
     1
102
RTVSPost2010Prop29
280
     1
102
RTVSPost2010PropOp29
 70
     1
102
RTVSPost2010Prop30
280
     1
102
RTVSPost2010PropOp30
 70
     1
102
RTVSPost2010Prop31
280
     0
102
RTVSPost2010PropOp31
 70
     1
102
RTVSPost2010Prop32
280
     0
102
RTVSPost2010PropOp32
 70
     1
102
RTVSPost2010Prop33
280
     0
102
RTVSPost2010PropOp33
 70
     1
102
RTVSPost2010Prop34
280
     0
102
RTVSPost2010PropOp34
 70
     1
102
RTVSPost2010Prop35
280
     0
102
RTVSPost2010PropOp35
 70
     1
102
RTVSPost2010Prop36
280
     0
102
RTVSPost2010PropOp36
 70
     1
102
RTVSPost2010Prop37
 90
       50
102
RTVSPost2010PropOp37
 70
     1
102
RTVSPost2010Prop38
140
0.0
102
RTVSPost2010PropOp38
 70
     1
102
RTVSPost2010Prop39
140
1.0
102
RTVSPost2010PropOp39
 70
     1
102
RTVSPost2010Prop40
 90
        0
102
RTVSPost2010PropOp40
 70
     1
102
RTVSPost2010Prop41ColorIndex
 90
       18
102
RTVSPost2010Prop41ColorRGB
 90
        0
102
RTVSPost2010PropOp41
 70
     1
102
RTVSPost2010Prop42
 90
       50
102
RTVSPost2010PropOp42
 70
     1
102
RTVSPost2010Prop43
 90
        3
102
RTVSPost2010PropOp43
 70
     1
102
RTVSPost2010Prop44ColorIndex
 90
        5
102
RTVSPost2010Prop44ColorRGB
 90
      255
102
RTVSPost2010PropOp44
 70
     1
102
RTVSPost2010Prop45
280
     0
102
RTVSPost2010PropOp45
 70
     1
102
RTVSPost2010Prop46
 90
       50
102
RTVSPost2010PropOp46
 70
     1
102
RTVSPost2010Prop47
 90
       50
102
RTVSPost2010PropOp47
 70
     1
102
RTVSPost2010Prop48
 90
       50
102
RTVSPost2010PropOp48
 70
     1
102
RTVSPost2010Prop49
280
     0
102
RTVSPost2010PropOp49
 70
     1
102
RTVSPost2010Prop50
 90
       50
102
RTVSPost2010PropOp50
 70
     1
102
RTVSPost2010Prop51ColorIndex
 90
      256
102
RTVSPost2010Prop51ColorRGB
 90
-16777216
102
RTVSPost2010PropOp51
 70
     0
102
RTVSPost2010Prop52
140
1.0
102
RTVSPost2010PropOp52
 70
     0
102
RTVSPost2010Prop53
 90
        2
102
RTVSPost2010PropOp53
 70
     1
102
RTVSPost2010Prop54
  1
strokes_ogs.tif
102
RTVSPost2010PropOp54
 70
     1
102
RTVSPost2010Prop55
280
     0
102
RTVSPost2010PropOp55
 70
     1
102
RTVSPost2010Prop56
140
1.0
102
RTVSPost2010PropOp56
 70
     1
102
RTVSPost2010Prop57
140
1.0
102
RTVSPost2010PropOp57
 70
     1
  0
XRECORD
  5
4D4
102
{ACAD_REACTORS
330
4D3
102
}
330
4D3
100
AcDbXrecord
280
     1
102
RTVSPropertyOp0
 70
     1
102
RTVSPropertyOp1
 70
     1
102
RTVSPropertyOp2
 70
     1
102
RTVSPropertyOp3
 70
     1
102
RTVSPropertyOp4
 70
     1
102
RTVSPropertyOp5
 70
     1
102
RTVSPropertyOp6
 70
     1
102
RTVSPropertyOp7
 70
     1
102
RTVSPropertyOp8
 70
     1
102
RTVSPropertyOp9
 70
     1
102
RTVSPropertyOp10
 70
     1
102
RTVSPropertyOp11
 70
     1
102
RTVSPropertyOp12
 70
     1
102
RTVSPropertyOp13
 70
     1
102
RTVSPropertyOp14
 70
     1
102
RTVSPropertyOp15
 70
     1
102
RTVSPropertyOp16
 70
     1
102
RTVSPropertyOp17
 70
     1
102
RTVSPropertyOp18
 70
     1
102
RTVSPropertyOp19
 70
     1
102
RTVSPropertyOp20
 70
     1
102
RTVSPropertyOp21
 70
     1
102
RTVSPropertyOp22
 70
     1
102
RTVSPropertyOp23
 70
     1
102
RTVSPropertyOp24
 70
     1
102
RTVSPropertyOp25
 70
     1
102
RTVSPropertyOp26
 70
     1
102
RTVSPropertyOp27
 70
     1
102
RTVSPropertyOp28
 70
     1
102
RTVSPropertyOp29
 70
     1
102
RTVSPropertyOp30
 70
     1
102
RTVSPropertyOp31
 70
     1
102
RTVSPropertyOp32
 70
     1
102
RTVSPropertyOp33
 70
     1
102
RTVSPropertyOp34
 70
     1
102
RTVSPropertyOp35
 70
     1
102
RTVSPropertyOp36
 70
     1
102
RTVSPropertyOp37
 70
     1
102
RTVSPropertyOp38
 70
     1
102
RTVSPropertyOp39
 70
     1
102
RTVSPropertyOp40
 70
     1
102
RTVSPropertyOp41
 70
     1
102
RTVSPropertyOp42
 70
     1
102
RTVSPropertyOp43
 70
     1
102
RTVSPropertyOp44
 70
     1
102
RTVSPropertyOp45
 70
     1
102
RTVSPropertyOp46
 70
     1
102
RTVSPropertyOp47
 70
     1
102
RTVSPropertyOp48
 70
     1
102
RTVSPropertyOp49
 70
     1
102
RTVSPropertyOp50
 70
     1
102
RTVSPropertyOp51
 70
     0
102
RTVSPropertyOp52
 70
     0
102
RTVSPropertyOp53
 70
     1
102
RTVSPropertyOp54
 70
     1
102
RTVSPropertyOp55
 70
     1
102
RTVSPropertyOp56
 70
     1
102
RTVSPropertyOp57
 70
     1
102
RTVSPost2010Prop28
280
     0
102
RTVSPost2010PropOp28
 70
     1
102
RTVSPost2010Prop29
280
     1
102
RTVSPost2010PropOp29
 70
     1
102
RTVSPost2010Prop30
280
     1
102
RTVSPost2010PropOp30
 70
     1
102
RTVSPost2010Prop31
280
     0
102
RTVSPost2010PropOp31
 70
     1
102
RTVSPost2010Prop32
280
     0
102
RTVSPost2010PropOp32
 70
     1
102
RTVSPost2010Prop33
280
     0
102
RTVSPost2010PropOp33
 70
     1
102
RTVSPost2010Prop34
280
     0
102
RTVSPost2010PropOp34
 70
     1
102
RTVSPost2010Prop35
280
     0
102
RTVSPost2010PropOp35
 70
     1
102
RTVSPost2010Prop36
280
     0
102
RTVSPost2010PropOp36
 70
     1
102
RTVSPost2010Prop37
 90
       50
102
RTVSPost2010PropOp37
 70
     1
102
RTVSPost2010Prop38
140
0.0
102
RTVSPost2010PropOp38
 70
     1
102
RTVSPost2010Prop39
140
1.0
102
RTVSPost2010PropOp39
 70
     1
102
RTVSPost2010Prop40
 90
        0
102
RTVSPost2010PropOp40
 70
     1
102
RTVSPost2010Prop41ColorIndex
 90
       18
102
RTVSPost2010Prop41ColorRGB
 90
        0
102
RTVSPost2010PropOp41
 70
     1
102
RTVSPost2010Prop42
 90
       50
102
RTVSPost2010PropOp42
 70
     1
102
RTVSPost2010Prop43
 90
        3
102
RTVSPost2010PropOp43
 70
     1
102
RTVSPost2010Prop44ColorIndex
 90
        5
102
RTVSPost2010Prop44ColorRGB
 90
      255
102
RTVSPost2010PropOp44
 70
     1
102
RTVSPost2010Prop45
280
     0
102
RTVSPost2010PropOp45
 70
     1
102
RTVSPost2010Prop46
 90
       50
102
RTVSPost2010PropOp46
 70
     1
102
RTVSPost2010Prop47
 90
       50
102
RTVSPost2010PropOp47
 70
     1
102
RTVSPost2010Prop48
 90
       50
102
RTVSPost2010PropOp48
 70
     1
102
RTVSPost2010Prop49
280
     0
102
RTVSPost2010PropOp49
 70
     1
102
RTVSPost2010Prop50
 90
       50
102
RTVSPost2010PropOp50
 70
     1
102
RTVSPost2010Prop51ColorIndex
 90
      256
102
RTVSPost2010Prop51ColorRGB
 90
-16777216
102
RTVSPost2010PropOp51
 70
     0
102
RTVSPost2010Prop52
140
1.0
102
RTVSPost2010PropOp52
 70
     0
102
RTVSPost2010Prop53
 90
        2
102
RTVSPost2010PropOp53
 70
     1
102
RTVSPost2010Prop54
  1
strokes_ogs.tif
102
RTVSPost2010PropOp54
 70
     1
102
RTVSPost2010Prop55
280
     0
102
RTVSPost2010PropOp55
 70
     1
102
RTVSPost2010Prop56
140
1.0
102
RTVSPost2010PropOp56
 70
     1
102
RTVSPost2010Prop57
140
1.0
102
RTVSPost2010PropOp57
 70
     1
  0
XRECORD
  5
4CE
102
{ACAD_REACTORS
330
4CD
102
}
330
4CD
100
AcDbXrecord
280
     1
102
RTVSPropertyOp0
 70
     1
102
RTVSPropertyOp1
 70
     1
102
RTVSPropertyOp2
 70
     1
102
RTVSPropertyOp3
 70
     1
102
RTVSPropertyOp4
 70
     1
102
RTVSPropertyOp5
 70
     1
102
RTVSPropertyOp6
 70
     1
102
RTVSPropertyOp7
 70
     1
102
RTVSPropertyOp8
 70
     1
102
RTVSPropertyOp9
 70
     1
102
RTVSPropertyOp10
 70
     1
102
RTVSPropertyOp11
 70
     1
102
RTVSPropertyOp12
 70
     1
102
RTVSPropertyOp13
 70
     1
102
RTVSPropertyOp14
 70
     1
102
RTVSPropertyOp15
 70
     1
102
RTVSPropertyOp16
 70
     1
102
RTVSPropertyOp17
 70
     1
102
RTVSPropertyOp18
 70
     1
102
RTVSPropertyOp19
 70
     1
102
RTVSPropertyOp20
 70
     1
102
RTVSPropertyOp21
 70
     1
102
RTVSPropertyOp22
 70
     1
102
RTVSPropertyOp23
 70
     1
102
RTVSPropertyOp24
 70
     1
102
RTVSPropertyOp25
 70
     1
102
RTVSPropertyOp26
 70
     1
102
RTVSPropertyOp27
 70
     1
102
RTVSPropertyOp28
 70
     1
102
RTVSPropertyOp29
 70
     1
102
RTVSPropertyOp30
 70
     1
102
RTVSPropertyOp31
 70
     1
102
RTVSPropertyOp32
 70
     1
102
RTVSPropertyOp33
 70
     1
102
RTVSPropertyOp34
 70
     1
102
RTVSPropertyOp35
 70
     1
102
RTVSPropertyOp36
 70
     1
102
RTVSPropertyOp37
 70
     1
102
RTVSPropertyOp38
 70
     1
102
RTVSPropertyOp39
 70
     1
102
RTVSPropertyOp40
 70
     1
102
RTVSPropertyOp41
 70
     1
102
RTVSPropertyOp42
 70
     1
102
RTVSPropertyOp43
 70
     1
102
RTVSPropertyOp44
 70
     1
102
RTVSPropertyOp45
 70
     1
102
RTVSPropertyOp46
 70
     1
102
RTVSPropertyOp47
 70
     1
102
RTVSPropertyOp48
 70
     1
102
RTVSPropertyOp49
 70
     1
102
RTVSPropertyOp50
 70
     1
102
RTVSPropertyOp51
 70
     0
102
RTVSPropertyOp52
 70
     0
102
RTVSPropertyOp53
 70
     1
102
RTVSPropertyOp54
 70
     1
102
RTVSPropertyOp55
 70
     1
102
RTVSPropertyOp56
 70
     1
102
RTVSPropertyOp57
 70
     1
102
RTVSPost2010Prop28
280
     0
102
RTVSPost2010PropOp28
 70
     1
102
RTVSPost2010Prop29
280
     1
102
RTVSPost2010PropOp29
 70
     1
102
RTVSPost2010Prop30
280
     1
102
RTVSPost2010PropOp30
 70
     1
102
RTVSPost2010Prop31
280
     0
102
RTVSPost2010PropOp31
 70
     1
102
RTVSPost2010Prop32
280
     0
102
RTVSPost2010PropOp32
 70
     1
102
RTVSPost2010Prop33
280
     0
102
RTVSPost2010PropOp33
 70
     1
102
RTVSPost2010Prop34
280
     0
102
RTVSPost2010PropOp34
 70
     1
102
RTVSPost2010Prop35
280
     0
102
RTVSPost2010PropOp35
 70
     1
102
RTVSPost2010Prop36
280
     0
102
RTVSPost2010PropOp36
 70
     1
102
RTVSPost2010Prop37
 90
       50
102
RTVSPost2010PropOp37
 70
     1
102
RTVSPost2010Prop38
140
0.0
102
RTVSPost2010PropOp38
 70
     1
102
RTVSPost2010Prop39
140
1.0
102
RTVSPost2010PropOp39
 70
     1
102
RTVSPost2010Prop40
 90
        0
102
RTVSPost2010PropOp40
 70
     1
102
RTVSPost2010Prop41ColorIndex
 90
       18
102
RTVSPost2010Prop41ColorRGB
 90
        0
102
RTVSPost2010PropOp41
 70
     1
102
RTVSPost2010Prop42
 90
       50
102
RTVSPost2010PropOp42
 70
     1
102
RTVSPost2010Prop43
 90
        3
102
RTVSPost2010PropOp43
 70
     1
102
RTVSPost2010Prop44ColorIndex
 90
        5
102
RTVSPost2010Prop44ColorRGB
 90
      255
102
RTVSPost2010PropOp44
 70
     1
102
RTVSPost2010Prop45
280
     0
102
RTVSPost2010PropOp45
 70
     1
102
RTVSPost2010Prop46
 90
       50
102
RTVSPost2010PropOp46
 70
     1
102
RTVSPost2010Prop47
 90
       50
102
RTVSPost2010PropOp47
 70
     1
102
RTVSPost2010Prop48
 90
       50
102
RTVSPost2010PropOp48
 70
     1
102
RTVSPost2010Prop49
280
     0
102
RTVSPost2010PropOp49
 70
     1
102
RTVSPost2010Prop50
 90
       50
102
RTVSPost2010PropOp50
 70
     1
102
RTVSPost2010Prop51ColorIndex
 90
      256
102
RTVSPost2010Prop51ColorRGB
 90
-16777216
102
RTVSPost2010PropOp51
 70
     0
102
RTVSPost2010Prop52
140
1.0
102
RTVSPost2010PropOp52
 70
     0
102
RTVSPost2010Prop53
 90
        2
102
RTVSPost2010PropOp53
 70
     1
102
RTVSPost2010Prop54
  1
strokes_ogs.tif
102
RTVSPost2010PropOp54
 70
     1
102
RTVSPost2010Prop55
280
     0
102
RTVSPost2010PropOp55
 70
     1
102
RTVSPost2010Prop56
140
1.0
102
RTVSPost2010PropOp56
 70
     1
102
RTVSPost2010Prop57
140
1.0
102
RTVSPost2010PropOp57
 70
     1
  0
XRECORD
  5
4D0
102
{ACAD_REACTORS
330
4CF
102
}
330
4CF
100
AcDbXrecord
280
     1
102
RTVSPropertyOp0
 70
     1
102
RTVSPropertyOp1
 70
     1
102
RTVSPropertyOp2
 70
     1
102
RTVSPropertyOp3
 70
     1
102
RTVSPropertyOp4
 70
     1
102
RTVSPropertyOp5
 70
     1
102
RTVSPropertyOp6
 70
     1
102
RTVSPropertyOp7
 70
     1
102
RTVSPropertyOp8
 70
     1
102
RTVSPropertyOp9
 70
     1
102
RTVSPropertyOp10
 70
     1
102
RTVSPropertyOp11
 70
     1
102
RTVSPropertyOp12
 70
     1
102
RTVSPropertyOp13
 70
     1
102
RTVSPropertyOp14
 70
     1
102
RTVSPropertyOp15
 70
     1
102
RTVSPropertyOp16
 70
     1
102
RTVSPropertyOp17
 70
     1
102
RTVSPropertyOp18
 70
     1
102
RTVSPropertyOp19
 70
     1
102
RTVSPropertyOp20
 70
     1
102
RTVSPropertyOp21
 70
     1
102
RTVSPropertyOp22
 70
     1
102
RTVSPropertyOp23
 70
     1
102
RTVSPropertyOp24
 70
     1
102
RTVSPropertyOp25
 70
     1
102
RTVSPropertyOp26
 70
     1
102
RTVSPropertyOp27
 70
     1
102
RTVSPropertyOp28
 70
     1
102
RTVSPropertyOp29
 70
     1
102
RTVSPropertyOp30
 70
     1
102
RTVSPropertyOp31
 70
     1
102
RTVSPropertyOp32
 70
     1
102
RTVSPropertyOp33
 70
     1
102
RTVSPropertyOp34
 70
     1
102
RTVSPropertyOp35
 70
     1
102
RTVSPropertyOp36
 70
     1
102
RTVSPropertyOp37
 70
     1
102
RTVSPropertyOp38
 70
     1
102
RTVSPropertyOp39
 70
     1
102
RTVSPropertyOp40
 70
     1
102
RTVSPropertyOp41
 70
     1
102
RTVSPropertyOp42
 70
     1
102
RTVSPropertyOp43
 70
     1
102
RTVSPropertyOp44
 70
     1
102
RTVSPropertyOp45
 70
     1
102
RTVSPropertyOp46
 70
     1
102
RTVSPropertyOp47
 70
     1
102
RTVSPropertyOp48
 70
     1
102
RTVSPropertyOp49
 70
     1
102
RTVSPropertyOp50
 70
     1
102
RTVSPropertyOp51
 70
     0
102
RTVSPropertyOp52
 70
     0
102
RTVSPropertyOp53
 70
     1
102
RTVSPropertyOp54
 70
     1
102
RTVSPropertyOp55
 70
     1
102
RTVSPropertyOp56
 70
     1
102
RTVSPropertyOp57
 70
     1
102
RTVSPost2010Prop28
280
     0
102
RTVSPost2010PropOp28
 70
     1
102
RTVSPost2010Prop29
280
     1
102
RTVSPost2010PropOp29
 70
     1
102
RTVSPost2010Prop30
280
     1
102
RTVSPost2010PropOp30
 70
     1
102
RTVSPost2010Prop31
280
     0
102
RTVSPost2010PropOp31
 70
     1
102
RTVSPost2010Prop32
280
     0
102
RTVSPost2010PropOp32
 70
     1
102
RTVSPost2010Prop33
280
     0
102
RTVSPost2010PropOp33
 70
     1
102
RTVSPost2010Prop34
280
     0
102
RTVSPost2010PropOp34
 70
     1
102
RTVSPost2010Prop35
280
     0
102
RTVSPost2010PropOp35
 70
     1
102
RTVSPost2010Prop36
280
     0
102
RTVSPost2010PropOp36
 70
     1
102
RTVSPost2010Prop37
 90
       50
102
RTVSPost2010PropOp37
 70
     1
102
RTVSPost2010Prop38
140
0.0
102
RTVSPost2010PropOp38
 70
     1
102
RTVSPost2010Prop39
140
1.0
102
RTVSPost2010PropOp39
 70
     1
102
RTVSPost2010Prop40
 90
        0
102
RTVSPost2010PropOp40
 70
     1
102
RTVSPost2010Prop41ColorIndex
 90
       18
102
RTVSPost2010Prop41ColorRGB
 90
        0
102
RTVSPost2010PropOp41
 70
     1
102
RTVSPost2010Prop42
 90
       50
102
RTVSPost2010PropOp42
 70
     1
102
RTVSPost2010Prop43
 90
        3
102
RTVSPost2010PropOp43
 70
     1
102
RTVSPost2010Prop44ColorIndex
 90
        5
102
RTVSPost2010Prop44ColorRGB
 90
      255
102
RTVSPost2010PropOp44
 70
     1
102
RTVSPost2010Prop45
280
     0
102
RTVSPost2010PropOp45
 70
     1
102
RTVSPost2010Prop46
 90
       50
102
RTVSPost2010PropOp46
 70
     1
102
RTVSPost2010Prop47
 90
       50
102
RTVSPost2010PropOp47
 70
     1
102
RTVSPost2010Prop48
 90
       50
102
RTVSPost2010PropOp48
 70
     1
102
RTVSPost2010Prop49
280
     0
102
RTVSPost2010PropOp49
 70
     1
102
RTVSPost2010Prop50
 90
       50
102
RTVSPost2010PropOp50
 70
     1
102
RTVSPost2010Prop51ColorIndex
 90
      256
102
RTVSPost2010Prop51ColorRGB
 90
-16777216
102
RTVSPost2010PropOp51
 70
     0
102
RTVSPost2010Prop52
140
1.0
102
RTVSPost2010PropOp52
 70
     0
102
RTVSPost2010Prop53
 90
        2
102
RTVSPost2010PropOp53
 70
     1
102
RTVSPost2010Prop54
  1
strokes_ogs.tif
102
RTVSPost2010PropOp54
 70
     1
102
RTVSPost2010Prop55
280
     0
102
RTVSPost2010PropOp55
 70
     1
102
RTVSPost2010Prop56
140
1.0
102
RTVSPost2010PropOp56
 70
     1
102
RTVSPost2010Prop57
140
1.0
102
RTVSPost2010PropOp57
 70
     1
  0
XRECORD
  5
4BC
102
{ACAD_REACTORS
330
4BB
102
}
330
4BB
100
AcDbXrecord
280
     1
102
RTVSPropertyOp0
 70
     1
102
RTVSPropertyOp1
 70
     1
102
RTVSPropertyOp2
 70
     1
102
RTVSPropertyOp3
 70
     1
102
RTVSPropertyOp4
 70
     1
102
RTVSPropertyOp5
 70
     1
102
RTVSPropertyOp6
 70
     1
102
RTVSPropertyOp7
 70
     1
102
RTVSPropertyOp8
 70
     1
102
RTVSPropertyOp9
 70
     1
102
RTVSPropertyOp10
 70
     1
102
RTVSPropertyOp11
 70
     1
102
RTVSPropertyOp12
 70
     1
102
RTVSPropertyOp13
 70
     1
102
RTVSPropertyOp14
 70
     1
102
RTVSPropertyOp15
 70
     1
102
RTVSPropertyOp16
 70
     1
102
RTVSPropertyOp17
 70
     1
102
RTVSPropertyOp18
 70
     1
102
RTVSPropertyOp19
 70
     1
102
RTVSPropertyOp20
 70
     1
102
RTVSPropertyOp21
 70
     1
102
RTVSPropertyOp22
 70
     1
102
RTVSPropertyOp23
 70
     1
102
RTVSPropertyOp24
 70
     1
102
RTVSPropertyOp25
 70
     1
102
RTVSPropertyOp26
 70
     1
102
RTVSPropertyOp27
 70
     1
102
RTVSPropertyOp28
 70
     1
102
RTVSPropertyOp29
 70
     1
102
RTVSPropertyOp30
 70
     1
102
RTVSPropertyOp31
 70
     1
102
RTVSPropertyOp32
 70
     1
102
RTVSPropertyOp33
 70
     1
102
RTVSPropertyOp34
 70
     1
102
RTVSPropertyOp35
 70
     1
102
RTVSPropertyOp36
 70
     1
102
RTVSPropertyOp37
 70
     1
102
RTVSPropertyOp38
 70
     1
102
RTVSPropertyOp39
 70
     1
102
RTVSPropertyOp40
 70
     1
102
RTVSPropertyOp41
 70
     1
102
RTVSPropertyOp42
 70
     1
102
RTVSPropertyOp43
 70
     1
102
RTVSPropertyOp44
 70
     1
102
RTVSPropertyOp45
 70
     1
102
RTVSPropertyOp46
 70
     1
102
RTVSPropertyOp47
 70
     1
102
RTVSPropertyOp48
 70
     1
102
RTVSPropertyOp49
 70
     1
102
RTVSPropertyOp50
 70
     1
102
RTVSPropertyOp51
 70
     0
102
RTVSPropertyOp52
 70
     0
102
RTVSPropertyOp53
 70
     1
102
RTVSPropertyOp54
 70
     1
102
RTVSPropertyOp55
 70
     1
102
RTVSPropertyOp56
 70
     1
102
RTVSPropertyOp57
 70
     1
102
RTVSPost2010Prop28
280
     0
102
RTVSPost2010PropOp28
 70
     1
102
RTVSPost2010Prop29
280
     1
102
RTVSPost2010PropOp29
 70
     1
102
RTVSPost2010Prop30
280
     1
102
RTVSPost2010PropOp30
 70
     1
102
RTVSPost2010Prop31
280
     0
102
RTVSPost2010PropOp31
 70
     1
102
RTVSPost2010Prop32
280
     0
102
RTVSPost2010PropOp32
 70
     1
102
RTVSPost2010Prop33
280
     0
102
RTVSPost2010PropOp33
 70
     1
102
RTVSPost2010Prop34
280
     0
102
RTVSPost2010PropOp34
 70
     1
102
RTVSPost2010Prop35
280
     0
102
RTVSPost2010PropOp35
 70
     1
102
RTVSPost2010Prop36
280
     0
102
RTVSPost2010PropOp36
 70
     1
102
RTVSPost2010Prop37
 90
       50
102
RTVSPost2010PropOp37
 70
     1
102
RTVSPost2010Prop38
140
0.0
102
RTVSPost2010PropOp38
 70
     1
102
RTVSPost2010Prop39
140
1.0
102
RTVSPost2010PropOp39
 70
     1
102
RTVSPost2010Prop40
 90
        0
102
RTVSPost2010PropOp40
 70
     1
102
RTVSPost2010Prop41ColorIndex
 90
       18
102
RTVSPost2010Prop41ColorRGB
 90
        0
102
RTVSPost2010PropOp41
 70
     1
102
RTVSPost2010Prop42
 90
       50
102
RTVSPost2010PropOp42
 70
     1
102
RTVSPost2010Prop43
 90
        3
102
RTVSPost2010PropOp43
 70
     1
102
RTVSPost2010Prop44ColorIndex
 90
        5
102
RTVSPost2010Prop44ColorRGB
 90
      255
102
RTVSPost2010PropOp44
 70
     1
102
RTVSPost2010Prop45
280
     0
102
RTVSPost2010PropOp45
 70
     1
102
RTVSPost2010Prop46
 90
       50
102
RTVSPost2010PropOp46
 70
     1
102
RTVSPost2010Prop47
 90
       50
102
RTVSPost2010PropOp47
 70
     1
102
RTVSPost2010Prop48
 90
       50
102
RTVSPost2010PropOp48
 70
     1
102
RTVSPost2010Prop49
280
     0
102
RTVSPost2010PropOp49
 70
     1
102
RTVSPost2010Prop50
 90
       50
102
RTVSPost2010PropOp50
 70
     1
102
RTVSPost2010Prop51ColorIndex
 90
      256
102
RTVSPost2010Prop51ColorRGB
 90
-16777216
102
RTVSPost2010PropOp51
 70
     0
102
RTVSPost2010Prop52
140
1.0
102
RTVSPost2010PropOp52
 70
     0
102
RTVSPost2010Prop53
 90
        2
102
RTVSPost2010PropOp53
 70
     1
102
RTVSPost2010Prop54
  1
strokes_ogs.tif
102
RTVSPost2010PropOp54
 70
     1
102
RTVSPost2010Prop55
280
     0
102
RTVSPost2010PropOp55
 70
     1
102
RTVSPost2010Prop56
140
1.0
102
RTVSPost2010PropOp56
 70
     1
102
RTVSPost2010Prop57
140
1.0
102
RTVSPost2010PropOp57
 70
     1
  0
XRECORD
  5
4C4
102
{ACAD_REACTORS
330
4C3
102
}
330
4C3
100
AcDbXrecord
280
     1
102
RTVSPropertyOp0
 70
     1
102
RTVSPropertyOp1
 70
     1
102
RTVSPropertyOp2
 70
     1
102
RTVSPropertyOp3
 70
     1
102
RTVSPropertyOp4
 70
     1
102
RTVSPropertyOp5
 70
     1
102
RTVSPropertyOp6
 70
     1
102
RTVSPropertyOp7
 70
     1
102
RTVSPropertyOp8
 70
     1
102
RTVSPropertyOp9
 70
     1
102
RTVSPropertyOp10
 70
     1
102
RTVSPropertyOp11
 70
     1
102
RTVSPropertyOp12
 70
     1
102
RTVSPropertyOp13
 70
     1
102
RTVSPropertyOp14
 70
     1
102
RTVSPropertyOp15
 70
     1
102
RTVSPropertyOp16
 70
     1
102
RTVSPropertyOp17
 70
     1
102
RTVSPropertyOp18
 70
     1
102
RTVSPropertyOp19
 70
     1
102
RTVSPropertyOp20
 70
     1
102
RTVSPropertyOp21
 70
     1
102
RTVSPropertyOp22
 70
     1
102
RTVSPropertyOp23
 70
     1
102
RTVSPropertyOp24
 70
     1
102
RTVSPropertyOp25
 70
     1
102
RTVSPropertyOp26
 70
     1
102
RTVSPropertyOp27
 70
     1
102
RTVSPropertyOp28
 70
     1
102
RTVSPropertyOp29
 70
     1
102
RTVSPropertyOp30
 70
     1
102
RTVSPropertyOp31
 70
     1
102
RTVSPropertyOp32
 70
     1
102
RTVSPropertyOp33
 70
     1
102
RTVSPropertyOp34
 70
     1
102
RTVSPropertyOp35
 70
     1
102
RTVSPropertyOp36
 70
     1
102
RTVSPropertyOp37
 70
     1
102
RTVSPropertyOp38
 70
     1
102
RTVSPropertyOp39
 70
     1
102
RTVSPropertyOp40
 70
     1
102
RTVSPropertyOp41
 70
     1
102
RTVSPropertyOp42
 70
     1
102
RTVSPropertyOp43
 70
     1
102
RTVSPropertyOp44
 70
     1
102
RTVSPropertyOp45
 70
     1
102
RTVSPropertyOp46
 70
     1
102
RTVSPropertyOp47
 70
     1
102
RTVSPropertyOp48
 70
     1
102
RTVSPropertyOp49
 70
     1
102
RTVSPropertyOp50
 70
     1
102
RTVSPropertyOp51
 70
     0
102
RTVSPropertyOp52
 70
     0
102
RTVSPropertyOp53
 70
     1
102
RTVSPropertyOp54
 70
     1
102
RTVSPropertyOp55
 70
     1
102
RTVSPropertyOp56
 70
     1
102
RTVSPropertyOp57
 70
     1
102
RTVSPost2010Prop28
280
     0
102
RTVSPost2010PropOp28
 70
     1
102
RTVSPost2010Prop29
280
     1
102
RTVSPost2010PropOp29
 70
     1
102
RTVSPost2010Prop30
280
     1
102
RTVSPost2010PropOp30
 70
     1
102
RTVSPost2010Prop31
280
     0
102
RTVSPost2010PropOp31
 70
     1
102
RTVSPost2010Prop32
280
     0
102
RTVSPost2010PropOp32
 70
     1
102
RTVSPost2010Prop33
280
     0
102
RTVSPost2010PropOp33
 70
     1
102
RTVSPost2010Prop34
280
     0
102
RTVSPost2010PropOp34
 70
     1
102
RTVSPost2010Prop35
280
     0
102
RTVSPost2010PropOp35
 70
     1
102
RTVSPost2010Prop36
280
     0
102
RTVSPost2010PropOp36
 70
     1
102
RTVSPost2010Prop37
 90
       50
102
RTVSPost2010PropOp37
 70
     1
102
RTVSPost2010Prop38
140
0.0
102
RTVSPost2010PropOp38
 70
     1
102
RTVSPost2010Prop39
140
1.0
102
RTVSPost2010PropOp39
 70
     1
102
RTVSPost2010Prop40
 90
        0
102
RTVSPost2010PropOp40
 70
     1
102
RTVSPost2010Prop41ColorIndex
 90
       18
102
RTVSPost2010Prop41ColorRGB
 90
        0
102
RTVSPost2010PropOp41
 70
     1
102
RTVSPost2010Prop42
 90
       50
102
RTVSPost2010PropOp42
 70
     1
102
RTVSPost2010Prop43
 90
        3
102
RTVSPost2010PropOp43
 70
     1
102
RTVSPost2010Prop44ColorIndex
 90
        5
102
RTVSPost2010Prop44ColorRGB
 90
      255
102
RTVSPost2010PropOp44
 70
     1
102
RTVSPost2010Prop45
280
     0
102
RTVSPost2010PropOp45
 70
     1
102
RTVSPost2010Prop46
 90
       50
102
RTVSPost2010PropOp46
 70
     1
102
RTVSPost2010Prop47
 90
       50
102
RTVSPost2010PropOp47
 70
     1
102
RTVSPost2010Prop48
 90
       50
102
RTVSPost2010PropOp48
 70
     1
102
RTVSPost2010Prop49
280
     0
102
RTVSPost2010PropOp49
 70
     1
102
RTVSPost2010Prop50
 90
       50
102
RTVSPost2010PropOp50
 70
     1
102
RTVSPost2010Prop51ColorIndex
 90
      256
102
RTVSPost2010Prop51ColorRGB
 90
-16777216
102
RTVSPost2010PropOp51
 70
     0
102
RTVSPost2010Prop52
140
1.0
102
RTVSPost2010PropOp52
 70
     0
102
RTVSPost2010Prop53
 90
        2
102
RTVSPost2010PropOp53
 70
     1
102
RTVSPost2010Prop54
  1
strokes_ogs.tif
102
RTVSPost2010PropOp54
 70
     1
102
RTVSPost2010Prop55
280
     0
102
RTVSPost2010PropOp55
 70
     1
102
RTVSPost2010Prop56
140
1.0
102
RTVSPost2010PropOp56
 70
     1
102
RTVSPost2010Prop57
140
1.0
102
RTVSPost2010PropOp57
 70
     1
  0
XRECORD
  5
4D2
102
{ACAD_REACTORS
330
4D1
102
}
330
4D1
100
AcDbXrecord
280
     1
102
RTVSPropertyOp0
 70
     1
102
RTVSPropertyOp1
 70
     1
102
RTVSPropertyOp2
 70
     1
102
RTVSPropertyOp3
 70
     1
102
RTVSPropertyOp4
 70
     1
102
RTVSPropertyOp5
 70
     1
102
RTVSPropertyOp6
 70
     1
102
RTVSPropertyOp7
 70
     1
102
RTVSPropertyOp8
 70
     1
102
RTVSPropertyOp9
 70
     1
102
RTVSPropertyOp10
 70
     1
102
RTVSPropertyOp11
 70
     1
102
RTVSPropertyOp12
 70
     1
102
RTVSPropertyOp13
 70
     1
102
RTVSPropertyOp14
 70
     1
102
RTVSPropertyOp15
 70
     1
102
RTVSPropertyOp16
 70
     1
102
RTVSPropertyOp17
 70
     1
102
RTVSPropertyOp18
 70
     1
102
RTVSPropertyOp19
 70
     1
102
RTVSPropertyOp20
 70
     1
102
RTVSPropertyOp21
 70
     1
102
RTVSPropertyOp22
 70
     1
102
RTVSPropertyOp23
 70
     1
102
RTVSPropertyOp24
 70
     1
102
RTVSPropertyOp25
 70
     1
102
RTVSPropertyOp26
 70
     1
102
RTVSPropertyOp27
 70
     1
102
RTVSPropertyOp28
 70
     1
102
RTVSPropertyOp29
 70
     1
102
RTVSPropertyOp30
 70
     1
102
RTVSPropertyOp31
 70
     1
102
RTVSPropertyOp32
 70
     1
102
RTVSPropertyOp33
 70
     1
102
RTVSPropertyOp34
 70
     1
102
RTVSPropertyOp35
 70
     1
102
RTVSPropertyOp36
 70
     1
102
RTVSPropertyOp37
 70
     1
102
RTVSPropertyOp38
 70
     1
102
RTVSPropertyOp39
 70
     1
102
RTVSPropertyOp40
 70
     1
102
RTVSPropertyOp41
 70
     1
102
RTVSPropertyOp42
 70
     1
102
RTVSPropertyOp43
 70
     1
102
RTVSPropertyOp44
 70
     1
102
RTVSPropertyOp45
 70
     1
102
RTVSPropertyOp46
 70
     1
102
RTVSPropertyOp47
 70
     1
102
RTVSPropertyOp48
 70
     1
102
RTVSPropertyOp49
 70
     1
102
RTVSPropertyOp50
 70
     1
102
RTVSPropertyOp51
 70
     0
102
RTVSPropertyOp52
 70
     0
102
RTVSPropertyOp53
 70
     1
102
RTVSPropertyOp54
 70
     1
102
RTVSPropertyOp55
 70
     1
102
RTVSPropertyOp56
 70
     1
102
RTVSPropertyOp57
 70
     1
102
RTVSPost2010Prop28
280
     0
102
RTVSPost2010PropOp28
 70
     1
102
RTVSPost2010Prop29
280
     1
102
RTVSPost2010PropOp29
 70
     1
102
RTVSPost2010Prop30
280
     1
102
RTVSPost2010PropOp30
 70
     1
102
RTVSPost2010Prop31
280
     0
102
RTVSPost2010PropOp31
 70
     1
102
RTVSPost2010Prop32
280
     0
102
RTVSPost2010PropOp32
 70
     1
102
RTVSPost2010Prop33
280
     0
102
RTVSPost2010PropOp33
 70
     1
102
RTVSPost2010Prop34
280
     0
102
RTVSPost2010PropOp34
 70
     1
102
RTVSPost2010Prop35
280
     0
102
RTVSPost2010PropOp35
 70
     1
102
RTVSPost2010Prop36
280
     0
102
RTVSPost2010PropOp36
 70
     1
102
RTVSPost2010Prop37
 90
       50
102
RTVSPost2010PropOp37
 70
     1
102
RTVSPost2010Prop38
140
0.0
102
RTVSPost2010PropOp38
 70
     1
102
RTVSPost2010Prop39
140
1.0
102
RTVSPost2010PropOp39
 70
     1
102
RTVSPost2010Prop40
 90
        0
102
RTVSPost2010PropOp40
 70
     1
102
RTVSPost2010Prop41ColorIndex
 90
       18
102
RTVSPost2010Prop41ColorRGB
 90
        0
102
RTVSPost2010PropOp41
 70
     1
102
RTVSPost2010Prop42
 90
       50
102
RTVSPost2010PropOp42
 70
     1
102
RTVSPost2010Prop43
 90
        3
102
RTVSPost2010PropOp43
 70
     1
102
RTVSPost2010Prop44ColorIndex
 90
        5
102
RTVSPost2010Prop44ColorRGB
 90
      255
102
RTVSPost2010PropOp44
 70
     1
102
RTVSPost2010Prop45
280
     0
102
RTVSPost2010PropOp45
 70
     1
102
RTVSPost2010Prop46
 90
       50
102
RTVSPost2010PropOp46
 70
     1
102
RTVSPost2010Prop47
 90
       50
102
RTVSPost2010PropOp47
 70
     1
102
RTVSPost2010Prop48
 90
       50
102
RTVSPost2010PropOp48
 70
     1
102
RTVSPost2010Prop49
280
     0
102
RTVSPost2010PropOp49
 70
     1
102
RTVSPost2010Prop50
 90
       50
102
RTVSPost2010PropOp50
 70
     1
102
RTVSPost2010Prop51ColorIndex
 90
      256
102
RTVSPost2010Prop51ColorRGB
 90
-16777216
102
RTVSPost2010PropOp51
 70
     0
102
RTVSPost2010Prop52
140
1.0
102
RTVSPost2010PropOp52
 70
     0
102
RTVSPost2010Prop53
 90
        2
102
RTVSPost2010PropOp53
 70
     1
102
RTVSPost2010Prop54
  1
strokes_ogs.tif
102
RTVSPost2010PropOp54
 70
     1
102
RTVSPost2010Prop55
280
     0
102
RTVSPost2010PropOp55
 70
     1
102
RTVSPost2010Prop56
140
1.0
102
RTVSPost2010PropOp56
 70
     1
102
RTVSPost2010Prop57
140
1.0
102
RTVSPost2010PropOp57
 70
     1
  0
ENDSEC
  0
EOF
