  0
SECTION
  2
HEADER
  9
$ACADVER
  1
AC1015
  9
$ACADMAINTVER
 70
     6
  9
$DWGCODEPAGE
  3
ANSI_1252
  9
$INSBASE
 10
0.0
 20
0.0
 30
0.0
  9
$EXTMIN
 10
0.0
 20
0.0
 30
0.0
  9
$EXTMAX
 10
210.0
 20
297.0
 30
0.0
  9
$LIMMIN
 10
0.0
 20
0.0
  9
$LIMMAX
 10
210.0
 20
297.0
  9
$ORTHOMODE
 70
     0
  9
$REGENMODE
 70
     1
  9
$FILLMODE
 70
     1
  9
$QTEXTMODE
 70
     0
  9
$MIRRTEXT
 70
     1
  9
$LTSCALE
 40
1.0
  9
$ATTMODE
 70
     1
  9
$TEXTSIZE
 40
2.0
  9
$TRACEWID
 40
1.0
  9
$TEXTSTYLE
  7
Standard
  9
$CLAYER
  8
0
  9
$CELTYPE
  6
ByLayer
  9
$CECOLOR
 62
   256
  9
$CELTSCALE
 40
1.0
  9
$DISPSILH
 70
     0
  9
$DIMSCALE
 40
1.0
  9
$DIMASZ
 40
2.5
  9
$DIMEXO
 40
0.625
  9
$DIMDLI
 40
3.75
  9
$DIMRND
 40
0.0
  9
$DIMDLE
 40
0.0
  9
$DIMEXE
 40
1.25
  9
$DIMTP
 40
0.0
  9
$DIMTM
 40
0.0
  9
$DIMTXT
 40
2.5
  9
$DIMCEN
 40
2.5
  9
$DIMTSZ
 40
0.0
  9
$DIMTOL
 70
     0
  9
$DIMLIM
 70
     0
  9
$DIMTIH
 70
     0
  9
$DIMTOH
 70
     0
  9
$DIMSE1
 70
     0
  9
$DIMSE2
 70
     0
  9
$DIMTAD
 70
     1
  9
$DIMZIN
 70
     8
  9
$DIMBLK
  1

  9
$DIMASO
 70
     1
  9
$DIMSHO
 70
     1
  9
$DIMPOST
  1

  9
$DIMAPOST
  1

  9
$DIMALT
 70
     0
  9
$DIMALTD
 70
     3
  9
$DIMALTF
 40
0.03937007874016
  9
$DIMLFAC
 40
1.0
  9
$DIMTOFL
 70
     1
  9
$DIMTVP
 40
0.0
  9
$DIMTIX
 70
     0
  9
$DIMSOXD
 70
     0
  9
$DIMSAH
 70
     0
  9
$DIMBLK1
  1

  9
$DIMBLK2
  1

  9
$DIMSTYLE
  2
ISO-25
  9
$DIMCLRD
 70
     0
  9
$DIMCLRE
 70
     0
  9
$DIMCLRT
 70
     0
  9
$DIMTFAC
 40
1.0
  9
$DIMGAP
 40
0.625
  9
$DIMJUST
 70
     0
  9
$DIMSD1
 70
     0
  9
$DIMSD2
 70
     0
  9
$DIMTOLJ
 70
     0
  9
$DIMTZIN
 70
     8
  9
$DIMALTZ
 70
     0
  9
$DIMALTTZ
 70
     0
  9
$DIMUPT
 70
     0
  9
$DIMDEC
 70
     2
  9
$DIMTDEC
 70
     2
  9
$DIMALTU
 70
     2
  9
$DIMALTTD
 70
     3
  9
$DIMTXSTY
  7
Standard
  9
$DIMAUNIT
 70
     0
  9
$DIMADEC
 70
     0
  9
$DIMALTRND
 40
0.0
  9
$DIMAZIN
 70
     0
  9
$DIMDSEP
 70
    44
  9
$DIMATFIT
 70
     3
  9
$DIMFRAC
 70
     0
  9
$DIMLDRBLK
  1

  9
$DIMLUNIT
 70
     2
  9
$DIMLWD
 70
    -2
  9
$DIMLWE
 70
    -2
  9
$DIMTMOVE
 70
     0
  9
$LUNITS
 70
     2
  9
$LUPREC
 70
     4
  9
$SKETCHINC
 40
1.0
  9
$FILLETRAD
 40
10.0
  9
$AUNITS
 70
     0
  9
$AUPREC
 70
     0
  9
$MENU
  1
.
  9
$ELEVATION
 40
0.0
  9
$PELEVATION
 40
0.0
  9
$THICKNESS
 40
0.0
  9
$LIMCHECK
 70
     0
  9
$CHAMFERA
 40
0.0
  9
$CHAMFERB
 40
0.0
  9
$CHAMFERC
 40
0.0
  9
$CHAMFERD
 40
0.0
  9
$SKPOLY
 70
     0
  9
$TDCREATE
 40
2459356.580415868
  9
$TDUCREATE
 40
2459356.497082535
  9
$TDUPDATE
 40
2460427.595644989
  9
$TDUUPDATE
 40
2460427.512311655
  9
$TDINDWG
 40
0.0000000116
  9
$TDUSRTIMER
 40
0.0000000116
  9
$USRTIMER
 70
     1
  9
$ANGBASE
 50
0.0
  9
$ANGDIR
 70
     0
  9
$PDMODE
 70
     0
  9
$PDSIZE
 40
0.0
  9
$PLINEWID
 40
0.0
  9
$SPLFRAME
 70
     0
  9
$SPLINETYPE
 70
     6
  9
$SPLINESEGS
 70
     8
  9
$HANDSEED
  5
1E6
  9
$SURFTAB1
 70
     6
  9
$SURFTAB2
 70
     6
  9
$SURFTYPE
 70
     6
  9
$SURFU
 70
     6
  9
$SURFV
 70
     6
  9
$UCSBASE
  2

  9
$UCSNAME
  2

  9
$UCSORG
 10
0.0
 20
0.0
 30
0.0
  9
$UCSXDIR
 10
1.0
 20
0.0
 30
0.0
  9
$UCSYDIR
 10
0.0
 20
1.0
 30
0.0
  9
$UCSORTHOREF
  2

  9
$UCSORTHOVIEW
 70
     0
  9
$UCSORGTOP
 10
0.0
 20
0.0
 30
0.0
  9
$UCSORGBOTTOM
 10
0.0
 20
0.0
 30
0.0
  9
$UCSORGLEFT
 10
0.0
 20
0.0
 30
0.0
  9
$UCSORGRIGHT
 10
0.0
 20
0.0
 30
0.0
  9
$UCSORGFRONT
 10
0.0
 20
0.0
 30
0.0
  9
$UCSORGBACK
 10
0.0
 20
0.0
 30
0.0
  9
$PUCSBASE
  2

  9
$PUCSNAME
  2

  9
$PUCSORG
 10
0.0
 20
0.0
 30
0.0
  9
$PUCSXDIR
 10
1.0
 20
0.0
 30
0.0
  9
$PUCSYDIR
 10
0.0
 20
1.0
 30
0.0
  9
$PUCSORTHOREF
  2

  9
$PUCSORTHOVIEW
 70
     0
  9
$PUCSORGTOP
 10
0.0
 20
0.0
 30
0.0
  9
$PUCSORGBOTTOM
 10
0.0
 20
0.0
 30
0.0
  9
$PUCSORGLEFT
 10
0.0
 20
0.0
 30
0.0
  9
$PUCSORGRIGHT
 10
0.0
 20
0.0
 30
0.0
  9
$PUCSORGFRONT
 10
0.0
 20
0.0
 30
0.0
  9
$PUCSORGBACK
 10
0.0
 20
0.0
 30
0.0
  9
$USERI1
 70
     0
  9
$USERI2
 70
     0
  9
$USERI3
 70
     0
  9
$USERI4
 70
     0
  9
$USERI5
 70
     0
  9
$USERR1
 40
0.0
  9
$USERR2
 40
0.0
  9
$USERR3
 40
0.0
  9
$USERR4
 40
0.0
  9
$USERR5
 40
0.0
  9
$WORLDVIEW
 70
     1
  9
$SHADEDGE
 70
     3
  9
$SHADEDIF
 70
    70
  9
$TILEMODE
 70
     1
  9
$MAXACTVP
 70
    64
  9
$PINSBASE
 10
0.0
 20
0.0
 30
0.0
  9
$PLIMCHECK
 70
     0
  9
$PEXTMIN
 10
0.0
 20
0.0
 30
0.0
  9
$PEXTMAX
 10
210.0
 20
297.0
 30
0.0
  9
$PLIMMIN
 10
0.0
 20
0.0
  9
$PLIMMAX
 10
210.0
 20
297.0
  9
$UNITMODE
 70
     0
  9
$VISRETAIN
 70
     1
  9
$PLINEGEN
 70
     0
  9
$PSLTSCALE
 70
     1
  9
$TREEDEPTH
 70
  3020
  9
$CMLSTYLE
  2
Standard
  9
$CMLJUST
 70
     0
  9
$CMLSCALE
 40
20.0
  9
$PROXYGRAPHICS
 70
     1
  9
$MEASUREMENT
 70
     1
  9
$CELWEIGHT
370
    -1
  9
$ENDCAPS
280
     0
  9
$JOINSTYLE
280
     0
  9
$LWDISPLAY
290
     0
  9
$INSUNITS
 70
     4
  9
$HYPERLINKBASE
  1

  9
$STYLESHEET
  1

  9
$XEDIT
290
     1
  9
$CEPSNTYPE
380
     0
  9
$PSTYLEMODE
290
     1
  9
$FINGERPRINTGUID
  2
{F401661B-1E6F-4D05-9129-C25D5F199535}
  9
$VERSIONGUID
  2
{FAEB1C32-E019-11D5-929B-00C0DF256EC4}
  9
$EXTNAMES
290
     1
  9
$PSVPSCALE
 40
0.0
  9
$OLESTARTUP
290
     0
  0
ENDSEC
  0
SECTION
  2
CLASSES
  0
CLASS
  1
ACDBDICTIONARYWDFLT
  2
AcDbDictionaryWithDefault
  3
ObjectDBX Classes
 90
        0
280
     0
281
     0
  0
CLASS
  1
VISUALSTYLE
  2
AcDbVisualStyle
  3
ObjectDBX Classes
 90
     4095
280
     0
281
     0
  0
CLASS
  1
MATERIAL
  2
AcDbMaterial
  3
ObjectDBX Classes
 90
     1153
280
     0
281
     0
  0
CLASS
  1
SCALE
  2
AcDbScale
  3
ObjectDBX Classes
 90
     1153
280
     0
281
     0
  0
CLASS
  1
TABLESTYLE
  2
AcDbTableStyle
  3
ObjectDBX Classes
 90
     4095
280
     0
281
     0
  0
CLASS
  1
MLEADERSTYLE
  2
AcDbMLeaderStyle
  3
ACDB_MLEADERSTYLE_CLASS
 90
     4095
280
     0
281
     0
  0
CLASS
  1
SUN
  2
AcDbSun
  3
SCENEOE
 90
     1153
280
     0
281
     0
  0
CLASS
  1
DICTIONARYVAR
  2
AcDbDictionaryVar
  3
ObjectDBX Classes
 90
        0
280
     0
281
     0
  0
CLASS
  1
CELLSTYLEMAP
  2
AcDbCellStyleMap
  3
ObjectDBX Classes
 90
     1152
280
     0
281
     0
  0
CLASS
  1
ACDBPLACEHOLDER
  2
AcDbPlaceHolder
  3
ObjectDBX Classes
 90
        0
280
     0
281
     0
  0
CLASS
  1
LAYOUT
  2
AcDbLayout
  3
ObjectDBX Classes
 90
        0
280
     0
281
     0
  0
ENDSEC
  0
SECTION
  2
TABLES
  0
TABLE
  2
VPORT
  5
8
102
{ACAD_XDICTIONARY
360
1AA
102
}
330
0
100
AcDbSymbolTable
 70
     1
  0
VPORT
  5
29
330
8
100
AcDbSymbolTableRecord
100
AcDbViewportTableRecord
  2
*Active
 70
     0
 10
0.0
 20
0.0
 11
1.0
 21
1.0
 12
344.1869158878504
 22
148.5
 13
0.0
 23
0.0
 14
10.0
 24
10.0
 15
10.0
 25
10.0
 16
0.0
 26
0.0
 36
1.0
 17
0.0
 27
0.0
 37
0.0
 40
297.0
 41
1.972972972850329
 42
50.0
 43
0.0
 44
0.0
 50
0.0
 51
0.0
 71
     0
 72
   100
 73
     1
 74
     3
 75
     0
 76
     0
 77
     0
 78
     0
281
     0
 65
     1
110
0.0
120
0.0
130
0.0
111
1.0
121
0.0
131
0.0
112
0.0
122
1.0
132
0.0
 79
     0
146
0.0
  0
ENDTAB
  0
TABLE
  2
LTYPE
  5
5
330
0
100
AcDbSymbolTable
 70
     1
  0
LTYPE
  5
14
330
5
100
AcDbSymbolTableRecord
100
AcDbLinetypeTableRecord
  2
ByBlock
 70
     0
  3

 72
    65
 73
     0
 40
0.0
  0
LTYPE
  5
15
330
5
100
AcDbSymbolTableRecord
100
AcDbLinetypeTableRecord
  2
ByLayer
 70
     0
  3

 72
    65
 73
     0
 40
0.0
  0
LTYPE
  5
16
330
5
100
AcDbSymbolTableRecord
100
AcDbLinetypeTableRecord
  2
Continuous
 70
     0
  3
Solid line
 72
    65
 73
     0
 40
0.0
  0
ENDTAB
  0
TABLE
  2
LAYER
  5
2
330
0
100
AcDbSymbolTable
 70
     8
  0
LAYER
  5
10
330
2
100
AcDbSymbolTableRecord
100
AcDbLayerTableRecord
  2
0
 70
     0
 62
     7
  6
Continuous
370
    -3
390
F
  0
LAYER
  5
6E
330
2
100
AcDbSymbolTableRecord
100
AcDbLayerTableRecord
  2
Default
 70
     0
 62
     7
  6
Continuous
370
    -3
390
F
  0
LAYER
  5
71
330
2
100
AcDbSymbolTableRecord
100
AcDbLayerTableRecord
  2
DV1_0
 70
     0
 62
     7
  6
Continuous
370
    -3
390
F
  0
LAYER
  5
AE
330
2
100
AcDbSymbolTableRecord
100
AcDbLayerTableRecord
  2
DV2_0
 70
     0
 62
     7
  6
Continuous
370
    -3
390
F
  0
LAYER
  5
EA
330
2
100
AcDbSymbolTableRecord
100
AcDbLayerTableRecord
  2
DV3_0
 70
     0
 62
     7
  6
Continuous
370
    -3
390
F
  0
LAYER
  5
F2
330
2
100
AcDbSymbolTableRecord
100
AcDbLayerTableRecord
  2
DV4_0
 70
     0
 62
     7
  6
Continuous
370
    -3
390
F
  0
LAYER
  5
145
330
2
100
AcDbSymbolTableRecord
100
AcDbLayerTableRecord
  2
Predeterminado
 70
     0
 62
     7
  6
Continuous
370
    -3
390
F
  0
LAYER
  5
15F
330
2
100
AcDbSymbolTableRecord
100
AcDbLayerTableRecord
  2
D
 70
     0
 62
     7
  6
Continuous
370
    -3
390
F
  0
ENDTAB
  0
TABLE
  2
STYLE
  5
3
330
0
100
AcDbSymbolTable
 70
     5
  0
STYLE
  5
11
330
3
100
AcDbSymbolTableRecord
100
AcDbTextStyleTableRecord
  2
Standard
 70
     0
 40
0.0
 41
1.0
 50
0.0
 71
     0
 42
2.0
  3
txt
  4

  0
STYLE
  5
12B
330
3
100
AcDbSymbolTableRecord
100
AcDbTextStyleTableRecord
  2
GDT
 70
     0
 40
0.0
 41
1.0
 50
0.0
 71
     0
 42
2.5
  3
gdt_____.ttf
  4

1001
ACAD
1000
GDT
1071
        0
  0
STYLE
  5
12D
330
3
100
AcDbSymbolTableRecord
100
AcDbTextStyleTableRecord
  2
SEACAD_Solid_Edge_ANSI
 70
     0
 40
0.0
 41
1.0
 50
0.0
 71
     0
 42
2.5
  3
seans.ttf
  4

1001
ACAD
1000
Solid Edge ANSI
1071
        0
  0
STYLE
  5
1A1
330
3
100
AcDbSymbolTableRecord
100
AcDbTextStyleTableRecord
  2
MtXpl_Arial
 70
     0
 40
0.2
 41
1.0
 50
0.0
 71
     0
 42
2.0
  3
arialbd.ttf
  4

1001
ACAD
1000
Arial
1071
 33554466
  0
STYLE
  5
1A2
330
3
100
AcDbSymbolTableRecord
100
AcDbTextStyleTableRecord
  2
MtXpl_Arial1
 70
     0
 40
0.2
 41
1.0
 50
0.0
 71
     0
 42
2.0
  3

  4

1001
ACAD
1000
Arial
1071
       34
  0
ENDTAB
  0
TABLE
  2
VIEW
  5
6
330
0
100
AcDbSymbolTable
 70
     0
  0
ENDTAB
  0
TABLE
  2
UCS
  5
7
330
0
100
AcDbSymbolTable
 70
     0
  0
ENDTAB
  0
TABLE
  2
APPID
  5
9
330
0
100
AcDbSymbolTable
 70
     2
  0
APPID
  5
12
330
9
100
AcDbSymbolTableRecord
100
AcDbRegAppTableRecord
  2
ACAD
 70
     0
  0
APPID
  5
198
330
9
100
AcDbSymbolTableRecord
100
AcDbRegAppTableRecord
  2
ACAD_MLEADERVER
 70
     0
  0
ENDTAB
  0
TABLE
  2
DIMSTYLE
  5
A
330
0
100
AcDbSymbolTable
 70
     1
100
AcDbDimStyleTable
  0
DIMSTYLE
105
27
330
A
100
AcDbSymbolTableRecord
100
AcDbDimStyleTableRecord
  2
ISO-25
 70
     0
 41
2.5
 42
0.625
 43
3.75
 44
1.25
 73
     0
 74
     0
 77
     1
 78
     8
140
2.5
141
2.5
143
0.03937007874016
147
0.625
171
     3
172
     1
178
     0
271
     2
272
     2
274
     3
278
    44
283
     0
284
     8
340
11
  0
ENDTAB
  0
TABLE
  2
BLOCK_RECORD
  5
1
330
0
100
AcDbSymbolTable
 70
    10
  0
BLOCK_RECORD
  5
1F
330
1
100
AcDbSymbolTableRecord
100
AcDbBlockTableRecord
  2
*Model_Space
340
22
  0
BLOCK_RECORD
  5
1B
330
1
100
AcDbSymbolTableRecord
100
AcDbBlockTableRecord
  2
*Paper_Space
340
1E
  0
BLOCK_RECORD
  5
6F
330
1
100
AcDbSymbolTableRecord
100
AcDbBlockTableRecord
  2
SE
340
0
102
{BLKREFS
331
70
102
}
  0
BLOCK_RECORD
  5
AC
330
1
100
AcDbSymbolTableRecord
100
AcDbBlockTableRecord
  2
SE1
340
0
102
{BLKREFS
331
AD
102
}
  0
BLOCK_RECORD
  5
E8
330
1
100
AcDbSymbolTableRecord
100
AcDbBlockTableRecord
  2
SE2
340
0
102
{BLKREFS
331
E9
102
}
  0
BLOCK_RECORD
  5
F0
330
1
100
AcDbSymbolTableRecord
100
AcDbBlockTableRecord
  2
SE3
340
0
102
{BLKREFS
331
F1
102
}
  0
BLOCK_RECORD
  5
125
330
1
100
AcDbSymbolTableRecord
100
AcDbBlockTableRecord
  2
GDimGGroup
340
0
102
{BLKREFS
331
126
102
}
  0
BLOCK_RECORD
  5
131
330
1
100
AcDbSymbolTableRecord
100
AcDbBlockTableRecord
  2
GDimGGroup1
340
0
102
{BLKREFS
331
132
102
}
  0
BLOCK_RECORD
  5
13B
330
1
100
AcDbSymbolTableRecord
100
AcDbBlockTableRecord
  2
GDimGGroup2
340
0
102
{BLKREFS
331
13C
102
}
  0
BLOCK_RECORD
  5
14D
330
1
100
AcDbSymbolTableRecord
100
AcDbBlockTableRecord
  2
SEANNOT_GROUP
340
0
102
{BLKREFS
331
14E
102
}
  0
BLOCK_RECORD
  5
155
330
1
100
AcDbSymbolTableRecord
100
AcDbBlockTableRecord
  2
SEANNOT_GROUP1
340
0
102
{BLKREFS
331
156
102
}
  0
BLOCK_RECORD
  5
15A
330
1
100
AcDbSymbolTableRecord
100
AcDbBlockTableRecord
  2
SEANNOT_GROUP2
340
0
102
{BLKREFS
331
15B
102
}
  0
ENDTAB
  0
ENDSEC
  0
SECTION
  2
BLOCKS
  0
BLOCK
  5
20
330
1F
100
AcDbEntity
  8
0
100
AcDbBlockBegin
  2
*Model_Space
 70
     0
 10
0.0
 20
0.0
 30
0.0
  3
*Model_Space
  1

  0
ENDBLK
  5
21
330
1F
100
AcDbEntity
  8
0
100
AcDbBlockEnd
  0
BLOCK
  5
1C
330
1B
100
AcDbEntity
 67
     1
  8
0
100
AcDbBlockBegin
  2
*Paper_Space
 70
     0
 10
0.0
 20
0.0
 30
0.0
  3
*Paper_Space
  1

  0
ENDBLK
  5
1D
330
1B
100
AcDbEntity
 67
     1
  8
0
100
AcDbBlockEnd
  0
BLOCK
  5
AA
330
6F
100
AcDbEntity
  8
0
100
AcDbBlockBegin
  2
SE
 70
     0
 10
0.0
 20
0.0
 30
0.0
  3
SE
  1

  0
LINE
  5
72
330
6F
100
AcDbEntity
  8
DV1_0
 62
     7
370
    25
100
AcDbLine
 10
59.78372060420856
 20
216.2268606007634
 30
0.0
 11
69.78372060420847
 21
216.2268606007634
 31
0.0
  0
LINE
  5
73
330
6F
100
AcDbEntity
  8
DV1_0
 62
     7
370
    35
100
AcDbLine
 10
59.78372060420856
 20
152.5112738720061
 30
0.0
 11
69.78372060420847
 21
152.5112738720061
 31
0.0
  0
LINE
  5
74
330
6F
100
AcDbEntity
  8
DV1_0
 62
     7
370
    35
100
AcDbLine
 10
69.78372060420853
 20
152.5112738720061
 30
0.0
 11
69.78372060420853
 21
216.2268606007634
 31
0.0
  0
LINE
  5
75
330
6F
100
AcDbEntity
  8
DV1_0
 62
     7
370
    35
100
AcDbLine
 10
59.78372060420852
 20
216.2268606007634
 30
0.0
 11
59.78372060420852
 21
152.5112738720061
 31
0.0
  0
ARC
  5
76
330
6F
100
AcDbEntity
  8
DV1_0
 62
     7
370
    35
100
AcDbCircle
 10
60.33372060420852
 20
216.2268606007634
 30
0.0
 40
0.5500000000000005
100
AcDbArc
 50
133.7021144373431
 51
180.0
  0
ARC
  5
77
330
6F
100
AcDbEntity
  8
DV1_0
 62
     7
370
    35
100
AcDbCircle
 10
69.23372060420851
 20
216.2268606007634
 30
0.0
 40
0.5500000000000005
100
AcDbArc
 50
0.0
 51
46.29788556263074
  0
ARC
  5
78
330
6F
100
AcDbEntity
  8
DV1_0
 62
     7
370
    35
100
AcDbCircle
 10
59.78372060420852
 20
133.0112738720061
 30
0.0
 40
0.7499999999999951
100
AcDbArc
 50
179.9852450018064
 51
270.0
  0
SPLINE
  5
79
330
6F
100
AcDbEntity
  8
DV1_0
 62
     7
370
    35
100
AcDbSpline
210
0.0
220
0.0
230
1.0
 70
    12
 71
     2
 72
    10
 73
     7
 74
     0
 42
0.000000001
 43
0.0000000001
 40
0.0
 40
0.0
 40
0.0
 40
0.0208333333333333
 40
0.0208333333333333
 40
0.0416666666666667
 40
0.0416666666666667
 40
0.0625
 40
0.0625
 40
0.0625
 10
59.78372060420852
 20
132.2612738720061
 30
0.0
 41
1.0
 10
59.78372060420852
 20
132.4438403655257
 30
0.0
 41
0.9659258262890683
 10
60.45359358528633
 20
132.6264068590452
 30
0.0
 41
1.0
 10
61.12346656636413
 20
132.8089733525648
 30
0.0
 41
0.9659258262890683
 10
62.28372060420852
 20
132.9915398460844
 30
0.0
 41
1.0
 10
63.4439746420529
 20
133.174106339604
 30
0.0
 41
0.9659258262890683
 10
64.78372060420853
 20
133.3566728331235
 30
0.0
 41
1.0
  0
SPLINE
  5
7A
330
6F
100
AcDbEntity
  8
DV1_0
 62
     7
370
    35
100
AcDbSpline
210
0.0
220
0.0
230
1.0
 70
    12
 71
     2
 72
    10
 73
     7
 74
     0
 42
0.000000001
 43
0.0000000001
 40
0.25
 40
0.25
 40
0.25
 40
0.2708333333333333
 40
0.2708333333333333
 40
0.2916666666666667
 40
0.2916666666666667
 40
0.3125
 40
0.3125
 40
0.3125
 10
59.78372060420852
 20
136.6428697164756
 30
0.0
 41
1.0
 10
59.78372060420852
 20
136.8254362099953
 30
0.0
 41
0.9659258262890683
 10
60.45359358528633
 20
137.0080027035148
 30
0.0
 41
1.0
 10
61.12346656636413
 20
137.1905691970344
 30
0.0
 41
0.9659258262890683
 10
62.28372060420852
 20
137.3731356905539
 30
0.0
 41
1.0
 10
63.4439746420529
 20
137.5557021840735
 30
0.0
 41
0.9659258262890683
 10
64.78372060420851
 20
137.7382686775931
 30
0.0
 41
1.0
  0
SPLINE
  5
7B
330
6F
100
AcDbEntity
  8
DV1_0
 62
     7
370
    35
100
AcDbSpline
210
0.0
220
0.0
230
1.0
 70
    12
 71
     2
 72
    10
 73
     7
 74
     0
 42
0.000000001
 43
0.0000000001
 40
0.5
 40
0.5
 40
0.5
 40
0.5208333333333334
 40
0.5208333333333334
 40
0.5416666666666666
 40
0.5416666666666666
 40
0.5625
 40
0.5625
 40
0.5625
 10
59.78372060420852
 20
141.0244655609453
 30
0.0
 41
1.0
 10
59.78372060420852
 20
141.2070320544648
 30
0.0
 41
0.9659258262890683
 10
60.45359358528633
 20
141.3895985479844
 30
0.0
 41
1.0
 10
61.12346656636413
 20
141.572165041504
 30
0.0
 41
0.9659258262890683
 10
62.28372060420851
 20
141.7547315350235
 30
0.0
 41
1.0
 10
63.4439746420529
 20
141.9372980285431
 30
0.0
 41
0.9659258262890683
 10
64.78372060420851
 20
142.1198645220626
 30
0.0
 41
1.0
  0
SPLINE
  5
7C
330
6F
100
AcDbEntity
  8
DV1_0
 62
     7
370
    35
100
AcDbSpline
210
0.0
220
0.0
230
1.0
 70
    12
 71
     2
 72
    10
 73
     7
 74
     0
 42
0.000000001
 43
0.0000000001
 40
0.75
 40
0.75
 40
0.75
 40
0.7708333333333334
 40
0.7708333333333334
 40
0.7916666666666666
 40
0.7916666666666666
 40
0.8125
 40
0.8125
 40
0.8125
 10
59.78372060420852
 20
145.4060614054148
 30
0.0
 41
1.0
 10
59.78372060420852
 20
145.5886278989344
 30
0.0
 41
0.9659258262890683
 10
60.45359358528633
 20
145.771194392454
 30
0.0
 41
1.0
 10
61.12346656636412
 20
145.9537608859735
 30
0.0
 41
0.9659258262890683
 10
62.28372060420851
 20
146.1363273794931
 30
0.0
 41
1.0
 10
63.44397464205291
 20
146.3188938730127
 30
0.0
 41
0.9659258262890683
 10
64.78372060420851
 20
146.5014603665322
 30
0.0
 41
1.0
  0
SPLINE
  5
7D
330
6F
100
AcDbEntity
  8
DV1_0
 62
     7
370
    35
100
AcDbSpline
210
0.0
220
0.0
230
1.0
 70
    12
 71
     2
 72
    10
 73
     7
 74
     0
 42
0.000000001
 43
0.0000000001
 40
0.0654010368866302
 40
0.0654010368866302
 40
0.0654010368866302
 40
0.0872013825155069
 40
0.0872013825155069
 40
0.1090017281443837
 40
0.1090017281443837
 40
0.1308020737732604
 40
0.1308020737732604
 40
0.1308020737732604
 10
64.78372060420853
 20
134.8566728331235
 30
0.0
 41
1.0
 10
66.12346656636413
 20
135.0392393266431
 30
0.0
 41
0.9659258262890683
 10
67.28372060420851
 20
135.2218058201626
 30
0.0
 41
1.0
 10
68.44397464205291
 20
135.4043723136822
 30
0.0
 41
0.9659258262890683
 10
69.11384762313071
 20
135.5869388072017
 30
0.0
 41
1.0
 10
69.78372060420851
 20
135.7695053007213
 30
0.0
 41
0.9659258262890683
 10
69.78372060420851
 20
135.9520717942409
 30
0.0
 41
1.0
  0
SPLINE
  5
7E
330
6F
100
AcDbEntity
  8
DV1_0
 62
     7
370
    35
100
AcDbSpline
210
0.0
220
0.0
230
1.0
 70
    12
 71
     2
 72
    10
 73
     7
 74
     0
 42
0.000000001
 43
0.0000000001
 40
0.327005184433151
 40
0.327005184433151
 40
0.327005184433151
 40
0.3488055300620277
 40
0.3488055300620277
 40
0.3706058756909045
 40
0.3706058756909045
 40
0.3924062213197812
 40
0.3924062213197812
 40
0.3924062213197812
 10
64.78372060420851
 20
139.2382686775931
 30
0.0
 41
1.0
 10
66.12346656636413
 20
139.4208351711127
 30
0.0
 41
0.9659258262890683
 10
67.28372060420851
 20
139.6034016646322
 30
0.0
 41
1.0
 10
68.4439746420529
 20
139.7859681581517
 30
0.0
 41
0.9659258262890683
 10
69.11384762313071
 20
139.9685346516713
 30
0.0
 41
1.0
 10
69.78372060420851
 20
140.1511011451909
 30
0.0
 41
0.9659258262890683
 10
69.78372060420851
 20
140.3336676387104
 30
0.0
 41
1.0
  0
SPLINE
  5
7F
330
6F
100
AcDbEntity
  8
DV1_0
 62
     7
370
    35
100
AcDbSpline
210
0.0
220
0.0
230
1.0
 70
    12
 71
     2
 72
    10
 73
     7
 74
     0
 42
0.000000001
 43
0.0000000001
 40
0.5886093319796718
 40
0.5886093319796718
 40
0.5886093319796718
 40
0.6104096776085486
 40
0.6104096776085486
 40
0.6322100232374253
 40
0.6322100232374253
 40
0.654010368866302
 40
0.654010368866302
 40
0.654010368866302
 10
64.78372060420851
 20
143.6198645220626
 30
0.0
 41
1.0
 10
66.12346656636413
 20
143.8024310155822
 30
0.0
 41
0.9659258262890683
 10
67.28372060420851
 20
143.9849975091018
 30
0.0
 41
1.0
 10
68.44397464205291
 20
144.1675640026213
 30
0.0
 41
0.9659258262890683
 10
69.11384762313071
 20
144.3501304961409
 30
0.0
 41
1.0
 10
69.78372060420851
 20
144.5326969896605
 30
0.0
 41
0.9659258262890683
 10
69.78372060420851
 20
144.71526348318
 30
0.0
 41
1.0
  0
SPLINE
  5
80
330
6F
100
AcDbEntity
  8
DV1_0
 62
     7
370
    35
100
AcDbSpline
210
0.0
220
0.0
230
1.0
 70
    12
 71
     2
 72
    10
 73
     7
 74
     0
 42
0.000000001
 43
0.0000000001
 40
0.8502134795261926
 40
0.8502134795261926
 40
0.8502134795261926
 40
0.8720138251550693
 40
0.8720138251550693
 40
0.893814170783946
 40
0.893814170783946
 40
0.9156145164128228
 40
0.9156145164128228
 40
0.9156145164128228
 10
64.78372060420851
 20
148.0014603665322
 30
0.0
 41
1.0
 10
66.12346656636413
 20
148.1840268600518
 30
0.0
 41
0.9659258262890683
 10
67.28372060420851
 20
148.3665933535713
 30
0.0
 41
1.0
 10
68.44397464205291
 20
148.5491598470909
 30
0.0
 41
0.9659258262890683
 10
69.11384762313071
 20
148.7317263406105
 30
0.0
 41
1.0
 10
69.78372060420851
 20
148.91429283413
 30
0.0
 41
0.9659258262890683
 10
69.78372060420851
 20
149.0968593276496
 30
0.0
 41
1.0
  0
ARC
  5
81
330
6F
100
AcDbEntity
  8
DV1_0
 62
     7
370
    35
100
AcDbCircle
 10
59.78372060420852
 20
150.5376572498844
 30
0.0
 40
0.7499999999999951
100
AcDbArc
 50
182.0159575327726
 51
270.0
  0
LINE
  5
82
330
6F
100
AcDbEntity
  8
DV1_0
 62
     7
370
    35
100
AcDbLine
 10
59.78372060420852
 20
149.7876572498844
 30
0.0
 11
59.78372060420852
 21
150.5112738720061
 31
0.0
  0
LINE
  5
83
330
6F
100
AcDbEntity
  8
DV1_0
 62
     7
370
    35
100
AcDbLine
 10
58.78372060420852
 20
151.5112738720061
 30
0.0
 11
70.78372060420853
 21
151.5112738720061
 31
0.0
  0
LINE
  5
84
330
6F
100
AcDbEntity
  8
DV1_0
 62
     7
370
    35
100
AcDbLine
 10
70.78372060420853
 20
150.5112738720061
 30
0.0
 11
58.78372060420853
 21
150.5112738720061
 31
0.0
  0
LINE
  5
85
330
6F
100
AcDbEntity
  8
DV1_0
 62
     7
370
    35
100
AcDbLine
 10
59.78372060420852
 20
131.5112738720061
 30
0.0
 11
69.78372060420851
 21
131.5112738720061
 31
0.0
  0
LINE
  5
86
330
6F
100
AcDbEntity
  8
DV1_0
 62
     7
370
    35
100
AcDbLine
 10
69.7837206042086
 20
152.5112738720061
 30
0.0
 11
59.7837206042086
 21
152.5112738720061
 31
0.0
  0
SPLINE
  5
87
330
6F
100
AcDbEntity
  8
DV1_0
 62
     7
370
    35
100
AcDbSpline
210
0.0
220
0.0
230
1.0
 70
     8
 71
     3
 72
    67
 73
    63
 74
     0
 42
0.000000001
 43
0.0000000001
 40
0.0
 40
0.0
 40
0.0
 40
0.0
 40
0.0045614188726197
 40
0.0083436141006139
 40
0.012643219605777
 40
0.0181295896929295
 40
0.0252925814496082
 40
0.0360894376855902
 40
0.0488206386755044
 40
0.0624391611944236
 40
0.0755656165166991
 40
0.0904563004246805
 40
0.1086399019300082
 40
0.1255142986138681
 40
0.1422933358733244
 40
0.1603605036753728
 40
0.1774914689999876
 40
0.1933684529422066
 40
0.2066216977093424
 40
0.21482133300014
 40
0.2211546220874926
 40
0.2264233891050408
 40
0.2336721089213598
 40
0.2437111258115276
 40
0.2551286846399803
 40
0.2672721779260199
 40
0.2792635539309504
 40
0.2901240253470888
 40
0.2999109880151146
 40
0.3115934905249262
 40
0.3225112396928903
 40
0.3341333229760569
 40
0.3502271898267241
 40
0.3670105566624218
 40
0.3830381094781109
 40
0.3947820274704066
 40
0.4069697466142834
 40
0.4211126949079289
 40
0.4361170293416235
 40
0.4491480460506888
 40
0.4588830333395203
 40
0.4675880378692869
 40
0.4740520773437529
 40
0.4775605290883554
 40
0.4820273622964212
 40
0.4881308047189147
 40
0.4958455852361576
 40
0.5049465401331136
 40
0.5131736399292848
 40
0.5197538384483815
 40
0.5256441632811243
 40
0.5313754135175569
 40
0.5382364925611726
 40
0.5473367121590992
 40
0.5567305640612225
 40
0.5675861347045636
 40
0.5767879706992737
 40
0.5856352744822604
 40
0.5948713951857929
 40
0.6063321561204406
 40
0.6195107217334461
 40
0.6237431611710623
 40
0.6237431611710623
 40
0.6237431611710623
 40
0.6237431611710623
 10
64.78372060420853
 20
137.7382686775931
 30
0.0
 10
64.8038314858396
 20
137.7413684206026
 30
0.0
 10
64.83535313985891
 20
137.7461196041499
 30
0.0
 10
64.89711024278765
 20
137.759516126016
 30
0.0
 10
64.97450624143647
 20
137.7709050184839
 30
0.0
 10
65.07105982519067
 20
137.7837566525133
 30
0.0
 10
65.20411259449196
 20
137.8021363531789
 30
0.0
 10
65.37812494748812
 20
137.8260443929842
 30
0.0
 10
65.58776962128772
 20
137.85535466993
 30
0.0
 10
65.80900121930146
 20
137.8864455905897
 30
0.0
 10
66.04004957315365
 20
137.9191619823079
 30
0.0
 10
66.29257885695063
 20
137.9550845890047
 30
0.0
 10
66.56055350510528
 20
137.9936374126538
 30
0.0
 10
66.82935820293464
 20
138.0326202773833
 30
0.0
 10
67.0926677144498
 20
138.0721501999632
 30
0.0
 10
67.35153704129712
 20
138.1117742189218
 30
0.0
 10
67.59885903112277
 20
138.1511326766604
 30
0.0
 10
67.8164120108203
 20
138.1877118949935
 30
0.0
 10
67.98598217840149
 20
138.2173274239378
 30
0.0
 10
68.10878990092752
 20
138.2395272324791
 30
0.0
 10
68.19462272514045
 20
138.2553609248891
 30
0.0
 10
68.2753031405864
 20
138.2705278388996
 30
0.0
 10
68.37105624785524
 20
138.2888754202168
 30
0.0
 10
68.49002933498961
 20
138.3123152982588
 30
0.0
 10
68.62497489246938
 20
138.3398575330483
 30
0.0
 10
68.76221640968545
 20
138.369025134912
 30
0.0
 10
68.89172973759986
 20
138.3977747625454
 30
0.0
 10
69.00751801313473
 20
138.424611233253
 30
0.0
 10
69.11782338508955
 20
138.4512679856534
 30
0.0
 10
69.22375591372897
 20
138.478034561536
 30
0.0
 10
69.33130418663346
 20
138.5066919959295
 30
0.0
 10
69.44896314571513
 20
138.540473947152
 30
0.0
 10
69.5795659033941
 20
138.5818089125954
 30
0.0
 10
69.71121774018441
 20
138.6290972019783
 30
0.0
 10
69.82333019365839
 20
138.6751968704787
 30
0.0
 10
69.92207852730759
 20
138.721593752001
 30
0.0
 10
70.01527657933322
 20
138.7713196272231
 30
0.0
 10
70.11764389736447
 20
138.8357090575099
 30
0.0
 10
70.21834300374292
 20
138.9139094735583
 30
0.0
 10
70.30729440201829
 20
139.0020280775825
 30
0.0
 10
70.37836681235136
 20
139.0921787959807
 30
0.0
 10
70.43001719370149
 20
139.1762788022657
 30
0.0
 10
70.4618263820172
 20
139.2426061849434
 30
0.0
 10
70.48419973849383
 20
139.2988466233517
 30
0.0
 10
70.50315749713552
 20
139.3565939085749
 30
0.0
 10
70.52173471803337
 20
139.4337047288528
 30
0.0
 10
70.53465723041704
 20
139.5329915079959
 30
0.0
 10
70.53417974716344
 20
139.644035150793
 30
0.0
 10
70.51922008916685
 20
139.7482138810352
 30
0.0
 10
70.49624836247156
 20
139.8349958428473
 30
0.0
 10
70.46983463410437
 20
139.906917571962
 30
0.0
 10
70.43735709659875
 20
139.9763387488109
 30
0.0
 10
70.39562308816434
 20
140.0484824780205
 30
0.0
 10
70.34195936250929
 20
140.1232497144488
 30
0.0
 10
70.27270617532369
 20
140.201178916574
 30
0.0
 10
70.19942529102251
 20
140.2678722209454
 30
0.0
 10
70.1307600369827
 20
140.320684365635
 30
0.0
 10
70.06376293629717
 20
140.3659004556873
 30
0.0
 10
69.99244596764842
 20
140.408348266398
 30
0.0
 10
69.9109284332975
 20
140.4513381144543
 30
0.0
 10
69.83911652362251
 20
140.484549207253
 30
0.0
 10
69.79481206629028
 20
140.5034361035193
 30
0.0
 10
69.78396992305649
 20
140.507968835187
 30
0.0
  0
SPLINE
  5
88
330
6F
100
AcDbEntity
  8
DV1_0
 62
     7
370
    35
100
AcDbSpline
210
0.0
220
0.0
230
1.0
 70
     8
 71
     3
 72
    67
 73
    63
 74
     0
 42
0.000000001
 43
0.0000000001
 40
0.0
 40
0.0
 40
0.0
 40
0.0
 40
0.0045614188726196
 40
0.0083436141006138
 40
0.012643219605777
 40
0.0181295896929311
 40
0.0252925814496093
 40
0.0360894376855905
 40
0.0488206386755047
 40
0.0624391611944234
 40
0.0755656165166995
 40
0.0904563004246807
 40
0.1086399019300082
 40
0.1255142986138691
 40
0.1422933358733241
 40
0.1603605036753728
 40
0.1774914689999883
 40
0.1933684529422059
 40
0.2066216977093424
 40
0.2148213330001391
 40
0.2211546220874924
 40
0.2264233891050412
 40
0.2336721089213601
 40
0.2437111258115278
 40
0.2551286846399808
 40
0.2672721779260198
 40
0.2792635539309505
 40
0.2901240253470898
 40
0.2999109880151155
 40
0.3115934905249271
 40
0.3225112396928919
 40
0.3341333229760577
 40
0.350227189826725
 40
0.3670105566624225
 40
0.3830381094781101
 40
0.3947820274704067
 40
0.4069697466142835
 40
0.4211126949079291
 40
0.4361170293416245
 40
0.4491480460506893
 40
0.4588830333395205
 40
0.4675880378692869
 40
0.4740520773437529
 40
0.477560529088355
 40
0.4820273622964201
 40
0.4881308047189137
 40
0.4958455852361567
 40
0.5049465401331146
 40
0.5131736399292852
 40
0.5197538384483815
 40
0.5256441632811237
 40
0.5313754135175566
 40
0.5382364925611727
 40
0.5473367121590991
 40
0.5567305640612226
 40
0.567586134704564
 40
0.5767879706992737
 40
0.5856352744822607
 40
0.5948713951857919
 40
0.6063321561204411
 40
0.6195107217334446
 40
0.6237431611710602
 40
0.6237431611710602
 40
0.6237431611710602
 40
0.6237431611710602
 10
64.78372060420853
 20
142.1198645220626
 30
0.0
 10
64.8038314858396
 20
142.1229642650721
 30
0.0
 10
64.83535313985892
 20
142.1277154486193
 30
0.0
 10
64.89711024278763
 20
142.1411119704856
 30
0.0
 10
64.97450624143649
 20
142.1525008629534
 30
0.0
 10
65.07105982519067
 20
142.165352496983
 30
0.0
 10
65.20411259449196
 20
142.1837321976483
 30
0.0
 10
65.37812494748812
 20
142.2076402374537
 30
0.0
 10
65.5877696212877
 20
142.2369505143996
 30
0.0
 10
65.80900121930145
 20
142.2680414350594
 30
0.0
 10
66.04004957315365
 20
142.3007578267774
 30
0.0
 10
66.29257885695063
 20
142.3366804334742
 30
0.0
 10
66.56055350510529
 20
142.3752332571235
 30
0.0
 10
66.82935820293461
 20
142.4142161218528
 30
0.0
 10
67.09266771444983
 20
142.4537460444328
 30
0.0
 10
67.35153704129709
 20
142.4933700633914
 30
0.0
 10
67.59885903112276
 20
142.53272852113
 30
0.0
 10
67.81641201082032
 20
142.5693077394631
 30
0.0
 10
67.98598217840146
 20
142.5989232684073
 30
0.0
 10
68.10878990092752
 20
142.6211230769488
 30
0.0
 10
68.19462272514046
 20
142.6369567693586
 30
0.0
 10
68.27530314058642
 20
142.6521236833693
 30
0.0
 10
68.37105624785522
 20
142.6704712646864
 30
0.0
 10
68.49002933498963
 20
142.6939111427283
 30
0.0
 10
68.62497489246938
 20
142.7214533775179
 30
0.0
 10
68.76221640968546
 20
142.7506209793815
 30
0.0
 10
68.8917297375999
 20
142.7793706070149
 30
0.0
 10
69.00751801313471
 20
142.8062070777227
 30
0.0
 10
69.11782338508957
 20
142.832863830123
 30
0.0
 10
69.22375591372895
 20
142.8596304060056
 30
0.0
 10
69.33130418663345
 20
142.8882878403991
 30
0.0
 10
69.44896314571513
 20
142.9220697916217
 30
0.0
 10
69.57956590339413
 20
142.9634047570649
 30
0.0
 10
69.71121774018441
 20
143.0106930464479
 30
0.0
 10
69.82333019365839
 20
143.0567927149481
 30
0.0
 10
69.9220785273076
 20
143.1031895964706
 30
0.0
 10
70.01527657933322
 20
143.1529154716927
 30
0.0
 10
70.11764389736446
 20
143.2173049019795
 30
0.0
 10
70.21834300374296
 20
143.2955053180278
 30
0.0
 10
70.30729440201824
 20
143.3836239220522
 30
0.0
 10
70.3783668123514
 20
143.4737746404502
 30
0.0
 10
70.43001719370147
 20
143.5578746467353
 30
0.0
 10
70.4618263820172
 20
143.624202029413
 30
0.0
 10
70.48419973849384
 20
143.6804424678213
 30
0.0
 10
70.50315749713552
 20
143.7381897530446
 30
0.0
 10
70.52173471803339
 20
143.8153005733224
 30
0.0
 10
70.53465723041703
 20
143.9145873524655
 30
0.0
 10
70.53417974716346
 20
144.0256309952626
 30
0.0
 10
70.51922008916681
 20
144.1298097255048
 30
0.0
 10
70.49624836247158
 20
144.2165916873169
 30
0.0
 10
70.46983463410437
 20
144.2885134164316
 30
0.0
 10
70.43735709659873
 20
144.3579345932804
 30
0.0
 10
70.39562308816436
 20
144.4300783224901
 30
0.0
 10
70.34195936250933
 20
144.5048455589184
 30
0.0
 10
70.27270617532365
 20
144.5827747610435
 30
0.0
 10
70.19942529102252
 20
144.6494680654151
 30
0.0
 10
70.13076003698271
 20
144.7022802101044
 30
0.0
 10
70.06376293629715
 20
144.7474963001569
 30
0.0
 10
69.99244596764841
 20
144.7899441108676
 30
0.0
 10
69.91092843329753
 20
144.8329339589238
 30
0.0
 10
69.83911652362248
 20
144.8661450517226
 30
0.0
 10
69.79481206629028
 20
144.8850319479889
 30
0.0
 10
69.78396992305649
 20
144.8895646796565
 30
0.0
  0
SPLINE
  5
89
330
6F
100
AcDbEntity
  8
DV1_0
 62
     7
370
    35
100
AcDbSpline
210
0.0
220
0.0
230
1.0
 70
     8
 71
     3
 72
    67
 73
    63
 74
     0
 42
0.000000001
 43
0.0000000001
 40
0.0
 40
0.0
 40
0.0
 40
0.0
 40
0.0045614188726195
 40
0.0083436141006142
 40
0.0126432196057784
 40
0.0181295896929304
 40
0.0252925814496086
 40
0.0360894376855906
 40
0.0488206386755048
 40
0.0624391611944242
 40
0.0755656165166996
 40
0.0904563004246807
 40
0.1086399019300083
 40
0.1255142986138683
 40
0.1422933358733239
 40
0.160360503675373
 40
0.1774914689999882
 40
0.193368452942206
 40
0.2066216977093421
 40
0.2148213330001397
 40
0.2211546220874921
 40
0.2264233891050414
 40
0.2336721089213604
 40
0.243711125811528
 40
0.255128684639981
 40
0.26727217792602
 40
0.2792635539309505
 40
0.2901240253470893
 40
0.2999109880151156
 40
0.3115934905249271
 40
0.3225112396928919
 40
0.334133322976057
 40
0.3502271898267253
 40
0.3670105566624225
 40
0.3830381094781113
 40
0.3947820274704077
 40
0.4069697466142834
 40
0.4211126949079292
 40
0.4361170293416241
 40
0.44914804605069
 40
0.4588830333395206
 40
0.4675880378692876
 40
0.4740520773437533
 40
0.4775605290883548
 40
0.4820273622964212
 40
0.4881308047189144
 40
0.4958455852361582
 40
0.5049465401331142
 40
0.5131736399292851
 40
0.5197538384483817
 40
0.5256441632811248
 40
0.531375413517558
 40
0.538236492561173
 40
0.5473367121590996
 40
0.5567305640612231
 40
0.5675861347045643
 40
0.5767879706992741
 40
0.5856352744822612
 40
0.5948713951857924
 40
0.6063321561204413
 40
0.619510721733445
 40
0.6237431611710623
 40
0.6237431611710623
 40
0.6237431611710623
 40
0.6237431611710623
 10
64.78372060420853
 20
146.5014603665322
 30
0.0
 10
64.80383148583958
 20
146.5045601095417
 30
0.0
 10
64.83535313985892
 20
146.5093112930891
 30
0.0
 10
64.89711024278763
 20
146.5227078149552
 30
0.0
 10
64.9745062414365
 20
146.5340967074229
 30
0.0
 10
65.07105982519067
 20
146.5469483414526
 30
0.0
 10
65.20411259449197
 20
146.5653280421178
 30
0.0
 10
65.37812494748812
 20
146.5892360819234
 30
0.0
 10
65.5877696212877
 20
146.6185463588691
 30
0.0
 10
65.80900121930146
 20
146.6496372795289
 30
0.0
 10
66.04004957315364
 20
146.6823536712471
 30
0.0
 10
66.29257885695064
 20
146.7182762779438
 30
0.0
 10
66.56055350510528
 20
146.756829101593
 30
0.0
 10
66.82935820293464
 20
146.7958119663224
 30
0.0
 10
67.09266771444979
 20
146.8353418889024
 30
0.0
 10
67.35153704129712
 20
146.8749659078609
 30
0.0
 10
67.59885903112276
 20
146.9143243655995
 30
0.0
 10
67.81641201082032
 20
146.9509035839326
 30
0.0
 10
67.98598217840147
 20
146.9805191128769
 30
0.0
 10
68.1087899009275
 20
147.0027189214184
 30
0.0
 10
68.19462272514046
 20
147.0185526138281
 30
0.0
 10
68.27530314058642
 20
147.0337195278389
 30
0.0
 10
68.37105624785524
 20
147.052067109156
 30
0.0
 10
68.49002933498961
 20
147.0755069871979
 30
0.0
 10
68.62497489246941
 20
147.1030492219874
 30
0.0
 10
68.76221640968545
 20
147.1322168238512
 30
0.0
 10
68.89172973759989
 20
147.1609664514845
 30
0.0
 10
69.0075180131347
 20
147.1878029221923
 30
0.0
 10
69.11782338508957
 20
147.2144596745926
 30
0.0
 10
69.22375591372897
 20
147.2412262504751
 30
0.0
 10
69.33130418663345
 20
147.2698836848687
 30
0.0
 10
69.44896314571513
 20
147.3036656360912
 30
0.0
 10
69.57956590339413
 20
147.3450006015345
 30
0.0
 10
69.71121774018442
 20
147.3922888909174
 30
0.0
 10
69.8233301936584
 20
147.4383885594177
 30
0.0
 10
69.92207852730758
 20
147.4847854409402
 30
0.0
 10
70.01527657933323
 20
147.5345113161623
 30
0.0
 10
70.11764389736447
 20
147.598900746449
 30
0.0
 10
70.21834300374293
 20
147.6771011624974
 30
0.0
 10
70.30729440201827
 20
147.7652197665216
 30
0.0
 10
70.37836681235137
 20
147.8553704849199
 30
0.0
 10
70.43001719370149
 20
147.9394704912048
 30
0.0
 10
70.4618263820172
 20
148.0057978738827
 30
0.0
 10
70.48419973849384
 20
148.0620383122908
 30
0.0
 10
70.50315749713553
 20
148.1197855975141
 30
0.0
 10
70.52173471803337
 20
148.196896417792
 30
0.0
 10
70.53465723041704
 20
148.2961831969351
 30
0.0
 10
70.53417974716345
 20
148.4072268397321
 30
0.0
 10
70.51922008916681
 20
148.5114055699744
 30
0.0
 10
70.49624836247159
 20
148.5981875317866
 30
0.0
 10
70.46983463410434
 20
148.6701092609011
 30
0.0
 10
70.43735709659875
 20
148.73953043775
 30
0.0
 10
70.39562308816433
 20
148.8116741669596
 30
0.0
 10
70.34195936250931
 20
148.8864414033879
 30
0.0
 10
70.27270617532366
 20
148.9643706055132
 30
0.0
 10
70.1994252910225
 20
149.0310639098847
 30
0.0
 10
70.13076003698274
 20
149.0838760545741
 30
0.0
 10
70.06376293629715
 20
149.1290921446264
 30
0.0
 10
69.99244596764844
 20
149.1715399553372
 30
0.0
 10
69.9109284332975
 20
149.2145298033934
 30
0.0
 10
69.83911652362252
 20
149.2477408961922
 30
0.0
 10
69.79481206629029
 20
149.2666277924585
 30
0.0
 10
69.78396992305649
 20
149.2711605241261
 30
0.0
  0
SPLINE
  5
8A
330
6F
100
AcDbEntity
  8
DV1_0
 62
     7
370
    35
100
AcDbSpline
210
0.0
220
0.0
230
1.0
 70
     8
 71
     3
 72
    78
 73
    74
 74
     0
 42
0.000000001
 43
0.0000000001
 40
0.0
 40
0.0
 40
0.0
 40
0.0
 40
0.0057502507714591
 40
0.0092571905935794
 40
0.0124668780314485
 40
0.015920310810289
 40
0.0224623655542303
 40
0.0342156667161036
 40
0.0477560249862915
 40
0.0624066745675193
 40
0.0777522704257756
 40
0.0937549992778885
 40
0.1103917756529029
 40
0.1276573823773957
 40
0.1453858528676751
 40
0.1623370423943744
 40
0.1774412941230443
 40
0.1907018793247767
 40
0.2020801738563717
 40
0.2134549657892625
 40
0.227292763894358
 40
0.2441709010356777
 40
0.2625894061464675
 40
0.2814043454150985
 40
0.3004017951420432
 40
0.3112041153488216
 40
0.3221197866502744
 40
0.333021379252389
 40
0.3429697833459705
 40
0.3512499102596653
 40
0.3580127849195002
 40
0.364976273000802
 40
0.3734071720799129
 40
0.3823418318958099
 40
0.3911451472331071
 40
0.3995122467913705
 40
0.407550195350223
 40
0.4145985411634788
 40
0.4219155372292445
 40
0.4296368103385617
 40
0.4380898580598601
 40
0.4447428081040322
 40
0.4485777730310891
 40
0.4525816031890343
 40
0.4561561017261601
 40
0.4589096088299953
 40
0.4602104134666305
 40
0.4612625294414713
 40
0.4632491414940103
 40
0.46446469338505
 40
0.4664033378140773
 40
0.4703482967669662
 40
0.4752321364631178
 40
0.4808014223343583
 40
0.4874240234602853
 40
0.495104904563694
 40
0.5036291023586542
 40
0.5116014019640839
 40
0.5184034826656041
 40
0.5247533487665621
 40
0.5296938003239511
 40
0.5340664178787833
 40
0.5391211170930095
 40
0.54460738015963
 40
0.5500353417305051
 40
0.5554591266603427
 40
0.5643802640429494
 40
0.575955544843504
 40
0.5877253794452806
 40
0.5981923300442367
 40
0.6074613546031727
 40
0.6166361159565068
 40
0.6257615943488359
 40
0.6257615943488359
 40
0.6257615943488359
 40
0.6257615943488359
 10
64.78372060420797
 20
143.6198645220626
 30
0.0
 10
64.75161715791857
 20
143.6151851279265
 30
0.0
 10
64.70755024689306
 20
143.6088080238446
 30
0.0
 10
64.63584563064529
 20
143.5980351677455
 30
0.0
 10
64.57833948435369
 20
143.5904131231184
 30
0.0
 10
64.50328250148391
 20
143.5800284277372
 30
0.0
 10
64.37997078630501
 20
143.5630975961941
 30
0.0
 10
64.19974196203202
 20
143.5380585398442
 30
0.0
 10
63.97468971761462
 20
143.5065062743394
 30
0.0
 10
63.73111649127924
 20
143.4719152714141
 30
0.0
 10
63.47636222846681
 20
143.4352853247418
 30
0.0
 10
63.21410524025386
 20
143.3970589298893
 30
0.0
 10
62.94592868402664
 20
143.3574123041646
 30
0.0
 10
62.67423762704624
 20
143.316643267309
 30
0.0
 10
62.40777680977168
 20
143.2759823490568
 30
0.0
 10
62.15976857967571
 20
143.23765055459
 30
0.0
 10
61.9409458675946
 20
143.2023282211723
 30
0.0
 10
61.75484941089874
 20
143.1710392805254
 30
0.0
 10
61.5909223459314
 20
143.1424857581084
 30
0.0
 10
61.429051964693
 20
143.1133228179755
 30
0.0
 10
61.24825999389468
 20
143.0794795491719
 30
0.0
 10
61.04697016758994
 20
143.0399407962489
 30
0.0
 10
60.83580333529643
 20
142.9959885952929
 30
0.0
 10
60.62787812818096
 20
142.9497884010532
 30
0.0
 10
60.45871644583917
 20
142.9093240640847
 30
0.0
 10
60.32459412616178
 20
142.8751142953021
 30
0.0
 10
60.22156760893738
 20
142.8473839289676
 30
0.0
 10
60.12585629790281
 20
142.8195842198219
 30
0.0
 10
60.04206902830478
 20
142.7934906878675
 30
0.0
 10
59.97293415105116
 20
142.7704620182906
 30
0.0
 10
59.91327479308372
 20
142.7494349589589
 30
0.0
 10
59.85346237493428
 20
142.7271299147826
 30
0.0
 10
59.79027178860679
 20
142.7019577712783
 30
0.0
 10
59.72404291538994
 20
142.6734251399276
 30
0.0
 10
59.65944326083488
 20
142.6430699574835
 30
0.0
 10
59.59839613881635
 20
142.6116594468757
 30
0.0
 10
59.54231856203683
 20
142.5799998034146
 30
0.0
 10
59.48771796123891
 20
142.5461025034539
 30
0.0
 10
59.4353071892826
 20
142.5101509671378
 30
0.0
 10
59.38151114582099
 20
142.4690814810947
 30
0.0
 10
59.3274278225777
 20
142.422338755294
 30
0.0
 10
59.27681966945919
 20
142.3717100309743
 30
0.0
 10
59.24001940749801
 20
142.3295756416366
 30
0.0
 10
59.21134300329296
 20
142.2936858779271
 30
0.0
 10
59.18601454219782
 20
142.2582008348365
 30
0.0
 10
59.16436593676505
 20
142.2247818214549
 30
0.0
 10
59.14981292220857
 20
142.1993336502125
 30
0.0
 10
59.13824444211328
 20
142.1777194262696
 30
0.0
 10
59.12819126038625
 20
142.1567001466967
 30
0.0
 10
59.11590741308146
 20
142.1299348375403
 30
0.0
 10
59.10178290401167
 20
142.0972215971122
 30
0.0
 10
59.08495730854565
 20
142.053732899754
 30
0.0
 10
59.06812986426123
 20
142.0030365665524
 30
0.0
 10
59.05327090044867
 20
141.9471051072773
 30
0.0
 10
59.0414952469791
 20
141.887071676578
 30
0.0
 10
59.03418264728683
 20
141.8204294132786
 30
0.0
 10
59.03289957084421
 20
141.7555466795301
 30
0.0
 10
59.03785427470357
 20
141.68757931054
 30
0.0
 10
59.04881163546503
 20
141.6191180963734
 30
0.0
 10
59.06461499738757
 20
141.5530291748097
 30
0.0
 10
59.08625238664825
 20
141.4849195721033
 30
0.0
 10
59.11515957057744
 20
141.4130290373558
 30
0.0
 10
59.14885209751137
 20
141.3488898697969
 30
0.0
 10
59.18926775580727
 20
141.2842312737925
 30
0.0
 10
59.231661400156
 20
141.2290559120052
 30
0.0
 10
59.27866276740782
 20
141.1747911379552
 30
0.0
 10
59.33931054154279
 20
141.1150249453324
 30
0.0
 10
59.41624550292722
 20
141.0516652056174
 30
0.0
 10
59.49825351006432
 20
140.9952688727025
 30
0.0
 10
59.57651574329715
 20
140.9489749910189
 30
0.0
 10
59.64676376465458
 20
140.9120739757867
 30
0.0
 10
59.71488345780659
 20
140.8796166857974
 30
0.0
 10
59.76058129762281
 20
140.8597327592355
 30
0.0
 10
59.78356002153041
 20
140.8501296316659
 30
0.0
  0
SPLINE
  5
8B
330
6F
100
AcDbEntity
  8
DV1_0
 62
     7
370
    35
100
AcDbSpline
210
0.0
220
0.0
230
1.0
 70
     8
 71
     3
 72
    78
 73
    74
 74
     0
 42
0.000000001
 43
0.0000000001
 40
0.0
 40
0.0
 40
0.0
 40
0.0
 40
0.005750250771459
 40
0.0092571905935793
 40
0.0124668780314478
 40
0.0159203108102886
 40
0.0224623655542299
 40
0.0342156667161036
 40
0.0477560249862918
 40
0.0624066745675193
 40
0.0777522704257755
 40
0.0937549992778875
 40
0.1103917756529034
 40
0.1276573823773955
 40
0.1453858528676749
 40
0.1623370423943742
 40
0.177441294123044
 40
0.1907018793247765
 40
0.2020801738563716
 40
0.2134549657892625
 40
0.2272927638943579
 40
0.244170901035678
 40
0.2625894061464674
 40
0.2814043454150983
 40
0.3004017951420419
 40
0.3112041153488223
 40
0.3221197866502747
 40
0.3330213792523888
 40
0.3429697833459703
 40
0.351249910259665
 40
0.3580127849195002
 40
0.3649762730008013
 40
0.3734071720799115
 40
0.3823418318958086
 40
0.3911451472331077
 40
0.3995122467913713
 40
0.4075501953502227
 40
0.4145985411634787
 40
0.4219155372292442
 40
0.4296368103385616
 40
0.4380898580598599
 40
0.444742808104032
 40
0.4485777730310891
 40
0.4525816031890331
 40
0.4561561017261592
 40
0.4589096088299952
 40
0.4602104134666286
 40
0.461262529441472
 40
0.4632491414940103
 40
0.4644646933850487
 40
0.4664033378140768
 40
0.4703482967669673
 40
0.4752321364631186
 40
0.4808014223343588
 40
0.4874240234602862
 40
0.4951049045636949
 40
0.5036291023586555
 40
0.5116014019640838
 40
0.5184034826656043
 40
0.5247533487665624
 40
0.5296938003239513
 40
0.5340664178787845
 40
0.5391211170930106
 40
0.5446073801596302
 40
0.550035341730505
 40
0.555459126660343
 40
0.5643802640429499
 40
0.5759555448435042
 40
0.5877253794452814
 40
0.5981923300442364
 40
0.6074613546031737
 40
0.6166361159565072
 40
0.6257615943488383
 40
0.6257615943488383
 40
0.6257615943488383
 40
0.6257615943488383
 10
64.78372060420797
 20
148.0014603665321
 30
0.0
 10
64.75161715791857
 20
147.9967809723961
 30
0.0
 10
64.70755024689306
 20
147.9904038683141
 30
0.0
 10
64.63584563064529
 20
147.9796310122151
 30
0.0
 10
64.5783394843537
 20
147.9720089675879
 30
0.0
 10
64.50328250148391
 20
147.9616242722067
 30
0.0
 10
64.37997078630502
 20
147.9446934406636
 30
0.0
 10
64.19974196203201
 20
147.9196543843138
 30
0.0
 10
63.97468971761465
 20
147.888102118809
 30
0.0
 10
63.73111649127922
 20
147.8535111158838
 30
0.0
 10
63.47636222846683
 20
147.8168811692113
 30
0.0
 10
63.21410524025386
 20
147.7786547743589
 30
0.0
 10
62.94592868402665
 20
147.7390081486342
 30
0.0
 10
62.67423762704624
 20
147.6982391117784
 30
0.0
 10
62.4077768097717
 20
147.6575781935264
 30
0.0
 10
62.15976857967568
 20
147.6192463990597
 30
0.0
 10
61.94094586759461
 20
147.583924065642
 30
0.0
 10
61.75484941089874
 20
147.552635124995
 30
0.0
 10
61.5909223459314
 20
147.5240816025778
 30
0.0
 10
61.429051964693
 20
147.4949186624451
 30
0.0
 10
61.24825999389468
 20
147.4610753936414
 30
0.0
 10
61.04697016758993
 20
147.4215366407184
 30
0.0
 10
60.83580333529644
 20
147.3775844397624
 30
0.0
 10
60.62787812818096
 20
147.3313842455227
 30
0.0
 10
60.45871644583917
 20
147.2909199085543
 30
0.0
 10
60.32459412616178
 20
147.2567101397718
 30
0.0
 10
60.22156760893736
 20
147.2289797734372
 30
0.0
 10
60.12585629790281
 20
147.2011800642914
 30
0.0
 10
60.04206902830479
 20
147.1750865323372
 30
0.0
 10
59.97293415105115
 20
147.1520578627601
 30
0.0
 10
59.91327479308371
 20
147.1310308034286
 30
0.0
 10
59.8534623749343
 20
147.1087257592519
 30
0.0
 10
59.79027178860679
 20
147.0835536157479
 30
0.0
 10
59.72404291538995
 20
147.0550209843972
 30
0.0
 10
59.65944326083489
 20
147.024665801953
 30
0.0
 10
59.59839613881635
 20
146.9932552913453
 30
0.0
 10
59.54231856203682
 20
146.9615956478842
 30
0.0
 10
59.48771796123893
 20
146.9276983479235
 30
0.0
 10
59.43530718928258
 20
146.8917468116074
 30
0.0
 10
59.38151114582102
 20
146.8506773255641
 30
0.0
 10
59.32742782257768
 20
146.8039345997637
 30
0.0
 10
59.2768196694592
 20
146.7533058754438
 30
0.0
 10
59.240019407498
 20
146.7111714861063
 30
0.0
 10
59.21134300329298
 20
146.6752817223966
 30
0.0
 10
59.18601454219777
 20
146.6397966793063
 30
0.0
 10
59.16436593676511
 20
146.6063776659243
 30
0.0
 10
59.14981292220853
 20
146.5809294946822
 30
0.0
 10
59.1382444421133
 20
146.5593152707391
 30
0.0
 10
59.12819126038627
 20
146.5382959911663
 30
0.0
 10
59.11590741308144
 20
146.5115306820098
 30
0.0
 10
59.10178290401169
 20
146.4788174415818
 30
0.0
 10
59.08495730854565
 20
146.4353287442236
 30
0.0
 10
59.06812986426123
 20
146.384632411022
 30
0.0
 10
59.05327090044867
 20
146.3287009517469
 30
0.0
 10
59.04149524697911
 20
146.2686675210476
 30
0.0
 10
59.03418264728683
 20
146.2020252577482
 30
0.0
 10
59.03289957084419
 20
146.1371425239997
 30
0.0
 10
59.03785427470357
 20
146.0691751550097
 30
0.0
 10
59.04881163546504
 20
146.0007139408428
 30
0.0
 10
59.06461499738754
 20
145.9346250192794
 30
0.0
 10
59.08625238664829
 20
145.8665154165727
 30
0.0
 10
59.1151595705774
 20
145.7946248818255
 30
0.0
 10
59.14885209751138
 20
145.7304857142663
 30
0.0
 10
59.18926775580726
 20
145.6658271182621
 30
0.0
 10
59.231661400156
 20
145.6106517564747
 30
0.0
 10
59.27866276740782
 20
145.5563869824248
 30
0.0
 10
59.33931054154278
 20
145.4966207898021
 30
0.0
 10
59.41624550292723
 20
145.4332610500868
 30
0.0
 10
59.49825351006431
 20
145.3768647171721
 30
0.0
 10
59.57651574329716
 20
145.3305708354884
 30
0.0
 10
59.64676376465456
 20
145.2936698202564
 30
0.0
 10
59.71488345780661
 20
145.2612125302669
 30
0.0
 10
59.76058129762282
 20
145.2413286037051
 30
0.0
 10
59.78356002153043
 20
145.2317254761356
 30
0.0
  0
SPLINE
  5
8C
330
6F
100
AcDbEntity
  8
DV1_0
 62
     7
370
    35
100
AcDbSpline
210
0.0
220
0.0
230
1.0
 70
     8
 71
     3
 72
    26
 73
    22
 74
     0
 42
0.000000001
 43
0.0000000001
 40
0.0
 40
0.0
 40
0.0
 40
0.0
 40
0.002009816016048
 40
0.0165024469340872
 40
0.0289147411288981
 40
0.0408430606211446
 40
0.0502253942368178
 40
0.0580768174315272
 40
0.067088475206607
 40
0.0772988057853853
 40
0.0874197495772598
 40
0.0974263888758775
 40
0.1075312350005894
 40
0.1279436468964372
 40
0.1498554586657236
 40
0.1716642739364571
 40
0.1907082591152022
 40
0.207798852036151
 40
0.224781280823076
 40
0.2420910475758108
 40
0.2452030149725676
 40
0.2452030149725676
 40
0.2452030149725676
 40
0.2452030149725676
 10
59.03450009172965
 20
150.5113369702217
 30
0.0
 10
59.03450218110164
 20
150.5083114120194
 30
0.0
 10
59.03454403815189
 20
150.4869404062847
 30
0.0
 10
59.0392335686278
 20
150.442511455845
 30
0.0
 10
59.04929449356622
 20
150.3803169058939
 30
0.0
 10
59.06402645777722
 20
150.3189364628158
 30
0.0
 10
59.08307026526801
 20
150.2575122676111
 30
0.0
 10
59.10819498495301
 20
150.1925957106915
 30
0.0
 10
59.13736894495966
 20
150.1326310385925
 30
0.0
 10
59.17333294347027
 20
150.0717246947109
 30
0.0
 10
59.21195095746901
 20
150.0171068828048
 30
0.0
 10
59.24981023087641
 20
149.970672029741
 30
0.0
 10
59.29646990122311
 20
149.9196387144452
 30
0.0
 10
59.35795142721926
 20
149.8618130986261
 30
0.0
 10
59.43390609653206
 20
149.8021565535712
 30
0.0
 10
59.50982656533506
 20
149.7513752415438
 30
0.0
 10
59.58108370544581
 20
149.7097791269647
 30
0.0
 10
59.64509071639915
 20
149.6761872910488
 30
0.0
 10
59.70797132708694
 20
149.6460312672718
 30
0.0
 10
59.75423154636776
 20
149.6256548015558
 30
0.0
 10
59.77966597942191
 20
149.6149474287556
 30
0.0
 10
59.78354731708272
 20
149.6133247631105
 30
0.0
  0
SPLINE
  5
8D
330
6F
100
AcDbEntity
  8
DV1_0
 62
     7
370
    35
100
AcDbSpline
210
0.0
220
0.0
230
1.0
 70
     8
 71
     3
 72
    78
 73
    74
 74
     0
 42
0.000000001
 43
0.0000000001
 40
0.0
 40
0.0
 40
0.0
 40
0.0
 40
0.0057502507714588
 40
0.0092571905935793
 40
0.0124668780314481
 40
0.0159203108102885
 40
0.0224623655542299
 40
0.0342156667161032
 40
0.0477560249862918
 40
0.0624066745675196
 40
0.0777522704257758
 40
0.093754999277888
 40
0.1103917756529036
 40
0.1276573823773956
 40
0.1453858528676753
 40
0.162337042394375
 40
0.1774412941230442
 40
0.1907018793247764
 40
0.2020801738563713
 40
0.2134549657892632
 40
0.2272927638943584
 40
0.244170901035678
 40
0.2625894061464673
 40
0.2814043454150981
 40
0.300401795142042
 40
0.3112041153488207
 40
0.322119786650274
 40
0.3330213792523881
 40
0.3429697833459698
 40
0.3512499102596647
 40
0.3580127849195009
 40
0.3649762730008025
 40
0.3734071720799128
 40
0.3823418318958086
 40
0.3911451472331069
 40
0.3995122467913698
 40
0.4075501953502224
 40
0.4145985411634781
 40
0.4219155372292445
 40
0.4296368103385619
 40
0.4380898580598598
 40
0.444742808104033
 40
0.44857777303109
 40
0.4525816031890345
 40
0.4561561017261597
 40
0.4589096088299952
 40
0.4602104134666294
 40
0.4612625294414721
 40
0.4632491414940099
 40
0.4644646933850495
 40
0.4664033378140764
 40
0.4703482967669657
 40
0.4752321364631168
 40
0.4808014223343584
 40
0.487424023460285
 40
0.4951049045636937
 40
0.5036291023586547
 40
0.5116014019640831
 40
0.5184034826656047
 40
0.5247533487665618
 40
0.5296938003239512
 40
0.5340664178787834
 40
0.5391211170930099
 40
0.544607380159629
 40
0.5500353417305035
 40
0.5554591266603418
 40
0.5643802640429492
 40
0.5759555448435034
 40
0.5877253794452804
 40
0.5981923300442351
 40
0.6074613546031721
 40
0.6166361159565056
 40
0.6257615943488347
 40
0.6257615943488347
 40
0.6257615943488347
 40
0.6257615943488347
 10
64.78372060420797
 20
139.238268677593
 30
0.0
 10
64.75161715791857
 20
139.2335892834569
 30
0.0
 10
64.70755024689305
 20
139.2272121793751
 30
0.0
 10
64.63584563064529
 20
139.2164393232759
 30
0.0
 10
64.57833948435368
 20
139.2088172786489
 30
0.0
 10
64.50328250148391
 20
139.1984325832676
 30
0.0
 10
64.37997078630505
 20
139.1815017517243
 30
0.0
 10
64.199741962032
 20
139.1564626953748
 30
0.0
 10
63.97468971761464
 20
139.1249104298698
 30
0.0
 10
63.73111649127923
 20
139.0903194269447
 30
0.0
 10
63.47636222846681
 20
139.0536894802722
 30
0.0
 10
63.21410524025385
 20
139.0154630854197
 30
0.0
 10
62.94592868402665
 20
138.975816459695
 30
0.0
 10
62.6742376270462
 20
138.9350474228395
 30
0.0
 10
62.40777680977172
 20
138.8943865045871
 30
0.0
 10
62.15976857967568
 20
138.8560547101206
 30
0.0
 10
61.94094586759459
 20
138.8207323767029
 30
0.0
 10
61.75484941089874
 20
138.7894434360557
 30
0.0
 10
61.59092234593141
 20
138.7608899136388
 30
0.0
 10
61.42905196469299
 20
138.7317269735061
 30
0.0
 10
61.24825999389468
 20
138.6978837047021
 30
0.0
 10
61.04697016758993
 20
138.6583449517793
 30
0.0
 10
60.83580333529645
 20
138.6143927508232
 30
0.0
 10
60.62787812818095
 20
138.5681925565837
 30
0.0
 10
60.45871644583918
 20
138.5277282196151
 30
0.0
 10
60.32459412616176
 20
138.4935184508326
 30
0.0
 10
60.22156760893743
 20
138.4657880844979
 30
0.0
 10
60.12585629790279
 20
138.4379883753523
 30
0.0
 10
60.04206902830482
 20
138.411894843398
 30
0.0
 10
59.97293415105113
 20
138.388866173821
 30
0.0
 10
59.91327479308372
 20
138.3678391144894
 30
0.0
 10
59.85346237493428
 20
138.3455340703129
 30
0.0
 10
59.79027178860679
 20
138.3203619268088
 30
0.0
 10
59.72404291538995
 20
138.291829295458
 30
0.0
 10
59.65944326083488
 20
138.2614741130139
 30
0.0
 10
59.59839613881635
 20
138.2300636024061
 30
0.0
 10
59.54231856203681
 20
138.1984039589451
 30
0.0
 10
59.48771796123891
 20
138.1645066589844
 30
0.0
 10
59.4353071892826
 20
138.1285551226682
 30
0.0
 10
59.38151114582099
 20
138.0874856366252
 30
0.0
 10
59.32742782257768
 20
138.0407429108244
 30
0.0
 10
59.27681966945919
 20
137.9901141865047
 30
0.0
 10
59.24001940749801
 20
137.9479797971671
 30
0.0
 10
59.21134300329297
 20
137.9120900334575
 30
0.0
 10
59.1860145421978
 20
137.8766049903671
 30
0.0
 10
59.16436593676507
 20
137.8431859769851
 30
0.0
 10
59.14981292220855
 20
137.817737805743
 30
0.0
 10
59.1382444421133
 20
137.7961235817999
 30
0.0
 10
59.12819126038625
 20
137.775104302227
 30
0.0
 10
59.11590741308145
 20
137.7483389930708
 30
0.0
 10
59.10178290401166
 20
137.7156257526426
 30
0.0
 10
59.08495730854568
 20
137.6721370552844
 30
0.0
 10
59.06812986426122
 20
137.6214407220828
 30
0.0
 10
59.05327090044868
 20
137.5655092628077
 30
0.0
 10
59.0414952469791
 20
137.5054758321085
 30
0.0
 10
59.03418264728683
 20
137.4388335688091
 30
0.0
 10
59.03289957084421
 20
137.3739508350605
 30
0.0
 10
59.03785427470356
 20
137.3059834660705
 30
0.0
 10
59.04881163546504
 20
137.2375222519038
 30
0.0
 10
59.06461499738755
 20
137.1714333303401
 30
0.0
 10
59.08625238664825
 20
137.1033237276338
 30
0.0
 10
59.11515957057742
 20
137.0314331928863
 30
0.0
 10
59.14885209751137
 20
136.9672940253271
 30
0.0
 10
59.18926775580726
 20
136.902635429323
 30
0.0
 10
59.23166140015601
 20
136.8474600675355
 30
0.0
 10
59.27866276740782
 20
136.7931952934858
 30
0.0
 10
59.33931054154277
 20
136.7334291008629
 30
0.0
 10
59.41624550292723
 20
136.6700693611478
 30
0.0
 10
59.49825351006432
 20
136.613673028233
 30
0.0
 10
59.57651574329714
 20
136.5673791465493
 30
0.0
 10
59.64676376465458
 20
136.530478131317
 30
0.0
 10
59.71488345780659
 20
136.498020841328
 30
0.0
 10
59.76058129762281
 20
136.4781369147659
 30
0.0
 10
59.78356002153041
 20
136.4685337871963
 30
0.0
  0
SPLINE
  5
8E
330
6F
100
AcDbEntity
  8
DV1_0
 62
     7
370
    35
100
AcDbSpline
210
0.0
220
0.0
230
1.0
 70
     8
 71
     3
 72
    67
 73
    63
 74
     0
 42
0.000000001
 43
0.0000000001
 40
0.0
 40
0.0
 40
0.0
 40
0.0
 40
0.0045614188726199
 40
0.0083436141006143
 40
0.0126432196057772
 40
0.0181295896929301
 40
0.0252925814496085
 40
0.0360894376855905
 40
0.0488206386755048
 40
0.0624391611944235
 40
0.0755656165166993
 40
0.0904563004246807
 40
0.1086399019300088
 40
0.1255142986138685
 40
0.142293335873325
 40
0.1603605036753729
 40
0.1774914689999882
 40
0.1933684529422067
 40
0.2066216977093426
 40
0.21482133300014
 40
0.2211546220874928
 40
0.2264233891050413
 40
0.2336721089213605
 40
0.2437111258115281
 40
0.2551286846399804
 40
0.2672721779260206
 40
0.2792635539309499
 40
0.2901240253470893
 40
0.2999109880151158
 40
0.3115934905249267
 40
0.322511239692891
 40
0.3341333229760574
 40
0.3502271898267243
 40
0.3670105566624226
 40
0.3830381094781112
 40
0.3947820274704069
 40
0.4069697466142834
 40
0.4211126949079289
 40
0.4361170293416246
 40
0.4491480460506894
 40
0.4588830333395205
 40
0.467588037869287
 40
0.4740520773437534
 40
0.4775605290883557
 40
0.482027362296421
 40
0.4881308047189145
 40
0.4958455852361586
 40
0.5049465401331139
 40
0.5131736399292849
 40
0.5197538384483814
 40
0.5256441632811243
 40
0.5313754135175566
 40
0.5382364925611728
 40
0.5473367121590991
 40
0.5567305640612223
 40
0.5675861347045638
 40
0.5767879706992739
 40
0.58563527448226
 40
0.5948713951857928
 40
0.6063321561204409
 40
0.6195107217334456
 40
0.6237431611710611
 40
0.6237431611710611
 40
0.6237431611710611
 40
0.6237431611710611
 10
64.78372060420853
 20
133.3566728331235
 30
0.0
 10
64.8038314858396
 20
133.359772576133
 30
0.0
 10
64.83535313985892
 20
133.3645237596802
 30
0.0
 10
64.89711024278763
 20
133.3779202815466
 30
0.0
 10
64.97450624143649
 20
133.3893091740143
 30
0.0
 10
65.07105982519066
 20
133.4021608080439
 30
0.0
 10
65.20411259449197
 20
133.4205405087091
 30
0.0
 10
65.37812494748812
 20
133.4444485485146
 30
0.0
 10
65.5877696212877
 20
133.4737588254604
 30
0.0
 10
65.80900121930145
 20
133.5048497461202
 30
0.0
 10
66.04004957315365
 20
133.5375661378383
 30
0.0
 10
66.29257885695064
 20
133.5734887445351
 30
0.0
 10
66.56055350510528
 20
133.6120415681843
 30
0.0
 10
66.82935820293464
 20
133.6510244329137
 30
0.0
 10
67.0926677144498
 20
133.6905543554936
 30
0.0
 10
67.3515370412971
 20
133.7301783744523
 30
0.0
 10
67.59885903112277
 20
133.7695368321909
 30
0.0
 10
67.8164120108203
 20
133.8061160505239
 30
0.0
 10
67.98598217840151
 20
133.8357315794681
 30
0.0
 10
68.10878990092748
 20
133.8579313880098
 30
0.0
 10
68.19462272514048
 20
133.8737650804193
 30
0.0
 10
68.27530314058643
 20
133.88893199443
 30
0.0
 10
68.37105624785522
 20
133.9072795757473
 30
0.0
 10
68.49002933498964
 20
133.9307194537892
 30
0.0
 10
68.62497489246938
 20
133.9582616885787
 30
0.0
 10
68.76221640968545
 20
133.9874292904425
 30
0.0
 10
68.89172973759986
 20
134.0161789180758
 30
0.0
 10
69.00751801313474
 20
134.0430153887835
 30
0.0
 10
69.11782338508954
 20
134.069672141184
 30
0.0
 10
69.223755913729
 20
134.0964387170662
 30
0.0
 10
69.33130418663345
 20
134.12509615146
 30
0.0
 10
69.44896314571513
 20
134.1588781026825
 30
0.0
 10
69.57956590339411
 20
134.2002130681257
 30
0.0
 10
69.71121774018444
 20
134.2475013575088
 30
0.0
 10
69.82333019365838
 20
134.293601026009
 30
0.0
 10
69.9220785273076
 20
134.3399979075315
 30
0.0
 10
70.01527657933322
 20
134.3897237827535
 30
0.0
 10
70.11764389736449
 20
134.4541132130404
 30
0.0
 10
70.2183430037429
 20
134.5323136290886
 30
0.0
 10
70.30729440201827
 20
134.620432233113
 30
0.0
 10
70.37836681235136
 20
134.7105829515113
 30
0.0
 10
70.43001719370152
 20
134.7946829577961
 30
0.0
 10
70.4618263820172
 20
134.8610103404739
 30
0.0
 10
70.48419973849383
 20
134.9172507788822
 30
0.0
 10
70.50315749713552
 20
134.9749980641054
 30
0.0
 10
70.52173471803339
 20
135.0521088843832
 30
0.0
 10
70.53465723041705
 20
135.1513956635263
 30
0.0
 10
70.53417974716344
 20
135.2624393063234
 30
0.0
 10
70.51922008916684
 20
135.3666180365656
 30
0.0
 10
70.49624836247156
 20
135.4533999983778
 30
0.0
 10
70.46983463410437
 20
135.5253217274923
 30
0.0
 10
70.43735709659872
 20
135.5947429043414
 30
0.0
 10
70.39562308816437
 20
135.6668866335509
 30
0.0
 10
70.34195936250926
 20
135.7416538699794
 30
0.0
 10
70.27270617532369
 20
135.8195830721044
 30
0.0
 10
70.1994252910225
 20
135.8862763764759
 30
0.0
 10
70.13076003698274
 20
135.9390885211654
 30
0.0
 10
70.06376293629717
 20
135.9843046112177
 30
0.0
 10
69.99244596764844
 20
136.0267524219285
 30
0.0
 10
69.91092843329751
 20
136.0697422699846
 30
0.0
 10
69.8391165236225
 20
136.1029533627835
 30
0.0
 10
69.79481206629029
 20
136.1218402590498
 30
0.0
 10
69.78396992305649
 20
136.1263729907174
 30
0.0
  0
SPLINE
  5
8F
330
6F
100
AcDbEntity
  8
DV1_0
 62
     7
370
    35
100
AcDbSpline
210
0.0
220
0.0
230
1.0
 70
     8
 71
     3
 72
    59
 73
    55
 74
     0
 42
0.000000001
 43
0.0000000001
 40
0.0
 40
0.0
 40
0.0
 40
0.0
 40
0.0070665332999898
 40
0.0131615154580867
 40
0.0228976908985282
 40
0.0330938425992957
 40
0.044488829019181
 40
0.0570881395859022
 40
0.0793306648695797
 40
0.1041548252854232
 40
0.1381127289406629
 40
0.1738039153374265
 40
0.2111668708246651
 40
0.2501209693137987
 40
0.2801873255247333
 40
0.3101978810704568
 40
0.3376199302643747
 40
0.3624178273460089
 40
0.3845316457651071
 40
0.4039160060750156
 40
0.419663716753832
 40
0.4340884706074291
 40
0.4507088653364688
 40
0.4697742932534011
 40
0.49120528108029
 40
0.538605575467928
 40
0.5868578533232103
 40
0.6359548443291477
 40
0.6506671564925832
 40
0.6655306788581271
 40
0.6795600859533821
 40
0.6920906237592748
 40
0.7031040686840162
 40
0.7126437229869472
 40
0.7231495876749423
 40
0.7359345875968574
 40
0.7555315329916015
 40
0.7752874357715809
 40
0.7944999118270469
 40
0.8114605005732153
 40
0.8255597648099204
 40
0.8395055194250203
 40
0.8541248768556413
 40
0.8648057655424292
 40
0.8763214901740921
 40
0.8889621274945252
 40
0.9029045836238466
 40
0.917160057185508
 40
0.9266304047386145
 40
0.934884436429706
 40
0.945985123158274
 40
0.9605006283139153
 40
0.9785090794674858
 40
1.0
 40
1.0
 40
1.0
 40
1.0
 10
64.78372060420797
 20
134.8566728331234
 30
0.0
 10
64.76403961775259
 20
134.8538810150481
 30
0.0
 10
64.73291262483394
 20
134.849499727235
 30
0.0
 10
64.67027681147748
 20
134.8398239014109
 30
0.0
 10
64.59600628853028
 20
134.8295405917332
 30
0.0
 10
64.50754725401
 20
134.8174660354045
 30
0.0
 10
64.41082350229735
 20
134.804131998317
 30
0.0
 10
64.2802989200194
 20
134.7860705405338
 30
0.0
 10
64.11224957022735
 20
134.7626335810775
 30
0.0
 10
63.88518688143613
 20
134.7306540573761
 30
0.0
 10
63.62254550753088
 20
134.6931954141816
 30
0.0
 10
63.32887591470046
 20
134.6506865291302
 30
0.0
 10
63.02677228859353
 20
134.6062613275471
 30
0.0
 10
62.74616879712168
 20
134.5643073148603
 30
0.0
 10
62.4912821718375
 20
134.5255751755171
 30
0.0
 10
62.27144472585628
 20
134.4917709940769
 30
0.0
 10
62.07016239236036
 20
134.4601283301665
 30
0.0
 10
61.89297710110499
 20
134.4311186819306
 30
0.0
 10
61.73895962460693
 20
134.4050768663476
 30
0.0
 10
61.6091430324662
 20
134.3824529847661
 30
0.0
 10
61.4991409114682
 20
134.3627817400474
 30
0.0
 10
61.39714941320369
 20
134.3441258982726
 30
0.0
 10
61.29006203367392
 20
134.3240701638753
 30
0.0
 10
61.17097077975701
 20
134.3011409328532
 30
0.0
 10
60.99341705532014
 20
134.2658323678411
 30
0.0
 10
60.76769289541103
 20
134.2183466648663
 30
0.0
 10
60.50774719345846
 20
134.1586488337248
 30
0.0
 10
60.32282780232478
 20
134.1119234531624
 30
0.0
 10
60.20107727274095
 20
134.0782104526131
 30
0.0
 10
60.13571246498124
 20
134.0591812082135
 30
0.0
 10
60.07559853313878
 20
134.0408002706332
 30
0.0
 10
60.02262430823508
 20
134.023821984041
 30
0.0
 10
59.97703429215752
 20
134.0085661611048
 30
0.0
 10
59.93495537476848
 20
133.9939269908715
 30
0.0
 10
59.89055870118083
 20
133.9778592795843
 30
0.0
 10
59.83348573875361
 20
133.9561778855144
 30
0.0
 10
59.76659901673774
 20
133.928930774933
 30
0.0
 10
59.69343767470675
 20
133.8962944784795
 30
0.0
 10
59.62516162935628
 20
133.8626708829254
 30
0.0
 10
59.56527590769897
 20
133.8301244911608
 30
0.0
 10
59.51079031975001
 20
133.7975916776153
 30
0.0
 10
59.45975317392246
 20
133.7641645549496
 30
0.0
 10
59.41372814207887
 20
133.7307823184028
 30
0.0
 10
59.37266548550861
 20
133.6981241386387
 30
0.0
 10
59.32977174175427
 20
133.6608792318662
 30
0.0
 10
59.28061647642102
 20
133.6128904393809
 30
0.0
 10
59.22803923430666
 20
133.5532167665509
 30
0.0
 10
59.18243387487463
 20
133.4911732468039
 30
0.0
 10
59.14457300906633
 20
133.429355569541
 30
0.0
 10
59.11168434546607
 20
133.3644157050563
 30
0.0
 10
59.08411697272675
 20
133.2978192607642
 30
0.0
 10
59.05808914844904
 20
133.215698287886
 30
0.0
 10
59.03793811702241
 20
133.1160736439738
 30
0.0
 10
59.03506637720675
 20
133.052284241995
 30
0.0
 10
59.03372060420851
 20
133.0112738720061
 30
0.0
  0
LINE
  5
90
330
6F
100
AcDbEntity
  8
DV1_0
 62
     7
370
    35
100
AcDbLine
 10
58.78372060420852
 20
151.5112738720061
 30
0.0
 11
58.78372060420852
 21
150.5112738720061
 31
0.0
  0
LINE
  5
91
330
6F
100
AcDbEntity
  8
DV1_0
 62
     7
370
    35
100
AcDbLine
 10
70.78372060420853
 20
150.5112738720061
 30
0.0
 11
70.78372060420853
 21
151.5112738720061
 31
0.0
  0
LINE
  5
92
330
6F
100
AcDbEntity
  8
DV1_0
 62
     7
370
    35
100
AcDbLine
 10
69.78372060420853
 20
149.0968593276496
 30
0.0
 11
69.78372060420853
 21
150.5112738720061
 31
0.0
  0
LINE
  5
93
330
6F
100
AcDbEntity
  8
DV1_0
 62
     7
370
    35
100
AcDbLine
 10
69.78372060420853
 20
144.71526348318
 30
0.0
 11
69.78372060420853
 21
147.4230559296125
 31
0.0
  0
LINE
  5
94
330
6F
100
AcDbEntity
  8
DV1_0
 62
     7
370
    35
100
AcDbLine
 10
69.78372060420853
 20
140.3336676387105
 30
0.0
 11
69.78372060420853
 21
143.041460085143
 31
0.0
  0
LINE
  5
95
330
6F
100
AcDbEntity
  8
DV1_0
 62
     7
370
    35
100
AcDbLine
 10
69.78372060420853
 20
135.9520717942409
 30
0.0
 11
69.78372060420853
 21
138.6598642406734
 31
0.0
  0
LINE
  5
96
330
6F
100
AcDbEntity
  8
DV1_0
 62
     7
370
    35
100
AcDbLine
 10
69.78372060420853
 20
131.5112738720061
 30
0.0
 11
69.78372060420853
 21
134.2782683962038
 31
0.0
  0
LINE
  5
97
330
6F
100
AcDbEntity
  8
DV1_0
 62
     7
370
    35
100
AcDbLine
 10
59.78372060420852
 20
132.2612738720061
 30
0.0
 11
59.78372060420852
 21
131.5112738720061
 31
0.0
  0
LINE
  5
98
330
6F
100
AcDbEntity
  8
DV1_0
 62
     7
370
    35
100
AcDbLine
 10
59.78372060420852
 20
136.6428697164756
 30
0.0
 11
59.78372060420852
 21
133.9354418083308
 31
0.0
  0
LINE
  5
99
330
6F
100
AcDbEntity
  8
DV1_0
 62
     7
370
    35
100
AcDbLine
 10
59.78372060420852
 20
141.0244655609453
 30
0.0
 11
59.78372060420852
 21
138.317144282271
 31
0.0
  0
LINE
  5
9A
330
6F
100
AcDbEntity
  8
DV1_0
 62
     7
370
    35
100
AcDbLine
 10
59.78372060420852
 20
145.4060614054148
 30
0.0
 11
59.78372060420852
 21
142.6987401267405
 31
0.0
  0
LINE
  5
9B
330
6F
100
AcDbEntity
  8
DV1_0
 62
     7
370
    35
100
AcDbLine
 10
59.78372060420852
 20
149.7876572498844
 30
0.0
 11
59.78372060420852
 21
147.0803359712101
 31
0.0
  0
ARC
  5
9C
330
6F
100
AcDbEntity
  8
DV1_0
 62
     7
370
    35
100
AcDbCircle
 10
70.7837206042086
 20
152.5112738720061
 30
0.0
 40
1.000000000000001
100
AcDbArc
 50
180.0
 51
270.0
  0
ARC
  5
9D
330
6F
100
AcDbEntity
  8
DV1_0
 62
     7
370
    35
100
AcDbCircle
 10
58.7837206042086
 20
152.5112738720061
 30
0.0
 40
0.9999999999999996
100
AcDbArc
 50
270.0
 51
0.0
  0
LINE
  5
9E
330
6F
100
AcDbEntity
  8
DV1_0
 62
     7
370
    35
100
AcDbLine
 10
59.95372060420865
 20
219.1240692362075
 30
0.0
 11
69.61372060420855
 21
219.1240692362075
 31
0.0
  0
LINE
  5
9F
330
6F
100
AcDbEntity
  8
DV1_0
 62
     7
370
    35
100
AcDbLine
 10
60.18372060420856
 20
231.5109997020265
 30
0.0
 11
69.38372060420848
 21
231.5109997020265
 31
0.0
  0
LINE
  5
A0
330
6F
100
AcDbEntity
  8
DV1_0
 62
     7
370
    25
100
AcDbLine
 10
59.78372060420856
 20
231.1109997020265
 30
0.0
 11
69.78372060420847
 21
231.1109997020265
 31
0.0
  0
LINE
  5
A1
330
6F
100
AcDbEntity
  8
DV1_0
 62
     7
370
    25
100
AcDbLine
 10
59.7837206042086
 20
219.5216871432489
 30
0.0
 11
69.7837206042086
 21
219.5216871432489
 31
0.0
  0
LINE
  5
A2
330
6F
100
AcDbEntity
  8
DV1_0
 62
     7
370
    35
100
AcDbLine
 10
69.61372060420861
 20
216.6244785078048
 30
0.0
 11
69.61372060420861
 21
219.1240692362075
 31
0.0
  0
LINE
  5
A3
330
6F
100
AcDbEntity
  8
DV1_0
 62
     7
370
    35
100
AcDbLine
 10
59.9537206042086
 20
219.1240692362075
 30
0.0
 11
59.9537206042086
 21
216.6244785078049
 31
0.0
  0
ARC
  5
A4
330
6F
100
AcDbEntity
  8
DV1_0
 62
     7
370
    35
100
AcDbCircle
 10
69.3837206042085
 20
231.1109997020265
 30
0.0
 40
0.4000000000000004
100
AcDbArc
 50
0.0
 51
90.0
  0
ARC
  5
A5
330
6F
100
AcDbEntity
  8
DV1_0
 62
     7
370
    35
100
AcDbCircle
 10
60.18372060420852
 20
231.1109997020265
 30
0.0
 40
0.4000000000000004
100
AcDbArc
 50
90.0
 51
180.0
  0
LINE
  5
A6
330
6F
100
AcDbEntity
  8
DV1_0
 62
     7
370
    35
100
AcDbLine
 10
59.78372060420852
 20
231.1109997020265
 30
0.0
 11
59.78372060420852
 21
219.521687143249
 31
0.0
  0
LINE
  5
A7
330
6F
100
AcDbEntity
  8
DV1_0
 62
     7
370
    35
100
AcDbLine
 10
69.78372060420851
 20
219.5216871432489
 30
0.0
 11
69.78372060420851
 21
231.1109997020264
 31
0.0
  0
ARC
  5
A8
330
6F
100
AcDbEntity
  8
DV1_0
 62
     7
370
    35
100
AcDbCircle
 10
69.2337206042086
 20
219.5216871432489
 30
0.0
 40
0.550000000000001
100
AcDbArc
 50
313.7021144373587
 51
0.0
  0
ARC
  5
A9
330
6F
100
AcDbEntity
  8
DV1_0
 62
     7
370
    35
100
AcDbCircle
 10
60.3337206042086
 20
219.5216871432489
 30
0.0
 40
0.5500000000000005
100
AcDbArc
 50
180.0
 51
226.2978855626418
  0
ENDBLK
  5
AB
330
6F
100
AcDbEntity
  8
0
100
AcDbBlockEnd
  0
BLOCK
  5
E6
330
AC
100
AcDbEntity
  8
0
100
AcDbBlockBegin
  2
SE1
 70
     0
 10
0.0
 20
0.0
 30
0.0
  3
SE1
  1

  0
LINE
  5
AF
330
AC
100
AcDbEntity
  8
DV2_0
 62
     7
370
    25
100
AcDbLine
 10
156.409159339424
 20
216.2268606007634
 30
0.0
 11
146.409159339424
 21
216.2268606007634
 31
0.0
  0
LINE
  5
B0
330
AC
100
AcDbEntity
  8
DV2_0
 62
     7
370
    35
100
AcDbLine
 10
156.409159339424
 20
152.5112738720061
 30
0.0
 11
146.409159339424
 21
152.5112738720061
 31
0.0
  0
LINE
  5
B1
330
AC
100
AcDbEntity
  8
DV2_0
 62
     7
370
    35
100
AcDbLine
 10
156.409159339424
 20
152.5112738720061
 30
0.0
 11
156.409159339424
 21
216.2268606007634
 31
0.0
  0
LINE
  5
B2
330
AC
100
AcDbEntity
  8
DV2_0
 62
     7
370
    35
100
AcDbLine
 10
146.409159339424
 20
216.2268606007634
 30
0.0
 11
146.409159339424
 21
152.5112738720061
 31
0.0
  0
ARC
  5
B3
330
AC
100
AcDbEntity
  8
DV2_0
 62
     7
370
    35
100
AcDbCircle
 10
146.959159339424
 20
216.2268606007634
 30
0.0
 40
0.5500000000000005
100
AcDbArc
 50
133.7021144373556
 51
180.0
  0
ARC
  5
B4
330
AC
100
AcDbEntity
  8
DV2_0
 62
     7
370
    35
100
AcDbCircle
 10
155.859159339424
 20
216.2268606007634
 30
0.0
 40
0.5500000000000005
100
AcDbArc
 50
0.0
 51
46.29788556264447
  0
LINE
  5
B5
330
AC
100
AcDbEntity
  8
DV2_0
 62
     7
370
    35
100
AcDbLine
 10
151.409159339424
 20
132.2612738720061
 30
0.0
 11
151.409159339424
 21
133.7612738720061
 31
0.0
  0
SPLINE
  5
B6
330
AC
100
AcDbEntity
  8
DV2_0
 62
     7
370
    35
100
AcDbSpline
210
0.0
220
0.0
230
1.0
 70
    12
 71
     2
 72
     6
 73
     3
 74
     0
 42
0.000000001
 43
0.0000000001
 40
0.0
 40
0.0
 40
0.0
 40
0.0003060302775211
 40
0.0003060302775211
 40
0.0003060302775211
 10
151.409159339424
 20
132.2612738720061
 30
0.0
 41
1.0
 10
151.4281784104665
 20
132.2638655910396
 30
0.0
 41
0.9994994690158211
 10
151.4471969311429
 20
132.2664625181087
 30
0.0
 41
0.9990136430846979
  0
SPLINE
  5
B7
330
AC
100
AcDbEntity
  8
DV2_0
 62
     7
370
    35
100
AcDbSpline
210
0.0
220
0.0
230
1.0
 70
    12
 71
     2
 72
    12
 73
     9
 74
     0
 42
0.000000001
 43
0.0000000001
 40
0.1875
 40
0.1875
 40
0.1875
 40
0.2083333333333333
 40
0.2083333333333333
 40
0.2291666666666667
 40
0.2291666666666667
 40
0.25
 40
0.25
 40
0.2503060302775212
 40
0.2503060302775212
 40
0.2503060302775212
 10
146.409159339424
 20
135.5474707553583
 30
0.0
 41
1.0
 10
146.409159339424
 20
135.7300372488779
 30
0.0
 41
0.9659258262890683
 10
147.0790323205018
 20
135.9126037423974
 30
0.0
 41
1.0
 10
147.7489053015796
 20
136.095170235917
 30
0.0
 41
0.9659258262890683
 10
148.909159339424
 20
136.2777367294366
 30
0.0
 41
1.0
 10
150.0694133772684
 20
136.4603032229561
 30
0.0
 41
0.9659258262890683
 10
151.409159339424
 20
136.6428697164756
 30
0.0
 41
1.0
 10
151.4281784104665
 20
136.6454614355092
 30
0.0
 41
0.999499469015821
 10
151.4471969311429
 20
136.6480583625783
 30
0.0
 41
0.9990136430846975
  0
SPLINE
  5
B8
330
AC
100
AcDbEntity
  8
DV2_0
 62
     7
370
    35
100
AcDbSpline
210
0.0
220
0.0
230
1.0
 70
    12
 71
     2
 72
    12
 73
     9
 74
     0
 42
0.000000001
 43
0.0000000001
 40
0.4375
 40
0.4375
 40
0.4375
 40
0.4583333333333333
 40
0.4583333333333333
 40
0.4791666666666667
 40
0.4791666666666667
 40
0.5
 40
0.5
 40
0.5003060302775213
 40
0.5003060302775213
 40
0.5003060302775213
 10
146.409159339424
 20
139.9290665998278
 30
0.0
 41
1.0
 10
146.409159339424
 20
140.1116330933474
 30
0.0
 41
0.9659258262890683
 10
147.0790323205018
 20
140.294199586867
 30
0.0
 41
1.0
 10
147.7489053015796
 20
140.4767660803866
 30
0.0
 41
0.9659258262890683
 10
148.909159339424
 20
140.6593325739061
 30
0.0
 41
1.0
 10
150.0694133772684
 20
140.8418990674257
 30
0.0
 41
0.9659258262890683
 10
151.409159339424
 20
141.0244655609453
 30
0.0
 41
1.0
 10
151.4281784104665
 20
141.0270572799788
 30
0.0
 41
0.9994994690158209
 10
151.4471969311429
 20
141.0296542070479
 30
0.0
 41
0.9990136430846974
  0
SPLINE
  5
B9
330
AC
100
AcDbEntity
  8
DV2_0
 62
     7
370
    35
100
AcDbSpline
210
0.0
220
0.0
230
1.0
 70
    12
 71
     2
 72
    12
 73
     9
 74
     0
 42
0.000000001
 43
0.0000000001
 40
0.6875
 40
0.6875
 40
0.6875
 40
0.7083333333333334
 40
0.7083333333333334
 40
0.7291666666666666
 40
0.7291666666666666
 40
0.75
 40
0.75
 40
0.7503060302775213
 40
0.7503060302775213
 40
0.7503060302775213
 10
146.409159339424
 20
144.3106624442974
 30
0.0
 41
1.0
 10
146.409159339424
 20
144.493228937817
 30
0.0
 41
0.9659258262890683
 10
147.0790323205018
 20
144.6757954313366
 30
0.0
 41
1.0
 10
147.7489053015796
 20
144.8583619248561
 30
0.0
 41
0.9659258262890683
 10
148.909159339424
 20
145.0409284183757
 30
0.0
 41
1.0
 10
150.0694133772684
 20
145.2234949118952
 30
0.0
 41
0.9659258262890683
 10
151.409159339424
 20
145.4060614054148
 30
0.0
 41
1.0
 10
151.4281784104665
 20
145.4086531244484
 30
0.0
 41
0.9994994690158209
 10
151.4471969311429
 20
145.4112500515175
 30
0.0
 41
0.9990136430846974
  0
SPLINE
  5
BA
330
AC
100
AcDbEntity
  8
DV2_0
 62
     7
370
    35
100
AcDbSpline
210
0.0
220
0.0
230
1.0
 70
    12
 71
     2
 72
    10
 73
     7
 74
     0
 42
0.000000001
 43
0.0000000001
 40
0.9375
 40
0.9375
 40
0.9375
 40
0.9583333333333334
 40
0.9583333333333334
 40
0.9791666666666666
 40
0.9791666666666666
 40
1.0
 40
1.0
 40
1.0
 10
146.409159339424
 20
148.692258288767
 30
0.0
 41
1.0
 10
146.409159339424
 20
148.8748247822866
 30
0.0
 41
0.9659258262890683
 10
147.0790323205018
 20
149.0573912758061
 30
0.0
 41
1.0
 10
147.7489053015796
 20
149.2399577693257
 30
0.0
 41
0.9659258262890683
 10
148.909159339424
 20
149.4225242628453
 30
0.0
 41
1.0
 10
150.0694133772684
 20
149.6050907563648
 30
0.0
 41
0.9659258262890683
 10
151.409159339424
 20
149.7876572498844
 30
0.0
 41
1.0
  0
SPLINE
  5
BB
330
AC
100
AcDbEntity
  8
DV2_0
 62
     7
370
    35
100
AcDbSpline
210
0.0
220
0.0
230
1.0
 70
    12
 71
     2
 72
    10
 73
     7
 74
     0
 42
0.000000001
 43
0.0000000001
 40
0.0
 40
0.0
 40
0.0
 40
0.0218003456288767
 40
0.0218003456288767
 40
0.0436006912577535
 40
0.0436006912577535
 40
0.0654010368866302
 40
0.0654010368866302
 40
0.0654010368866302
 10
151.409159339424
 20
133.7612738720061
 30
0.0
 41
1.0
 10
152.7489053015796
 20
133.9438403655257
 30
0.0
 41
0.9659258262890683
 10
153.909159339424
 20
134.1264068590452
 30
0.0
 41
1.0
 10
155.0694133772684
 20
134.3089733525648
 30
0.0
 41
0.9659258262890683
 10
155.7392863583462
 20
134.4915398460844
 30
0.0
 41
1.0
 10
156.409159339424
 20
134.6741063396039
 30
0.0
 41
0.9659258262890683
 10
156.409159339424
 20
134.8566728331235
 30
0.0
 41
1.0
  0
SPLINE
  5
BC
330
AC
100
AcDbEntity
  8
DV2_0
 62
     7
370
    35
100
AcDbSpline
210
0.0
220
0.0
230
1.0
 70
    12
 71
     2
 72
    12
 73
     9
 74
     0
 42
0.000000001
 43
0.0000000001
 40
0.2612864935599659
 40
0.2612864935599659
 40
0.2612864935599659
 40
0.2616041475465208
 40
0.2616041475465208
 40
0.2834044931753975
 40
0.2834044931753975
 40
0.3052048388042743
 40
0.3052048388042743
 40
0.327005184433151
 40
0.327005184433151
 40
0.327005184433151
 10
151.3714284834348
 20
138.1377229539558
 30
0.0
 41
0.9990214757893802
 10
151.3902936428502
 20
138.1402988977021
 30
0.0
 41
0.999503503416776
 10
151.409159339424
 20
138.1428697164756
 30
0.0
 41
1.0
 10
152.7489053015796
 20
138.3254362099952
 30
0.0
 41
0.9659258262890683
 10
153.909159339424
 20
138.5080027035148
 30
0.0
 41
1.0
 10
155.0694133772684
 20
138.6905691970344
 30
0.0
 41
0.9659258262890683
 10
155.7392863583462
 20
138.8731356905539
 30
0.0
 41
1.0
 10
156.409159339424
 20
139.0557021840735
 30
0.0
 41
0.9659258262890683
 10
156.409159339424
 20
139.2382686775931
 30
0.0
 41
1.0
  0
SPLINE
  5
BD
330
AC
100
AcDbEntity
  8
DV2_0
 62
     7
370
    35
100
AcDbSpline
210
0.0
220
0.0
230
1.0
 70
    12
 71
     2
 72
    12
 73
     9
 74
     0
 42
0.000000001
 43
0.0000000001
 40
0.5228906411064866
 40
0.5228906411064866
 40
0.5228906411064866
 40
0.5232082950930416
 40
0.5232082950930416
 40
0.5450086407219183
 40
0.5450086407219183
 40
0.566808986350795
 40
0.566808986350795
 40
0.5886093319796718
 40
0.5886093319796718
 40
0.5886093319796718
 10
151.3714284834348
 20
142.5193187984254
 30
0.0
 41
0.9990214757893799
 10
151.3902936428502
 20
142.5218947421717
 30
0.0
 41
0.9995035034167759
 10
151.409159339424
 20
142.5244655609452
 30
0.0
 41
1.0
 10
152.7489053015796
 20
142.7070320544648
 30
0.0
 41
0.9659258262890683
 10
153.909159339424
 20
142.8895985479843
 30
0.0
 41
1.0
 10
155.0694133772684
 20
143.072165041504
 30
0.0
 41
0.9659258262890683
 10
155.7392863583462
 20
143.2547315350235
 30
0.0
 41
1.0
 10
156.409159339424
 20
143.437298028543
 30
0.0
 41
0.9659258262890683
 10
156.409159339424
 20
143.6198645220626
 30
0.0
 41
1.0
  0
SPLINE
  5
BE
330
AC
100
AcDbEntity
  8
DV2_0
 62
     7
370
    35
100
AcDbSpline
210
0.0
220
0.0
230
1.0
 70
    12
 71
     2
 72
    12
 73
     9
 74
     0
 42
0.000000001
 43
0.0000000001
 40
0.7844947886530075
 40
0.7844947886530075
 40
0.7844947886530075
 40
0.7848124426395624
 40
0.7848124426395624
 40
0.8066127882684392
 40
0.8066127882684392
 40
0.8284131338973159
 40
0.8284131338973159
 40
0.8502134795261926
 40
0.8502134795261926
 40
0.8502134795261926
 10
151.3714284834348
 20
146.9009146428949
 30
0.0
 41
0.9990214757893799
 10
151.3902936428502
 20
146.9034905866413
 30
0.0
 41
0.9995035034167759
 10
151.409159339424
 20
146.9060614054148
 30
0.0
 41
1.0
 10
152.7489053015796
 20
147.0886278989344
 30
0.0
 41
0.9659258262890683
 10
153.909159339424
 20
147.271194392454
 30
0.0
 41
1.0
 10
155.0694133772684
 20
147.4537608859735
 30
0.0
 41
0.9659258262890683
 10
155.7392863583462
 20
147.6363273794931
 30
0.0
 41
1.0
 10
156.409159339424
 20
147.8188938730127
 30
0.0
 41
0.9659258262890683
 10
156.409159339424
 20
148.0014603665322
 30
0.0
 41
1.0
  0
LINE
  5
BF
330
AC
100
AcDbEntity
  8
DV2_0
 62
     7
370
    35
100
AcDbLine
 10
151.409159339424
 20
149.7876572498844
 30
0.0
 11
151.409159339424
 21
150.5112738720061
 31
0.0
  0
LINE
  5
C0
330
AC
100
AcDbEntity
  8
DV2_0
 62
     7
370
    35
100
AcDbLine
 10
157.409159339424
 20
151.5112738720061
 30
0.0
 11
145.409159339424
 21
151.5112738720061
 31
0.0
  0
LINE
  5
C1
330
AC
100
AcDbEntity
  8
DV2_0
 62
     7
370
    35
100
AcDbLine
 10
157.409159339424
 20
150.5112738720061
 30
0.0
 11
145.409159339424
 21
150.5112738720061
 31
0.0
  0
LINE
  5
C2
330
AC
100
AcDbEntity
  8
DV2_0
 62
     7
370
    35
100
AcDbLine
 10
146.4091593394241
 20
131.5112738720061
 30
0.0
 11
156.409159339424
 21
131.5112738720061
 31
0.0
  0
LINE
  5
C3
330
AC
100
AcDbEntity
  8
DV2_0
 62
     7
370
    35
100
AcDbLine
 10
156.409159339424
 20
152.5112738720061
 30
0.0
 11
146.409159339424
 21
152.5112738720061
 31
0.0
  0
SPLINE
  5
C4
330
AC
100
AcDbEntity
  8
DV2_0
 62
     7
370
    35
100
AcDbSpline
210
0.0
220
0.0
230
1.0
 70
     8
 71
     3
 72
    54
 73
    50
 74
     0
 42
0.000000001
 43
0.0000000001
 40
0.0
 40
0.0
 40
0.0
 40
0.0
 40
0.0098531835807573
 40
0.0207231996122146
 40
0.0322538881131444
 40
0.043548483097753
 40
0.0548048190498483
 40
0.0668992065372576
 40
0.080601130037703
 40
0.096870631430701
 40
0.1152870799801093
 40
0.1333216195801529
 40
0.1528523870904546
 40
0.1713303415378388
 40
0.1874928953450009
 40
0.2013217242453388
 40
0.2139325926640138
 40
0.2267911128420063
 40
0.2413831071003154
 40
0.2605895553583756
 40
0.2969040216615046
 40
0.3313314064140573
 40
0.3432161439799447
 40
0.3530532008275404
 40
0.361834512822034
 40
0.3731813156784482
 40
0.3869338033863778
 40
0.401184716689971
 40
0.4126165026408954
 40
0.4229031196296913
 40
0.4337831160805356
 40
0.4448897349470866
 40
0.4559863295969957
 40
0.4656354215732487
 40
0.4726513972032323
 40
0.4794329602081622
 40
0.4868311654856142
 40
0.4965901985272318
 40
0.5084922974773421
 40
0.5180456768889254
 40
0.5243062922193117
 40
0.5306197075043478
 40
0.5400947880572943
 40
0.552044154558225
 40
0.568401495719343
 40
0.5859335675853407
 40
0.6010707541485942
 40
0.6150886680488221
 40
0.624673325649757
 40
0.624673325649757
 40
0.624673325649757
 40
0.624673325649757
 10
151.3788171459716
 20
142.5203274842189
 30
0.0
 10
151.3257097286336
 20
142.5123150639131
 30
0.0
 10
151.2283053242341
 20
142.4962645716153
 30
0.0
 10
151.0383111407272
 20
142.4664823951011
 30
0.0
 10
150.8514166651707
 20
142.442007991943
 30
0.0
 10
150.6577159431042
 20
142.4139159962814
 30
0.0
 10
150.4642292212365
 20
142.3864482617036
 30
0.0
 10
150.2562889735051
 20
142.355332407693
 30
0.0
 10
150.0239075999718
 20
142.3214553741923
 30
0.0
 10
149.7613121863735
 20
142.2836511897657
 30
0.0
 10
149.482652116226
 20
142.2436813894862
 30
0.0
 10
149.1956180477942
 20
142.2020502607072
 30
0.0
 10
148.919203763126
 20
142.1613719073509
 30
0.0
 10
148.6618925125713
 20
142.1220694689519
 30
0.0
 10
148.4386813295385
 20
142.0854651133853
 30
0.0
 10
148.2484598246191
 20
142.0528229982202
 30
0.0
 10
148.0750865954492
 20
142.021683922713
 30
0.0
 10
147.9027269299911
 20
141.9895907274924
 30
0.0
 10
147.7104027554256
 20
141.9521145506669
 30
0.0
 10
147.4348881465172
 20
141.895614923183
 30
0.0
 10
147.1079855084261
 20
141.8213943696378
 30
0.0
 10
146.8432059304664
 20
141.7522384188611
 30
0.0
 10
146.6803401490263
 20
141.7022982690895
 30
0.0
 10
146.5962353887919
 20
141.6744425331227
 30
0.0
 10
146.5150031593032
 20
141.6455579009123
 30
0.0
 10
146.4255491860712
 20
141.6109978215257
 30
0.0
 10
146.3266716635732
 20
141.5682724708232
 30
0.0
 10
146.230788539244
 20
141.5206920636672
 30
0.0
 10
146.1450820120413
 20
141.4715488057664
 30
0.0
 10
146.0652515627133
 20
141.4187486976159
 30
0.0
 10
145.988886489316
 20
141.3597384988279
 30
0.0
 10
145.9067773561947
 20
141.2834698368456
 30
0.0
 10
145.8334304991747
 20
141.1968010050849
 30
0.0
 10
145.7774350350555
 20
141.1124567744508
 30
0.0
 10
145.7341631635368
 20
141.0287443806875
 30
0.0
 10
145.7014468025694
 20
140.9463446007958
 30
0.0
 10
145.6739140116296
 20
140.8477028052978
 30
0.0
 10
145.6559628582094
 20
140.7208251154522
 30
0.0
 10
145.6608606784042
 20
140.582763742078
 30
0.0
 10
145.6847158301014
 20
140.4657050854277
 30
0.0
 10
145.7152902742439
 20
140.3747224610099
 30
0.0
 10
145.7508072165725
 20
140.2942067229696
 30
0.0
 10
145.8056148987282
 20
140.1990497022964
 30
0.0
 10
145.8910501903964
 20
140.0895494911613
 30
0.0
 10
145.9983892787725
 20
139.9878618074165
 30
0.0
 10
146.1166599837691
 20
139.9029094319876
 30
0.0
 10
146.2315917142591
 20
139.8366015623408
 30
0.0
 10
146.3262287157063
 20
139.7904371231776
 30
0.0
 10
146.3847374754968
 20
139.7648781047019
 30
0.0
 10
146.4088120603969
 20
139.7548075802664
 30
0.0
  0
SPLINE
  5
C5
330
AC
100
AcDbEntity
  8
DV2_0
 62
     7
370
    35
100
AcDbSpline
210
0.0
220
0.0
230
1.0
 70
     8
 71
     3
 72
    54
 73
    50
 74
     0
 42
0.000000001
 43
0.0000000001
 40
0.0
 40
0.0
 40
0.0
 40
0.0
 40
0.0098531835807573
 40
0.0207231996122142
 40
0.0322538881131443
 40
0.0435484830977529
 40
0.0548048190498473
 40
0.0668992065372573
 40
0.0806011300377033
 40
0.0968706314307006
 40
0.1152870799801095
 40
0.1333216195801518
 40
0.1528523870904537
 40
0.1713303415378385
 40
0.1874928953449999
 40
0.2013217242453391
 40
0.2139325926640136
 40
0.2267911128420064
 40
0.2413831071003147
 40
0.2605895553583764
 40
0.296904021661505
 40
0.3313314064140576
 40
0.3432161439799446
 40
0.3530532008275404
 40
0.3618345128220342
 40
0.3731813156784485
 40
0.386933803386378
 40
0.4011847166899711
 40
0.4126165026408952
 40
0.4229031196296923
 40
0.4337831160805359
 40
0.4448897349470859
 40
0.4559863295969958
 40
0.4656354215732483
 40
0.4726513972032321
 40
0.4794329602081623
 40
0.4868311654856135
 40
0.4965901985272315
 40
0.5084922974773411
 40
0.5180456768889251
 40
0.5243062922193128
 40
0.5306197075043482
 40
0.5400947880572937
 40
0.5520441545582241
 40
0.5684014957193427
 40
0.5859335675853408
 40
0.6010707541485933
 40
0.6150886680488215
 40
0.6246733256497558
 40
0.6246733256497558
 40
0.6246733256497558
 40
0.6246733256497558
 10
151.3788171459716
 20
146.9019233286885
 30
0.0
 10
151.3257097286336
 20
146.8939109083827
 30
0.0
 10
151.2283053242341
 20
146.8778604160848
 30
0.0
 10
151.0383111407272
 20
146.8480782395707
 30
0.0
 10
150.8514166651707
 20
146.8236038364127
 30
0.0
 10
150.6577159431042
 20
146.7955118407508
 30
0.0
 10
150.4642292212365
 20
146.7680441061733
 30
0.0
 10
150.2562889735051
 20
146.7369282521625
 30
0.0
 10
150.0239075999718
 20
146.7030512186618
 30
0.0
 10
149.7613121863735
 20
146.6652470342353
 30
0.0
 10
149.482652116226
 20
146.6252772339558
 30
0.0
 10
149.1956180477943
 20
146.5836461051768
 30
0.0
 10
148.919203763126
 20
146.5429677518206
 30
0.0
 10
148.6618925125713
 20
146.5036653134215
 30
0.0
 10
148.4386813295384
 20
146.4670609578547
 30
0.0
 10
148.2484598246191
 20
146.43441884269
 30
0.0
 10
148.0750865954491
 20
146.4032797671825
 30
0.0
 10
147.9027269299911
 20
146.371186571962
 30
0.0
 10
147.7104027554257
 20
146.3337103951365
 30
0.0
 10
147.4348881465171
 20
146.2772107676527
 30
0.0
 10
147.1079855084262
 20
146.2029902141072
 30
0.0
 10
146.8432059304663
 20
146.1338342633307
 30
0.0
 10
146.6803401490264
 20
146.083894113559
 30
0.0
 10
146.5962353887919
 20
146.0560383775923
 30
0.0
 10
146.5150031593032
 20
146.0271537453818
 30
0.0
 10
146.4255491860711
 20
145.9925936659953
 30
0.0
 10
146.3266716635733
 20
145.9498683152928
 30
0.0
 10
146.230788539244
 20
145.9022879081368
 30
0.0
 10
146.1450820120413
 20
145.8531446502361
 30
0.0
 10
146.0652515627133
 20
145.8003445420856
 30
0.0
 10
145.988886489316
 20
145.7413343432975
 30
0.0
 10
145.9067773561948
 20
145.6650656813151
 30
0.0
 10
145.8334304991746
 20
145.5783968495543
 30
0.0
 10
145.7774350350556
 20
145.4940526189204
 30
0.0
 10
145.7341631635368
 20
145.4103402251569
 30
0.0
 10
145.7014468025694
 20
145.3279404452655
 30
0.0
 10
145.6739140116296
 20
145.2292986497673
 30
0.0
 10
145.6559628582095
 20
145.1024209599218
 30
0.0
 10
145.6608606784041
 20
144.9643595865474
 30
0.0
 10
145.6847158301015
 20
144.8473009298974
 30
0.0
 10
145.7152902742438
 20
144.7563183054794
 30
0.0
 10
145.7508072165725
 20
144.6758025674392
 30
0.0
 10
145.8056148987283
 20
144.5806455467659
 30
0.0
 10
145.8910501903963
 20
144.4711453356309
 30
0.0
 10
145.9983892787725
 20
144.3694576518859
 30
0.0
 10
146.116659983769
 20
144.2845052764572
 30
0.0
 10
146.2315917142591
 20
144.2181974068103
 30
0.0
 10
146.3262287157063
 20
144.1720329676471
 30
0.0
 10
146.3847374754968
 20
144.1464739491715
 30
0.0
 10
146.4088120603969
 20
144.1364034247359
 30
0.0
  0
SPLINE
  5
C6
330
AC
100
AcDbEntity
  8
DV2_0
 62
     7
370
    35
100
AcDbSpline
210
0.0
220
0.0
230
1.0
 70
     8
 71
     3
 72
    47
 73
    43
 74
     0
 42
0.000000001
 43
0.0000000001
 40
0.0
 40
0.0
 40
0.0
 40
0.0
 40
0.0069194080297185
 40
0.0196263041109192
 40
0.0308647496994083
 40
0.0405333170399369
 40
0.0488790025587819
 40
0.0587811054626832
 40
0.0710585342348559
 40
0.084568607530223
 40
0.0995599447955434
 40
0.1137411726664466
 40
0.1256151796006515
 40
0.1359780092199567
 40
0.1464995313444546
 40
0.1572562371931336
 40
0.1696463931546122
 40
0.1798911677184352
 40
0.1915070283232874
 40
0.2023935786682745
 40
0.2109156432890238
 40
0.2176229909959461
 40
0.2244197683025811
 40
0.2314535766233023
 40
0.2390967942698748
 40
0.2484597695279074
 40
0.259439721800084
 40
0.2721167950764779
 40
0.2824800335756592
 40
0.2903198738501701
 40
0.2956969636349742
 40
0.3015867505655653
 40
0.3099703099019204
 40
0.3206477482325261
 40
0.332125984140134
 40
0.3481507282257615
 40
0.3654066177350671
 40
0.3836402299161774
 40
0.3999352914116776
 40
0.4141016917597358
 40
0.4279702872610294
 40
0.4437684240562093
 40
0.4437684240562093
 40
0.4437684240562093
 40
0.4437684240562093
 10
146.8358363460385
 20
150.5108873514538
 30
0.0
 10
146.8193962511361
 20
150.5065472767229
 30
0.0
 10
146.7798058550765
 20
150.4960868439599
 30
0.0
 10
146.718311453162
 20
150.4770954434427
 30
0.0
 10
146.6540814610745
 20
150.4568470658878
 30
0.0
 10
146.5996637055119
 20
150.4386233748509
 30
0.0
 10
146.5486726388877
 20
150.4207799540833
 30
0.0
 10
146.4931010234533
 20
150.4003426545891
 30
0.0
 10
146.4300154524672
 20
150.37562465514
 30
0.0
 10
146.360357595953
 20
150.3461376937113
 30
0.0
 10
146.2890403261153
 20
150.3130404396386
 30
0.0
 10
146.2222108885718
 20
150.2786530979534
 30
0.0
 10
146.1635833541989
 20
150.2453127048376
 30
0.0
 10
146.1097980850956
 20
150.2116842053678
 30
0.0
 10
146.0580297157214
 20
150.1759491526355
 30
0.0
 10
146.0041535552396
 20
150.1346181019712
 30
0.0
 10
145.9487794460094
 20
150.0863470239606
 30
0.0
 10
145.8928041504672
 20
150.029729778176
 30
0.0
 10
145.8420990444124
 20
149.9697583304807
 30
0.0
 10
145.7981932858876
 20
149.9075918188611
 30
0.0
 10
145.7642881651435
 20
149.8504491308009
 30
0.0
 10
145.7371150613199
 20
149.7964670493674
 30
0.0
 10
145.7147622636317
 20
149.7437704701424
 30
0.0
 10
145.6947735555878
 20
149.6860540157435
 30
0.0
 10
145.6769372767144
 20
149.6186687745795
 30
0.0
 10
145.6629690481621
 20
149.5374126305199
 30
0.0
 10
145.6569215142615
 20
149.439054199402
 30
0.0
 10
145.6635707183781
 20
149.3385827096369
 30
0.0
 10
145.6803946996693
 20
149.2498902526293
 30
0.0
 10
145.6994135504455
 20
149.1841205870467
 30
0.0
 10
145.718269125872
 20
149.1323702544864
 30
0.0
 10
145.739377220655
 20
149.0831383754486
 30
0.0
 10
145.7694067921234
 20
149.0240863219917
 30
0.0
 10
145.8121216618783
 20
148.9554689354484
 30
0.0
 10
145.8694275760313
 20
148.8802437974481
 30
0.0
 10
145.9395677116681
 20
148.8055822921532
 30
0.0
 10
146.0218906349001
 20
148.7345173853216
 30
0.0
 10
146.1057315906354
 20
148.6745609860598
 30
0.0
 10
146.1871703515983
 20
148.6250267296487
 30
0.0
 10
146.2597725379036
 20
148.586102791053
 30
0.0
 10
146.3324293325662
 20
148.5509253485359
 30
0.0
 10
146.3822064548596
 20
148.5291180749248
 30
0.0
 10
146.4089993337745
 20
148.5179212941862
 30
0.0
  0
SPLINE
  5
C7
330
AC
100
AcDbEntity
  8
DV2_0
 62
     7
370
    35
100
AcDbSpline
210
0.0
220
0.0
230
1.0
 70
     8
 71
     3
 72
    54
 73
    50
 74
     0
 42
0.000000001
 43
0.0000000001
 40
0.0
 40
0.0
 40
0.0
 40
0.0
 40
0.0098531835807841
 40
0.0207231996122552
 40
0.0322538881131834
 40
0.0435484830977917
 40
0.0548048190498843
 40
0.0668992065372916
 40
0.0806011300377351
 40
0.0968706314307318
 40
0.11528707998014
 40
0.1333216195801849
 40
0.1528523870904882
 40
0.1713303415378736
 40
0.1874928953450352
 40
0.2013217242453742
 40
0.2139325926640487
 40
0.2267911128420408
 40
0.2413831071003495
 40
0.2605895553584092
 40
0.2969040216615371
 40
0.3313314064140879
 40
0.3432161439799749
 40
0.3530532008275695
 40
0.361834512822067
 40
0.3731813156784968
 40
0.3869338033864473
 40
0.4011847166900501
 40
0.4126165026409778
 40
0.4229031196297756
 40
0.4337831160806188
 40
0.444889734947169
 40
0.4559863295970766
 40
0.4656354215733089
 40
0.4726513972032594
 40
0.4794329602081916
 40
0.4868311654856781
 40
0.4965901985273112
 40
0.5084922974774218
 40
0.5180456768890045
 40
0.5243062922193927
 40
0.5306197075044301
 40
0.5400947880573757
 40
0.5520441545582859
 40
0.5684014957193677
 40
0.5859335675853591
 40
0.601070754148613
 40
0.6150886680488429
 40
0.6246733256498327
 40
0.6246733256498327
 40
0.6246733256498327
 40
0.6246733256498327
 10
151.4395015328748
 20
136.6470077932018
 30
0.0
 10
151.492608950213
 20
136.6550202135076
 30
0.0
 10
151.5900133546127
 20
136.6710707058054
 30
0.0
 10
151.7800075381198
 20
136.7008528823197
 30
0.0
 10
151.9669020136764
 20
136.7253272854776
 30
0.0
 10
152.1606027357429
 20
136.7534192811395
 30
0.0
 10
152.3540894576106
 20
136.7808870157171
 30
0.0
 10
152.5620297053419
 20
136.8120028697279
 30
0.0
 10
152.7944110788752
 20
136.8458799032285
 30
0.0
 10
153.0570064924735
 20
136.8836840876551
 30
0.0
 10
153.3356665626212
 20
136.9236538879346
 30
0.0
 10
153.6227006310529
 20
136.9652850167136
 30
0.0
 10
153.8991149157212
 20
137.0059633700699
 30
0.0
 10
154.1564261662758
 20
137.0452658084687
 30
0.0
 10
154.3796373493089
 20
137.0818701640357
 30
0.0
 10
154.5698588542282
 20
137.1145122792004
 30
0.0
 10
154.7432320833981
 20
137.1456513547078
 30
0.0
 10
154.9155917488563
 20
137.1777445499283
 30
0.0
 10
155.1079159234218
 20
137.215220726754
 30
0.0
 10
155.3834305323303
 20
137.2717203542375
 30
0.0
 10
155.7103331704213
 20
137.3459409077834
 30
0.0
 10
155.9751127483812
 20
137.4150968585594
 30
0.0
 10
156.1379785298212
 20
137.4650370083314
 30
0.0
 10
156.2220832900557
 20
137.492892744298
 30
0.0
 10
156.3033155195445
 20
137.5217773765085
 30
0.0
 10
156.3927694927766
 20
137.5563374558952
 30
0.0
 10
156.4916470152747
 20
137.5990628065977
 30
0.0
 10
156.587530139604
 20
137.6466432137536
 30
0.0
 10
156.6732366668067
 20
137.6957864716545
 30
0.0
 10
156.7530671161347
 20
137.7485865798049
 30
0.0
 10
156.829432189532
 20
137.8075967785931
 30
0.0
 10
156.9115413226532
 20
137.8838654405753
 30
0.0
 10
156.9848881796733
 20
137.970534272336
 30
0.0
 10
157.0408836437923
 20
138.0548785029698
 30
0.0
 10
157.0841555153109
 20
138.1385908967331
 30
0.0
 10
157.1168718762784
 20
138.2209906766245
 30
0.0
 10
157.1444046672184
 20
138.3196324721229
 30
0.0
 10
157.1623558206385
 20
138.4465101619685
 30
0.0
 10
157.1574580004439
 20
138.5845715353431
 30
0.0
 10
157.1336028487465
 20
138.701630191993
 30
0.0
 10
157.1030284046042
 20
138.7926128164112
 30
0.0
 10
157.0675114622755
 20
138.8731285544512
 30
0.0
 10
157.0127037801199
 20
138.9682855751246
 30
0.0
 10
156.9272684884517
 20
139.0777857862593
 30
0.0
 10
156.8199294000758
 20
139.1794734700043
 30
0.0
 10
156.7016586950794
 20
139.264425845433
 30
0.0
 10
156.5867269645894
 20
139.3307337150799
 30
0.0
 10
156.492089963142
 20
139.3768981542432
 30
0.0
 10
156.4335812033514
 20
139.4024571727189
 30
0.0
 10
156.4095066184512
 20
139.4125276971546
 30
0.0
  0
SPLINE
  5
C8
330
AC
100
AcDbEntity
  8
DV2_0
 62
     7
370
    35
100
AcDbSpline
210
0.0
220
0.0
230
1.0
 70
     8
 71
     3
 72
    54
 73
    50
 74
     0
 42
0.000000001
 43
0.0000000001
 40
0.0
 40
0.0
 40
0.0
 40
0.0
 40
0.0098531835807845
 40
0.0207231996122562
 40
0.0322538881131838
 40
0.0435484830977923
 40
0.0548048190498851
 40
0.0668992065372923
 40
0.0806011300377345
 40
0.0968706314307313
 40
0.1152870799801401
 40
0.1333216195801855
 40
0.1528523870904882
 40
0.1713303415378738
 40
0.1874928953450349
 40
0.2013217242453745
 40
0.213932592664049
 40
0.2267911128420408
 40
0.2413831071003496
 40
0.2605895553584094
 40
0.2969040216615375
 40
0.3313314064140886
 40
0.3432161439799753
 40
0.3530532008275693
 40
0.3618345128220669
 40
0.3731813156784969
 40
0.3869338033864482
 40
0.4011847166900496
 40
0.4126165026409788
 40
0.4229031196297761
 40
0.4337831160806195
 40
0.4448897349471687
 40
0.4559863295970756
 40
0.4656354215733096
 40
0.472651397203259
 40
0.479432960208191
 40
0.486831165485678
 40
0.4965901985273112
 40
0.5084922974774223
 40
0.5180456768890052
 40
0.5243062922193936
 40
0.5306197075044301
 40
0.5400947880573752
 40
0.5520441545582864
 40
0.5684014957193674
 40
0.5859335675853585
 40
0.6010707541486126
 40
0.6150886680488422
 40
0.624673325649832
 40
0.624673325649832
 40
0.624673325649832
 40
0.624673325649832
 10
151.4395015328747
 20
141.0286036376714
 30
0.0
 10
151.492608950213
 20
141.0366160579772
 30
0.0
 10
151.5900133546127
 20
141.052666550275
 30
0.0
 10
151.7800075381199
 20
141.0824487267893
 30
0.0
 10
151.9669020136764
 20
141.1069231299471
 30
0.0
 10
152.1606027357429
 20
141.1350151256091
 30
0.0
 10
152.3540894576106
 20
141.1624828601866
 30
0.0
 10
152.5620297053419
 20
141.1935987141975
 30
0.0
 10
152.7944110788752
 20
141.227475747698
 30
0.0
 10
153.0570064924735
 20
141.2652799321246
 30
0.0
 10
153.3356665626212
 20
141.3052497324041
 30
0.0
 10
153.6227006310529
 20
141.3468808611831
 30
0.0
 10
153.8991149157212
 20
141.3875592145394
 30
0.0
 10
154.1564261662758
 20
141.4268616529384
 30
0.0
 10
154.3796373493088
 20
141.4634660085051
 30
0.0
 10
154.5698588542282
 20
141.4961081236702
 30
0.0
 10
154.7432320833982
 20
141.5272471991773
 30
0.0
 10
154.9155917488563
 20
141.559340394398
 30
0.0
 10
155.1079159234217
 20
141.5968165712234
 30
0.0
 10
155.3834305323303
 20
141.6533161987072
 30
0.0
 10
155.7103331704214
 20
141.7275367522528
 30
0.0
 10
155.9751127483812
 20
141.7966927030291
 30
0.0
 10
156.1379785298212
 20
141.8466328528009
 30
0.0
 10
156.2220832900557
 20
141.8744885887677
 30
0.0
 10
156.3033155195444
 20
141.903373220978
 30
0.0
 10
156.3927694927766
 20
141.9379333003648
 30
0.0
 10
156.4916470152748
 20
141.9806586510672
 30
0.0
 10
156.5875301396039
 20
142.0282390582231
 30
0.0
 10
156.6732366668067
 20
142.077382316124
 30
0.0
 10
156.7530671161347
 20
142.1301824242745
 30
0.0
 10
156.829432189532
 20
142.1891926230626
 30
0.0
 10
156.9115413226532
 20
142.2654612850449
 30
0.0
 10
156.9848881796733
 20
142.3521301168055
 30
0.0
 10
157.0408836437923
 20
142.4364743474395
 30
0.0
 10
157.084155515311
 20
142.5201867412026
 30
0.0
 10
157.1168718762784
 20
142.6025865210941
 30
0.0
 10
157.1444046672184
 20
142.7012283165924
 30
0.0
 10
157.1623558206385
 20
142.8281060064381
 30
0.0
 10
157.1574580004439
 20
142.9661673798127
 30
0.0
 10
157.1336028487466
 20
143.0832260364625
 30
0.0
 10
157.1030284046041
 20
143.1742086608807
 30
0.0
 10
157.0675114622755
 20
143.2547243989207
 30
0.0
 10
157.0127037801199
 20
143.3498814195941
 30
0.0
 10
156.9272684884518
 20
143.459381630729
 30
0.0
 10
156.8199294000758
 20
143.5610693144739
 30
0.0
 10
156.7016586950794
 20
143.6460216899025
 30
0.0
 10
156.5867269645894
 20
143.7123295595495
 30
0.0
 10
156.492089963142
 20
143.7584939987128
 30
0.0
 10
156.4335812033513
 20
143.7840530171885
 30
0.0
 10
156.4095066184512
 20
143.7941235416241
 30
0.0
  0
SPLINE
  5
C9
330
AC
100
AcDbEntity
  8
DV2_0
 62
     7
370
    35
100
AcDbSpline
210
0.0
220
0.0
230
1.0
 70
     8
 71
     3
 72
    54
 73
    50
 74
     0
 42
0.000000001
 43
0.0000000001
 40
0.0
 40
0.0
 40
0.0
 40
0.0
 40
0.0098531835807846
 40
0.0207231996122564
 40
0.0322538881131839
 40
0.0435484830977918
 40
0.0548048190498854
 40
0.0668992065372924
 40
0.0806011300377348
 40
0.0968706314307315
 40
0.1152870799801407
 40
0.1333216195801857
 40
0.1528523870904878
 40
0.1713303415378747
 40
0.1874928953450351
 40
0.2013217242453746
 40
0.2139325926640493
 40
0.2267911128420412
 40
0.24138310710035
 40
0.2605895553584098
 40
0.2969040216615378
 40
0.3313314064140888
 40
0.3432161439799749
 40
0.3530532008275697
 40
0.3618345128220684
 40
0.3731813156784972
 40
0.3869338033864486
 40
0.401184716690051
 40
0.412616502640978
 40
0.4229031196297769
 40
0.4337831160806198
 40
0.4448897349471707
 40
0.4559863295970768
 40
0.4656354215733096
 40
0.4726513972032593
 40
0.479432960208191
 40
0.4868311654856797
 40
0.4965901985273117
 40
0.5084922974774237
 40
0.5180456768890053
 40
0.5243062922193938
 40
0.5306197075044303
 40
0.5400947880573762
 40
0.5520441545582864
 40
0.5684014957193679
 40
0.585933567585359
 40
0.6010707541486129
 40
0.6150886680488431
 40
0.624673325649833
 40
0.624673325649833
 40
0.624673325649833
 40
0.624673325649833
 10
151.4395015328747
 20
145.4101994821409
 30
0.0
 10
151.492608950213
 20
145.4182119024468
 30
0.0
 10
151.5900133546127
 20
145.4342623947446
 30
0.0
 10
151.7800075381198
 20
145.4640445712588
 30
0.0
 10
151.9669020136764
 20
145.4885189744168
 30
0.0
 10
152.1606027357429
 20
145.5166109700786
 30
0.0
 10
152.3540894576106
 20
145.5440787046563
 30
0.0
 10
152.562029705342
 20
145.575194558667
 30
0.0
 10
152.7944110788752
 20
145.6090715921676
 30
0.0
 10
153.0570064924736
 20
145.6468757765942
 30
0.0
 10
153.3356665626211
 20
145.6868455768737
 30
0.0
 10
153.6227006310529
 20
145.7284767056527
 30
0.0
 10
153.8991149157212
 20
145.769155059009
 30
0.0
 10
154.1564261662759
 20
145.8084574974079
 30
0.0
 10
154.3796373493088
 20
145.8450618529748
 30
0.0
 10
154.5698588542282
 20
145.8777039681396
 30
0.0
 10
154.7432320833982
 20
145.9088430436469
 30
0.0
 10
154.9155917488563
 20
145.9409362388675
 30
0.0
 10
155.1079159234218
 20
145.978412415693
 30
0.0
 10
155.3834305323303
 20
146.0349120431769
 30
0.0
 10
155.7103331704213
 20
146.1091325967221
 30
0.0
 10
155.9751127483814
 20
146.1782885474989
 30
0.0
 10
156.1379785298211
 20
146.2282286972704
 30
0.0
 10
156.2220832900557
 20
146.2560844332372
 30
0.0
 10
156.3033155195445
 20
146.2849690654477
 30
0.0
 10
156.3927694927766
 20
146.3195291448344
 30
0.0
 10
156.4916470152747
 20
146.3622544955367
 30
0.0
 10
156.587530139604
 20
146.4098349026928
 30
0.0
 10
156.6732366668067
 20
146.4589781605935
 30
0.0
 10
156.7530671161347
 20
146.511778268744
 30
0.0
 10
156.829432189532
 20
146.5707884675323
 30
0.0
 10
156.9115413226533
 20
146.6470571295145
 30
0.0
 10
156.9848881796732
 20
146.7337259612753
 30
0.0
 10
157.0408836437924
 20
146.8180701919088
 30
0.0
 10
157.0841555153109
 20
146.9017825856724
 30
0.0
 10
157.1168718762785
 20
146.9841823655636
 30
0.0
 10
157.1444046672184
 20
147.0828241610621
 30
0.0
 10
157.1623558206385
 20
147.2097018509077
 30
0.0
 10
157.1574580004439
 20
147.3477632242823
 30
0.0
 10
157.1336028487465
 20
147.4648218809321
 30
0.0
 10
157.1030284046042
 20
147.5558045053503
 30
0.0
 10
157.0675114622755
 20
147.6363202433903
 30
0.0
 10
157.0127037801198
 20
147.7314772640636
 30
0.0
 10
156.9272684884517
 20
147.8409774751985
 30
0.0
 10
156.8199294000758
 20
147.9426651589434
 30
0.0
 10
156.7016586950793
 20
148.027617534372
 30
0.0
 10
156.5867269645894
 20
148.0939254040191
 30
0.0
 10
156.492089963142
 20
148.1400898431824
 30
0.0
 10
156.4335812033514
 20
148.1656488616581
 30
0.0
 10
156.4095066184512
 20
148.1757193860937
 30
0.0
  0
SPLINE
  5
CA
330
AC
100
AcDbEntity
  8
DV2_0
 62
     7
370
    35
100
AcDbSpline
210
0.0
220
0.0
230
1.0
 70
     8
 71
     3
 72
    54
 73
    50
 74
     0
 42
0.000000001
 43
0.0000000001
 40
0.0
 40
0.0
 40
0.0
 40
0.0
 40
0.0098531835807854
 40
0.0207231996122555
 40
0.0322538881131841
 40
0.043548483097792
 40
0.0548048190498849
 40
0.0668992065372923
 40
0.0806011300377348
 40
0.096870631430732
 40
0.1152870799801406
 40
0.1333216195801858
 40
0.1528523870904884
 40
0.1713303415378745
 40
0.187492895345036
 40
0.2013217242453751
 40
0.2139325926640487
 40
0.226791112842041
 40
0.2413831071003499
 40
0.2605895553584096
 40
0.2969040216615373
 40
0.3313314064140888
 40
0.343216143979975
 40
0.3530532008275697
 40
0.3618345128220672
 40
0.3731813156784977
 40
0.3869338033864475
 40
0.4011847166900505
 40
0.4126165026409782
 40
0.4229031196297754
 40
0.4337831160806194
 40
0.4448897349471698
 40
0.4559863295970771
 40
0.4656354215733094
 40
0.4726513972032599
 40
0.4794329602081912
 40
0.4868311654856787
 40
0.4965901985273116
 40
0.5084922974774213
 40
0.5180456768890047
 40
0.5243062922193937
 40
0.5306197075044295
 40
0.5400947880573754
 40
0.5520441545582861
 40
0.5684014957193679
 40
0.5859335675853586
 40
0.6010707541486133
 40
0.6150886680488432
 40
0.6246733256498331
 40
0.6246733256498331
 40
0.6246733256498331
 40
0.6246733256498331
 10
151.4395015328747
 20
132.2654119487322
 30
0.0
 10
151.492608950213
 20
132.2734243690381
 30
0.0
 10
151.5900133546127
 20
132.2894748613361
 30
0.0
 10
151.7800075381199
 20
132.31925703785
 30
0.0
 10
151.9669020136763
 20
132.3437314410082
 30
0.0
 10
152.1606027357429
 20
132.37182343667
 30
0.0
 10
152.3540894576105
 20
132.3992911712475
 30
0.0
 10
152.562029705342
 20
132.4304070252584
 30
0.0
 10
152.7944110788751
 20
132.4642840587588
 30
0.0
 10
153.0570064924736
 20
132.5020882431856
 30
0.0
 10
153.3356665626211
 20
132.5420580434649
 30
0.0
 10
153.6227006310529
 20
132.583689172244
 30
0.0
 10
153.8991149157212
 20
132.6243675256002
 30
0.0
 10
154.1564261662758
 20
132.6636699639992
 30
0.0
 10
154.3796373493089
 20
132.7002743195661
 30
0.0
 10
154.5698588542281
 20
132.7329164347308
 30
0.0
 10
154.7432320833982
 20
132.7640555102384
 30
0.0
 10
154.9155917488563
 20
132.7961487054587
 30
0.0
 10
155.1079159234217
 20
132.8336248822843
 30
0.0
 10
155.3834305323303
 20
132.890124509768
 30
0.0
 10
155.7103331704213
 20
132.9643450633135
 30
0.0
 10
155.9751127483813
 20
133.0335010140901
 30
0.0
 10
156.1379785298212
 20
133.0834411638617
 30
0.0
 10
156.2220832900557
 20
133.1112968998285
 30
0.0
 10
156.3033155195445
 20
133.140181532039
 30
0.0
 10
156.3927694927766
 20
133.1747416114255
 30
0.0
 10
156.4916470152748
 20
133.2174669621282
 30
0.0
 10
156.5875301396039
 20
133.2650473692839
 30
0.0
 10
156.6732366668067
 20
133.3141906271849
 30
0.0
 10
156.7530671161347
 20
133.3669907353354
 30
0.0
 10
156.829432189532
 20
133.4260009341235
 30
0.0
 10
156.9115413226533
 20
133.5022695961059
 30
0.0
 10
156.9848881796732
 20
133.5889384278664
 30
0.0
 10
157.0408836437923
 20
133.6732826585003
 30
0.0
 10
157.084155515311
 20
133.7569950522635
 30
0.0
 10
157.1168718762784
 20
133.8393948321549
 30
0.0
 10
157.1444046672184
 20
133.9380366276532
 30
0.0
 10
157.1623558206386
 20
134.064914317499
 30
0.0
 10
157.1574580004439
 20
134.2029756908735
 30
0.0
 10
157.1336028487465
 20
134.3200343475235
 30
0.0
 10
157.1030284046042
 20
134.4110169719415
 30
0.0
 10
157.0675114622755
 20
134.4915327099816
 30
0.0
 10
157.0127037801199
 20
134.5866897306549
 30
0.0
 10
156.9272684884518
 20
134.6961899417899
 30
0.0
 10
156.8199294000758
 20
134.7978776255346
 30
0.0
 10
156.7016586950794
 20
134.8828300009635
 30
0.0
 10
156.5867269645894
 20
134.9491378706104
 30
0.0
 10
156.492089963142
 20
134.9953023097736
 30
0.0
 10
156.4335812033514
 20
135.0208613282493
 30
0.0
 10
156.4095066184512
 20
135.030931852685
 30
0.0
  0
SPLINE
  5
CB
330
AC
100
AcDbEntity
  8
DV2_0
 62
     7
370
    35
100
AcDbSpline
210
0.0
220
0.0
230
1.0
 70
     8
 71
     3
 72
    54
 73
    50
 74
     0
 42
0.000000001
 43
0.0000000001
 40
0.0
 40
0.0
 40
0.0
 40
0.0
 40
0.0098531835807577
 40
0.0207231996122152
 40
0.0322538881131448
 40
0.0435484830977536
 40
0.0548048190498488
 40
0.0668992065372582
 40
0.0806011300377033
 40
0.0968706314307014
 40
0.1152870799801098
 40
0.1333216195801529
 40
0.1528523870904552
 40
0.1713303415378392
 40
0.1874928953450003
 40
0.2013217242453401
 40
0.2139325926640143
 40
0.2267911128420069
 40
0.241383107100316
 40
0.2605895553583763
 40
0.2969040216615054
 40
0.3313314064140583
 40
0.3432161439799446
 40
0.3530532008275407
 40
0.3618345128220345
 40
0.3731813156784482
 40
0.3869338033863785
 40
0.4011847166899717
 40
0.4126165026408957
 40
0.422903119629692
 40
0.4337831160805362
 40
0.4448897349470869
 40
0.4559863295969956
 40
0.4656354215732481
 40
0.4726513972032335
 40
0.4794329602081626
 40
0.4868311654856148
 40
0.4965901985272316
 40
0.5084922974773426
 40
0.5180456768889257
 40
0.5243062922193124
 40
0.5306197075043486
 40
0.5400947880572938
 40
0.5520441545582245
 40
0.5684014957193425
 40
0.5859335675853403
 40
0.6010707541485933
 40
0.615088668048822
 40
0.6246733256497564
 40
0.6246733256497564
 40
0.6246733256497564
 40
0.6246733256497564
 10
151.3788171459716
 20
138.1387316397493
 30
0.0
 10
151.3257097286336
 20
138.1307192194435
 30
0.0
 10
151.2283053242341
 20
138.1146687271456
 30
0.0
 10
151.0383111407272
 20
138.0848865506316
 30
0.0
 10
150.8514166651707
 20
138.0604121474736
 30
0.0
 10
150.6577159431043
 20
138.0323201518116
 30
0.0
 10
150.4642292212365
 20
138.0048524172342
 30
0.0
 10
150.2562889735051
 20
137.9737365632234
 30
0.0
 10
150.0239075999718
 20
137.9398595297227
 30
0.0
 10
149.7613121863735
 20
137.9020553452962
 30
0.0
 10
149.4826521162259
 20
137.8620855450166
 30
0.0
 10
149.1956180477943
 20
137.8204544162377
 30
0.0
 10
148.919203763126
 20
137.7797760628814
 30
0.0
 10
148.6618925125713
 20
137.7404736244824
 30
0.0
 10
148.4386813295385
 20
137.7038692689157
 30
0.0
 10
148.2484598246191
 20
137.6712271537507
 30
0.0
 10
148.0750865954492
 20
137.6400880782433
 30
0.0
 10
147.9027269299911
 20
137.6079948830229
 30
0.0
 10
147.7104027554256
 20
137.5705187061972
 30
0.0
 10
147.4348881465171
 20
137.5140190787136
 30
0.0
 10
147.1079855084262
 20
137.4397985251681
 30
0.0
 10
146.8432059304663
 20
137.3706425743916
 30
0.0
 10
146.6803401490264
 20
137.3207024246199
 30
0.0
 10
146.5962353887919
 20
137.2928466886531
 30
0.0
 10
146.5150031593032
 20
137.2639620564427
 30
0.0
 10
146.4255491860712
 20
137.2294019770561
 30
0.0
 10
146.3266716635731
 20
137.1866766263535
 30
0.0
 10
146.2307885392441
 20
137.1390962191978
 30
0.0
 10
146.1450820120413
 20
137.0899529612968
 30
0.0
 10
146.0652515627133
 20
137.0371528531465
 30
0.0
 10
145.988886489316
 20
136.9781426543582
 30
0.0
 10
145.9067773561948
 20
136.9018739923761
 30
0.0
 10
145.8334304991747
 20
136.8152051606151
 30
0.0
 10
145.7774350350556
 20
136.7308609299813
 30
0.0
 10
145.7341631635368
 20
136.6471485362178
 30
0.0
 10
145.7014468025694
 20
136.5647487563263
 30
0.0
 10
145.6739140116296
 20
136.4661069608282
 30
0.0
 10
145.6559628582094
 20
136.3392292709827
 30
0.0
 10
145.6608606784041
 20
136.2011678976082
 30
0.0
 10
145.6847158301015
 20
136.0841092409584
 30
0.0
 10
145.7152902742439
 20
135.9931266165402
 30
0.0
 10
145.7508072165725
 20
135.9126108785001
 30
0.0
 10
145.8056148987282
 20
135.8174538578268
 30
0.0
 10
145.8910501903964
 20
135.7079536466918
 30
0.0
 10
145.9983892787724
 20
135.6062659629468
 30
0.0
 10
146.1166599837692
 20
135.5213135875181
 30
0.0
 10
146.231591714259
 20
135.4550057178712
 30
0.0
 10
146.3262287157063
 20
135.4088412787079
 30
0.0
 10
146.3847374754968
 20
135.3832822602323
 30
0.0
 10
146.4088120603969
 20
135.3732117357968
 30
0.0
  0
LINE
  5
CC
330
AC
100
AcDbEntity
  8
DV2_0
 62
     7
370
    35
100
AcDbLine
 10
145.409159339424
 20
151.5112738720061
 30
0.0
 11
145.409159339424
 21
150.5112738720061
 31
0.0
  0
LINE
  5
CD
330
AC
100
AcDbEntity
  8
DV2_0
 62
     7
370
    35
100
AcDbLine
 10
157.409159339424
 20
150.5112738720061
 30
0.0
 11
157.409159339424
 21
151.5112738720061
 31
0.0
  0
LINE
  5
CE
330
AC
100
AcDbEntity
  8
DV2_0
 62
     7
370
    35
100
AcDbLine
 10
156.409159339424
 20
148.0014603665322
 30
0.0
 11
156.409159339424
 21
150.5112738720061
 31
0.0
  0
LINE
  5
CF
330
AC
100
AcDbEntity
  8
DV2_0
 62
     7
370
    35
100
AcDbLine
 10
156.409159339424
 20
143.6198645220626
 30
0.0
 11
156.409159339424
 21
146.327330891333
 31
0.0
  0
LINE
  5
D0
330
AC
100
AcDbEntity
  8
DV2_0
 62
     7
370
    35
100
AcDbLine
 10
156.409159339424
 20
139.238268677593
 30
0.0
 11
156.409159339424
 21
141.9457350468633
 31
0.0
  0
LINE
  5
D1
330
AC
100
AcDbEntity
  8
DV2_0
 62
     7
370
    35
100
AcDbLine
 10
156.409159339424
 20
134.8566728331235
 30
0.0
 11
156.409159339424
 21
137.5641392023938
 31
0.0
  0
LINE
  5
D2
330
AC
100
AcDbEntity
  8
DV2_0
 62
     7
370
    35
100
AcDbLine
 10
156.409159339424
 20
131.5112738720061
 30
0.0
 11
156.409159339424
 21
133.1825433579242
 31
0.0
  0
LINE
  5
D3
330
AC
100
AcDbEntity
  8
DV2_0
 62
     7
370
    35
100
AcDbLine
 10
146.409159339424
 20
135.5474707553583
 30
0.0
 11
146.409159339424
 21
131.5112738720061
 31
0.0
  0
LINE
  5
D4
330
AC
100
AcDbEntity
  8
DV2_0
 62
     7
370
    35
100
AcDbLine
 10
146.409159339424
 20
139.9290665998278
 30
0.0
 11
146.409159339424
 21
137.2216002305576
 31
0.0
  0
LINE
  5
D5
330
AC
100
AcDbEntity
  8
DV2_0
 62
     7
370
    35
100
AcDbLine
 10
146.409159339424
 20
144.3106624442974
 30
0.0
 11
146.409159339424
 21
141.6031960750271
 31
0.0
  0
LINE
  5
D6
330
AC
100
AcDbEntity
  8
DV2_0
 62
     7
370
    35
100
AcDbLine
 10
146.409159339424
 20
148.692258288767
 30
0.0
 11
146.409159339424
 21
145.9847919194967
 31
0.0
  0
LINE
  5
D7
330
AC
100
AcDbEntity
  8
DV2_0
 62
     7
370
    35
100
AcDbLine
 10
146.409159339424
 20
150.5112738720061
 30
0.0
 11
146.409159339424
 21
150.3663877639663
 31
0.0
  0
ARC
  5
D8
330
AC
100
AcDbEntity
  8
DV2_0
 62
     7
370
    35
100
AcDbCircle
 10
157.409159339424
 20
152.5112738720061
 30
0.0
 40
1.000000000000001
100
AcDbArc
 50
180.0
 51
270.0
  0
ARC
  5
D9
330
AC
100
AcDbEntity
  8
DV2_0
 62
     7
370
    35
100
AcDbCircle
 10
145.409159339424
 20
152.5112738720061
 30
0.0
 40
1.000000000000001
100
AcDbArc
 50
270.0
 51
0.0
  0
LINE
  5
DA
330
AC
100
AcDbEntity
  8
DV2_0
 62
     7
370
    35
100
AcDbLine
 10
156.239159339424
 20
219.1240692362075
 30
0.0
 11
146.579159339424
 21
219.1240692362075
 31
0.0
  0
LINE
  5
DB
330
AC
100
AcDbEntity
  8
DV2_0
 62
     7
370
    35
100
AcDbLine
 10
146.809159339424
 20
231.5109997020265
 30
0.0
 11
156.009159339424
 21
231.5109997020265
 31
0.0
  0
LINE
  5
DC
330
AC
100
AcDbEntity
  8
DV2_0
 62
     7
370
    25
100
AcDbLine
 10
156.409159339424
 20
231.1109997020265
 30
0.0
 11
146.409159339424
 21
231.1109997020265
 31
0.0
  0
LINE
  5
DD
330
AC
100
AcDbEntity
  8
DV2_0
 62
     7
370
    25
100
AcDbLine
 10
156.409159339424
 20
219.5216871432489
 30
0.0
 11
146.4091593394241
 21
219.5216871432489
 31
0.0
  0
LINE
  5
DE
330
AC
100
AcDbEntity
  8
DV2_0
 62
     7
370
    35
100
AcDbLine
 10
156.239159339424
 20
216.6244785078048
 30
0.0
 11
156.239159339424
 21
219.1240692362075
 31
0.0
  0
LINE
  5
DF
330
AC
100
AcDbEntity
  8
DV2_0
 62
     7
370
    35
100
AcDbLine
 10
146.579159339424
 20
219.1240692362075
 30
0.0
 11
146.579159339424
 21
216.6244785078048
 31
0.0
  0
ARC
  5
E0
330
AC
100
AcDbEntity
  8
DV2_0
 62
     7
370
    35
100
AcDbCircle
 10
156.009159339424
 20
231.1109997020265
 30
0.0
 40
0.4000000000000004
100
AcDbArc
 50
0.0
 51
90.0
  0
ARC
  5
E1
330
AC
100
AcDbEntity
  8
DV2_0
 62
     7
370
    35
100
AcDbCircle
 10
146.809159339424
 20
231.1109997020265
 30
0.0
 40
0.4000000000000004
100
AcDbArc
 50
90.0
 51
180.0
  0
LINE
  5
E2
330
AC
100
AcDbEntity
  8
DV2_0
 62
     7
370
    35
100
AcDbLine
 10
146.409159339424
 20
231.1109997020265
 30
0.0
 11
146.409159339424
 21
219.521687143249
 31
0.0
  0
LINE
  5
E3
330
AC
100
AcDbEntity
  8
DV2_0
 62
     7
370
    35
100
AcDbLine
 10
156.409159339424
 20
219.5216871432489
 30
0.0
 11
156.409159339424
 21
231.1109997020264
 31
0.0
  0
ARC
  5
E4
330
AC
100
AcDbEntity
  8
DV2_0
 62
     7
370
    35
100
AcDbCircle
 10
155.859159339424
 20
219.5216871432489
 30
0.0
 40
0.550000000000001
100
AcDbArc
 50
313.7021144373535
 51
0.0
  0
ARC
  5
E5
330
AC
100
AcDbEntity
  8
DV2_0
 62
     7
370
    35
100
AcDbCircle
 10
146.959159339424
 20
219.5216871432489
 30
0.0
 40
0.5500000000000005
100
AcDbArc
 50
180.0
 51
226.2978855626402
  0
ENDBLK
  5
E7
330
AC
100
AcDbEntity
  8
0
100
AcDbBlockEnd
  0
BLOCK
  5
EE
330
E8
100
AcDbEntity
  8
0
100
AcDbBlockBegin
  2
SE2
 70
     0
 10
0.0
 20
0.0
 30
0.0
  3
SE2
  1

  0
CIRCLE
  5
EB
330
E8
100
AcDbEntity
  8
DV3_0
 62
     7
370
    35
100
AcDbCircle
 10
64.78372060420853
 20
75.21608105386679
 30
0.0
 40
6.0
  0
CIRCLE
  5
EC
330
E8
100
AcDbEntity
  8
DV3_0
 62
     7
370
    35
100
AcDbCircle
 10
64.78372060420853
 20
75.21608105386674
 30
0.0
 40
5.000000000000001
  0
CIRCLE
  5
ED
330
E8
100
AcDbEntity
  8
DV3_0
 62
     7
370
    35
100
AcDbCircle
 10
64.78372060420853
 20
75.21608105386674
 30
0.0
 40
4.500000000000001
  0
ENDBLK
  5
EF
330
E8
100
AcDbEntity
  8
0
100
AcDbBlockEnd
  0
BLOCK
  5
123
330
F0
100
AcDbEntity
  8
0
100
AcDbBlockBegin
  2
SE3
 70
     0
 10
0.0
 20
0.0
 30
0.0
  3
SE3
  1

  0
ELLIPSE
  5
F3
330
F0
100
AcDbEntity
  8
DV4_0
 62
     7
370
    25
100
AcDbEllipse
 10
150.6263993508791
 20
93.55185234068733
 30
0.0
 11
5.000000000000003
 21
-2.255140518769850E-15
 31
0.0
210
0.0
220
0.0
230
1.0
 40
0.5773502691896256
 41
3.141542294516426
 42
6.282774666072028
  0
ELLIPSE
  5
F4
330
F0
100
AcDbEntity
  8
DV4_0
 62
     7
370
    35
100
AcDbEllipse
 10
150.6263993508791
 20
41.52829362485299
 30
0.0
 11
4.999999999999999
 21
5.204170427930422E-16
 31
0.0
210
0.0
220
0.0
230
1.0
 40
0.5773502691896251
 41
3.141592653589793
 42
6.283185307179586
  0
LINE
  5
F5
330
F0
100
AcDbEntity
  8
DV4_0
 62
     7
370
    35
100
AcDbLine
 10
155.6263993508791
 20
41.52829362485299
 30
0.0
 11
155.6263993508791
 21
93.55185234068733
 31
0.0
  0
LINE
  5
F6
330
F0
100
AcDbEntity
  8
DV4_0
 62
     7
370
    35
100
AcDbLine
 10
145.6263993508791
 20
93.55185234068733
 30
0.0
 11
145.6263993508791
 21
41.52829362485299
 31
0.0
  0
SPLINE
  5
F7
330
F0
100
AcDbEntity
  8
DV4_0
 62
     7
370
    35
100
AcDbSpline
210
0.0
220
0.0
230
1.0
 70
     8
 71
     3
 72
    13
 73
     9
 74
     0
 42
0.000000001
 43
0.0000000001
 40
0.0
 40
0.0
 40
0.0
 40
0.0
 40
0.0068877828003358
 40
0.0217089036305818
 40
0.0365322443743478
 40
0.0513961446221645
 40
0.0663370234770113
 40
0.078670236814826
 40
0.078670236814826
 40
0.078670236814826
 40
0.078670236814826
 10
155.6248655020272
 20
93.55041150092653
 30
0.0
 10
155.6252923135723
 20
93.57734714143517
 30
0.0
 10
155.626232100679
 20
93.64957053928357
 30
0.0
 10
155.6150282510035
 20
93.78265456532426
 30
0.0
 10
155.5915842049322
 20
93.93850887265955
 30
0.0
 10
155.555394065925
 20
94.09445649995266
 30
0.0
 10
155.5102558332519
 20
94.2391241672608
 30
0.0
 10
155.474623402901
 20
94.33120257959895
 30
0.0
 10
155.457241935693
 20
94.3724673082101
 30
0.0
  0
SPLINE
  5
F8
330
F0
100
AcDbEntity
  8
DV4_0
 62
     7
370
    35
100
AcDbSpline
210
0.0
220
0.0
230
1.0
 70
     8
 71
     3
 72
    13
 73
     9
 74
     0
 42
0.000000001
 43
0.0000000001
 40
0.9212956292053699
 40
0.9212956292053699
 40
0.9212956292053699
 40
0.9212956292053699
 40
0.9365474274426053
 40
0.9517893470236325
 40
0.9668833507700773
 40
0.9818562310787137
 40
0.9967409373867309
 40
1.0
 40
1.0
 40
1.0
 40
1.0
 10
145.7963390726116
 20
94.37432232552113
 30
0.0
 10
145.7747969441515
 20
94.32330654366226
 30
0.0
 10
145.7355990429564
 20
94.22015531653136
 30
0.0
 10
145.6890872395127
 20
94.06314547159343
 30
0.0
 10
145.6548412123647
 20
93.90433059894275
 30
0.0
 10
145.6341950055101
 20
93.74683128636875
 30
0.0
 10
145.6254241523879
 20
93.62551673496897
 30
0.0
 10
145.6270883718132
 20
93.56476431956676
 30
0.0
 10
145.6274543909466
 20
93.55202299559537
 30
0.0
  0
ELLIPSE
  5
F9
330
F0
100
AcDbEntity
  8
DV4_0
 62
     7
370
    35
100
AcDbEllipse
 10
147.0908654449463
 20
23.56536884444301
 30
0.0
 11
0.374999999999989
 21
0.6495190528383291
 31
0.0
210
0.0
220
0.0
230
1.0
 40
0.5773502691896322
 41
0.7853981633974634
 42
3.20879817982861
  0
SPLINE
  5
FA
330
F0
100
AcDbEntity
  8
DV4_0
 62
     7
370
    35
100
AcDbSpline
210
0.0
220
0.0
230
1.0
 70
    12
 71
     2
 72
    14
 73
    11
 74
     0
 42
0.000000001
 43
0.0000000001
 40
0.0
 40
0.0
 40
0.0
 40
0.0218003456288767
 40
0.0218003456288767
 40
0.0436006912577535
 40
0.0436006912577535
 40
0.0654010368866302
 40
0.0654010368866302
 40
0.0872013825155069
 40
0.0872013825155069
 40
0.0981015553299454
 40
0.0981015553299454
 40
0.0981015553299454
 10
147.0908654449463
 20
24.1777412801388
 30
0.0
 41
1.0
 10
148.0382088998539
 20
23.7798571991836
 30
0.0
 41
0.9659258262890683
 10
149.3323041253665
 20
23.72872488883346
 30
0.0
 41
1.0
 10
150.6263993508791
 20
23.67759257848333
 30
0.0
 41
0.9659258262890683
 10
151.9204945763917
 20
24.02685472433486
 30
0.0
 41
1.0
 10
153.2145898019043
 20
24.37611687018636
 30
0.0
 41
0.9659258262890683
 10
154.1619332568118
 20
25.07213078664293
 30
0.0
 41
1.0
 10
155.1092767117193
 20
25.76814470309952
 30
0.0
 41
0.9659258262890683
 10
155.4560284823244
 20
26.66435584765692
 30
0.0
 41
1.0
 10
155.6263993508791
 20
27.10469468382256
 30
0.0
 41
0.9829629131445341
 10
155.6263993508791
 20
27.56056699221433
 30
0.0
 41
0.9829629131445342
  0
SPLINE
  5
FB
330
F0
100
AcDbEntity
  8
DV4_0
 62
     7
370
    35
100
AcDbSpline
210
0.0
220
0.0
230
1.0
 70
    12
 71
     2
 72
    18
 73
    15
 74
     0
 42
0.000000001
 43
0.0000000001
 40
0.2289036291032057
 40
0.2289036291032057
 40
0.2289036291032057
 40
0.2398038019176441
 40
0.2398038019176441
 40
0.2616041475465208
 40
0.2616041475465208
 40
0.2834044931753975
 40
0.2834044931753975
 40
0.3052048388042743
 40
0.3052048388042743
 40
0.327005184433151
 40
0.327005184433151
 40
0.3488055300620277
 40
0.3488055300620277
 40
0.3597057028764661
 40
0.3597057028764661
 40
0.3597057028764661
 10
145.6263993508791
 20
29.34934600522259
 30
0.0
 41
0.9829629131445341
 10
145.6263993508791
 20
29.04512226439866
 30
0.0
 41
0.9829629131445341
 10
145.7967702194337
 20
28.75126469616657
 30
0.0
 41
1.0
 10
146.1435219900388
 20
28.15318338711056
 30
0.0
 41
0.9659258262890683
 10
147.0908654449463
 20
27.75529930615533
 30
0.0
 41
1.0
 10
148.0382088998539
 20
27.35741522520014
 30
0.0
 41
0.9659258262890683
 10
149.3323041253665
 20
27.30628291485001
 30
0.0
 41
1.0
 10
150.6263993508791
 20
27.25515060449989
 30
0.0
 41
0.9659258262890683
 10
151.9204945763917
 20
27.60441275035138
 30
0.0
 41
1.0
 10
153.2145898019043
 20
27.95367489620289
 30
0.0
 41
0.9659258262890683
 10
154.1619332568118
 20
28.64968881265949
 30
0.0
 41
1.0
 10
155.1092767117193
 20
29.34570272911605
 30
0.0
 41
0.9659258262890683
 10
155.4560284823244
 20
30.24191387367345
 30
0.0
 41
1.0
 10
155.6263993508791
 20
30.68225270983908
 30
0.0
 41
0.9829629131445341
 10
155.6263993508791
 20
31.13812501823086
 30
0.0
 41
0.9829629131445342
  0
SPLINE
  5
FC
330
F0
100
AcDbEntity
  8
DV4_0
 62
     7
370
    35
100
AcDbSpline
210
0.0
220
0.0
230
1.0
 70
    12
 71
     2
 72
    18
 73
    15
 74
     0
 42
0.000000001
 43
0.0000000001
 40
0.4905077766497266
 40
0.4905077766497266
 40
0.4905077766497266
 40
0.5014079494641649
 40
0.5014079494641649
 40
0.5232082950930416
 40
0.5232082950930416
 40
0.5450086407219183
 40
0.5450086407219183
 40
0.566808986350795
 40
0.566808986350795
 40
0.5886093319796718
 40
0.5886093319796718
 40
0.6104096776085486
 40
0.6104096776085486
 40
0.6213098504229869
 40
0.6213098504229869
 40
0.6213098504229869
 10
145.6263993508791
 20
32.92690403123914
 30
0.0
 41
0.9829629131445342
 10
145.6263993508791
 20
32.6226802904152
 30
0.0
 41
0.9829629131445342
 10
145.7967702194337
 20
32.32882272218311
 30
0.0
 41
1.0
 10
146.1435219900388
 20
31.7307414131271
 30
0.0
 41
0.9659258262890683
 10
147.0908654449463
 20
31.33285733217188
 30
0.0
 41
1.0
 10
148.0382088998539
 20
30.93497325121668
 30
0.0
 41
0.9659258262890683
 10
149.3323041253665
 20
30.88384094086655
 30
0.0
 41
1.0
 10
150.6263993508791
 20
30.83270863051642
 30
0.0
 41
0.9659258262890683
 10
151.9204945763917
 20
31.18197077636791
 30
0.0
 41
1.0
 10
153.2145898019043
 20
31.53123292221942
 30
0.0
 41
0.9659258262890683
 10
154.1619332568118
 20
32.227246838676
 30
0.0
 41
1.0
 10
155.1092767117193
 20
32.9232607551326
 30
0.0
 41
0.9659258262890683
 10
155.4560284823244
 20
33.81947189968999
 30
0.0
 41
1.0
 10
155.6263993508791
 20
34.25981073585562
 30
0.0
 41
0.9829629131445341
 10
155.6263993508791
 20
34.71568304424739
 30
0.0
 41
0.9829629131445341
  0
SPLINE
  5
FD
330
F0
100
AcDbEntity
  8
DV4_0
 62
     7
370
    35
100
AcDbSpline
210
0.0
220
0.0
230
1.0
 70
    12
 71
     2
 72
    18
 73
    15
 74
     0
 42
0.000000001
 43
0.0000000001
 40
0.7521119241962474
 40
0.7521119241962474
 40
0.7521119241962474
 40
0.7630120970106856
 40
0.7630120970106856
 40
0.7848124426395624
 40
0.7848124426395624
 40
0.8066127882684392
 40
0.8066127882684392
 40
0.8284131338973159
 40
0.8284131338973159
 40
0.8502134795261926
 40
0.8502134795261926
 40
0.8720138251550693
 40
0.8720138251550693
 40
0.8789375792790752
 40
0.8789375792790752
 40
0.8789375792790752
 10
145.6263993508791
 20
36.50446205725566
 30
0.0
 41
0.9829629131445342
 10
145.6263993508791
 20
36.20023831643175
 30
0.0
 41
0.9829629131445343
 10
145.7967702194337
 20
35.90638074819966
 30
0.0
 41
1.0
 10
146.1435219900388
 20
35.30829943914364
 30
0.0
 41
0.9659258262890683
 10
147.0908654449463
 20
34.91041535818842
 30
0.0
 41
1.0
 10
148.0382088998539
 20
34.51253127723322
 30
0.0
 41
0.9659258262890683
 10
149.3323041253665
 20
34.46139896688309
 30
0.0
 41
1.0
 10
150.6263993508791
 20
34.41026665653296
 30
0.0
 41
0.9659258262890683
 10
151.9204945763917
 20
34.75952880238447
 30
0.0
 41
1.0
 10
153.2145898019043
 20
35.10879094823598
 30
0.0
 41
0.9659258262890683
 10
154.1619332568118
 20
35.80480486469254
 30
0.0
 41
1.0
 10
155.1092767117193
 20
36.50081878114913
 30
0.0
 41
0.9659258262890683
 10
155.4560284823244
 20
37.39702992570653
 30
0.0
 41
1.0
 10
155.5635675411747
 20
37.674974297407
 30
0.0
 41
0.9891780981471846
 10
155.6033862546591
 20
37.96139908495971
 30
0.0
 41
0.9852302329595282
  0
ELLIPSE
  5
FE
330
F0
100
AcDbEntity
  8
DV4_0
 62
     7
370
    35
100
AcDbEllipse
 10
147.0908654449463
 20
37.87560094850917
 30
0.0
 11
0.3749999999999973
 21
0.6495190528383249
 31
0.0
210
0.0
220
0.0
230
1.0
 40
0.5773502691896183
 41
2.854317524150637
 42
3.508409887684572
  0
ELLIPSE
  5
FF
330
F0
100
AcDbEntity
  8
DV4_0
 62
     7
370
    35
100
AcDbEllipse
 10
150.6263993508791
 20
40.71179704392526
 30
0.0
 11
-6.0
 21
-7.285838599102590E-15
 31
0.0
210
0.0
220
0.0
230
1.0
 40
0.577350269189626
 41
0.000000000000002
 42
3.727278197046943
  0
ELLIPSE
  5
100
330
F0
100
AcDbEntity
  8
DV4_0
 62
     7
370
    35
100
AcDbEllipse
 10
150.6263993508791
 20
40.71179704392526
 30
0.0
 11
-6.0
 21
-7.285838599102590E-15
 31
0.0
210
0.0
220
0.0
230
1.0
 40
0.577350269189626
 41
5.697499763722434
 42
6.283185307179586
  0
ELLIPSE
  5
101
330
F0
100
AcDbEntity
  8
DV4_0
 62
     7
370
    35
100
AcDbEllipse
 10
150.6263993508791
 20
39.89530046299754
 30
0.0
 11
6.000000000000002
 21
-6.938893903907228E-16
 31
0.0
210
0.0
220
0.0
230
1.0
 40
0.5773502691896254
 41
3.141592653589793
 42
6.283185307179586
  0
ELLIPSE
  5
102
330
F0
100
AcDbEntity
  8
DV4_0
 62
     7
370
    35
100
AcDbEllipse
 10
150.6263993508791
 20
24.38186542537074
 30
0.0
 11
-4.999999999999996
 21
-2.775557561562891E-15
 31
0.0
210
0.0
220
0.0
230
1.0
 40
0.5773502691896265
 41
0.0000000000000003
 42
3.141592653589785
  0
ELLIPSE
  5
103
330
F0
100
AcDbEntity
  8
DV4_0
 62
     7
370
    35
100
AcDbEllipse
 10
150.6263993508791
 20
41.52829362485302
 30
0.0
 11
5.0
 21
8.673617379884035E-16
 31
0.0
210
0.0
220
0.0
230
1.0
 40
0.5773502691896256
 41
3.141565017390703
 42
6.28300745724284
  0
SPLINE
  5
104
330
F0
100
AcDbEntity
  8
DV4_0
 62
     7
370
    35
100
AcDbSpline
210
0.0
220
0.0
230
1.0
 70
     8
 71
     3
 72
    40
 73
    36
 74
     0
 42
0.000000001
 43
0.0000000001
 40
0.0
 40
0.0
 40
0.0
 40
0.0
 40
0.0181030818917501
 40
0.03137232963607
 40
0.0384908330938334
 40
0.0425121172487168
 40
0.0490246350944032
 40
0.0627983730984471
 40
0.0819557403071719
 40
0.1054335236506422
 40
0.1259758528433508
 40
0.1418071226386018
 40
0.1529890157148721
 40
0.1628759065142028
 40
0.1750707871431871
 40
0.1907738658008397
 40
0.2075033446795677
 40
0.2237752560468479
 40
0.2392228776853763
 40
0.2474555264458874
 40
0.2533849388366614
 40
0.2604624294653104
 40
0.2727290117790251
 40
0.2855297959114663
 40
0.2965965707817343
 40
0.3048817656813261
 40
0.314900338037456
 40
0.3329963796309782
 40
0.3544500628184072
 40
0.3741016285782452
 40
0.3873434225674587
 40
0.3996722118684806
 40
0.4117891459185983
 40
0.4253586839078179
 40
0.442344075724077
 40
0.442344075724077
 40
0.442344075724077
 40
0.442344075724077
 10
146.7419463259256
 20
26.48031248404269
 30
0.0
 10
146.9150724260164
 20
26.40791464922459
 30
0.0
 10
147.1667489686758
 20
26.31011438733207
 30
0.0
 10
147.561236481909
 20
26.19642058770028
 30
0.0
 10
147.8003384533228
 20
26.13980089354767
 30
0.0
 10
147.9851856189516
 20
26.10041633671155
 30
0.0
 10
148.2359298153095
 20
26.05312337943122
 30
0.0
 10
148.6585581870166
 20
25.991615206955
 30
0.0
 10
149.286300083808
 20
25.93969694233238
 30
0.0
 10
150.0158127659677
 20
25.93898679241489
 30
0.0
 10
150.7164855900172
 20
25.99753759484391
 30
0.0
 10
151.2718415936867
 20
26.08107863023701
 30
0.0
 10
151.6981663697787
 20
26.16723160174213
 30
0.0
 10
152.078173837083
 20
26.2590606662086
 30
0.0
 10
152.5027701376416
 20
26.38141654551533
 30
0.0
 10
152.9899862856464
 20
26.55293678014223
 30
0.0
 10
153.4986856182224
 20
26.77237751454729
 30
0.0
 10
153.9767763439812
 20
27.0217021170352
 30
0.0
 10
154.345226364683
 20
27.25041665781139
 30
0.0
 10
154.6019632549868
 20
27.43154160984581
 30
0.0
 10
154.7789924027476
 20
27.56692166371336
 30
0.0
 10
154.9820318731215
 20
27.73453093422829
 30
0.0
 10
155.2231176885138
 20
27.95766918175905
 30
0.0
 10
155.4692371097743
 20
28.22375269541453
 30
0.0
 10
155.6648918564213
 20
28.47167621329559
 30
0.0
 10
155.8257997040104
 20
28.70622395728987
 30
0.0
 10
156.0029491329932
 20
29.00494762268458
 30
0.0
 10
156.1969791643122
 20
29.42861186689678
 30
0.0
 10
156.3416391191276
 20
29.95643427898066
 30
0.0
 10
156.3866519316726
 20
30.45541075836821
 30
0.0
 10
156.3641511233881
 20
30.86904261433616
 30
0.0
 10
156.3070788706205
 20
31.2108796127681
 30
0.0
 10
156.2136979039167
 20
31.54921234275887
 30
0.0
 10
156.0660586408601
 20
31.92167928031916
 30
0.0
 10
155.9283658890285
 20
32.17596007749363
 30
0.0
 10
155.842248598831
 20
32.31377393120401
 30
0.0
  0
SPLINE
  5
105
330
F0
100
AcDbEntity
  8
DV4_0
 62
     7
370
    35
100
AcDbSpline
210
0.0
220
0.0
230
1.0
 70
     8
 71
     3
 72
    25
 73
    21
 74
     0
 42
0.000000001
 43
0.0000000001
 40
0.7992300896359161
 40
0.7992300896359161
 40
0.7992300896359161
 40
0.7992300896359161
 40
0.8185099320741351
 40
0.8335719821102183
 40
0.8429482437051877
 40
0.8528957684009489
 40
0.8600830884198373
 40
0.8691398325532913
 40
0.8792639745035747
 40
0.8847390833975285
 40
0.8911392925912516
 40
0.903848490631411
 40
0.9145068144835075
 40
0.9280342001969654
 40
0.9396326525484229
 40
0.9492564449852208
 40
0.9563372531372109
 40
0.9669827847398642
 40
0.981598121981899
 40
1.0
 40
1.0
 40
1.0
 40
1.0
 10
145.6260779572876
 20
33.87208063689445
 30
0.0
 10
145.5090398158017
 20
33.76459914616623
 30
0.0
 10
145.3194463842052
 20
33.55951354117067
 30
0.0
 10
145.1306391904695
 20
33.26972522485821
 30
0.0
 10
145.0147260392386
 20
33.02613148543261
 30
0.0
 10
144.9474256875519
 20
32.83147038166531
 30
0.0
 10
144.9016236618707
 20
32.63482799462898
 30
0.0
 10
144.8755695360437
 20
32.43152219680805
 30
0.0
 10
144.874808541642
 20
32.24055629209409
 30
0.0
 10
144.8911110572259
 20
32.07079633810413
 30
0.0
 10
144.9233083494208
 20
31.88423335483898
 30
0.0
 10
144.9894095933293
 20
31.66191300310489
 30
0.0
 10
145.1087066187739
 20
31.39980297631865
 30
0.0
 10
145.2575461753996
 20
31.16062144259902
 30
0.0
 10
145.4360656937693
 20
30.94285338101131
 30
0.0
 10
145.5970039832533
 20
30.78047270394416
 30
0.0
 10
145.769384054062
 20
30.63040455829519
 30
0.0
 10
145.9780391995382
 20
30.47087522849137
 30
0.0
 10
146.3157474121525
 20
30.25786472779491
 30
0.0
 10
146.5666886277169
 20
30.13665476489573
 30
0.0
 10
146.7419463259256
 20
30.05787051005922
 30
0.0
  0
SPLINE
  5
106
330
F0
100
AcDbEntity
  8
DV4_0
 62
     7
370
    35
100
AcDbSpline
210
0.0
220
0.0
230
1.0
 70
     8
 71
     3
 72
    40
 73
    36
 74
     0
 42
0.000000001
 43
0.0000000001
 40
0.0
 40
0.0
 40
0.0
 40
0.0
 40
0.0181030818917495
 40
0.0313723296360702
 40
0.0384908330938329
 40
0.0425121172487169
 40
0.049024635094403
 40
0.0627983730984466
 40
0.0819557403071714
 40
0.1054335236506418
 40
0.1259758528433507
 40
0.1418071226386018
 40
0.1529890157148719
 40
0.162875906514203
 40
0.1750707871431874
 40
0.19077386580084
 40
0.207503344679568
 40
0.223775256046848
 40
0.2392228776853766
 40
0.2474555264458876
 40
0.2533849388366611
 40
0.2604624294653105
 40
0.2727290117790251
 40
0.2855297959114665
 40
0.2965965707817343
 40
0.3048817656813262
 40
0.3149003380374559
 40
0.3329963796309786
 40
0.3544500628184074
 40
0.3741016285782456
 40
0.3873434225674589
 40
0.3996722118684809
 40
0.4117891459185988
 40
0.4253586839078183
 40
0.4423440757240776
 40
0.4423440757240776
 40
0.4423440757240776
 40
0.4423440757240776
 10
146.7419463259256
 20
30.05787051005923
 30
0.0
 10
146.9150724260164
 20
29.98547267524111
 30
0.0
 10
147.1667489686758
 20
29.88767241334856
 30
0.0
 10
147.561236481909
 20
29.77397861371677
 30
0.0
 10
147.8003384533228
 20
29.71735891956419
 30
0.0
 10
147.9851856189516
 20
29.67797436272816
 30
0.0
 10
148.2359298153094
 20
29.63068140544762
 30
0.0
 10
148.6585581870165
 20
29.56917323297165
 30
0.0
 10
149.286300083808
 20
29.51725496834875
 30
0.0
 10
150.0158127659677
 20
29.51654481843152
 30
0.0
 10
150.7164855900172
 20
29.57509562086034
 30
0.0
 10
151.2718415936867
 20
29.65863665625362
 30
0.0
 10
151.6981663697787
 20
29.74478962775859
 30
0.0
 10
152.078173837083
 20
29.83661869222513
 30
0.0
 10
152.5027701376416
 20
29.95897457153186
 30
0.0
 10
152.9899862856464
 20
30.13049480615871
 30
0.0
 10
153.4986856182224
 20
30.34993554056387
 30
0.0
 10
153.9767763439811
 20
30.59926014305173
 30
0.0
 10
154.345226364683
 20
30.82797468382804
 30
0.0
 10
154.6019632549868
 20
31.00909963586229
 30
0.0
 10
154.7789924027476
 20
31.14447968973001
 30
0.0
 10
154.9820318731215
 20
31.3120889602448
 30
0.0
 10
155.2231176885138
 20
31.53522720777557
 30
0.0
 10
155.4692371097743
 20
31.80131072143107
 30
0.0
 10
155.6648918564213
 20
32.04923423931206
 30
0.0
 10
155.8257997040104
 20
32.28378198330637
 30
0.0
 10
156.0029491329932
 20
32.58250564870107
 30
0.0
 10
156.1969791643122
 20
33.00616989291331
 30
0.0
 10
156.3416391191276
 20
33.53399230499716
 30
0.0
 10
156.3866519316726
 20
34.03296878438481
 30
0.0
 10
156.3641511233881
 20
34.44660064035269
 30
0.0
 10
156.3070788706205
 20
34.78843763878469
 30
0.0
 10
156.2136979039168
 20
35.12677036877539
 30
0.0
 10
156.0660586408601
 20
35.49923730633569
 30
0.0
 10
155.9283658890285
 20
35.75351810351017
 30
0.0
 10
155.842248598831
 20
35.89133195722057
 30
0.0
  0
SPLINE
  5
107
330
F0
100
AcDbEntity
  8
DV4_0
 62
     7
370
    35
100
AcDbSpline
210
0.0
220
0.0
230
1.0
 70
     8
 71
     3
 72
    25
 73
    21
 74
     0
 42
0.000000001
 43
0.0000000001
 40
0.7992300896359162
 40
0.7992300896359162
 40
0.7992300896359162
 40
0.7992300896359162
 40
0.8185099320741354
 40
0.833571982110218
 40
0.842948243705187
 40
0.8528957684009487
 40
0.860083088419837
 40
0.8691398325532915
 40
0.8792639745035753
 40
0.8847390833975289
 40
0.8911392925912522
 40
0.9038484906314113
 40
0.9145068144835077
 40
0.9280342001969664
 40
0.9396326525484237
 40
0.9492564449852212
 40
0.9563372531372115
 40
0.966982784739865
 40
0.9815981219818994
 40
1.0
 40
1.0
 40
1.0
 40
1.0
 10
145.6260779572876
 20
37.44963866291094
 30
0.0
 10
145.5090398158017
 20
37.34215717218272
 30
0.0
 10
145.3194463842052
 20
37.13707156718731
 30
0.0
 10
145.1306391904695
 20
36.8472832508747
 30
0.0
 10
145.0147260392386
 20
36.60368951144915
 30
0.0
 10
144.9474256875519
 20
36.40902840768192
 30
0.0
 10
144.9016236618707
 20
36.21238602064538
 30
0.0
 10
144.8755695360437
 20
36.00908022282466
 30
0.0
 10
144.874808541642
 20
35.8181143181106
 30
0.0
 10
144.8911110572259
 20
35.64835436412069
 30
0.0
 10
144.9233083494207
 20
35.46179138085542
 30
0.0
 10
144.9894095933294
 20
35.23947102912147
 30
0.0
 10
145.1087066187739
 20
34.9773610023352
 30
0.0
 10
145.2575461753996
 20
34.7381794686156
 30
0.0
 10
145.4360656937693
 20
34.52041140702786
 30
0.0
 10
145.5970039832533
 20
34.35803072996066
 30
0.0
 10
145.769384054062
 20
34.20796258431174
 30
0.0
 10
145.9780391995382
 20
34.04843325450791
 30
0.0
 10
146.3157474121525
 20
33.83542275381146
 30
0.0
 10
146.5666886277169
 20
33.71421279091227
 30
0.0
 10
146.7419463259256
 20
33.63542853607577
 30
0.0
  0
SPLINE
  5
108
330
F0
100
AcDbEntity
  8
DV4_0
 62
     7
370
    35
100
AcDbSpline
210
0.0
220
0.0
230
1.0
 70
     8
 71
     3
 72
    38
 73
    34
 74
     0
 42
0.000000001
 43
0.0000000001
 40
0.0
 40
0.0
 40
0.0
 40
0.0
 40
0.01810308189175
 40
0.0313723296360698
 40
0.0384908330938324
 40
0.0425121172487167
 40
0.0490246350944024
 40
0.0627983730984458
 40
0.0819557403071704
 40
0.1054335236506405
 40
0.1259758528433491
 40
0.1418071226386002
 40
0.15298901571487
 40
0.1628759065142009
 40
0.1750707871431851
 40
0.1907738658008372
 40
0.2075033446795653
 40
0.2237752560468446
 40
0.2392228776853732
 40
0.2474555264458842
 40
0.2533849388366581
 40
0.2604624294653068
 40
0.2727290117790213
 40
0.2855297959114621
 40
0.2965965707817305
 40
0.3048817656813221
 40
0.3149003380374517
 40
0.3329963796309738
 40
0.3544500628184024
 40
0.3741016285782407
 40
0.3873434225674536
 40
0.3996722118684753
 40
0.4105002683226184
 40
0.4105002683226184
 40
0.4105002683226184
 40
0.4105002683226184
 10
146.7419463259256
 20
33.63542853607576
 30
0.0
 10
146.9150724260164
 20
33.56303070125767
 30
0.0
 10
147.1667489686759
 20
33.46523043936507
 30
0.0
 10
147.5612364819091
 20
33.35153663973341
 30
0.0
 10
147.8003384533228
 20
33.29491694558066
 30
0.0
 10
147.9851856189516
 20
33.25553238874472
 30
0.0
 10
148.2359298153094
 20
33.20823943146424
 30
0.0
 10
148.6585581870166
 20
33.1467312589881
 30
0.0
 10
149.2863000838079
 20
33.09481299436543
 30
0.0
 10
150.0158127659677
 20
33.09410284444799
 30
0.0
 10
150.7164855900172
 20
33.15265364687694
 30
0.0
 10
151.2718415936867
 20
33.23619468227007
 30
0.0
 10
151.6981663697787
 20
33.32234765377518
 30
0.0
 10
152.078173837083
 20
33.41417671824163
 30
0.0
 10
152.5027701376416
 20
33.53653259754852
 30
0.0
 10
152.9899862856464
 20
33.70805283217516
 30
0.0
 10
153.4986856182223
 20
33.92749356658042
 30
0.0
 10
153.9767763439812
 20
34.17681816906825
 30
0.0
 10
154.345226364683
 20
34.40553270984461
 30
0.0
 10
154.6019632549868
 20
34.5866576618789
 30
0.0
 10
154.7789924027476
 20
34.72203771574652
 30
0.0
 10
154.9820318731215
 20
34.88964698626133
 30
0.0
 10
155.2231176885138
 20
35.11278523379202
 30
0.0
 10
155.4692371097743
 20
35.37886874744775
 30
0.0
 10
155.6648918564213
 20
35.62679226532865
 30
0.0
 10
155.8257997040104
 20
35.86134000932292
 30
0.0
 10
156.0029491329932
 20
36.16006367471761
 30
0.0
 10
156.1969791643122
 20
36.58372791892989
 30
0.0
 10
156.3416391191276
 20
37.11155033101367
 30
0.0
 10
156.3866519316726
 20
37.61052681040137
 30
0.0
 10
156.3641511233881
 20
38.02415866636915
 30
0.0
 10
156.30903068791
 20
38.35430516142384
 30
0.0
 10
156.2532982162128
 20
38.56060722242213
 30
0.0
 10
156.222664160975
 20
38.65628770505003
 30
0.0
  0
SPLINE
  5
109
330
F0
100
AcDbEntity
  8
DV4_0
 62
     7
370
    35
100
AcDbSpline
210
0.0
220
0.0
230
1.0
 70
     8
 71
     3
 72
    14
 73
    10
 74
     0
 42
0.000000001
 43
0.0000000001
 40
0.92028157828966
 40
0.92028157828966
 40
0.92028157828966
 40
0.92028157828966
 40
0.9280342001969542
 40
0.9396326525484106
 40
0.9492564449852083
 40
0.956337253137198
 40
0.9669827847398521
 40
0.9815981219818863
 40
1.0
 40
1.0
 40
1.0
 40
1.0
 10
145.1707040829821
 20
38.45913508540642
 30
0.0
 10
145.2023752347349
 20
38.40703539288358
 30
0.0
 10
145.2872129096494
 20
38.27954835817109
 30
0.0
 10
145.4360656937694
 20
38.09796943304439
 30
0.0
 10
145.5970039832533
 20
37.93558875597723
 30
0.0
 10
145.769384054062
 20
37.78552061032821
 30
0.0
 10
145.9780391995382
 20
37.62599128052449
 30
0.0
 10
146.3157474121526
 20
37.41298077982791
 30
0.0
 10
146.5666886277171
 20
37.29177081692871
 30
0.0
 10
146.7419463259259
 20
37.21298656209217
 30
0.0
  0
SPLINE
  5
10A
330
F0
100
AcDbEntity
  8
DV4_0
 62
     7
370
    35
100
AcDbSpline
210
0.0
220
0.0
230
1.0
 70
     8
 71
     3
 72
    40
 73
    36
 74
     0
 42
0.000000001
 43
0.0000000001
 40
0.0
 40
0.0
 40
0.0
 40
0.0
 40
0.0181030818917367
 40
0.0313723296360568
 40
0.0384908330938201
 40
0.0425121172487037
 40
0.04902463509439
 40
0.0627983730984339
 40
0.081955740307159
 40
0.1054335236506295
 40
0.1259758528433386
 40
0.1418071226385899
 40
0.1529890157148604
 40
0.1628759065141914
 40
0.1750707871431759
 40
0.1907738658008286
 40
0.2075033446795568
 40
0.2237752560468372
 40
0.2392228776853658
 40
0.247455526445877
 40
0.2533849388366509
 40
0.2604624294653003
 40
0.2727290117790148
 40
0.2855297959114563
 40
0.2965965707817248
 40
0.3048817656813166
 40
0.3149003380374468
 40
0.3329963796309691
 40
0.3544500628183982
 40
0.3741016285782369
 40
0.3873434225674505
 40
0.3996722118684726
 40
0.4117891459185906
 40
0.4253586839078103
 40
0.4423440757240691
 40
0.4423440757240691
 40
0.4423440757240691
 40
0.4423440757240691
 10
146.7419463259259
 20
22.902754458026
 30
0.0
 10
146.9150724260166
 20
22.83035662320793
 30
0.0
 10
147.166748968676
 20
22.73255636131546
 30
0.0
 10
147.561236481909
 20
22.6188625616837
 30
0.0
 10
147.8003384533228
 20
22.56224286753106
 30
0.0
 10
147.9851856189516
 20
22.5228583106952
 30
0.0
 10
148.2359298153094
 20
22.47556535341458
 30
0.0
 10
148.6585581870165
 20
22.41405718093853
 30
0.0
 10
149.286300083808
 20
22.36213891631569
 30
0.0
 10
150.0158127659676
 20
22.3614287663984
 30
0.0
 10
150.7164855900173
 20
22.41997956882732
 30
0.0
 10
151.2718415936867
 20
22.50352060422051
 30
0.0
 10
151.6981663697787
 20
22.5896735757255
 30
0.0
 10
152.078173837083
 20
22.68150264019206
 30
0.0
 10
152.5027701376416
 20
22.8038585194989
 30
0.0
 10
152.9899862856464
 20
22.9753787541255
 30
0.0
 10
153.4986856182223
 20
23.19481948853087
 30
0.0
 10
153.9767763439812
 20
23.44414409101861
 30
0.0
 10
154.345226364683
 20
23.67285863179501
 30
0.0
 10
154.6019632549868
 20
23.85398358382915
 30
0.0
 10
154.7789924027476
 20
23.98936363769685
 30
0.0
 10
154.9820318731214
 20
24.15697290821167
 30
0.0
 10
155.2231176885138
 20
24.38011115574246
 30
0.0
 10
155.4692371097743
 20
24.64619466939807
 30
0.0
 10
155.6648918564213
 20
24.89411818727907
 30
0.0
 10
155.8257997040104
 20
25.12866593127323
 30
0.0
 10
156.0029491329932
 20
25.42738959666808
 30
0.0
 10
156.1969791643122
 20
25.85105384088023
 30
0.0
 10
156.3416391191276
 20
26.37887625296414
 30
0.0
 10
156.3866519316726
 20
26.87785273235163
 30
0.0
 10
156.3641511233881
 20
27.29148458831961
 30
0.0
 10
156.3070788706205
 20
27.63332158675158
 30
0.0
 10
156.2136979039168
 20
27.97165431674241
 30
0.0
 10
156.0660586408602
 20
28.34412125430255
 30
0.0
 10
155.9283658890285
 20
28.59840205147709
 30
0.0
 10
155.842248598831
 20
28.73621590518749
 30
0.0
  0
SPLINE
  5
10B
330
F0
100
AcDbEntity
  8
DV4_0
 62
     7
370
    35
100
AcDbSpline
210
0.0
220
0.0
230
1.0
 70
     8
 71
     3
 72
    25
 73
    21
 74
     0
 42
0.000000001
 43
0.0000000001
 40
0.7992300896359135
 40
0.7992300896359135
 40
0.7992300896359135
 40
0.7992300896359135
 40
0.8185099320741327
 40
0.8335719821102159
 40
0.8429482437051852
 40
0.8528957684009465
 40
0.8600830884198354
 40
0.8691398325532895
 40
0.8792639745035731
 40
0.8847390833975265
 40
0.8911392925912498
 40
0.9038484906314097
 40
0.9145068144835062
 40
0.9280342001969647
 40
0.9396326525484221
 40
0.9492564449852199
 40
0.9563372531372102
 40
0.9669827847398639
 40
0.9815981219818992
 40
1.0
 40
1.0
 40
1.0
 40
1.0
 10
145.6260779572876
 20
30.29452261087792
 30
0.0
 10
145.5090398158018
 20
30.18704112014969
 30
0.0
 10
145.3194463842052
 20
29.98195551515412
 30
0.0
 10
145.1306391904695
 20
29.69216719884164
 30
0.0
 10
145.0147260392386
 20
29.44857345941608
 30
0.0
 10
144.9474256875519
 20
29.25391235564881
 30
0.0
 10
144.9016236618707
 20
29.0572699686123
 30
0.0
 10
144.8755695360436
 20
28.85396417079163
 30
0.0
 10
144.874808541642
 20
28.66299826607757
 30
0.0
 10
144.891111057226
 20
28.49323831208762
 30
0.0
 10
144.9233083494208
 20
28.30667532882237
 30
0.0
 10
144.9894095933293
 20
28.08435497708848
 30
0.0
 10
145.1087066187739
 20
27.82224495030202
 30
0.0
 10
145.2575461753996
 20
27.58306341658252
 30
0.0
 10
145.4360656937693
 20
27.36529535499475
 30
0.0
 10
145.5970039832533
 20
27.2029146779276
 30
0.0
 10
145.769384054062
 20
27.0528465322786
 30
0.0
 10
145.9780391995382
 20
26.89331720247487
 30
0.0
 10
146.3157474121525
 20
26.68030670177835
 30
0.0
 10
146.5666886277169
 20
26.55909673887919
 30
0.0
 10
146.7419463259256
 20
26.48031248404267
 30
0.0
  0
LINE
  5
10C
330
F0
100
AcDbEntity
  8
DV4_0
 62
     7
370
    35
100
AcDbLine
 10
144.6263993508791
 20
40.71179704392527
 30
0.0
 11
144.6263993508791
 21
39.89530046299753
 31
0.0
  0
LINE
  5
10D
330
F0
100
AcDbEntity
  8
DV4_0
 62
     7
370
    35
100
AcDbLine
 10
156.6263993508791
 20
39.89530046299753
 30
0.0
 11
156.6263993508791
 21
40.71179704392526
 31
0.0
  0
LINE
  5
10E
330
F0
100
AcDbEntity
  8
DV4_0
 62
     7
370
    35
100
AcDbLine
 10
155.6263993508791
 20
34.7156830442474
 30
0.0
 11
155.6263993508791
 21
35.58177554988533
 31
0.0
  0
LINE
  5
10F
330
F0
100
AcDbEntity
  8
DV4_0
 62
     7
370
    35
100
AcDbLine
 10
155.6263993508791
 20
31.13812501823086
 30
0.0
 11
155.6263993508791
 21
32.00421752386877
 31
0.0
  0
LINE
  5
110
330
F0
100
AcDbEntity
  8
DV4_0
 62
     7
370
    35
100
AcDbLine
 10
155.6263993508791
 20
27.56056699221431
 30
0.0
 11
155.6263993508791
 21
28.42665949785225
 31
0.0
  0
LINE
  5
111
330
F0
100
AcDbEntity
  8
DV4_0
 62
     7
370
    35
100
AcDbLine
 10
155.6263993508791
 20
24.38186542537073
 30
0.0
 11
155.6263993508791
 21
24.8491014718357
 31
0.0
  0
LINE
  5
112
330
F0
100
AcDbEntity
  8
DV4_0
 62
     7
370
    35
100
AcDbLine
 10
145.6263993508791
 20
27.17929524008823
 30
0.0
 11
145.6263993508791
 21
24.38186542537073
 31
0.0
  0
LINE
  5
113
330
F0
100
AcDbEntity
  8
DV4_0
 62
     7
370
    35
100
AcDbLine
 10
145.6263993508791
 20
30.75685326610477
 30
0.0
 11
145.6263993508791
 21
29.34934600522258
 31
0.0
  0
LINE
  5
114
330
F0
100
AcDbEntity
  8
DV4_0
 62
     7
370
    35
100
AcDbLine
 10
145.6263993508791
 20
34.3344112921213
 30
0.0
 11
145.6263993508791
 21
32.92690403123912
 31
0.0
  0
LINE
  5
115
330
F0
100
AcDbEntity
  8
DV4_0
 62
     7
370
    35
100
AcDbLine
 10
145.6263993508791
 20
37.91196931813785
 30
0.0
 11
145.6263993508791
 21
36.50446205725567
 31
0.0
  0
ELLIPSE
  5
116
330
F0
100
AcDbEntity
  8
DV4_0
 62
     7
370
    35
100
AcDbEllipse
 10
150.6263993508791
 20
95.91741328576175
 30
0.0
 11
4.83
 21
-4.510281037539698E-15
 31
0.0
210
0.0
220
0.0
230
1.0
 40
0.5773502691896258
 41
3.989721910962915
 42
5.497787143782136
  0
ELLIPSE
  5
117
330
F0
100
AcDbEntity
  8
DV4_0
 62
     7
370
    25
100
AcDbEllipse
 10
150.6263993508791
 20
106.0312996592924
 30
0.0
 11
-4.600000000000004
 21
4.510281037539698E-15
 31
0.0
210
0.0
220
0.0
230
1.0
 40
0.5773502691896248
 41
0.0
 42
6.283185307179586
  0
ELLIPSE
  5
118
330
F0
100
AcDbEntity
  8
DV4_0
 62
     7
370
    25
100
AcDbEllipse
 10
150.6263993508791
 20
105.7047010269213
 30
0.0
 11
5.000000000000003
 21
0.0
 31
0.0
210
0.0
220
0.0
230
1.0
 40
0.5773502691896254
 41
3.140553601396399
 42
6.283185307179586
  0
ELLIPSE
  5
119
330
F0
100
AcDbEntity
  8
DV4_0
 62
     7
370
    25
100
AcDbEllipse
 10
150.6263993508791
 20
105.7047010269213
 30
0.0
 11
5.000000000000003
 21
0.0
 31
0.0
210
0.0
220
0.0
230
1.0
 40
0.5773502691896254
 41
0.0
 42
0.0003399094842311
  0
ELLIPSE
  5
11A
330
F0
100
AcDbEntity
  8
DV4_0
 62
     7
370
    25
100
AcDbEllipse
 10
150.6263993508791
 20
96.24206694737671
 30
0.0
 11
-4.999999999999995
 21
0.0
 31
0.0
210
0.0
220
0.0
230
1.0
 40
0.5773502691896264
 41
0.0
 42
3.141592653589783
  0
LINE
  5
11B
330
F0
100
AcDbEntity
  8
DV4_0
 62
     7
370
    35
100
AcDbLine
 10
155.4563993508791
 20
93.78385094537647
 30
0.0
 11
155.4563993508791
 21
95.41961446929008
 31
0.0
  0
LINE
  5
11C
330
F0
100
AcDbEntity
  8
DV4_0
 62
     7
370
    35
100
AcDbLine
 10
145.7963993508791
 20
95.42169719135578
 30
0.0
 11
145.7963993508791
 21
93.78385094537647
 31
0.0
  0
SPLINE
  5
11D
330
F0
100
AcDbEntity
  8
DV4_0
 62
     7
370
    35
100
AcDbSpline
210
0.0
220
0.0
230
1.0
 70
     8
 71
     3
 72
    55
 73
    51
 74
     0
 42
0.000000001
 43
0.0000000001
 40
0.0
 40
0.0
 40
0.0
 40
0.0
 40
0.0140851331689372
 40
0.0342001709734752
 40
0.0543316012377664
 40
0.0745252483323574
 40
0.0948222159926602
 40
0.1152562653150796
 40
0.1358517142474674
 40
0.1566220922575746
 40
0.1775697875605147
 40
0.1986868248427787
 40
0.2199567111217248
 40
0.2413570481171731
 40
0.262862434648565
 40
0.2844471552096752
 40
0.3060872778753195
 40
0.3277619956577562
 40
0.3494542451622356
 40
0.3711488658174463
 40
0.3928354417779877
 40
0.4145080803876867
 40
0.4361631511561074
 40
0.4577987826736225
 40
0.4794144327682752
 40
0.5010105399236008
 40
0.5225882508197751
 40
0.5441492134446555
 40
0.5656954238021125
 40
0.5872291148870069
 40
0.6087526781034269
 40
0.6302686090162555
 40
0.651779470913695
 40
0.673287870981233
 40
0.6947964449040683
 40
0.7163072403195232
 40
0.7378226444047595
 40
0.7593453252236564
 40
0.7808779423311287
 40
0.8024231288332296
 40
0.8239834635975855
 40
0.8455614289185749
 40
0.8671593477929339
 40
0.8887792934229747
 40
0.9104229617333118
 40
0.9320914957254747
 40
0.9537852487844776
 40
0.9755034733619542
 40
0.9960812874632272
 40
1.0
 40
1.0
 40
1.0
 40
1.0
 10
155.6251054148629
 20
105.7058395518396
 30
0.0
 10
155.6251006337735
 20
105.7454172719829
 30
0.0
 10
155.6247450109409
 20
105.8267780893124
 30
0.0
 10
155.6102721411317
 20
105.9683595156176
 30
0.0
 10
155.5835752548456
 20
106.1203006703322
 30
0.0
 10
155.5443399344545
 20
106.2721770646062
 30
0.0
 10
155.49316222856
 20
106.4222097290991
 30
0.0
 10
155.4299432951493
 20
106.5705305164756
 30
0.0
 10
155.354772187497
 20
106.7167297228905
 30
0.0
 10
155.267710127089
 20
106.8605067301473
 30
0.0
 10
155.1688731178353
 20
107.0014904148015
 30
0.0
 10
155.0584312305535
 20
107.1392924235793
 30
0.0
 10
154.9366236330602
 20
107.2735048697571
 30
0.0
 10
154.8037598370874
 20
107.4037181013288
 30
0.0
 10
154.6602149016462
 20
107.5295343746794
 30
0.0
 10
154.5064185975015
 20
107.6505803732629
 30
0.0
 10
154.3428420865209
 20
107.7665152651843
 30
0.0
 10
154.1699848467512
 20
107.8770343122198
 30
0.0
 10
153.9883691562584
 20
107.9818655605014
 30
0.0
 10
153.7985300552578
 20
108.0807698743572
 30
0.0
 10
153.6010062783636
 20
108.1735394349873
 30
0.0
 10
153.3963315487987
 20
108.2599950418071
 30
0.0
 10
153.1850372506774
 20
108.339979286879
 30
0.0
 10
152.9676580492386
 20
108.4133510937094
 30
0.0
 10
152.7447327449511
 20
108.4799836864188
 30
0.0
 10
152.5168050621662
 20
108.5397632721283
 30
0.0
 10
152.2844242081566
 20
108.5925882847549
 30
0.0
 10
152.0481451331607
 20
108.6383690383375
 30
0.0
 10
151.808528479876
 20
108.677027657276
 30
0.0
 10
151.5661402432121
 20
108.7084981762194
 30
0.0
 10
151.321551177046
 20
108.7327267270398
 30
0.0
 10
151.0753359908066
 20
108.7496717516041
 30
0.0
 10
150.8280723792535
 20
108.7593041961083
 30
0.0
 10
150.5803399276223
 20
108.7616076560037
 30
0.0
 10
150.3327212554666
 20
108.7565784975052
 30
0.0
 10
150.0857994908769
 20
108.744226163754
 30
0.0
 10
149.840155843646
 20
108.7245731558196
 30
0.0
 10
149.5963660206073
 20
108.6976544743614
 30
0.0
 10
149.3550002941314
 20
108.6635171582212
 30
0.0
 10
149.1166235836665
 20
108.622220014616
 30
0.0
 10
148.8817940874226
 20
108.5738329423945
 30
0.0
 10
148.6510640165726
 20
108.5184372673454
 30
0.0
 10
148.4249733456573
 20
108.4561221144236
 30
0.0
 10
148.2040707766601
 20
108.3869956062778
 30
0.0
 10
147.9888343547234
 20
108.3111409500733
 30
0.0
 10
147.7799688217392
 20
108.2287792567796
 30
0.0
 10
147.5772964235594
 20
108.1396608056455
 30
0.0
 10
147.387358907679
 20
108.0470258348338
 30
0.0
 10
147.250406064195
 20
107.9730530458227
 30
0.0
 10
147.185760527801
 20
107.9359796322967
 30
0.0
 10
147.1737081574209
 20
107.9290533245688
 30
0.0
  0
SPLINE
  5
11E
330
F0
100
AcDbEntity
  8
DV4_0
 62
     7
370
    35
100
AcDbSpline
210
0.0
220
0.0
230
1.0
 70
     8
 71
     3
 72
    24
 73
    20
 74
     0
 42
0.000000001
 43
0.0000000001
 40
0.0
 40
0.0
 40
0.0
 40
0.0
 40
0.0341401079633999
 40
0.0984620424566495
 40
0.1628173297163827
 40
0.2271361661335685
 40
0.2913657293696834
 40
0.3554407163623342
 40
0.4192849047435174
 40
0.4828151543608614
 40
0.5459480808047489
 40
0.6086089697411814
 40
0.6707416616793885
 40
0.7323175355176741
 40
0.7933417203024863
 40
0.8538553345241372
 40
0.9139335714701422
 40
0.9736803339324636
 40
1.0
 40
1.0
 40
1.0
 40
1.0
 10
147.1737081574209
 20
107.9290533245688
 30
0.0
 10
147.1384818532229
 20
107.9084378410162
 30
0.0
 10
147.0523855711188
 20
107.857796514159
 30
0.0
 10
146.9026021327218
 20
107.7615793180751
 30
0.0
 10
146.7395689557913
 20
107.6454935853826
 30
0.0
 10
146.5846786786763
 20
107.5230050741916
 30
0.0
 10
146.4402931624675
 20
107.3956410664262
 30
0.0
 10
146.306410278536
 20
107.2633976696434
 30
0.0
 10
146.1836284252352
 20
107.1267384429939
 30
0.0
 10
146.0723427906993
 20
106.9860668059509
 30
0.0
 10
145.9729400437199
 20
106.8418638545533
 30
0.0
 10
145.8857242916835
 20
106.6946356890789
 30
0.0
 10
145.8109281897854
 20
106.5449227953885
 30
0.0
 10
145.7486769785278
 20
106.3932204049342
 30
0.0
 10
145.6990974460439
 20
106.2401730557481
 30
0.0
 10
145.6619506615377
 20
106.0857762606868
 30
0.0
 10
145.6380509244181
 20
105.9322562178027
 30
0.0
 10
145.626691682556
 20
105.8028161640808
 30
0.0
 10
145.6275454894401
 20
105.733188290109
 30
0.0
 10
145.6279218116326
 20
105.7081740591806
 30
0.0
  0
LINE
  5
11F
330
F0
100
AcDbEntity
  8
DV4_0
 62
     7
370
    35
100
AcDbLine
 10
145.6263993508791
 20
105.7047010269213
 30
0.0
 11
145.6263993508791
 21
96.2420669473767
 31
0.0
  0
LINE
  5
120
330
F0
100
AcDbEntity
  8
DV4_0
 62
     7
370
    35
100
AcDbLine
 10
155.6263993508791
 20
96.24206694737668
 30
0.0
 11
155.6263993508791
 21
105.7047010269213
 31
0.0
  0
ARC
  5
121
330
F0
100
AcDbEntity
  8
DV4_0
 62
     7
370
    35
100
AcDbCircle
 10
152.8927465285441
 20
96.43386051427564
 30
0.0
 40
2.738903950829805
100
AcDbArc
 50
295.0863336935713
 51
356.0797511842764
  0
SPLINE
  5
122
330
F0
100
AcDbEntity
  8
DV4_0
 62
     7
370
    35
100
AcDbSpline
210
0.0
220
0.0
230
1.0
 70
     8
 71
     3
 72
    26
 73
    22
 74
     0
 42
0.000000001
 43
0.0000000001
 40
0.0
 40
0.0
 40
0.0
 40
0.0
 40
0.0244010008691577
 40
0.0784766056266954
 40
0.132560309850315
 40
0.1867919974643635
 40
0.241304545397691
 40
0.2962150100825933
 40
0.3516183596702957
 40
0.4075819414190097
 40
0.4641414160889301
 40
0.5212990629071736
 40
0.5790252227516818
 40
0.637263118891632
 40
0.6959364889036492
 40
0.7549587013387299
 40
0.8142416824863511
 40
0.8737032050562564
 40
0.9332717402043423
 40
0.9928888084962633
 40
1.0
 40
1.0
 40
1.0
 40
1.0
 10
145.6279257011572
 20
96.24137568974794
 30
0.0
 10
145.6275177285497
 20
96.21522188165481
 30
0.0
 10
145.6265982310696
 20
96.14364106745407
 30
0.0
 10
145.6377808063805
 20
96.01125753090915
 30
0.0
 10
145.6612117139389
 20
95.8554123480824
 30
0.0
 10
145.6974053864994
 20
95.69946226677082
 30
0.0
 10
145.7454528243246
 20
95.54546822594075
 30
0.0
 10
145.8055320215343
 20
95.3932097549255
 30
0.0
 10
145.8775456892199
 20
95.2430948976388
 30
0.0
 10
145.9614693962579
 20
95.09539153531173
 30
0.0
 10
146.057232159125
 20
94.95044690396165
 30
0.0
 10
146.1647215349036
 20
94.80863216314772
 30
0.0
 10
146.283756123214
 20
94.67035421846421
 30
0.0
 10
146.4140789921034
 20
94.5360351040815
 30
0.0
 10
146.5553392213345
 20
94.40611425065903
 30
0.0
 10
146.7071542140205
 20
94.28096487288809
 30
0.0
 10
146.8689136471056
 20
94.16112668389293
 30
0.0
 10
147.0405845657538
 20
94.04636553835117
 30
0.0
 10
147.2197764609875
 20
93.93915477660501
 30
0.0
 10
147.3561152896908
 20
93.86320957458456
 30
0.0
 10
147.4255527666431
 20
93.82939848224478
 30
0.0
 10
147.4341659967749
 20
93.82520854087828
 30
0.0
  0
ENDBLK
  5
124
330
F0
100
AcDbEntity
  8
0
100
AcDbBlockEnd
  0
BLOCK
  5
12F
330
125
100
AcDbEntity
  8
0
100
AcDbBlockBegin
  2
GDimGGroup
 70
     0
 10
0.0
 20
0.0
 30
0.0
  3
GDimGGroup
  1

  0
LINE
  5
127
330
125
100
AcDbEntity
  8
Default
 62
     7
370
    25
100
AcDbLine
 10
69.25716960193337
 20
72.98264109166618
 30
0.0
 11
60.31027180646242
 21
77.44952091622478
 31
0.0
  0
LINE
  5
128
330
125
100
AcDbEntity
  8
Default
 62
     7
370
    25
100
AcDbLine
 10
60.31027160648367
 20
77.44952101606732
 30
0.0
 11
44.91017774591806
 21
85.13826074850196
 31
0.0
  0
LWPOLYLINE
  5
129
330
125
100
AcDbEntity
  8
Default
 62
     7
370
    25
100
AcDbPolyline
 90
        4
 70
     0
 43
0.0
 10
66.34975618180616
 20
73.87536017697386
 10
66.79644417812905
 20
74.7700499842958
 10
69.25716960193337
 20
72.98264109166618
 10
66.34975618180616
 20
73.87536017697386
  0
LWPOLYLINE
  5
12A
330
125
100
AcDbEntity
  8
Default
 62
     7
370
    25
100
AcDbPolyline
 90
        4
 70
     0
 43
0.0
 10
62.77099703028799
 20
75.66211212343771
 10
63.21768502661087
 20
76.55680193075965
 10
60.31027160648367
 20
77.44952101606732
 10
62.77099703028799
 20
75.66211212343771
  0
TEXT
  5
12C
330
125
100
AcDbEntity
  8
Default
 62
     7
370
    25
100
AcDbText
 10
46.18461772866734
 20
85.34025585642901
 30
0.0
 40
3.0
  1
n
 50
333.4686132912837
  7
GDT
 11
47.52468170598769
 21
88.02432525506393
 31
0.0
100
AcDbText
 73
     3
  0
TEXT
  5
12E
330
125
100
AcDbEntity
  8
Default
 62
     7
370
    25
100
AcDbText
 10
50.85584026102845
 20
83.00807433800483
 30
0.0
 40
3.0
  1
100
 50
333.4686132912837
  7
SEACAD_Solid_Edge_ANSI
 11
52.1959042383488
 21
85.69214373663975
 31
0.0
100
AcDbText
 73
     3
  0
ENDBLK
  5
130
330
125
100
AcDbEntity
  8
0
100
AcDbBlockEnd
  0
BLOCK
  5
139
330
131
100
AcDbEntity
  8
0
100
AcDbBlockBegin
  2
GDimGGroup1
 70
     0
 10
0.0
 20
0.0
 30
0.0
  3
GDimGGroup1
  1

  0
LWPOLYLINE
  5
133
330
131
100
AcDbEntity
  8
Default
 62
     7
370
    25
100
AcDbPolyline
 90
        4
 70
     0
 43
0.0
 10
178.5109101110012
 20
228.5109996759494
 10
177.5109101023089
 20
228.5109996759494
 10
178.010910106655
 20
231.5109997020265
 10
178.5109101110012
 20
228.5109996759494
  0
LWPOLYLINE
  5
134
330
131
100
AcDbEntity
  8
Default
 62
     7
370
    25
100
AcDbPolyline
 90
        4
 70
     0
 43
0.0
 10
178.5109101110012
 20
134.5112739094695
 10
177.5109101023089
 20
134.5112739094695
 10
178.010910106655
 20
131.5112738833924
 10
178.5109101110012
 20
134.5112739094695
  0
LINE
  5
135
330
131
100
AcDbEntity
  8
Default
 62
     7
370
    25
100
AcDbLine
 10
156.009159339424
 20
231.5109997020265
 30
0.0
 11
179.5109101196935
 21
231.5109997020265
 31
0.0
  0
LINE
  5
136
330
131
100
AcDbEntity
  8
Default
 62
     7
370
    25
100
AcDbLine
 10
156.409159339424
 20
131.5112738720061
 30
0.0
 11
179.5109101196935
 21
131.5112738720061
 31
0.0
  0
LINE
  5
137
330
131
100
AcDbEntity
  8
Default
 62
     7
370
    25
100
AcDbLine
 10
178.010910106655
 20
231.5109997020265
 30
0.0
 11
178.010910106655
 21
131.5112738833924
 31
0.0
  0
TEXT
  5
138
330
131
100
AcDbEntity
  8
Default
 62
     7
370
    25
100
AcDbText
 10
177.260910106655
 20
176.8154846187964
 30
0.0
 40
3.0
  1
1000
 50
90.0
  7
SEACAD_Solid_Edge_ANSI
 11
174.260910106655
 21
176.8154846187964
 31
0.0
100
AcDbText
 73
     3
  0
ENDBLK
  5
13A
330
131
100
AcDbEntity
  8
0
100
AcDbBlockEnd
  0
BLOCK
  5
143
330
13B
100
AcDbEntity
  8
0
100
AcDbBlockBegin
  2
GDimGGroup2
 70
     0
 10
0.0
 20
0.0
 30
0.0
  3
GDimGGroup2
  1

  0
LWPOLYLINE
  5
13D
330
13B
100
AcDbEntity
  8
Default
 62
     7
370
    25
100
AcDbPolyline
 90
        4
 70
     0
 43
0.0
 10
85.88023780634246
 20
147.5112738459291
 10
84.88023779765011
 20
147.5112738459291
 10
85.38023780199629
 20
150.5112738720061
 10
85.88023780634246
 20
147.5112738459291
  0
LWPOLYLINE
  5
13E
330
13B
100
AcDbEntity
  8
Default
 62
     7
370
    25
100
AcDbPolyline
 90
        4
 70
     0
 43
0.0
 10
85.88023780634246
 20
134.5112745090307
 10
84.88023779765011
 20
134.5112745090307
 10
85.38023780199629
 20
131.5112744829537
 10
85.88023780634246
 20
134.5112745090307
  0
LINE
  5
13F
330
13B
100
AcDbEntity
  8
Default
 62
     7
370
    25
100
AcDbLine
 10
70.78372060420853
 20
150.5112738720061
 30
0.0
 11
86.8802378150348
 21
150.5112738720061
 31
0.0
  0
LINE
  5
140
330
13B
100
AcDbEntity
  8
Default
 62
     7
370
    25
100
AcDbLine
 10
64.78372060420853
 20
131.5112738720061
 30
0.0
 11
86.8802378150348
 21
131.5112738720061
 31
0.0
  0
LINE
  5
141
330
13B
100
AcDbEntity
  8
Default
 62
     7
370
    25
100
AcDbLine
 10
85.38023780199629
 20
150.5112738720061
 30
0.0
 11
85.38023780199629
 21
131.5112744829537
 31
0.0
  0
TEXT
  5
142
330
13B
100
AcDbEntity
  8
Default
 62
     7
370
    25
100
AcDbText
 10
84.63023780199629
 20
137.4895350470451
 30
0.0
 40
3.0
  1
190
 50
90.0
  7
SEACAD_Solid_Edge_ANSI
 11
81.63023780199629
 21
137.4895350470451
 31
0.0
100
AcDbText
 73
     3
  0
ENDBLK
  5
144
330
13B
100
AcDbEntity
  8
0
100
AcDbBlockEnd
  0
BLOCK
  5
153
330
14D
100
AcDbEntity
  8
0
100
AcDbBlockBegin
  2
SEANNOT_GROUP
 70
     0
 10
0.0
 20
0.0
 30
0.0
  3
SEANNOT_GROUP
  1

  0
TEXT
  5
14F
330
14D
100
AcDbEntity
  8
Predeterminado
 62
     7
370
     5
100
AcDbText
 10
202.5201921067479
 20
12.7403379754914
 30
0.0
 40
1.5
  1
V 
 50
90.0
  7
SEACAD_Solid_Edge_ANSI
 11
201.0201921067479
 21
12.7403379754914
 31
0.0
100
AcDbText
 73
     3
  0
TEXT
  5
150
330
14D
100
AcDbEntity
  8
Predeterminado
 62
     7
370
     5
100
AcDbText
 10
202.5201921067479
 20
14.6528379754914
 30
0.0
 40
1.5
  1
01
 50
90.0
  7
SEACAD_Solid_Edge_ANSI
 11
201.0201921067479
 21
14.6528379754914
 31
0.0
100
AcDbText
 73
     3
  0
TEXT
  5
151
330
14D
100
AcDbEntity
  8
Predeterminado
 62
     7
370
     5
100
AcDbText
 10
202.5201921067479
 20
16.7153379754914
 30
0.0
 40
1.5
  1
  
 50
90.0
  7
SEACAD_Solid_Edge_ANSI
 11
201.0201921067479
 21
16.7153379754914
 31
0.0
100
AcDbText
 73
     3
  0
TEXT
  5
152
330
14D
100
AcDbEntity
  8
Predeterminado
 62
     7
370
     5
100
AcDbText
 10
202.5201921067479
 20
17.7653379754914
 30
0.0
 40
1.5
  1
22/04/2021
 50
90.0
  7
SEACAD_Solid_Edge_ANSI
 11
201.0201921067479
 21
17.7653379754914
 31
0.0
100
AcDbText
 73
     3
  0
ENDBLK
  5
154
330
14D
100
AcDbEntity
  8
0
100
AcDbBlockEnd
  0
BLOCK
  5
158
330
155
100
AcDbEntity
  8
0
100
AcDbBlockBegin
  2
SEANNOT_GROUP1
 70
     0
 10
0.0
 20
0.0
 30
0.0
  3
SEANNOT_GROUP1
  1

  0
TEXT
  5
157
330
155
100
AcDbEntity
  8
Predeterminado
 62
     7
370
     5
100
AcDbText
 10
103.5233882273487
 20
275.956987846381
 30
0.0
 40
6.0
  1
Flex
  7
SEACAD_Solid_Edge_ANSI
 11
103.5233882273487
 21
281.956987846381
 31
0.0
100
AcDbText
 73
     3
  0
ENDBLK
  5
159
330
155
100
AcDbEntity
  8
0
100
AcDbBlockEnd
  0
BLOCK
  5
15D
330
15A
100
AcDbEntity
  8
0
100
AcDbBlockBegin
  2
SEANNOT_GROUP2
 70
     0
 10
0.0
 20
0.0
 30
0.0
  3
SEANNOT_GROUP2
  1

  0
TEXT
  5
15C
330
15A
100
AcDbEntity
  8
Predeterminado
 62
     7
370
     5
100
AcDbText
 10
114.4984726340484
 20
271.5157094542311
 30
0.0
 40
3.0
  1
Hflex
  7
SEACAD_Solid_Edge_ANSI
 11
114.4984726340484
 21
274.5157094542311
 31
0.0
100
AcDbText
 73
     3
  0
ENDBLK
  5
15E
330
15A
100
AcDbEntity
  8
0
100
AcDbBlockEnd
  0
ENDSEC
  0
SECTION
  2
ENTITIES
  0
INSERT
  5
70
330
1F
100
AcDbEntity
  8
Default
100
AcDbBlockReference
  2
SE
 10
0.0
 20
0.0
 30
0.0
  0
INSERT
  5
AD
330
1F
100
AcDbEntity
  8
Default
100
AcDbBlockReference
  2
SE1
 10
0.0
 20
0.0
 30
0.0
  0
INSERT
  5
E9
330
1F
100
AcDbEntity
  8
Default
100
AcDbBlockReference
  2
SE2
 10
0.0
 20
0.0
 30
0.0
  0
INSERT
  5
F1
330
1F
100
AcDbEntity
  8
Default
100
AcDbBlockReference
  2
SE3
 10
0.0
 20
0.0
 30
0.0
  0
INSERT
  5
126
330
1F
100
AcDbEntity
  8
Default
100
AcDbBlockReference
  2
GDimGGroup
 10
0.0
 20
0.0
 30
0.0
  0
INSERT
  5
132
330
1F
100
AcDbEntity
  8
Default
100
AcDbBlockReference
  2
GDimGGroup1
 10
0.0
 20
0.0
 30
0.0
  0
INSERT
  5
13C
330
1F
100
AcDbEntity
  8
Default
100
AcDbBlockReference
  2
GDimGGroup2
 10
0.0
 20
0.0
 30
0.0
  0
LINE
  5
146
330
1F
100
AcDbEntity
  8
Predeterminado
 62
     7
370
    35
100
AcDbLine
 10
199.9270202384685
 20
10.03236327681463
 30
0.0
 11
19.92702023846866
 21
10.03236327681461
 31
0.0
  0
LINE
  5
147
330
1F
100
AcDbEntity
  8
Predeterminado
 62
     7
370
    35
100
AcDbLine
 10
199.9270202384685
 20
10.03236327681463
 30
0.0
 11
199.9270202384685
 21
287.0323632768146
 31
0.0
  0
LINE
  5
148
330
1F
100
AcDbEntity
  8
Predeterminado
 62
     7
370
    35
100
AcDbLine
 10
199.9270202384685
 20
287.0323632768146
 30
0.0
 11
19.92702023846866
 21
287.0323632768146
 31
0.0
  0
LINE
  5
149
330
1F
100
AcDbEntity
  8
Predeterminado
 62
     7
370
    35
100
AcDbLine
 10
19.92702023846865
 20
287.0323632768146
 30
0.0
 11
19.92702023846865
 21
10.03236327681464
 31
0.0
  0
LINE
  5
14A
330
1F
100
AcDbEntity
  8
Predeterminado
 62
     7
370
    35
100
AcDbLine
 10
19.92702023846865
 20
267.0323632768146
 30
0.0
 11
199.9270202384685
 21
267.0323632768146
 31
0.0
  0
LINE
  5
14B
330
1F
100
AcDbEntity
  8
Predeterminado
 62
     7
370
    35
100
AcDbLine
 10
64.9270202384685
 20
271.0323632768146
 30
0.0
 11
64.9270202384685
 21
283.0323632768146
 31
0.0
  0
LINE
  5
14C
330
1F
100
AcDbEntity
  8
Predeterminado
 62
     7
370
    35
100
AcDbLine
 10
154.9270202384685
 20
271.0323632768146
 30
0.0
 11
154.9270202384685
 21
283.0323632768146
 31
0.0
  0
INSERT
  5
14E
330
1F
100
AcDbEntity
  8
Predeterminado
100
AcDbBlockReference
  2
SEANNOT_GROUP
 10
0.0
 20
0.0
 30
0.0
  0
INSERT
  5
156
330
1F
100
AcDbEntity
  8
Predeterminado
100
AcDbBlockReference
  2
SEANNOT_GROUP1
 10
0.0
 20
0.0
 30
0.0
  0
INSERT
  5
15B
330
1F
100
AcDbEntity
  8
Predeterminado
100
AcDbBlockReference
  2
SEANNOT_GROUP2
 10
0.0
 20
0.0
 30
0.0
  0
MTEXT
  5
160
102
{ACAD_XDICTIONARY
360
1A8
102
}
330
1F
100
AcDbEntity
  8
D
100
AcDbMText
 10
26.00429443831315
 20
282.691347141335
 30
0.0
 40
6.0
 41
46.75465178080735
 71
     1
 72
     1
  1
{\C7;BENITO}\P{\fArial|b1|i0|c0|p34;\C7;–}{\C7;Urban}\P
 73
     1
 44
1.0
1001
ACAD
1000
ACAD_MTEXT_DEFINED_HEIGHT_BEGIN
1070
    46
1040
17.79999999999998
1000
ACAD_MTEXT_DEFINED_HEIGHT_END
  0
MTEXT
  5
161
330
1F
100
AcDbEntity
  8
Predeterminado
100
AcDbMText
 10
163.8089186942272
 20
280.4449025454284
 30
0.0
 40
2.5
 41
32.175011
 71
     1
 72
     1
  1
{\fSolid Edge ANSI|b0||i0||c0|p34;\C7;\H2.5;\W1.;T +34 938 521 000\P}{\fSolid Edge ANSI|b0||i0||c0|p34;\C7;\H2.5;\W1.;www.benito.com\P}
 73
     1
 44
1.0
1001
ACAD
1000
ACAD_MTEXT_DEFINED_HEIGHT_BEGIN
1070
    46
1040
9.000010000000009
1000
ACAD_MTEXT_DEFINED_HEIGHT_END
  0
MTEXT
  5
162
330
1F
100
AcDbEntity
  8
Predeterminado
100
AcDbMText
 10
150.6598696583449
 20
8.07143559968931
 30
0.0
 40
2.0
 41
54.23001100000002
 71
     1
 72
     1
  1
{\fSolid Edge ANSI|b0||i0||c0|p34;\C7;\H2.;\W1.;BENITO –Urban –Light –Play –Covers}
 73
     1
 44
1.0
1001
ACAD
1000
ACAD_MTEXT_DEFINED_HEIGHT_BEGIN
1070
    46
1040
3.60001
1000
ACAD_MTEXT_DEFINED_HEIGHT_END
  0
ENDSEC
  0
SECTION
  2
OBJECTS
  0
DICTIONARY
  5
C
330
0
100
AcDbDictionary
281
     1
  3
ACAD_GROUP
350
D
  3
ACAD_LAYOUT
350
1A
  3
ACAD_MATERIAL
350
43
  3
ACAD_MLEADERSTYLE
350
6B
  3
ACAD_MLINESTYLE
350
17
  3
ACAD_PLOTSETTINGS
350
19
  3
ACAD_PLOTSTYLENAME
350
E
  3
ACAD_SCALELIST
350
47
  3
ACAD_TABLESTYLE
350
69
  3
ACAD_VISUALSTYLE
350
2A
  3
ACDB_RECOMPOSE_DATA
350
1E5
  3
AcDbVariableDictionary
350
163
  3
DWGPROPS
350
1A7
  0
DICTIONARY
  5
1AA
330
8
100
AcDbDictionary
280
     1
281
     1
  3
ACAD_XREC_ROUNDTRIP
360
1AB
  0
DICTIONARY
  5
1A8
330
160
100
AcDbDictionary
280
     1
281
     1
  3
ACAD_MTEXT_RT
360
1A9
  0
DICTIONARY
  5
D
102
{ACAD_REACTORS
330
C
102
}
330
C
100
AcDbDictionary
281
     1
  0
DICTIONARY
  5
1A
102
{ACAD_REACTORS
330
C
102
}
330
C
100
AcDbDictionary
281
     1
  3
Layout1
350
1E
  3
Model
350
22
  0
DICTIONARY
  5
43
102
{ACAD_REACTORS
330
C
102
}
330
C
100
AcDbDictionary
281
     1
  3
ByBlock
350
45
  3
ByLayer
350
44
  3
Global
350
46
  0
DICTIONARY
  5
6B
102
{ACAD_REACTORS
330
C
102
}
330
C
100
AcDbDictionary
281
     1
  3
Standard
350
6C
  0
DICTIONARY
  5
17
102
{ACAD_REACTORS
330
C
102
}
330
C
100
AcDbDictionary
281
     1
  3
Standard
350
18
  0
DICTIONARY
  5
19
102
{ACAD_REACTORS
330
C
102
}
330
C
100
AcDbDictionary
281
     1
  0
ACDBDICTIONARYWDFLT
  5
E
102
{ACAD_REACTORS
330
C
102
}
330
C
100
AcDbDictionary
281
     1
  3
Normal
350
F
100
AcDbDictionaryWithDefault
340
F
  0
DICTIONARY
  5
47
102
{ACAD_REACTORS
330
C
102
}
330
C
100
AcDbDictionary
281
     1
  3
A0
350
48
  3
A1
350
49
  3
A2
350
4A
  3
A3
350
4B
  3
A4
350
4C
  3
A5
350
4D
  3
A6
350
4E
  3
A7
350
4F
  3
A8
350
50
  3
A9
350
51
  3
B0
350
52
  3
B1
350
53
  3
B2
350
54
  3
B3
350
55
  3
B4
350
56
  3
B5
350
57
  3
B6
350
58
  3
B7
350
59
  3
B8
350
5A
  3
B9
350
5B
  3
C0
350
5C
  3
C1
350
5D
  3
C2
350
5E
  3
C3
350
5F
  3
C4
350
60
  3
C5
350
61
  3
C6
350
62
  3
C7
350
63
  3
C8
350
64
  3
C9
350
65
  3
D0
350
66
  3
D1
350
67
  3
D2
350
68
  0
DICTIONARY
  5
69
102
{ACAD_REACTORS
330
C
102
}
330
C
100
AcDbDictionary
281
     1
  3
Standard
350
6A
  0
DICTIONARY
  5
2A
102
{ACAD_REACTORS
330
C
102
}
330
C
100
AcDbDictionary
281
     1
  3
2dWireframe
350
2F
  3
Basic
350
32
  3
Brighten
350
36
  3
ColorChange
350
3A
  3
Conceptual
350
34
  3
Dim
350
35
  3
EdgeColorOff
350
3D
  3
Facepattern
350
39
  3
Flat
350
2B
  3
FlatWithEdges
350
2C
  3
Gouraud
350
2D
  3
GouraudWithEdges
350
2E
  3
Hidden
350
31
  3
JitterOff
350
3B
  3
Linepattern
350
38
  3
OverhangOff
350
3C
  3
Realistic
350
33
  3
Shaded
350
42
  3
Shaded with edges
350
41
  3
Shades of Gray
350
3E
  3
Sketchy
350
3F
  3
Thicken
350
37
  3
Wireframe
350
30
  3
X-Ray
350
40
  0
XRECORD
  5
1E5
102
{ACAD_REACTORS
330
C
102
}
330
C
100
AcDbXrecord
280
     1
 90
        1
330
160
  0
DICTIONARY
  5
163
102
{ACAD_REACTORS
330
C
102
}
330
C
100
AcDbDictionary
281
     1
  3
CANNOSCALE
350
164
  3
CMLEADERSTYLE
350
19D
  3
CTABLESTYLE
350
19C
  3
DIMASSOC
350
1A5
  3
HIDETEXT
350
1A6
  3
MSLTSCALE
350
1AC
  3
PSOLHEIGHT
350
1A4
  3
PSOLWIDTH
350
1A3
  3
SECTIONTHICKNESSINC
350
1A0
  3
XCLIPFRAME
350
165
  0
XRECORD
  5
1A7
102
{ACAD_REACTORS
330
C
102
}
330
C
100
AcDbXrecord
280
     1
  1
DWGPROPS COOKIE
  2

  3

  4

  6

  7

  8
acae2
  9

300
=
301
=
302
=
303
=
304
=
305
=
306
=
307
=
308
=
309
=
 40
0.0
 41
2459356.497082535
 42
2460427.512311655
  1

 90
        0
  0
XRECORD
  5
1AB
102
{ACAD_REACTORS
330
1AA
102
}
330
1AA
100
AcDbXrecord
280
     1
102
VTR_0.000_0.000_1.000_1.000_VISUALSTYLE
340
2F
102
VTR_0.000_0.000_1.000_1.000_GRIDDISPLAY
 70
     3
102
VTR_0.000_0.000_1.000_1.000_GRIDMAJOR
 70
     5
102
VTR_0.000_0.000_1.000_1.000_DEFAULTLIGHTING
280
     1
102
VTR_0.000_0.000_1.000_1.000_DEFAULTLIGHTINGTYPE
 70
     1
102
VTR_0.000_0.000_1.000_1.000_BRIGHTNESS
141
0.0
102
VTR_0.000_0.000_1.000_1.000_CONTRAST
142
0.0
  0
XRECORD
  5
1A9
102
{ACAD_REACTORS
330
1A8
102
}
330
1A8
100
AcDbXrecord
280
     1
 40
129076.0
  1
{\fSolid Edge ANSI|b1||i0||c0|p34;\C7;\H6.;\W1.;\pxsa0.8;BENITO\P}{\fSolid Edge ANSI|b1||i0||c0|p34;\C7;\H6.;\W1.;\pxse0.8333333333;–Urban\P}
  0
LAYOUT
  5
1E
102
{ACAD_REACTORS
330
1A
102
}
330
1A
100
AcDbPlotSettings
  1

  2
none_device
  4

  6

 40
0.0
 41
0.0
 42
0.0
 43
0.0
 44
0.0
 45
0.0
 46
0.0
 47
0.0
 48
0.0
 49
0.0
140
0.0
141
0.0
142
1.0
143
1.0
 70
   688
 72
     1
 73
     0
 74
     5
  7

 75
    16
147
1.0
148
0.0
149
0.0
100
AcDbLayout
  1
Layout1
 70
     1
 71
     1
 10
0.0
 20
0.0
 11
210.0
 21
297.0
 12
0.0
 22
0.0
 32
0.0
 14
0.0
 24
0.0
 34
0.0
 15
210.0
 25
297.0
 35
0.0
146
0.0
 13
0.0
 23
0.0
 33
0.0
 16
1.0
 26
0.0
 36
0.0
 17
0.0
 27
1.0
 37
0.0
 76
     0
330
1B
  0
LAYOUT
  5
22
102
{ACAD_REACTORS
330
1A
102
}
330
1A
100
AcDbPlotSettings
  1

  2
none_device
  4
Letter_(8.50_x_11.00_Inches)
  6

 40
6.35
 41
6.35
 42
6.35000508
 43
6.35000508
 44
215.9
 45
279.4
 46
0.0
 47
0.0
 48
0.0
 49
0.0
140
0.0
141
0.0
142
1.0
143
1.0
 70
  1712
 72
     1
 73
     0
 74
     0
  7

 75
     0
147
1.0
148
0.0
149
0.0
100
AcDbLayout
  1
Model
 70
     1
 71
     0
 10
0.0
 20
0.0
 11
210.0
 21
297.0
 12
0.0
 22
0.0
 32
0.0
 14
0.0
 24
0.0
 34
0.0
 15
210.0
 25
297.0
 35
0.0
146
0.0
 13
0.0
 23
0.0
 33
0.0
 16
1.0
 26
0.0
 36
0.0
 17
0.0
 27
1.0
 37
0.0
 76
     0
330
1F
331
29
  0
MATERIAL
  5
45
102
{ACAD_REACTORS
330
43
102
}
102
{ACAD_XDICTIONARY
360
1DF
102
}
330
43
100
AcDbMaterial
  1
ByBlock
  0
MATERIAL
  5
44
102
{ACAD_REACTORS
330
43
102
}
102
{ACAD_XDICTIONARY
360
1DD
102
}
330
43
100
AcDbMaterial
  1
ByLayer
  0
MATERIAL
  5
46
102
{ACAD_REACTORS
330
43
102
}
102
{ACAD_XDICTIONARY
360
1E1
102
}
330
43
100
AcDbMaterial
  1
Global
  0
MLEADERSTYLE
  5
6C
102
{ACAD_REACTORS
330
6B
102
}
102
{ACAD_XDICTIONARY
360
1E3
102
}
330
6B
100
AcDbMLeaderStyle
170
     2
171
     1
172
     0
 90
        2
 40
0.0
 41
0.0
173
     1
 91
-1056964608
340
14
 92
       -2
290
     1
 42
2.0
291
     1
 43
8.0
  3
Standard
341
0
 44
4.0
300

342
11
174
     1
178
     6
175
     1
176
     0
 93
-1056964608
 45
4.0
292
     0
297
     0
 46
4.0
343
0
 94
-1056964608
 47
1.0
 49
1.0
140
1.0
293
     1
141
0.0
294
     1
177
     0
142
1.0
295
     0
296
     0
143
3.75
1001
ACAD_MLEADERVER
1070
     2
  0
MLINESTYLE
  5
18
102
{ACAD_REACTORS
330
17
102
}
330
17
100
AcDbMlineStyle
  2
Standard
 70
     0
  3

 62
   256
 51
90.0
 52
90.0
 71
     2
 49
0.5
 62
   256
  6
BYLAYER
 49
-0.5
 62
   256
  6
BYLAYER
  0
ACDBPLACEHOLDER
  5
F
102
{ACAD_REACTORS
330
E
102
}
330
E
  0
SCALE
  5
48
102
{ACAD_REACTORS
330
47
102
}
330
47
100
AcDbScale
 70
     0
300
1:1
140
1.0
141
1.0
290
     1
  0
SCALE
  5
49
102
{ACAD_REACTORS
330
47
102
}
330
47
100
AcDbScale
 70
     0
300
1:2
140
1.0
141
2.0
290
     0
  0
SCALE
  5
4A
102
{ACAD_REACTORS
330
47
102
}
330
47
100
AcDbScale
 70
     0
300
1:4
140
1.0
141
4.0
290
     0
  0
SCALE
  5
4B
102
{ACAD_REACTORS
330
47
102
}
330
47
100
AcDbScale
 70
     0
300
1:5
140
1.0
141
5.0
290
     0
  0
SCALE
  5
4C
102
{ACAD_REACTORS
330
47
102
}
330
47
100
AcDbScale
 70
     0
300
1:8
140
1.0
141
8.0
290
     0
  0
SCALE
  5
4D
102
{ACAD_REACTORS
330
47
102
}
330
47
100
AcDbScale
 70
     0
300
1:10
140
1.0
141
10.0
290
     0
  0
SCALE
  5
4E
102
{ACAD_REACTORS
330
47
102
}
330
47
100
AcDbScale
 70
     0
300
1:16
140
1.0
141
16.0
290
     0
  0
SCALE
  5
4F
102
{ACAD_REACTORS
330
47
102
}
330
47
100
AcDbScale
 70
     0
300
1:20
140
1.0
141
20.0
290
     0
  0
SCALE
  5
50
102
{ACAD_REACTORS
330
47
102
}
330
47
100
AcDbScale
 70
     0
300
1:30
140
1.0
141
30.0
290
     0
  0
SCALE
  5
51
102
{ACAD_REACTORS
330
47
102
}
330
47
100
AcDbScale
 70
     0
300
1:40
140
1.0
141
40.0
290
     0
  0
SCALE
  5
52
102
{ACAD_REACTORS
330
47
102
}
330
47
100
AcDbScale
 70
     0
300
1:50
140
1.0
141
50.0
290
     0
  0
SCALE
  5
53
102
{ACAD_REACTORS
330
47
102
}
330
47
100
AcDbScale
 70
     0
300
1:100
140
1.0
141
100.0
290
     0
  0
SCALE
  5
54
102
{ACAD_REACTORS
330
47
102
}
330
47
100
AcDbScale
 70
     0
300
2:1
140
2.0
141
1.0
290
     0
  0
SCALE
  5
55
102
{ACAD_REACTORS
330
47
102
}
330
47
100
AcDbScale
 70
     0
300
4:1
140
4.0
141
1.0
290
     0
  0
SCALE
  5
56
102
{ACAD_REACTORS
330
47
102
}
330
47
100
AcDbScale
 70
     0
300
8:1
140
8.0
141
1.0
290
     0
  0
SCALE
  5
57
102
{ACAD_REACTORS
330
47
102
}
330
47
100
AcDbScale
 70
     0
300
10:1
140
10.0
141
1.0
290
     0
  0
SCALE
  5
58
102
{ACAD_REACTORS
330
47
102
}
330
47
100
AcDbScale
 70
     0
300
100:1
140
100.0
141
1.0
290
     0
  0
SCALE
  5
59
102
{ACAD_REACTORS
330
47
102
}
330
47
100
AcDbScale
 70
     0
300
1/128" = 1'-0"
140
0.0078125
141
12.0
290
     0
  0
SCALE
  5
5A
102
{ACAD_REACTORS
330
47
102
}
330
47
100
AcDbScale
 70
     0
300
1/64" = 1'-0"
140
0.015625
141
12.0
290
     0
  0
SCALE
  5
5B
102
{ACAD_REACTORS
330
47
102
}
330
47
100
AcDbScale
 70
     0
300
1/32" = 1'-0"
140
0.03125
141
12.0
290
     0
  0
SCALE
  5
5C
102
{ACAD_REACTORS
330
47
102
}
330
47
100
AcDbScale
 70
     0
300
1/16" = 1'-0"
140
0.0625
141
12.0
290
     0
  0
SCALE
  5
5D
102
{ACAD_REACTORS
330
47
102
}
330
47
100
AcDbScale
 70
     0
300
3/32" = 1'-0"
140
0.09375
141
12.0
290
     0
  0
SCALE
  5
5E
102
{ACAD_REACTORS
330
47
102
}
330
47
100
AcDbScale
 70
     0
300
1/8" = 1'-0"
140
0.125
141
12.0
290
     0
  0
SCALE
  5
5F
102
{ACAD_REACTORS
330
47
102
}
330
47
100
AcDbScale
 70
     0
300
3/16" = 1'-0"
140
0.1875
141
12.0
290
     0
  0
SCALE
  5
60
102
{ACAD_REACTORS
330
47
102
}
330
47
100
AcDbScale
 70
     0
300
1/4" = 1'-0"
140
0.25
141
12.0
290
     0
  0
SCALE
  5
61
102
{ACAD_REACTORS
330
47
102
}
330
47
100
AcDbScale
 70
     0
300
3/8" = 1'-0"
140
0.375
141
12.0
290
     0
  0
SCALE
  5
62
102
{ACAD_REACTORS
330
47
102
}
330
47
100
AcDbScale
 70
     0
300
1/2" = 1'-0"
140
0.5
141
12.0
290
     0
  0
SCALE
  5
63
102
{ACAD_REACTORS
330
47
102
}
330
47
100
AcDbScale
 70
     0
300
3/4" = 1'-0"
140
0.75
141
12.0
290
     0
  0
SCALE
  5
64
102
{ACAD_REACTORS
330
47
102
}
330
47
100
AcDbScale
 70
     0
300
1" = 1'-0"
140
1.0
141
12.0
290
     0
  0
SCALE
  5
65
102
{ACAD_REACTORS
330
47
102
}
330
47
100
AcDbScale
 70
     0
300
1-1/2" = 1'-0"
140
1.5
141
12.0
290
     0
  0
SCALE
  5
66
102
{ACAD_REACTORS
330
47
102
}
330
47
100
AcDbScale
 70
     0
300
3" = 1'-0"
140
3.0
141
12.0
290
     0
  0
SCALE
  5
67
102
{ACAD_REACTORS
330
47
102
}
330
47
100
AcDbScale
 70
     0
300
6" = 1'-0"
140
6.0
141
12.0
290
     0
  0
SCALE
  5
68
102
{ACAD_REACTORS
330
47
102
}
330
47
100
AcDbScale
 70
     0
300
1'-0" = 1'-0"
140
12.0
141
12.0
290
     0
  0
TABLESTYLE
  5
6A
102
{ACAD_REACTORS
330
69
102
}
330
69
100
AcDbTableStyle
  3
Standard
 70
     0
 71
     0
 40
0.06
 41
0.06
280
     0
281
     0
  7
Standard
140
4.5
170
     2
 62
     0
 63
   257
283
     0
274
    -2
284
     1
 64
     0
275
    -2
285
     1
 65
     0
276
    -2
286
     1
 66
     0
277
    -2
287
     1
 67
     0
278
    -2
288
     1
 68
     0
279
    -2
289
     1
 69
     0
  7
Standard
140
6.0
170
     5
 62
     0
 63
   257
283
     0
274
    -2
284
     1
 64
     0
275
    -2
285
     1
 65
     0
276
    -2
286
     1
 66
     0
277
    -2
287
     1
 67
     0
278
    -2
288
     1
 68
     0
279
    -2
289
     1
 69
     0
  7
Standard
140
4.5
170
     5
 62
     0
 63
   257
283
     0
274
    -2
284
     1
 64
     0
275
    -2
285
     1
 65
     0
276
    -2
286
     1
 66
     0
277
    -2
287
     1
 67
     0
278
    -2
288
     1
 68
     0
279
    -2
289
     1
 69
     0
  0
VISUALSTYLE
  5
2F
102
{ACAD_REACTORS
330
2A
102
}
102
{ACAD_XDICTIONARY
360
1B5
102
}
330
2A
100
AcDbVisualStyle
  2
2dWireframe
 70
     4
 71
     0
 72
     2
 73
     0
 90
        0
 40
0.6
 41
30.0
 62
     5
 63
     7
 74
     1
 91
        4
 64
     7
 65
   257
 75
     1
175
     1
 42
1.0
 92
        0
 66
   257
 43
1.0
 76
     1
 77
     6
 78
     2
 67
     7
 79
     5
170
     0
171
     0
290
     0
174
     0
 93
        1
 44
0.0
173
     0
291
     0
 45
0.0
1001
ACAD
1000
AcDbSavedByObjectVersion
1070
     0
  0
VISUALSTYLE
  5
32
102
{ACAD_REACTORS
330
2A
102
}
102
{ACAD_XDICTIONARY
360
1BB
102
}
330
2A
100
AcDbVisualStyle
  2
Basic
 70
     7
 71
     1
 72
     0
 73
     1
 90
        0
 40
0.6
 41
30.0
 62
     5
 63
     7
 74
     0
 91
        4
 64
     7
 65
   257
 75
     1
175
     1
 42
1.0
 92
        8
 66
     7
 43
1.0
 76
     1
 77
     6
 78
     2
 67
     7
 79
     5
170
     0
171
     0
290
     0
174
     0
 93
        1
 44
0.0
173
     0
291
     1
 45
0.0
1001
ACAD
1000
AcDbSavedByObjectVersion
1070
     0
  0
VISUALSTYLE
  5
36
102
{ACAD_REACTORS
330
2A
102
}
102
{ACAD_XDICTIONARY
360
1C3
102
}
330
2A
100
AcDbVisualStyle
  2
Brighten
 70
    12
 71
     2
 72
     2
 73
     0
 90
        0
 40
0.6
 41
30.0
 62
     5
 63
     7
 74
     1
 91
        4
 64
     7
 65
   257
 75
     1
175
     1
 42
1.0
 92
        8
 66
     7
 43
1.0
 76
     1
 77
     6
 78
     2
 67
     7
 79
     5
170
     0
171
     0
290
     0
174
     0
 93
        1
 44
50.0
173
     0
291
     1
 45
0.0
1001
ACAD
1000
AcDbSavedByObjectVersion
1070
     0
  0
VISUALSTYLE
  5
3A
102
{ACAD_REACTORS
330
2A
102
}
102
{ACAD_XDICTIONARY
360
1CB
102
}
330
2A
100
AcDbVisualStyle
  2
ColorChange
 70
    16
 71
     2
 72
     2
 73
     3
 90
        0
 40
0.6
 41
30.0
 62
     5
 63
     8
 74
     1
 91
        4
 64
     7
 65
   257
 75
     1
175
     1
 42
1.0
 92
        8
 66
     8
 43
1.0
 76
     1
 77
     6
 78
     2
 67
     7
 79
     5
170
     0
171
     0
290
     0
174
     0
 93
        1
 44
0.0
173
     0
291
     1
 45
0.0
1001
ACAD
1000
AcDbSavedByObjectVersion
1070
     0
  0
VISUALSTYLE
  5
34
102
{ACAD_REACTORS
330
2A
102
}
102
{ACAD_XDICTIONARY
360
1BF
102
}
330
2A
100
AcDbVisualStyle
  2
Conceptual
 70
     9
 71
     3
 72
     2
 73
     0
 90
        0
 40
0.6
 41
30.0
 62
     5
 63
     7
 74
     2
 91
        2
 64
     7
 65
   257
 75
     1
175
     1
 42
179.0
 92
        8
 66
     7
 43
1.0
 76
     1
 77
     6
 78
     2
 67
     7
 79
     3
170
     0
171
     0
290
     0
174
     0
 93
        1
 44
0.0
173
     0
291
     0
 45
0.0
1001
ACAD
1000
AcDbSavedByObjectVersion
1070
     0
  0
VISUALSTYLE
  5
35
102
{ACAD_REACTORS
330
2A
102
}
102
{ACAD_XDICTIONARY
360
1C1
102
}
330
2A
100
AcDbVisualStyle
  2
Dim
 70
    11
 71
     2
 72
     2
 73
     0
 90
        0
 40
0.6
 41
30.0
 62
     5
 63
     7
 74
     1
 91
        4
 64
     7
 65
   257
 75
     1
175
     1
 42
1.0
 92
        8
 66
     7
 43
1.0
 76
     1
 77
     6
 78
     2
 67
     7
 79
     5
170
     0
171
     0
290
     0
174
     0
 93
        1
 44
-50.0
173
     0
291
     1
 45
0.0
1001
ACAD
1000
AcDbSavedByObjectVersion
1070
     0
  0
VISUALSTYLE
  5
3D
102
{ACAD_REACTORS
330
2A
102
}
102
{ACAD_XDICTIONARY
360
1D1
102
}
330
2A
100
AcDbVisualStyle
  2
EdgeColorOff
 70
    22
 71
     2
 72
     2
 73
     0
 90
        0
 40
0.6
 41
30.0
 62
     5
 63
     7
 74
     1
 91
        4
 64
     7
 65
   257
 75
     1
175
     1
 42
1.0
 92
        8
 66
     7
 43
1.0
 76
     1
 77
     6
 78
     2
 67
     7
 79
     5
170
     0
171
     0
290
     0
174
     0
 93
        1
 44
0.0
173
     0
291
     1
 45
0.0
1001
ACAD
1000
AcDbSavedByObjectVersion
1070
     0
  0
VISUALSTYLE
  5
39
102
{ACAD_REACTORS
330
2A
102
}
102
{ACAD_XDICTIONARY
360
1C9
102
}
330
2A
100
AcDbVisualStyle
  2
Facepattern
 70
    15
 71
     2
 72
     2
 73
     0
 90
        0
 40
0.6
 41
30.0
 62
     5
 63
     7
 74
     1
 91
        4
 64
     7
 65
   257
 75
     1
175
     1
 42
1.0
 92
        8
 66
     7
 43
1.0
 76
     1
 77
     6
 78
     2
 67
     7
 79
     5
170
     0
171
     0
290
     0
174
     0
 93
        1
 44
0.0
173
     0
291
     1
 45
0.0
1001
ACAD
1000
AcDbSavedByObjectVersion
1070
     0
  0
VISUALSTYLE
  5
2B
102
{ACAD_REACTORS
330
2A
102
}
102
{ACAD_XDICTIONARY
360
1AD
102
}
330
2A
100
AcDbVisualStyle
  2
Flat
 70
     0
 71
     2
 72
     1
 73
     1
 90
        2
 40
0.6
 41
30.0
 62
     5
 63
     7
 74
     0
 91
        0
 64
     7
 65
   257
 75
     1
175
     1
 42
1.0
 92
        8
 66
     7
 43
1.0
 76
     1
 77
     6
 78
     2
 67
     7
 79
     5
170
     0
171
     0
290
     0
174
     0
 93
       13
 44
0.0
173
     0
291
     1
 45
0.0
1001
ACAD
1000
AcDbSavedByObjectVersion
1070
     0
  0
VISUALSTYLE
  5
2C
102
{ACAD_REACTORS
330
2A
102
}
102
{ACAD_XDICTIONARY
360
1AF
102
}
330
2A
100
AcDbVisualStyle
  2
FlatWithEdges
 70
     1
 71
     2
 72
     1
 73
     1
 90
        2
 40
0.6
 41
30.0
 62
     5
 63
     7
 74
     1
 91
        0
 64
     7
 65
   257
 75
     1
175
     1
 42
1.0
 92
        0
 66
   257
 43
1.0
 76
     1
 77
     6
 78
     2
 67
     7
 79
     5
170
     0
171
     0
290
     0
174
     0
 93
       13
 44
0.0
173
     0
291
     1
 45
0.0
1001
ACAD
1000
AcDbSavedByObjectVersion
1070
     0
  0
VISUALSTYLE
  5
2D
102
{ACAD_REACTORS
330
2A
102
}
102
{ACAD_XDICTIONARY
360
1B1
102
}
330
2A
100
AcDbVisualStyle
  2
Gouraud
 70
     2
 71
     2
 72
     2
 73
     1
 90
        2
 40
0.6
 41
30.0
 62
     5
 63
     7
 74
     0
 91
        0
 64
     7
 65
   257
 75
     1
175
     1
 42
1.0
 92
        0
 66
     7
 43
1.0
 76
     1
 77
     6
 78
     2
 67
     7
 79
     5
170
     0
171
     0
290
     0
174
     0
 93
       13
 44
0.0
173
     0
291
     1
 45
0.0
1001
ACAD
1000
AcDbSavedByObjectVersion
1070
     0
  0
VISUALSTYLE
  5
2E
102
{ACAD_REACTORS
330
2A
102
}
102
{ACAD_XDICTIONARY
360
1B3
102
}
330
2A
100
AcDbVisualStyle
  2
GouraudWithEdges
 70
     3
 71
     2
 72
     2
 73
     1
 90
        2
 40
0.6
 41
30.0
 62
     5
 63
     7
 74
     1
 91
        0
 64
     7
 65
   257
 75
     1
175
     1
 42
1.0
 92
        0
 66
   257
 43
1.0
 76
     1
 77
     6
 78
     2
 67
     7
 79
     5
170
     0
171
     0
290
     0
174
     0
 93
       13
 44
0.0
173
     0
291
     1
 45
0.0
1001
ACAD
1000
AcDbSavedByObjectVersion
1070
     0
  0
VISUALSTYLE
  5
31
102
{ACAD_REACTORS
330
2A
102
}
102
{ACAD_XDICTIONARY
360
1B9
102
}
330
2A
100
AcDbVisualStyle
  2
Hidden
 70
     6
 71
     1
 72
     2
 73
     2
 90
        0
 40
0.6
 41
30.0
 62
     5
 63
     7
 74
     2
 91
        2
 64
     7
 65
   257
 75
     2
175
     1
 42
40.0
 92
        0
 66
   257
 43
1.0
 76
     1
 77
     6
 78
     2
 67
     7
 79
     3
170
     0
171
     0
290
     0
174
     0
 93
        1
 44
0.0
173
     0
291
     0
 45
0.0
1001
ACAD
1000
AcDbSavedByObjectVersion
1070
     0
  0
VISUALSTYLE
  5
3B
102
{ACAD_REACTORS
330
2A
102
}
102
{ACAD_XDICTIONARY
360
1CD
102
}
330
2A
100
AcDbVisualStyle
  2
JitterOff
 70
    20
 71
     2
 72
     2
 73
     0
 90
        0
 40
0.6
 41
30.0
 62
     5
 63
     7
 74
     1
 91
        4
 64
     7
 65
   257
 75
     1
175
     1
 42
1.0
 92
       10
 66
     7
 43
1.0
 76
     1
 77
     6
 78
     2
 67
     7
 79
     5
170
     0
171
     0
290
     0
174
     0
 93
        1
 44
0.0
173
     0
291
     1
 45
0.0
1001
ACAD
1000
AcDbSavedByObjectVersion
1070
     0
  0
VISUALSTYLE
  5
38
102
{ACAD_REACTORS
330
2A
102
}
102
{ACAD_XDICTIONARY
360
1C7
102
}
330
2A
100
AcDbVisualStyle
  2
Linepattern
 70
    14
 71
     2
 72
     2
 73
     0
 90
        0
 40
0.6
 41
30.0
 62
     5
 63
     7
 74
     1
 91
        4
 64
     7
 65
   257
 75
     7
175
     7
 42
1.0
 92
        8
 66
     7
 43
1.0
 76
     1
 77
     6
 78
     2
 67
     7
 79
     5
170
     0
171
     0
290
     0
174
     0
 93
        1
 44
0.0
173
     0
291
     1
 45
0.0
1001
ACAD
1000
AcDbSavedByObjectVersion
1070
     0
  0
VISUALSTYLE
  5
3C
102
{ACAD_REACTORS
330
2A
102
}
102
{ACAD_XDICTIONARY
360
1CF
102
}
330
2A
100
AcDbVisualStyle
  2
OverhangOff
 70
    21
 71
     2
 72
     2
 73
     0
 90
        0
 40
0.6
 41
30.0
 62
     5
 63
     7
 74
     1
 91
        4
 64
     7
 65
   257
 75
     1
175
     1
 42
1.0
 92
        9
 66
     7
 43
1.0
 76
     1
 77
     6
 78
     2
 67
     7
 79
     5
170
     0
171
     0
290
     0
174
     0
 93
        1
 44
0.0
173
     0
291
     1
 45
0.0
1001
ACAD
1000
AcDbSavedByObjectVersion
1070
     0
  0
VISUALSTYLE
  5
33
102
{ACAD_REACTORS
330
2A
102
}
102
{ACAD_XDICTIONARY
360
1BD
102
}
330
2A
100
AcDbVisualStyle
  2
Realistic
 70
     8
 71
     2
 72
     3
 73
     0
 90
        2
 40
0.6
 41
30.0
 62
     5
 63
     7
 74
     0
 91
        0
 64
     7
 65
   257
 75
     1
175
     1
 42
1.0
 92
        8
 66
   257
 43
1.0
 76
     1
 77
     6
 78
     2
 67
     7
 79
     3
170
     0
171
     0
290
     0
174
     0
 93
       13
 44
0.0
173
     0
291
     0
 45
0.0
1001
ACAD
1000
AcDbSavedByObjectVersion
1070
     0
  0
VISUALSTYLE
  5
42
102
{ACAD_REACTORS
330
2A
102
}
102
{ACAD_XDICTIONARY
360
1DB
102
}
330
2A
100
AcDbVisualStyle
  2
Shaded
 70
    27
 71
     2
 72
     2
 73
     1
 90
        2
 40
0.6
 41
30.0
 62
     5
 63
     7
 74
     0
 91
        4
 64
     7
 65
   257
 75
     1
175
     1
 42
1.0
 92
        8
 66
   257
 43
1.0
 76
     1
 77
     6
 78
     2
 67
     8
 79
     3
170
     0
171
     0
290
     0
174
     0
 93
        5
 44
0.0
173
     0
291
     0
 45
0.0
1001
ACAD
1000
AcDbSavedByObjectVersion
1070
     0
  0
VISUALSTYLE
  5
41
102
{ACAD_REACTORS
330
2A
102
}
102
{ACAD_XDICTIONARY
360
1D9
102
}
330
2A
100
AcDbVisualStyle
  2
Shaded with edges
 70
    26
 71
     2
 72
     2
 73
     1
 90
        2
 40
0.6
 41
30.0
 62
     5
 63
     7
 74
     1
 91
       10
 64
     7
 65
   257
 75
     2
175
     1
 42
1.0
 92
        8
 66
   257
 43
1.0
 76
     1
 77
     6
 78
     2
 67
     7
 79
     3
170
     0
171
     0
290
     0
174
     0
 93
        5
 44
0.0
173
     0
291
     0
 45
0.0
1001
ACAD
1000
AcDbSavedByObjectVersion
1070
     0
  0
VISUALSTYLE
  5
3E
102
{ACAD_REACTORS
330
2A
102
}
102
{ACAD_XDICTIONARY
360
1D3
102
}
330
2A
100
AcDbVisualStyle
  2
Shades of Gray
 70
    23
 71
     2
 72
     2
 73
     3
 90
        0
 40
0.6
 41
30.0
 62
     5
 63
     7
 74
     2
 91
        2
 64
     7
 65
     7
 75
     1
175
     1
 42
40.0
 92
        8
 66
     7
 43
1.0
 76
     1
 77
     6
 78
     2
 67
     7
 79
     3
170
     0
171
     0
290
     0
174
     0
 93
        1
 44
0.0
173
     0
291
     0
 45
0.0
1001
ACAD
1000
AcDbSavedByObjectVersion
1070
     0
  0
VISUALSTYLE
  5
3F
102
{ACAD_REACTORS
330
2A
102
}
102
{ACAD_XDICTIONARY
360
1D5
102
}
330
2A
100
AcDbVisualStyle
  2
Sketchy
 70
    24
 71
     1
 72
     2
 73
     2
 90
        0
 40
0.6
 41
30.0
 62
     5
 63
     7
 74
     2
 91
        2
 64
     7
 65
     7
 75
     1
175
     1
 42
40.0
 92
       11
 66
     7
 43
1.0
 76
     1
 77
     6
 78
     2
 67
     7
 79
     6
170
     0
171
     0
290
     0
174
     0
 93
        1
 44
0.0
173
     0
291
     0
 45
0.0
1001
ACAD
1000
AcDbSavedByObjectVersion
1070
     0
  0
VISUALSTYLE
  5
37
102
{ACAD_REACTORS
330
2A
102
}
102
{ACAD_XDICTIONARY
360
1C5
102
}
330
2A
100
AcDbVisualStyle
  2
Thicken
 70
    13
 71
     2
 72
     2
 73
     0
 90
        0
 40
0.6
 41
30.0
 62
     5
 63
     7
 74
     1
 91
        4
 64
     7
 65
   257
 75
     1
175
     1
 42
1.0
 92
       12
 66
     7
 43
1.0
 76
     1
 77
     6
 78
     2
 67
     7
 79
     5
170
     0
171
     0
290
     0
174
     0
 93
        1
 44
0.0
173
     0
291
     1
 45
0.0
1001
ACAD
1000
AcDbSavedByObjectVersion
1070
     0
  0
VISUALSTYLE
  5
30
102
{ACAD_REACTORS
330
2A
102
}
102
{ACAD_XDICTIONARY
360
1B7
102
}
330
2A
100
AcDbVisualStyle
  2
Wireframe
 70
     5
 71
     0
 72
     2
 73
     0
 90
        0
 40
0.6
 41
30.0
 62
     5
 63
     7
 74
     1
 91
        4
 64
     7
 65
   257
 75
     1
175
     1
 42
1.0
 92
        0
 66
   257
 43
1.0
 76
     1
 77
     6
 78
     2
 67
     7
 79
     3
170
     0
171
     0
290
     0
174
     0
 93
        1
 44
0.0
173
     0
291
     0
 45
0.0
1001
ACAD
1000
AcDbSavedByObjectVersion
1070
     0
  0
VISUALSTYLE
  5
40
102
{ACAD_REACTORS
330
2A
102
}
102
{ACAD_XDICTIONARY
360
1D7
102
}
330
2A
100
AcDbVisualStyle
  2
X-Ray
 70
    25
 71
     2
 72
     2
 73
     1
 90
        1
 40
0.5
 41
30.0
 62
     5
 63
     7
 74
     1
 91
        0
 64
     7
 65
   257
 75
     1
175
     1
 42
1.0
 92
        8
 66
     7
 43
1.0
 76
     1
 77
     6
 78
     2
 67
     7
 79
     3
170
     0
171
     0
290
     0
174
     0
 93
       13
 44
0.0
173
     0
291
     0
 45
0.0
1001
ACAD
1000
AcDbSavedByObjectVersion
1070
     0
  0
DICTIONARYVAR
  5
164
102
{ACAD_REACTORS
330
163
102
}
330
163
100
DictionaryVariables
280
     0
  1
1:1
  0
DICTIONARYVAR
  5
19D
102
{ACAD_REACTORS
330
163
102
}
330
163
100
DictionaryVariables
280
     0
  1
Standard
  0
DICTIONARYVAR
  5
19C
102
{ACAD_REACTORS
330
163
102
}
330
163
100
DictionaryVariables
280
     0
  1
Standard
  0
DICTIONARYVAR
  5
1A5
102
{ACAD_REACTORS
330
163
102
}
330
163
100
DictionaryVariables
280
     0
  1
2
  0
DICTIONARYVAR
  5
1A6
102
{ACAD_REACTORS
330
163
102
}
330
163
100
DictionaryVariables
280
     0
  1
1
  0
DICTIONARYVAR
  5
1AC
102
{ACAD_REACTORS
330
163
102
}
330
163
100
DictionaryVariables
280
     0
  1
1
  0
DICTIONARYVAR
  5
1A4
102
{ACAD_REACTORS
330
163
102
}
330
163
100
DictionaryVariables
280
     0
  1
80.000000
  0
DICTIONARYVAR
  5
1A3
102
{ACAD_REACTORS
330
163
102
}
330
163
100
DictionaryVariables
280
     0
  1
5.000000
  0
DICTIONARYVAR
  5
1A0
102
{ACAD_REACTORS
330
163
102
}
330
163
100
DictionaryVariables
280
     0
  1
6.000000
  0
DICTIONARYVAR
  5
165
102
{ACAD_REACTORS
330
163
102
}
330
163
100
DictionaryVariables
280
     0
  1
2
  0
DICTIONARY
  5
1DF
330
45
100
AcDbDictionary
280
     1
281
     1
  3
ACAD_XREC_ROUNDTRIP
360
1E0
  0
DICTIONARY
  5
1DD
330
44
100
AcDbDictionary
280
     1
281
     1
  3
ACAD_XREC_ROUNDTRIP
360
1DE
  0
DICTIONARY
  5
1E1
330
46
100
AcDbDictionary
280
     1
281
     1
  3
ACAD_XREC_ROUNDTRIP
360
1E2
  0
DICTIONARY
  5
1E3
330
6C
100
AcDbDictionary
280
     1
281
     1
  3
ACAD_XREC_ROUNDTRIP
360
1E4
  0
DICTIONARY
  5
1B5
330
2F
100
AcDbDictionary
280
     1
281
     1
  3
ACAD_XREC_ROUNDTRIP
360
1B6
  0
DICTIONARY
  5
1BB
330
32
100
AcDbDictionary
280
     1
281
     1
  3
ACAD_XREC_ROUNDTRIP
360
1BC
  0
DICTIONARY
  5
1C3
330
36
100
AcDbDictionary
280
     1
281
     1
  3
ACAD_XREC_ROUNDTRIP
360
1C4
  0
DICTIONARY
  5
1CB
330
3A
100
AcDbDictionary
280
     1
281
     1
  3
ACAD_XREC_ROUNDTRIP
360
1CC
  0
DICTIONARY
  5
1BF
330
34
100
AcDbDictionary
280
     1
281
     1
  3
ACAD_XREC_ROUNDTRIP
360
1C0
  0
DICTIONARY
  5
1C1
330
35
100
AcDbDictionary
280
     1
281
     1
  3
ACAD_XREC_ROUNDTRIP
360
1C2
  0
DICTIONARY
  5
1D1
330
3D
100
AcDbDictionary
280
     1
281
     1
  3
ACAD_XREC_ROUNDTRIP
360
1D2
  0
DICTIONARY
  5
1C9
330
39
100
AcDbDictionary
280
     1
281
     1
  3
ACAD_XREC_ROUNDTRIP
360
1CA
  0
DICTIONARY
  5
1AD
330
2B
100
AcDbDictionary
280
     1
281
     1
  3
ACAD_XREC_ROUNDTRIP
360
1AE
  0
DICTIONARY
  5
1AF
330
2C
100
AcDbDictionary
280
     1
281
     1
  3
ACAD_XREC_ROUNDTRIP
360
1B0
  0
DICTIONARY
  5
1B1
330
2D
100
AcDbDictionary
280
     1
281
     1
  3
ACAD_XREC_ROUNDTRIP
360
1B2
  0
DICTIONARY
  5
1B3
330
2E
100
AcDbDictionary
280
     1
281
     1
  3
ACAD_XREC_ROUNDTRIP
360
1B4
  0
DICTIONARY
  5
1B9
330
31
100
AcDbDictionary
280
     1
281
     1
  3
ACAD_XREC_ROUNDTRIP
360
1BA
  0
DICTIONARY
  5
1CD
330
3B
100
AcDbDictionary
280
     1
281
     1
  3
ACAD_XREC_ROUNDTRIP
360
1CE
  0
DICTIONARY
  5
1C7
330
38
100
AcDbDictionary
280
     1
281
     1
  3
ACAD_XREC_ROUNDTRIP
360
1C8
  0
DICTIONARY
  5
1CF
330
3C
100
AcDbDictionary
280
     1
281
     1
  3
ACAD_XREC_ROUNDTRIP
360
1D0
  0
DICTIONARY
  5
1BD
330
33
100
AcDbDictionary
280
     1
281
     1
  3
ACAD_XREC_ROUNDTRIP
360
1BE
  0
DICTIONARY
  5
1DB
330
42
100
AcDbDictionary
280
     1
281
     1
  3
ACAD_XREC_ROUNDTRIP
360
1DC
  0
DICTIONARY
  5
1D9
330
41
100
AcDbDictionary
280
     1
281
     1
  3
ACAD_XREC_ROUNDTRIP
360
1DA
  0
DICTIONARY
  5
1D3
330
3E
100
AcDbDictionary
280
     1
281
     1
  3
ACAD_XREC_ROUNDTRIP
360
1D4
  0
DICTIONARY
  5
1D5
330
3F
100
AcDbDictionary
280
     1
281
     1
  3
ACAD_XREC_ROUNDTRIP
360
1D6
  0
DICTIONARY
  5
1C5
330
37
100
AcDbDictionary
280
     1
281
     1
  3
ACAD_XREC_ROUNDTRIP
360
1C6
  0
DICTIONARY
  5
1B7
330
30
100
AcDbDictionary
280
     1
281
     1
  3
ACAD_XREC_ROUNDTRIP
360
1B8
  0
DICTIONARY
  5
1D7
330
40
100
AcDbDictionary
280
     1
281
     1
  3
ACAD_XREC_ROUNDTRIP
360
1D8
  0
XRECORD
  5
1E0
102
{ACAD_REACTORS
330
1DF
102
}
330
1DF
100
AcDbXrecord
280
     1
102
MATERIAL
148
0.0
149
0.0
149
0.0
 93
        0
 94
      127
282
     0
 72
     1
 77
     1
171
     1
175
     1
179
     1
273
     0
  0
XRECORD
  5
1DE
102
{ACAD_REACTORS
330
1DD
102
}
330
1DD
100
AcDbXrecord
280
     1
102
MATERIAL
148
0.0
149
0.0
149
0.0
 93
        0
 94
      127
282
     0
 72
     1
 77
     1
171
     1
175
     1
179
     1
273
     0
  0
XRECORD
  5
1E2
102
{ACAD_REACTORS
330
1E1
102
}
330
1E1
100
AcDbXrecord
280
     1
102
MATERIAL
148
0.0
149
0.0
149
0.0
 93
        0
 94
      127
282
     0
 72
     1
 77
     1
171
     1
175
     1
179
     1
273
     0
  0
XRECORD
  5
1E4
102
{ACAD_REACTORS
330
1E3
102
}
330
1E3
100
AcDbXrecord
280
     1
102
ACAD_ROUNDTRIP_2010_MLEADER_STYLE
  0
XRECORD
  5
1B6
102
{ACAD_REACTORS
330
1B5
102
}
330
1B5
100
AcDbXrecord
280
     1
102
RTVSPropertyOp0
 70
     1
102
RTVSPropertyOp1
 70
     1
102
RTVSPropertyOp2
 70
     1
102
RTVSPropertyOp3
 70
     1
102
RTVSPropertyOp4
 70
     1
102
RTVSPropertyOp5
 70
     1
102
RTVSPropertyOp6
 70
     1
102
RTVSPropertyOp7
 70
     1
102
RTVSPropertyOp8
 70
     1
102
RTVSPropertyOp9
 70
     1
102
RTVSPropertyOp10
 70
     1
102
RTVSPropertyOp11
 70
     1
102
RTVSPropertyOp12
 70
     1
102
RTVSPropertyOp13
 70
     1
102
RTVSPropertyOp14
 70
     1
102
RTVSPropertyOp15
 70
     1
102
RTVSPropertyOp16
 70
     1
102
RTVSPropertyOp17
 70
     1
102
RTVSPropertyOp18
 70
     1
102
RTVSPropertyOp19
 70
     1
102
RTVSPropertyOp20
 70
     1
102
RTVSPropertyOp21
 70
     1
102
RTVSPropertyOp22
 70
     1
102
RTVSPropertyOp23
 70
     1
102
RTVSPropertyOp24
 70
     1
102
RTVSPropertyOp25
 70
     1
102
RTVSPropertyOp26
 70
     1
102
RTVSPropertyOp27
 70
     1
102
RTVSPropertyOp28
 70
     1
102
RTVSPropertyOp29
 70
     1
102
RTVSPropertyOp30
 70
     1
102
RTVSPropertyOp31
 70
     1
102
RTVSPropertyOp32
 70
     1
102
RTVSPropertyOp33
 70
     1
102
RTVSPropertyOp34
 70
     1
102
RTVSPropertyOp35
 70
     1
102
RTVSPropertyOp36
 70
     1
102
RTVSPropertyOp37
 70
     1
102
RTVSPropertyOp38
 70
     1
102
RTVSPropertyOp39
 70
     1
102
RTVSPropertyOp40
 70
     1
102
RTVSPropertyOp41
 70
     1
102
RTVSPropertyOp42
 70
     1
102
RTVSPropertyOp43
 70
     1
102
RTVSPropertyOp44
 70
     1
102
RTVSPropertyOp45
 70
     1
102
RTVSPropertyOp46
 70
     1
102
RTVSPropertyOp47
 70
     1
102
RTVSPropertyOp48
 70
     1
102
RTVSPropertyOp49
 70
     1
102
RTVSPropertyOp50
 70
     1
102
RTVSPropertyOp51
 70
     0
102
RTVSPropertyOp52
 70
     0
102
RTVSPropertyOp53
 70
     1
102
RTVSPropertyOp54
 70
     1
102
RTVSPropertyOp55
 70
     1
102
RTVSPropertyOp56
 70
     1
102
RTVSPropertyOp57
 70
     1
102
RTVSPost2010Prop28
280
     1
102
RTVSPost2010PropOp28
 70
     1
102
RTVSPost2010Prop29
280
     1
102
RTVSPost2010PropOp29
 70
     1
102
RTVSPost2010Prop30
280
     0
102
RTVSPost2010PropOp30
 70
     1
102
RTVSPost2010Prop31
280
     0
102
RTVSPost2010PropOp31
 70
     1
102
RTVSPost2010Prop32
280
     0
102
RTVSPost2010PropOp32
 70
     1
102
RTVSPost2010Prop33
280
     0
102
RTVSPost2010PropOp33
 70
     1
102
RTVSPost2010Prop34
280
     0
102
RTVSPost2010PropOp34
 70
     1
102
RTVSPost2010Prop35
280
     0
102
RTVSPost2010PropOp35
 70
     1
102
RTVSPost2010Prop36
280
     0
102
RTVSPost2010PropOp36
 70
     1
102
RTVSPost2010Prop37
 90
       50
102
RTVSPost2010PropOp37
 70
     1
102
RTVSPost2010Prop38
140
0.0
102
RTVSPost2010PropOp38
 70
     1
102
RTVSPost2010Prop39
140
1.0
102
RTVSPost2010PropOp39
 70
     1
102
RTVSPost2010Prop40
 90
        0
102
RTVSPost2010PropOp40
 70
     1
102
RTVSPost2010Prop41ColorIndex
 90
       18
102
RTVSPost2010Prop41ColorRGB
 90
        0
102
RTVSPost2010PropOp41
 70
     1
102
RTVSPost2010Prop42
 90
       50
102
RTVSPost2010PropOp42
 70
     1
102
RTVSPost2010Prop43
 90
        3
102
RTVSPost2010PropOp43
 70
     1
102
RTVSPost2010Prop44ColorIndex
 90
        5
102
RTVSPost2010Prop44ColorRGB
 90
      255
102
RTVSPost2010PropOp44
 70
     1
102
RTVSPost2010Prop45
280
     0
102
RTVSPost2010PropOp45
 70
     1
102
RTVSPost2010Prop46
 90
       50
102
RTVSPost2010PropOp46
 70
     1
102
RTVSPost2010Prop47
 90
       50
102
RTVSPost2010PropOp47
 70
     1
102
RTVSPost2010Prop48
 90
       50
102
RTVSPost2010PropOp48
 70
     1
102
RTVSPost2010Prop49
280
     0
102
RTVSPost2010PropOp49
 70
     1
102
RTVSPost2010Prop50
 90
       50
102
RTVSPost2010PropOp50
 70
     1
102
RTVSPost2010Prop51ColorIndex
 90
      256
102
RTVSPost2010Prop51ColorRGB
 90
-16777216
102
RTVSPost2010PropOp51
 70
     0
102
RTVSPost2010Prop52
140
1.0
102
RTVSPost2010PropOp52
 70
     0
102
RTVSPost2010Prop53
 90
        2
102
RTVSPost2010PropOp53
 70
     1
102
RTVSPost2010Prop54
  1
strokes_ogs.tif
102
RTVSPost2010PropOp54
 70
     1
102
RTVSPost2010Prop55
280
     0
102
RTVSPost2010PropOp55
 70
     1
102
RTVSPost2010Prop56
140
1.0
102
RTVSPost2010PropOp56
 70
     1
102
RTVSPost2010Prop57
140
1.0
102
RTVSPost2010PropOp57
 70
     1
  0
XRECORD
  5
1BC
102
{ACAD_REACTORS
330
1BB
102
}
330
1BB
100
AcDbXrecord
280
     1
102
RTVSPropertyOp0
 70
     1
102
RTVSPropertyOp1
 70
     1
102
RTVSPropertyOp2
 70
     1
102
RTVSPropertyOp3
 70
     1
102
RTVSPropertyOp4
 70
     1
102
RTVSPropertyOp5
 70
     1
102
RTVSPropertyOp6
 70
     1
102
RTVSPropertyOp7
 70
     1
102
RTVSPropertyOp8
 70
     1
102
RTVSPropertyOp9
 70
     1
102
RTVSPropertyOp10
 70
     1
102
RTVSPropertyOp11
 70
     1
102
RTVSPropertyOp12
 70
     1
102
RTVSPropertyOp13
 70
     1
102
RTVSPropertyOp14
 70
     1
102
RTVSPropertyOp15
 70
     1
102
RTVSPropertyOp16
 70
     1
102
RTVSPropertyOp17
 70
     1
102
RTVSPropertyOp18
 70
     1
102
RTVSPropertyOp19
 70
     1
102
RTVSPropertyOp20
 70
     1
102
RTVSPropertyOp21
 70
     1
102
RTVSPropertyOp22
 70
     1
102
RTVSPropertyOp23
 70
     1
102
RTVSPropertyOp24
 70
     1
102
RTVSPropertyOp25
 70
     1
102
RTVSPropertyOp26
 70
     1
102
RTVSPropertyOp27
 70
     1
102
RTVSPropertyOp28
 70
     1
102
RTVSPropertyOp29
 70
     1
102
RTVSPropertyOp30
 70
     1
102
RTVSPropertyOp31
 70
     1
102
RTVSPropertyOp32
 70
     1
102
RTVSPropertyOp33
 70
     1
102
RTVSPropertyOp34
 70
     1
102
RTVSPropertyOp35
 70
     1
102
RTVSPropertyOp36
 70
     1
102
RTVSPropertyOp37
 70
     1
102
RTVSPropertyOp38
 70
     1
102
RTVSPropertyOp39
 70
     1
102
RTVSPropertyOp40
 70
     1
102
RTVSPropertyOp41
 70
     1
102
RTVSPropertyOp42
 70
     1
102
RTVSPropertyOp43
 70
     1
102
RTVSPropertyOp44
 70
     1
102
RTVSPropertyOp45
 70
     1
102
RTVSPropertyOp46
 70
     1
102
RTVSPropertyOp47
 70
     1
102
RTVSPropertyOp48
 70
     1
102
RTVSPropertyOp49
 70
     1
102
RTVSPropertyOp50
 70
     1
102
RTVSPropertyOp51
 70
     0
102
RTVSPropertyOp52
 70
     0
102
RTVSPropertyOp53
 70
     1
102
RTVSPropertyOp54
 70
     1
102
RTVSPropertyOp55
 70
     1
102
RTVSPropertyOp56
 70
     1
102
RTVSPropertyOp57
 70
     1
102
RTVSPost2010Prop28
280
     0
102
RTVSPost2010PropOp28
 70
     1
102
RTVSPost2010Prop29
280
     1
102
RTVSPost2010PropOp29
 70
     1
102
RTVSPost2010Prop30
280
     1
102
RTVSPost2010PropOp30
 70
     1
102
RTVSPost2010Prop31
280
     0
102
RTVSPost2010PropOp31
 70
     1
102
RTVSPost2010Prop32
280
     0
102
RTVSPost2010PropOp32
 70
     1
102
RTVSPost2010Prop33
280
     0
102
RTVSPost2010PropOp33
 70
     1
102
RTVSPost2010Prop34
280
     0
102
RTVSPost2010PropOp34
 70
     1
102
RTVSPost2010Prop35
280
     0
102
RTVSPost2010PropOp35
 70
     1
102
RTVSPost2010Prop36
280
     0
102
RTVSPost2010PropOp36
 70
     1
102
RTVSPost2010Prop37
 90
       50
102
RTVSPost2010PropOp37
 70
     1
102
RTVSPost2010Prop38
140
0.0
102
RTVSPost2010PropOp38
 70
     1
102
RTVSPost2010Prop39
140
1.0
102
RTVSPost2010PropOp39
 70
     1
102
RTVSPost2010Prop40
 90
        0
102
RTVSPost2010PropOp40
 70
     1
102
RTVSPost2010Prop41ColorIndex
 90
       18
102
RTVSPost2010Prop41ColorRGB
 90
        0
102
RTVSPost2010PropOp41
 70
     1
102
RTVSPost2010Prop42
 90
       50
102
RTVSPost2010PropOp42
 70
     1
102
RTVSPost2010Prop43
 90
        3
102
RTVSPost2010PropOp43
 70
     1
102
RTVSPost2010Prop44ColorIndex
 90
        5
102
RTVSPost2010Prop44ColorRGB
 90
      255
102
RTVSPost2010PropOp44
 70
     1
102
RTVSPost2010Prop45
280
     0
102
RTVSPost2010PropOp45
 70
     1
102
RTVSPost2010Prop46
 90
       50
102
RTVSPost2010PropOp46
 70
     1
102
RTVSPost2010Prop47
 90
       50
102
RTVSPost2010PropOp47
 70
     1
102
RTVSPost2010Prop48
 90
       50
102
RTVSPost2010PropOp48
 70
     1
102
RTVSPost2010Prop49
280
     0
102
RTVSPost2010PropOp49
 70
     1
102
RTVSPost2010Prop50
 90
       50
102
RTVSPost2010PropOp50
 70
     1
102
RTVSPost2010Prop51ColorIndex
 90
      256
102
RTVSPost2010Prop51ColorRGB
 90
-16777216
102
RTVSPost2010PropOp51
 70
     0
102
RTVSPost2010Prop52
140
1.0
102
RTVSPost2010PropOp52
 70
     0
102
RTVSPost2010Prop53
 90
        2
102
RTVSPost2010PropOp53
 70
     1
102
RTVSPost2010Prop54
  1
strokes_ogs.tif
102
RTVSPost2010PropOp54
 70
     1
102
RTVSPost2010Prop55
280
     0
102
RTVSPost2010PropOp55
 70
     1
102
RTVSPost2010Prop56
140
1.0
102
RTVSPost2010PropOp56
 70
     1
102
RTVSPost2010Prop57
140
1.0
102
RTVSPost2010PropOp57
 70
     1
  0
XRECORD
  5
1C4
102
{ACAD_REACTORS
330
1C3
102
}
330
1C3
100
AcDbXrecord
280
     1
102
RTVSPropertyOp0
 70
     1
102
RTVSPropertyOp1
 70
     1
102
RTVSPropertyOp2
 70
     1
102
RTVSPropertyOp3
 70
     1
102
RTVSPropertyOp4
 70
     1
102
RTVSPropertyOp5
 70
     1
102
RTVSPropertyOp6
 70
     1
102
RTVSPropertyOp7
 70
     1
102
RTVSPropertyOp8
 70
     1
102
RTVSPropertyOp9
 70
     1
102
RTVSPropertyOp10
 70
     1
102
RTVSPropertyOp11
 70
     1
102
RTVSPropertyOp12
 70
     1
102
RTVSPropertyOp13
 70
     1
102
RTVSPropertyOp14
 70
     1
102
RTVSPropertyOp15
 70
     1
102
RTVSPropertyOp16
 70
     1
102
RTVSPropertyOp17
 70
     1
102
RTVSPropertyOp18
 70
     1
102
RTVSPropertyOp19
 70
     1
102
RTVSPropertyOp20
 70
     1
102
RTVSPropertyOp21
 70
     1
102
RTVSPropertyOp22
 70
     1
102
RTVSPropertyOp23
 70
     1
102
RTVSPropertyOp24
 70
     1
102
RTVSPropertyOp25
 70
     1
102
RTVSPropertyOp26
 70
     1
102
RTVSPropertyOp27
 70
     1
102
RTVSPropertyOp28
 70
     1
102
RTVSPropertyOp29
 70
     1
102
RTVSPropertyOp30
 70
     1
102
RTVSPropertyOp31
 70
     1
102
RTVSPropertyOp32
 70
     1
102
RTVSPropertyOp33
 70
     1
102
RTVSPropertyOp34
 70
     1
102
RTVSPropertyOp35
 70
     1
102
RTVSPropertyOp36
 70
     1
102
RTVSPropertyOp37
 70
     1
102
RTVSPropertyOp38
 70
     1
102
RTVSPropertyOp39
 70
     1
102
RTVSPropertyOp40
 70
     1
102
RTVSPropertyOp41
 70
     1
102
RTVSPropertyOp42
 70
     1
102
RTVSPropertyOp43
 70
     1
102
RTVSPropertyOp44
 70
     1
102
RTVSPropertyOp45
 70
     1
102
RTVSPropertyOp46
 70
     1
102
RTVSPropertyOp47
 70
     1
102
RTVSPropertyOp48
 70
     1
102
RTVSPropertyOp49
 70
     1
102
RTVSPropertyOp50
 70
     1
102
RTVSPropertyOp51
 70
     0
102
RTVSPropertyOp52
 70
     0
102
RTVSPropertyOp53
 70
     1
102
RTVSPropertyOp54
 70
     1
102
RTVSPropertyOp55
 70
     1
102
RTVSPropertyOp56
 70
     1
102
RTVSPropertyOp57
 70
     1
102
RTVSPost2010Prop28
280
     0
102
RTVSPost2010PropOp28
 70
     1
102
RTVSPost2010Prop29
280
     1
102
RTVSPost2010PropOp29
 70
     1
102
RTVSPost2010Prop30
280
     1
102
RTVSPost2010PropOp30
 70
     1
102
RTVSPost2010Prop31
280
     0
102
RTVSPost2010PropOp31
 70
     1
102
RTVSPost2010Prop32
280
     0
102
RTVSPost2010PropOp32
 70
     1
102
RTVSPost2010Prop33
280
     0
102
RTVSPost2010PropOp33
 70
     1
102
RTVSPost2010Prop34
280
     0
102
RTVSPost2010PropOp34
 70
     1
102
RTVSPost2010Prop35
280
     0
102
RTVSPost2010PropOp35
 70
     1
102
RTVSPost2010Prop36
280
     0
102
RTVSPost2010PropOp36
 70
     1
102
RTVSPost2010Prop37
 90
       50
102
RTVSPost2010PropOp37
 70
     1
102
RTVSPost2010Prop38
140
0.0
102
RTVSPost2010PropOp38
 70
     1
102
RTVSPost2010Prop39
140
1.0
102
RTVSPost2010PropOp39
 70
     1
102
RTVSPost2010Prop40
 90
        0
102
RTVSPost2010PropOp40
 70
     1
102
RTVSPost2010Prop41ColorIndex
 90
       18
102
RTVSPost2010Prop41ColorRGB
 90
        0
102
RTVSPost2010PropOp41
 70
     1
102
RTVSPost2010Prop42
 90
       50
102
RTVSPost2010PropOp42
 70
     1
102
RTVSPost2010Prop43
 90
        3
102
RTVSPost2010PropOp43
 70
     1
102
RTVSPost2010Prop44ColorIndex
 90
        5
102
RTVSPost2010Prop44ColorRGB
 90
      255
102
RTVSPost2010PropOp44
 70
     1
102
RTVSPost2010Prop45
280
     0
102
RTVSPost2010PropOp45
 70
     1
102
RTVSPost2010Prop46
 90
       50
102
RTVSPost2010PropOp46
 70
     1
102
RTVSPost2010Prop47
 90
       50
102
RTVSPost2010PropOp47
 70
     1
102
RTVSPost2010Prop48
 90
       50
102
RTVSPost2010PropOp48
 70
     1
102
RTVSPost2010Prop49
280
     0
102
RTVSPost2010PropOp49
 70
     1
102
RTVSPost2010Prop50
 90
       50
102
RTVSPost2010PropOp50
 70
     1
102
RTVSPost2010Prop51ColorIndex
 90
      256
102
RTVSPost2010Prop51ColorRGB
 90
-16777216
102
RTVSPost2010PropOp51
 70
     0
102
RTVSPost2010Prop52
140
1.0
102
RTVSPost2010PropOp52
 70
     0
102
RTVSPost2010Prop53
 90
        2
102
RTVSPost2010PropOp53
 70
     1
102
RTVSPost2010Prop54
  1
strokes_ogs.tif
102
RTVSPost2010PropOp54
 70
     1
102
RTVSPost2010Prop55
280
     0
102
RTVSPost2010PropOp55
 70
     1
102
RTVSPost2010Prop56
140
1.0
102
RTVSPost2010PropOp56
 70
     1
102
RTVSPost2010Prop57
140
1.0
102
RTVSPost2010PropOp57
 70
     1
  0
XRECORD
  5
1CC
102
{ACAD_REACTORS
330
1CB
102
}
330
1CB
100
AcDbXrecord
280
     1
102
RTVSPropertyOp0
 70
     1
102
RTVSPropertyOp1
 70
     1
102
RTVSPropertyOp2
 70
     1
102
RTVSPropertyOp3
 70
     1
102
RTVSPropertyOp4
 70
     1
102
RTVSPropertyOp5
 70
     1
102
RTVSPropertyOp6
 70
     1
102
RTVSPropertyOp7
 70
     1
102
RTVSPropertyOp8
 70
     1
102
RTVSPropertyOp9
 70
     1
102
RTVSPropertyOp10
 70
     1
102
RTVSPropertyOp11
 70
     1
102
RTVSPropertyOp12
 70
     1
102
RTVSPropertyOp13
 70
     1
102
RTVSPropertyOp14
 70
     1
102
RTVSPropertyOp15
 70
     1
102
RTVSPropertyOp16
 70
     1
102
RTVSPropertyOp17
 70
     1
102
RTVSPropertyOp18
 70
     1
102
RTVSPropertyOp19
 70
     1
102
RTVSPropertyOp20
 70
     1
102
RTVSPropertyOp21
 70
     1
102
RTVSPropertyOp22
 70
     1
102
RTVSPropertyOp23
 70
     1
102
RTVSPropertyOp24
 70
     1
102
RTVSPropertyOp25
 70
     1
102
RTVSPropertyOp26
 70
     1
102
RTVSPropertyOp27
 70
     1
102
RTVSPropertyOp28
 70
     1
102
RTVSPropertyOp29
 70
     1
102
RTVSPropertyOp30
 70
     1
102
RTVSPropertyOp31
 70
     1
102
RTVSPropertyOp32
 70
     1
102
RTVSPropertyOp33
 70
     1
102
RTVSPropertyOp34
 70
     1
102
RTVSPropertyOp35
 70
     1
102
RTVSPropertyOp36
 70
     1
102
RTVSPropertyOp37
 70
     1
102
RTVSPropertyOp38
 70
     1
102
RTVSPropertyOp39
 70
     1
102
RTVSPropertyOp40
 70
     1
102
RTVSPropertyOp41
 70
     1
102
RTVSPropertyOp42
 70
     1
102
RTVSPropertyOp43
 70
     1
102
RTVSPropertyOp44
 70
     1
102
RTVSPropertyOp45
 70
     1
102
RTVSPropertyOp46
 70
     1
102
RTVSPropertyOp47
 70
     1
102
RTVSPropertyOp48
 70
     1
102
RTVSPropertyOp49
 70
     1
102
RTVSPropertyOp50
 70
     1
102
RTVSPropertyOp51
 70
     0
102
RTVSPropertyOp52
 70
     0
102
RTVSPropertyOp53
 70
     1
102
RTVSPropertyOp54
 70
     1
102
RTVSPropertyOp55
 70
     1
102
RTVSPropertyOp56
 70
     1
102
RTVSPropertyOp57
 70
     1
102
RTVSPost2010Prop28
280
     0
102
RTVSPost2010PropOp28
 70
     1
102
RTVSPost2010Prop29
280
     1
102
RTVSPost2010PropOp29
 70
     1
102
RTVSPost2010Prop30
280
     1
102
RTVSPost2010PropOp30
 70
     1
102
RTVSPost2010Prop31
280
     0
102
RTVSPost2010PropOp31
 70
     1
102
RTVSPost2010Prop32
280
     0
102
RTVSPost2010PropOp32
 70
     1
102
RTVSPost2010Prop33
280
     0
102
RTVSPost2010PropOp33
 70
     1
102
RTVSPost2010Prop34
280
     0
102
RTVSPost2010PropOp34
 70
     1
102
RTVSPost2010Prop35
280
     0
102
RTVSPost2010PropOp35
 70
     1
102
RTVSPost2010Prop36
280
     0
102
RTVSPost2010PropOp36
 70
     1
102
RTVSPost2010Prop37
 90
       50
102
RTVSPost2010PropOp37
 70
     1
102
RTVSPost2010Prop38
140
0.0
102
RTVSPost2010PropOp38
 70
     1
102
RTVSPost2010Prop39
140
1.0
102
RTVSPost2010PropOp39
 70
     1
102
RTVSPost2010Prop40
 90
        0
102
RTVSPost2010PropOp40
 70
     1
102
RTVSPost2010Prop41ColorIndex
 90
       18
102
RTVSPost2010Prop41ColorRGB
 90
        0
102
RTVSPost2010PropOp41
 70
     1
102
RTVSPost2010Prop42
 90
       50
102
RTVSPost2010PropOp42
 70
     1
102
RTVSPost2010Prop43
 90
        3
102
RTVSPost2010PropOp43
 70
     1
102
RTVSPost2010Prop44ColorIndex
 90
        5
102
RTVSPost2010Prop44ColorRGB
 90
      255
102
RTVSPost2010PropOp44
 70
     1
102
RTVSPost2010Prop45
280
     0
102
RTVSPost2010PropOp45
 70
     1
102
RTVSPost2010Prop46
 90
       50
102
RTVSPost2010PropOp46
 70
     1
102
RTVSPost2010Prop47
 90
       50
102
RTVSPost2010PropOp47
 70
     1
102
RTVSPost2010Prop48
 90
       50
102
RTVSPost2010PropOp48
 70
     1
102
RTVSPost2010Prop49
280
     0
102
RTVSPost2010PropOp49
 70
     1
102
RTVSPost2010Prop50
 90
       50
102
RTVSPost2010PropOp50
 70
     1
102
RTVSPost2010Prop51ColorIndex
 90
      256
102
RTVSPost2010Prop51ColorRGB
 90
-16777216
102
RTVSPost2010PropOp51
 70
     0
102
RTVSPost2010Prop52
140
1.0
102
RTVSPost2010PropOp52
 70
     0
102
RTVSPost2010Prop53
 90
        2
102
RTVSPost2010PropOp53
 70
     1
102
RTVSPost2010Prop54
  1
strokes_ogs.tif
102
RTVSPost2010PropOp54
 70
     1
102
RTVSPost2010Prop55
280
     0
102
RTVSPost2010PropOp55
 70
     1
102
RTVSPost2010Prop56
140
1.0
102
RTVSPost2010PropOp56
 70
     1
102
RTVSPost2010Prop57
140
1.0
102
RTVSPost2010PropOp57
 70
     1
  0
XRECORD
  5
1C0
102
{ACAD_REACTORS
330
1BF
102
}
330
1BF
100
AcDbXrecord
280
     1
102
RTVSPropertyOp0
 70
     1
102
RTVSPropertyOp1
 70
     1
102
RTVSPropertyOp2
 70
     1
102
RTVSPropertyOp3
 70
     1
102
RTVSPropertyOp4
 70
     1
102
RTVSPropertyOp5
 70
     1
102
RTVSPropertyOp6
 70
     1
102
RTVSPropertyOp7
 70
     1
102
RTVSPropertyOp8
 70
     1
102
RTVSPropertyOp9
 70
     1
102
RTVSPropertyOp10
 70
     1
102
RTVSPropertyOp11
 70
     1
102
RTVSPropertyOp12
 70
     1
102
RTVSPropertyOp13
 70
     1
102
RTVSPropertyOp14
 70
     1
102
RTVSPropertyOp15
 70
     1
102
RTVSPropertyOp16
 70
     1
102
RTVSPropertyOp17
 70
     1
102
RTVSPropertyOp18
 70
     1
102
RTVSPropertyOp19
 70
     1
102
RTVSPropertyOp20
 70
     1
102
RTVSPropertyOp21
 70
     1
102
RTVSPropertyOp22
 70
     1
102
RTVSPropertyOp23
 70
     1
102
RTVSPropertyOp24
 70
     1
102
RTVSPropertyOp25
 70
     1
102
RTVSPropertyOp26
 70
     1
102
RTVSPropertyOp27
 70
     1
102
RTVSPropertyOp28
 70
     1
102
RTVSPropertyOp29
 70
     1
102
RTVSPropertyOp30
 70
     1
102
RTVSPropertyOp31
 70
     1
102
RTVSPropertyOp32
 70
     1
102
RTVSPropertyOp33
 70
     1
102
RTVSPropertyOp34
 70
     1
102
RTVSPropertyOp35
 70
     1
102
RTVSPropertyOp36
 70
     1
102
RTVSPropertyOp37
 70
     1
102
RTVSPropertyOp38
 70
     1
102
RTVSPropertyOp39
 70
     1
102
RTVSPropertyOp40
 70
     1
102
RTVSPropertyOp41
 70
     1
102
RTVSPropertyOp42
 70
     1
102
RTVSPropertyOp43
 70
     1
102
RTVSPropertyOp44
 70
     1
102
RTVSPropertyOp45
 70
     1
102
RTVSPropertyOp46
 70
     1
102
RTVSPropertyOp47
 70
     1
102
RTVSPropertyOp48
 70
     1
102
RTVSPropertyOp49
 70
     1
102
RTVSPropertyOp50
 70
     1
102
RTVSPropertyOp51
 70
     0
102
RTVSPropertyOp52
 70
     0
102
RTVSPropertyOp53
 70
     1
102
RTVSPropertyOp54
 70
     1
102
RTVSPropertyOp55
 70
     1
102
RTVSPropertyOp56
 70
     1
102
RTVSPropertyOp57
 70
     1
102
RTVSPost2010Prop28
280
     0
102
RTVSPost2010PropOp28
 70
     1
102
RTVSPost2010Prop29
280
     1
102
RTVSPost2010PropOp29
 70
     1
102
RTVSPost2010Prop30
280
     1
102
RTVSPost2010PropOp30
 70
     1
102
RTVSPost2010Prop31
280
     0
102
RTVSPost2010PropOp31
 70
     1
102
RTVSPost2010Prop32
280
     0
102
RTVSPost2010PropOp32
 70
     1
102
RTVSPost2010Prop33
280
     0
102
RTVSPost2010PropOp33
 70
     1
102
RTVSPost2010Prop34
280
     0
102
RTVSPost2010PropOp34
 70
     1
102
RTVSPost2010Prop35
280
     0
102
RTVSPost2010PropOp35
 70
     1
102
RTVSPost2010Prop36
280
     0
102
RTVSPost2010PropOp36
 70
     1
102
RTVSPost2010Prop37
 90
       50
102
RTVSPost2010PropOp37
 70
     1
102
RTVSPost2010Prop38
140
0.0
102
RTVSPost2010PropOp38
 70
     1
102
RTVSPost2010Prop39
140
1.0
102
RTVSPost2010PropOp39
 70
     1
102
RTVSPost2010Prop40
 90
        0
102
RTVSPost2010PropOp40
 70
     1
102
RTVSPost2010Prop41ColorIndex
 90
       18
102
RTVSPost2010Prop41ColorRGB
 90
        0
102
RTVSPost2010PropOp41
 70
     1
102
RTVSPost2010Prop42
 90
       50
102
RTVSPost2010PropOp42
 70
     1
102
RTVSPost2010Prop43
 90
        3
102
RTVSPost2010PropOp43
 70
     1
102
RTVSPost2010Prop44ColorIndex
 90
        5
102
RTVSPost2010Prop44ColorRGB
 90
      255
102
RTVSPost2010PropOp44
 70
     1
102
RTVSPost2010Prop45
280
     0
102
RTVSPost2010PropOp45
 70
     1
102
RTVSPost2010Prop46
 90
       50
102
RTVSPost2010PropOp46
 70
     1
102
RTVSPost2010Prop47
 90
       50
102
RTVSPost2010PropOp47
 70
     1
102
RTVSPost2010Prop48
 90
       50
102
RTVSPost2010PropOp48
 70
     1
102
RTVSPost2010Prop49
280
     0
102
RTVSPost2010PropOp49
 70
     1
102
RTVSPost2010Prop50
 90
       50
102
RTVSPost2010PropOp50
 70
     1
102
RTVSPost2010Prop51ColorIndex
 90
      256
102
RTVSPost2010Prop51ColorRGB
 90
-16777216
102
RTVSPost2010PropOp51
 70
     0
102
RTVSPost2010Prop52
140
1.0
102
RTVSPost2010PropOp52
 70
     0
102
RTVSPost2010Prop53
 90
        2
102
RTVSPost2010PropOp53
 70
     1
102
RTVSPost2010Prop54
  1
strokes_ogs.tif
102
RTVSPost2010PropOp54
 70
     1
102
RTVSPost2010Prop55
280
     0
102
RTVSPost2010PropOp55
 70
     1
102
RTVSPost2010Prop56
140
1.0
102
RTVSPost2010PropOp56
 70
     1
102
RTVSPost2010Prop57
140
1.0
102
RTVSPost2010PropOp57
 70
     1
  0
XRECORD
  5
1C2
102
{ACAD_REACTORS
330
1C1
102
}
330
1C1
100
AcDbXrecord
280
     1
102
RTVSPropertyOp0
 70
     1
102
RTVSPropertyOp1
 70
     1
102
RTVSPropertyOp2
 70
     1
102
RTVSPropertyOp3
 70
     1
102
RTVSPropertyOp4
 70
     1
102
RTVSPropertyOp5
 70
     1
102
RTVSPropertyOp6
 70
     1
102
RTVSPropertyOp7
 70
     1
102
RTVSPropertyOp8
 70
     1
102
RTVSPropertyOp9
 70
     1
102
RTVSPropertyOp10
 70
     1
102
RTVSPropertyOp11
 70
     1
102
RTVSPropertyOp12
 70
     1
102
RTVSPropertyOp13
 70
     1
102
RTVSPropertyOp14
 70
     1
102
RTVSPropertyOp15
 70
     1
102
RTVSPropertyOp16
 70
     1
102
RTVSPropertyOp17
 70
     1
102
RTVSPropertyOp18
 70
     1
102
RTVSPropertyOp19
 70
     1
102
RTVSPropertyOp20
 70
     1
102
RTVSPropertyOp21
 70
     1
102
RTVSPropertyOp22
 70
     1
102
RTVSPropertyOp23
 70
     1
102
RTVSPropertyOp24
 70
     1
102
RTVSPropertyOp25
 70
     1
102
RTVSPropertyOp26
 70
     1
102
RTVSPropertyOp27
 70
     1
102
RTVSPropertyOp28
 70
     1
102
RTVSPropertyOp29
 70
     1
102
RTVSPropertyOp30
 70
     1
102
RTVSPropertyOp31
 70
     1
102
RTVSPropertyOp32
 70
     1
102
RTVSPropertyOp33
 70
     1
102
RTVSPropertyOp34
 70
     1
102
RTVSPropertyOp35
 70
     1
102
RTVSPropertyOp36
 70
     1
102
RTVSPropertyOp37
 70
     1
102
RTVSPropertyOp38
 70
     1
102
RTVSPropertyOp39
 70
     1
102
RTVSPropertyOp40
 70
     1
102
RTVSPropertyOp41
 70
     1
102
RTVSPropertyOp42
 70
     1
102
RTVSPropertyOp43
 70
     1
102
RTVSPropertyOp44
 70
     1
102
RTVSPropertyOp45
 70
     1
102
RTVSPropertyOp46
 70
     1
102
RTVSPropertyOp47
 70
     1
102
RTVSPropertyOp48
 70
     1
102
RTVSPropertyOp49
 70
     1
102
RTVSPropertyOp50
 70
     1
102
RTVSPropertyOp51
 70
     0
102
RTVSPropertyOp52
 70
     0
102
RTVSPropertyOp53
 70
     1
102
RTVSPropertyOp54
 70
     1
102
RTVSPropertyOp55
 70
     1
102
RTVSPropertyOp56
 70
     1
102
RTVSPropertyOp57
 70
     1
102
RTVSPost2010Prop28
280
     0
102
RTVSPost2010PropOp28
 70
     1
102
RTVSPost2010Prop29
280
     1
102
RTVSPost2010PropOp29
 70
     1
102
RTVSPost2010Prop30
280
     1
102
RTVSPost2010PropOp30
 70
     1
102
RTVSPost2010Prop31
280
     0
102
RTVSPost2010PropOp31
 70
     1
102
RTVSPost2010Prop32
280
     0
102
RTVSPost2010PropOp32
 70
     1
102
RTVSPost2010Prop33
280
     0
102
RTVSPost2010PropOp33
 70
     1
102
RTVSPost2010Prop34
280
     0
102
RTVSPost2010PropOp34
 70
     1
102
RTVSPost2010Prop35
280
     0
102
RTVSPost2010PropOp35
 70
     1
102
RTVSPost2010Prop36
280
     0
102
RTVSPost2010PropOp36
 70
     1
102
RTVSPost2010Prop37
 90
       50
102
RTVSPost2010PropOp37
 70
     1
102
RTVSPost2010Prop38
140
0.0
102
RTVSPost2010PropOp38
 70
     1
102
RTVSPost2010Prop39
140
1.0
102
RTVSPost2010PropOp39
 70
     1
102
RTVSPost2010Prop40
 90
        0
102
RTVSPost2010PropOp40
 70
     1
102
RTVSPost2010Prop41ColorIndex
 90
       18
102
RTVSPost2010Prop41ColorRGB
 90
        0
102
RTVSPost2010PropOp41
 70
     1
102
RTVSPost2010Prop42
 90
       50
102
RTVSPost2010PropOp42
 70
     1
102
RTVSPost2010Prop43
 90
        3
102
RTVSPost2010PropOp43
 70
     1
102
RTVSPost2010Prop44ColorIndex
 90
        5
102
RTVSPost2010Prop44ColorRGB
 90
      255
102
RTVSPost2010PropOp44
 70
     1
102
RTVSPost2010Prop45
280
     0
102
RTVSPost2010PropOp45
 70
     1
102
RTVSPost2010Prop46
 90
       50
102
RTVSPost2010PropOp46
 70
     1
102
RTVSPost2010Prop47
 90
       50
102
RTVSPost2010PropOp47
 70
     1
102
RTVSPost2010Prop48
 90
       50
102
RTVSPost2010PropOp48
 70
     1
102
RTVSPost2010Prop49
280
     0
102
RTVSPost2010PropOp49
 70
     1
102
RTVSPost2010Prop50
 90
       50
102
RTVSPost2010PropOp50
 70
     1
102
RTVSPost2010Prop51ColorIndex
 90
      256
102
RTVSPost2010Prop51ColorRGB
 90
-16777216
102
RTVSPost2010PropOp51
 70
     0
102
RTVSPost2010Prop52
140
1.0
102
RTVSPost2010PropOp52
 70
     0
102
RTVSPost2010Prop53
 90
        2
102
RTVSPost2010PropOp53
 70
     1
102
RTVSPost2010Prop54
  1
strokes_ogs.tif
102
RTVSPost2010PropOp54
 70
     1
102
RTVSPost2010Prop55
280
     0
102
RTVSPost2010PropOp55
 70
     1
102
RTVSPost2010Prop56
140
1.0
102
RTVSPost2010PropOp56
 70
     1
102
RTVSPost2010Prop57
140
1.0
102
RTVSPost2010PropOp57
 70
     1
  0
XRECORD
  5
1D2
102
{ACAD_REACTORS
330
1D1
102
}
330
1D1
100
AcDbXrecord
280
     1
102
RTVSPropertyOp0
 70
     0
102
RTVSPropertyOp1
 70
     0
102
RTVSPropertyOp2
 70
     0
102
RTVSPropertyOp3
 70
     0
102
RTVSPropertyOp4
 70
     0
102
RTVSPropertyOp5
 70
     0
102
RTVSPropertyOp6
 70
     0
102
RTVSPropertyOp7
 70
     0
102
RTVSPropertyOp8
 70
     0
102
RTVSPropertyOp9
 70
     0
102
RTVSPropertyOp10
 70
     0
102
RTVSPropertyOp11
 70
     0
102
RTVSPropertyOp12
 70
     0
102
RTVSPropertyOp13
 70
     0
102
RTVSPropertyOp14
 70
     2
102
RTVSPropertyOp15
 70
     0
102
RTVSPropertyOp16
 70
     0
102
RTVSPropertyOp17
 70
     0
102
RTVSPropertyOp18
 70
     0
102
RTVSPropertyOp19
 70
     0
102
RTVSPropertyOp20
 70
     0
102
RTVSPropertyOp21
 70
     0
102
RTVSPropertyOp22
 70
     0
102
RTVSPropertyOp23
 70
     0
102
RTVSPropertyOp24
 70
     0
102
RTVSPropertyOp25
 70
     0
102
RTVSPropertyOp26
 70
     0
102
RTVSPropertyOp27
 70
     0
102
RTVSPropertyOp28
 70
     0
102
RTVSPropertyOp29
 70
     0
102
RTVSPropertyOp30
 70
     0
102
RTVSPropertyOp31
 70
     0
102
RTVSPropertyOp32
 70
     0
102
RTVSPropertyOp33
 70
     0
102
RTVSPropertyOp34
 70
     0
102
RTVSPropertyOp35
 70
     0
102
RTVSPropertyOp36
 70
     0
102
RTVSPropertyOp37
 70
     0
102
RTVSPropertyOp38
 70
     0
102
RTVSPropertyOp39
 70
     0
102
RTVSPropertyOp40
 70
     0
102
RTVSPropertyOp41
 70
     0
102
RTVSPropertyOp42
 70
     0
102
RTVSPropertyOp43
 70
     0
102
RTVSPropertyOp44
 70
     0
102
RTVSPropertyOp45
 70
     0
102
RTVSPropertyOp46
 70
     0
102
RTVSPropertyOp47
 70
     0
102
RTVSPropertyOp48
 70
     0
102
RTVSPropertyOp49
 70
     0
102
RTVSPropertyOp50
 70
     0
102
RTVSPropertyOp51
 70
     0
102
RTVSPropertyOp52
 70
     0
102
RTVSPropertyOp53
 70
     0
102
RTVSPropertyOp54
 70
     0
102
RTVSPropertyOp55
 70
     0
102
RTVSPropertyOp56
 70
     0
102
RTVSPropertyOp57
 70
     0
102
RTVSPost2010Prop28
280
     0
102
RTVSPost2010PropOp28
 70
     0
102
RTVSPost2010Prop29
280
     1
102
RTVSPost2010PropOp29
 70
     0
102
RTVSPost2010Prop30
280
     1
102
RTVSPost2010PropOp30
 70
     0
102
RTVSPost2010Prop31
280
     0
102
RTVSPost2010PropOp31
 70
     0
102
RTVSPost2010Prop32
280
     0
102
RTVSPost2010PropOp32
 70
     0
102
RTVSPost2010Prop33
280
     0
102
RTVSPost2010PropOp33
 70
     0
102
RTVSPost2010Prop34
280
     0
102
RTVSPost2010PropOp34
 70
     0
102
RTVSPost2010Prop35
280
     0
102
RTVSPost2010PropOp35
 70
     0
102
RTVSPost2010Prop36
280
     0
102
RTVSPost2010PropOp36
 70
     0
102
RTVSPost2010Prop37
 90
       50
102
RTVSPost2010PropOp37
 70
     0
102
RTVSPost2010Prop38
140
0.0
102
RTVSPost2010PropOp38
 70
     0
102
RTVSPost2010Prop39
140
1.0
102
RTVSPost2010PropOp39
 70
     0
102
RTVSPost2010Prop40
 90
        0
102
RTVSPost2010PropOp40
 70
     0
102
RTVSPost2010Prop41ColorIndex
 90
       18
102
RTVSPost2010Prop41ColorRGB
 90
        0
102
RTVSPost2010PropOp41
 70
     0
102
RTVSPost2010Prop42
 90
       50
102
RTVSPost2010PropOp42
 70
     0
102
RTVSPost2010Prop43
 90
        3
102
RTVSPost2010PropOp43
 70
     0
102
RTVSPost2010Prop44ColorIndex
 90
        5
102
RTVSPost2010Prop44ColorRGB
 90
      255
102
RTVSPost2010PropOp44
 70
     0
102
RTVSPost2010Prop45
280
     0
102
RTVSPost2010PropOp45
 70
     0
102
RTVSPost2010Prop46
 90
       50
102
RTVSPost2010PropOp46
 70
     0
102
RTVSPost2010Prop47
 90
       50
102
RTVSPost2010PropOp47
 70
     0
102
RTVSPost2010Prop48
 90
       50
102
RTVSPost2010PropOp48
 70
     0
102
RTVSPost2010Prop49
280
     0
102
RTVSPost2010PropOp49
 70
     0
102
RTVSPost2010Prop50
 90
       50
102
RTVSPost2010PropOp50
 70
     0
102
RTVSPost2010Prop51ColorIndex
 90
      256
102
RTVSPost2010Prop51ColorRGB
 90
-16777216
102
RTVSPost2010PropOp51
 70
     0
102
RTVSPost2010Prop52
140
1.0
102
RTVSPost2010PropOp52
 70
     0
102
RTVSPost2010Prop53
 90
        2
102
RTVSPost2010PropOp53
 70
     0
102
RTVSPost2010Prop54
  1
strokes_ogs.tif
102
RTVSPost2010PropOp54
 70
     0
102
RTVSPost2010Prop55
280
     0
102
RTVSPost2010PropOp55
 70
     0
102
RTVSPost2010Prop56
140
1.0
102
RTVSPost2010PropOp56
 70
     0
102
RTVSPost2010Prop57
140
1.0
102
RTVSPost2010PropOp57
 70
     0
  0
XRECORD
  5
1CA
102
{ACAD_REACTORS
330
1C9
102
}
330
1C9
100
AcDbXrecord
280
     1
102
RTVSPropertyOp0
 70
     1
102
RTVSPropertyOp1
 70
     1
102
RTVSPropertyOp2
 70
     1
102
RTVSPropertyOp3
 70
     1
102
RTVSPropertyOp4
 70
     1
102
RTVSPropertyOp5
 70
     1
102
RTVSPropertyOp6
 70
     1
102
RTVSPropertyOp7
 70
     1
102
RTVSPropertyOp8
 70
     1
102
RTVSPropertyOp9
 70
     1
102
RTVSPropertyOp10
 70
     1
102
RTVSPropertyOp11
 70
     1
102
RTVSPropertyOp12
 70
     1
102
RTVSPropertyOp13
 70
     1
102
RTVSPropertyOp14
 70
     1
102
RTVSPropertyOp15
 70
     1
102
RTVSPropertyOp16
 70
     1
102
RTVSPropertyOp17
 70
     1
102
RTVSPropertyOp18
 70
     1
102
RTVSPropertyOp19
 70
     1
102
RTVSPropertyOp20
 70
     1
102
RTVSPropertyOp21
 70
     1
102
RTVSPropertyOp22
 70
     1
102
RTVSPropertyOp23
 70
     1
102
RTVSPropertyOp24
 70
     1
102
RTVSPropertyOp25
 70
     1
102
RTVSPropertyOp26
 70
     1
102
RTVSPropertyOp27
 70
     1
102
RTVSPropertyOp28
 70
     1
102
RTVSPropertyOp29
 70
     1
102
RTVSPropertyOp30
 70
     1
102
RTVSPropertyOp31
 70
     1
102
RTVSPropertyOp32
 70
     1
102
RTVSPropertyOp33
 70
     1
102
RTVSPropertyOp34
 70
     1
102
RTVSPropertyOp35
 70
     1
102
RTVSPropertyOp36
 70
     1
102
RTVSPropertyOp37
 70
     1
102
RTVSPropertyOp38
 70
     1
102
RTVSPropertyOp39
 70
     1
102
RTVSPropertyOp40
 70
     1
102
RTVSPropertyOp41
 70
     1
102
RTVSPropertyOp42
 70
     1
102
RTVSPropertyOp43
 70
     1
102
RTVSPropertyOp44
 70
     1
102
RTVSPropertyOp45
 70
     1
102
RTVSPropertyOp46
 70
     1
102
RTVSPropertyOp47
 70
     1
102
RTVSPropertyOp48
 70
     1
102
RTVSPropertyOp49
 70
     1
102
RTVSPropertyOp50
 70
     1
102
RTVSPropertyOp51
 70
     0
102
RTVSPropertyOp52
 70
     0
102
RTVSPropertyOp53
 70
     1
102
RTVSPropertyOp54
 70
     1
102
RTVSPropertyOp55
 70
     1
102
RTVSPropertyOp56
 70
     1
102
RTVSPropertyOp57
 70
     1
102
RTVSPost2010Prop28
280
     0
102
RTVSPost2010PropOp28
 70
     1
102
RTVSPost2010Prop29
280
     1
102
RTVSPost2010PropOp29
 70
     1
102
RTVSPost2010Prop30
280
     1
102
RTVSPost2010PropOp30
 70
     1
102
RTVSPost2010Prop31
280
     0
102
RTVSPost2010PropOp31
 70
     1
102
RTVSPost2010Prop32
280
     0
102
RTVSPost2010PropOp32
 70
     1
102
RTVSPost2010Prop33
280
     0
102
RTVSPost2010PropOp33
 70
     1
102
RTVSPost2010Prop34
280
     0
102
RTVSPost2010PropOp34
 70
     1
102
RTVSPost2010Prop35
280
     0
102
RTVSPost2010PropOp35
 70
     1
102
RTVSPost2010Prop36
280
     0
102
RTVSPost2010PropOp36
 70
     1
102
RTVSPost2010Prop37
 90
       50
102
RTVSPost2010PropOp37
 70
     1
102
RTVSPost2010Prop38
140
0.0
102
RTVSPost2010PropOp38
 70
     1
102
RTVSPost2010Prop39
140
1.0
102
RTVSPost2010PropOp39
 70
     1
102
RTVSPost2010Prop40
 90
        0
102
RTVSPost2010PropOp40
 70
     1
102
RTVSPost2010Prop41ColorIndex
 90
       18
102
RTVSPost2010Prop41ColorRGB
 90
        0
102
RTVSPost2010PropOp41
 70
     1
102
RTVSPost2010Prop42
 90
       50
102
RTVSPost2010PropOp42
 70
     1
102
RTVSPost2010Prop43
 90
        3
102
RTVSPost2010PropOp43
 70
     1
102
RTVSPost2010Prop44ColorIndex
 90
        5
102
RTVSPost2010Prop44ColorRGB
 90
      255
102
RTVSPost2010PropOp44
 70
     1
102
RTVSPost2010Prop45
280
     0
102
RTVSPost2010PropOp45
 70
     1
102
RTVSPost2010Prop46
 90
       50
102
RTVSPost2010PropOp46
 70
     1
102
RTVSPost2010Prop47
 90
       50
102
RTVSPost2010PropOp47
 70
     1
102
RTVSPost2010Prop48
 90
       50
102
RTVSPost2010PropOp48
 70
     1
102
RTVSPost2010Prop49
280
     0
102
RTVSPost2010PropOp49
 70
     1
102
RTVSPost2010Prop50
 90
       50
102
RTVSPost2010PropOp50
 70
     1
102
RTVSPost2010Prop51ColorIndex
 90
      256
102
RTVSPost2010Prop51ColorRGB
 90
-16777216
102
RTVSPost2010PropOp51
 70
     0
102
RTVSPost2010Prop52
140
1.0
102
RTVSPost2010PropOp52
 70
     0
102
RTVSPost2010Prop53
 90
        2
102
RTVSPost2010PropOp53
 70
     1
102
RTVSPost2010Prop54
  1
strokes_ogs.tif
102
RTVSPost2010PropOp54
 70
     1
102
RTVSPost2010Prop55
280
     0
102
RTVSPost2010PropOp55
 70
     1
102
RTVSPost2010Prop56
140
1.0
102
RTVSPost2010PropOp56
 70
     1
102
RTVSPost2010Prop57
140
1.0
102
RTVSPost2010PropOp57
 70
     1
  0
XRECORD
  5
1AE
102
{ACAD_REACTORS
330
1AD
102
}
330
1AD
100
AcDbXrecord
280
     1
102
RTVSPropertyOp0
 70
     1
102
RTVSPropertyOp1
 70
     1
102
RTVSPropertyOp2
 70
     1
102
RTVSPropertyOp3
 70
     1
102
RTVSPropertyOp4
 70
     1
102
RTVSPropertyOp5
 70
     1
102
RTVSPropertyOp6
 70
     1
102
RTVSPropertyOp7
 70
     1
102
RTVSPropertyOp8
 70
     1
102
RTVSPropertyOp9
 70
     1
102
RTVSPropertyOp10
 70
     1
102
RTVSPropertyOp11
 70
     1
102
RTVSPropertyOp12
 70
     1
102
RTVSPropertyOp13
 70
     1
102
RTVSPropertyOp14
 70
     1
102
RTVSPropertyOp15
 70
     1
102
RTVSPropertyOp16
 70
     1
102
RTVSPropertyOp17
 70
     1
102
RTVSPropertyOp18
 70
     1
102
RTVSPropertyOp19
 70
     1
102
RTVSPropertyOp20
 70
     1
102
RTVSPropertyOp21
 70
     1
102
RTVSPropertyOp22
 70
     1
102
RTVSPropertyOp23
 70
     1
102
RTVSPropertyOp24
 70
     1
102
RTVSPropertyOp25
 70
     1
102
RTVSPropertyOp26
 70
     1
102
RTVSPropertyOp27
 70
     1
102
RTVSPropertyOp28
 70
     1
102
RTVSPropertyOp29
 70
     1
102
RTVSPropertyOp30
 70
     1
102
RTVSPropertyOp31
 70
     1
102
RTVSPropertyOp32
 70
     1
102
RTVSPropertyOp33
 70
     1
102
RTVSPropertyOp34
 70
     1
102
RTVSPropertyOp35
 70
     1
102
RTVSPropertyOp36
 70
     1
102
RTVSPropertyOp37
 70
     1
102
RTVSPropertyOp38
 70
     1
102
RTVSPropertyOp39
 70
     1
102
RTVSPropertyOp40
 70
     1
102
RTVSPropertyOp41
 70
     1
102
RTVSPropertyOp42
 70
     1
102
RTVSPropertyOp43
 70
     1
102
RTVSPropertyOp44
 70
     1
102
RTVSPropertyOp45
 70
     1
102
RTVSPropertyOp46
 70
     1
102
RTVSPropertyOp47
 70
     1
102
RTVSPropertyOp48
 70
     1
102
RTVSPropertyOp49
 70
     1
102
RTVSPropertyOp50
 70
     1
102
RTVSPropertyOp51
 70
     0
102
RTVSPropertyOp52
 70
     0
102
RTVSPropertyOp53
 70
     1
102
RTVSPropertyOp54
 70
     1
102
RTVSPropertyOp55
 70
     1
102
RTVSPropertyOp56
 70
     1
102
RTVSPropertyOp57
 70
     1
102
RTVSPost2010Prop28
280
     0
102
RTVSPost2010PropOp28
 70
     1
102
RTVSPost2010Prop29
280
     1
102
RTVSPost2010PropOp29
 70
     1
102
RTVSPost2010Prop30
280
     1
102
RTVSPost2010PropOp30
 70
     1
102
RTVSPost2010Prop31
280
     0
102
RTVSPost2010PropOp31
 70
     1
102
RTVSPost2010Prop32
280
     0
102
RTVSPost2010PropOp32
 70
     1
102
RTVSPost2010Prop33
280
     0
102
RTVSPost2010PropOp33
 70
     1
102
RTVSPost2010Prop34
280
     0
102
RTVSPost2010PropOp34
 70
     1
102
RTVSPost2010Prop35
280
     0
102
RTVSPost2010PropOp35
 70
     1
102
RTVSPost2010Prop36
280
     0
102
RTVSPost2010PropOp36
 70
     1
102
RTVSPost2010Prop37
 90
       50
102
RTVSPost2010PropOp37
 70
     1
102
RTVSPost2010Prop38
140
0.0
102
RTVSPost2010PropOp38
 70
     1
102
RTVSPost2010Prop39
140
1.0
102
RTVSPost2010PropOp39
 70
     1
102
RTVSPost2010Prop40
 90
        0
102
RTVSPost2010PropOp40
 70
     1
102
RTVSPost2010Prop41ColorIndex
 90
       18
102
RTVSPost2010Prop41ColorRGB
 90
        0
102
RTVSPost2010PropOp41
 70
     1
102
RTVSPost2010Prop42
 90
       50
102
RTVSPost2010PropOp42
 70
     1
102
RTVSPost2010Prop43
 90
        3
102
RTVSPost2010PropOp43
 70
     1
102
RTVSPost2010Prop44ColorIndex
 90
        5
102
RTVSPost2010Prop44ColorRGB
 90
      255
102
RTVSPost2010PropOp44
 70
     1
102
RTVSPost2010Prop45
280
     0
102
RTVSPost2010PropOp45
 70
     1
102
RTVSPost2010Prop46
 90
       50
102
RTVSPost2010PropOp46
 70
     1
102
RTVSPost2010Prop47
 90
       50
102
RTVSPost2010PropOp47
 70
     1
102
RTVSPost2010Prop48
 90
       50
102
RTVSPost2010PropOp48
 70
     1
102
RTVSPost2010Prop49
280
     0
102
RTVSPost2010PropOp49
 70
     1
102
RTVSPost2010Prop50
 90
       50
102
RTVSPost2010PropOp50
 70
     1
102
RTVSPost2010Prop51ColorIndex
 90
      256
102
RTVSPost2010Prop51ColorRGB
 90
-16777216
102
RTVSPost2010PropOp51
 70
     0
102
RTVSPost2010Prop52
140
1.0
102
RTVSPost2010PropOp52
 70
     0
102
RTVSPost2010Prop53
 90
        2
102
RTVSPost2010PropOp53
 70
     1
102
RTVSPost2010Prop54
  1
strokes_ogs.tif
102
RTVSPost2010PropOp54
 70
     1
102
RTVSPost2010Prop55
280
     0
102
RTVSPost2010PropOp55
 70
     1
102
RTVSPost2010Prop56
140
1.0
102
RTVSPost2010PropOp56
 70
     1
102
RTVSPost2010Prop57
140
1.0
102
RTVSPost2010PropOp57
 70
     1
  0
XRECORD
  5
1B0
102
{ACAD_REACTORS
330
1AF
102
}
330
1AF
100
AcDbXrecord
280
     1
102
RTVSPropertyOp0
 70
     1
102
RTVSPropertyOp1
 70
     1
102
RTVSPropertyOp2
 70
     1
102
RTVSPropertyOp3
 70
     1
102
RTVSPropertyOp4
 70
     1
102
RTVSPropertyOp5
 70
     1
102
RTVSPropertyOp6
 70
     1
102
RTVSPropertyOp7
 70
     1
102
RTVSPropertyOp8
 70
     1
102
RTVSPropertyOp9
 70
     1
102
RTVSPropertyOp10
 70
     1
102
RTVSPropertyOp11
 70
     1
102
RTVSPropertyOp12
 70
     1
102
RTVSPropertyOp13
 70
     1
102
RTVSPropertyOp14
 70
     1
102
RTVSPropertyOp15
 70
     1
102
RTVSPropertyOp16
 70
     1
102
RTVSPropertyOp17
 70
     1
102
RTVSPropertyOp18
 70
     1
102
RTVSPropertyOp19
 70
     1
102
RTVSPropertyOp20
 70
     1
102
RTVSPropertyOp21
 70
     1
102
RTVSPropertyOp22
 70
     1
102
RTVSPropertyOp23
 70
     1
102
RTVSPropertyOp24
 70
     1
102
RTVSPropertyOp25
 70
     1
102
RTVSPropertyOp26
 70
     1
102
RTVSPropertyOp27
 70
     1
102
RTVSPropertyOp28
 70
     1
102
RTVSPropertyOp29
 70
     1
102
RTVSPropertyOp30
 70
     1
102
RTVSPropertyOp31
 70
     1
102
RTVSPropertyOp32
 70
     1
102
RTVSPropertyOp33
 70
     1
102
RTVSPropertyOp34
 70
     1
102
RTVSPropertyOp35
 70
     1
102
RTVSPropertyOp36
 70
     1
102
RTVSPropertyOp37
 70
     1
102
RTVSPropertyOp38
 70
     1
102
RTVSPropertyOp39
 70
     1
102
RTVSPropertyOp40
 70
     1
102
RTVSPropertyOp41
 70
     1
102
RTVSPropertyOp42
 70
     1
102
RTVSPropertyOp43
 70
     1
102
RTVSPropertyOp44
 70
     1
102
RTVSPropertyOp45
 70
     1
102
RTVSPropertyOp46
 70
     1
102
RTVSPropertyOp47
 70
     1
102
RTVSPropertyOp48
 70
     1
102
RTVSPropertyOp49
 70
     1
102
RTVSPropertyOp50
 70
     1
102
RTVSPropertyOp51
 70
     0
102
RTVSPropertyOp52
 70
     0
102
RTVSPropertyOp53
 70
     1
102
RTVSPropertyOp54
 70
     1
102
RTVSPropertyOp55
 70
     1
102
RTVSPropertyOp56
 70
     1
102
RTVSPropertyOp57
 70
     1
102
RTVSPost2010Prop28
280
     0
102
RTVSPost2010PropOp28
 70
     1
102
RTVSPost2010Prop29
280
     1
102
RTVSPost2010PropOp29
 70
     1
102
RTVSPost2010Prop30
280
     1
102
RTVSPost2010PropOp30
 70
     1
102
RTVSPost2010Prop31
280
     0
102
RTVSPost2010PropOp31
 70
     1
102
RTVSPost2010Prop32
280
     0
102
RTVSPost2010PropOp32
 70
     1
102
RTVSPost2010Prop33
280
     0
102
RTVSPost2010PropOp33
 70
     1
102
RTVSPost2010Prop34
280
     0
102
RTVSPost2010PropOp34
 70
     1
102
RTVSPost2010Prop35
280
     0
102
RTVSPost2010PropOp35
 70
     1
102
RTVSPost2010Prop36
280
     0
102
RTVSPost2010PropOp36
 70
     1
102
RTVSPost2010Prop37
 90
       50
102
RTVSPost2010PropOp37
 70
     1
102
RTVSPost2010Prop38
140
0.0
102
RTVSPost2010PropOp38
 70
     1
102
RTVSPost2010Prop39
140
1.0
102
RTVSPost2010PropOp39
 70
     1
102
RTVSPost2010Prop40
 90
        0
102
RTVSPost2010PropOp40
 70
     1
102
RTVSPost2010Prop41ColorIndex
 90
       18
102
RTVSPost2010Prop41ColorRGB
 90
        0
102
RTVSPost2010PropOp41
 70
     1
102
RTVSPost2010Prop42
 90
       50
102
RTVSPost2010PropOp42
 70
     1
102
RTVSPost2010Prop43
 90
        3
102
RTVSPost2010PropOp43
 70
     1
102
RTVSPost2010Prop44ColorIndex
 90
        5
102
RTVSPost2010Prop44ColorRGB
 90
      255
102
RTVSPost2010PropOp44
 70
     1
102
RTVSPost2010Prop45
280
     0
102
RTVSPost2010PropOp45
 70
     1
102
RTVSPost2010Prop46
 90
       50
102
RTVSPost2010PropOp46
 70
     1
102
RTVSPost2010Prop47
 90
       50
102
RTVSPost2010PropOp47
 70
     1
102
RTVSPost2010Prop48
 90
       50
102
RTVSPost2010PropOp48
 70
     1
102
RTVSPost2010Prop49
280
     0
102
RTVSPost2010PropOp49
 70
     1
102
RTVSPost2010Prop50
 90
       50
102
RTVSPost2010PropOp50
 70
     1
102
RTVSPost2010Prop51ColorIndex
 90
      256
102
RTVSPost2010Prop51ColorRGB
 90
-16777216
102
RTVSPost2010PropOp51
 70
     0
102
RTVSPost2010Prop52
140
1.0
102
RTVSPost2010PropOp52
 70
     0
102
RTVSPost2010Prop53
 90
        2
102
RTVSPost2010PropOp53
 70
     1
102
RTVSPost2010Prop54
  1
strokes_ogs.tif
102
RTVSPost2010PropOp54
 70
     1
102
RTVSPost2010Prop55
280
     0
102
RTVSPost2010PropOp55
 70
     1
102
RTVSPost2010Prop56
140
1.0
102
RTVSPost2010PropOp56
 70
     1
102
RTVSPost2010Prop57
140
1.0
102
RTVSPost2010PropOp57
 70
     1
  0
XRECORD
  5
1B2
102
{ACAD_REACTORS
330
1B1
102
}
330
1B1
100
AcDbXrecord
280
     1
102
RTVSPropertyOp0
 70
     1
102
RTVSPropertyOp1
 70
     1
102
RTVSPropertyOp2
 70
     1
102
RTVSPropertyOp3
 70
     1
102
RTVSPropertyOp4
 70
     1
102
RTVSPropertyOp5
 70
     1
102
RTVSPropertyOp6
 70
     1
102
RTVSPropertyOp7
 70
     1
102
RTVSPropertyOp8
 70
     1
102
RTVSPropertyOp9
 70
     1
102
RTVSPropertyOp10
 70
     1
102
RTVSPropertyOp11
 70
     1
102
RTVSPropertyOp12
 70
     1
102
RTVSPropertyOp13
 70
     1
102
RTVSPropertyOp14
 70
     1
102
RTVSPropertyOp15
 70
     1
102
RTVSPropertyOp16
 70
     1
102
RTVSPropertyOp17
 70
     1
102
RTVSPropertyOp18
 70
     1
102
RTVSPropertyOp19
 70
     1
102
RTVSPropertyOp20
 70
     1
102
RTVSPropertyOp21
 70
     1
102
RTVSPropertyOp22
 70
     1
102
RTVSPropertyOp23
 70
     1
102
RTVSPropertyOp24
 70
     1
102
RTVSPropertyOp25
 70
     1
102
RTVSPropertyOp26
 70
     1
102
RTVSPropertyOp27
 70
     1
102
RTVSPropertyOp28
 70
     1
102
RTVSPropertyOp29
 70
     1
102
RTVSPropertyOp30
 70
     1
102
RTVSPropertyOp31
 70
     1
102
RTVSPropertyOp32
 70
     1
102
RTVSPropertyOp33
 70
     1
102
RTVSPropertyOp34
 70
     1
102
RTVSPropertyOp35
 70
     1
102
RTVSPropertyOp36
 70
     1
102
RTVSPropertyOp37
 70
     1
102
RTVSPropertyOp38
 70
     1
102
RTVSPropertyOp39
 70
     1
102
RTVSPropertyOp40
 70
     1
102
RTVSPropertyOp41
 70
     1
102
RTVSPropertyOp42
 70
     1
102
RTVSPropertyOp43
 70
     1
102
RTVSPropertyOp44
 70
     1
102
RTVSPropertyOp45
 70
     1
102
RTVSPropertyOp46
 70
     1
102
RTVSPropertyOp47
 70
     1
102
RTVSPropertyOp48
 70
     1
102
RTVSPropertyOp49
 70
     1
102
RTVSPropertyOp50
 70
     1
102
RTVSPropertyOp51
 70
     0
102
RTVSPropertyOp52
 70
     0
102
RTVSPropertyOp53
 70
     1
102
RTVSPropertyOp54
 70
     1
102
RTVSPropertyOp55
 70
     1
102
RTVSPropertyOp56
 70
     1
102
RTVSPropertyOp57
 70
     1
102
RTVSPost2010Prop28
280
     0
102
RTVSPost2010PropOp28
 70
     1
102
RTVSPost2010Prop29
280
     1
102
RTVSPost2010PropOp29
 70
     1
102
RTVSPost2010Prop30
280
     1
102
RTVSPost2010PropOp30
 70
     1
102
RTVSPost2010Prop31
280
     0
102
RTVSPost2010PropOp31
 70
     1
102
RTVSPost2010Prop32
280
     0
102
RTVSPost2010PropOp32
 70
     1
102
RTVSPost2010Prop33
280
     0
102
RTVSPost2010PropOp33
 70
     1
102
RTVSPost2010Prop34
280
     0
102
RTVSPost2010PropOp34
 70
     1
102
RTVSPost2010Prop35
280
     0
102
RTVSPost2010PropOp35
 70
     1
102
RTVSPost2010Prop36
280
     0
102
RTVSPost2010PropOp36
 70
     1
102
RTVSPost2010Prop37
 90
       50
102
RTVSPost2010PropOp37
 70
     1
102
RTVSPost2010Prop38
140
0.0
102
RTVSPost2010PropOp38
 70
     1
102
RTVSPost2010Prop39
140
1.0
102
RTVSPost2010PropOp39
 70
     1
102
RTVSPost2010Prop40
 90
        0
102
RTVSPost2010PropOp40
 70
     1
102
RTVSPost2010Prop41ColorIndex
 90
       18
102
RTVSPost2010Prop41ColorRGB
 90
        0
102
RTVSPost2010PropOp41
 70
     1
102
RTVSPost2010Prop42
 90
       50
102
RTVSPost2010PropOp42
 70
     1
102
RTVSPost2010Prop43
 90
        3
102
RTVSPost2010PropOp43
 70
     1
102
RTVSPost2010Prop44ColorIndex
 90
        5
102
RTVSPost2010Prop44ColorRGB
 90
      255
102
RTVSPost2010PropOp44
 70
     1
102
RTVSPost2010Prop45
280
     0
102
RTVSPost2010PropOp45
 70
     1
102
RTVSPost2010Prop46
 90
       50
102
RTVSPost2010PropOp46
 70
     1
102
RTVSPost2010Prop47
 90
       50
102
RTVSPost2010PropOp47
 70
     1
102
RTVSPost2010Prop48
 90
       50
102
RTVSPost2010PropOp48
 70
     1
102
RTVSPost2010Prop49
280
     0
102
RTVSPost2010PropOp49
 70
     1
102
RTVSPost2010Prop50
 90
       50
102
RTVSPost2010PropOp50
 70
     1
102
RTVSPost2010Prop51ColorIndex
 90
      256
102
RTVSPost2010Prop51ColorRGB
 90
-16777216
102
RTVSPost2010PropOp51
 70
     0
102
RTVSPost2010Prop52
140
1.0
102
RTVSPost2010PropOp52
 70
     0
102
RTVSPost2010Prop53
 90
        2
102
RTVSPost2010PropOp53
 70
     1
102
RTVSPost2010Prop54
  1
strokes_ogs.tif
102
RTVSPost2010PropOp54
 70
     1
102
RTVSPost2010Prop55
280
     0
102
RTVSPost2010PropOp55
 70
     1
102
RTVSPost2010Prop56
140
1.0
102
RTVSPost2010PropOp56
 70
     1
102
RTVSPost2010Prop57
140
1.0
102
RTVSPost2010PropOp57
 70
     1
  0
XRECORD
  5
1B4
102
{ACAD_REACTORS
330
1B3
102
}
330
1B3
100
AcDbXrecord
280
     1
102
RTVSPropertyOp0
 70
     1
102
RTVSPropertyOp1
 70
     1
102
RTVSPropertyOp2
 70
     1
102
RTVSPropertyOp3
 70
     1
102
RTVSPropertyOp4
 70
     1
102
RTVSPropertyOp5
 70
     1
102
RTVSPropertyOp6
 70
     1
102
RTVSPropertyOp7
 70
     1
102
RTVSPropertyOp8
 70
     1
102
RTVSPropertyOp9
 70
     1
102
RTVSPropertyOp10
 70
     1
102
RTVSPropertyOp11
 70
     1
102
RTVSPropertyOp12
 70
     1
102
RTVSPropertyOp13
 70
     1
102
RTVSPropertyOp14
 70
     1
102
RTVSPropertyOp15
 70
     1
102
RTVSPropertyOp16
 70
     1
102
RTVSPropertyOp17
 70
     1
102
RTVSPropertyOp18
 70
     1
102
RTVSPropertyOp19
 70
     1
102
RTVSPropertyOp20
 70
     1
102
RTVSPropertyOp21
 70
     1
102
RTVSPropertyOp22
 70
     1
102
RTVSPropertyOp23
 70
     1
102
RTVSPropertyOp24
 70
     1
102
RTVSPropertyOp25
 70
     1
102
RTVSPropertyOp26
 70
     1
102
RTVSPropertyOp27
 70
     1
102
RTVSPropertyOp28
 70
     1
102
RTVSPropertyOp29
 70
     1
102
RTVSPropertyOp30
 70
     1
102
RTVSPropertyOp31
 70
     1
102
RTVSPropertyOp32
 70
     1
102
RTVSPropertyOp33
 70
     1
102
RTVSPropertyOp34
 70
     1
102
RTVSPropertyOp35
 70
     1
102
RTVSPropertyOp36
 70
     1
102
RTVSPropertyOp37
 70
     1
102
RTVSPropertyOp38
 70
     1
102
RTVSPropertyOp39
 70
     1
102
RTVSPropertyOp40
 70
     1
102
RTVSPropertyOp41
 70
     1
102
RTVSPropertyOp42
 70
     1
102
RTVSPropertyOp43
 70
     1
102
RTVSPropertyOp44
 70
     1
102
RTVSPropertyOp45
 70
     1
102
RTVSPropertyOp46
 70
     1
102
RTVSPropertyOp47
 70
     1
102
RTVSPropertyOp48
 70
     1
102
RTVSPropertyOp49
 70
     1
102
RTVSPropertyOp50
 70
     1
102
RTVSPropertyOp51
 70
     0
102
RTVSPropertyOp52
 70
     0
102
RTVSPropertyOp53
 70
     1
102
RTVSPropertyOp54
 70
     1
102
RTVSPropertyOp55
 70
     1
102
RTVSPropertyOp56
 70
     1
102
RTVSPropertyOp57
 70
     1
102
RTVSPost2010Prop28
280
     0
102
RTVSPost2010PropOp28
 70
     1
102
RTVSPost2010Prop29
280
     1
102
RTVSPost2010PropOp29
 70
     1
102
RTVSPost2010Prop30
280
     1
102
RTVSPost2010PropOp30
 70
     1
102
RTVSPost2010Prop31
280
     0
102
RTVSPost2010PropOp31
 70
     1
102
RTVSPost2010Prop32
280
     0
102
RTVSPost2010PropOp32
 70
     1
102
RTVSPost2010Prop33
280
     0
102
RTVSPost2010PropOp33
 70
     1
102
RTVSPost2010Prop34
280
     0
102
RTVSPost2010PropOp34
 70
     1
102
RTVSPost2010Prop35
280
     0
102
RTVSPost2010PropOp35
 70
     1
102
RTVSPost2010Prop36
280
     0
102
RTVSPost2010PropOp36
 70
     1
102
RTVSPost2010Prop37
 90
       50
102
RTVSPost2010PropOp37
 70
     1
102
RTVSPost2010Prop38
140
0.0
102
RTVSPost2010PropOp38
 70
     1
102
RTVSPost2010Prop39
140
1.0
102
RTVSPost2010PropOp39
 70
     1
102
RTVSPost2010Prop40
 90
        0
102
RTVSPost2010PropOp40
 70
     1
102
RTVSPost2010Prop41ColorIndex
 90
       18
102
RTVSPost2010Prop41ColorRGB
 90
        0
102
RTVSPost2010PropOp41
 70
     1
102
RTVSPost2010Prop42
 90
       50
102
RTVSPost2010PropOp42
 70
     1
102
RTVSPost2010Prop43
 90
        3
102
RTVSPost2010PropOp43
 70
     1
102
RTVSPost2010Prop44ColorIndex
 90
        5
102
RTVSPost2010Prop44ColorRGB
 90
      255
102
RTVSPost2010PropOp44
 70
     1
102
RTVSPost2010Prop45
280
     0
102
RTVSPost2010PropOp45
 70
     1
102
RTVSPost2010Prop46
 90
       50
102
RTVSPost2010PropOp46
 70
     1
102
RTVSPost2010Prop47
 90
       50
102
RTVSPost2010PropOp47
 70
     1
102
RTVSPost2010Prop48
 90
       50
102
RTVSPost2010PropOp48
 70
     1
102
RTVSPost2010Prop49
280
     0
102
RTVSPost2010PropOp49
 70
     1
102
RTVSPost2010Prop50
 90
       50
102
RTVSPost2010PropOp50
 70
     1
102
RTVSPost2010Prop51ColorIndex
 90
      256
102
RTVSPost2010Prop51ColorRGB
 90
-16777216
102
RTVSPost2010PropOp51
 70
     0
102
RTVSPost2010Prop52
140
1.0
102
RTVSPost2010PropOp52
 70
     0
102
RTVSPost2010Prop53
 90
        2
102
RTVSPost2010PropOp53
 70
     1
102
RTVSPost2010Prop54
  1
strokes_ogs.tif
102
RTVSPost2010PropOp54
 70
     1
102
RTVSPost2010Prop55
280
     0
102
RTVSPost2010PropOp55
 70
     1
102
RTVSPost2010Prop56
140
1.0
102
RTVSPost2010PropOp56
 70
     1
102
RTVSPost2010Prop57
140
1.0
102
RTVSPost2010PropOp57
 70
     1
  0
XRECORD
  5
1BA
102
{ACAD_REACTORS
330
1B9
102
}
330
1B9
100
AcDbXrecord
280
     1
102
RTVSPropertyOp0
 70
     1
102
RTVSPropertyOp1
 70
     1
102
RTVSPropertyOp2
 70
     1
102
RTVSPropertyOp3
 70
     1
102
RTVSPropertyOp4
 70
     1
102
RTVSPropertyOp5
 70
     1
102
RTVSPropertyOp6
 70
     1
102
RTVSPropertyOp7
 70
     1
102
RTVSPropertyOp8
 70
     1
102
RTVSPropertyOp9
 70
     1
102
RTVSPropertyOp10
 70
     1
102
RTVSPropertyOp11
 70
     1
102
RTVSPropertyOp12
 70
     1
102
RTVSPropertyOp13
 70
     1
102
RTVSPropertyOp14
 70
     1
102
RTVSPropertyOp15
 70
     1
102
RTVSPropertyOp16
 70
     1
102
RTVSPropertyOp17
 70
     1
102
RTVSPropertyOp18
 70
     1
102
RTVSPropertyOp19
 70
     1
102
RTVSPropertyOp20
 70
     1
102
RTVSPropertyOp21
 70
     1
102
RTVSPropertyOp22
 70
     1
102
RTVSPropertyOp23
 70
     1
102
RTVSPropertyOp24
 70
     1
102
RTVSPropertyOp25
 70
     1
102
RTVSPropertyOp26
 70
     1
102
RTVSPropertyOp27
 70
     1
102
RTVSPropertyOp28
 70
     1
102
RTVSPropertyOp29
 70
     1
102
RTVSPropertyOp30
 70
     1
102
RTVSPropertyOp31
 70
     1
102
RTVSPropertyOp32
 70
     1
102
RTVSPropertyOp33
 70
     1
102
RTVSPropertyOp34
 70
     1
102
RTVSPropertyOp35
 70
     1
102
RTVSPropertyOp36
 70
     1
102
RTVSPropertyOp37
 70
     1
102
RTVSPropertyOp38
 70
     1
102
RTVSPropertyOp39
 70
     1
102
RTVSPropertyOp40
 70
     1
102
RTVSPropertyOp41
 70
     1
102
RTVSPropertyOp42
 70
     1
102
RTVSPropertyOp43
 70
     1
102
RTVSPropertyOp44
 70
     1
102
RTVSPropertyOp45
 70
     1
102
RTVSPropertyOp46
 70
     1
102
RTVSPropertyOp47
 70
     1
102
RTVSPropertyOp48
 70
     1
102
RTVSPropertyOp49
 70
     1
102
RTVSPropertyOp50
 70
     1
102
RTVSPropertyOp51
 70
     0
102
RTVSPropertyOp52
 70
     0
102
RTVSPropertyOp53
 70
     1
102
RTVSPropertyOp54
 70
     1
102
RTVSPropertyOp55
 70
     1
102
RTVSPropertyOp56
 70
     1
102
RTVSPropertyOp57
 70
     1
102
RTVSPost2010Prop28
280
     0
102
RTVSPost2010PropOp28
 70
     1
102
RTVSPost2010Prop29
280
     1
102
RTVSPost2010PropOp29
 70
     1
102
RTVSPost2010Prop30
280
     1
102
RTVSPost2010PropOp30
 70
     1
102
RTVSPost2010Prop31
280
     0
102
RTVSPost2010PropOp31
 70
     1
102
RTVSPost2010Prop32
280
     0
102
RTVSPost2010PropOp32
 70
     1
102
RTVSPost2010Prop33
280
     0
102
RTVSPost2010PropOp33
 70
     1
102
RTVSPost2010Prop34
280
     0
102
RTVSPost2010PropOp34
 70
     1
102
RTVSPost2010Prop35
280
     0
102
RTVSPost2010PropOp35
 70
     1
102
RTVSPost2010Prop36
280
     0
102
RTVSPost2010PropOp36
 70
     1
102
RTVSPost2010Prop37
 90
       50
102
RTVSPost2010PropOp37
 70
     1
102
RTVSPost2010Prop38
140
0.0
102
RTVSPost2010PropOp38
 70
     1
102
RTVSPost2010Prop39
140
1.0
102
RTVSPost2010PropOp39
 70
     1
102
RTVSPost2010Prop40
 90
        0
102
RTVSPost2010PropOp40
 70
     1
102
RTVSPost2010Prop41ColorIndex
 90
       18
102
RTVSPost2010Prop41ColorRGB
 90
        0
102
RTVSPost2010PropOp41
 70
     1
102
RTVSPost2010Prop42
 90
       50
102
RTVSPost2010PropOp42
 70
     1
102
RTVSPost2010Prop43
 90
        3
102
RTVSPost2010PropOp43
 70
     1
102
RTVSPost2010Prop44ColorIndex
 90
        5
102
RTVSPost2010Prop44ColorRGB
 90
      255
102
RTVSPost2010PropOp44
 70
     1
102
RTVSPost2010Prop45
280
     0
102
RTVSPost2010PropOp45
 70
     1
102
RTVSPost2010Prop46
 90
       50
102
RTVSPost2010PropOp46
 70
     1
102
RTVSPost2010Prop47
 90
       50
102
RTVSPost2010PropOp47
 70
     1
102
RTVSPost2010Prop48
 90
       50
102
RTVSPost2010PropOp48
 70
     1
102
RTVSPost2010Prop49
280
     0
102
RTVSPost2010PropOp49
 70
     1
102
RTVSPost2010Prop50
 90
       50
102
RTVSPost2010PropOp50
 70
     1
102
RTVSPost2010Prop51ColorIndex
 90
      256
102
RTVSPost2010Prop51ColorRGB
 90
-16777216
102
RTVSPost2010PropOp51
 70
     0
102
RTVSPost2010Prop52
140
1.0
102
RTVSPost2010PropOp52
 70
     0
102
RTVSPost2010Prop53
 90
        2
102
RTVSPost2010PropOp53
 70
     1
102
RTVSPost2010Prop54
  1
strokes_ogs.tif
102
RTVSPost2010PropOp54
 70
     1
102
RTVSPost2010Prop55
280
     0
102
RTVSPost2010PropOp55
 70
     1
102
RTVSPost2010Prop56
140
1.0
102
RTVSPost2010PropOp56
 70
     1
102
RTVSPost2010Prop57
140
1.0
102
RTVSPost2010PropOp57
 70
     1
  0
XRECORD
  5
1CE
102
{ACAD_REACTORS
330
1CD
102
}
330
1CD
100
AcDbXrecord
280
     1
102
RTVSPropertyOp0
 70
     0
102
RTVSPropertyOp1
 70
     0
102
RTVSPropertyOp2
 70
     0
102
RTVSPropertyOp3
 70
     0
102
RTVSPropertyOp4
 70
     0
102
RTVSPropertyOp5
 70
     0
102
RTVSPropertyOp6
 70
     0
102
RTVSPropertyOp7
 70
     0
102
RTVSPropertyOp8
 70
     0
102
RTVSPropertyOp9
 70
     0
102
RTVSPropertyOp10
 70
     0
102
RTVSPropertyOp11
 70
     0
102
RTVSPropertyOp12
 70
     0
102
RTVSPropertyOp13
 70
     0
102
RTVSPropertyOp14
 70
     2
102
RTVSPropertyOp15
 70
     0
102
RTVSPropertyOp16
 70
     0
102
RTVSPropertyOp17
 70
     0
102
RTVSPropertyOp18
 70
     0
102
RTVSPropertyOp19
 70
     0
102
RTVSPropertyOp20
 70
     0
102
RTVSPropertyOp21
 70
     0
102
RTVSPropertyOp22
 70
     0
102
RTVSPropertyOp23
 70
     0
102
RTVSPropertyOp24
 70
     0
102
RTVSPropertyOp25
 70
     0
102
RTVSPropertyOp26
 70
     0
102
RTVSPropertyOp27
 70
     0
102
RTVSPropertyOp28
 70
     0
102
RTVSPropertyOp29
 70
     0
102
RTVSPropertyOp30
 70
     0
102
RTVSPropertyOp31
 70
     0
102
RTVSPropertyOp32
 70
     0
102
RTVSPropertyOp33
 70
     0
102
RTVSPropertyOp34
 70
     0
102
RTVSPropertyOp35
 70
     0
102
RTVSPropertyOp36
 70
     0
102
RTVSPropertyOp37
 70
     0
102
RTVSPropertyOp38
 70
     0
102
RTVSPropertyOp39
 70
     0
102
RTVSPropertyOp40
 70
     0
102
RTVSPropertyOp41
 70
     0
102
RTVSPropertyOp42
 70
     0
102
RTVSPropertyOp43
 70
     0
102
RTVSPropertyOp44
 70
     0
102
RTVSPropertyOp45
 70
     0
102
RTVSPropertyOp46
 70
     0
102
RTVSPropertyOp47
 70
     0
102
RTVSPropertyOp48
 70
     0
102
RTVSPropertyOp49
 70
     0
102
RTVSPropertyOp50
 70
     0
102
RTVSPropertyOp51
 70
     0
102
RTVSPropertyOp52
 70
     0
102
RTVSPropertyOp53
 70
     0
102
RTVSPropertyOp54
 70
     0
102
RTVSPropertyOp55
 70
     0
102
RTVSPropertyOp56
 70
     0
102
RTVSPropertyOp57
 70
     0
102
RTVSPost2010Prop28
280
     0
102
RTVSPost2010PropOp28
 70
     0
102
RTVSPost2010Prop29
280
     1
102
RTVSPost2010PropOp29
 70
     0
102
RTVSPost2010Prop30
280
     1
102
RTVSPost2010PropOp30
 70
     0
102
RTVSPost2010Prop31
280
     0
102
RTVSPost2010PropOp31
 70
     0
102
RTVSPost2010Prop32
280
     0
102
RTVSPost2010PropOp32
 70
     0
102
RTVSPost2010Prop33
280
     0
102
RTVSPost2010PropOp33
 70
     0
102
RTVSPost2010Prop34
280
     0
102
RTVSPost2010PropOp34
 70
     0
102
RTVSPost2010Prop35
280
     0
102
RTVSPost2010PropOp35
 70
     0
102
RTVSPost2010Prop36
280
     0
102
RTVSPost2010PropOp36
 70
     0
102
RTVSPost2010Prop37
 90
       50
102
RTVSPost2010PropOp37
 70
     0
102
RTVSPost2010Prop38
140
0.0
102
RTVSPost2010PropOp38
 70
     0
102
RTVSPost2010Prop39
140
1.0
102
RTVSPost2010PropOp39
 70
     0
102
RTVSPost2010Prop40
 90
        0
102
RTVSPost2010PropOp40
 70
     0
102
RTVSPost2010Prop41ColorIndex
 90
       18
102
RTVSPost2010Prop41ColorRGB
 90
        0
102
RTVSPost2010PropOp41
 70
     0
102
RTVSPost2010Prop42
 90
       50
102
RTVSPost2010PropOp42
 70
     0
102
RTVSPost2010Prop43
 90
        3
102
RTVSPost2010PropOp43
 70
     0
102
RTVSPost2010Prop44ColorIndex
 90
        5
102
RTVSPost2010Prop44ColorRGB
 90
      255
102
RTVSPost2010PropOp44
 70
     0
102
RTVSPost2010Prop45
280
     0
102
RTVSPost2010PropOp45
 70
     0
102
RTVSPost2010Prop46
 90
       50
102
RTVSPost2010PropOp46
 70
     0
102
RTVSPost2010Prop47
 90
       50
102
RTVSPost2010PropOp47
 70
     0
102
RTVSPost2010Prop48
 90
       50
102
RTVSPost2010PropOp48
 70
     0
102
RTVSPost2010Prop49
280
     0
102
RTVSPost2010PropOp49
 70
     0
102
RTVSPost2010Prop50
 90
       50
102
RTVSPost2010PropOp50
 70
     0
102
RTVSPost2010Prop51ColorIndex
 90
      256
102
RTVSPost2010Prop51ColorRGB
 90
-16777216
102
RTVSPost2010PropOp51
 70
     0
102
RTVSPost2010Prop52
140
1.0
102
RTVSPost2010PropOp52
 70
     0
102
RTVSPost2010Prop53
 90
        2
102
RTVSPost2010PropOp53
 70
     0
102
RTVSPost2010Prop54
  1
strokes_ogs.tif
102
RTVSPost2010PropOp54
 70
     0
102
RTVSPost2010Prop55
280
     0
102
RTVSPost2010PropOp55
 70
     0
102
RTVSPost2010Prop56
140
1.0
102
RTVSPost2010PropOp56
 70
     0
102
RTVSPost2010Prop57
140
1.0
102
RTVSPost2010PropOp57
 70
     0
  0
XRECORD
  5
1C8
102
{ACAD_REACTORS
330
1C7
102
}
330
1C7
100
AcDbXrecord
280
     1
102
RTVSPropertyOp0
 70
     1
102
RTVSPropertyOp1
 70
     1
102
RTVSPropertyOp2
 70
     1
102
RTVSPropertyOp3
 70
     1
102
RTVSPropertyOp4
 70
     1
102
RTVSPropertyOp5
 70
     1
102
RTVSPropertyOp6
 70
     1
102
RTVSPropertyOp7
 70
     1
102
RTVSPropertyOp8
 70
     1
102
RTVSPropertyOp9
 70
     1
102
RTVSPropertyOp10
 70
     1
102
RTVSPropertyOp11
 70
     1
102
RTVSPropertyOp12
 70
     1
102
RTVSPropertyOp13
 70
     1
102
RTVSPropertyOp14
 70
     1
102
RTVSPropertyOp15
 70
     1
102
RTVSPropertyOp16
 70
     1
102
RTVSPropertyOp17
 70
     1
102
RTVSPropertyOp18
 70
     1
102
RTVSPropertyOp19
 70
     1
102
RTVSPropertyOp20
 70
     1
102
RTVSPropertyOp21
 70
     1
102
RTVSPropertyOp22
 70
     1
102
RTVSPropertyOp23
 70
     1
102
RTVSPropertyOp24
 70
     1
102
RTVSPropertyOp25
 70
     1
102
RTVSPropertyOp26
 70
     1
102
RTVSPropertyOp27
 70
     1
102
RTVSPropertyOp28
 70
     1
102
RTVSPropertyOp29
 70
     1
102
RTVSPropertyOp30
 70
     1
102
RTVSPropertyOp31
 70
     1
102
RTVSPropertyOp32
 70
     1
102
RTVSPropertyOp33
 70
     1
102
RTVSPropertyOp34
 70
     1
102
RTVSPropertyOp35
 70
     1
102
RTVSPropertyOp36
 70
     1
102
RTVSPropertyOp37
 70
     1
102
RTVSPropertyOp38
 70
     1
102
RTVSPropertyOp39
 70
     1
102
RTVSPropertyOp40
 70
     1
102
RTVSPropertyOp41
 70
     1
102
RTVSPropertyOp42
 70
     1
102
RTVSPropertyOp43
 70
     1
102
RTVSPropertyOp44
 70
     1
102
RTVSPropertyOp45
 70
     1
102
RTVSPropertyOp46
 70
     1
102
RTVSPropertyOp47
 70
     1
102
RTVSPropertyOp48
 70
     1
102
RTVSPropertyOp49
 70
     1
102
RTVSPropertyOp50
 70
     1
102
RTVSPropertyOp51
 70
     0
102
RTVSPropertyOp52
 70
     0
102
RTVSPropertyOp53
 70
     1
102
RTVSPropertyOp54
 70
     1
102
RTVSPropertyOp55
 70
     1
102
RTVSPropertyOp56
 70
     1
102
RTVSPropertyOp57
 70
     1
102
RTVSPost2010Prop28
280
     0
102
RTVSPost2010PropOp28
 70
     1
102
RTVSPost2010Prop29
280
     1
102
RTVSPost2010PropOp29
 70
     1
102
RTVSPost2010Prop30
280
     1
102
RTVSPost2010PropOp30
 70
     1
102
RTVSPost2010Prop31
280
     0
102
RTVSPost2010PropOp31
 70
     1
102
RTVSPost2010Prop32
280
     0
102
RTVSPost2010PropOp32
 70
     1
102
RTVSPost2010Prop33
280
     0
102
RTVSPost2010PropOp33
 70
     1
102
RTVSPost2010Prop34
280
     0
102
RTVSPost2010PropOp34
 70
     1
102
RTVSPost2010Prop35
280
     0
102
RTVSPost2010PropOp35
 70
     1
102
RTVSPost2010Prop36
280
     0
102
RTVSPost2010PropOp36
 70
     1
102
RTVSPost2010Prop37
 90
       50
102
RTVSPost2010PropOp37
 70
     1
102
RTVSPost2010Prop38
140
0.0
102
RTVSPost2010PropOp38
 70
     1
102
RTVSPost2010Prop39
140
1.0
102
RTVSPost2010PropOp39
 70
     1
102
RTVSPost2010Prop40
 90
        0
102
RTVSPost2010PropOp40
 70
     1
102
RTVSPost2010Prop41ColorIndex
 90
       18
102
RTVSPost2010Prop41ColorRGB
 90
        0
102
RTVSPost2010PropOp41
 70
     1
102
RTVSPost2010Prop42
 90
       50
102
RTVSPost2010PropOp42
 70
     1
102
RTVSPost2010Prop43
 90
        3
102
RTVSPost2010PropOp43
 70
     1
102
RTVSPost2010Prop44ColorIndex
 90
        5
102
RTVSPost2010Prop44ColorRGB
 90
      255
102
RTVSPost2010PropOp44
 70
     1
102
RTVSPost2010Prop45
280
     0
102
RTVSPost2010PropOp45
 70
     1
102
RTVSPost2010Prop46
 90
       50
102
RTVSPost2010PropOp46
 70
     1
102
RTVSPost2010Prop47
 90
       50
102
RTVSPost2010PropOp47
 70
     1
102
RTVSPost2010Prop48
 90
       50
102
RTVSPost2010PropOp48
 70
     1
102
RTVSPost2010Prop49
280
     0
102
RTVSPost2010PropOp49
 70
     1
102
RTVSPost2010Prop50
 90
       50
102
RTVSPost2010PropOp50
 70
     1
102
RTVSPost2010Prop51ColorIndex
 90
      256
102
RTVSPost2010Prop51ColorRGB
 90
-16777216
102
RTVSPost2010PropOp51
 70
     0
102
RTVSPost2010Prop52
140
1.0
102
RTVSPost2010PropOp52
 70
     0
102
RTVSPost2010Prop53
 90
        2
102
RTVSPost2010PropOp53
 70
     1
102
RTVSPost2010Prop54
  1
strokes_ogs.tif
102
RTVSPost2010PropOp54
 70
     1
102
RTVSPost2010Prop55
280
     0
102
RTVSPost2010PropOp55
 70
     1
102
RTVSPost2010Prop56
140
1.0
102
RTVSPost2010PropOp56
 70
     1
102
RTVSPost2010Prop57
140
1.0
102
RTVSPost2010PropOp57
 70
     1
  0
XRECORD
  5
1D0
102
{ACAD_REACTORS
330
1CF
102
}
330
1CF
100
AcDbXrecord
280
     1
102
RTVSPropertyOp0
 70
     0
102
RTVSPropertyOp1
 70
     0
102
RTVSPropertyOp2
 70
     0
102
RTVSPropertyOp3
 70
     0
102
RTVSPropertyOp4
 70
     0
102
RTVSPropertyOp5
 70
     0
102
RTVSPropertyOp6
 70
     0
102
RTVSPropertyOp7
 70
     0
102
RTVSPropertyOp8
 70
     0
102
RTVSPropertyOp9
 70
     0
102
RTVSPropertyOp10
 70
     0
102
RTVSPropertyOp11
 70
     0
102
RTVSPropertyOp12
 70
     0
102
RTVSPropertyOp13
 70
     0
102
RTVSPropertyOp14
 70
     2
102
RTVSPropertyOp15
 70
     0
102
RTVSPropertyOp16
 70
     0
102
RTVSPropertyOp17
 70
     0
102
RTVSPropertyOp18
 70
     0
102
RTVSPropertyOp19
 70
     0
102
RTVSPropertyOp20
 70
     0
102
RTVSPropertyOp21
 70
     0
102
RTVSPropertyOp22
 70
     0
102
RTVSPropertyOp23
 70
     0
102
RTVSPropertyOp24
 70
     0
102
RTVSPropertyOp25
 70
     0
102
RTVSPropertyOp26
 70
     0
102
RTVSPropertyOp27
 70
     0
102
RTVSPropertyOp28
 70
     0
102
RTVSPropertyOp29
 70
     0
102
RTVSPropertyOp30
 70
     0
102
RTVSPropertyOp31
 70
     0
102
RTVSPropertyOp32
 70
     0
102
RTVSPropertyOp33
 70
     0
102
RTVSPropertyOp34
 70
     0
102
RTVSPropertyOp35
 70
     0
102
RTVSPropertyOp36
 70
     0
102
RTVSPropertyOp37
 70
     0
102
RTVSPropertyOp38
 70
     0
102
RTVSPropertyOp39
 70
     0
102
RTVSPropertyOp40
 70
     0
102
RTVSPropertyOp41
 70
     0
102
RTVSPropertyOp42
 70
     0
102
RTVSPropertyOp43
 70
     0
102
RTVSPropertyOp44
 70
     0
102
RTVSPropertyOp45
 70
     0
102
RTVSPropertyOp46
 70
     0
102
RTVSPropertyOp47
 70
     0
102
RTVSPropertyOp48
 70
     0
102
RTVSPropertyOp49
 70
     0
102
RTVSPropertyOp50
 70
     0
102
RTVSPropertyOp51
 70
     0
102
RTVSPropertyOp52
 70
     0
102
RTVSPropertyOp53
 70
     0
102
RTVSPropertyOp54
 70
     0
102
RTVSPropertyOp55
 70
     0
102
RTVSPropertyOp56
 70
     0
102
RTVSPropertyOp57
 70
     0
102
RTVSPost2010Prop28
280
     0
102
RTVSPost2010PropOp28
 70
     0
102
RTVSPost2010Prop29
280
     1
102
RTVSPost2010PropOp29
 70
     0
102
RTVSPost2010Prop30
280
     1
102
RTVSPost2010PropOp30
 70
     0
102
RTVSPost2010Prop31
280
     0
102
RTVSPost2010PropOp31
 70
     0
102
RTVSPost2010Prop32
280
     0
102
RTVSPost2010PropOp32
 70
     0
102
RTVSPost2010Prop33
280
     0
102
RTVSPost2010PropOp33
 70
     0
102
RTVSPost2010Prop34
280
     0
102
RTVSPost2010PropOp34
 70
     0
102
RTVSPost2010Prop35
280
     0
102
RTVSPost2010PropOp35
 70
     0
102
RTVSPost2010Prop36
280
     0
102
RTVSPost2010PropOp36
 70
     0
102
RTVSPost2010Prop37
 90
       50
102
RTVSPost2010PropOp37
 70
     0
102
RTVSPost2010Prop38
140
0.0
102
RTVSPost2010PropOp38
 70
     0
102
RTVSPost2010Prop39
140
1.0
102
RTVSPost2010PropOp39
 70
     0
102
RTVSPost2010Prop40
 90
        0
102
RTVSPost2010PropOp40
 70
     0
102
RTVSPost2010Prop41ColorIndex
 90
       18
102
RTVSPost2010Prop41ColorRGB
 90
        0
102
RTVSPost2010PropOp41
 70
     0
102
RTVSPost2010Prop42
 90
       50
102
RTVSPost2010PropOp42
 70
     0
102
RTVSPost2010Prop43
 90
        3
102
RTVSPost2010PropOp43
 70
     0
102
RTVSPost2010Prop44ColorIndex
 90
        5
102
RTVSPost2010Prop44ColorRGB
 90
      255
102
RTVSPost2010PropOp44
 70
     0
102
RTVSPost2010Prop45
280
     0
102
RTVSPost2010PropOp45
 70
     0
102
RTVSPost2010Prop46
 90
       50
102
RTVSPost2010PropOp46
 70
     0
102
RTVSPost2010Prop47
 90
       50
102
RTVSPost2010PropOp47
 70
     0
102
RTVSPost2010Prop48
 90
       50
102
RTVSPost2010PropOp48
 70
     0
102
RTVSPost2010Prop49
280
     0
102
RTVSPost2010PropOp49
 70
     0
102
RTVSPost2010Prop50
 90
       50
102
RTVSPost2010PropOp50
 70
     0
102
RTVSPost2010Prop51ColorIndex
 90
      256
102
RTVSPost2010Prop51ColorRGB
 90
-16777216
102
RTVSPost2010PropOp51
 70
     0
102
RTVSPost2010Prop52
140
1.0
102
RTVSPost2010PropOp52
 70
     0
102
RTVSPost2010Prop53
 90
        2
102
RTVSPost2010PropOp53
 70
     0
102
RTVSPost2010Prop54
  1
strokes_ogs.tif
102
RTVSPost2010PropOp54
 70
     0
102
RTVSPost2010Prop55
280
     0
102
RTVSPost2010PropOp55
 70
     0
102
RTVSPost2010Prop56
140
1.0
102
RTVSPost2010PropOp56
 70
     0
102
RTVSPost2010Prop57
140
1.0
102
RTVSPost2010PropOp57
 70
     0
  0
XRECORD
  5
1BE
102
{ACAD_REACTORS
330
1BD
102
}
330
1BD
100
AcDbXrecord
280
     1
102
RTVSPropertyOp0
 70
     1
102
RTVSPropertyOp1
 70
     1
102
RTVSPropertyOp2
 70
     1
102
RTVSPropertyOp3
 70
     1
102
RTVSPropertyOp4
 70
     1
102
RTVSPropertyOp5
 70
     1
102
RTVSPropertyOp6
 70
     1
102
RTVSPropertyOp7
 70
     1
102
RTVSPropertyOp8
 70
     1
102
RTVSPropertyOp9
 70
     1
102
RTVSPropertyOp10
 70
     1
102
RTVSPropertyOp11
 70
     1
102
RTVSPropertyOp12
 70
     1
102
RTVSPropertyOp13
 70
     1
102
RTVSPropertyOp14
 70
     1
102
RTVSPropertyOp15
 70
     1
102
RTVSPropertyOp16
 70
     1
102
RTVSPropertyOp17
 70
     1
102
RTVSPropertyOp18
 70
     1
102
RTVSPropertyOp19
 70
     1
102
RTVSPropertyOp20
 70
     1
102
RTVSPropertyOp21
 70
     1
102
RTVSPropertyOp22
 70
     1
102
RTVSPropertyOp23
 70
     1
102
RTVSPropertyOp24
 70
     1
102
RTVSPropertyOp25
 70
     1
102
RTVSPropertyOp26
 70
     1
102
RTVSPropertyOp27
 70
     1
102
RTVSPropertyOp28
 70
     1
102
RTVSPropertyOp29
 70
     1
102
RTVSPropertyOp30
 70
     1
102
RTVSPropertyOp31
 70
     1
102
RTVSPropertyOp32
 70
     1
102
RTVSPropertyOp33
 70
     1
102
RTVSPropertyOp34
 70
     1
102
RTVSPropertyOp35
 70
     1
102
RTVSPropertyOp36
 70
     1
102
RTVSPropertyOp37
 70
     1
102
RTVSPropertyOp38
 70
     1
102
RTVSPropertyOp39
 70
     1
102
RTVSPropertyOp40
 70
     1
102
RTVSPropertyOp41
 70
     1
102
RTVSPropertyOp42
 70
     1
102
RTVSPropertyOp43
 70
     1
102
RTVSPropertyOp44
 70
     1
102
RTVSPropertyOp45
 70
     1
102
RTVSPropertyOp46
 70
     1
102
RTVSPropertyOp47
 70
     1
102
RTVSPropertyOp48
 70
     1
102
RTVSPropertyOp49
 70
     1
102
RTVSPropertyOp50
 70
     1
102
RTVSPropertyOp51
 70
     0
102
RTVSPropertyOp52
 70
     0
102
RTVSPropertyOp53
 70
     1
102
RTVSPropertyOp54
 70
     1
102
RTVSPropertyOp55
 70
     1
102
RTVSPropertyOp56
 70
     1
102
RTVSPropertyOp57
 70
     1
102
RTVSPost2010Prop28
280
     0
102
RTVSPost2010PropOp28
 70
     1
102
RTVSPost2010Prop29
280
     1
102
RTVSPost2010PropOp29
 70
     1
102
RTVSPost2010Prop30
280
     1
102
RTVSPost2010PropOp30
 70
     1
102
RTVSPost2010Prop31
280
     0
102
RTVSPost2010PropOp31
 70
     1
102
RTVSPost2010Prop32
280
     0
102
RTVSPost2010PropOp32
 70
     1
102
RTVSPost2010Prop33
280
     0
102
RTVSPost2010PropOp33
 70
     1
102
RTVSPost2010Prop34
280
     0
102
RTVSPost2010PropOp34
 70
     1
102
RTVSPost2010Prop35
280
     0
102
RTVSPost2010PropOp35
 70
     1
102
RTVSPost2010Prop36
280
     0
102
RTVSPost2010PropOp36
 70
     1
102
RTVSPost2010Prop37
 90
       50
102
RTVSPost2010PropOp37
 70
     1
102
RTVSPost2010Prop38
140
0.0
102
RTVSPost2010PropOp38
 70
     1
102
RTVSPost2010Prop39
140
1.0
102
RTVSPost2010PropOp39
 70
     1
102
RTVSPost2010Prop40
 90
        0
102
RTVSPost2010PropOp40
 70
     1
102
RTVSPost2010Prop41ColorIndex
 90
       18
102
RTVSPost2010Prop41ColorRGB
 90
        0
102
RTVSPost2010PropOp41
 70
     1
102
RTVSPost2010Prop42
 90
       50
102
RTVSPost2010PropOp42
 70
     1
102
RTVSPost2010Prop43
 90
        3
102
RTVSPost2010PropOp43
 70
     1
102
RTVSPost2010Prop44ColorIndex
 90
        5
102
RTVSPost2010Prop44ColorRGB
 90
      255
102
RTVSPost2010PropOp44
 70
     1
102
RTVSPost2010Prop45
280
     0
102
RTVSPost2010PropOp45
 70
     1
102
RTVSPost2010Prop46
 90
       50
102
RTVSPost2010PropOp46
 70
     1
102
RTVSPost2010Prop47
 90
       50
102
RTVSPost2010PropOp47
 70
     1
102
RTVSPost2010Prop48
 90
       50
102
RTVSPost2010PropOp48
 70
     1
102
RTVSPost2010Prop49
280
     0
102
RTVSPost2010PropOp49
 70
     1
102
RTVSPost2010Prop50
 90
       50
102
RTVSPost2010PropOp50
 70
     1
102
RTVSPost2010Prop51ColorIndex
 90
      256
102
RTVSPost2010Prop51ColorRGB
 90
-16777216
102
RTVSPost2010PropOp51
 70
     0
102
RTVSPost2010Prop52
140
1.0
102
RTVSPost2010PropOp52
 70
     0
102
RTVSPost2010Prop53
 90
        2
102
RTVSPost2010PropOp53
 70
     1
102
RTVSPost2010Prop54
  1
strokes_ogs.tif
102
RTVSPost2010PropOp54
 70
     1
102
RTVSPost2010Prop55
280
     0
102
RTVSPost2010PropOp55
 70
     1
102
RTVSPost2010Prop56
140
1.0
102
RTVSPost2010PropOp56
 70
     1
102
RTVSPost2010Prop57
140
1.0
102
RTVSPost2010PropOp57
 70
     1
  0
XRECORD
  5
1DC
102
{ACAD_REACTORS
330
1DB
102
}
330
1DB
100
AcDbXrecord
280
     1
102
RTVSPropertyOp0
 70
     1
102
RTVSPropertyOp1
 70
     1
102
RTVSPropertyOp2
 70
     1
102
RTVSPropertyOp3
 70
     1
102
RTVSPropertyOp4
 70
     1
102
RTVSPropertyOp5
 70
     1
102
RTVSPropertyOp6
 70
     1
102
RTVSPropertyOp7
 70
     1
102
RTVSPropertyOp8
 70
     1
102
RTVSPropertyOp9
 70
     1
102
RTVSPropertyOp10
 70
     1
102
RTVSPropertyOp11
 70
     1
102
RTVSPropertyOp12
 70
     1
102
RTVSPropertyOp13
 70
     1
102
RTVSPropertyOp14
 70
     1
102
RTVSPropertyOp15
 70
     1
102
RTVSPropertyOp16
 70
     1
102
RTVSPropertyOp17
 70
     1
102
RTVSPropertyOp18
 70
     1
102
RTVSPropertyOp19
 70
     1
102
RTVSPropertyOp20
 70
     1
102
RTVSPropertyOp21
 70
     1
102
RTVSPropertyOp22
 70
     1
102
RTVSPropertyOp23
 70
     1
102
RTVSPropertyOp24
 70
     1
102
RTVSPropertyOp25
 70
     1
102
RTVSPropertyOp26
 70
     1
102
RTVSPropertyOp27
 70
     1
102
RTVSPropertyOp28
 70
     1
102
RTVSPropertyOp29
 70
     1
102
RTVSPropertyOp30
 70
     1
102
RTVSPropertyOp31
 70
     1
102
RTVSPropertyOp32
 70
     1
102
RTVSPropertyOp33
 70
     1
102
RTVSPropertyOp34
 70
     1
102
RTVSPropertyOp35
 70
     1
102
RTVSPropertyOp36
 70
     1
102
RTVSPropertyOp37
 70
     1
102
RTVSPropertyOp38
 70
     1
102
RTVSPropertyOp39
 70
     1
102
RTVSPropertyOp40
 70
     1
102
RTVSPropertyOp41
 70
     1
102
RTVSPropertyOp42
 70
     1
102
RTVSPropertyOp43
 70
     1
102
RTVSPropertyOp44
 70
     1
102
RTVSPropertyOp45
 70
     1
102
RTVSPropertyOp46
 70
     1
102
RTVSPropertyOp47
 70
     1
102
RTVSPropertyOp48
 70
     1
102
RTVSPropertyOp49
 70
     1
102
RTVSPropertyOp50
 70
     1
102
RTVSPropertyOp51
 70
     0
102
RTVSPropertyOp52
 70
     0
102
RTVSPropertyOp53
 70
     1
102
RTVSPropertyOp54
 70
     1
102
RTVSPropertyOp55
 70
     1
102
RTVSPropertyOp56
 70
     1
102
RTVSPropertyOp57
 70
     1
102
RTVSPost2010Prop28
280
     0
102
RTVSPost2010PropOp28
 70
     1
102
RTVSPost2010Prop29
280
     1
102
RTVSPost2010PropOp29
 70
     1
102
RTVSPost2010Prop30
280
     1
102
RTVSPost2010PropOp30
 70
     1
102
RTVSPost2010Prop31
280
     0
102
RTVSPost2010PropOp31
 70
     1
102
RTVSPost2010Prop32
280
     0
102
RTVSPost2010PropOp32
 70
     1
102
RTVSPost2010Prop33
280
     0
102
RTVSPost2010PropOp33
 70
     1
102
RTVSPost2010Prop34
280
     0
102
RTVSPost2010PropOp34
 70
     1
102
RTVSPost2010Prop35
280
     0
102
RTVSPost2010PropOp35
 70
     1
102
RTVSPost2010Prop36
280
     0
102
RTVSPost2010PropOp36
 70
     1
102
RTVSPost2010Prop37
 90
       50
102
RTVSPost2010PropOp37
 70
     1
102
RTVSPost2010Prop38
140
0.0
102
RTVSPost2010PropOp38
 70
     1
102
RTVSPost2010Prop39
140
1.0
102
RTVSPost2010PropOp39
 70
     1
102
RTVSPost2010Prop40
 90
        0
102
RTVSPost2010PropOp40
 70
     1
102
RTVSPost2010Prop41ColorIndex
 90
       18
102
RTVSPost2010Prop41ColorRGB
 90
        0
102
RTVSPost2010PropOp41
 70
     1
102
RTVSPost2010Prop42
 90
       50
102
RTVSPost2010PropOp42
 70
     1
102
RTVSPost2010Prop43
 90
        3
102
RTVSPost2010PropOp43
 70
     1
102
RTVSPost2010Prop44ColorIndex
 90
        5
102
RTVSPost2010Prop44ColorRGB
 90
      255
102
RTVSPost2010PropOp44
 70
     1
102
RTVSPost2010Prop45
280
     0
102
RTVSPost2010PropOp45
 70
     1
102
RTVSPost2010Prop46
 90
       50
102
RTVSPost2010PropOp46
 70
     1
102
RTVSPost2010Prop47
 90
       50
102
RTVSPost2010PropOp47
 70
     1
102
RTVSPost2010Prop48
 90
       50
102
RTVSPost2010PropOp48
 70
     1
102
RTVSPost2010Prop49
280
     0
102
RTVSPost2010PropOp49
 70
     1
102
RTVSPost2010Prop50
 90
       50
102
RTVSPost2010PropOp50
 70
     1
102
RTVSPost2010Prop51ColorIndex
 90
      256
102
RTVSPost2010Prop51ColorRGB
 90
-16777216
102
RTVSPost2010PropOp51
 70
     0
102
RTVSPost2010Prop52
140
1.0
102
RTVSPost2010PropOp52
 70
     0
102
RTVSPost2010Prop53
 90
        2
102
RTVSPost2010PropOp53
 70
     1
102
RTVSPost2010Prop54
  1
strokes_ogs.tif
102
RTVSPost2010PropOp54
 70
     1
102
RTVSPost2010Prop55
280
     0
102
RTVSPost2010PropOp55
 70
     1
102
RTVSPost2010Prop56
140
1.0
102
RTVSPost2010PropOp56
 70
     1
102
RTVSPost2010Prop57
140
1.0
102
RTVSPost2010PropOp57
 70
     1
  0
XRECORD
  5
1DA
102
{ACAD_REACTORS
330
1D9
102
}
330
1D9
100
AcDbXrecord
280
     1
102
RTVSPropertyOp0
 70
     1
102
RTVSPropertyOp1
 70
     1
102
RTVSPropertyOp2
 70
     1
102
RTVSPropertyOp3
 70
     1
102
RTVSPropertyOp4
 70
     1
102
RTVSPropertyOp5
 70
     1
102
RTVSPropertyOp6
 70
     1
102
RTVSPropertyOp7
 70
     1
102
RTVSPropertyOp8
 70
     1
102
RTVSPropertyOp9
 70
     1
102
RTVSPropertyOp10
 70
     1
102
RTVSPropertyOp11
 70
     1
102
RTVSPropertyOp12
 70
     1
102
RTVSPropertyOp13
 70
     1
102
RTVSPropertyOp14
 70
     1
102
RTVSPropertyOp15
 70
     1
102
RTVSPropertyOp16
 70
     1
102
RTVSPropertyOp17
 70
     1
102
RTVSPropertyOp18
 70
     1
102
RTVSPropertyOp19
 70
     1
102
RTVSPropertyOp20
 70
     1
102
RTVSPropertyOp21
 70
     1
102
RTVSPropertyOp22
 70
     1
102
RTVSPropertyOp23
 70
     1
102
RTVSPropertyOp24
 70
     1
102
RTVSPropertyOp25
 70
     1
102
RTVSPropertyOp26
 70
     1
102
RTVSPropertyOp27
 70
     1
102
RTVSPropertyOp28
 70
     1
102
RTVSPropertyOp29
 70
     1
102
RTVSPropertyOp30
 70
     1
102
RTVSPropertyOp31
 70
     1
102
RTVSPropertyOp32
 70
     1
102
RTVSPropertyOp33
 70
     1
102
RTVSPropertyOp34
 70
     1
102
RTVSPropertyOp35
 70
     1
102
RTVSPropertyOp36
 70
     1
102
RTVSPropertyOp37
 70
     1
102
RTVSPropertyOp38
 70
     1
102
RTVSPropertyOp39
 70
     1
102
RTVSPropertyOp40
 70
     1
102
RTVSPropertyOp41
 70
     1
102
RTVSPropertyOp42
 70
     1
102
RTVSPropertyOp43
 70
     1
102
RTVSPropertyOp44
 70
     1
102
RTVSPropertyOp45
 70
     1
102
RTVSPropertyOp46
 70
     1
102
RTVSPropertyOp47
 70
     1
102
RTVSPropertyOp48
 70
     1
102
RTVSPropertyOp49
 70
     1
102
RTVSPropertyOp50
 70
     1
102
RTVSPropertyOp51
 70
     0
102
RTVSPropertyOp52
 70
     0
102
RTVSPropertyOp53
 70
     1
102
RTVSPropertyOp54
 70
     1
102
RTVSPropertyOp55
 70
     1
102
RTVSPropertyOp56
 70
     1
102
RTVSPropertyOp57
 70
     1
102
RTVSPost2010Prop28
280
     0
102
RTVSPost2010PropOp28
 70
     1
102
RTVSPost2010Prop29
280
     1
102
RTVSPost2010PropOp29
 70
     1
102
RTVSPost2010Prop30
280
     1
102
RTVSPost2010PropOp30
 70
     1
102
RTVSPost2010Prop31
280
     0
102
RTVSPost2010PropOp31
 70
     1
102
RTVSPost2010Prop32
280
     0
102
RTVSPost2010PropOp32
 70
     1
102
RTVSPost2010Prop33
280
     0
102
RTVSPost2010PropOp33
 70
     1
102
RTVSPost2010Prop34
280
     0
102
RTVSPost2010PropOp34
 70
     1
102
RTVSPost2010Prop35
280
     0
102
RTVSPost2010PropOp35
 70
     1
102
RTVSPost2010Prop36
280
     0
102
RTVSPost2010PropOp36
 70
     1
102
RTVSPost2010Prop37
 90
       50
102
RTVSPost2010PropOp37
 70
     1
102
RTVSPost2010Prop38
140
0.0
102
RTVSPost2010PropOp38
 70
     1
102
RTVSPost2010Prop39
140
1.0
102
RTVSPost2010PropOp39
 70
     1
102
RTVSPost2010Prop40
 90
        0
102
RTVSPost2010PropOp40
 70
     1
102
RTVSPost2010Prop41ColorIndex
 90
       18
102
RTVSPost2010Prop41ColorRGB
 90
        0
102
RTVSPost2010PropOp41
 70
     1
102
RTVSPost2010Prop42
 90
       50
102
RTVSPost2010PropOp42
 70
     1
102
RTVSPost2010Prop43
 90
        3
102
RTVSPost2010PropOp43
 70
     1
102
RTVSPost2010Prop44ColorIndex
 90
        5
102
RTVSPost2010Prop44ColorRGB
 90
      255
102
RTVSPost2010PropOp44
 70
     1
102
RTVSPost2010Prop45
280
     0
102
RTVSPost2010PropOp45
 70
     1
102
RTVSPost2010Prop46
 90
       50
102
RTVSPost2010PropOp46
 70
     1
102
RTVSPost2010Prop47
 90
       50
102
RTVSPost2010PropOp47
 70
     1
102
RTVSPost2010Prop48
 90
       50
102
RTVSPost2010PropOp48
 70
     1
102
RTVSPost2010Prop49
280
     0
102
RTVSPost2010PropOp49
 70
     1
102
RTVSPost2010Prop50
 90
       50
102
RTVSPost2010PropOp50
 70
     1
102
RTVSPost2010Prop51ColorIndex
 90
      256
102
RTVSPost2010Prop51ColorRGB
 90
-16777216
102
RTVSPost2010PropOp51
 70
     0
102
RTVSPost2010Prop52
140
1.0
102
RTVSPost2010PropOp52
 70
     0
102
RTVSPost2010Prop53
 90
        2
102
RTVSPost2010PropOp53
 70
     1
102
RTVSPost2010Prop54
  1
strokes_ogs.tif
102
RTVSPost2010PropOp54
 70
     1
102
RTVSPost2010Prop55
280
     0
102
RTVSPost2010PropOp55
 70
     1
102
RTVSPost2010Prop56
140
1.0
102
RTVSPost2010PropOp56
 70
     1
102
RTVSPost2010Prop57
140
1.0
102
RTVSPost2010PropOp57
 70
     1
  0
XRECORD
  5
1D4
102
{ACAD_REACTORS
330
1D3
102
}
330
1D3
100
AcDbXrecord
280
     1
102
RTVSPropertyOp0
 70
     1
102
RTVSPropertyOp1
 70
     1
102
RTVSPropertyOp2
 70
     1
102
RTVSPropertyOp3
 70
     1
102
RTVSPropertyOp4
 70
     1
102
RTVSPropertyOp5
 70
     1
102
RTVSPropertyOp6
 70
     1
102
RTVSPropertyOp7
 70
     1
102
RTVSPropertyOp8
 70
     1
102
RTVSPropertyOp9
 70
     1
102
RTVSPropertyOp10
 70
     1
102
RTVSPropertyOp11
 70
     1
102
RTVSPropertyOp12
 70
     1
102
RTVSPropertyOp13
 70
     1
102
RTVSPropertyOp14
 70
     1
102
RTVSPropertyOp15
 70
     1
102
RTVSPropertyOp16
 70
     1
102
RTVSPropertyOp17
 70
     1
102
RTVSPropertyOp18
 70
     1
102
RTVSPropertyOp19
 70
     1
102
RTVSPropertyOp20
 70
     1
102
RTVSPropertyOp21
 70
     1
102
RTVSPropertyOp22
 70
     1
102
RTVSPropertyOp23
 70
     1
102
RTVSPropertyOp24
 70
     1
102
RTVSPropertyOp25
 70
     1
102
RTVSPropertyOp26
 70
     1
102
RTVSPropertyOp27
 70
     1
102
RTVSPropertyOp28
 70
     1
102
RTVSPropertyOp29
 70
     1
102
RTVSPropertyOp30
 70
     1
102
RTVSPropertyOp31
 70
     1
102
RTVSPropertyOp32
 70
     1
102
RTVSPropertyOp33
 70
     1
102
RTVSPropertyOp34
 70
     1
102
RTVSPropertyOp35
 70
     1
102
RTVSPropertyOp36
 70
     1
102
RTVSPropertyOp37
 70
     1
102
RTVSPropertyOp38
 70
     1
102
RTVSPropertyOp39
 70
     1
102
RTVSPropertyOp40
 70
     1
102
RTVSPropertyOp41
 70
     1
102
RTVSPropertyOp42
 70
     1
102
RTVSPropertyOp43
 70
     1
102
RTVSPropertyOp44
 70
     1
102
RTVSPropertyOp45
 70
     1
102
RTVSPropertyOp46
 70
     1
102
RTVSPropertyOp47
 70
     1
102
RTVSPropertyOp48
 70
     1
102
RTVSPropertyOp49
 70
     1
102
RTVSPropertyOp50
 70
     1
102
RTVSPropertyOp51
 70
     0
102
RTVSPropertyOp52
 70
     0
102
RTVSPropertyOp53
 70
     1
102
RTVSPropertyOp54
 70
     1
102
RTVSPropertyOp55
 70
     1
102
RTVSPropertyOp56
 70
     1
102
RTVSPropertyOp57
 70
     1
102
RTVSPost2010Prop28
280
     0
102
RTVSPost2010PropOp28
 70
     1
102
RTVSPost2010Prop29
280
     1
102
RTVSPost2010PropOp29
 70
     1
102
RTVSPost2010Prop30
280
     1
102
RTVSPost2010PropOp30
 70
     1
102
RTVSPost2010Prop31
280
     0
102
RTVSPost2010PropOp31
 70
     1
102
RTVSPost2010Prop32
280
     0
102
RTVSPost2010PropOp32
 70
     1
102
RTVSPost2010Prop33
280
     0
102
RTVSPost2010PropOp33
 70
     1
102
RTVSPost2010Prop34
280
     0
102
RTVSPost2010PropOp34
 70
     1
102
RTVSPost2010Prop35
280
     0
102
RTVSPost2010PropOp35
 70
     1
102
RTVSPost2010Prop36
280
     0
102
RTVSPost2010PropOp36
 70
     1
102
RTVSPost2010Prop37
 90
       50
102
RTVSPost2010PropOp37
 70
     1
102
RTVSPost2010Prop38
140
0.0
102
RTVSPost2010PropOp38
 70
     1
102
RTVSPost2010Prop39
140
1.0
102
RTVSPost2010PropOp39
 70
     1
102
RTVSPost2010Prop40
 90
        0
102
RTVSPost2010PropOp40
 70
     1
102
RTVSPost2010Prop41ColorIndex
 90
       18
102
RTVSPost2010Prop41ColorRGB
 90
        0
102
RTVSPost2010PropOp41
 70
     1
102
RTVSPost2010Prop42
 90
       50
102
RTVSPost2010PropOp42
 70
     1
102
RTVSPost2010Prop43
 90
        3
102
RTVSPost2010PropOp43
 70
     1
102
RTVSPost2010Prop44ColorIndex
 90
        5
102
RTVSPost2010Prop44ColorRGB
 90
      255
102
RTVSPost2010PropOp44
 70
     1
102
RTVSPost2010Prop45
280
     0
102
RTVSPost2010PropOp45
 70
     1
102
RTVSPost2010Prop46
 90
       50
102
RTVSPost2010PropOp46
 70
     1
102
RTVSPost2010Prop47
 90
       50
102
RTVSPost2010PropOp47
 70
     1
102
RTVSPost2010Prop48
 90
       50
102
RTVSPost2010PropOp48
 70
     1
102
RTVSPost2010Prop49
280
     0
102
RTVSPost2010PropOp49
 70
     1
102
RTVSPost2010Prop50
 90
       50
102
RTVSPost2010PropOp50
 70
     1
102
RTVSPost2010Prop51ColorIndex
 90
      256
102
RTVSPost2010Prop51ColorRGB
 90
-16777216
102
RTVSPost2010PropOp51
 70
     0
102
RTVSPost2010Prop52
140
1.0
102
RTVSPost2010PropOp52
 70
     0
102
RTVSPost2010Prop53
 90
        2
102
RTVSPost2010PropOp53
 70
     1
102
RTVSPost2010Prop54
  1
strokes_ogs.tif
102
RTVSPost2010PropOp54
 70
     1
102
RTVSPost2010Prop55
280
     0
102
RTVSPost2010PropOp55
 70
     1
102
RTVSPost2010Prop56
140
1.0
102
RTVSPost2010PropOp56
 70
     1
102
RTVSPost2010Prop57
140
1.0
102
RTVSPost2010PropOp57
 70
     1
  0
XRECORD
  5
1D6
102
{ACAD_REACTORS
330
1D5
102
}
330
1D5
100
AcDbXrecord
280
     1
102
RTVSPropertyOp0
 70
     1
102
RTVSPropertyOp1
 70
     1
102
RTVSPropertyOp2
 70
     1
102
RTVSPropertyOp3
 70
     1
102
RTVSPropertyOp4
 70
     1
102
RTVSPropertyOp5
 70
     1
102
RTVSPropertyOp6
 70
     1
102
RTVSPropertyOp7
 70
     1
102
RTVSPropertyOp8
 70
     1
102
RTVSPropertyOp9
 70
     1
102
RTVSPropertyOp10
 70
     1
102
RTVSPropertyOp11
 70
     1
102
RTVSPropertyOp12
 70
     1
102
RTVSPropertyOp13
 70
     1
102
RTVSPropertyOp14
 70
     1
102
RTVSPropertyOp15
 70
     1
102
RTVSPropertyOp16
 70
     1
102
RTVSPropertyOp17
 70
     1
102
RTVSPropertyOp18
 70
     1
102
RTVSPropertyOp19
 70
     1
102
RTVSPropertyOp20
 70
     1
102
RTVSPropertyOp21
 70
     1
102
RTVSPropertyOp22
 70
     1
102
RTVSPropertyOp23
 70
     1
102
RTVSPropertyOp24
 70
     1
102
RTVSPropertyOp25
 70
     1
102
RTVSPropertyOp26
 70
     1
102
RTVSPropertyOp27
 70
     1
102
RTVSPropertyOp28
 70
     1
102
RTVSPropertyOp29
 70
     1
102
RTVSPropertyOp30
 70
     1
102
RTVSPropertyOp31
 70
     1
102
RTVSPropertyOp32
 70
     1
102
RTVSPropertyOp33
 70
     1
102
RTVSPropertyOp34
 70
     1
102
RTVSPropertyOp35
 70
     1
102
RTVSPropertyOp36
 70
     1
102
RTVSPropertyOp37
 70
     1
102
RTVSPropertyOp38
 70
     1
102
RTVSPropertyOp39
 70
     1
102
RTVSPropertyOp40
 70
     1
102
RTVSPropertyOp41
 70
     1
102
RTVSPropertyOp42
 70
     1
102
RTVSPropertyOp43
 70
     1
102
RTVSPropertyOp44
 70
     1
102
RTVSPropertyOp45
 70
     1
102
RTVSPropertyOp46
 70
     1
102
RTVSPropertyOp47
 70
     1
102
RTVSPropertyOp48
 70
     1
102
RTVSPropertyOp49
 70
     1
102
RTVSPropertyOp50
 70
     1
102
RTVSPropertyOp51
 70
     0
102
RTVSPropertyOp52
 70
     0
102
RTVSPropertyOp53
 70
     1
102
RTVSPropertyOp54
 70
     1
102
RTVSPropertyOp55
 70
     1
102
RTVSPropertyOp56
 70
     1
102
RTVSPropertyOp57
 70
     1
102
RTVSPost2010Prop28
280
     0
102
RTVSPost2010PropOp28
 70
     1
102
RTVSPost2010Prop29
280
     1
102
RTVSPost2010PropOp29
 70
     1
102
RTVSPost2010Prop30
280
     1
102
RTVSPost2010PropOp30
 70
     1
102
RTVSPost2010Prop31
280
     0
102
RTVSPost2010PropOp31
 70
     1
102
RTVSPost2010Prop32
280
     0
102
RTVSPost2010PropOp32
 70
     1
102
RTVSPost2010Prop33
280
     0
102
RTVSPost2010PropOp33
 70
     1
102
RTVSPost2010Prop34
280
     0
102
RTVSPost2010PropOp34
 70
     1
102
RTVSPost2010Prop35
280
     0
102
RTVSPost2010PropOp35
 70
     1
102
RTVSPost2010Prop36
280
     0
102
RTVSPost2010PropOp36
 70
     1
102
RTVSPost2010Prop37
 90
       50
102
RTVSPost2010PropOp37
 70
     1
102
RTVSPost2010Prop38
140
0.0
102
RTVSPost2010PropOp38
 70
     1
102
RTVSPost2010Prop39
140
1.0
102
RTVSPost2010PropOp39
 70
     1
102
RTVSPost2010Prop40
 90
        0
102
RTVSPost2010PropOp40
 70
     1
102
RTVSPost2010Prop41ColorIndex
 90
       18
102
RTVSPost2010Prop41ColorRGB
 90
        0
102
RTVSPost2010PropOp41
 70
     1
102
RTVSPost2010Prop42
 90
       50
102
RTVSPost2010PropOp42
 70
     1
102
RTVSPost2010Prop43
 90
        3
102
RTVSPost2010PropOp43
 70
     1
102
RTVSPost2010Prop44ColorIndex
 90
        5
102
RTVSPost2010Prop44ColorRGB
 90
      255
102
RTVSPost2010PropOp44
 70
     1
102
RTVSPost2010Prop45
280
     0
102
RTVSPost2010PropOp45
 70
     1
102
RTVSPost2010Prop46
 90
       50
102
RTVSPost2010PropOp46
 70
     1
102
RTVSPost2010Prop47
 90
       50
102
RTVSPost2010PropOp47
 70
     1
102
RTVSPost2010Prop48
 90
       50
102
RTVSPost2010PropOp48
 70
     1
102
RTVSPost2010Prop49
280
     0
102
RTVSPost2010PropOp49
 70
     1
102
RTVSPost2010Prop50
 90
       50
102
RTVSPost2010PropOp50
 70
     1
102
RTVSPost2010Prop51ColorIndex
 90
      256
102
RTVSPost2010Prop51ColorRGB
 90
-16777216
102
RTVSPost2010PropOp51
 70
     0
102
RTVSPost2010Prop52
140
1.0
102
RTVSPost2010PropOp52
 70
     0
102
RTVSPost2010Prop53
 90
        2
102
RTVSPost2010PropOp53
 70
     1
102
RTVSPost2010Prop54
  1
strokes_ogs.tif
102
RTVSPost2010PropOp54
 70
     1
102
RTVSPost2010Prop55
280
     0
102
RTVSPost2010PropOp55
 70
     1
102
RTVSPost2010Prop56
140
1.0
102
RTVSPost2010PropOp56
 70
     1
102
RTVSPost2010Prop57
140
1.0
102
RTVSPost2010PropOp57
 70
     1
  0
XRECORD
  5
1C6
102
{ACAD_REACTORS
330
1C5
102
}
330
1C5
100
AcDbXrecord
280
     1
102
RTVSPropertyOp0
 70
     1
102
RTVSPropertyOp1
 70
     1
102
RTVSPropertyOp2
 70
     1
102
RTVSPropertyOp3
 70
     1
102
RTVSPropertyOp4
 70
     1
102
RTVSPropertyOp5
 70
     1
102
RTVSPropertyOp6
 70
     1
102
RTVSPropertyOp7
 70
     1
102
RTVSPropertyOp8
 70
     1
102
RTVSPropertyOp9
 70
     1
102
RTVSPropertyOp10
 70
     1
102
RTVSPropertyOp11
 70
     1
102
RTVSPropertyOp12
 70
     1
102
RTVSPropertyOp13
 70
     1
102
RTVSPropertyOp14
 70
     1
102
RTVSPropertyOp15
 70
     1
102
RTVSPropertyOp16
 70
     1
102
RTVSPropertyOp17
 70
     1
102
RTVSPropertyOp18
 70
     1
102
RTVSPropertyOp19
 70
     1
102
RTVSPropertyOp20
 70
     1
102
RTVSPropertyOp21
 70
     1
102
RTVSPropertyOp22
 70
     1
102
RTVSPropertyOp23
 70
     1
102
RTVSPropertyOp24
 70
     1
102
RTVSPropertyOp25
 70
     1
102
RTVSPropertyOp26
 70
     1
102
RTVSPropertyOp27
 70
     1
102
RTVSPropertyOp28
 70
     1
102
RTVSPropertyOp29
 70
     1
102
RTVSPropertyOp30
 70
     1
102
RTVSPropertyOp31
 70
     1
102
RTVSPropertyOp32
 70
     1
102
RTVSPropertyOp33
 70
     1
102
RTVSPropertyOp34
 70
     1
102
RTVSPropertyOp35
 70
     1
102
RTVSPropertyOp36
 70
     1
102
RTVSPropertyOp37
 70
     1
102
RTVSPropertyOp38
 70
     1
102
RTVSPropertyOp39
 70
     1
102
RTVSPropertyOp40
 70
     1
102
RTVSPropertyOp41
 70
     1
102
RTVSPropertyOp42
 70
     1
102
RTVSPropertyOp43
 70
     1
102
RTVSPropertyOp44
 70
     1
102
RTVSPropertyOp45
 70
     1
102
RTVSPropertyOp46
 70
     1
102
RTVSPropertyOp47
 70
     1
102
RTVSPropertyOp48
 70
     1
102
RTVSPropertyOp49
 70
     1
102
RTVSPropertyOp50
 70
     1
102
RTVSPropertyOp51
 70
     0
102
RTVSPropertyOp52
 70
     0
102
RTVSPropertyOp53
 70
     1
102
RTVSPropertyOp54
 70
     1
102
RTVSPropertyOp55
 70
     1
102
RTVSPropertyOp56
 70
     1
102
RTVSPropertyOp57
 70
     1
102
RTVSPost2010Prop28
280
     0
102
RTVSPost2010PropOp28
 70
     1
102
RTVSPost2010Prop29
280
     1
102
RTVSPost2010PropOp29
 70
     1
102
RTVSPost2010Prop30
280
     1
102
RTVSPost2010PropOp30
 70
     1
102
RTVSPost2010Prop31
280
     0
102
RTVSPost2010PropOp31
 70
     1
102
RTVSPost2010Prop32
280
     0
102
RTVSPost2010PropOp32
 70
     1
102
RTVSPost2010Prop33
280
     0
102
RTVSPost2010PropOp33
 70
     1
102
RTVSPost2010Prop34
280
     0
102
RTVSPost2010PropOp34
 70
     1
102
RTVSPost2010Prop35
280
     0
102
RTVSPost2010PropOp35
 70
     1
102
RTVSPost2010Prop36
280
     0
102
RTVSPost2010PropOp36
 70
     1
102
RTVSPost2010Prop37
 90
       50
102
RTVSPost2010PropOp37
 70
     1
102
RTVSPost2010Prop38
140
0.0
102
RTVSPost2010PropOp38
 70
     1
102
RTVSPost2010Prop39
140
1.0
102
RTVSPost2010PropOp39
 70
     1
102
RTVSPost2010Prop40
 90
        0
102
RTVSPost2010PropOp40
 70
     1
102
RTVSPost2010Prop41ColorIndex
 90
       18
102
RTVSPost2010Prop41ColorRGB
 90
        0
102
RTVSPost2010PropOp41
 70
     1
102
RTVSPost2010Prop42
 90
       50
102
RTVSPost2010PropOp42
 70
     1
102
RTVSPost2010Prop43
 90
        3
102
RTVSPost2010PropOp43
 70
     1
102
RTVSPost2010Prop44ColorIndex
 90
        5
102
RTVSPost2010Prop44ColorRGB
 90
      255
102
RTVSPost2010PropOp44
 70
     1
102
RTVSPost2010Prop45
280
     0
102
RTVSPost2010PropOp45
 70
     1
102
RTVSPost2010Prop46
 90
       50
102
RTVSPost2010PropOp46
 70
     1
102
RTVSPost2010Prop47
 90
       50
102
RTVSPost2010PropOp47
 70
     1
102
RTVSPost2010Prop48
 90
       50
102
RTVSPost2010PropOp48
 70
     1
102
RTVSPost2010Prop49
280
     0
102
RTVSPost2010PropOp49
 70
     1
102
RTVSPost2010Prop50
 90
       50
102
RTVSPost2010PropOp50
 70
     1
102
RTVSPost2010Prop51ColorIndex
 90
      256
102
RTVSPost2010Prop51ColorRGB
 90
-16777216
102
RTVSPost2010PropOp51
 70
     0
102
RTVSPost2010Prop52
140
1.0
102
RTVSPost2010PropOp52
 70
     0
102
RTVSPost2010Prop53
 90
        2
102
RTVSPost2010PropOp53
 70
     1
102
RTVSPost2010Prop54
  1
strokes_ogs.tif
102
RTVSPost2010PropOp54
 70
     1
102
RTVSPost2010Prop55
280
     0
102
RTVSPost2010PropOp55
 70
     1
102
RTVSPost2010Prop56
140
1.0
102
RTVSPost2010PropOp56
 70
     1
102
RTVSPost2010Prop57
140
1.0
102
RTVSPost2010PropOp57
 70
     1
  0
XRECORD
  5
1B8
102
{ACAD_REACTORS
330
1B7
102
}
330
1B7
100
AcDbXrecord
280
     1
102
RTVSPropertyOp0
 70
     1
102
RTVSPropertyOp1
 70
     1
102
RTVSPropertyOp2
 70
     1
102
RTVSPropertyOp3
 70
     1
102
RTVSPropertyOp4
 70
     1
102
RTVSPropertyOp5
 70
     1
102
RTVSPropertyOp6
 70
     1
102
RTVSPropertyOp7
 70
     1
102
RTVSPropertyOp8
 70
     1
102
RTVSPropertyOp9
 70
     1
102
RTVSPropertyOp10
 70
     1
102
RTVSPropertyOp11
 70
     1
102
RTVSPropertyOp12
 70
     1
102
RTVSPropertyOp13
 70
     1
102
RTVSPropertyOp14
 70
     1
102
RTVSPropertyOp15
 70
     1
102
RTVSPropertyOp16
 70
     1
102
RTVSPropertyOp17
 70
     1
102
RTVSPropertyOp18
 70
     1
102
RTVSPropertyOp19
 70
     1
102
RTVSPropertyOp20
 70
     1
102
RTVSPropertyOp21
 70
     1
102
RTVSPropertyOp22
 70
     1
102
RTVSPropertyOp23
 70
     1
102
RTVSPropertyOp24
 70
     1
102
RTVSPropertyOp25
 70
     1
102
RTVSPropertyOp26
 70
     1
102
RTVSPropertyOp27
 70
     1
102
RTVSPropertyOp28
 70
     1
102
RTVSPropertyOp29
 70
     1
102
RTVSPropertyOp30
 70
     1
102
RTVSPropertyOp31
 70
     1
102
RTVSPropertyOp32
 70
     1
102
RTVSPropertyOp33
 70
     1
102
RTVSPropertyOp34
 70
     1
102
RTVSPropertyOp35
 70
     1
102
RTVSPropertyOp36
 70
     1
102
RTVSPropertyOp37
 70
     1
102
RTVSPropertyOp38
 70
     1
102
RTVSPropertyOp39
 70
     1
102
RTVSPropertyOp40
 70
     1
102
RTVSPropertyOp41
 70
     1
102
RTVSPropertyOp42
 70
     1
102
RTVSPropertyOp43
 70
     1
102
RTVSPropertyOp44
 70
     1
102
RTVSPropertyOp45
 70
     1
102
RTVSPropertyOp46
 70
     1
102
RTVSPropertyOp47
 70
     1
102
RTVSPropertyOp48
 70
     1
102
RTVSPropertyOp49
 70
     1
102
RTVSPropertyOp50
 70
     1
102
RTVSPropertyOp51
 70
     0
102
RTVSPropertyOp52
 70
     0
102
RTVSPropertyOp53
 70
     1
102
RTVSPropertyOp54
 70
     1
102
RTVSPropertyOp55
 70
     1
102
RTVSPropertyOp56
 70
     1
102
RTVSPropertyOp57
 70
     1
102
RTVSPost2010Prop28
280
     0
102
RTVSPost2010PropOp28
 70
     1
102
RTVSPost2010Prop29
280
     1
102
RTVSPost2010PropOp29
 70
     1
102
RTVSPost2010Prop30
280
     1
102
RTVSPost2010PropOp30
 70
     1
102
RTVSPost2010Prop31
280
     0
102
RTVSPost2010PropOp31
 70
     1
102
RTVSPost2010Prop32
280
     0
102
RTVSPost2010PropOp32
 70
     1
102
RTVSPost2010Prop33
280
     0
102
RTVSPost2010PropOp33
 70
     1
102
RTVSPost2010Prop34
280
     0
102
RTVSPost2010PropOp34
 70
     1
102
RTVSPost2010Prop35
280
     0
102
RTVSPost2010PropOp35
 70
     1
102
RTVSPost2010Prop36
280
     0
102
RTVSPost2010PropOp36
 70
     1
102
RTVSPost2010Prop37
 90
       50
102
RTVSPost2010PropOp37
 70
     1
102
RTVSPost2010Prop38
140
0.0
102
RTVSPost2010PropOp38
 70
     1
102
RTVSPost2010Prop39
140
1.0
102
RTVSPost2010PropOp39
 70
     1
102
RTVSPost2010Prop40
 90
        0
102
RTVSPost2010PropOp40
 70
     1
102
RTVSPost2010Prop41ColorIndex
 90
       18
102
RTVSPost2010Prop41ColorRGB
 90
        0
102
RTVSPost2010PropOp41
 70
     1
102
RTVSPost2010Prop42
 90
       50
102
RTVSPost2010PropOp42
 70
     1
102
RTVSPost2010Prop43
 90
        3
102
RTVSPost2010PropOp43
 70
     1
102
RTVSPost2010Prop44ColorIndex
 90
        5
102
RTVSPost2010Prop44ColorRGB
 90
      255
102
RTVSPost2010PropOp44
 70
     1
102
RTVSPost2010Prop45
280
     0
102
RTVSPost2010PropOp45
 70
     1
102
RTVSPost2010Prop46
 90
       50
102
RTVSPost2010PropOp46
 70
     1
102
RTVSPost2010Prop47
 90
       50
102
RTVSPost2010PropOp47
 70
     1
102
RTVSPost2010Prop48
 90
       50
102
RTVSPost2010PropOp48
 70
     1
102
RTVSPost2010Prop49
280
     0
102
RTVSPost2010PropOp49
 70
     1
102
RTVSPost2010Prop50
 90
       50
102
RTVSPost2010PropOp50
 70
     1
102
RTVSPost2010Prop51ColorIndex
 90
      256
102
RTVSPost2010Prop51ColorRGB
 90
-16777216
102
RTVSPost2010PropOp51
 70
     0
102
RTVSPost2010Prop52
140
1.0
102
RTVSPost2010PropOp52
 70
     0
102
RTVSPost2010Prop53
 90
        2
102
RTVSPost2010PropOp53
 70
     1
102
RTVSPost2010Prop54
  1
strokes_ogs.tif
102
RTVSPost2010PropOp54
 70
     1
102
RTVSPost2010Prop55
280
     0
102
RTVSPost2010PropOp55
 70
     1
102
RTVSPost2010Prop56
140
1.0
102
RTVSPost2010PropOp56
 70
     1
102
RTVSPost2010Prop57
140
1.0
102
RTVSPost2010PropOp57
 70
     1
  0
XRECORD
  5
1D8
102
{ACAD_REACTORS
330
1D7
102
}
330
1D7
100
AcDbXrecord
280
     1
102
RTVSPropertyOp0
 70
     1
102
RTVSPropertyOp1
 70
     1
102
RTVSPropertyOp2
 70
     1
102
RTVSPropertyOp3
 70
     1
102
RTVSPropertyOp4
 70
     1
102
RTVSPropertyOp5
 70
     1
102
RTVSPropertyOp6
 70
     1
102
RTVSPropertyOp7
 70
     1
102
RTVSPropertyOp8
 70
     1
102
RTVSPropertyOp9
 70
     1
102
RTVSPropertyOp10
 70
     1
102
RTVSPropertyOp11
 70
     1
102
RTVSPropertyOp12
 70
     1
102
RTVSPropertyOp13
 70
     1
102
RTVSPropertyOp14
 70
     1
102
RTVSPropertyOp15
 70
     1
102
RTVSPropertyOp16
 70
     1
102
RTVSPropertyOp17
 70
     1
102
RTVSPropertyOp18
 70
     1
102
RTVSPropertyOp19
 70
     1
102
RTVSPropertyOp20
 70
     1
102
RTVSPropertyOp21
 70
     1
102
RTVSPropertyOp22
 70
     1
102
RTVSPropertyOp23
 70
     1
102
RTVSPropertyOp24
 70
     1
102
RTVSPropertyOp25
 70
     1
102
RTVSPropertyOp26
 70
     1
102
RTVSPropertyOp27
 70
     1
102
RTVSPropertyOp28
 70
     1
102
RTVSPropertyOp29
 70
     1
102
RTVSPropertyOp30
 70
     1
102
RTVSPropertyOp31
 70
     1
102
RTVSPropertyOp32
 70
     1
102
RTVSPropertyOp33
 70
     1
102
RTVSPropertyOp34
 70
     1
102
RTVSPropertyOp35
 70
     1
102
RTVSPropertyOp36
 70
     1
102
RTVSPropertyOp37
 70
     1
102
RTVSPropertyOp38
 70
     1
102
RTVSPropertyOp39
 70
     1
102
RTVSPropertyOp40
 70
     1
102
RTVSPropertyOp41
 70
     1
102
RTVSPropertyOp42
 70
     1
102
RTVSPropertyOp43
 70
     1
102
RTVSPropertyOp44
 70
     1
102
RTVSPropertyOp45
 70
     1
102
RTVSPropertyOp46
 70
     1
102
RTVSPropertyOp47
 70
     1
102
RTVSPropertyOp48
 70
     1
102
RTVSPropertyOp49
 70
     1
102
RTVSPropertyOp50
 70
     1
102
RTVSPropertyOp51
 70
     0
102
RTVSPropertyOp52
 70
     0
102
RTVSPropertyOp53
 70
     1
102
RTVSPropertyOp54
 70
     1
102
RTVSPropertyOp55
 70
     1
102
RTVSPropertyOp56
 70
     1
102
RTVSPropertyOp57
 70
     1
102
RTVSPost2010Prop28
280
     0
102
RTVSPost2010PropOp28
 70
     1
102
RTVSPost2010Prop29
280
     1
102
RTVSPost2010PropOp29
 70
     1
102
RTVSPost2010Prop30
280
     1
102
RTVSPost2010PropOp30
 70
     1
102
RTVSPost2010Prop31
280
     0
102
RTVSPost2010PropOp31
 70
     1
102
RTVSPost2010Prop32
280
     0
102
RTVSPost2010PropOp32
 70
     1
102
RTVSPost2010Prop33
280
     0
102
RTVSPost2010PropOp33
 70
     1
102
RTVSPost2010Prop34
280
     0
102
RTVSPost2010PropOp34
 70
     1
102
RTVSPost2010Prop35
280
     0
102
RTVSPost2010PropOp35
 70
     1
102
RTVSPost2010Prop36
280
     0
102
RTVSPost2010PropOp36
 70
     1
102
RTVSPost2010Prop37
 90
       50
102
RTVSPost2010PropOp37
 70
     1
102
RTVSPost2010Prop38
140
0.0
102
RTVSPost2010PropOp38
 70
     1
102
RTVSPost2010Prop39
140
1.0
102
RTVSPost2010PropOp39
 70
     1
102
RTVSPost2010Prop40
 90
        0
102
RTVSPost2010PropOp40
 70
     1
102
RTVSPost2010Prop41ColorIndex
 90
       18
102
RTVSPost2010Prop41ColorRGB
 90
        0
102
RTVSPost2010PropOp41
 70
     1
102
RTVSPost2010Prop42
 90
       50
102
RTVSPost2010PropOp42
 70
     1
102
RTVSPost2010Prop43
 90
        3
102
RTVSPost2010PropOp43
 70
     1
102
RTVSPost2010Prop44ColorIndex
 90
        5
102
RTVSPost2010Prop44ColorRGB
 90
      255
102
RTVSPost2010PropOp44
 70
     1
102
RTVSPost2010Prop45
280
     0
102
RTVSPost2010PropOp45
 70
     1
102
RTVSPost2010Prop46
 90
       50
102
RTVSPost2010PropOp46
 70
     1
102
RTVSPost2010Prop47
 90
       50
102
RTVSPost2010PropOp47
 70
     1
102
RTVSPost2010Prop48
 90
       50
102
RTVSPost2010PropOp48
 70
     1
102
RTVSPost2010Prop49
280
     0
102
RTVSPost2010PropOp49
 70
     1
102
RTVSPost2010Prop50
 90
       50
102
RTVSPost2010PropOp50
 70
     1
102
RTVSPost2010Prop51ColorIndex
 90
      256
102
RTVSPost2010Prop51ColorRGB
 90
-16777216
102
RTVSPost2010PropOp51
 70
     0
102
RTVSPost2010Prop52
140
1.0
102
RTVSPost2010PropOp52
 70
     0
102
RTVSPost2010Prop53
 90
        2
102
RTVSPost2010PropOp53
 70
     1
102
RTVSPost2010Prop54
  1
strokes_ogs.tif
102
RTVSPost2010PropOp54
 70
     1
102
RTVSPost2010Prop55
280
     0
102
RTVSPost2010PropOp55
 70
     1
102
RTVSPost2010Prop56
140
1.0
102
RTVSPost2010PropOp56
 70
     1
102
RTVSPost2010Prop57
140
1.0
102
RTVSPost2010PropOp57
 70
     1
  0
ENDSEC
  0
EOF
