  0
SECTION
  2
HEADER
  9
$ACADVER
  1
AC1015
  9
$ACADMAINTVER
 70
     6
  9
$DWGCODEPAGE
  3
ANSI_1252
  9
$INSBASE
 10
0.0
 20
0.0
 30
0.0
  9
$EXTMIN
 10
0.0
 20
0.0
 30
0.0
  9
$EXTMAX
 10
210.0
 20
297.0
 30
0.0
  9
$LIMMIN
 10
0.0
 20
0.0
  9
$LIMMAX
 10
210.0
 20
297.0
  9
$ORTHOMODE
 70
     0
  9
$REGENMODE
 70
     1
  9
$FILLMODE
 70
     1
  9
$QTEXTMODE
 70
     0
  9
$MIRRTEXT
 70
     1
  9
$LTSCALE
 40
1.0
  9
$ATTMODE
 70
     1
  9
$TEXTSIZE
 40
2.0
  9
$TRACEWID
 40
1.0
  9
$TEXTSTYLE
  7
Standard
  9
$CLAYER
  8
0
  9
$CELTYPE
  6
ByLayer
  9
$CECOLOR
 62
   256
  9
$CELTSCALE
 40
1.0
  9
$DISPSILH
 70
     0
  9
$DIMSCALE
 40
1.0
  9
$DIMASZ
 40
2.5
  9
$DIMEXO
 40
0.625
  9
$DIMDLI
 40
3.75
  9
$DIMRND
 40
0.0
  9
$DIMDLE
 40
0.0
  9
$DIMEXE
 40
1.25
  9
$DIMTP
 40
0.0
  9
$DIMTM
 40
0.0
  9
$DIMTXT
 40
2.5
  9
$DIMCEN
 40
2.5
  9
$DIMTSZ
 40
0.0
  9
$DIMTOL
 70
     0
  9
$DIMLIM
 70
     0
  9
$DIMTIH
 70
     0
  9
$DIMTOH
 70
     0
  9
$DIMSE1
 70
     0
  9
$DIMSE2
 70
     0
  9
$DIMTAD
 70
     1
  9
$DIMZIN
 70
     8
  9
$DIMBLK
  1

  9
$DIMASO
 70
     1
  9
$DIMSHO
 70
     1
  9
$DIMPOST
  1

  9
$DIMAPOST
  1

  9
$DIMALT
 70
     0
  9
$DIMALTD
 70
     3
  9
$DIMALTF
 40
0.03937007874016
  9
$DIMLFAC
 40
1.0
  9
$DIMTOFL
 70
     1
  9
$DIMTVP
 40
0.0
  9
$DIMTIX
 70
     0
  9
$DIMSOXD
 70
     0
  9
$DIMSAH
 70
     0
  9
$DIMBLK1
  1

  9
$DIMBLK2
  1

  9
$DIMSTYLE
  2
ISO-25
  9
$DIMCLRD
 70
     0
  9
$DIMCLRE
 70
     0
  9
$DIMCLRT
 70
     0
  9
$DIMTFAC
 40
1.0
  9
$DIMGAP
 40
0.625
  9
$DIMJUST
 70
     0
  9
$DIMSD1
 70
     0
  9
$DIMSD2
 70
     0
  9
$DIMTOLJ
 70
     0
  9
$DIMTZIN
 70
     8
  9
$DIMALTZ
 70
     0
  9
$DIMALTTZ
 70
     0
  9
$DIMUPT
 70
     0
  9
$DIMDEC
 70
     2
  9
$DIMTDEC
 70
     2
  9
$DIMALTU
 70
     2
  9
$DIMALTTD
 70
     3
  9
$DIMTXSTY
  7
Standard
  9
$DIMAUNIT
 70
     0
  9
$DIMADEC
 70
     0
  9
$DIMALTRND
 40
0.0
  9
$DIMAZIN
 70
     0
  9
$DIMDSEP
 70
    44
  9
$DIMATFIT
 70
     3
  9
$DIMFRAC
 70
     0
  9
$DIMLDRBLK
  1

  9
$DIMLUNIT
 70
     2
  9
$DIMLWD
 70
    -2
  9
$DIMLWE
 70
    -2
  9
$DIMTMOVE
 70
     0
  9
$LUNITS
 70
     2
  9
$LUPREC
 70
     4
  9
$SKETCHINC
 40
1.0
  9
$FILLETRAD
 40
10.0
  9
$AUNITS
 70
     0
  9
$AUPREC
 70
     0
  9
$MENU
  1
.
  9
$ELEVATION
 40
0.0
  9
$PELEVATION
 40
0.0
  9
$THICKNESS
 40
0.0
  9
$LIMCHECK
 70
     0
  9
$CHAMFERA
 40
0.0
  9
$CHAMFERB
 40
0.0
  9
$CHAMFERC
 40
0.0
  9
$CHAMFERD
 40
0.0
  9
$SKPOLY
 70
     0
  9
$TDCREATE
 40
2459356.545938565
  9
$TDUCREATE
 40
2459356.504271898
  9
$TDUPDATE
 40
2460396.620848102
  9
$TDUUPDATE
 40
2460396.579181435
  9
$TDINDWG
 40
0.0000000116
  9
$TDUSRTIMER
 40
0.0000000116
  9
$USRTIMER
 70
     1
  9
$ANGBASE
 50
0.0
  9
$ANGDIR
 70
     0
  9
$PDMODE
 70
     0
  9
$PDSIZE
 40
0.0
  9
$PLINEWID
 40
0.0
  9
$SPLFRAME
 70
     0
  9
$SPLINETYPE
 70
     6
  9
$SPLINESEGS
 70
     8
  9
$HANDSEED
  5
202
  9
$SURFTAB1
 70
     6
  9
$SURFTAB2
 70
     6
  9
$SURFTYPE
 70
     6
  9
$SURFU
 70
     6
  9
$SURFV
 70
     6
  9
$UCSBASE
  2

  9
$UCSNAME
  2

  9
$UCSORG
 10
0.0
 20
0.0
 30
0.0
  9
$UCSXDIR
 10
1.0
 20
0.0
 30
0.0
  9
$UCSYDIR
 10
0.0
 20
1.0
 30
0.0
  9
$UCSORTHOREF
  2

  9
$UCSORTHOVIEW
 70
     0
  9
$UCSORGTOP
 10
0.0
 20
0.0
 30
0.0
  9
$UCSORGBOTTOM
 10
0.0
 20
0.0
 30
0.0
  9
$UCSORGLEFT
 10
0.0
 20
0.0
 30
0.0
  9
$UCSORGRIGHT
 10
0.0
 20
0.0
 30
0.0
  9
$UCSORGFRONT
 10
0.0
 20
0.0
 30
0.0
  9
$UCSORGBACK
 10
0.0
 20
0.0
 30
0.0
  9
$PUCSBASE
  2

  9
$PUCSNAME
  2

  9
$PUCSORG
 10
0.0
 20
0.0
 30
0.0
  9
$PUCSXDIR
 10
1.0
 20
0.0
 30
0.0
  9
$PUCSYDIR
 10
0.0
 20
1.0
 30
0.0
  9
$PUCSORTHOREF
  2

  9
$PUCSORTHOVIEW
 70
     0
  9
$PUCSORGTOP
 10
0.0
 20
0.0
 30
0.0
  9
$PUCSORGBOTTOM
 10
0.0
 20
0.0
 30
0.0
  9
$PUCSORGLEFT
 10
0.0
 20
0.0
 30
0.0
  9
$PUCSORGRIGHT
 10
0.0
 20
0.0
 30
0.0
  9
$PUCSORGFRONT
 10
0.0
 20
0.0
 30
0.0
  9
$PUCSORGBACK
 10
0.0
 20
0.0
 30
0.0
  9
$USERI1
 70
     0
  9
$USERI2
 70
     0
  9
$USERI3
 70
     0
  9
$USERI4
 70
     0
  9
$USERI5
 70
     0
  9
$USERR1
 40
0.0
  9
$USERR2
 40
0.0
  9
$USERR3
 40
0.0
  9
$USERR4
 40
0.0
  9
$USERR5
 40
0.0
  9
$WORLDVIEW
 70
     1
  9
$SHADEDGE
 70
     3
  9
$SHADEDIF
 70
    70
  9
$TILEMODE
 70
     1
  9
$MAXACTVP
 70
    64
  9
$PINSBASE
 10
0.0
 20
0.0
 30
0.0
  9
$PLIMCHECK
 70
     0
  9
$PEXTMIN
 10
0.0
 20
0.0
 30
0.0
  9
$PEXTMAX
 10
210.0
 20
297.0
 30
0.0
  9
$PLIMMIN
 10
0.0
 20
0.0
  9
$PLIMMAX
 10
210.0
 20
297.0
  9
$UNITMODE
 70
     0
  9
$VISRETAIN
 70
     1
  9
$PLINEGEN
 70
     0
  9
$PSLTSCALE
 70
     1
  9
$TREEDEPTH
 70
  3020
  9
$CMLSTYLE
  2
Standard
  9
$CMLJUST
 70
     0
  9
$CMLSCALE
 40
20.0
  9
$PROXYGRAPHICS
 70
     1
  9
$MEASUREMENT
 70
     1
  9
$CELWEIGHT
370
    -1
  9
$ENDCAPS
280
     0
  9
$JOINSTYLE
280
     0
  9
$LWDISPLAY
290
     0
  9
$INSUNITS
 70
     4
  9
$HYPERLINKBASE
  1

  9
$STYLESHEET
  1

  9
$XEDIT
290
     1
  9
$CEPSNTYPE
380
     0
  9
$PSTYLEMODE
290
     1
  9
$FINGERPRINTGUID
  2
{65C122D1-CD11-4CF2-9B47-854F89020EE5}
  9
$VERSIONGUID
  2
{FAEB1C32-E019-11D5-929B-00C0DF256EC4}
  9
$EXTNAMES
290
     1
  9
$PSVPSCALE
 40
0.0
  9
$OLESTARTUP
290
     0
  0
ENDSEC
  0
SECTION
  2
CLASSES
  0
CLASS
  1
ACDBDICTIONARYWDFLT
  2
AcDbDictionaryWithDefault
  3
ObjectDBX Classes
 90
        0
280
     0
281
     0
  0
CLASS
  1
VISUALSTYLE
  2
AcDbVisualStyle
  3
ObjectDBX Classes
 90
     4095
280
     0
281
     0
  0
CLASS
  1
MATERIAL
  2
AcDbMaterial
  3
ObjectDBX Classes
 90
     1153
280
     0
281
     0
  0
CLASS
  1
SCALE
  2
AcDbScale
  3
ObjectDBX Classes
 90
     1153
280
     0
281
     0
  0
CLASS
  1
TABLESTYLE
  2
AcDbTableStyle
  3
ObjectDBX Classes
 90
     4095
280
     0
281
     0
  0
CLASS
  1
MLEADERSTYLE
  2
AcDbMLeaderStyle
  3
ACDB_MLEADERSTYLE_CLASS
 90
     4095
280
     0
281
     0
  0
CLASS
  1
SUN
  2
AcDbSun
  3
SCENEOE
 90
     1153
280
     0
281
     0
  0
CLASS
  1
DICTIONARYVAR
  2
AcDbDictionaryVar
  3
ObjectDBX Classes
 90
        0
280
     0
281
     0
  0
CLASS
  1
CELLSTYLEMAP
  2
AcDbCellStyleMap
  3
ObjectDBX Classes
 90
     1152
280
     0
281
     0
  0
CLASS
  1
ACDBPLACEHOLDER
  2
AcDbPlaceHolder
  3
ObjectDBX Classes
 90
        0
280
     0
281
     0
  0
CLASS
  1
LAYOUT
  2
AcDbLayout
  3
ObjectDBX Classes
 90
        0
280
     0
281
     0
  0
ENDSEC
  0
SECTION
  2
TABLES
  0
TABLE
  2
VPORT
  5
8
102
{ACAD_XDICTIONARY
360
1C6
102
}
330
0
100
AcDbSymbolTable
 70
     1
  0
VPORT
  5
29
330
8
100
AcDbSymbolTableRecord
100
AcDbViewportTableRecord
  2
*Active
 70
     0
 10
0.0
 20
0.0
 11
1.0
 21
1.0
 12
344.1869158878504
 22
148.5
 13
0.0
 23
0.0
 14
10.0
 24
10.0
 15
10.0
 25
10.0
 16
0.0
 26
0.0
 36
1.0
 17
0.0
 27
0.0
 37
0.0
 40
297.0
 41
1.972972972850329
 42
50.0
 43
0.0
 44
0.0
 50
0.0
 51
0.0
 71
     0
 72
   100
 73
     1
 74
     3
 75
     0
 76
     0
 77
     0
 78
     0
281
     0
 65
     1
110
0.0
120
0.0
130
0.0
111
1.0
121
0.0
131
0.0
112
0.0
122
1.0
132
0.0
 79
     0
146
0.0
  0
ENDTAB
  0
TABLE
  2
LTYPE
  5
5
330
0
100
AcDbSymbolTable
 70
     1
  0
LTYPE
  5
14
330
5
100
AcDbSymbolTableRecord
100
AcDbLinetypeTableRecord
  2
ByBlock
 70
     0
  3

 72
    65
 73
     0
 40
0.0
  0
LTYPE
  5
15
330
5
100
AcDbSymbolTableRecord
100
AcDbLinetypeTableRecord
  2
ByLayer
 70
     0
  3

 72
    65
 73
     0
 40
0.0
  0
LTYPE
  5
16
330
5
100
AcDbSymbolTableRecord
100
AcDbLinetypeTableRecord
  2
Continuous
 70
     0
  3
Solid line
 72
    65
 73
     0
 40
0.0
  0
ENDTAB
  0
TABLE
  2
LAYER
  5
2
330
0
100
AcDbSymbolTable
 70
     8
  0
LAYER
  5
10
330
2
100
AcDbSymbolTableRecord
100
AcDbLayerTableRecord
  2
0
 70
     0
 62
     7
  6
Continuous
370
    -3
390
F
  0
LAYER
  5
6E
330
2
100
AcDbSymbolTableRecord
100
AcDbLayerTableRecord
  2
Default
 70
     0
 62
     7
  6
Continuous
370
    -3
390
F
  0
LAYER
  5
71
330
2
100
AcDbSymbolTableRecord
100
AcDbLayerTableRecord
  2
DV1_0
 70
     0
 62
     7
  6
Continuous
370
    -3
390
F
  0
LAYER
  5
B7
330
2
100
AcDbSymbolTableRecord
100
AcDbLayerTableRecord
  2
DV2_0
 70
     0
 62
     7
  6
Continuous
370
    -3
390
F
  0
LAYER
  5
FC
330
2
100
AcDbSymbolTableRecord
100
AcDbLayerTableRecord
  2
DV3_0
 70
     0
 62
     7
  6
Continuous
370
    -3
390
F
  0
LAYER
  5
104
330
2
100
AcDbSymbolTableRecord
100
AcDbLayerTableRecord
  2
DV4_0
 70
     0
 62
     7
  6
Continuous
370
    -3
390
F
  0
LAYER
  5
161
330
2
100
AcDbSymbolTableRecord
100
AcDbLayerTableRecord
  2
Predeterminado
 70
     0
 62
     7
  6
Continuous
370
    -3
390
F
  0
LAYER
  5
17B
330
2
100
AcDbSymbolTableRecord
100
AcDbLayerTableRecord
  2
D
 70
     0
 62
     7
  6
Continuous
370
    -3
390
F
  0
ENDTAB
  0
TABLE
  2
STYLE
  5
3
330
0
100
AcDbSymbolTable
 70
     5
  0
STYLE
  5
11
330
3
100
AcDbSymbolTableRecord
100
AcDbTextStyleTableRecord
  2
Standard
 70
     0
 40
0.0
 41
1.0
 50
0.0
 71
     0
 42
2.0
  3
txt
  4

  0
STYLE
  5
148
330
3
100
AcDbSymbolTableRecord
100
AcDbTextStyleTableRecord
  2
SEACAD_Solid_Edge_ANSI
 70
     0
 40
0.0
 41
1.0
 50
0.0
 71
     0
 42
2.5
  3
seans.ttf
  4

1001
ACAD
1000
Solid Edge ANSI
1071
        0
  0
STYLE
  5
15C
330
3
100
AcDbSymbolTableRecord
100
AcDbTextStyleTableRecord
  2
GDT
 70
     0
 40
0.0
 41
1.0
 50
0.0
 71
     0
 42
2.5
  3
gdt_____.ttf
  4

1001
ACAD
1000
GDT
1071
        0
  0
STYLE
  5
1BD
330
3
100
AcDbSymbolTableRecord
100
AcDbTextStyleTableRecord
  2
MtXpl_Arial
 70
     0
 40
0.2
 41
1.0
 50
0.0
 71
     0
 42
2.0
  3
arialbd.ttf
  4

1001
ACAD
1000
Arial
1071
 33554466
  0
STYLE
  5
1BE
330
3
100
AcDbSymbolTableRecord
100
AcDbTextStyleTableRecord
  2
MtXpl_Arial1
 70
     0
 40
0.2
 41
1.0
 50
0.0
 71
     0
 42
2.0
  3

  4

1001
ACAD
1000
Arial
1071
       34
  0
ENDTAB
  0
TABLE
  2
VIEW
  5
6
330
0
100
AcDbSymbolTable
 70
     0
  0
ENDTAB
  0
TABLE
  2
UCS
  5
7
330
0
100
AcDbSymbolTable
 70
     0
  0
ENDTAB
  0
TABLE
  2
APPID
  5
9
330
0
100
AcDbSymbolTable
 70
     2
  0
APPID
  5
12
330
9
100
AcDbSymbolTableRecord
100
AcDbRegAppTableRecord
  2
ACAD
 70
     0
  0
APPID
  5
1B4
330
9
100
AcDbSymbolTableRecord
100
AcDbRegAppTableRecord
  2
ACAD_MLEADERVER
 70
     0
  0
ENDTAB
  0
TABLE
  2
DIMSTYLE
  5
A
330
0
100
AcDbSymbolTable
 70
     1
100
AcDbDimStyleTable
  0
DIMSTYLE
105
27
330
A
100
AcDbSymbolTableRecord
100
AcDbDimStyleTableRecord
  2
ISO-25
 70
     0
 41
2.5
 42
0.625
 43
3.75
 44
1.25
 73
     0
 74
     0
 77
     1
 78
     8
140
2.5
141
2.5
143
0.03937007874016
147
0.625
171
     3
172
     1
178
     0
271
     2
272
     2
274
     3
278
    44
283
     0
284
     8
340
11
  0
ENDTAB
  0
TABLE
  2
BLOCK_RECORD
  5
1
330
0
100
AcDbSymbolTable
 70
    10
  0
BLOCK_RECORD
  5
1F
330
1
100
AcDbSymbolTableRecord
100
AcDbBlockTableRecord
  2
*Model_Space
340
22
  0
BLOCK_RECORD
  5
1B
330
1
100
AcDbSymbolTableRecord
100
AcDbBlockTableRecord
  2
*Paper_Space
340
1E
  0
BLOCK_RECORD
  5
6F
330
1
100
AcDbSymbolTableRecord
100
AcDbBlockTableRecord
  2
SE
340
0
102
{BLKREFS
331
70
102
}
  0
BLOCK_RECORD
  5
B5
330
1
100
AcDbSymbolTableRecord
100
AcDbBlockTableRecord
  2
SE1
340
0
102
{BLKREFS
331
B6
102
}
  0
BLOCK_RECORD
  5
FA
330
1
100
AcDbSymbolTableRecord
100
AcDbBlockTableRecord
  2
SE2
340
0
102
{BLKREFS
331
FB
102
}
  0
BLOCK_RECORD
  5
102
330
1
100
AcDbSymbolTableRecord
100
AcDbBlockTableRecord
  2
SE3
340
0
102
{BLKREFS
331
103
102
}
  0
BLOCK_RECORD
  5
141
330
1
100
AcDbSymbolTableRecord
100
AcDbBlockTableRecord
  2
GDimGGroup
340
0
102
{BLKREFS
331
142
102
}
  0
BLOCK_RECORD
  5
14C
330
1
100
AcDbSymbolTableRecord
100
AcDbBlockTableRecord
  2
GDimGGroup1
340
0
102
{BLKREFS
331
14D
102
}
  0
BLOCK_RECORD
  5
156
330
1
100
AcDbSymbolTableRecord
100
AcDbBlockTableRecord
  2
GDimGGroup2
340
0
102
{BLKREFS
331
157
102
}
  0
BLOCK_RECORD
  5
169
330
1
100
AcDbSymbolTableRecord
100
AcDbBlockTableRecord
  2
SEANNOT_GROUP
340
0
102
{BLKREFS
331
16A
102
}
  0
BLOCK_RECORD
  5
171
330
1
100
AcDbSymbolTableRecord
100
AcDbBlockTableRecord
  2
SEANNOT_GROUP1
340
0
102
{BLKREFS
331
172
102
}
  0
BLOCK_RECORD
  5
176
330
1
100
AcDbSymbolTableRecord
100
AcDbBlockTableRecord
  2
SEANNOT_GROUP2
340
0
102
{BLKREFS
331
177
102
}
  0
ENDTAB
  0
ENDSEC
  0
SECTION
  2
BLOCKS
  0
BLOCK
  5
20
330
1F
100
AcDbEntity
  8
0
100
AcDbBlockBegin
  2
*Model_Space
 70
     0
 10
0.0
 20
0.0
 30
0.0
  3
*Model_Space
  1

  0
ENDBLK
  5
21
330
1F
100
AcDbEntity
  8
0
100
AcDbBlockEnd
  0
BLOCK
  5
1C
330
1B
100
AcDbEntity
 67
     1
  8
0
100
AcDbBlockBegin
  2
*Paper_Space
 70
     0
 10
0.0
 20
0.0
 30
0.0
  3
*Paper_Space
  1

  0
ENDBLK
  5
1D
330
1B
100
AcDbEntity
 67
     1
  8
0
100
AcDbBlockEnd
  0
BLOCK
  5
B3
330
6F
100
AcDbEntity
  8
0
100
AcDbBlockBegin
  2
SE
 70
     0
 10
0.0
 20
0.0
 30
0.0
  3
SE
  1

  0
LINE
  5
72
330
6F
100
AcDbEntity
  8
DV1_0
 62
     7
370
    25
100
AcDbLine
 10
59.63605649602825
 20
214.5767235157736
 30
0.0
 11
69.63605649602815
 21
214.5767235157736
 31
0.0
  0
LINE
  5
73
330
6F
100
AcDbEntity
  8
DV1_0
 62
     7
370
    35
100
AcDbLine
 10
59.63605649602825
 20
150.8611367870163
 30
0.0
 11
69.63605649602815
 21
150.8611367870163
 31
0.0
  0
LINE
  5
74
330
6F
100
AcDbEntity
  8
DV1_0
 62
     7
370
    35
100
AcDbLine
 10
69.6360564960282
 20
150.8611367870163
 30
0.0
 11
69.6360564960282
 21
214.5767235157736
 31
0.0
  0
LINE
  5
75
330
6F
100
AcDbEntity
  8
DV1_0
 62
     7
370
    35
100
AcDbLine
 10
59.6360564960282
 20
214.5767235157736
 30
0.0
 11
59.6360564960282
 21
150.8611367870163
 31
0.0
  0
ARC
  5
76
330
6F
100
AcDbEntity
  8
DV1_0
 62
     7
370
    35
100
AcDbCircle
 10
60.1860564960282
 20
214.5767235157736
 30
0.0
 40
0.5500000000000005
100
AcDbArc
 50
133.7021144373452
 51
180.0
  0
ARC
  5
77
330
6F
100
AcDbEntity
  8
DV1_0
 62
     7
370
    35
100
AcDbCircle
 10
69.08605649602819
 20
214.5767235157736
 30
0.0
 40
0.5500000000000005
100
AcDbArc
 50
0.0
 51
46.29788556263698
  0
ARC
  5
78
330
6F
100
AcDbEntity
  8
DV1_0
 62
     7
370
    35
100
AcDbCircle
 10
59.6360564960282
 20
131.3611367870163
 30
0.0
 40
0.7499999999999951
100
AcDbArc
 50
179.9852450018064
 51
270.0
  0
SPLINE
  5
79
330
6F
100
AcDbEntity
  8
DV1_0
 62
     7
370
    35
100
AcDbSpline
210
0.0
220
0.0
230
1.0
 70
    12
 71
     2
 72
    10
 73
     7
 74
     0
 42
0.000000001
 43
0.0000000001
 40
0.0
 40
0.0
 40
0.0
 40
0.0208333333333333
 40
0.0208333333333333
 40
0.0416666666666667
 40
0.0416666666666667
 40
0.0625
 40
0.0625
 40
0.0625
 10
59.6360564960282
 20
130.6111367870163
 30
0.0
 41
1.0
 10
59.6360564960282
 20
130.7937032805359
 30
0.0
 41
0.9659258262890683
 10
60.30592947710601
 20
130.9762697740554
 30
0.0
 41
1.0
 10
60.97580245818381
 20
131.158836267575
 30
0.0
 41
0.9659258262890683
 10
62.1360564960282
 20
131.3414027610946
 30
0.0
 41
1.0
 10
63.29631053387258
 20
131.5239692546141
 30
0.0
 41
0.9659258262890683
 10
64.6360564960282
 20
131.7065357481337
 30
0.0
 41
1.0
  0
SPLINE
  5
7A
330
6F
100
AcDbEntity
  8
DV1_0
 62
     7
370
    35
100
AcDbSpline
210
0.0
220
0.0
230
1.0
 70
    12
 71
     2
 72
    10
 73
     7
 74
     0
 42
0.000000001
 43
0.0000000001
 40
0.25
 40
0.25
 40
0.25
 40
0.2708333333333333
 40
0.2708333333333333
 40
0.2916666666666667
 40
0.2916666666666667
 40
0.3125
 40
0.3125
 40
0.3125
 10
59.6360564960282
 20
134.9927326314859
 30
0.0
 41
1.0
 10
59.6360564960282
 20
135.1752991250054
 30
0.0
 41
0.9659258262890683
 10
60.30592947710601
 20
135.357865618525
 30
0.0
 41
1.0
 10
60.97580245818381
 20
135.5404321120446
 30
0.0
 41
0.9659258262890683
 10
62.1360564960282
 20
135.7229986055641
 30
0.0
 41
1.0
 10
63.29631053387258
 20
135.9055650990837
 30
0.0
 41
0.9659258262890683
 10
64.63605649602819
 20
136.0881315926033
 30
0.0
 41
1.0
  0
SPLINE
  5
7B
330
6F
100
AcDbEntity
  8
DV1_0
 62
     7
370
    35
100
AcDbSpline
210
0.0
220
0.0
230
1.0
 70
    12
 71
     2
 72
    10
 73
     7
 74
     0
 42
0.000000001
 43
0.0000000001
 40
0.5
 40
0.5
 40
0.5
 40
0.5208333333333334
 40
0.5208333333333334
 40
0.5416666666666666
 40
0.5416666666666666
 40
0.5625
 40
0.5625
 40
0.5625
 10
59.6360564960282
 20
139.3743284759554
 30
0.0
 41
1.0
 10
59.6360564960282
 20
139.556894969475
 30
0.0
 41
0.9659258262890683
 10
60.30592947710601
 20
139.7394614629946
 30
0.0
 41
1.0
 10
60.97580245818381
 20
139.9220279565141
 30
0.0
 41
0.9659258262890683
 10
62.1360564960282
 20
140.1045944500337
 30
0.0
 41
1.0
 10
63.29631053387258
 20
140.2871609435533
 30
0.0
 41
0.9659258262890683
 10
64.63605649602819
 20
140.4697274370728
 30
0.0
 41
1.0
  0
SPLINE
  5
7C
330
6F
100
AcDbEntity
  8
DV1_0
 62
     7
370
    35
100
AcDbSpline
210
0.0
220
0.0
230
1.0
 70
    12
 71
     2
 72
    10
 73
     7
 74
     0
 42
0.000000001
 43
0.0000000001
 40
0.75
 40
0.75
 40
0.75
 40
0.7708333333333334
 40
0.7708333333333334
 40
0.7916666666666666
 40
0.7916666666666666
 40
0.8125
 40
0.8125
 40
0.8125
 10
59.6360564960282
 20
143.755924320425
 30
0.0
 41
1.0
 10
59.6360564960282
 20
143.9384908139446
 30
0.0
 41
0.9659258262890683
 10
60.30592947710601
 20
144.1210573074642
 30
0.0
 41
1.0
 10
60.97580245818381
 20
144.3036238009837
 30
0.0
 41
0.9659258262890683
 10
62.1360564960282
 20
144.4861902945033
 30
0.0
 41
1.0
 10
63.29631053387259
 20
144.6687567880228
 30
0.0
 41
0.9659258262890683
 10
64.63605649602819
 20
144.8513232815424
 30
0.0
 41
1.0
  0
SPLINE
  5
7D
330
6F
100
AcDbEntity
  8
DV1_0
 62
     7
370
    35
100
AcDbSpline
210
0.0
220
0.0
230
1.0
 70
    12
 71
     2
 72
    10
 73
     7
 74
     0
 42
0.000000001
 43
0.0000000001
 40
0.0654010368866302
 40
0.0654010368866302
 40
0.0654010368866302
 40
0.0872013825155069
 40
0.0872013825155069
 40
0.1090017281443837
 40
0.1090017281443837
 40
0.1308020737732604
 40
0.1308020737732604
 40
0.1308020737732604
 10
64.6360564960282
 20
133.2065357481337
 30
0.0
 41
1.0
 10
65.97580245818381
 20
133.3891022416532
 30
0.0
 41
0.9659258262890683
 10
67.13605649602819
 20
133.5716687351728
 30
0.0
 41
1.0
 10
68.29631053387259
 20
133.7542352286924
 30
0.0
 41
0.9659258262890683
 10
68.96618351495039
 20
133.936801722212
 30
0.0
 41
1.0
 10
69.63605649602819
 20
134.1193682157315
 30
0.0
 41
0.9659258262890683
 10
69.63605649602819
 20
134.3019347092511
 30
0.0
 41
1.0
  0
SPLINE
  5
7E
330
6F
100
AcDbEntity
  8
DV1_0
 62
     7
370
    35
100
AcDbSpline
210
0.0
220
0.0
230
1.0
 70
    12
 71
     2
 72
    10
 73
     7
 74
     0
 42
0.000000001
 43
0.0000000001
 40
0.327005184433151
 40
0.327005184433151
 40
0.327005184433151
 40
0.3488055300620277
 40
0.3488055300620277
 40
0.3706058756909045
 40
0.3706058756909045
 40
0.3924062213197812
 40
0.3924062213197812
 40
0.3924062213197812
 10
64.63605649602819
 20
137.5881315926032
 30
0.0
 41
1.0
 10
65.97580245818381
 20
137.7706980861228
 30
0.0
 41
0.9659258262890683
 10
67.13605649602819
 20
137.9532645796424
 30
0.0
 41
1.0
 10
68.29631053387257
 20
138.135831073162
 30
0.0
 41
0.9659258262890683
 10
68.96618351495039
 20
138.3183975666815
 30
0.0
 41
1.0
 10
69.63605649602819
 20
138.5009640602011
 30
0.0
 41
0.9659258262890683
 10
69.63605649602819
 20
138.6835305537207
 30
0.0
 41
1.0
  0
SPLINE
  5
7F
330
6F
100
AcDbEntity
  8
DV1_0
 62
     7
370
    35
100
AcDbSpline
210
0.0
220
0.0
230
1.0
 70
    12
 71
     2
 72
    10
 73
     7
 74
     0
 42
0.000000001
 43
0.0000000001
 40
0.5886093319796718
 40
0.5886093319796718
 40
0.5886093319796718
 40
0.6104096776085486
 40
0.6104096776085486
 40
0.6322100232374253
 40
0.6322100232374253
 40
0.654010368866302
 40
0.654010368866302
 40
0.654010368866302
 10
64.63605649602819
 20
141.9697274370728
 30
0.0
 41
1.0
 10
65.97580245818381
 20
142.1522939305924
 30
0.0
 41
0.9659258262890683
 10
67.13605649602819
 20
142.334860424112
 30
0.0
 41
1.0
 10
68.29631053387259
 20
142.5174269176316
 30
0.0
 41
0.9659258262890683
 10
68.96618351495039
 20
142.6999934111511
 30
0.0
 41
1.0
 10
69.63605649602819
 20
142.8825599046707
 30
0.0
 41
0.9659258262890683
 10
69.63605649602819
 20
143.0651263981902
 30
0.0
 41
1.0
  0
SPLINE
  5
80
330
6F
100
AcDbEntity
  8
DV1_0
 62
     7
370
    35
100
AcDbSpline
210
0.0
220
0.0
230
1.0
 70
    12
 71
     2
 72
    10
 73
     7
 74
     0
 42
0.000000001
 43
0.0000000001
 40
0.8502134795261926
 40
0.8502134795261926
 40
0.8502134795261926
 40
0.8720138251550693
 40
0.8720138251550693
 40
0.893814170783946
 40
0.893814170783946
 40
0.9156145164128228
 40
0.9156145164128228
 40
0.9156145164128228
 10
64.63605649602819
 20
146.3513232815424
 30
0.0
 41
1.0
 10
65.97580245818381
 20
146.533889775062
 30
0.0
 41
0.9659258262890683
 10
67.13605649602819
 20
146.7164562685815
 30
0.0
 41
1.0
 10
68.29631053387259
 20
146.8990227621011
 30
0.0
 41
0.9659258262890683
 10
68.96618351495039
 20
147.0815892556207
 30
0.0
 41
1.0
 10
69.63605649602819
 20
147.2641557491402
 30
0.0
 41
0.9659258262890683
 10
69.63605649602819
 20
147.4467222426598
 30
0.0
 41
1.0
  0
ARC
  5
81
330
6F
100
AcDbEntity
  8
DV1_0
 62
     7
370
    35
100
AcDbCircle
 10
59.6360564960282
 20
148.8875201648946
 30
0.0
 40
0.7499999999999951
100
AcDbArc
 50
182.0159575327748
 51
270.0
  0
LINE
  5
82
330
6F
100
AcDbEntity
  8
DV1_0
 62
     7
370
    35
100
AcDbLine
 10
59.6360564960282
 20
148.1375201648946
 30
0.0
 11
59.6360564960282
 21
148.8611367870163
 31
0.0
  0
LINE
  5
83
330
6F
100
AcDbEntity
  8
DV1_0
 62
     7
370
    35
100
AcDbLine
 10
58.6360564960282
 20
149.8611367870163
 30
0.0
 11
70.6360564960282
 21
149.8611367870163
 31
0.0
  0
LINE
  5
84
330
6F
100
AcDbEntity
  8
DV1_0
 62
     7
370
    35
100
AcDbLine
 10
70.6360564960282
 20
148.8611367870163
 30
0.0
 11
58.6360564960282
 21
148.8611367870163
 31
0.0
  0
LINE
  5
85
330
6F
100
AcDbEntity
  8
DV1_0
 62
     7
370
    35
100
AcDbLine
 10
59.6360564960282
 20
129.8611367870163
 30
0.0
 11
69.63605649602819
 21
129.8611367870163
 31
0.0
  0
LINE
  5
86
330
6F
100
AcDbEntity
  8
DV1_0
 62
     7
370
    35
100
AcDbLine
 10
69.63605649602827
 20
150.8611367870163
 30
0.0
 11
59.63605649602827
 21
150.8611367870163
 31
0.0
  0
SPLINE
  5
87
330
6F
100
AcDbEntity
  8
DV1_0
 62
     7
370
    35
100
AcDbSpline
210
0.0
220
0.0
230
1.0
 70
     8
 71
     3
 72
    67
 73
    63
 74
     0
 42
0.000000001
 43
0.0000000001
 40
0.0
 40
0.0
 40
0.0
 40
0.0
 40
0.0045614188726197
 40
0.0083436141006139
 40
0.012643219605777
 40
0.0181295896929295
 40
0.0252925814496082
 40
0.0360894376855902
 40
0.0488206386755044
 40
0.0624391611944236
 40
0.0755656165166991
 40
0.0904563004246805
 40
0.1086399019300082
 40
0.1255142986138681
 40
0.1422933358733244
 40
0.1603605036753728
 40
0.1774914689999876
 40
0.1933684529422066
 40
0.2066216977093424
 40
0.21482133300014
 40
0.2211546220874926
 40
0.2264233891050408
 40
0.2336721089213598
 40
0.2437111258115276
 40
0.2551286846399803
 40
0.2672721779260199
 40
0.2792635539309504
 40
0.2901240253470888
 40
0.2999109880151146
 40
0.3115934905249262
 40
0.3225112396928903
 40
0.3341333229760569
 40
0.3502271898267241
 40
0.3670105566624218
 40
0.3830381094781109
 40
0.3947820274704066
 40
0.4069697466142834
 40
0.4211126949079289
 40
0.4361170293416235
 40
0.4491480460506888
 40
0.4588830333395203
 40
0.4675880378692869
 40
0.4740520773437529
 40
0.4775605290883554
 40
0.4820273622964212
 40
0.4881308047189147
 40
0.4958455852361576
 40
0.5049465401331136
 40
0.5131736399292848
 40
0.5197538384483815
 40
0.5256441632811243
 40
0.5313754135175569
 40
0.5382364925611726
 40
0.5473367121590992
 40
0.5567305640612225
 40
0.5675861347045636
 40
0.5767879706992737
 40
0.5856352744822604
 40
0.5948713951857929
 40
0.6063321561204406
 40
0.6195107217334461
 40
0.6237431611710623
 40
0.6237431611710623
 40
0.6237431611710623
 40
0.6237431611710623
 10
64.6360564960282
 20
136.0881315926033
 30
0.0
 10
64.65616737765927
 20
136.0912313356128
 30
0.0
 10
64.6876890316786
 20
136.0959825191601
 30
0.0
 10
64.74944613460733
 20
136.1093790410262
 30
0.0
 10
64.82684213325615
 20
136.1207679334941
 30
0.0
 10
64.92339571701035
 20
136.1336195675235
 30
0.0
 10
65.05644848631165
 20
136.1519992681891
 30
0.0
 10
65.2304608393078
 20
136.1759073079944
 30
0.0
 10
65.4401055131074
 20
136.2052175849402
 30
0.0
 10
65.66133711112114
 20
136.2363085055999
 30
0.0
 10
65.89238546497333
 20
136.2690248973181
 30
0.0
 10
66.1449147487703
 20
136.3049475040149
 30
0.0
 10
66.41288939692495
 20
136.343500327664
 30
0.0
 10
66.68169409475433
 20
136.3824831923935
 30
0.0
 10
66.94500360626948
 20
136.4220131149734
 30
0.0
 10
67.2038729331168
 20
136.461637133932
 30
0.0
 10
67.45119492294245
 20
136.5009955916706
 30
0.0
 10
67.66874790263998
 20
136.5375748100036
 30
0.0
 10
67.83831807022118
 20
136.5671903389481
 30
0.0
 10
67.9611257927472
 20
136.5893901474893
 30
0.0
 10
68.04695861696013
 20
136.6052238398993
 30
0.0
 10
68.12763903240608
 20
136.6203907539098
 30
0.0
 10
68.22339213967491
 20
136.638738335227
 30
0.0
 10
68.34236522680929
 20
136.662178213269
 30
0.0
 10
68.47731078428906
 20
136.6897204480585
 30
0.0
 10
68.61455230150514
 20
136.7188880499222
 30
0.0
 10
68.74406562941954
 20
136.7476376775555
 30
0.0
 10
68.85985390495442
 20
136.7744741482632
 30
0.0
 10
68.97015927690923
 20
136.8011309006636
 30
0.0
 10
69.07609180554864
 20
136.8278974765462
 30
0.0
 10
69.18364007845314
 20
136.8565549109397
 30
0.0
 10
69.3012990375348
 20
136.8903368621622
 30
0.0
 10
69.43190179521378
 20
136.9316718276056
 30
0.0
 10
69.56355363200409
 20
136.9789601169884
 30
0.0
 10
69.67566608547808
 20
137.0250597854889
 30
0.0
 10
69.77441441912727
 20
137.0714566670112
 30
0.0
 10
69.86761247115291
 20
137.1211825422333
 30
0.0
 10
69.96997978918415
 20
137.1855719725201
 30
0.0
 10
70.0706788955626
 20
137.2637723885685
 30
0.0
 10
70.15963029383796
 20
137.3518909925927
 30
0.0
 10
70.23070270417105
 20
137.4420417109909
 30
0.0
 10
70.28235308552117
 20
137.5261417172759
 30
0.0
 10
70.31416227383687
 20
137.5924690999537
 30
0.0
 10
70.33653563031352
 20
137.6487095383619
 30
0.0
 10
70.35549338895521
 20
137.7064568235851
 30
0.0
 10
70.37407060985305
 20
137.7835676438631
 30
0.0
 10
70.38699312223672
 20
137.8828544230061
 30
0.0
 10
70.38651563898311
 20
137.9938980658032
 30
0.0
 10
70.37155598098653
 20
138.0980767960453
 30
0.0
 10
70.34858425429124
 20
138.1848587578575
 30
0.0
 10
70.32217052592405
 20
138.2567804869722
 30
0.0
 10
70.28969298841844
 20
138.3262016638211
 30
0.0
 10
70.24795897998402
 20
138.3983453930307
 30
0.0
 10
70.19429525432896
 20
138.473112629459
 30
0.0
 10
70.12504206714337
 20
138.5510418315842
 30
0.0
 10
70.05176118284218
 20
138.6177351359556
 30
0.0
 10
69.98309592880237
 20
138.6705472806452
 30
0.0
 10
69.91609882811684
 20
138.7157633706975
 30
0.0
 10
69.8447818594681
 20
138.7582111814082
 30
0.0
 10
69.76326432511718
 20
138.8012010294645
 30
0.0
 10
69.6914524154422
 20
138.8344121222632
 30
0.0
 10
69.64714795810995
 20
138.8532990185295
 30
0.0
 10
69.63630581487618
 20
138.8578317501971
 30
0.0
  0
SPLINE
  5
88
330
6F
100
AcDbEntity
  8
DV1_0
 62
     7
370
    35
100
AcDbSpline
210
0.0
220
0.0
230
1.0
 70
     8
 71
     3
 72
    67
 73
    63
 74
     0
 42
0.000000001
 43
0.0000000001
 40
0.0
 40
0.0
 40
0.0
 40
0.0
 40
0.0045614188726196
 40
0.0083436141006138
 40
0.012643219605777
 40
0.0181295896929311
 40
0.0252925814496093
 40
0.0360894376855905
 40
0.0488206386755047
 40
0.0624391611944234
 40
0.0755656165166995
 40
0.0904563004246807
 40
0.1086399019300082
 40
0.1255142986138691
 40
0.1422933358733241
 40
0.1603605036753728
 40
0.1774914689999883
 40
0.1933684529422059
 40
0.2066216977093424
 40
0.2148213330001391
 40
0.2211546220874924
 40
0.2264233891050412
 40
0.2336721089213601
 40
0.2437111258115278
 40
0.2551286846399808
 40
0.2672721779260198
 40
0.2792635539309505
 40
0.2901240253470898
 40
0.2999109880151155
 40
0.3115934905249271
 40
0.3225112396928919
 40
0.3341333229760577
 40
0.350227189826725
 40
0.3670105566624225
 40
0.3830381094781101
 40
0.3947820274704067
 40
0.4069697466142835
 40
0.4211126949079291
 40
0.4361170293416245
 40
0.4491480460506893
 40
0.4588830333395205
 40
0.4675880378692869
 40
0.4740520773437529
 40
0.477560529088355
 40
0.4820273622964201
 40
0.4881308047189137
 40
0.4958455852361567
 40
0.5049465401331146
 40
0.5131736399292852
 40
0.5197538384483815
 40
0.5256441632811237
 40
0.5313754135175566
 40
0.5382364925611727
 40
0.5473367121590991
 40
0.5567305640612226
 40
0.567586134704564
 40
0.5767879706992737
 40
0.5856352744822607
 40
0.5948713951857919
 40
0.6063321561204411
 40
0.6195107217334446
 40
0.6237431611710602
 40
0.6237431611710602
 40
0.6237431611710602
 40
0.6237431611710602
 10
64.6360564960282
 20
140.4697274370728
 30
0.0
 10
64.65616737765927
 20
140.4728271800823
 30
0.0
 10
64.68768903167862
 20
140.4775783636295
 30
0.0
 10
64.74944613460731
 20
140.4909748854958
 30
0.0
 10
64.82684213325616
 20
140.5023637779636
 30
0.0
 10
64.92339571701037
 20
140.5152154119931
 30
0.0
 10
65.05644848631165
 20
140.5335951126585
 30
0.0
 10
65.2304608393078
 20
140.5575031524639
 30
0.0
 10
65.44010551310738
 20
140.5868134294098
 30
0.0
 10
65.66133711112113
 20
140.6179043500696
 30
0.0
 10
65.89238546497333
 20
140.6506207417876
 30
0.0
 10
66.1449147487703
 20
140.6865433484844
 30
0.0
 10
66.41288939692497
 20
140.7250961721337
 30
0.0
 10
66.6816940947543
 20
140.764079036863
 30
0.0
 10
66.94500360626951
 20
140.803608959443
 30
0.0
 10
67.20387293311677
 20
140.8432329784016
 30
0.0
 10
67.45119492294243
 20
140.8825914361402
 30
0.0
 10
67.66874790263999
 20
140.9191706544732
 30
0.0
 10
67.83831807022115
 20
140.9487861834175
 30
0.0
 10
67.9611257927472
 20
140.970985991959
 30
0.0
 10
68.04695861696014
 20
140.9868196843688
 30
0.0
 10
68.1276390324061
 20
141.0019865983795
 30
0.0
 10
68.2233921396749
 20
141.0203341796966
 30
0.0
 10
68.3423652268093
 20
141.0437740577385
 30
0.0
 10
68.47731078428906
 20
141.0713162925281
 30
0.0
 10
68.61455230150514
 20
141.1004838943917
 30
0.0
 10
68.74406562941958
 20
141.1292335220251
 30
0.0
 10
68.8598539049544
 20
141.1560699927328
 30
0.0
 10
68.97015927690924
 20
141.1827267451332
 30
0.0
 10
69.07609180554863
 20
141.2094933210158
 30
0.0
 10
69.18364007845312
 20
141.2381507554093
 30
0.0
 10
69.3012990375348
 20
141.2719327066319
 30
0.0
 10
69.4319017952138
 20
141.3132676720751
 30
0.0
 10
69.56355363200409
 20
141.3605559614581
 30
0.0
 10
69.67566608547808
 20
141.4066556299584
 30
0.0
 10
69.77441441912728
 20
141.4530525114808
 30
0.0
 10
69.86761247115291
 20
141.5027783867029
 30
0.0
 10
69.96997978918414
 20
141.5671678169897
 30
0.0
 10
70.07067889556264
 20
141.6453682330379
 30
0.0
 10
70.15963029383792
 20
141.7334868370624
 30
0.0
 10
70.2307027041711
 20
141.8236375554605
 30
0.0
 10
70.28235308552115
 20
141.9077375617455
 30
0.0
 10
70.31416227383687
 20
141.9740649444232
 30
0.0
 10
70.33653563031353
 20
142.0303053828315
 30
0.0
 10
70.35549338895521
 20
142.0880526680548
 30
0.0
 10
70.37407060985306
 20
142.1651634883326
 30
0.0
 10
70.3869931222367
 20
142.2644502674757
 30
0.0
 10
70.38651563898314
 20
142.3754939102728
 30
0.0
 10
70.37155598098649
 20
142.479672640515
 30
0.0
 10
70.34858425429125
 20
142.5664546023271
 30
0.0
 10
70.32217052592405
 20
142.6383763314417
 30
0.0
 10
70.28969298841842
 20
142.7077975082907
 30
0.0
 10
70.24795897998403
 20
142.7799412375003
 30
0.0
 10
70.194295254329
 20
142.8547084739286
 30
0.0
 10
70.12504206714333
 20
142.9326376760537
 30
0.0
 10
70.0517611828422
 20
142.9993309804253
 30
0.0
 10
69.98309592880238
 20
143.0521431251146
 30
0.0
 10
69.91609882811683
 20
143.0973592151671
 30
0.0
 10
69.84478185946809
 20
143.1398070258778
 30
0.0
 10
69.76326432511722
 20
143.182796873934
 30
0.0
 10
69.69145241544217
 20
143.2160079667327
 30
0.0
 10
69.64714795810995
 20
143.2348948629991
 30
0.0
 10
69.63630581487618
 20
143.2394275946667
 30
0.0
  0
SPLINE
  5
89
330
6F
100
AcDbEntity
  8
DV1_0
 62
     7
370
    35
100
AcDbSpline
210
0.0
220
0.0
230
1.0
 70
     8
 71
     3
 72
    67
 73
    63
 74
     0
 42
0.000000001
 43
0.0000000001
 40
0.0
 40
0.0
 40
0.0
 40
0.0
 40
0.0045614188726195
 40
0.0083436141006142
 40
0.0126432196057784
 40
0.0181295896929304
 40
0.0252925814496086
 40
0.0360894376855906
 40
0.0488206386755048
 40
0.0624391611944242
 40
0.0755656165166996
 40
0.0904563004246807
 40
0.1086399019300083
 40
0.1255142986138683
 40
0.1422933358733239
 40
0.160360503675373
 40
0.1774914689999882
 40
0.193368452942206
 40
0.2066216977093421
 40
0.2148213330001397
 40
0.2211546220874921
 40
0.2264233891050414
 40
0.2336721089213604
 40
0.243711125811528
 40
0.255128684639981
 40
0.26727217792602
 40
0.2792635539309505
 40
0.2901240253470893
 40
0.2999109880151156
 40
0.3115934905249271
 40
0.3225112396928919
 40
0.334133322976057
 40
0.3502271898267253
 40
0.3670105566624225
 40
0.3830381094781113
 40
0.3947820274704077
 40
0.4069697466142834
 40
0.4211126949079292
 40
0.4361170293416241
 40
0.44914804605069
 40
0.4588830333395206
 40
0.4675880378692876
 40
0.4740520773437533
 40
0.4775605290883548
 40
0.4820273622964212
 40
0.4881308047189144
 40
0.4958455852361582
 40
0.5049465401331142
 40
0.5131736399292851
 40
0.5197538384483817
 40
0.5256441632811248
 40
0.531375413517558
 40
0.538236492561173
 40
0.5473367121590996
 40
0.5567305640612231
 40
0.5675861347045643
 40
0.5767879706992741
 40
0.5856352744822612
 40
0.5948713951857924
 40
0.6063321561204413
 40
0.619510721733445
 40
0.6237431611710623
 40
0.6237431611710623
 40
0.6237431611710623
 40
0.6237431611710623
 10
64.6360564960282
 20
144.8513232815424
 30
0.0
 10
64.65616737765926
 20
144.8544230245519
 30
0.0
 10
64.68768903167862
 20
144.8591742080993
 30
0.0
 10
64.74944613460731
 20
144.8725707299654
 30
0.0
 10
64.82684213325618
 20
144.8839596224331
 30
0.0
 10
64.92339571701035
 20
144.8968112564628
 30
0.0
 10
65.05644848631167
 20
144.915190957128
 30
0.0
 10
65.2304608393078
 20
144.9390989969336
 30
0.0
 10
65.44010551310738
 20
144.9684092738792
 30
0.0
 10
65.66133711112114
 20
144.9995001945392
 30
0.0
 10
65.89238546497332
 20
145.0322165862572
 30
0.0
 10
66.14491474877032
 20
145.068139192954
 30
0.0
 10
66.41288939692495
 20
145.1066920166032
 30
0.0
 10
66.68169409475433
 20
145.1456748813326
 30
0.0
 10
66.94500360626947
 20
145.1852048039127
 30
0.0
 10
67.2038729331168
 20
145.2248288228712
 30
0.0
 10
67.45119492294243
 20
145.2641872806097
 30
0.0
 10
67.66874790263999
 20
145.3007664989428
 30
0.0
 10
67.83831807022116
 20
145.330382027887
 30
0.0
 10
67.96112579274718
 20
145.3525818364286
 30
0.0
 10
68.04695861696014
 20
145.3684155288383
 30
0.0
 10
68.1276390324061
 20
145.3835824428491
 30
0.0
 10
68.22339213967491
 20
145.4019300241662
 30
0.0
 10
68.34236522680929
 20
145.4253699022081
 30
0.0
 10
68.47731078428909
 20
145.4529121369976
 30
0.0
 10
68.61455230150514
 20
145.4820797388614
 30
0.0
 10
68.74406562941957
 20
145.5108293664946
 30
0.0
 10
68.85985390495439
 20
145.5376658372025
 30
0.0
 10
68.97015927690924
 20
145.5643225896027
 30
0.0
 10
69.07609180554864
 20
145.5910891654853
 30
0.0
 10
69.18364007845312
 20
145.6197465998789
 30
0.0
 10
69.3012990375348
 20
145.6535285511015
 30
0.0
 10
69.4319017952138
 20
145.6948635165448
 30
0.0
 10
69.5635536320041
 20
145.7421518059276
 30
0.0
 10
69.6756660854781
 20
145.7882514744279
 30
0.0
 10
69.77441441912725
 20
145.8346483559504
 30
0.0
 10
69.86761247115292
 20
145.8843742311724
 30
0.0
 10
69.96997978918415
 20
145.9487636614593
 30
0.0
 10
70.07067889556261
 20
146.0269640775076
 30
0.0
 10
70.15963029383795
 20
146.1150826815318
 30
0.0
 10
70.23070270417107
 20
146.2052333999302
 30
0.0
 10
70.28235308552117
 20
146.289333406215
 30
0.0
 10
70.31416227383687
 20
146.3556607888929
 30
0.0
 10
70.33653563031353
 20
146.411901227301
 30
0.0
 10
70.35549338895522
 20
146.4696485125243
 30
0.0
 10
70.37407060985305
 20
146.5467593328022
 30
0.0
 10
70.38699312223672
 20
146.6460461119453
 30
0.0
 10
70.38651563898313
 20
146.7570897547423
 30
0.0
 10
70.37155598098649
 20
146.8612684849845
 30
0.0
 10
70.34858425429127
 20
146.9480504467967
 30
0.0
 10
70.32217052592404
 20
147.0199721759113
 30
0.0
 10
70.28969298841844
 20
147.0893933527602
 30
0.0
 10
70.247958979984
 20
147.1615370819698
 30
0.0
 10
70.19429525432899
 20
147.2363043183981
 30
0.0
 10
70.12504206714334
 20
147.3142335205234
 30
0.0
 10
70.05176118284217
 20
147.3809268248948
 30
0.0
 10
69.98309592880241
 20
147.4337389695843
 30
0.0
 10
69.91609882811683
 20
147.4789550596366
 30
0.0
 10
69.84478185946811
 20
147.5214028703474
 30
0.0
 10
69.76326432511718
 20
147.5643927184036
 30
0.0
 10
69.69145241544221
 20
147.5976038112024
 30
0.0
 10
69.64714795810997
 20
147.6164907074687
 30
0.0
 10
69.63630581487618
 20
147.6210234391363
 30
0.0
  0
SPLINE
  5
8A
330
6F
100
AcDbEntity
  8
DV1_0
 62
     7
370
    35
100
AcDbSpline
210
0.0
220
0.0
230
1.0
 70
     8
 71
     3
 72
    78
 73
    74
 74
     0
 42
0.000000001
 43
0.0000000001
 40
0.0
 40
0.0
 40
0.0
 40
0.0
 40
0.0057502507714591
 40
0.0092571905935794
 40
0.0124668780314485
 40
0.015920310810289
 40
0.0224623655542303
 40
0.0342156667161036
 40
0.0477560249862915
 40
0.0624066745675193
 40
0.0777522704257756
 40
0.0937549992778885
 40
0.1103917756529029
 40
0.1276573823773957
 40
0.1453858528676751
 40
0.1623370423943744
 40
0.1774412941230443
 40
0.1907018793247767
 40
0.2020801738563717
 40
0.2134549657892625
 40
0.227292763894358
 40
0.2441709010356777
 40
0.2625894061464675
 40
0.2814043454150985
 40
0.3004017951420432
 40
0.3112041153488216
 40
0.3221197866502744
 40
0.333021379252389
 40
0.3429697833459705
 40
0.3512499102596653
 40
0.3580127849195002
 40
0.364976273000802
 40
0.3734071720799129
 40
0.3823418318958099
 40
0.3911451472331071
 40
0.3995122467913705
 40
0.407550195350223
 40
0.4145985411634788
 40
0.4219155372292445
 40
0.4296368103385617
 40
0.4380898580598601
 40
0.4447428081040322
 40
0.4485777730310891
 40
0.4525816031890343
 40
0.4561561017261601
 40
0.4589096088299953
 40
0.4602104134666305
 40
0.4612625294414713
 40
0.4632491414940103
 40
0.46446469338505
 40
0.4664033378140773
 40
0.4703482967669662
 40
0.4752321364631178
 40
0.4808014223343583
 40
0.4874240234602853
 40
0.495104904563694
 40
0.5036291023586542
 40
0.5116014019640839
 40
0.5184034826656041
 40
0.5247533487665621
 40
0.5296938003239511
 40
0.5340664178787833
 40
0.5391211170930095
 40
0.54460738015963
 40
0.5500353417305051
 40
0.5554591266603427
 40
0.5643802640429494
 40
0.575955544843504
 40
0.5877253794452806
 40
0.5981923300442367
 40
0.6074613546031727
 40
0.6166361159565068
 40
0.6257615943488359
 40
0.6257615943488359
 40
0.6257615943488359
 40
0.6257615943488359
 10
64.63605649602766
 20
141.9697274370727
 30
0.0
 10
64.60395304973827
 20
141.9650480429367
 30
0.0
 10
64.55988613871274
 20
141.9586709388548
 30
0.0
 10
64.48818152246498
 20
141.9478980827556
 30
0.0
 10
64.43067537617338
 20
141.9402760381286
 30
0.0
 10
64.35561839330359
 20
141.9298913427474
 30
0.0
 10
64.2323066781247
 20
141.9129605112043
 30
0.0
 10
64.05207785385171
 20
141.8879214548544
 30
0.0
 10
63.8270256094343
 20
141.8563691893497
 30
0.0
 10
63.58345238309893
 20
141.8217781864244
 30
0.0
 10
63.32869812028649
 20
141.785148239752
 30
0.0
 10
63.06644113207355
 20
141.7469218448995
 30
0.0
 10
62.79826457584632
 20
141.7072752191748
 30
0.0
 10
62.52657351886592
 20
141.6665061823192
 30
0.0
 10
62.26011270159137
 20
141.625845264067
 30
0.0
 10
62.0121044714954
 20
141.5875134696002
 30
0.0
 10
61.79328175941428
 20
141.5521911361826
 30
0.0
 10
61.60718530271842
 20
141.5209021955356
 30
0.0
 10
61.44325823775107
 20
141.4923486731186
 30
0.0
 10
61.28138785651268
 20
141.4631857329857
 30
0.0
 10
61.10059588571436
 20
141.4293424641821
 30
0.0
 10
60.89930605940962
 20
141.389803711259
 30
0.0
 10
60.6881392271161
 20
141.345851510303
 30
0.0
 10
60.48021402000064
 20
141.2996513160634
 30
0.0
 10
60.31105233765885
 20
141.2591869790949
 30
0.0
 10
60.17693001798147
 20
141.2249772103123
 30
0.0
 10
60.07390350075707
 20
141.1972468439778
 30
0.0
 10
59.97819218972249
 20
141.1694471348321
 30
0.0
 10
59.89440492012446
 20
141.1433536028777
 30
0.0
 10
59.82527004287084
 20
141.1203249333008
 30
0.0
 10
59.76561068490339
 20
141.0992978739691
 30
0.0
 10
59.70579826675397
 20
141.0769928297927
 30
0.0
 10
59.64260768042647
 20
141.0518206862885
 30
0.0
 10
59.57637880720962
 20
141.0232880549378
 30
0.0
 10
59.51177915265455
 20
140.9929328724937
 30
0.0
 10
59.45073203063603
 20
140.9615223618859
 30
0.0
 10
59.3946544538565
 20
140.9298627184248
 30
0.0
 10
59.3400538530586
 20
140.8959654184641
 30
0.0
 10
59.28764308110228
 20
140.860013882148
 30
0.0
 10
59.23384703764067
 20
140.8189443961049
 30
0.0
 10
59.17976371439737
 20
140.7722016703042
 30
0.0
 10
59.12915556127886
 20
140.7215729459845
 30
0.0
 10
59.0923552993177
 20
140.6794385566468
 30
0.0
 10
59.06367889511264
 20
140.6435487929373
 30
0.0
 10
59.0383504340175
 20
140.6080637498467
 30
0.0
 10
59.01670182858474
 20
140.5746447364651
 30
0.0
 10
59.00214881402825
 20
140.5491965652227
 30
0.0
 10
58.99058033393297
 20
140.5275823412797
 30
0.0
 10
58.98052715220593
 20
140.5065630617069
 30
0.0
 10
58.96824330490114
 20
140.4797977525505
 30
0.0
 10
58.95411879583135
 20
140.4470845121224
 30
0.0
 10
58.93729320036534
 20
140.4035958147642
 30
0.0
 10
58.92046575608091
 20
140.3528994815626
 30
0.0
 10
58.90560679226834
 20
140.2969680222875
 30
0.0
 10
58.89383113879879
 20
140.2369345915883
 30
0.0
 10
58.88651853910651
 20
140.1702923282888
 30
0.0
 10
58.88523546266389
 20
140.1054095945403
 30
0.0
 10
58.89019016652325
 20
140.0374422255502
 30
0.0
 10
58.90114752728471
 20
139.9689810113836
 30
0.0
 10
58.91695088920724
 20
139.9028920898199
 30
0.0
 10
58.93858827846794
 20
139.8347824871134
 30
0.0
 10
58.96749546239712
 20
139.762891952366
 30
0.0
 10
59.00118798933105
 20
139.6987527848071
 30
0.0
 10
59.04160364762696
 20
139.6340941888027
 30
0.0
 10
59.08399729197568
 20
139.5789188270154
 30
0.0
 10
59.1309986592275
 20
139.5246540529654
 30
0.0
 10
59.19164643336248
 20
139.4648878603425
 30
0.0
 10
59.2685813947469
 20
139.4015281206276
 30
0.0
 10
59.35058940188401
 20
139.3451317877127
 30
0.0
 10
59.42885163511684
 20
139.2988379060291
 30
0.0
 10
59.49909965647426
 20
139.2619368907969
 30
0.0
 10
59.56721934962628
 20
139.2294796008076
 30
0.0
 10
59.61291718944249
 20
139.2095956742457
 30
0.0
 10
59.6358959133501
 20
139.1999925466761
 30
0.0
  0
SPLINE
  5
8B
330
6F
100
AcDbEntity
  8
DV1_0
 62
     7
370
    35
100
AcDbSpline
210
0.0
220
0.0
230
1.0
 70
     8
 71
     3
 72
    78
 73
    74
 74
     0
 42
0.000000001
 43
0.0000000001
 40
0.0
 40
0.0
 40
0.0
 40
0.0
 40
0.005750250771459
 40
0.0092571905935793
 40
0.0124668780314478
 40
0.0159203108102886
 40
0.0224623655542299
 40
0.0342156667161036
 40
0.0477560249862918
 40
0.0624066745675193
 40
0.0777522704257755
 40
0.0937549992778875
 40
0.1103917756529034
 40
0.1276573823773955
 40
0.1453858528676749
 40
0.1623370423943742
 40
0.177441294123044
 40
0.1907018793247765
 40
0.2020801738563716
 40
0.2134549657892625
 40
0.2272927638943579
 40
0.244170901035678
 40
0.2625894061464674
 40
0.2814043454150983
 40
0.3004017951420419
 40
0.3112041153488223
 40
0.3221197866502747
 40
0.3330213792523888
 40
0.3429697833459703
 40
0.351249910259665
 40
0.3580127849195002
 40
0.3649762730008013
 40
0.3734071720799115
 40
0.3823418318958086
 40
0.3911451472331077
 40
0.3995122467913713
 40
0.4075501953502227
 40
0.4145985411634787
 40
0.4219155372292442
 40
0.4296368103385616
 40
0.4380898580598599
 40
0.444742808104032
 40
0.4485777730310891
 40
0.4525816031890331
 40
0.4561561017261592
 40
0.4589096088299952
 40
0.4602104134666286
 40
0.461262529441472
 40
0.4632491414940103
 40
0.4644646933850487
 40
0.4664033378140768
 40
0.4703482967669673
 40
0.4752321364631186
 40
0.4808014223343588
 40
0.4874240234602862
 40
0.4951049045636949
 40
0.5036291023586555
 40
0.5116014019640838
 40
0.5184034826656043
 40
0.5247533487665624
 40
0.5296938003239513
 40
0.5340664178787845
 40
0.5391211170930106
 40
0.5446073801596302
 40
0.550035341730505
 40
0.555459126660343
 40
0.5643802640429499
 40
0.5759555448435042
 40
0.5877253794452814
 40
0.5981923300442364
 40
0.6074613546031737
 40
0.6166361159565072
 40
0.6257615943488383
 40
0.6257615943488383
 40
0.6257615943488383
 40
0.6257615943488383
 10
64.63605649602766
 20
146.3513232815423
 30
0.0
 10
64.60395304973827
 20
146.3466438874063
 30
0.0
 10
64.55988613871274
 20
146.3402667833244
 30
0.0
 10
64.48818152246498
 20
146.3294939272253
 30
0.0
 10
64.4306753761734
 20
146.3218718825981
 30
0.0
 10
64.35561839330359
 20
146.3114871872169
 30
0.0
 10
64.23230667812471
 20
146.2945563556738
 30
0.0
 10
64.0520778538517
 20
146.269517299324
 30
0.0
 10
63.82702560943433
 20
146.2379650338192
 30
0.0
 10
63.5834523830989
 20
146.203374030894
 30
0.0
 10
63.3286981202865
 20
146.1667440842215
 30
0.0
 10
63.06644113207355
 20
146.1285176893691
 30
0.0
 10
62.79826457584633
 20
146.0888710636444
 30
0.0
 10
62.52657351886592
 20
146.0481020267886
 30
0.0
 10
62.26011270159138
 20
146.0074411085366
 30
0.0
 10
62.01210447149537
 20
145.9691093140699
 30
0.0
 10
61.79328175941429
 20
145.9337869806521
 30
0.0
 10
61.60718530271841
 20
145.9024980400052
 30
0.0
 10
61.44325823775108
 20
145.873944517588
 30
0.0
 10
61.28138785651269
 20
145.8447815774553
 30
0.0
 10
61.10059588571437
 20
145.8109383086516
 30
0.0
 10
60.89930605940961
 20
145.7713995557286
 30
0.0
 10
60.68813922711612
 20
145.7274473547726
 30
0.0
 10
60.48021402000064
 20
145.6812471605329
 30
0.0
 10
60.31105233765886
 20
145.6407828235645
 30
0.0
 10
60.17693001798147
 20
145.606573054782
 30
0.0
 10
60.07390350075705
 20
145.5788426884474
 30
0.0
 10
59.97819218972249
 20
145.5510429793016
 30
0.0
 10
59.89440492012447
 20
145.5249494473474
 30
0.0
 10
59.82527004287083
 20
145.5019207777703
 30
0.0
 10
59.76561068490339
 20
145.4808937184388
 30
0.0
 10
59.70579826675398
 20
145.4585886742622
 30
0.0
 10
59.64260768042648
 20
145.4334165307581
 30
0.0
 10
59.57637880720963
 20
145.4048838994074
 30
0.0
 10
59.51177915265457
 20
145.3745287169632
 30
0.0
 10
59.45073203063603
 20
145.3431182063555
 30
0.0
 10
59.3946544538565
 20
145.3114585628944
 30
0.0
 10
59.34005385305861
 20
145.2775612629337
 30
0.0
 10
59.28764308110227
 20
145.2416097266176
 30
0.0
 10
59.2338470376407
 20
145.2005402405743
 30
0.0
 10
59.17976371439736
 20
145.1537975147739
 30
0.0
 10
59.12915556127888
 20
145.103168790454
 30
0.0
 10
59.09235529931769
 20
145.0610344011165
 30
0.0
 10
59.06367889511267
 20
145.0251446374068
 30
0.0
 10
59.03835043401746
 20
144.9896595943165
 30
0.0
 10
59.01670182858479
 20
144.9562405809345
 30
0.0
 10
59.00214881402822
 20
144.9307924096924
 30
0.0
 10
58.99058033393298
 20
144.9091781857493
 30
0.0
 10
58.98052715220594
 20
144.8881589061764
 30
0.0
 10
58.96824330490113
 20
144.8613935970201
 30
0.0
 10
58.95411879583136
 20
144.828680356592
 30
0.0
 10
58.93729320036534
 20
144.7851916592338
 30
0.0
 10
58.92046575608091
 20
144.7344953260322
 30
0.0
 10
58.90560679226834
 20
144.6785638667571
 30
0.0
 10
58.8938311387988
 20
144.6185304360578
 30
0.0
 10
58.88651853910652
 20
144.5518881727584
 30
0.0
 10
58.88523546266387
 20
144.4870054390099
 30
0.0
 10
58.89019016652325
 20
144.4190380700198
 30
0.0
 10
58.90114752728472
 20
144.350576855853
 30
0.0
 10
58.91695088920721
 20
144.2844879342896
 30
0.0
 10
58.93858827846797
 20
144.2163783315829
 30
0.0
 10
58.96749546239709
 20
144.1444877968357
 30
0.0
 10
59.00118798933106
 20
144.0803486292766
 30
0.0
 10
59.04160364762695
 20
144.0156900332724
 30
0.0
 10
59.08399729197568
 20
143.9605146714849
 30
0.0
 10
59.13099865922749
 20
143.9062498974351
 30
0.0
 10
59.19164643336246
 20
143.8464837048123
 30
0.0
 10
59.26858139474692
 20
143.783123965097
 30
0.0
 10
59.35058940188399
 20
143.7267276321824
 30
0.0
 10
59.42885163511684
 20
143.6804337504986
 30
0.0
 10
59.49909965647424
 20
143.6435327352665
 30
0.0
 10
59.5672193496263
 20
143.6110754452771
 30
0.0
 10
59.61291718944251
 20
143.5911915187154
 30
0.0
 10
59.63589591335012
 20
143.5815883911458
 30
0.0
  0
SPLINE
  5
8C
330
6F
100
AcDbEntity
  8
DV1_0
 62
     7
370
    35
100
AcDbSpline
210
0.0
220
0.0
230
1.0
 70
     8
 71
     3
 72
    26
 73
    22
 74
     0
 42
0.000000001
 43
0.0000000001
 40
0.0
 40
0.0
 40
0.0
 40
0.0
 40
0.002009816016048
 40
0.0165024469340872
 40
0.0289147411288981
 40
0.0408430606211446
 40
0.0502253942368178
 40
0.0580768174315272
 40
0.067088475206607
 40
0.0772988057853853
 40
0.0874197495772598
 40
0.0974263888758775
 40
0.1075312350005894
 40
0.1279436468964372
 40
0.1498554586657236
 40
0.1716642739364571
 40
0.1907082591152022
 40
0.207798852036151
 40
0.224781280823076
 40
0.2420910475758108
 40
0.2452030149725676
 40
0.2452030149725676
 40
0.2452030149725676
 40
0.2452030149725676
 10
58.88683598354933
 20
148.8611998852319
 30
0.0
 10
58.88683807292133
 20
148.8581743270296
 30
0.0
 10
58.88687992997158
 20
148.8368033212949
 30
0.0
 10
58.89156946044749
 20
148.7923743708552
 30
0.0
 10
58.90163038538591
 20
148.7301798209041
 30
0.0
 10
58.91636234959691
 20
148.668799377826
 30
0.0
 10
58.93540615708768
 20
148.6073751826213
 30
0.0
 10
58.96053087677269
 20
148.5424586257018
 30
0.0
 10
58.98970483677935
 20
148.4824939536027
 30
0.0
 10
59.02566883528995
 20
148.4215876097211
 30
0.0
 10
59.06428684928869
 20
148.366969797815
 30
0.0
 10
59.1021461226961
 20
148.3205349447512
 30
0.0
 10
59.14880579304279
 20
148.2695016294554
 30
0.0
 10
59.21028731903894
 20
148.2116760136363
 30
0.0
 10
59.28624198835174
 20
148.1520194685814
 30
0.0
 10
59.36216245715474
 20
148.101238156554
 30
0.0
 10
59.43341959726549
 20
148.0596420419749
 30
0.0
 10
59.49742660821883
 20
148.026050206059
 30
0.0
 10
59.56030721890662
 20
147.995894182282
 30
0.0
 10
59.60656743818744
 20
147.975517716566
 30
0.0
 10
59.63200187124159
 20
147.9648103437658
 30
0.0
 10
59.63588320890241
 20
147.9631876781206
 30
0.0
  0
SPLINE
  5
8D
330
6F
100
AcDbEntity
  8
DV1_0
 62
     7
370
    35
100
AcDbSpline
210
0.0
220
0.0
230
1.0
 70
     8
 71
     3
 72
    78
 73
    74
 74
     0
 42
0.000000001
 43
0.0000000001
 40
0.0
 40
0.0
 40
0.0
 40
0.0
 40
0.0057502507714588
 40
0.0092571905935793
 40
0.0124668780314481
 40
0.0159203108102885
 40
0.0224623655542299
 40
0.0342156667161032
 40
0.0477560249862918
 40
0.0624066745675196
 40
0.0777522704257758
 40
0.093754999277888
 40
0.1103917756529036
 40
0.1276573823773956
 40
0.1453858528676753
 40
0.162337042394375
 40
0.1774412941230442
 40
0.1907018793247764
 40
0.2020801738563713
 40
0.2134549657892632
 40
0.2272927638943584
 40
0.244170901035678
 40
0.2625894061464673
 40
0.2814043454150981
 40
0.300401795142042
 40
0.3112041153488207
 40
0.322119786650274
 40
0.3330213792523881
 40
0.3429697833459698
 40
0.3512499102596647
 40
0.3580127849195009
 40
0.3649762730008025
 40
0.3734071720799128
 40
0.3823418318958086
 40
0.3911451472331069
 40
0.3995122467913698
 40
0.4075501953502224
 40
0.4145985411634781
 40
0.4219155372292445
 40
0.4296368103385619
 40
0.4380898580598598
 40
0.444742808104033
 40
0.44857777303109
 40
0.4525816031890345
 40
0.4561561017261597
 40
0.4589096088299952
 40
0.4602104134666294
 40
0.4612625294414721
 40
0.4632491414940099
 40
0.4644646933850495
 40
0.4664033378140764
 40
0.4703482967669657
 40
0.4752321364631168
 40
0.4808014223343584
 40
0.487424023460285
 40
0.4951049045636937
 40
0.5036291023586547
 40
0.5116014019640831
 40
0.5184034826656047
 40
0.5247533487665618
 40
0.5296938003239512
 40
0.5340664178787834
 40
0.5391211170930099
 40
0.544607380159629
 40
0.5500353417305035
 40
0.5554591266603418
 40
0.5643802640429492
 40
0.5759555448435034
 40
0.5877253794452804
 40
0.5981923300442351
 40
0.6074613546031721
 40
0.6166361159565056
 40
0.6257615943488347
 40
0.6257615943488347
 40
0.6257615943488347
 40
0.6257615943488347
 10
64.63605649602766
 20
137.5881315926032
 30
0.0
 10
64.60395304973827
 20
137.5834521984671
 30
0.0
 10
64.55988613871273
 20
137.5770750943853
 30
0.0
 10
64.48818152246498
 20
137.5663022382861
 30
0.0
 10
64.43067537617337
 20
137.5586801936591
 30
0.0
 10
64.35561839330359
 20
137.5482954982778
 30
0.0
 10
64.23230667812474
 20
137.5313646667345
 30
0.0
 10
64.05207785385167
 20
137.506325610385
 30
0.0
 10
63.82702560943432
 20
137.47477334488
 30
0.0
 10
63.58345238309892
 20
137.4401823419549
 30
0.0
 10
63.32869812028649
 20
137.4035523952824
 30
0.0
 10
63.06644113207354
 20
137.3653260004299
 30
0.0
 10
62.79826457584633
 20
137.3256793747052
 30
0.0
 10
62.52657351886588
 20
137.2849103378497
 30
0.0
 10
62.2601127015914
 20
137.2442494195973
 30
0.0
 10
62.01210447149536
 20
137.2059176251307
 30
0.0
 10
61.79328175941427
 20
137.1705952917131
 30
0.0
 10
61.60718530271841
 20
137.1393063510659
 30
0.0
 10
61.44325823775109
 20
137.110752828649
 30
0.0
 10
61.28138785651267
 20
137.0815898885163
 30
0.0
 10
61.10059588571436
 20
137.0477466197123
 30
0.0
 10
60.89930605940961
 20
137.0082078667895
 30
0.0
 10
60.68813922711613
 20
136.9642556658334
 30
0.0
 10
60.48021402000063
 20
136.9180554715939
 30
0.0
 10
60.31105233765886
 20
136.8775911346253
 30
0.0
 10
60.17693001798144
 20
136.8433813658428
 30
0.0
 10
60.0739035007571
 20
136.8156509995082
 30
0.0
 10
59.97819218972246
 20
136.7878512903625
 30
0.0
 10
59.8944049201245
 20
136.7617577584083
 30
0.0
 10
59.82527004287082
 20
136.7387290888312
 30
0.0
 10
59.7656106849034
 20
136.7177020294996
 30
0.0
 10
59.70579826675397
 20
136.6953969853231
 30
0.0
 10
59.64260768042647
 20
136.670224841819
 30
0.0
 10
59.57637880720963
 20
136.6416922104682
 30
0.0
 10
59.51177915265456
 20
136.6113370280242
 30
0.0
 10
59.45073203063603
 20
136.5799265174163
 30
0.0
 10
59.39465445385649
 20
136.5482668739553
 30
0.0
 10
59.3400538530586
 20
136.5143695739946
 30
0.0
 10
59.28764308110228
 20
136.4784180376784
 30
0.0
 10
59.23384703764067
 20
136.4373485516354
 30
0.0
 10
59.17976371439736
 20
136.3906058258346
 30
0.0
 10
59.12915556127887
 20
136.3399771015149
 30
0.0
 10
59.0923552993177
 20
136.2978427121772
 30
0.0
 10
59.06367889511266
 20
136.2619529484677
 30
0.0
 10
59.03835043401748
 20
136.2264679053773
 30
0.0
 10
59.01670182858476
 20
136.1930488919953
 30
0.0
 10
59.00214881402823
 20
136.1676007207531
 30
0.0
 10
58.99058033393298
 20
136.1459864968101
 30
0.0
 10
58.98052715220593
 20
136.1249672172372
 30
0.0
 10
58.96824330490114
 20
136.098201908081
 30
0.0
 10
58.95411879583134
 20
136.0654886676529
 30
0.0
 10
58.93729320036536
 20
136.0219999702946
 30
0.0
 10
58.9204657560809
 20
135.971303637093
 30
0.0
 10
58.90560679226836
 20
135.9153721778179
 30
0.0
 10
58.89383113879879
 20
135.8553387471187
 30
0.0
 10
58.88651853910651
 20
135.7886964838193
 30
0.0
 10
58.88523546266389
 20
135.7238137500707
 30
0.0
 10
58.89019016652324
 20
135.6558463810807
 30
0.0
 10
58.90114752728472
 20
135.587385166914
 30
0.0
 10
58.91695088920723
 20
135.5212962453502
 30
0.0
 10
58.93858827846794
 20
135.453186642644
 30
0.0
 10
58.9674954623971
 20
135.3812961078964
 30
0.0
 10
59.00118798933106
 20
135.3171569403374
 30
0.0
 10
59.04160364762695
 20
135.2524983443332
 30
0.0
 10
59.08399729197568
 20
135.1973229825458
 30
0.0
 10
59.13099865922749
 20
135.1430582084959
 30
0.0
 10
59.19164643336246
 20
135.0832920158731
 30
0.0
 10
59.26858139474691
 20
135.019932276158
 30
0.0
 10
59.350589401884
 20
134.9635359432432
 30
0.0
 10
59.42885163511683
 20
134.9172420615595
 30
0.0
 10
59.49909965647426
 20
134.8803410463272
 30
0.0
 10
59.56721934962627
 20
134.8478837563381
 30
0.0
 10
59.61291718944249
 20
134.8279998297761
 30
0.0
 10
59.6358959133501
 20
134.8183967022065
 30
0.0
  0
SPLINE
  5
8E
330
6F
100
AcDbEntity
  8
DV1_0
 62
     7
370
    35
100
AcDbSpline
210
0.0
220
0.0
230
1.0
 70
     8
 71
     3
 72
    67
 73
    63
 74
     0
 42
0.000000001
 43
0.0000000001
 40
0.0
 40
0.0
 40
0.0
 40
0.0
 40
0.0045614188726199
 40
0.0083436141006143
 40
0.0126432196057772
 40
0.0181295896929301
 40
0.0252925814496085
 40
0.0360894376855905
 40
0.0488206386755048
 40
0.0624391611944235
 40
0.0755656165166993
 40
0.0904563004246807
 40
0.1086399019300088
 40
0.1255142986138685
 40
0.142293335873325
 40
0.1603605036753729
 40
0.1774914689999882
 40
0.1933684529422067
 40
0.2066216977093426
 40
0.21482133300014
 40
0.2211546220874928
 40
0.2264233891050413
 40
0.2336721089213605
 40
0.2437111258115281
 40
0.2551286846399804
 40
0.2672721779260206
 40
0.2792635539309499
 40
0.2901240253470893
 40
0.2999109880151158
 40
0.3115934905249267
 40
0.322511239692891
 40
0.3341333229760574
 40
0.3502271898267243
 40
0.3670105566624226
 40
0.3830381094781112
 40
0.3947820274704069
 40
0.4069697466142834
 40
0.4211126949079289
 40
0.4361170293416246
 40
0.4491480460506894
 40
0.4588830333395205
 40
0.467588037869287
 40
0.4740520773437534
 40
0.4775605290883557
 40
0.482027362296421
 40
0.4881308047189145
 40
0.4958455852361586
 40
0.5049465401331139
 40
0.5131736399292849
 40
0.5197538384483814
 40
0.5256441632811243
 40
0.5313754135175566
 40
0.5382364925611728
 40
0.5473367121590991
 40
0.5567305640612223
 40
0.5675861347045638
 40
0.5767879706992739
 40
0.58563527448226
 40
0.5948713951857928
 40
0.6063321561204409
 40
0.6195107217334456
 40
0.6237431611710611
 40
0.6237431611710611
 40
0.6237431611710611
 40
0.6237431611710611
 10
64.6360564960282
 20
131.7065357481337
 30
0.0
 10
64.65616737765927
 20
131.7096354911432
 30
0.0
 10
64.68768903167862
 20
131.7143866746904
 30
0.0
 10
64.74944613460731
 20
131.7277831965568
 30
0.0
 10
64.82684213325616
 20
131.7391720890245
 30
0.0
 10
64.92339571701034
 20
131.7520237230541
 30
0.0
 10
65.05644848631167
 20
131.7704034237193
 30
0.0
 10
65.2304608393078
 20
131.7943114635248
 30
0.0
 10
65.44010551310738
 20
131.8236217404705
 30
0.0
 10
65.66133711112113
 20
131.8547126611303
 30
0.0
 10
65.89238546497333
 20
131.8874290528485
 30
0.0
 10
66.14491474877032
 20
131.9233516595453
 30
0.0
 10
66.41288939692495
 20
131.9619044831945
 30
0.0
 10
66.68169409475433
 20
132.000887347924
 30
0.0
 10
66.94500360626948
 20
132.0404172705038
 30
0.0
 10
67.20387293311678
 20
132.0800412894625
 30
0.0
 10
67.45119492294245
 20
132.119399747201
 30
0.0
 10
67.66874790263998
 20
132.1559789655341
 30
0.0
 10
67.83831807022119
 20
132.1855944944783
 30
0.0
 10
67.96112579274715
 20
132.20779430302
 30
0.0
 10
68.04695861696015
 20
132.2236279954296
 30
0.0
 10
68.12763903240611
 20
132.2387949094402
 30
0.0
 10
68.2233921396749
 20
132.2571424907575
 30
0.0
 10
68.34236522680932
 20
132.2805823687994
 30
0.0
 10
68.47731078428906
 20
132.3081246035889
 30
0.0
 10
68.61455230150514
 20
132.3372922054527
 30
0.0
 10
68.74406562941954
 20
132.366041833086
 30
0.0
 10
68.85985390495443
 20
132.3928783037937
 30
0.0
 10
68.97015927690921
 20
132.4195350561942
 30
0.0
 10
69.07609180554867
 20
132.4463016320764
 30
0.0
 10
69.18364007845312
 20
132.4749590664702
 30
0.0
 10
69.3012990375348
 20
132.5087410176928
 30
0.0
 10
69.43190179521379
 20
132.5500759831359
 30
0.0
 10
69.56355363200412
 20
132.597364272519
 30
0.0
 10
69.67566608547807
 20
132.6434639410192
 30
0.0
 10
69.77441441912728
 20
132.6898608225417
 30
0.0
 10
69.86761247115291
 20
132.7395866977637
 30
0.0
 10
69.96997978918417
 20
132.8039761280506
 30
0.0
 10
70.07067889556258
 20
132.8821765440988
 30
0.0
 10
70.15963029383795
 20
132.9702951481232
 30
0.0
 10
70.23070270417105
 20
133.0604458665215
 30
0.0
 10
70.2823530855212
 20
133.1445458728062
 30
0.0
 10
70.31416227383687
 20
133.2108732554841
 30
0.0
 10
70.33653563031352
 20
133.2671136938924
 30
0.0
 10
70.35549338895521
 20
133.3248609791157
 30
0.0
 10
70.37407060985306
 20
133.4019717993934
 30
0.0
 10
70.38699312223673
 20
133.5012585785365
 30
0.0
 10
70.38651563898311
 20
133.6123022213336
 30
0.0
 10
70.37155598098651
 20
133.7164809515758
 30
0.0
 10
70.34858425429124
 20
133.803262913388
 30
0.0
 10
70.32217052592405
 20
133.8751846425025
 30
0.0
 10
70.28969298841841
 20
133.9446058193516
 30
0.0
 10
70.24795897998405
 20
134.0167495485611
 30
0.0
 10
70.19429525432894
 20
134.0915167849896
 30
0.0
 10
70.12504206714337
 20
134.1694459871146
 30
0.0
 10
70.05176118284217
 20
134.2361392914861
 30
0.0
 10
69.98309592880241
 20
134.2889514361756
 30
0.0
 10
69.91609882811684
 20
134.3341675262279
 30
0.0
 10
69.84478185946811
 20
134.3766153369387
 30
0.0
 10
69.7632643251172
 20
134.4196051849948
 30
0.0
 10
69.69145241544219
 20
134.4528162777937
 30
0.0
 10
69.64714795810997
 20
134.47170317406
 30
0.0
 10
69.63630581487618
 20
134.4762359057276
 30
0.0
  0
SPLINE
  5
8F
330
6F
100
AcDbEntity
  8
DV1_0
 62
     7
370
    35
100
AcDbSpline
210
0.0
220
0.0
230
1.0
 70
     8
 71
     3
 72
    59
 73
    55
 74
     0
 42
0.000000001
 43
0.0000000001
 40
0.0
 40
0.0
 40
0.0
 40
0.0
 40
0.0070665332999898
 40
0.0131615154580867
 40
0.0228976908985282
 40
0.0330938425992957
 40
0.044488829019181
 40
0.0570881395859022
 40
0.0793306648695797
 40
0.1041548252854232
 40
0.1381127289406629
 40
0.1738039153374265
 40
0.2111668708246651
 40
0.2501209693137987
 40
0.2801873255247333
 40
0.3101978810704568
 40
0.3376199302643747
 40
0.3624178273460089
 40
0.3845316457651071
 40
0.4039160060750156
 40
0.419663716753832
 40
0.4340884706074291
 40
0.4507088653364688
 40
0.4697742932534011
 40
0.49120528108029
 40
0.538605575467928
 40
0.5868578533232103
 40
0.6359548443291477
 40
0.6506671564925832
 40
0.6655306788581271
 40
0.6795600859533821
 40
0.6920906237592748
 40
0.7031040686840162
 40
0.7126437229869472
 40
0.7231495876749423
 40
0.7359345875968574
 40
0.7555315329916015
 40
0.7752874357715809
 40
0.7944999118270469
 40
0.8114605005732153
 40
0.8255597648099204
 40
0.8395055194250203
 40
0.8541248768556413
 40
0.8648057655424292
 40
0.8763214901740921
 40
0.8889621274945252
 40
0.9029045836238466
 40
0.917160057185508
 40
0.9266304047386145
 40
0.934884436429706
 40
0.945985123158274
 40
0.9605006283139153
 40
0.9785090794674858
 40
1.0
 40
1.0
 40
1.0
 40
1.0
 10
64.63605649602766
 20
133.2065357481336
 30
0.0
 10
64.61637550957226
 20
133.2037439300584
 30
0.0
 10
64.58524851665362
 20
133.1993626422451
 30
0.0
 10
64.52261270329717
 20
133.189686816421
 30
0.0
 10
64.44834218034997
 20
133.1794035067435
 30
0.0
 10
64.35988314582968
 20
133.1673289504147
 30
0.0
 10
64.26315939411703
 20
133.1539949133272
 30
0.0
 10
64.1326348118391
 20
133.135933455544
 30
0.0
 10
63.96458546204703
 20
133.1124964960877
 30
0.0
 10
63.73752277325581
 20
133.0805169723863
 30
0.0
 10
63.47488139935056
 20
133.0430583291918
 30
0.0
 10
63.18121180652015
 20
133.0005494441404
 30
0.0
 10
62.87910818041321
 20
132.9561242425573
 30
0.0
 10
62.59850468894136
 20
132.9141702298705
 30
0.0
 10
62.34361806365719
 20
132.8754380905273
 30
0.0
 10
62.12378061767597
 20
132.8416339090871
 30
0.0
 10
61.92249828418004
 20
132.8099912451767
 30
0.0
 10
61.74531299292467
 20
132.7809815969408
 30
0.0
 10
61.59129551642661
 20
132.7549397813577
 30
0.0
 10
61.46147892428588
 20
132.7323158997764
 30
0.0
 10
61.35147680328787
 20
132.7126446550576
 30
0.0
 10
61.24948530502337
 20
132.6939888132828
 30
0.0
 10
61.1423979254936
 20
132.6739330788855
 30
0.0
 10
61.02330667157669
 20
132.6510038478634
 30
0.0
 10
60.84575294713982
 20
132.6156952828513
 30
0.0
 10
60.62002878723071
 20
132.5682095798766
 30
0.0
 10
60.36008308527814
 20
132.508511748735
 30
0.0
 10
60.17516369414446
 20
132.4617863681726
 30
0.0
 10
60.05341316456064
 20
132.4280733676233
 30
0.0
 10
59.98804835680092
 20
132.4090441232237
 30
0.0
 10
59.92793442495846
 20
132.3906631856434
 30
0.0
 10
59.87496020005477
 20
132.3736848990513
 30
0.0
 10
59.8293701839772
 20
132.358429076115
 30
0.0
 10
59.78729126658816
 20
132.3437899058817
 30
0.0
 10
59.74289459300051
 20
132.3277221945945
 30
0.0
 10
59.68582163057329
 20
132.3060408005246
 30
0.0
 10
59.61893490855741
 20
132.2787936899432
 30
0.0
 10
59.54577356652644
 20
132.2461573934897
 30
0.0
 10
59.47749752117596
 20
132.2125337979356
 30
0.0
 10
59.41761179951865
 20
132.179987406171
 30
0.0
 10
59.36312621156969
 20
132.1474545926255
 30
0.0
 10
59.31208906574214
 20
132.1140274699598
 30
0.0
 10
59.26606403389855
 20
132.080645233413
 30
0.0
 10
59.22500137732829
 20
132.0479870536489
 30
0.0
 10
59.18210763357396
 20
132.0107421468764
 30
0.0
 10
59.1329523682407
 20
131.962753354391
 30
0.0
 10
59.08037512612633
 20
131.9030796815611
 30
0.0
 10
59.03476976669431
 20
131.8410361618141
 30
0.0
 10
58.99690890088601
 20
131.7792184845512
 30
0.0
 10
58.96402023728576
 20
131.7142786200665
 30
0.0
 10
58.93645286454643
 20
131.6476821757744
 30
0.0
 10
58.91042504026872
 20
131.5655612028962
 30
0.0
 10
58.89027400884209
 20
131.4659365589841
 30
0.0
 10
58.88740226902643
 20
131.4021471570052
 30
0.0
 10
58.8860564960282
 20
131.3611367870163
 30
0.0
  0
LINE
  5
90
330
6F
100
AcDbEntity
  8
DV1_0
 62
     7
370
    35
100
AcDbLine
 10
58.6360564960282
 20
149.8611367870163
 30
0.0
 11
58.6360564960282
 21
148.8611367870163
 31
0.0
  0
LINE
  5
91
330
6F
100
AcDbEntity
  8
DV1_0
 62
     7
370
    35
100
AcDbLine
 10
70.6360564960282
 20
148.8611367870163
 30
0.0
 11
70.6360564960282
 21
149.8611367870163
 31
0.0
  0
LINE
  5
92
330
6F
100
AcDbEntity
  8
DV1_0
 62
     7
370
    35
100
AcDbLine
 10
69.6360564960282
 20
147.4467222426598
 30
0.0
 11
69.6360564960282
 21
148.8611367870163
 31
0.0
  0
LINE
  5
93
330
6F
100
AcDbEntity
  8
DV1_0
 62
     7
370
    35
100
AcDbLine
 10
69.6360564960282
 20
143.0651263981902
 30
0.0
 11
69.6360564960282
 21
145.7729188446227
 31
0.0
  0
LINE
  5
94
330
6F
100
AcDbEntity
  8
DV1_0
 62
     7
370
    35
100
AcDbLine
 10
69.6360564960282
 20
138.6835305537207
 30
0.0
 11
69.6360564960282
 21
141.3913230001532
 31
0.0
  0
LINE
  5
95
330
6F
100
AcDbEntity
  8
DV1_0
 62
     7
370
    35
100
AcDbLine
 10
69.6360564960282
 20
134.3019347092511
 30
0.0
 11
69.6360564960282
 21
137.0097271556836
 31
0.0
  0
LINE
  5
96
330
6F
100
AcDbEntity
  8
DV1_0
 62
     7
370
    35
100
AcDbLine
 10
69.6360564960282
 20
129.8611367870163
 30
0.0
 11
69.6360564960282
 21
132.628131311214
 31
0.0
  0
LINE
  5
97
330
6F
100
AcDbEntity
  8
DV1_0
 62
     7
370
    35
100
AcDbLine
 10
59.6360564960282
 20
130.6111367870163
 30
0.0
 11
59.6360564960282
 21
129.8611367870163
 31
0.0
  0
LINE
  5
98
330
6F
100
AcDbEntity
  8
DV1_0
 62
     7
370
    35
100
AcDbLine
 10
59.6360564960282
 20
134.9927326314859
 30
0.0
 11
59.6360564960282
 21
132.2853047233411
 31
0.0
  0
LINE
  5
99
330
6F
100
AcDbEntity
  8
DV1_0
 62
     7
370
    35
100
AcDbLine
 10
59.6360564960282
 20
139.3743284759554
 30
0.0
 11
59.6360564960282
 21
136.6670071972812
 31
0.0
  0
LINE
  5
9A
330
6F
100
AcDbEntity
  8
DV1_0
 62
     7
370
    35
100
AcDbLine
 10
59.6360564960282
 20
143.755924320425
 30
0.0
 11
59.6360564960282
 21
141.0486030417508
 31
0.0
  0
LINE
  5
9B
330
6F
100
AcDbEntity
  8
DV1_0
 62
     7
370
    35
100
AcDbLine
 10
59.6360564960282
 20
148.1375201648946
 30
0.0
 11
59.6360564960282
 21
145.4301988862203
 31
0.0
  0
ARC
  5
9C
330
6F
100
AcDbEntity
  8
DV1_0
 62
     7
370
    35
100
AcDbCircle
 10
70.63605649602827
 20
150.8611367870163
 30
0.0
 40
1.000000000000001
100
AcDbArc
 50
180.0
 51
270.0
  0
ARC
  5
9D
330
6F
100
AcDbEntity
  8
DV1_0
 62
     7
370
    35
100
AcDbCircle
 10
58.63605649602828
 20
150.8611367870163
 30
0.0
 40
0.9999999999999996
100
AcDbArc
 50
270.0
 51
0.0
  0
LINE
  5
9E
330
6F
100
AcDbEntity
  8
DV1_0
 62
     7
370
    35
100
AcDbLine
 10
59.8060564960283
 20
217.4742063211973
 30
0.0
 11
69.4660564960282
 21
217.4742063211973
 31
0.0
  0
LINE
  5
9F
330
6F
100
AcDbEntity
  8
DV1_0
 62
     7
370
    25
100
AcDbLine
 10
59.63605649602822
 20
229.4611367870162
 30
0.0
 11
69.63605649602812
 21
229.4611367870162
 31
0.0
  0
LINE
  5
A0
330
6F
100
AcDbEntity
  8
DV1_0
 62
     7
370
    25
100
AcDbLine
 10
59.63605649602825
 20
217.8718242282387
 30
0.0
 11
69.63605649602826
 21
217.8718242282387
 31
0.0
  0
LINE
  5
A1
330
6F
100
AcDbEntity
  8
DV1_0
 62
     7
370
    35
100
AcDbLine
 10
69.46605649602826
 20
214.974341422815
 30
0.0
 11
69.46605649602826
 21
217.4742063211973
 31
0.0
  0
LINE
  5
A2
330
6F
100
AcDbEntity
  8
DV1_0
 62
     7
370
    35
100
AcDbLine
 10
59.80605649602825
 20
217.4742063211973
 30
0.0
 11
59.80605649602825
 21
214.9743414228151
 31
0.0
  0
ARC
  5
A3
330
6F
100
AcDbEntity
  8
DV1_0
 62
     7
370
    35
100
AcDbCircle
 10
69.23605649602817
 20
229.4611367870162
 30
0.0
 40
0.4000000000000004
100
AcDbArc
 50
0.0
 51
90.0
  0
ARC
  5
A4
330
6F
100
AcDbEntity
  8
DV1_0
 62
     7
370
    35
100
AcDbCircle
 10
60.03605649602817
 20
229.4611367870162
 30
0.0
 40
0.4000000000000004
100
AcDbArc
 50
90.0
 51
180.0
  0
LINE
  5
A5
330
6F
100
AcDbEntity
  8
DV1_0
 62
     7
370
    35
100
AcDbLine
 10
59.63605649602817
 20
229.4611367870162
 30
0.0
 11
59.63605649602817
 21
217.8718242282387
 31
0.0
  0
LINE
  5
A6
330
6F
100
AcDbEntity
  8
DV1_0
 62
     7
370
    35
100
AcDbLine
 10
69.63605649602816
 20
217.8718242282387
 30
0.0
 11
69.63605649602816
 21
229.4611367870162
 31
0.0
  0
ARC
  5
A7
330
6F
100
AcDbEntity
  8
DV1_0
 62
     7
370
    35
100
AcDbCircle
 10
69.08605649602825
 20
217.8718242282387
 30
0.0
 40
0.550000000000001
100
AcDbArc
 50
313.7021144373556
 51
0.0
  0
ARC
  5
A8
330
6F
100
AcDbEntity
  8
DV1_0
 62
     7
370
    35
100
AcDbCircle
 10
60.18605649602826
 20
217.8718242282387
 30
0.0
 40
0.5500000000000005
100
AcDbArc
 50
180.0
 51
226.2978855626444
  0
LINE
  5
A9
330
6F
100
AcDbEntity
  8
DV1_0
 62
     7
370
    35
100
AcDbLine
 10
69.58605649602816
 20
229.8611367870163
 30
0.0
 11
59.68605649602816
 21
229.8611367870163
 31
0.0
  0
LINE
  5
AA
330
6F
100
AcDbEntity
  8
DV1_0
 62
     7
370
    35
100
AcDbLine
 10
69.63605649602816
 20
232.3611367870163
 30
0.0
 11
59.63605649602816
 21
232.3611367870163
 31
0.0
  0
LINE
  5
AB
330
6F
100
AcDbEntity
  8
DV1_0
 62
     7
370
    35
100
AcDbLine
 10
69.63605649602816
 20
233.3611367870163
 30
0.0
 11
59.63605649602816
 21
233.3611367870163
 31
0.0
  0
LINE
  5
AC
330
6F
100
AcDbEntity
  8
DV1_0
 62
     7
370
    35
100
AcDbLine
 10
60.13605649602817
 20
233.8611367870163
 30
0.0
 11
69.13605649602817
 21
233.8611367870163
 31
0.0
  0
LINE
  5
AD
330
6F
100
AcDbEntity
  8
DV1_0
 62
     7
370
    35
100
AcDbLine
 10
69.58605649602816
 20
229.8611367870163
 30
0.0
 11
69.58605649602816
 21
232.3611367870163
 31
0.0
  0
LINE
  5
AE
330
6F
100
AcDbEntity
  8
DV1_0
 62
     7
370
    35
100
AcDbLine
 10
59.68605649602817
 20
232.3611367870163
 30
0.0
 11
59.68605649602817
 21
229.8611367870163
 31
0.0
  0
LINE
  5
AF
330
6F
100
AcDbEntity
  8
DV1_0
 62
     7
370
    35
100
AcDbLine
 10
69.63605649602816
 20
232.3611367870163
 30
0.0
 11
69.63605649602816
 21
233.3611367870163
 31
0.0
  0
LINE
  5
B0
330
6F
100
AcDbEntity
  8
DV1_0
 62
     7
370
    35
100
AcDbLine
 10
59.63605649602817
 20
233.3611367870163
 30
0.0
 11
59.63605649602817
 21
232.3611367870163
 31
0.0
  0
LINE
  5
B1
330
6F
100
AcDbEntity
  8
DV1_0
 62
     7
370
    35
100
AcDbLine
 10
69.63605649602816
 20
233.3611367870163
 30
0.0
 11
69.13605649602816
 21
233.8611367870163
 31
0.0
  0
LINE
  5
B2
330
6F
100
AcDbEntity
  8
DV1_0
 62
     7
370
    35
100
AcDbLine
 10
60.13605649602817
 20
233.8611367870163
 30
0.0
 11
59.63605649602817
 21
233.3611367870163
 31
0.0
  0
ENDBLK
  5
B4
330
6F
100
AcDbEntity
  8
0
100
AcDbBlockEnd
  0
BLOCK
  5
F8
330
B5
100
AcDbEntity
  8
0
100
AcDbBlockBegin
  2
SE1
 70
     0
 10
0.0
 20
0.0
 30
0.0
  3
SE1
  1

  0
LINE
  5
B8
330
B5
100
AcDbEntity
  8
DV2_0
 62
     7
370
    25
100
AcDbLine
 10
156.4733859520398
 20
214.5767235157736
 30
0.0
 11
146.4733859520398
 21
214.5767235157736
 31
0.0
  0
LINE
  5
B9
330
B5
100
AcDbEntity
  8
DV2_0
 62
     7
370
    35
100
AcDbLine
 10
156.4733859520398
 20
150.8611367870163
 30
0.0
 11
146.4733859520398
 21
150.8611367870163
 31
0.0
  0
LINE
  5
BA
330
B5
100
AcDbEntity
  8
DV2_0
 62
     7
370
    35
100
AcDbLine
 10
156.4733859520398
 20
150.8611367870163
 30
0.0
 11
156.4733859520398
 21
214.5767235157736
 31
0.0
  0
LINE
  5
BB
330
B5
100
AcDbEntity
  8
DV2_0
 62
     7
370
    35
100
AcDbLine
 10
146.4733859520398
 20
214.5767235157736
 30
0.0
 11
146.4733859520398
 21
150.8611367870163
 31
0.0
  0
ARC
  5
BC
330
B5
100
AcDbEntity
  8
DV2_0
 62
     7
370
    35
100
AcDbCircle
 10
147.0233859520398
 20
214.5767235157736
 30
0.0
 40
0.5500000000000005
100
AcDbArc
 50
133.7021144373472
 51
180.0
  0
ARC
  5
BD
330
B5
100
AcDbEntity
  8
DV2_0
 62
     7
370
    35
100
AcDbCircle
 10
155.9233859520398
 20
214.5767235157736
 30
0.0
 40
0.5500000000000005
100
AcDbArc
 50
0.0
 51
46.29788556264224
  0
LINE
  5
BE
330
B5
100
AcDbEntity
  8
DV2_0
 62
     7
370
    35
100
AcDbLine
 10
151.4733859520398
 20
130.6111367870163
 30
0.0
 11
151.4733859520398
 21
132.1111367870163
 31
0.0
  0
SPLINE
  5
BF
330
B5
100
AcDbEntity
  8
DV2_0
 62
     7
370
    35
100
AcDbSpline
210
0.0
220
0.0
230
1.0
 70
    12
 71
     2
 72
     6
 73
     3
 74
     0
 42
0.000000001
 43
0.0000000001
 40
0.0
 40
0.0
 40
0.0
 40
0.0003060302775211
 40
0.0003060302775211
 40
0.0003060302775211
 10
151.4733859520398
 20
130.6111367870163
 30
0.0
 41
1.0
 10
151.4924050230823
 20
130.6137285060498
 30
0.0
 41
0.9994994690158211
 10
151.5114235437587
 20
130.616325433119
 30
0.0
 41
0.9990136430846979
  0
SPLINE
  5
C0
330
B5
100
AcDbEntity
  8
DV2_0
 62
     7
370
    35
100
AcDbSpline
210
0.0
220
0.0
230
1.0
 70
    12
 71
     2
 72
    12
 73
     9
 74
     0
 42
0.000000001
 43
0.0000000001
 40
0.1875
 40
0.1875
 40
0.1875
 40
0.2083333333333333
 40
0.2083333333333333
 40
0.2291666666666667
 40
0.2291666666666667
 40
0.25
 40
0.25
 40
0.2503060302775212
 40
0.2503060302775212
 40
0.2503060302775212
 10
146.4733859520398
 20
133.8973336703685
 30
0.0
 41
1.0
 10
146.4733859520398
 20
134.0799001638881
 30
0.0
 41
0.9659258262890683
 10
147.1432589331176
 20
134.2624666574076
 30
0.0
 41
1.0
 10
147.8131319141954
 20
134.4450331509272
 30
0.0
 41
0.9659258262890683
 10
148.9733859520398
 20
134.6275996444467
 30
0.0
 41
1.0
 10
150.1336399898842
 20
134.8101661379663
 30
0.0
 41
0.9659258262890683
 10
151.4733859520398
 20
134.9927326314859
 30
0.0
 41
1.0
 10
151.4924050230823
 20
134.9953243505194
 30
0.0
 41
0.999499469015821
 10
151.5114235437587
 20
134.9979212775885
 30
0.0
 41
0.9990136430846975
  0
SPLINE
  5
C1
330
B5
100
AcDbEntity
  8
DV2_0
 62
     7
370
    35
100
AcDbSpline
210
0.0
220
0.0
230
1.0
 70
    12
 71
     2
 72
    12
 73
     9
 74
     0
 42
0.000000001
 43
0.0000000001
 40
0.4375
 40
0.4375
 40
0.4375
 40
0.4583333333333333
 40
0.4583333333333333
 40
0.4791666666666667
 40
0.4791666666666667
 40
0.5
 40
0.5
 40
0.5003060302775213
 40
0.5003060302775213
 40
0.5003060302775213
 10
146.4733859520398
 20
138.2789295148381
 30
0.0
 41
1.0
 10
146.4733859520398
 20
138.4614960083576
 30
0.0
 41
0.9659258262890683
 10
147.1432589331176
 20
138.6440625018772
 30
0.0
 41
1.0
 10
147.8131319141954
 20
138.8266289953968
 30
0.0
 41
0.9659258262890683
 10
148.9733859520398
 20
139.0091954889163
 30
0.0
 41
1.0
 10
150.1336399898842
 20
139.1917619824359
 30
0.0
 41
0.9659258262890683
 10
151.4733859520398
 20
139.3743284759554
 30
0.0
 41
1.0
 10
151.4924050230823
 20
139.376920194989
 30
0.0
 41
0.9994994690158209
 10
151.5114235437588
 20
139.3795171220581
 30
0.0
 41
0.9990136430846974
  0
SPLINE
  5
C2
330
B5
100
AcDbEntity
  8
DV2_0
 62
     7
370
    35
100
AcDbSpline
210
0.0
220
0.0
230
1.0
 70
    12
 71
     2
 72
    12
 73
     9
 74
     0
 42
0.000000001
 43
0.0000000001
 40
0.6875
 40
0.6875
 40
0.6875
 40
0.7083333333333334
 40
0.7083333333333334
 40
0.7291666666666666
 40
0.7291666666666666
 40
0.75
 40
0.75
 40
0.7503060302775213
 40
0.7503060302775213
 40
0.7503060302775213
 10
146.4733859520398
 20
142.6605253593076
 30
0.0
 41
1.0
 10
146.4733859520398
 20
142.8430918528272
 30
0.0
 41
0.9659258262890683
 10
147.1432589331176
 20
143.0256583463467
 30
0.0
 41
1.0
 10
147.8131319141954
 20
143.2082248398663
 30
0.0
 41
0.9659258262890683
 10
148.9733859520398
 20
143.3907913333859
 30
0.0
 41
1.0
 10
150.1336399898842
 20
143.5733578269054
 30
0.0
 41
0.9659258262890683
 10
151.4733859520398
 20
143.755924320425
 30
0.0
 41
1.0
 10
151.4924050230823
 20
143.7585160394586
 30
0.0
 41
0.9994994690158209
 10
151.5114235437587
 20
143.7611129665277
 30
0.0
 41
0.9990136430846974
  0
SPLINE
  5
C3
330
B5
100
AcDbEntity
  8
DV2_0
 62
     7
370
    35
100
AcDbSpline
210
0.0
220
0.0
230
1.0
 70
    12
 71
     2
 72
    10
 73
     7
 74
     0
 42
0.000000001
 43
0.0000000001
 40
0.9375
 40
0.9375
 40
0.9375
 40
0.9583333333333334
 40
0.9583333333333334
 40
0.9791666666666666
 40
0.9791666666666666
 40
1.0
 40
1.0
 40
1.0
 10
146.4733859520398
 20
147.0421212037772
 30
0.0
 41
1.0
 10
146.4733859520398
 20
147.2246876972968
 30
0.0
 41
0.9659258262890683
 10
147.1432589331176
 20
147.4072541908163
 30
0.0
 41
1.0
 10
147.8131319141954
 20
147.5898206843359
 30
0.0
 41
0.9659258262890683
 10
148.9733859520398
 20
147.7723871778554
 30
0.0
 41
1.0
 10
150.1336399898842
 20
147.954953671375
 30
0.0
 41
0.9659258262890683
 10
151.4733859520398
 20
148.1375201648946
 30
0.0
 41
1.0
  0
SPLINE
  5
C4
330
B5
100
AcDbEntity
  8
DV2_0
 62
     7
370
    35
100
AcDbSpline
210
0.0
220
0.0
230
1.0
 70
    12
 71
     2
 72
    10
 73
     7
 74
     0
 42
0.000000001
 43
0.0000000001
 40
0.0
 40
0.0
 40
0.0
 40
0.0218003456288767
 40
0.0218003456288767
 40
0.0436006912577535
 40
0.0436006912577535
 40
0.0654010368866302
 40
0.0654010368866302
 40
0.0654010368866302
 10
151.4733859520398
 20
132.1111367870163
 30
0.0
 41
1.0
 10
152.8131319141954
 20
132.2937032805359
 30
0.0
 41
0.9659258262890683
 10
153.9733859520398
 20
132.4762697740554
 30
0.0
 41
1.0
 10
155.1336399898842
 20
132.658836267575
 30
0.0
 41
0.9659258262890683
 10
155.803512970962
 20
132.8414027610945
 30
0.0
 41
1.0
 10
156.4733859520398
 20
133.0239692546141
 30
0.0
 41
0.9659258262890683
 10
156.4733859520398
 20
133.2065357481337
 30
0.0
 41
1.0
  0
SPLINE
  5
C5
330
B5
100
AcDbEntity
  8
DV2_0
 62
     7
370
    35
100
AcDbSpline
210
0.0
220
0.0
230
1.0
 70
    12
 71
     2
 72
    12
 73
     9
 74
     0
 42
0.000000001
 43
0.0000000001
 40
0.2612864935599659
 40
0.2612864935599659
 40
0.2612864935599659
 40
0.2616041475465208
 40
0.2616041475465208
 40
0.2834044931753975
 40
0.2834044931753975
 40
0.3052048388042743
 40
0.3052048388042743
 40
0.327005184433151
 40
0.327005184433151
 40
0.327005184433151
 10
151.4356550960506
 20
136.487585868966
 30
0.0
 41
0.9990214757893802
 10
151.454520255466
 20
136.4901618127123
 30
0.0
 41
0.999503503416776
 10
151.4733859520398
 20
136.4927326314859
 30
0.0
 41
1.0
 10
152.8131319141954
 20
136.6752991250054
 30
0.0
 41
0.9659258262890683
 10
153.9733859520398
 20
136.857865618525
 30
0.0
 41
1.0
 10
155.1336399898842
 20
137.0404321120446
 30
0.0
 41
0.9659258262890683
 10
155.803512970962
 20
137.2229986055641
 30
0.0
 41
1.0
 10
156.4733859520398
 20
137.4055650990837
 30
0.0
 41
0.9659258262890683
 10
156.4733859520398
 20
137.5881315926032
 30
0.0
 41
1.0
  0
SPLINE
  5
C6
330
B5
100
AcDbEntity
  8
DV2_0
 62
     7
370
    35
100
AcDbSpline
210
0.0
220
0.0
230
1.0
 70
    12
 71
     2
 72
    12
 73
     9
 74
     0
 42
0.000000001
 43
0.0000000001
 40
0.5228906411064866
 40
0.5228906411064866
 40
0.5228906411064866
 40
0.5232082950930416
 40
0.5232082950930416
 40
0.5450086407219183
 40
0.5450086407219183
 40
0.566808986350795
 40
0.566808986350795
 40
0.5886093319796718
 40
0.5886093319796718
 40
0.5886093319796718
 10
151.4356550960506
 20
140.8691817134356
 30
0.0
 41
0.9990214757893799
 10
151.454520255466
 20
140.8717576571819
 30
0.0
 41
0.9995035034167759
 10
151.4733859520398
 20
140.8743284759554
 30
0.0
 41
1.0
 10
152.8131319141954
 20
141.056894969475
 30
0.0
 41
0.9659258262890683
 10
153.9733859520398
 20
141.2394614629946
 30
0.0
 41
1.0
 10
155.1336399898842
 20
141.4220279565141
 30
0.0
 41
0.9659258262890683
 10
155.803512970962
 20
141.6045944500337
 30
0.0
 41
1.0
 10
156.4733859520398
 20
141.7871609435533
 30
0.0
 41
0.9659258262890683
 10
156.4733859520398
 20
141.9697274370728
 30
0.0
 41
1.0
  0
SPLINE
  5
C7
330
B5
100
AcDbEntity
  8
DV2_0
 62
     7
370
    35
100
AcDbSpline
210
0.0
220
0.0
230
1.0
 70
    12
 71
     2
 72
    12
 73
     9
 74
     0
 42
0.000000001
 43
0.0000000001
 40
0.7844947886530075
 40
0.7844947886530075
 40
0.7844947886530075
 40
0.7848124426395624
 40
0.7848124426395624
 40
0.8066127882684392
 40
0.8066127882684392
 40
0.8284131338973159
 40
0.8284131338973159
 40
0.8502134795261926
 40
0.8502134795261926
 40
0.8502134795261926
 10
151.4356550960506
 20
145.2507775579051
 30
0.0
 41
0.9990214757893799
 10
151.454520255466
 20
145.2533535016515
 30
0.0
 41
0.9995035034167759
 10
151.4733859520398
 20
145.255924320425
 30
0.0
 41
1.0
 10
152.8131319141954
 20
145.4384908139446
 30
0.0
 41
0.9659258262890683
 10
153.9733859520398
 20
145.6210573074641
 30
0.0
 41
1.0
 10
155.1336399898842
 20
145.8036238009837
 30
0.0
 41
0.9659258262890683
 10
155.803512970962
 20
145.9861902945033
 30
0.0
 41
1.0
 10
156.4733859520398
 20
146.1687567880228
 30
0.0
 41
0.9659258262890683
 10
156.4733859520398
 20
146.3513232815424
 30
0.0
 41
1.0
  0
LINE
  5
C8
330
B5
100
AcDbEntity
  8
DV2_0
 62
     7
370
    35
100
AcDbLine
 10
151.4733859520398
 20
148.1375201648946
 30
0.0
 11
151.4733859520398
 21
148.8611367870163
 31
0.0
  0
LINE
  5
C9
330
B5
100
AcDbEntity
  8
DV2_0
 62
     7
370
    35
100
AcDbLine
 10
157.4733859520398
 20
149.8611367870163
 30
0.0
 11
145.4733859520398
 21
149.8611367870163
 31
0.0
  0
LINE
  5
CA
330
B5
100
AcDbEntity
  8
DV2_0
 62
     7
370
    35
100
AcDbLine
 10
157.4733859520398
 20
148.8611367870163
 30
0.0
 11
145.4733859520398
 21
148.8611367870163
 31
0.0
  0
LINE
  5
CB
330
B5
100
AcDbEntity
  8
DV2_0
 62
     7
370
    35
100
AcDbLine
 10
156.4733859520397
 20
129.8611367870163
 30
0.0
 11
146.4733859520398
 21
129.8611367870163
 31
0.0
  0
LINE
  5
CC
330
B5
100
AcDbEntity
  8
DV2_0
 62
     7
370
    35
100
AcDbLine
 10
156.4733859520397
 20
150.8611367870163
 30
0.0
 11
146.4733859520398
 21
150.8611367870162
 31
0.0
  0
SPLINE
  5
CD
330
B5
100
AcDbEntity
  8
DV2_0
 62
     7
370
    35
100
AcDbSpline
210
0.0
220
0.0
230
1.0
 70
     8
 71
     3
 72
    54
 73
    50
 74
     0
 42
0.000000001
 43
0.0000000001
 40
0.0
 40
0.0
 40
0.0
 40
0.0
 40
0.0098531835807573
 40
0.0207231996122146
 40
0.0322538881131444
 40
0.043548483097753
 40
0.0548048190498483
 40
0.0668992065372576
 40
0.080601130037703
 40
0.096870631430701
 40
0.1152870799801093
 40
0.1333216195801529
 40
0.1528523870904546
 40
0.1713303415378388
 40
0.1874928953450009
 40
0.2013217242453388
 40
0.2139325926640138
 40
0.2267911128420063
 40
0.2413831071003154
 40
0.2605895553583756
 40
0.2969040216615046
 40
0.3313314064140573
 40
0.3432161439799447
 40
0.3530532008275404
 40
0.361834512822034
 40
0.3731813156784482
 40
0.3869338033863778
 40
0.401184716689971
 40
0.4126165026408954
 40
0.4229031196296913
 40
0.4337831160805356
 40
0.4448897349470866
 40
0.4559863295969957
 40
0.4656354215732487
 40
0.4726513972032323
 40
0.4794329602081622
 40
0.4868311654856142
 40
0.4965901985272318
 40
0.5084922974773421
 40
0.5180456768889254
 40
0.5243062922193117
 40
0.5306197075043478
 40
0.5400947880572943
 40
0.552044154558225
 40
0.568401495719343
 40
0.5859335675853407
 40
0.6010707541485942
 40
0.6150886680488221
 40
0.624673325649757
 40
0.624673325649757
 40
0.624673325649757
 40
0.624673325649757
 10
151.4430437585874
 20
140.8701903992291
 30
0.0
 10
151.3899363412494
 20
140.8621779789233
 30
0.0
 10
151.2925319368499
 20
140.8461274866255
 30
0.0
 10
151.102537753343
 20
140.8163453101113
 30
0.0
 10
150.9156432777864
 20
140.7918709069532
 30
0.0
 10
150.72194255572
 20
140.7637789112916
 30
0.0
 10
150.5284558338523
 20
140.7363111767138
 30
0.0
 10
150.3205155861208
 20
140.7051953227032
 30
0.0
 10
150.0881342125876
 20
140.6713182892025
 30
0.0
 10
149.8255387989893
 20
140.6335141047759
 30
0.0
 10
149.5468787288418
 20
140.5935443044964
 30
0.0
 10
149.25984466041
 20
140.5519131757173
 30
0.0
 10
148.9834303757418
 20
140.5112348223611
 30
0.0
 10
148.7261191251871
 20
140.4719323839621
 30
0.0
 10
148.5029079421543
 20
140.4353280283955
 30
0.0
 10
148.3126864372348
 20
140.4026859132304
 30
0.0
 10
148.1393132080649
 20
140.3715468377232
 30
0.0
 10
147.9669535426069
 20
140.3394536425026
 30
0.0
 10
147.7746293680414
 20
140.3019774656771
 30
0.0
 10
147.4991147591329
 20
140.2454778381932
 30
0.0
 10
147.1722121210419
 20
140.171257284648
 30
0.0
 10
146.9074325430821
 20
140.1021013338713
 30
0.0
 10
146.7445667616421
 20
140.0521611840996
 30
0.0
 10
146.6604620014077
 20
140.0243054481328
 30
0.0
 10
146.579229771919
 20
139.9954208159225
 30
0.0
 10
146.489775798687
 20
139.9608607365359
 30
0.0
 10
146.390898276189
 20
139.9181353858334
 30
0.0
 10
146.2950151518598
 20
139.8705549786774
 30
0.0
 10
146.2093086246571
 20
139.8214117207767
 30
0.0
 10
146.1294781753291
 20
139.7686116126262
 30
0.0
 10
146.0531131019318
 20
139.7096014138381
 30
0.0
 10
145.9710039688105
 20
139.6333327518557
 30
0.0
 10
145.8976571117905
 20
139.5466639200951
 30
0.0
 10
145.8416616476713
 20
139.462319689461
 30
0.0
 10
145.7983897761526
 20
139.3786072956977
 30
0.0
 10
145.7656734151852
 20
139.296207515806
 30
0.0
 10
145.7381406242455
 20
139.197565720308
 30
0.0
 10
145.7201894708252
 20
139.0706880304624
 30
0.0
 10
145.72508729102
 20
138.9326266570882
 30
0.0
 10
145.7489424427172
 20
138.8155680004379
 30
0.0
 10
145.7795168868597
 20
138.7245853760201
 30
0.0
 10
145.8150338291883
 20
138.6440696379797
 30
0.0
 10
145.869841511344
 20
138.5489126173066
 30
0.0
 10
145.9552768030121
 20
138.4394124061715
 30
0.0
 10
146.0626158913883
 20
138.3377247224267
 30
0.0
 10
146.1808865963849
 20
138.2527723469978
 30
0.0
 10
146.2958183268749
 20
138.186464477351
 30
0.0
 10
146.3904553283221
 20
138.1403000381877
 30
0.0
 10
146.4489640881126
 20
138.1147410197121
 30
0.0
 10
146.4730386730126
 20
138.1046704952766
 30
0.0
  0
SPLINE
  5
CE
330
B5
100
AcDbEntity
  8
DV2_0
 62
     7
370
    35
100
AcDbSpline
210
0.0
220
0.0
230
1.0
 70
     8
 71
     3
 72
    54
 73
    50
 74
     0
 42
0.000000001
 43
0.0000000001
 40
0.0
 40
0.0
 40
0.0
 40
0.0
 40
0.0098531835807573
 40
0.0207231996122142
 40
0.0322538881131443
 40
0.0435484830977529
 40
0.0548048190498473
 40
0.0668992065372573
 40
0.0806011300377033
 40
0.0968706314307006
 40
0.1152870799801095
 40
0.1333216195801518
 40
0.1528523870904537
 40
0.1713303415378385
 40
0.1874928953449999
 40
0.2013217242453391
 40
0.2139325926640136
 40
0.2267911128420064
 40
0.2413831071003147
 40
0.2605895553583764
 40
0.296904021661505
 40
0.3313314064140576
 40
0.3432161439799446
 40
0.3530532008275404
 40
0.3618345128220342
 40
0.3731813156784485
 40
0.386933803386378
 40
0.4011847166899711
 40
0.4126165026408952
 40
0.4229031196296923
 40
0.4337831160805359
 40
0.4448897349470859
 40
0.4559863295969958
 40
0.4656354215732483
 40
0.4726513972032321
 40
0.4794329602081623
 40
0.4868311654856135
 40
0.4965901985272315
 40
0.5084922974773411
 40
0.5180456768889251
 40
0.5243062922193128
 40
0.5306197075043482
 40
0.5400947880572937
 40
0.5520441545582241
 40
0.5684014957193427
 40
0.5859335675853408
 40
0.6010707541485933
 40
0.6150886680488215
 40
0.6246733256497558
 40
0.6246733256497558
 40
0.6246733256497558
 40
0.6246733256497558
 10
151.4430437585874
 20
145.2517862436987
 30
0.0
 10
151.3899363412494
 20
145.2437738233929
 30
0.0
 10
151.2925319368499
 20
145.227723331095
 30
0.0
 10
151.102537753343
 20
145.1979411545808
 30
0.0
 10
150.9156432777865
 20
145.1734667514229
 30
0.0
 10
150.72194255572
 20
145.145374755761
 30
0.0
 10
150.5284558338523
 20
145.1179070211835
 30
0.0
 10
150.3205155861209
 20
145.0867911671727
 30
0.0
 10
150.0881342125876
 20
145.052914133672
 30
0.0
 10
149.8255387989893
 20
145.0151099492455
 30
0.0
 10
149.5468787288418
 20
144.975140148966
 30
0.0
 10
149.25984466041
 20
144.933509020187
 30
0.0
 10
148.9834303757418
 20
144.8928306668308
 30
0.0
 10
148.7261191251871
 20
144.8535282284317
 30
0.0
 10
148.5029079421542
 20
144.8169238728649
 30
0.0
 10
148.3126864372349
 20
144.7842817577002
 30
0.0
 10
148.1393132080649
 20
144.7531426821927
 30
0.0
 10
147.9669535426069
 20
144.7210494869721
 30
0.0
 10
147.7746293680414
 20
144.6835733101467
 30
0.0
 10
147.4991147591329
 20
144.6270736826628
 30
0.0
 10
147.172212121042
 20
144.5528531291174
 30
0.0
 10
146.9074325430821
 20
144.4836971783409
 30
0.0
 10
146.7445667616421
 20
144.4337570285692
 30
0.0
 10
146.6604620014077
 20
144.4059012926025
 30
0.0
 10
146.579229771919
 20
144.377016660392
 30
0.0
 10
146.4897757986869
 20
144.3424565810055
 30
0.0
 10
146.390898276189
 20
144.2997312303031
 30
0.0
 10
146.2950151518598
 20
144.252150823147
 30
0.0
 10
146.2093086246571
 20
144.2030075652463
 30
0.0
 10
146.1294781753291
 20
144.1502074570957
 30
0.0
 10
146.0531131019318
 20
144.0911972583077
 30
0.0
 10
145.9710039688106
 20
144.0149285963253
 30
0.0
 10
145.8976571117904
 20
143.9282597645645
 30
0.0
 10
145.8416616476713
 20
143.8439155339306
 30
0.0
 10
145.7983897761526
 20
143.7602031401671
 30
0.0
 10
145.7656734151852
 20
143.6778033602756
 30
0.0
 10
145.7381406242454
 20
143.5791615647775
 30
0.0
 10
145.7201894708253
 20
143.452283874932
 30
0.0
 10
145.7250872910199
 20
143.3142225015576
 30
0.0
 10
145.7489424427173
 20
143.1971638449076
 30
0.0
 10
145.7795168868597
 20
143.1061812204896
 30
0.0
 10
145.8150338291883
 20
143.0256654824494
 30
0.0
 10
145.869841511344
 20
142.9305084617762
 30
0.0
 10
145.9552768030121
 20
142.8210082506411
 30
0.0
 10
146.0626158913883
 20
142.7193205668961
 30
0.0
 10
146.1808865963848
 20
142.6343681914674
 30
0.0
 10
146.2958183268749
 20
142.5680603218205
 30
0.0
 10
146.3904553283221
 20
142.5218958826573
 30
0.0
 10
146.4489640881125
 20
142.4963368641817
 30
0.0
 10
146.4730386730126
 20
142.4862663397462
 30
0.0
  0
SPLINE
  5
CF
330
B5
100
AcDbEntity
  8
DV2_0
 62
     7
370
    35
100
AcDbSpline
210
0.0
220
0.0
230
1.0
 70
     8
 71
     3
 72
    47
 73
    43
 74
     0
 42
0.000000001
 43
0.0000000001
 40
0.0
 40
0.0
 40
0.0
 40
0.0
 40
0.0069194080297185
 40
0.0196263041109192
 40
0.0308647496994083
 40
0.0405333170399369
 40
0.0488790025587819
 40
0.0587811054626832
 40
0.0710585342348559
 40
0.084568607530223
 40
0.0995599447955434
 40
0.1137411726664466
 40
0.1256151796006515
 40
0.1359780092199567
 40
0.1464995313444546
 40
0.1572562371931336
 40
0.1696463931546122
 40
0.1798911677184352
 40
0.1915070283232874
 40
0.2023935786682745
 40
0.2109156432890238
 40
0.2176229909959461
 40
0.2244197683025811
 40
0.2314535766233023
 40
0.2390967942698748
 40
0.2484597695279074
 40
0.259439721800084
 40
0.2721167950764779
 40
0.2824800335756592
 40
0.2903198738501701
 40
0.2956969636349742
 40
0.3015867505655653
 40
0.3099703099019204
 40
0.3206477482325261
 40
0.332125984140134
 40
0.3481507282257615
 40
0.3654066177350671
 40
0.3836402299161774
 40
0.3999352914116776
 40
0.4141016917597358
 40
0.4279702872610294
 40
0.4437684240562093
 40
0.4437684240562093
 40
0.4437684240562093
 40
0.4437684240562093
 10
146.9000629586544
 20
148.860750266464
 30
0.0
 10
146.8836228637519
 20
148.8564101917331
 30
0.0
 10
146.8440324676923
 20
148.8459497589701
 30
0.0
 10
146.7825380657778
 20
148.8269583584529
 30
0.0
 10
146.7183080736903
 20
148.8067099808979
 30
0.0
 10
146.6638903181276
 20
148.7884862898611
 30
0.0
 10
146.6128992515035
 20
148.7706428690935
 30
0.0
 10
146.5573276360691
 20
148.7502055695992
 30
0.0
 10
146.4942420650831
 20
148.7254875701502
 30
0.0
 10
146.4245842085689
 20
148.6960006087215
 30
0.0
 10
146.3532669387311
 20
148.6629033546488
 30
0.0
 10
146.2864375011876
 20
148.6285160129636
 30
0.0
 10
146.2278099668147
 20
148.5951756198478
 30
0.0
 10
146.1740246977114
 20
148.5615471203781
 30
0.0
 10
146.1222563283372
 20
148.5258120676457
 30
0.0
 10
146.0683801678554
 20
148.4844810169814
 30
0.0
 10
146.0130060586253
 20
148.4362099389708
 30
0.0
 10
145.957030763083
 20
148.3795926931862
 30
0.0
 10
145.9063256570282
 20
148.3196212454909
 30
0.0
 10
145.8624198985034
 20
148.2574547338712
 30
0.0
 10
145.8285147777593
 20
148.2003120458111
 30
0.0
 10
145.8013416739357
 20
148.1463299643776
 30
0.0
 10
145.7789888762475
 20
148.0936333851526
 30
0.0
 10
145.7590001682036
 20
148.0359169307537
 30
0.0
 10
145.7411638893302
 20
147.9685316895897
 30
0.0
 10
145.7271956607779
 20
147.8872755455301
 30
0.0
 10
145.7211481268773
 20
147.7889171144122
 30
0.0
 10
145.7277973309939
 20
147.6884456246471
 30
0.0
 10
145.7446213122851
 20
147.5997531676395
 30
0.0
 10
145.7636401630613
 20
147.533983502057
 30
0.0
 10
145.7824957384878
 20
147.4822331694966
 30
0.0
 10
145.8036038332708
 20
147.4330012904588
 30
0.0
 10
145.8336334047391
 20
147.3739492370019
 30
0.0
 10
145.8763482744941
 20
147.3053318504586
 30
0.0
 10
145.9336541886471
 20
147.2301067124583
 30
0.0
 10
146.0037943242839
 20
147.1554452071633
 30
0.0
 10
146.0861172475159
 20
147.0843803003318
 30
0.0
 10
146.1699582032512
 20
147.0244239010701
 30
0.0
 10
146.2513969642141
 20
146.9748896446589
 30
0.0
 10
146.3239991505194
 20
146.9359657060632
 30
0.0
 10
146.396655945182
 20
146.9007882635461
 30
0.0
 10
146.4464330674754
 20
146.878980989935
 30
0.0
 10
146.4732259463903
 20
146.8677842091963
 30
0.0
  0
SPLINE
  5
D0
330
B5
100
AcDbEntity
  8
DV2_0
 62
     7
370
    35
100
AcDbSpline
210
0.0
220
0.0
230
1.0
 70
     8
 71
     3
 72
    54
 73
    50
 74
     0
 42
0.000000001
 43
0.0000000001
 40
0.0
 40
0.0
 40
0.0
 40
0.0
 40
0.0098531835807841
 40
0.0207231996122552
 40
0.0322538881131834
 40
0.0435484830977917
 40
0.0548048190498843
 40
0.0668992065372916
 40
0.0806011300377351
 40
0.0968706314307318
 40
0.11528707998014
 40
0.1333216195801849
 40
0.1528523870904882
 40
0.1713303415378736
 40
0.1874928953450352
 40
0.2013217242453742
 40
0.2139325926640487
 40
0.2267911128420408
 40
0.2413831071003495
 40
0.2605895553584092
 40
0.2969040216615371
 40
0.3313314064140879
 40
0.3432161439799749
 40
0.3530532008275695
 40
0.361834512822067
 40
0.3731813156784968
 40
0.3869338033864473
 40
0.4011847166900501
 40
0.4126165026409778
 40
0.4229031196297756
 40
0.4337831160806188
 40
0.444889734947169
 40
0.4559863295970766
 40
0.4656354215733089
 40
0.4726513972032594
 40
0.4794329602081916
 40
0.4868311654856781
 40
0.4965901985273112
 40
0.5084922974774218
 40
0.5180456768890045
 40
0.5243062922193927
 40
0.5306197075044301
 40
0.5400947880573757
 40
0.5520441545582859
 40
0.5684014957193677
 40
0.5859335675853591
 40
0.601070754148613
 40
0.6150886680488429
 40
0.6246733256498327
 40
0.6246733256498327
 40
0.6246733256498327
 40
0.6246733256498327
 10
151.5037281454906
 20
134.996870708212
 30
0.0
 10
151.5568355628288
 20
135.0048831285178
 30
0.0
 10
151.6542399672284
 20
135.0209336208156
 30
0.0
 10
151.8442341507356
 20
135.0507157973299
 30
0.0
 10
152.0311286262922
 20
135.0751902004878
 30
0.0
 10
152.2248293483586
 20
135.1032821961497
 30
0.0
 10
152.4183160702264
 20
135.1307499307273
 30
0.0
 10
152.6262563179577
 20
135.1618657847381
 30
0.0
 10
152.858637691491
 20
135.1957428182386
 30
0.0
 10
153.1212331050893
 20
135.2335470026653
 30
0.0
 10
153.399893175237
 20
135.2735168029448
 30
0.0
 10
153.6869272436687
 20
135.3151479317237
 30
0.0
 10
153.963341528337
 20
135.3558262850801
 30
0.0
 10
154.2206527788915
 20
135.3951287234788
 30
0.0
 10
154.4438639619247
 20
135.4317330790459
 30
0.0
 10
154.634085466844
 20
135.4643751942106
 30
0.0
 10
154.8074586960139
 20
135.4955142697179
 30
0.0
 10
154.979818361472
 20
135.5276074649385
 30
0.0
 10
155.1721425360376
 20
135.5650836417641
 30
0.0
 10
155.4476571449461
 20
135.6215832692477
 30
0.0
 10
155.7745597830371
 20
135.6958038227936
 30
0.0
 10
156.039339360997
 20
135.7649597735696
 30
0.0
 10
156.202205142437
 20
135.8148999233416
 30
0.0
 10
156.2863099026715
 20
135.8427556593082
 30
0.0
 10
156.3675421321603
 20
135.8716402915187
 30
0.0
 10
156.4569961053924
 20
135.9062003709054
 30
0.0
 10
156.5558736278905
 20
135.9489257216078
 30
0.0
 10
156.6517567522197
 20
135.9965061287638
 30
0.0
 10
156.7374632794225
 20
136.0456493866647
 30
0.0
 10
156.8172937287505
 20
136.0984494948151
 30
0.0
 10
156.8936588021478
 20
136.1574596936033
 30
0.0
 10
156.975767935269
 20
136.2337283555855
 30
0.0
 10
157.0491147922891
 20
136.3203971873462
 30
0.0
 10
157.1051102564081
 20
136.40474141798
 30
0.0
 10
157.1483821279267
 20
136.4884538117433
 30
0.0
 10
157.1810984888942
 20
136.5708535916347
 30
0.0
 10
157.2086312798342
 20
136.6694953871331
 30
0.0
 10
157.2265824332543
 20
136.7963730769787
 30
0.0
 10
157.2216846130597
 20
136.9344344503533
 30
0.0
 10
157.1978294613623
 20
137.0514931070032
 30
0.0
 10
157.16725501722
 20
137.1424757314213
 30
0.0
 10
157.1317380748913
 20
137.2229914694614
 30
0.0
 10
157.0769303927357
 20
137.3181484901348
 30
0.0
 10
156.9914951010675
 20
137.4276487012695
 30
0.0
 10
156.8841560126916
 20
137.5293363850145
 30
0.0
 10
156.7658853076952
 20
137.6142887604432
 30
0.0
 10
156.6509535772051
 20
137.6805966300901
 30
0.0
 10
156.5563165757578
 20
137.7267610692533
 30
0.0
 10
156.4978078159672
 20
137.7523200877291
 30
0.0
 10
156.4737332310669
 20
137.7623906121648
 30
0.0
  0
SPLINE
  5
D1
330
B5
100
AcDbEntity
  8
DV2_0
 62
     7
370
    35
100
AcDbSpline
210
0.0
220
0.0
230
1.0
 70
     8
 71
     3
 72
    54
 73
    50
 74
     0
 42
0.000000001
 43
0.0000000001
 40
0.0
 40
0.0
 40
0.0
 40
0.0
 40
0.0098531835807845
 40
0.0207231996122562
 40
0.0322538881131838
 40
0.0435484830977923
 40
0.0548048190498851
 40
0.0668992065372923
 40
0.0806011300377345
 40
0.0968706314307313
 40
0.1152870799801401
 40
0.1333216195801855
 40
0.1528523870904882
 40
0.1713303415378738
 40
0.1874928953450349
 40
0.2013217242453745
 40
0.213932592664049
 40
0.2267911128420408
 40
0.2413831071003496
 40
0.2605895553584094
 40
0.2969040216615375
 40
0.3313314064140886
 40
0.3432161439799753
 40
0.3530532008275693
 40
0.3618345128220669
 40
0.3731813156784969
 40
0.3869338033864482
 40
0.4011847166900496
 40
0.4126165026409788
 40
0.4229031196297761
 40
0.4337831160806195
 40
0.4448897349471687
 40
0.4559863295970756
 40
0.4656354215733096
 40
0.472651397203259
 40
0.479432960208191
 40
0.486831165485678
 40
0.4965901985273112
 40
0.5084922974774223
 40
0.5180456768890052
 40
0.5243062922193936
 40
0.5306197075044301
 40
0.5400947880573752
 40
0.5520441545582864
 40
0.5684014957193674
 40
0.5859335675853585
 40
0.6010707541486126
 40
0.6150886680488422
 40
0.624673325649832
 40
0.624673325649832
 40
0.624673325649832
 40
0.624673325649832
 10
151.5037281454905
 20
139.3784665526816
 30
0.0
 10
151.5568355628288
 20
139.3864789729874
 30
0.0
 10
151.6542399672285
 20
139.4025294652852
 30
0.0
 10
151.8442341507357
 20
139.4323116417995
 30
0.0
 10
152.0311286262922
 20
139.4567860449574
 30
0.0
 10
152.2248293483587
 20
139.4848780406193
 30
0.0
 10
152.4183160702264
 20
139.5123457751968
 30
0.0
 10
152.6262563179577
 20
139.5434616292076
 30
0.0
 10
152.858637691491
 20
139.5773386627082
 30
0.0
 10
153.1212331050893
 20
139.6151428471348
 30
0.0
 10
153.3998931752369
 20
139.6551126474143
 30
0.0
 10
153.6869272436686
 20
139.6967437761933
 30
0.0
 10
153.963341528337
 20
139.7374221295496
 30
0.0
 10
154.2206527788916
 20
139.7767245679485
 30
0.0
 10
154.4438639619246
 20
139.8133289235153
 30
0.0
 10
154.634085466844
 20
139.8459710386804
 30
0.0
 10
154.807458696014
 20
139.8771101141875
 30
0.0
 10
154.9798183614721
 20
139.9092033094082
 30
0.0
 10
155.1721425360375
 20
139.9466794862336
 30
0.0
 10
155.447657144946
 20
140.0031791137174
 30
0.0
 10
155.7745597830372
 20
140.077399667263
 30
0.0
 10
156.039339360997
 20
140.1465556180393
 30
0.0
 10
156.202205142437
 20
140.196495767811
 30
0.0
 10
156.2863099026715
 20
140.2243515037779
 30
0.0
 10
156.3675421321602
 20
140.2532361359881
 30
0.0
 10
156.4569961053924
 20
140.287796215375
 30
0.0
 10
156.5558736278906
 20
140.3305215660774
 30
0.0
 10
156.6517567522197
 20
140.3781019732334
 30
0.0
 10
156.7374632794225
 20
140.4272452311343
 30
0.0
 10
156.8172937287505
 20
140.4800453392847
 30
0.0
 10
156.8936588021478
 20
140.5390555380728
 30
0.0
 10
156.975767935269
 20
140.6153242000551
 30
0.0
 10
157.0491147922891
 20
140.7019930318157
 30
0.0
 10
157.1051102564081
 20
140.7863372624496
 30
0.0
 10
157.1483821279268
 20
140.8700496562128
 30
0.0
 10
157.1810984888942
 20
140.9524494361043
 30
0.0
 10
157.2086312798342
 20
141.0510912316026
 30
0.0
 10
157.2265824332543
 20
141.1779689214483
 30
0.0
 10
157.2216846130597
 20
141.3160302948229
 30
0.0
 10
157.1978294613623
 20
141.4330889514727
 30
0.0
 10
157.1672550172199
 20
141.5240715758909
 30
0.0
 10
157.1317380748913
 20
141.6045873139309
 30
0.0
 10
157.0769303927356
 20
141.6997443346042
 30
0.0
 10
156.9914951010676
 20
141.8092445457392
 30
0.0
 10
156.8841560126916
 20
141.910932229484
 30
0.0
 10
156.7658853076952
 20
141.9958846049127
 30
0.0
 10
156.6509535772052
 20
142.0621924745597
 30
0.0
 10
156.5563165757578
 20
142.108356913723
 30
0.0
 10
156.4978078159671
 20
142.1339159321986
 30
0.0
 10
156.4737332310669
 20
142.1439864566343
 30
0.0
  0
SPLINE
  5
D2
330
B5
100
AcDbEntity
  8
DV2_0
 62
     7
370
    35
100
AcDbSpline
210
0.0
220
0.0
230
1.0
 70
     8
 71
     3
 72
    54
 73
    50
 74
     0
 42
0.000000001
 43
0.0000000001
 40
0.0
 40
0.0
 40
0.0
 40
0.0
 40
0.0098531835807846
 40
0.0207231996122564
 40
0.0322538881131839
 40
0.0435484830977918
 40
0.0548048190498854
 40
0.0668992065372924
 40
0.0806011300377348
 40
0.0968706314307315
 40
0.1152870799801407
 40
0.1333216195801857
 40
0.1528523870904878
 40
0.1713303415378747
 40
0.1874928953450351
 40
0.2013217242453746
 40
0.2139325926640493
 40
0.2267911128420412
 40
0.24138310710035
 40
0.2605895553584098
 40
0.2969040216615378
 40
0.3313314064140888
 40
0.3432161439799749
 40
0.3530532008275697
 40
0.3618345128220684
 40
0.3731813156784972
 40
0.3869338033864486
 40
0.401184716690051
 40
0.412616502640978
 40
0.4229031196297769
 40
0.4337831160806198
 40
0.4448897349471707
 40
0.4559863295970768
 40
0.4656354215733096
 40
0.4726513972032593
 40
0.479432960208191
 40
0.4868311654856797
 40
0.4965901985273117
 40
0.5084922974774237
 40
0.5180456768890053
 40
0.5243062922193938
 40
0.5306197075044303
 40
0.5400947880573762
 40
0.5520441545582864
 40
0.5684014957193679
 40
0.585933567585359
 40
0.6010707541486129
 40
0.6150886680488431
 40
0.624673325649833
 40
0.624673325649833
 40
0.624673325649833
 40
0.624673325649833
 10
151.5037281454905
 20
143.7600623971511
 30
0.0
 10
151.5568355628288
 20
143.7680748174569
 30
0.0
 10
151.6542399672285
 20
143.7841253097549
 30
0.0
 10
151.8442341507356
 20
143.813907486269
 30
0.0
 10
152.0311286262922
 20
143.838381889427
 30
0.0
 10
152.2248293483586
 20
143.8664738850888
 30
0.0
 10
152.4183160702264
 20
143.8939416196665
 30
0.0
 10
152.6262563179578
 20
143.9250574736772
 30
0.0
 10
152.858637691491
 20
143.9589345071778
 30
0.0
 10
153.1212331050893
 20
143.9967386916045
 30
0.0
 10
153.3998931752369
 20
144.0367084918839
 30
0.0
 10
153.6869272436687
 20
144.0783396206629
 30
0.0
 10
153.963341528337
 20
144.1190179740192
 30
0.0
 10
154.2206527788917
 20
144.158320412418
 30
0.0
 10
154.4438639619246
 20
144.194924767985
 30
0.0
 10
154.634085466844
 20
144.2275668831498
 30
0.0
 10
154.807458696014
 20
144.2587059586571
 30
0.0
 10
154.9798183614721
 20
144.2907991538777
 30
0.0
 10
155.1721425360376
 20
144.3282753307032
 30
0.0
 10
155.4476571449461
 20
144.3847749581871
 30
0.0
 10
155.774559783037
 20
144.4589955117324
 30
0.0
 10
156.0393393609972
 20
144.5281514625091
 30
0.0
 10
156.2022051424369
 20
144.5780916122806
 30
0.0
 10
156.2863099026715
 20
144.6059473482474
 30
0.0
 10
156.3675421321603
 20
144.6348319804579
 30
0.0
 10
156.4569961053924
 20
144.6693920598445
 30
0.0
 10
156.5558736278905
 20
144.7121174105469
 30
0.0
 10
156.6517567522197
 20
144.759697817703
 30
0.0
 10
156.7374632794225
 20
144.8088410756037
 30
0.0
 10
156.8172937287505
 20
144.8616411837542
 30
0.0
 10
156.8936588021478
 20
144.9206513825425
 30
0.0
 10
156.9757679352691
 20
144.9969200445247
 30
0.0
 10
157.049114792289
 20
145.0835888762854
 30
0.0
 10
157.1051102564082
 20
145.167933106919
 30
0.0
 10
157.1483821279267
 20
145.2516455006826
 30
0.0
 10
157.1810984888942
 20
145.3340452805738
 30
0.0
 10
157.2086312798342
 20
145.4326870760723
 30
0.0
 10
157.2265824332543
 20
145.5595647659179
 30
0.0
 10
157.2216846130596
 20
145.6976261392924
 30
0.0
 10
157.1978294613623
 20
145.8146847959423
 30
0.0
 10
157.16725501722
 20
145.9056674203605
 30
0.0
 10
157.1317380748912
 20
145.9861831584005
 30
0.0
 10
157.0769303927356
 20
146.0813401790738
 30
0.0
 10
156.9914951010675
 20
146.1908403902087
 30
0.0
 10
156.8841560126916
 20
146.2925280739537
 30
0.0
 10
156.7658853076951
 20
146.3774804493822
 30
0.0
 10
156.6509535772052
 20
146.4437883190293
 30
0.0
 10
156.5563165757578
 20
146.4899527581925
 30
0.0
 10
156.4978078159672
 20
146.5155117766683
 30
0.0
 10
156.4737332310669
 20
146.5255823011039
 30
0.0
  0
SPLINE
  5
D3
330
B5
100
AcDbEntity
  8
DV2_0
 62
     7
370
    35
100
AcDbSpline
210
0.0
220
0.0
230
1.0
 70
     8
 71
     3
 72
    54
 73
    50
 74
     0
 42
0.000000001
 43
0.0000000001
 40
0.0
 40
0.0
 40
0.0
 40
0.0
 40
0.0098531835807854
 40
0.0207231996122555
 40
0.0322538881131841
 40
0.043548483097792
 40
0.0548048190498849
 40
0.0668992065372923
 40
0.0806011300377348
 40
0.096870631430732
 40
0.1152870799801406
 40
0.1333216195801858
 40
0.1528523870904884
 40
0.1713303415378745
 40
0.187492895345036
 40
0.2013217242453751
 40
0.2139325926640487
 40
0.226791112842041
 40
0.2413831071003499
 40
0.2605895553584096
 40
0.2969040216615373
 40
0.3313314064140888
 40
0.343216143979975
 40
0.3530532008275697
 40
0.3618345128220672
 40
0.3731813156784977
 40
0.3869338033864475
 40
0.4011847166900505
 40
0.4126165026409782
 40
0.4229031196297754
 40
0.4337831160806194
 40
0.4448897349471698
 40
0.4559863295970771
 40
0.4656354215733094
 40
0.4726513972032599
 40
0.4794329602081912
 40
0.4868311654856787
 40
0.4965901985273116
 40
0.5084922974774213
 40
0.5180456768890047
 40
0.5243062922193937
 40
0.5306197075044295
 40
0.5400947880573754
 40
0.5520441545582861
 40
0.5684014957193679
 40
0.5859335675853586
 40
0.6010707541486133
 40
0.6150886680488432
 40
0.6246733256498331
 40
0.6246733256498331
 40
0.6246733256498331
 40
0.6246733256498331
 10
151.5037281454905
 20
130.6152748637424
 30
0.0
 10
151.5568355628288
 20
130.6232872840482
 30
0.0
 10
151.6542399672284
 20
130.6393377763463
 30
0.0
 10
151.8442341507357
 20
130.6691199528602
 30
0.0
 10
152.0311286262921
 20
130.6935943560184
 30
0.0
 10
152.2248293483587
 20
130.7216863516801
 30
0.0
 10
152.4183160702263
 20
130.7491540862577
 30
0.0
 10
152.6262563179579
 20
130.7802699402687
 30
0.0
 10
152.8586376914909
 20
130.814146973769
 30
0.0
 10
153.1212331050893
 20
130.8519511581958
 30
0.0
 10
153.3998931752369
 20
130.8919209584751
 30
0.0
 10
153.6869272436687
 20
130.9335520872542
 30
0.0
 10
153.963341528337
 20
130.9742304406104
 30
0.0
 10
154.2206527788916
 20
131.0135328790094
 30
0.0
 10
154.4438639619247
 20
131.0501372345763
 30
0.0
 10
154.6340854668439
 20
131.082779349741
 30
0.0
 10
154.807458696014
 20
131.1139184252486
 30
0.0
 10
154.9798183614721
 20
131.1460116204689
 30
0.0
 10
155.1721425360375
 20
131.1834877972946
 30
0.0
 10
155.4476571449461
 20
131.2399874247782
 30
0.0
 10
155.7745597830371
 20
131.3142079783237
 30
0.0
 10
156.0393393609971
 20
131.3833639291003
 30
0.0
 10
156.202205142437
 20
131.4333040788719
 30
0.0
 10
156.2863099026715
 20
131.4611598148387
 30
0.0
 10
156.3675421321603
 20
131.4900444470492
 30
0.0
 10
156.4569961053924
 20
131.5246045264358
 30
0.0
 10
156.5558736278906
 20
131.5673298771384
 30
0.0
 10
156.6517567522197
 20
131.6149102842941
 30
0.0
 10
156.7374632794225
 20
131.6640535421951
 30
0.0
 10
156.8172937287505
 20
131.7168536503455
 30
0.0
 10
156.8936588021478
 20
131.7758638491337
 30
0.0
 10
156.9757679352691
 20
131.8521325111161
 30
0.0
 10
157.049114792289
 20
131.9388013428766
 30
0.0
 10
157.1051102564081
 20
132.0231455735105
 30
0.0
 10
157.1483821279268
 20
132.1068579672737
 30
0.0
 10
157.1810984888942
 20
132.189257747165
 30
0.0
 10
157.2086312798342
 20
132.2878995426635
 30
0.0
 10
157.2265824332544
 20
132.4147772325092
 30
0.0
 10
157.2216846130597
 20
132.5528386058837
 30
0.0
 10
157.1978294613623
 20
132.6698972625337
 30
0.0
 10
157.16725501722
 20
132.7608798869517
 30
0.0
 10
157.1317380748912
 20
132.8413956249918
 30
0.0
 10
157.0769303927356
 20
132.9365526456651
 30
0.0
 10
156.9914951010676
 20
133.0460528568001
 30
0.0
 10
156.8841560126916
 20
133.1477405405448
 30
0.0
 10
156.7658853076952
 20
133.2326929159737
 30
0.0
 10
156.6509535772052
 20
133.2990007856205
 30
0.0
 10
156.5563165757578
 20
133.3451652247838
 30
0.0
 10
156.4978078159672
 20
133.3707242432596
 30
0.0
 10
156.473733231067
 20
133.3807947676952
 30
0.0
  0
SPLINE
  5
D4
330
B5
100
AcDbEntity
  8
DV2_0
 62
     7
370
    35
100
AcDbSpline
210
0.0
220
0.0
230
1.0
 70
     8
 71
     3
 72
    54
 73
    50
 74
     0
 42
0.000000001
 43
0.0000000001
 40
0.0
 40
0.0
 40
0.0
 40
0.0
 40
0.0098531835807577
 40
0.0207231996122152
 40
0.0322538881131448
 40
0.0435484830977536
 40
0.0548048190498488
 40
0.0668992065372582
 40
0.0806011300377033
 40
0.0968706314307014
 40
0.1152870799801098
 40
0.1333216195801529
 40
0.1528523870904552
 40
0.1713303415378392
 40
0.1874928953450003
 40
0.2013217242453401
 40
0.2139325926640143
 40
0.2267911128420069
 40
0.241383107100316
 40
0.2605895553583763
 40
0.2969040216615054
 40
0.3313314064140583
 40
0.3432161439799446
 40
0.3530532008275407
 40
0.3618345128220345
 40
0.3731813156784482
 40
0.3869338033863785
 40
0.4011847166899717
 40
0.4126165026408957
 40
0.422903119629692
 40
0.4337831160805362
 40
0.4448897349470869
 40
0.4559863295969956
 40
0.4656354215732481
 40
0.4726513972032335
 40
0.4794329602081626
 40
0.4868311654856148
 40
0.4965901985272316
 40
0.5084922974773426
 40
0.5180456768889257
 40
0.5243062922193124
 40
0.5306197075043486
 40
0.5400947880572938
 40
0.5520441545582245
 40
0.5684014957193425
 40
0.5859335675853403
 40
0.6010707541485933
 40
0.615088668048822
 40
0.6246733256497564
 40
0.6246733256497564
 40
0.6246733256497564
 40
0.6246733256497564
 10
151.4430437585874
 20
136.4885945547595
 30
0.0
 10
151.3899363412494
 20
136.4805821344538
 30
0.0
 10
151.2925319368499
 20
136.4645316421558
 30
0.0
 10
151.102537753343
 20
136.4347494656418
 30
0.0
 10
150.9156432777864
 20
136.4102750624838
 30
0.0
 10
150.7219425557201
 20
136.3821830668218
 30
0.0
 10
150.5284558338523
 20
136.3547153322444
 30
0.0
 10
150.3205155861208
 20
136.3235994782336
 30
0.0
 10
150.0881342125876
 20
136.2897224447329
 30
0.0
 10
149.8255387989893
 20
136.2519182603064
 30
0.0
 10
149.5468787288417
 20
136.2119484600268
 30
0.0
 10
149.2598446604101
 20
136.1703173312479
 30
0.0
 10
148.9834303757418
 20
136.1296389778916
 30
0.0
 10
148.7261191251871
 20
136.0903365394926
 30
0.0
 10
148.5029079421543
 20
136.0537321839259
 30
0.0
 10
148.3126864372349
 20
136.0210900687609
 30
0.0
 10
148.1393132080649
 20
135.9899509932535
 30
0.0
 10
147.9669535426069
 20
135.9578577980331
 30
0.0
 10
147.7746293680414
 20
135.9203816212074
 30
0.0
 10
147.4991147591329
 20
135.8638819937238
 30
0.0
 10
147.172212121042
 20
135.7896614401783
 30
0.0
 10
146.9074325430821
 20
135.7205054894018
 30
0.0
 10
146.7445667616422
 20
135.6705653396301
 30
0.0
 10
146.6604620014077
 20
135.6427096036633
 30
0.0
 10
146.579229771919
 20
135.6138249714529
 30
0.0
 10
146.489775798687
 20
135.5792648920662
 30
0.0
 10
146.3908982761889
 20
135.5365395413637
 30
0.0
 10
146.2950151518599
 20
135.488959134208
 30
0.0
 10
146.2093086246571
 20
135.439815876307
 30
0.0
 10
146.1294781753291
 20
135.3870157681567
 30
0.0
 10
146.0531131019318
 20
135.3280055693684
 30
0.0
 10
145.9710039688105
 20
135.2517369073863
 30
0.0
 10
145.8976571117905
 20
135.1650680756253
 30
0.0
 10
145.8416616476713
 20
135.0807238449915
 30
0.0
 10
145.7983897761526
 20
134.997011451228
 30
0.0
 10
145.7656734151852
 20
134.9146116713365
 30
0.0
 10
145.7381406242454
 20
134.8159698758384
 30
0.0
 10
145.7201894708252
 20
134.6890921859929
 30
0.0
 10
145.7250872910199
 20
134.5510308126184
 30
0.0
 10
145.7489424427173
 20
134.4339721559686
 30
0.0
 10
145.7795168868597
 20
134.3429895315504
 30
0.0
 10
145.8150338291883
 20
134.2624737935103
 30
0.0
 10
145.869841511344
 20
134.167316772837
 30
0.0
 10
145.9552768030122
 20
134.057816561702
 30
0.0
 10
146.0626158913882
 20
133.956128877957
 30
0.0
 10
146.1808865963849
 20
133.8711765025283
 30
0.0
 10
146.2958183268748
 20
133.8048686328814
 30
0.0
 10
146.3904553283221
 20
133.7587041937181
 30
0.0
 10
146.4489640881126
 20
133.7331451752425
 30
0.0
 10
146.4730386730126
 20
133.723074650807
 30
0.0
  0
LINE
  5
D5
330
B5
100
AcDbEntity
  8
DV2_0
 62
     7
370
    35
100
AcDbLine
 10
145.4733859520398
 20
149.8611367870163
 30
0.0
 11
145.4733859520398
 21
148.8611367870163
 31
0.0
  0
LINE
  5
D6
330
B5
100
AcDbEntity
  8
DV2_0
 62
     7
370
    35
100
AcDbLine
 10
157.4733859520398
 20
148.8611367870163
 30
0.0
 11
157.4733859520398
 21
149.8611367870163
 31
0.0
  0
LINE
  5
D7
330
B5
100
AcDbEntity
  8
DV2_0
 62
     7
370
    35
100
AcDbLine
 10
156.4733859520398
 20
146.3513232815424
 30
0.0
 11
156.4733859520398
 21
148.8611367870163
 31
0.0
  0
LINE
  5
D8
330
B5
100
AcDbEntity
  8
DV2_0
 62
     7
370
    35
100
AcDbLine
 10
156.4733859520398
 20
141.9697274370728
 30
0.0
 11
156.4733859520398
 21
144.6771938063431
 31
0.0
  0
LINE
  5
D9
330
B5
100
AcDbEntity
  8
DV2_0
 62
     7
370
    35
100
AcDbLine
 10
156.4733859520398
 20
137.5881315926032
 30
0.0
 11
156.4733859520398
 21
140.2955979618736
 31
0.0
  0
LINE
  5
DA
330
B5
100
AcDbEntity
  8
DV2_0
 62
     7
370
    35
100
AcDbLine
 10
156.4733859520398
 20
133.2065357481337
 30
0.0
 11
156.4733859520398
 21
135.914002117404
 31
0.0
  0
LINE
  5
DB
330
B5
100
AcDbEntity
  8
DV2_0
 62
     7
370
    35
100
AcDbLine
 10
156.4733859520398
 20
129.8611367870163
 30
0.0
 11
156.4733859520398
 21
131.5324062729344
 31
0.0
  0
LINE
  5
DC
330
B5
100
AcDbEntity
  8
DV2_0
 62
     7
370
    35
100
AcDbLine
 10
146.4733859520398
 20
133.8973336703685
 30
0.0
 11
146.4733859520398
 21
129.8611367870163
 31
0.0
  0
LINE
  5
DD
330
B5
100
AcDbEntity
  8
DV2_0
 62
     7
370
    35
100
AcDbLine
 10
146.4733859520398
 20
138.2789295148381
 30
0.0
 11
146.4733859520398
 21
135.5714631455678
 31
0.0
  0
LINE
  5
DE
330
B5
100
AcDbEntity
  8
DV2_0
 62
     7
370
    35
100
AcDbLine
 10
146.4733859520398
 20
142.6605253593076
 30
0.0
 11
146.4733859520398
 21
139.9530589900373
 31
0.0
  0
LINE
  5
DF
330
B5
100
AcDbEntity
  8
DV2_0
 62
     7
370
    35
100
AcDbLine
 10
146.4733859520398
 20
147.0421212037772
 30
0.0
 11
146.4733859520398
 21
144.3346548345069
 31
0.0
  0
LINE
  5
E0
330
B5
100
AcDbEntity
  8
DV2_0
 62
     7
370
    35
100
AcDbLine
 10
146.4733859520398
 20
148.8611367870163
 30
0.0
 11
146.4733859520398
 21
148.7162506789765
 31
0.0
  0
ARC
  5
E1
330
B5
100
AcDbEntity
  8
DV2_0
 62
     7
370
    35
100
AcDbCircle
 10
157.4733859520398
 20
150.8611367870163
 30
0.0
 40
1.000000000000001
100
AcDbArc
 50
180.0
 51
270.0
  0
ARC
  5
E2
330
B5
100
AcDbEntity
  8
DV2_0
 62
     7
370
    35
100
AcDbCircle
 10
145.4733859520398
 20
150.8611367870163
 30
0.0
 40
1.000000000000001
100
AcDbArc
 50
270.0
 51
0.0
  0
LINE
  5
E3
330
B5
100
AcDbEntity
  8
DV2_0
 62
     7
370
    35
100
AcDbLine
 10
156.3033859520398
 20
217.4742063211973
 30
0.0
 11
146.6433859520398
 21
217.4742063211973
 31
0.0
  0
LINE
  5
E4
330
B5
100
AcDbEntity
  8
DV2_0
 62
     7
370
    25
100
AcDbLine
 10
156.4733859520398
 20
229.4611367870162
 30
0.0
 11
146.4733859520398
 21
229.4611367870162
 31
0.0
  0
LINE
  5
E5
330
B5
100
AcDbEntity
  8
DV2_0
 62
     7
370
    25
100
AcDbLine
 10
156.4733859520398
 20
217.8718242282387
 30
0.0
 11
146.4733859520399
 21
217.8718242282387
 31
0.0
  0
LINE
  5
E6
330
B5
100
AcDbEntity
  8
DV2_0
 62
     7
370
    35
100
AcDbLine
 10
156.3033859520398
 20
214.974341422815
 30
0.0
 11
156.3033859520398
 21
217.4742063211973
 31
0.0
  0
LINE
  5
E7
330
B5
100
AcDbEntity
  8
DV2_0
 62
     7
370
    35
100
AcDbLine
 10
146.6433859520398
 20
217.4742063211973
 30
0.0
 11
146.6433859520398
 21
214.974341422815
 31
0.0
  0
ARC
  5
E8
330
B5
100
AcDbEntity
  8
DV2_0
 62
     7
370
    35
100
AcDbCircle
 10
156.0733859520398
 20
229.4611367870162
 30
0.0
 40
0.4000000000000004
100
AcDbArc
 50
0.0
 51
90.0
  0
ARC
  5
E9
330
B5
100
AcDbEntity
  8
DV2_0
 62
     7
370
    35
100
AcDbCircle
 10
146.8733859520398
 20
229.4611367870162
 30
0.0
 40
0.4000000000000004
100
AcDbArc
 50
90.0
 51
180.0
  0
LINE
  5
EA
330
B5
100
AcDbEntity
  8
DV2_0
 62
     7
370
    35
100
AcDbLine
 10
146.4733859520398
 20
229.4611367870162
 30
0.0
 11
146.4733859520398
 21
217.8718242282387
 31
0.0
  0
LINE
  5
EB
330
B5
100
AcDbEntity
  8
DV2_0
 62
     7
370
    35
100
AcDbLine
 10
156.4733859520398
 20
217.8718242282387
 30
0.0
 11
156.4733859520398
 21
229.4611367870162
 31
0.0
  0
ARC
  5
EC
330
B5
100
AcDbEntity
  8
DV2_0
 62
     7
370
    35
100
AcDbCircle
 10
155.9233859520398
 20
217.8718242282387
 30
0.0
 40
0.550000000000001
100
AcDbArc
 50
313.7021144373598
 51
0.0
  0
ARC
  5
ED
330
B5
100
AcDbEntity
  8
DV2_0
 62
     7
370
    35
100
AcDbCircle
 10
147.0233859520398
 20
217.8718242282387
 30
0.0
 40
0.5500000000000005
100
AcDbArc
 50
180.0
 51
226.2978855626465
  0
LINE
  5
EE
330
B5
100
AcDbEntity
  8
DV2_0
 62
     7
370
    35
100
AcDbLine
 10
156.4233859520398
 20
229.8611367870163
 30
0.0
 11
146.5233859520399
 21
229.8611367870163
 31
0.0
  0
LINE
  5
EF
330
B5
100
AcDbEntity
  8
DV2_0
 62
     7
370
    35
100
AcDbLine
 10
156.4733859520398
 20
232.3611367870163
 30
0.0
 11
146.4733859520399
 21
232.3611367870163
 31
0.0
  0
LINE
  5
F0
330
B5
100
AcDbEntity
  8
DV2_0
 62
     7
370
    35
100
AcDbLine
 10
156.4733859520398
 20
233.3611367870163
 30
0.0
 11
146.4733859520399
 21
233.3611367870163
 31
0.0
  0
LINE
  5
F1
330
B5
100
AcDbEntity
  8
DV2_0
 62
     7
370
    35
100
AcDbLine
 10
155.9733859520398
 20
233.8611367870163
 30
0.0
 11
146.9733859520399
 21
233.8611367870163
 31
0.0
  0
LINE
  5
F2
330
B5
100
AcDbEntity
  8
DV2_0
 62
     7
370
    35
100
AcDbLine
 10
156.4233859520399
 20
229.8611367870163
 30
0.0
 11
156.4233859520399
 21
232.3611367870163
 31
0.0
  0
LINE
  5
F3
330
B5
100
AcDbEntity
  8
DV2_0
 62
     7
370
    35
100
AcDbLine
 10
146.5233859520399
 20
232.3611367870163
 30
0.0
 11
146.5233859520399
 21
229.8611367870163
 31
0.0
  0
LINE
  5
F4
330
B5
100
AcDbEntity
  8
DV2_0
 62
     7
370
    35
100
AcDbLine
 10
156.4733859520399
 20
232.3611367870163
 30
0.0
 11
156.4733859520399
 21
233.3611367870163
 31
0.0
  0
LINE
  5
F5
330
B5
100
AcDbEntity
  8
DV2_0
 62
     7
370
    35
100
AcDbLine
 10
146.4733859520399
 20
233.3611367870163
 30
0.0
 11
146.4733859520399
 21
232.3611367870163
 31
0.0
  0
LINE
  5
F6
330
B5
100
AcDbEntity
  8
DV2_0
 62
     7
370
    35
100
AcDbLine
 10
156.4733859520399
 20
233.3611367870163
 30
0.0
 11
155.9733859520399
 21
233.8611367870163
 31
0.0
  0
LINE
  5
F7
330
B5
100
AcDbEntity
  8
DV2_0
 62
     7
370
    35
100
AcDbLine
 10
146.9733859520399
 20
233.8611367870163
 30
0.0
 11
146.4733859520399
 21
233.3611367870163
 31
0.0
  0
ENDBLK
  5
F9
330
B5
100
AcDbEntity
  8
0
100
AcDbBlockEnd
  0
BLOCK
  5
100
330
FA
100
AcDbEntity
  8
0
100
AcDbBlockBegin
  2
SE2
 70
     0
 10
0.0
 20
0.0
 30
0.0
  3
SE2
  1

  0
CIRCLE
  5
FD
330
FA
100
AcDbEntity
  8
DV3_0
 62
     7
370
    35
100
AcDbCircle
 10
64.63605649602819
 20
75.21710307991744
 30
0.0
 40
6.0
  0
CIRCLE
  5
FE
330
FA
100
AcDbEntity
  8
DV3_0
 62
     7
370
    35
100
AcDbCircle
 10
64.63605649602816
 20
75.21710307991736
 30
0.0
 40
5.000000000000001
  0
CIRCLE
  5
FF
330
FA
100
AcDbEntity
  8
DV3_0
 62
     7
370
    35
100
AcDbCircle
 10
64.63605649602816
 20
75.21710307991736
 30
0.0
 40
4.500000000000001
  0
ENDBLK
  5
101
330
FA
100
AcDbEntity
  8
0
100
AcDbBlockEnd
  0
BLOCK
  5
13F
330
102
100
AcDbEntity
  8
0
100
AcDbBlockBegin
  2
SE3
 70
     0
 10
0.0
 20
0.0
 30
0.0
  3
SE3
  1

  0
ELLIPSE
  5
105
330
102
100
AcDbEntity
  8
DV4_0
 62
     7
370
    25
100
AcDbEllipse
 10
151.9952259444031
 20
89.98981267706121
 30
0.0
 11
4.999999999999995
 21
2.255140518769849E-15
 31
0.0
210
0.0
220
0.0
230
1.0
 40
0.5773502691896258
 41
3.1415422945517
 42
6.282774666076083
  0
ELLIPSE
  5
106
330
102
100
AcDbEntity
  8
DV4_0
 62
     7
370
    35
100
AcDbEllipse
 10
151.9952259444031
 20
37.96625396122687
 30
0.0
 11
4.999999999999999
 21
5.204170427930422E-16
 31
0.0
210
0.0
220
0.0
230
1.0
 40
0.5773502691896251
 41
3.141592653589798
 42
6.283185307179586
  0
LINE
  5
107
330
102
100
AcDbEntity
  8
DV4_0
 62
     7
370
    35
100
AcDbLine
 10
156.9952259444031
 20
37.96625396122688
 30
0.0
 11
156.9952259444031
 21
89.98981267706122
 31
0.0
  0
LINE
  5
108
330
102
100
AcDbEntity
  8
DV4_0
 62
     7
370
    35
100
AcDbLine
 10
146.9952259444031
 20
89.98981267706121
 30
0.0
 11
146.9952259444031
 21
37.96625396122687
 31
0.0
  0
SPLINE
  5
109
330
102
100
AcDbEntity
  8
DV4_0
 62
     7
370
    35
100
AcDbSpline
210
0.0
220
0.0
230
1.0
 70
     8
 71
     3
 72
    13
 73
     9
 74
     0
 42
0.000000001
 43
0.0000000001
 40
0.0
 40
0.0
 40
0.0
 40
0.0
 40
0.0068877828003358
 40
0.0217089036305818
 40
0.0365322443743478
 40
0.0513961446221645
 40
0.0663370234770113
 40
0.0786702368148286
 40
0.0786702368148286
 40
0.0786702368148286
 40
0.0786702368148286
 10
156.9936920955512
 20
89.9883718373004
 30
0.0
 10
156.9941189070964
 20
90.01530747780906
 30
0.0
 10
156.995058694203
 20
90.08753087565746
 30
0.0
 10
156.9838548445276
 20
90.22061490169816
 30
0.0
 10
156.9604107984563
 20
90.37646920903344
 30
0.0
 10
156.924220659449
 20
90.53241683632655
 30
0.0
 10
156.8790824267759
 20
90.67708450363467
 30
0.0
 10
156.8434499964251
 20
90.76916291597286
 30
0.0
 10
156.826068529217
 20
90.810427644584
 30
0.0
  0
SPLINE
  5
10A
330
102
100
AcDbEntity
  8
DV4_0
 62
     7
370
    35
100
AcDbSpline
210
0.0
220
0.0
230
1.0
 70
     8
 71
     3
 72
    13
 73
     9
 74
     0
 42
0.000000001
 43
0.0000000001
 40
0.9212956292053724
 40
0.9212956292053724
 40
0.9212956292053724
 40
0.9212956292053724
 40
0.9365474274426053
 40
0.9517893470236325
 40
0.9668833507700773
 40
0.9818562310787137
 40
0.9967409373867309
 40
1.0
 40
1.0
 40
1.0
 40
1.0
 10
147.1651656661357
 20
90.812282661895
 30
0.0
 10
147.1436235376756
 20
90.76126688003612
 30
0.0
 10
147.1044256364805
 20
90.65811565290524
 30
0.0
 10
147.0579138330367
 20
90.50110580796733
 30
0.0
 10
147.0236678058887
 20
90.34229093531664
 30
0.0
 10
147.0030215990342
 20
90.18479162274264
 30
0.0
 10
146.9942507459119
 20
90.06347707134283
 30
0.0
 10
146.9959149653373
 20
90.00272465594064
 30
0.0
 10
146.9962809844706
 20
89.98998333196926
 30
0.0
  0
ELLIPSE
  5
10B
330
102
100
AcDbEntity
  8
DV4_0
 62
     7
370
    35
100
AcDbEllipse
 10
148.4596920384704
 20
20.00332918081689
 30
0.0
 11
0.3749999999999928
 21
0.6495190528383268
 31
0.0
210
0.0
220
0.0
230
0.9999999999999999
 40
0.5773502691896278
 41
0.785398163397395
 42
3.20879817982888
  0
SPLINE
  5
10C
330
102
100
AcDbEntity
  8
DV4_0
 62
     7
370
    35
100
AcDbSpline
210
0.0
220
0.0
230
1.0
 70
    12
 71
     2
 72
    14
 73
    11
 74
     0
 42
0.000000001
 43
0.0000000001
 40
0.0
 40
0.0
 40
0.0
 40
0.0218003456288767
 40
0.0218003456288767
 40
0.0436006912577535
 40
0.0436006912577535
 40
0.0654010368866302
 40
0.0654010368866302
 40
0.0872013825155069
 40
0.0872013825155069
 40
0.0981015553299454
 40
0.0981015553299454
 40
0.0981015553299454
 10
148.4596920384704
 20
20.61570161651269
 30
0.0
 41
1.0
 10
149.4070354933779
 20
20.21781753555748
 30
0.0
 41
0.9659258262890683
 10
150.7011307188905
 20
20.16668522520733
 30
0.0
 41
1.0
 10
151.9952259444031
 20
20.11555291485721
 30
0.0
 41
0.9659258262890683
 10
153.2893211699157
 20
20.46481506070873
 30
0.0
 41
1.0
 10
154.5834163954283
 20
20.81407720656024
 30
0.0
 41
0.9659258262890683
 10
155.5307598503359
 20
21.51009112301681
 30
0.0
 41
1.0
 10
156.4781033052434
 20
22.20610503947341
 30
0.0
 41
0.9659258262890683
 10
156.8248550758485
 20
23.10231618403081
 30
0.0
 41
1.0
 10
156.9952259444031
 20
23.54265502019645
 30
0.0
 41
0.9829629131445341
 10
156.9952259444031
 20
23.99852732858822
 30
0.0
 41
0.9829629131445342
  0
SPLINE
  5
10D
330
102
100
AcDbEntity
  8
DV4_0
 62
     7
370
    35
100
AcDbSpline
210
0.0
220
0.0
230
1.0
 70
    12
 71
     2
 72
    18
 73
    15
 74
     0
 42
0.000000001
 43
0.0000000001
 40
0.2289036291032057
 40
0.2289036291032057
 40
0.2289036291032057
 40
0.2398038019176441
 40
0.2398038019176441
 40
0.2616041475465208
 40
0.2616041475465208
 40
0.2834044931753975
 40
0.2834044931753975
 40
0.3052048388042743
 40
0.3052048388042743
 40
0.327005184433151
 40
0.327005184433151
 40
0.3488055300620277
 40
0.3488055300620277
 40
0.3597057028764661
 40
0.3597057028764661
 40
0.3597057028764661
 10
146.9952259444031
 20
25.78730634159648
 30
0.0
 41
0.9829629131445341
 10
146.9952259444031
 20
25.48308260077256
 30
0.0
 41
0.9829629131445341
 10
147.1655968129578
 20
25.18922503254045
 30
0.0
 41
1.0
 10
147.5123485835628
 20
24.59114372348444
 30
0.0
 41
0.9659258262890683
 10
148.4596920384704
 20
24.19325964252922
 30
0.0
 41
1.0
 10
149.4070354933779
 20
23.79537556157404
 30
0.0
 41
0.9659258262890683
 10
150.7011307188905
 20
23.7442432512239
 30
0.0
 41
1.0
 10
151.9952259444031
 20
23.69311094087377
 30
0.0
 41
0.9659258262890683
 10
153.2893211699157
 20
24.04237308672527
 30
0.0
 41
1.0
 10
154.5834163954283
 20
24.39163523257676
 30
0.0
 41
0.9659258262890683
 10
155.5307598503358
 20
25.08764914903336
 30
0.0
 41
1.0
 10
156.4781033052434
 20
25.78366306548994
 30
0.0
 41
0.9659258262890683
 10
156.8248550758485
 20
26.67987421004734
 30
0.0
 41
1.0
 10
156.9952259444031
 20
27.12021304621296
 30
0.0
 41
0.9829629131445341
 10
156.9952259444031
 20
27.57608535460474
 30
0.0
 41
0.9829629131445342
  0
SPLINE
  5
10E
330
102
100
AcDbEntity
  8
DV4_0
 62
     7
370
    35
100
AcDbSpline
210
0.0
220
0.0
230
1.0
 70
    12
 71
     2
 72
    18
 73
    15
 74
     0
 42
0.000000001
 43
0.0000000001
 40
0.4905077766497266
 40
0.4905077766497266
 40
0.4905077766497266
 40
0.5014079494641649
 40
0.5014079494641649
 40
0.5232082950930416
 40
0.5232082950930416
 40
0.5450086407219183
 40
0.5450086407219183
 40
0.566808986350795
 40
0.566808986350795
 40
0.5886093319796718
 40
0.5886093319796718
 40
0.6104096776085486
 40
0.6104096776085486
 40
0.6213098504229869
 40
0.6213098504229869
 40
0.6213098504229869
 10
146.9952259444031
 20
29.36486436761302
 30
0.0
 41
0.9829629131445342
 10
146.9952259444031
 20
29.06064062678909
 30
0.0
 41
0.9829629131445342
 10
147.1655968129578
 20
28.76678305855699
 30
0.0
 41
1.0
 10
147.5123485835628
 20
28.16870174950099
 30
0.0
 41
0.9659258262890683
 10
148.4596920384704
 20
27.77081766854576
 30
0.0
 41
1.0
 10
149.4070354933779
 20
27.37293358759058
 30
0.0
 41
0.9659258262890683
 10
150.7011307188905
 20
27.32180127724042
 30
0.0
 41
1.0
 10
151.9952259444031
 20
27.27066896689031
 30
0.0
 41
0.9659258262890683
 10
153.2893211699157
 20
27.61993111274181
 30
0.0
 41
1.0
 10
154.5834163954283
 20
27.9691932585933
 30
0.0
 41
0.9659258262890683
 10
155.5307598503358
 20
28.66520717504989
 30
0.0
 41
1.0
 10
156.4781033052434
 20
29.36122109150648
 30
0.0
 41
0.9659258262890683
 10
156.8248550758485
 20
30.25743223606388
 30
0.0
 41
1.0
 10
156.9952259444031
 20
30.6977710722295
 30
0.0
 41
0.9829629131445341
 10
156.9952259444031
 20
31.15364338062127
 30
0.0
 41
0.9829629131445341
  0
SPLINE
  5
10F
330
102
100
AcDbEntity
  8
DV4_0
 62
     7
370
    35
100
AcDbSpline
210
0.0
220
0.0
230
1.0
 70
    12
 71
     2
 72
    18
 73
    15
 74
     0
 42
0.000000001
 43
0.0000000001
 40
0.7521119241962474
 40
0.7521119241962474
 40
0.7521119241962474
 40
0.7630120970106856
 40
0.7630120970106856
 40
0.7848124426395624
 40
0.7848124426395624
 40
0.8066127882684392
 40
0.8066127882684392
 40
0.8284131338973159
 40
0.8284131338973159
 40
0.8502134795261926
 40
0.8502134795261926
 40
0.8720138251550693
 40
0.8720138251550693
 40
0.8789375792790752
 40
0.8789375792790752
 40
0.8789375792790752
 10
146.9952259444031
 20
32.94242239362956
 30
0.0
 41
0.9829629131445342
 10
146.9952259444031
 20
32.63819865280564
 30
0.0
 41
0.9829629131445343
 10
147.1655968129578
 20
32.34434108457354
 30
0.0
 41
1.0
 10
147.5123485835628
 20
31.74625977551752
 30
0.0
 41
0.9659258262890683
 10
148.4596920384704
 20
31.34837569456231
 30
0.0
 41
1.0
 10
149.4070354933779
 20
30.9504916136071
 30
0.0
 41
0.9659258262890683
 10
150.7011307188905
 20
30.89935930325697
 30
0.0
 41
1.0
 10
151.9952259444031
 20
30.84822699290685
 30
0.0
 41
0.9659258262890683
 10
153.2893211699157
 20
31.19748913875835
 30
0.0
 41
1.0
 10
154.5834163954283
 20
31.54675128460986
 30
0.0
 41
0.9659258262890683
 10
155.5307598503358
 20
32.24276520106643
 30
0.0
 41
1.0
 10
156.4781033052434
 20
32.93877911752301
 30
0.0
 41
0.9659258262890683
 10
156.8248550758485
 20
33.83499026208042
 30
0.0
 41
1.0
 10
156.9323941346988
 20
34.11293463378089
 30
0.0
 41
0.9891780981471846
 10
156.9722128481831
 20
34.39935942133359
 30
0.0
 41
0.9852302329595282
  0
ELLIPSE
  5
110
330
102
100
AcDbEntity
  8
DV4_0
 62
     7
370
    35
100
AcDbEllipse
 10
148.4596920384704
 20
34.31356128488305
 30
0.0
 11
0.3749999999999886
 21
0.6495190528383289
 31
0.0
210
0.0
220
0.0
230
0.9999999999999999
 40
0.5773502691896184
 41
2.854317524150691
 42
3.508409887684667
  0
ELLIPSE
  5
111
330
102
100
AcDbEntity
  8
DV4_0
 62
     7
370
    35
100
AcDbEllipse
 10
151.9952259444031
 20
37.14975738029914
 30
0.0
 11
-6.000000000000003
 21
-8.673617379884035E-15
 31
0.0
210
0.0
220
0.0
230
1.0
 40
0.5773502691896255
 41
0.0
 42
3.727278197046944
  0
ELLIPSE
  5
112
330
102
100
AcDbEntity
  8
DV4_0
 62
     7
370
    35
100
AcDbEllipse
 10
151.9952259444031
 20
37.14975738029914
 30
0.0
 11
-6.000000000000003
 21
-8.673617379884035E-15
 31
0.0
210
0.0
220
0.0
230
1.0
 40
0.5773502691896255
 41
5.697499763722433
 42
6.283185307179586
  0
ELLIPSE
  5
113
330
102
100
AcDbEntity
  8
DV4_0
 62
     7
370
    35
100
AcDbEllipse
 10
151.9952259444031
 20
36.33326079937141
 30
0.0
 11
6.000000000000002
 21
-1.006139616066548E-14
 31
0.0
210
0.0
220
0.0
230
1.0
 40
0.5773502691896258
 41
3.141592653589793
 42
6.283185307179586
  0
ELLIPSE
  5
114
330
102
100
AcDbEntity
  8
DV4_0
 62
     7
370
    35
100
AcDbEllipse
 10
151.9952259444031
 20
20.81982576174461
 30
0.0
 11
-4.999999999999996
 21
-2.775557561562891E-15
 31
0.0
210
0.0
220
0.0
230
1.0
 40
0.5773502691896254
 41
0.0000000000000003
 42
3.141592653589794
  0
ELLIPSE
  5
115
330
102
100
AcDbEntity
  8
DV4_0
 62
     7
370
    35
100
AcDbEllipse
 10
151.9952259444032
 20
37.9662539612269
 30
0.0
 11
5.0
 21
8.673617379884035E-16
 31
0.0
210
0.0
220
0.0
230
1.0
 40
0.5773502691896253
 41
3.141565017390703
 42
6.28300745724284
  0
SPLINE
  5
116
330
102
100
AcDbEntity
  8
DV4_0
 62
     7
370
    35
100
AcDbSpline
210
0.0
220
0.0
230
1.0
 70
     8
 71
     3
 72
    40
 73
    36
 74
     0
 42
0.000000001
 43
0.0000000001
 40
0.0
 40
0.0
 40
0.0
 40
0.0
 40
0.0181030818917501
 40
0.03137232963607
 40
0.0384908330938334
 40
0.0425121172487168
 40
0.0490246350944032
 40
0.0627983730984471
 40
0.0819557403071719
 40
0.1054335236506422
 40
0.1259758528433508
 40
0.1418071226386018
 40
0.1529890157148721
 40
0.1628759065142028
 40
0.1750707871431871
 40
0.1907738658008397
 40
0.2075033446795677
 40
0.2237752560468479
 40
0.2392228776853763
 40
0.2474555264458874
 40
0.2533849388366614
 40
0.2604624294653104
 40
0.2727290117790251
 40
0.2855297959114663
 40
0.2965965707817343
 40
0.3048817656813261
 40
0.314900338037456
 40
0.3329963796309782
 40
0.3544500628184072
 40
0.3741016285782452
 40
0.3873434225674587
 40
0.3996722118684806
 40
0.4117891459185983
 40
0.4253586839078179
 40
0.442344075724077
 40
0.442344075724077
 40
0.442344075724077
 40
0.442344075724077
 10
148.1107729194496
 20
22.91827282041656
 30
0.0
 10
148.2838990195405
 20
22.84587498559847
 30
0.0
 10
148.5355755621999
 20
22.74807472370595
 30
0.0
 10
148.9300630754331
 20
22.63438092407417
 30
0.0
 10
149.1691650468468
 20
22.57776122992156
 30
0.0
 10
149.3540122124757
 20
22.53837667308542
 30
0.0
 10
149.6047564088335
 20
22.49108371580511
 30
0.0
 10
150.0273847805406
 20
22.42957554332889
 30
0.0
 10
150.655126677332
 20
22.37765727870625
 30
0.0
 10
151.3846393594917
 20
22.37694712878878
 30
0.0
 10
152.0853121835413
 20
22.43549793121778
 30
0.0
 10
152.6406681872108
 20
22.51903896661088
 30
0.0
 10
153.0669929633027
 20
22.605191938116
 30
0.0
 10
153.4470004306071
 20
22.69702100258247
 30
0.0
 10
153.8715967311656
 20
22.8193768818892
 30
0.0
 10
154.3588128791705
 20
22.99089711651611
 30
0.0
 10
154.8675122117464
 20
23.21033785092118
 30
0.0
 10
155.3456029375052
 20
23.45966245340909
 30
0.0
 10
155.714052958207
 20
23.6883769941853
 30
0.0
 10
155.9707898485109
 20
23.86950194621968
 30
0.0
 10
156.1478189962717
 20
24.00488200008724
 30
0.0
 10
156.3508584666455
 20
24.17249127060218
 30
0.0
 10
156.5919442820378
 20
24.39562951813291
 30
0.0
 10
156.8380637032983
 20
24.66171303178841
 30
0.0
 10
157.0337184499454
 20
24.90963654966948
 30
0.0
 10
157.1946262975345
 20
25.14418429366374
 30
0.0
 10
157.3717757265173
 20
25.44290795905845
 30
0.0
 10
157.5658057578362
 20
25.86657220327066
 30
0.0
 10
157.7104657126517
 20
26.39439461535455
 30
0.0
 10
157.7554785251966
 20
26.89337109474209
 30
0.0
 10
157.7329777169121
 20
27.30700295071004
 30
0.0
 10
157.6759054641446
 20
27.64883994914199
 30
0.0
 10
157.5825244974408
 20
27.98717267913277
 30
0.0
 10
157.4348852343842
 20
28.35963961669304
 30
0.0
 10
157.2971924825526
 20
28.61392041386752
 30
0.0
 10
157.2110751923551
 20
28.75173426757791
 30
0.0
  0
SPLINE
  5
117
330
102
100
AcDbEntity
  8
DV4_0
 62
     7
370
    35
100
AcDbSpline
210
0.0
220
0.0
230
1.0
 70
     8
 71
     3
 72
    25
 73
    21
 74
     0
 42
0.000000001
 43
0.0000000001
 40
0.7992300896359161
 40
0.7992300896359161
 40
0.7992300896359161
 40
0.7992300896359161
 40
0.8185099320741351
 40
0.8335719821102183
 40
0.8429482437051877
 40
0.8528957684009489
 40
0.8600830884198373
 40
0.8691398325532913
 40
0.8792639745035747
 40
0.8847390833975285
 40
0.8911392925912516
 40
0.903848490631411
 40
0.9145068144835075
 40
0.9280342001969654
 40
0.9396326525484229
 40
0.9492564449852208
 40
0.9563372531372109
 40
0.9669827847398642
 40
0.981598121981899
 40
1.0
 40
1.0
 40
1.0
 40
1.0
 10
146.9949045508117
 20
30.31004097326833
 30
0.0
 10
146.8778664093258
 20
30.20255948254011
 30
0.0
 10
146.6882729777292
 20
29.99747387754456
 30
0.0
 10
146.4994657839936
 20
29.70768556123209
 30
0.0
 10
146.3835526327626
 20
29.46409182180648
 30
0.0
 10
146.3162522810759
 20
29.26943071803917
 30
0.0
 10
146.2704502553948
 20
29.07278833100288
 30
0.0
 10
146.2443961295677
 20
28.86948253318192
 30
0.0
 10
146.243635135166
 20
28.67851662846799
 30
0.0
 10
146.25993765075
 20
28.50875667447802
 30
0.0
 10
146.2921349429448
 20
28.32219369121287
 30
0.0
 10
146.3582361868534
 20
28.09987333947878
 30
0.0
 10
146.477533212298
 20
27.83776331269254
 30
0.0
 10
146.6263727689236
 20
27.5985817789729
 30
0.0
 10
146.8048922872934
 20
27.3808137173852
 30
0.0
 10
146.9658305767774
 20
27.21843304031805
 30
0.0
 10
147.138210647586
 20
27.06836489466907
 30
0.0
 10
147.3468657930622
 20
26.90883556486525
 30
0.0
 10
147.6845740056765
 20
26.69582506416879
 30
0.0
 10
147.9355152212409
 20
26.57461510126964
 30
0.0
 10
148.1107729194496
 20
26.49583084643312
 30
0.0
  0
SPLINE
  5
118
330
102
100
AcDbEntity
  8
DV4_0
 62
     7
370
    35
100
AcDbSpline
210
0.0
220
0.0
230
1.0
 70
     8
 71
     3
 72
    40
 73
    36
 74
     0
 42
0.000000001
 43
0.0000000001
 40
0.0
 40
0.0
 40
0.0
 40
0.0
 40
0.0181030818917495
 40
0.0313723296360702
 40
0.0384908330938329
 40
0.0425121172487169
 40
0.049024635094403
 40
0.0627983730984466
 40
0.0819557403071714
 40
0.1054335236506418
 40
0.1259758528433507
 40
0.1418071226386018
 40
0.1529890157148719
 40
0.162875906514203
 40
0.1750707871431874
 40
0.19077386580084
 40
0.207503344679568
 40
0.223775256046848
 40
0.2392228776853766
 40
0.2474555264458876
 40
0.2533849388366611
 40
0.2604624294653105
 40
0.2727290117790251
 40
0.2855297959114665
 40
0.2965965707817343
 40
0.3048817656813262
 40
0.3149003380374559
 40
0.3329963796309786
 40
0.3544500628184074
 40
0.3741016285782456
 40
0.3873434225674589
 40
0.3996722118684809
 40
0.4117891459185988
 40
0.4253586839078183
 40
0.4423440757240776
 40
0.4423440757240776
 40
0.4423440757240776
 40
0.4423440757240776
 10
148.1107729194496
 20
26.49583084643313
 30
0.0
 10
148.2838990195405
 20
26.423433011615
 30
0.0
 10
148.5355755621999
 20
26.32563274972244
 30
0.0
 10
148.9300630754331
 20
26.21193895009065
 30
0.0
 10
149.1691650468469
 20
26.15531925593808
 30
0.0
 10
149.3540122124757
 20
26.11593469910205
 30
0.0
 10
149.6047564088335
 20
26.06864174182151
 30
0.0
 10
150.0273847805406
 20
26.00713356934553
 30
0.0
 10
150.655126677332
 20
25.95521530472263
 30
0.0
 10
151.3846393594917
 20
25.95450515480541
 30
0.0
 10
152.0853121835413
 20
26.01305595723421
 30
0.0
 10
152.6406681872108
 20
26.09659699262751
 30
0.0
 10
153.0669929633028
 20
26.18274996413247
 30
0.0
 10
153.4470004306071
 20
26.27457902859901
 30
0.0
 10
153.8715967311656
 20
26.39693490790576
 30
0.0
 10
154.3588128791705
 20
26.56845514253259
 30
0.0
 10
154.8675122117464
 20
26.78789587693774
 30
0.0
 10
155.3456029375052
 20
27.03722047942562
 30
0.0
 10
155.7140529582071
 20
27.26593502020192
 30
0.0
 10
155.9707898485109
 20
27.44705997223618
 30
0.0
 10
156.1478189962717
 20
27.58244002610389
 30
0.0
 10
156.3508584666455
 20
27.75004929661868
 30
0.0
 10
156.5919442820378
 20
27.97318754414946
 30
0.0
 10
156.8380637032983
 20
28.23927105780496
 30
0.0
 10
157.0337184499454
 20
28.48719457568594
 30
0.0
 10
157.1946262975345
 20
28.72174231968025
 30
0.0
 10
157.3717757265173
 20
29.02046598507494
 30
0.0
 10
157.5658057578362
 20
29.44413022928721
 30
0.0
 10
157.7104657126517
 20
29.97195264137104
 30
0.0
 10
157.7554785251966
 20
30.4709291207587
 30
0.0
 10
157.7329777169121
 20
30.88456097672657
 30
0.0
 10
157.6759054641445
 20
31.22639797515856
 30
0.0
 10
157.5825244974408
 20
31.56473070514927
 30
0.0
 10
157.4348852343842
 20
31.93719764270958
 30
0.0
 10
157.2971924825526
 20
32.19147843988406
 30
0.0
 10
157.2110751923551
 20
32.32929229359443
 30
0.0
  0
SPLINE
  5
119
330
102
100
AcDbEntity
  8
DV4_0
 62
     7
370
    35
100
AcDbSpline
210
0.0
220
0.0
230
1.0
 70
     8
 71
     3
 72
    25
 73
    21
 74
     0
 42
0.000000001
 43
0.0000000001
 40
0.7992300896359162
 40
0.7992300896359162
 40
0.7992300896359162
 40
0.7992300896359162
 40
0.8185099320741354
 40
0.833571982110218
 40
0.842948243705187
 40
0.8528957684009487
 40
0.860083088419837
 40
0.8691398325532915
 40
0.8792639745035753
 40
0.8847390833975289
 40
0.8911392925912522
 40
0.9038484906314113
 40
0.9145068144835077
 40
0.9280342001969664
 40
0.9396326525484237
 40
0.9492564449852212
 40
0.9563372531372115
 40
0.966982784739865
 40
0.9815981219818994
 40
1.0
 40
1.0
 40
1.0
 40
1.0
 10
146.9949045508117
 20
33.88759899928483
 30
0.0
 10
146.8778664093258
 20
33.7801175085566
 30
0.0
 10
146.6882729777293
 20
33.5750319035612
 30
0.0
 10
146.4994657839936
 20
33.28524358724859
 30
0.0
 10
146.3835526327626
 20
33.04164984782305
 30
0.0
 10
146.3162522810759
 20
32.84698874405581
 30
0.0
 10
146.2704502553948
 20
32.65034635701925
 30
0.0
 10
146.2443961295677
 20
32.44704055919855
 30
0.0
 10
146.243635135166
 20
32.25607465448449
 30
0.0
 10
146.25993765075
 20
32.08631470049455
 30
0.0
 10
146.2921349429448
 20
31.89975171722931
 30
0.0
 10
146.3582361868534
 20
31.67743136549536
 30
0.0
 10
146.477533212298
 20
31.41532133870908
 30
0.0
 10
146.6263727689237
 20
31.17613980498947
 30
0.0
 10
146.8048922872934
 20
30.95837174340175
 30
0.0
 10
146.9658305767773
 20
30.79599106633454
 30
0.0
 10
147.138210647586
 20
30.64592292068563
 30
0.0
 10
147.3468657930622
 20
30.48639359088179
 30
0.0
 10
147.6845740056766
 20
30.27338309018535
 30
0.0
 10
147.9355152212409
 20
30.15217312728617
 30
0.0
 10
148.1107729194496
 20
30.07338887244966
 30
0.0
  0
SPLINE
  5
11A
330
102
100
AcDbEntity
  8
DV4_0
 62
     7
370
    35
100
AcDbSpline
210
0.0
220
0.0
230
1.0
 70
     8
 71
     3
 72
    38
 73
    34
 74
     0
 42
0.000000001
 43
0.0000000001
 40
0.0
 40
0.0
 40
0.0
 40
0.0
 40
0.01810308189175
 40
0.0313723296360698
 40
0.0384908330938324
 40
0.0425121172487167
 40
0.0490246350944024
 40
0.0627983730984458
 40
0.0819557403071704
 40
0.1054335236506405
 40
0.1259758528433491
 40
0.1418071226386002
 40
0.15298901571487
 40
0.1628759065142009
 40
0.1750707871431851
 40
0.1907738658008372
 40
0.2075033446795653
 40
0.2237752560468446
 40
0.2392228776853732
 40
0.2474555264458842
 40
0.2533849388366581
 40
0.2604624294653068
 40
0.2727290117790213
 40
0.2855297959114621
 40
0.2965965707817305
 40
0.3048817656813221
 40
0.3149003380374517
 40
0.3329963796309738
 40
0.3544500628184024
 40
0.3741016285782407
 40
0.3873434225674536
 40
0.3996722118684753
 40
0.4105002683226184
 40
0.4105002683226184
 40
0.4105002683226184
 40
0.4105002683226184
 10
148.1107729194496
 20
30.07338887244965
 30
0.0
 10
148.2838990195405
 20
30.00099103763155
 30
0.0
 10
148.5355755621999
 20
29.90319077573896
 30
0.0
 10
148.9300630754331
 20
29.78949697610728
 30
0.0
 10
149.1691650468469
 20
29.73287728195453
 30
0.0
 10
149.3540122124757
 20
29.69349272511861
 30
0.0
 10
149.6047564088335
 20
29.64619976783812
 30
0.0
 10
150.0273847805406
 20
29.58469159536198
 30
0.0
 10
150.655126677332
 20
29.53277333073931
 30
0.0
 10
151.3846393594918
 20
29.53206318082188
 30
0.0
 10
152.0853121835413
 20
29.59061398325082
 30
0.0
 10
152.6406681872108
 20
29.67415501864395
 30
0.0
 10
153.0669929633028
 20
29.76030799014907
 30
0.0
 10
153.4470004306071
 20
29.85213705461551
 30
0.0
 10
153.8715967311657
 20
29.97449293392241
 30
0.0
 10
154.3588128791705
 20
30.14601316854906
 30
0.0
 10
154.8675122117464
 20
30.3654539029543
 30
0.0
 10
155.3456029375052
 20
30.61477850544214
 30
0.0
 10
155.714052958207
 20
30.8434930462185
 30
0.0
 10
155.9707898485109
 20
31.02461799825279
 30
0.0
 10
156.1478189962717
 20
31.15999805212039
 30
0.0
 10
156.3508584666455
 20
31.32760732263522
 30
0.0
 10
156.5919442820378
 20
31.5507455701659
 30
0.0
 10
156.8380637032983
 20
31.81682908382163
 30
0.0
 10
157.0337184499453
 20
32.06475260170254
 30
0.0
 10
157.1946262975345
 20
32.2993003456968
 30
0.0
 10
157.3717757265173
 20
32.59802401109149
 30
0.0
 10
157.5658057578362
 20
33.02168825530377
 30
0.0
 10
157.7104657126517
 20
33.54951066738757
 30
0.0
 10
157.7554785251966
 20
34.04848714677524
 30
0.0
 10
157.7329777169121
 20
34.46211900274304
 30
0.0
 10
157.6778572814341
 20
34.79226549779771
 30
0.0
 10
157.6221248097368
 20
34.998567558796
 30
0.0
 10
157.5914907544991
 20
35.09424804142392
 30
0.0
  0
SPLINE
  5
11B
330
102
100
AcDbEntity
  8
DV4_0
 62
     7
370
    35
100
AcDbSpline
210
0.0
220
0.0
230
1.0
 70
     8
 71
     3
 72
    14
 73
    10
 74
     0
 42
0.000000001
 43
0.0000000001
 40
0.92028157828966
 40
0.92028157828966
 40
0.92028157828966
 40
0.92028157828966
 40
0.9280342001969542
 40
0.9396326525484106
 40
0.9492564449852083
 40
0.956337253137198
 40
0.9669827847398521
 40
0.9815981219818863
 40
1.0
 40
1.0
 40
1.0
 40
1.0
 10
146.5395306765061
 20
34.89709542178031
 30
0.0
 10
146.571201828259
 20
34.84499572925746
 30
0.0
 10
146.6560395031735
 20
34.71750869454498
 30
0.0
 10
146.8048922872934
 20
34.53592976941827
 30
0.0
 10
146.9658305767773
 20
34.37354909235112
 30
0.0
 10
147.138210647586
 20
34.22348094670208
 30
0.0
 10
147.3468657930622
 20
34.06395161689839
 30
0.0
 10
147.6845740056766
 20
33.85094111620181
 30
0.0
 10
147.9355152212412
 20
33.7297311533026
 30
0.0
 10
148.11077291945
 20
33.65094689846605
 30
0.0
  0
SPLINE
  5
11C
330
102
100
AcDbEntity
  8
DV4_0
 62
     7
370
    35
100
AcDbSpline
210
0.0
220
0.0
230
1.0
 70
     8
 71
     3
 72
    40
 73
    36
 74
     0
 42
0.000000001
 43
0.0000000001
 40
0.0
 40
0.0
 40
0.0
 40
0.0
 40
0.0181030818917367
 40
0.0313723296360568
 40
0.0384908330938201
 40
0.0425121172487037
 40
0.04902463509439
 40
0.0627983730984339
 40
0.081955740307159
 40
0.1054335236506295
 40
0.1259758528433386
 40
0.1418071226385899
 40
0.1529890157148604
 40
0.1628759065141914
 40
0.1750707871431759
 40
0.1907738658008286
 40
0.2075033446795568
 40
0.2237752560468372
 40
0.2392228776853658
 40
0.247455526445877
 40
0.2533849388366509
 40
0.2604624294653003
 40
0.2727290117790148
 40
0.2855297959114563
 40
0.2965965707817248
 40
0.3048817656813166
 40
0.3149003380374468
 40
0.3329963796309691
 40
0.3544500628183982
 40
0.3741016285782369
 40
0.3873434225674505
 40
0.3996722118684726
 40
0.4117891459185906
 40
0.4253586839078103
 40
0.4423440757240691
 40
0.4423440757240691
 40
0.4423440757240691
 40
0.4423440757240691
 10
148.11077291945
 20
19.34071479439989
 30
0.0
 10
148.2838990195407
 20
19.26831695958182
 30
0.0
 10
148.5355755622001
 20
19.17051669768934
 30
0.0
 10
148.9300630754331
 20
19.05682289805758
 30
0.0
 10
149.1691650468469
 20
19.00020320390494
 30
0.0
 10
149.3540122124757
 20
18.96081864706908
 30
0.0
 10
149.6047564088335
 20
18.91352568978846
 30
0.0
 10
150.0273847805406
 20
18.85201751731242
 30
0.0
 10
150.6551266773321
 20
18.80009925268958
 30
0.0
 10
151.3846393594917
 20
18.79938910277229
 30
0.0
 10
152.0853121835413
 20
18.8579399052012
 30
0.0
 10
152.6406681872107
 20
18.9414809405944
 30
0.0
 10
153.0669929633028
 20
19.02763391209938
 30
0.0
 10
153.4470004306071
 20
19.11946297656594
 30
0.0
 10
153.8715967311656
 20
19.24181885587277
 30
0.0
 10
154.3588128791705
 20
19.41333909049939
 30
0.0
 10
154.8675122117464
 20
19.63277982490475
 30
0.0
 10
155.3456029375052
 20
19.88210442739249
 30
0.0
 10
155.7140529582071
 20
20.1108189681689
 30
0.0
 10
155.9707898485108
 20
20.29194392020303
 30
0.0
 10
156.1478189962717
 20
20.42732397407073
 30
0.0
 10
156.3508584666455
 20
20.59493324458555
 30
0.0
 10
156.5919442820378
 20
20.81807149211635
 30
0.0
 10
156.8380637032983
 20
21.08415500577196
 30
0.0
 10
157.0337184499454
 20
21.33207852365295
 30
0.0
 10
157.1946262975345
 20
21.56662626764712
 30
0.0
 10
157.3717757265173
 20
21.86534993304196
 30
0.0
 10
157.5658057578362
 20
22.2890141772541
 30
0.0
 10
157.7104657126517
 20
22.81683658933803
 30
0.0
 10
157.7554785251966
 20
23.31581306872551
 30
0.0
 10
157.7329777169122
 20
23.7294449246935
 30
0.0
 10
157.6759054641446
 20
24.07128192312546
 30
0.0
 10
157.5825244974408
 20
24.40961465311629
 30
0.0
 10
157.4348852343842
 20
24.78208159067644
 30
0.0
 10
157.2971924825526
 20
25.03636238785099
 30
0.0
 10
157.2110751923551
 20
25.17417624156139
 30
0.0
  0
SPLINE
  5
11D
330
102
100
AcDbEntity
  8
DV4_0
 62
     7
370
    35
100
AcDbSpline
210
0.0
220
0.0
230
1.0
 70
     8
 71
     3
 72
    25
 73
    21
 74
     0
 42
0.000000001
 43
0.0000000001
 40
0.7992300896359135
 40
0.7992300896359135
 40
0.7992300896359135
 40
0.7992300896359135
 40
0.8185099320741327
 40
0.8335719821102159
 40
0.8429482437051852
 40
0.8528957684009465
 40
0.8600830884198354
 40
0.8691398325532895
 40
0.8792639745035731
 40
0.8847390833975265
 40
0.8911392925912498
 40
0.9038484906314097
 40
0.9145068144835062
 40
0.9280342001969647
 40
0.9396326525484221
 40
0.9492564449852199
 40
0.9563372531372102
 40
0.9669827847398639
 40
0.9815981219818992
 40
1.0
 40
1.0
 40
1.0
 40
1.0
 10
146.9949045508117
 20
26.73248294725179
 30
0.0
 10
146.8778664093258
 20
26.62500145652358
 30
0.0
 10
146.6882729777292
 20
26.419915851528
 30
0.0
 10
146.4994657839936
 20
26.13012753521552
 30
0.0
 10
146.3835526327626
 20
25.88653379578997
 30
0.0
 10
146.3162522810759
 20
25.69187269202269
 30
0.0
 10
146.2704502553948
 20
25.4952303049862
 30
0.0
 10
146.2443961295677
 20
25.29192450716553
 30
0.0
 10
146.243635135166
 20
25.10095860245143
 30
0.0
 10
146.25993765075
 20
24.93119864846151
 30
0.0
 10
146.2921349429448
 20
24.74463566519625
 30
0.0
 10
146.3582361868534
 20
24.52231531346237
 30
0.0
 10
146.4775332122979
 20
24.26020528667591
 30
0.0
 10
146.6263727689237
 20
24.0210237529564
 30
0.0
 10
146.8048922872933
 20
23.80325569136864
 30
0.0
 10
146.9658305767773
 20
23.64087501430148
 30
0.0
 10
147.138210647586
 20
23.49080686865249
 30
0.0
 10
147.3468657930622
 20
23.33127753884876
 30
0.0
 10
147.6845740056765
 20
23.11826703815224
 30
0.0
 10
147.9355152212409
 20
22.99705707525307
 30
0.0
 10
148.1107729194496
 20
22.91827282041656
 30
0.0
  0
LINE
  5
11E
330
102
100
AcDbEntity
  8
DV4_0
 62
     7
370
    35
100
AcDbLine
 10
145.9952259444031
 20
37.14975738029915
 30
0.0
 11
145.9952259444031
 21
36.33326079937142
 31
0.0
  0
LINE
  5
11F
330
102
100
AcDbEntity
  8
DV4_0
 62
     7
370
    35
100
AcDbLine
 10
157.9952259444031
 20
36.33326079937141
 30
0.0
 11
157.9952259444031
 21
37.14975738029914
 31
0.0
  0
LINE
  5
120
330
102
100
AcDbEntity
  8
DV4_0
 62
     7
370
    35
100
AcDbLine
 10
156.9952259444031
 20
31.15364338062127
 30
0.0
 11
156.9952259444031
 21
32.01973588625922
 31
0.0
  0
LINE
  5
121
330
102
100
AcDbEntity
  8
DV4_0
 62
     7
370
    35
100
AcDbLine
 10
156.9952259444031
 20
27.57608535460474
 30
0.0
 11
156.9952259444031
 21
28.44217786024265
 31
0.0
  0
LINE
  5
122
330
102
100
AcDbEntity
  8
DV4_0
 62
     7
370
    35
100
AcDbLine
 10
156.9952259444031
 20
23.9985273285882
 30
0.0
 11
156.9952259444031
 21
24.86461983422613
 31
0.0
  0
LINE
  5
123
330
102
100
AcDbEntity
  8
DV4_0
 62
     7
370
    35
100
AcDbLine
 10
156.9952259444031
 20
20.81982576174462
 30
0.0
 11
156.9952259444031
 21
21.28706180820959
 31
0.0
  0
LINE
  5
124
330
102
100
AcDbEntity
  8
DV4_0
 62
     7
370
    35
100
AcDbLine
 10
146.9952259444031
 20
23.61725557646211
 30
0.0
 11
146.9952259444031
 21
20.81982576174463
 31
0.0
  0
LINE
  5
125
330
102
100
AcDbEntity
  8
DV4_0
 62
     7
370
    35
100
AcDbLine
 10
146.9952259444031
 20
27.19481360247866
 30
0.0
 11
146.9952259444031
 21
25.78730634159646
 31
0.0
  0
LINE
  5
126
330
102
100
AcDbEntity
  8
DV4_0
 62
     7
370
    35
100
AcDbLine
 10
146.9952259444031
 20
30.77237162849519
 30
0.0
 11
146.9952259444031
 21
29.36486436761301
 31
0.0
  0
LINE
  5
127
330
102
100
AcDbEntity
  8
DV4_0
 62
     7
370
    35
100
AcDbLine
 10
146.9952259444031
 20
34.34992965451171
 30
0.0
 11
146.9952259444031
 21
32.94242239362953
 31
0.0
  0
ELLIPSE
  5
128
330
102
100
AcDbEntity
  8
DV4_0
 62
     7
370
    35
100
AcDbEllipse
 10
151.9952259444032
 20
92.35559748098653
 30
0.0
 11
4.83
 21
-4.510281037539698E-15
 31
0.0
210
0.0
220
0.0
230
1.0
 40
0.5773502691896261
 41
3.989721910962915
 42
5.497787143782136
  0
ELLIPSE
  5
129
330
102
100
AcDbEntity
  8
DV4_0
 62
     7
370
    25
100
AcDbEllipse
 10
151.9952259444031
 20
102.1428852221461
 30
0.0
 11
4.999999999999995
 21
2.255140518769849E-15
 31
0.0
210
0.0
220
0.0
230
1.0
 40
0.5773502691896261
 41
3.140553601398108
 42
6.283185307179585
  0
ELLIPSE
  5
12A
330
102
100
AcDbEntity
  8
DV4_0
 62
     7
370
    25
100
AcDbEllipse
 10
151.9952259444031
 20
102.1428852221461
 30
0.0
 11
4.999999999999995
 21
2.255140518769849E-15
 31
0.0
210
0.0
220
0.0
230
1.0
 40
0.5773502691896261
 41
0.0
 42
0.0003399094793317
  0
ELLIPSE
  5
12B
330
102
100
AcDbEntity
  8
DV4_0
 62
     7
370
    25
100
AcDbEllipse
 10
151.9952259444032
 20
92.68025114260149
 30
0.0
 11
-4.999999999999995
 21
0.0
 31
0.0
210
0.0
220
0.0
230
1.0
 40
0.5773502691896261
 41
0.0
 42
3.141592653589793
  0
LINE
  5
12C
330
102
100
AcDbEntity
  8
DV4_0
 62
     7
370
    35
100
AcDbLine
 10
156.8252259444032
 20
90.22203514060124
 30
0.0
 11
156.8252259444032
 21
91.85779866451485
 31
0.0
  0
LINE
  5
12D
330
102
100
AcDbEntity
  8
DV4_0
 62
     7
370
    35
100
AcDbLine
 10
147.1652259444032
 20
91.85988138658055
 30
0.0
 11
147.1652259444032
 21
90.22203514060124
 31
0.0
  0
SPLINE
  5
12E
330
102
100
AcDbEntity
  8
DV4_0
 62
     7
370
    35
100
AcDbSpline
210
0.0
220
0.0
230
1.0
 70
     8
 71
     3
 72
    11
 73
     7
 74
     0
 42
0.000000001
 43
0.0000000001
 40
0.0
 40
0.0
 40
0.0
 40
0.0
 40
0.0140851331689372
 40
0.0342001709734752
 40
0.0543316012377664
 40
0.0569910733864017
 40
0.0569910733864017
 40
0.0569910733864017
 40
0.0569910733864017
 10
156.9939320083869
 20
102.1440237470644
 30
0.0
 10
156.9939272272975
 20
102.1836014672077
 30
0.0
 10
156.9935716044649
 20
102.2649622845372
 30
0.0
 10
156.9790987346558
 20
102.4065437108424
 30
0.0
 10
156.9601468348474
 20
102.5144054858097
 30
0.0
 10
156.9474328227602
 20
102.571588878862
 30
0.0
 10
156.9459134910286
 20
102.5782593192612
 30
0.0
  0
SPLINE
  5
12F
330
102
100
AcDbEntity
  8
DV4_0
 62
     7
370
    35
100
AcDbSpline
210
0.0
220
0.0
230
1.0
 70
     8
 71
     3
 72
    11
 73
     7
 74
     0
 42
0.000000001
 43
0.0000000001
 40
0.8335967464584181
 40
0.8335967464584181
 40
0.8335967464584181
 40
0.8335967464584181
 40
0.8538553345241372
 40
0.9139335714701422
 40
0.9736803339324636
 40
1.0
 40
1.0
 40
1.0
 40
1.0
 10
147.0438375008145
 20
102.5752309192211
 30
0.0
 10
147.039942986455
 20
102.5580195075918
 30
0.0
 10
147.0254423768373
 20
102.4896918474457
 30
0.0
 10
147.0068775179421
 20
102.3704404130275
 30
0.0
 10
146.99551827608
 20
102.2410003593056
 30
0.0
 10
146.9963720829641
 20
102.1713724853338
 30
0.0
 10
146.9967484051566
 20
102.1463582544054
 30
0.0
  0
LINE
  5
130
330
102
100
AcDbEntity
  8
DV4_0
 62
     7
370
    35
100
AcDbLine
 10
146.9952259444031
 20
102.1428852221461
 30
0.0
 11
146.9952259444031
 21
92.68025114260145
 31
0.0
  0
LINE
  5
131
330
102
100
AcDbEntity
  8
DV4_0
 62
     7
370
    35
100
AcDbLine
 10
156.9952259444031
 20
92.68025114260145
 30
0.0
 11
156.9952259444031
 21
102.1428852221461
 31
0.0
  0
ARC
  5
132
330
102
100
AcDbEntity
  8
DV4_0
 62
     7
370
    35
100
AcDbCircle
 10
154.2615731220681
 20
92.87204470950039
 30
0.0
 40
2.738903950829791
100
AcDbArc
 50
295.0863336935715
 51
356.0797511842766
  0
SPLINE
  5
133
330
102
100
AcDbEntity
  8
DV4_0
 62
     7
370
    35
100
AcDbSpline
210
0.0
220
0.0
230
1.0
 70
     8
 71
     3
 72
    26
 73
    22
 74
     0
 42
0.000000001
 43
0.0000000001
 40
0.0
 40
0.0
 40
0.0
 40
0.0
 40
0.0244010008691577
 40
0.0784766056266954
 40
0.132560309850315
 40
0.1867919974643635
 40
0.241304545397691
 40
0.2962150100825933
 40
0.3516183596702957
 40
0.4075819414190097
 40
0.4641414160889301
 40
0.5212990629071736
 40
0.5790252227516818
 40
0.637263118891632
 40
0.6959364889036492
 40
0.7549587013387299
 40
0.8142416824863511
 40
0.8737032050562564
 40
0.9332717402043423
 40
0.9928888084962633
 40
1.0
 40
1.0
 40
1.0
 40
1.0
 10
146.9967522946812
 20
92.67955988497272
 30
0.0
 10
146.9963443220738
 20
92.65340607687958
 30
0.0
 10
146.9954248245936
 20
92.58182526267885
 30
0.0
 10
147.0066073999045
 20
92.44944172613391
 30
0.0
 10
147.0300383074629
 20
92.29359654330719
 30
0.0
 10
147.0662319800234
 20
92.1376464619956
 30
0.0
 10
147.1142794178486
 20
91.9836524211655
 30
0.0
 10
147.1743586150583
 20
91.83139395015024
 30
0.0
 10
147.246372282744
 20
91.68127909286356
 30
0.0
 10
147.3302959897819
 20
91.53357573053648
 30
0.0
 10
147.426058752649
 20
91.38863109918641
 30
0.0
 10
147.5335481284277
 20
91.24681635837247
 30
0.0
 10
147.652582716738
 20
91.108538413689
 30
0.0
 10
147.7829055856275
 20
90.97421929930624
 30
0.0
 10
147.9241658148585
 20
90.84429844588382
 30
0.0
 10
148.0759808075446
 20
90.71914906811283
 30
0.0
 10
148.2377402406296
 20
90.5993108791177
 30
0.0
 10
148.4094111592778
 20
90.48454973357592
 30
0.0
 10
148.5886030545115
 20
90.37733897182979
 30
0.0
 10
148.7249418832149
 20
90.30139376980931
 30
0.0
 10
148.7943793601671
 20
90.26758267746953
 30
0.0
 10
148.8029925902989
 20
90.26339273610304
 30
0.0
  0
ELLIPSE
  5
134
330
102
100
AcDbEntity
  8
DV4_0
 62
     7
370
    35
100
AcDbEllipse
 10
151.9952259444032
 20
102.4694838545172
 30
0.0
 11
4.95
 21
0.0
 31
0.0
210
0.0
220
0.0
230
1.0
 40
0.5773502691896261
 41
3.141592653589793
 42
6.283185307179586
  0
ELLIPSE
  5
135
330
102
100
AcDbEntity
  8
DV4_0
 62
     7
370
    35
100
AcDbEllipse
 10
151.9952259444032
 20
104.5107253068365
 30
0.0
 11
5.000000000000007
 21
-4.510281037539699E-15
 31
0.0
210
0.0
220
0.0
230
1.0
 40
0.5773502691896256
 41
3.141592653589793
 42
6.283185307179586
  0
ELLIPSE
  5
136
330
102
100
AcDbEntity
  8
DV4_0
 62
     7
370
    35
100
AcDbEllipse
 10
151.9952259444032
 20
105.3272218877642
 30
0.0
 11
5.000000000000007
 21
-4.510281037539699E-15
 31
0.0
210
0.0
220
0.0
230
1.0
 40
0.5773502691896256
 41
2.356194490192344
 42
6.283185307179586
  0
ELLIPSE
  5
137
330
102
100
AcDbEntity
  8
DV4_0
 62
     7
370
    35
100
AcDbEllipse
 10
151.9952259444032
 20
105.3272218877642
 30
0.0
 11
5.000000000000007
 21
-4.510281037539699E-15
 31
0.0
210
0.0
220
0.0
230
1.0
 40
0.5773502691896256
 41
0.0
 42
0.7853981633974503
  0
ELLIPSE
  5
138
330
102
100
AcDbEntity
  8
DV4_0
 62
     7
370
    35
100
AcDbEllipse
 10
151.9952259444032
 20
105.7354701782281
 30
0.0
 11
-4.5
 21
0.0
 31
0.0
210
0.0
220
0.0
230
1.0
 40
0.5773502691896257
 41
0.0
 42
6.283185307179586
  0
LINE
  5
139
330
102
100
AcDbEntity
  8
DV4_0
 62
     7
370
    35
100
AcDbLine
 10
156.9452259444031
 20
102.4694838545172
 30
0.0
 11
156.9452259444031
 21
104.1034989160741
 31
0.0
  0
LINE
  5
13A
330
102
100
AcDbEntity
  8
DV4_0
 62
     7
370
    35
100
AcDbLine
 10
147.0452259444032
 20
104.1034989160741
 30
0.0
 11
147.0452259444032
 21
102.4694838545172
 31
0.0
  0
LINE
  5
13B
330
102
100
AcDbEntity
  8
DV4_0
 62
     7
370
    35
100
AcDbLine
 10
156.9952259444032
 20
104.5107253068365
 30
0.0
 11
156.9952259444032
 21
105.3272218877642
 31
0.0
  0
LINE
  5
13C
330
102
100
AcDbEntity
  8
DV4_0
 62
     7
370
    35
100
AcDbLine
 10
146.9952259444032
 20
105.3272218877642
 30
0.0
 11
146.9952259444032
 21
104.5107253068365
 31
0.0
  0
LINE
  5
13D
330
102
100
AcDbEntity
  8
DV4_0
 62
     7
370
    35
100
AcDbLine
 10
155.5307598503359
 20
107.3684633400835
 30
0.0
 11
155.1772064597426
 21
107.5725874853155
 31
0.0
  0
LINE
  5
13E
330
102
100
AcDbEntity
  8
DV4_0
 62
     7
370
    35
100
AcDbLine
 10
148.8132454290637
 20
107.5725874853155
 30
0.0
 11
148.4596920384704
 21
107.3684633400836
 31
0.0
  0
ENDBLK
  5
140
330
102
100
AcDbEntity
  8
0
100
AcDbBlockEnd
  0
BLOCK
  5
14A
330
141
100
AcDbEntity
  8
0
100
AcDbBlockBegin
  2
GDimGGroup
 70
     0
 10
0.0
 20
0.0
 30
0.0
  3
GDimGGroup
  1

  0
LWPOLYLINE
  5
143
330
141
100
AcDbEntity
  8
Default
 62
     7
370
    25
100
AcDbPolyline
 90
        4
 70
     0
 43
0.0
 10
180.6047231371197
 20
230.8611367609392
 10
179.6047231284274
 20
230.8611367609392
 10
180.1047231327735
 20
233.8611367870163
 10
180.6047231371197
 20
230.8611367609392
  0
LWPOLYLINE
  5
144
330
141
100
AcDbEntity
  8
Default
 62
     7
370
    25
100
AcDbPolyline
 90
        4
 70
     0
 43
0.0
 10
180.6047231371197
 20
132.8611346673261
 10
179.6047231284274
 20
132.8611346673261
 10
180.1047231327735
 20
129.8611346412491
 10
180.6047231371197
 20
132.8611346673261
  0
LINE
  5
145
330
141
100
AcDbEntity
  8
Default
 62
     7
370
    25
100
AcDbLine
 10
155.9733859520398
 20
233.8611367870163
 30
0.0
 11
181.604723145812
 21
233.8611367870163
 31
0.0
  0
LINE
  5
146
330
141
100
AcDbEntity
  8
Default
 62
     7
370
    25
100
AcDbLine
 10
156.4733859520397
 20
129.8611367870163
 30
0.0
 11
181.604723145812
 21
129.8611367870163
 31
0.0
  0
LINE
  5
147
330
141
100
AcDbEntity
  8
Default
 62
     7
370
    25
100
AcDbLine
 10
180.1047231327735
 20
233.8611367870163
 30
0.0
 11
180.1047231327735
 21
129.8611346412491
 31
0.0
  0
TEXT
  5
149
330
141
100
AcDbEntity
  8
Default
 62
     7
370
    25
100
AcDbText
 10
179.3547231327735
 20
177.1654835402196
 30
0.0
 40
3.0
  1
1040
 50
90.0
  7
SEACAD_Solid_Edge_ANSI
 11
176.3547231327735
 21
177.1654835402196
 31
0.0
100
AcDbText
 73
     3
  0
ENDBLK
  5
14B
330
141
100
AcDbEntity
  8
0
100
AcDbBlockEnd
  0
BLOCK
  5
154
330
14C
100
AcDbEntity
  8
0
100
AcDbBlockBegin
  2
GDimGGroup1
 70
     0
 10
0.0
 20
0.0
 30
0.0
  3
GDimGGroup1
  1

  0
LWPOLYLINE
  5
14E
330
14C
100
AcDbEntity
  8
Default
 62
     7
370
    25
100
AcDbPolyline
 90
        4
 70
     0
 43
0.0
 10
85.1925006684652
 20
145.8611367609392
 10
84.19250065977285
 20
145.8611367609392
 10
84.69250066411902
 20
148.8611367870163
 10
85.1925006684652
 20
145.8611367609392
  0
LWPOLYLINE
  5
14F
330
14C
100
AcDbEntity
  8
Default
 62
     7
370
    25
100
AcDbPolyline
 90
        4
 70
     0
 43
0.0
 10
85.1925006684652
 20
132.8611374240409
 10
84.19250065977285
 20
132.8611374240409
 10
84.69250066411902
 20
129.8611373979639
 10
85.1925006684652
 20
132.8611374240409
  0
LINE
  5
150
330
14C
100
AcDbEntity
  8
Default
 62
     7
370
    25
100
AcDbLine
 10
70.6360564960282
 20
148.8611367870163
 30
0.0
 11
86.19250067715754
 21
148.8611367870163
 31
0.0
  0
LINE
  5
151
330
14C
100
AcDbEntity
  8
Default
 62
     7
370
    25
100
AcDbLine
 10
64.6360564960282
 20
129.8611367870163
 30
0.0
 11
86.19250067715754
 21
129.8611367870163
 31
0.0
  0
LINE
  5
152
330
14C
100
AcDbEntity
  8
Default
 62
     7
370
    25
100
AcDbLine
 10
84.69250066411902
 20
148.8611367870163
 30
0.0
 11
84.69250066411902
 21
129.8611373979639
 31
0.0
  0
TEXT
  5
153
330
14C
100
AcDbEntity
  8
Default
 62
     7
370
    25
100
AcDbText
 10
83.94250066411902
 20
135.8393979620553
 30
0.0
 40
3.0
  1
190
 50
90.0
  7
SEACAD_Solid_Edge_ANSI
 11
80.94250066411902
 21
135.8393979620553
 31
0.0
100
AcDbText
 73
     3
  0
ENDBLK
  5
155
330
14C
100
AcDbEntity
  8
0
100
AcDbBlockEnd
  0
BLOCK
  5
15F
330
156
100
AcDbEntity
  8
0
100
AcDbBlockBegin
  2
GDimGGroup2
 70
     0
 10
0.0
 20
0.0
 30
0.0
  3
GDimGGroup2
  1

  0
LINE
  5
158
330
156
100
AcDbEntity
  8
Default
 62
     7
370
    25
100
AcDbLine
 10
68.81147651031915
 20
72.46649083820493
 30
0.0
 11
60.46063666839299
 21
77.96771519866783
 31
0.0
  0
LINE
  5
159
330
156
100
AcDbEntity
  8
Default
 62
     7
370
    25
100
AcDbLine
 10
60.46063648173717
 20
77.96771532162978
 30
0.0
 11
43.77260444926119
 21
88.96117347470421
 31
0.0
  0
LWPOLYLINE
  5
15A
330
156
100
AcDbEntity
  8
Default
 62
     7
370
    25
100
AcDbPolyline
 90
        4
 70
     0
 43
0.0
 10
66.03116325340588
 20
73.69931619251943
 10
66.58128570653021
 20
74.53440020263646
 10
68.81147651031915
 20
72.46649083820493
 10
66.03116325340588
 20
73.69931619251943
  0
LWPOLYLINE
  5
15B
330
156
100
AcDbEntity
  8
Default
 62
     7
370
    25
100
AcDbPolyline
 90
        4
 70
     0
 43
0.0
 10
62.6908272855261
 20
75.89980595719825
 10
63.24094973865044
 20
76.73488996731528
 10
60.46063648173717
 20
77.96771532162978
 10
62.6908272855261
 20
75.89980595719825
  0
TEXT
  5
15D
330
156
100
AcDbEntity
  8
Default
 62
     7
370
    25
100
AcDbText
 10
45.06203576294133
 20
89.00985706654609
 30
0.0
 40
3.0
  1
n
 50
326.6245861580125
  7
GDT
 11
46.71240310796878
 21
91.51510907512068
 31
0.0
100
AcDbText
 73
     3
  0
TEXT
  5
15E
330
156
100
AcDbEntity
  8
Default
 62
     7
370
    25
100
AcDbText
 10
49.4220532936536
 20
86.1376388099369
 30
0.0
 40
3.0
  1
100
 50
326.6245861580125
  7
SEACAD_Solid_Edge_ANSI
 11
51.07242063868106
 21
88.64289081851149
 31
0.0
100
AcDbText
 73
     3
  0
ENDBLK
  5
160
330
156
100
AcDbEntity
  8
0
100
AcDbBlockEnd
  0
BLOCK
  5
16F
330
169
100
AcDbEntity
  8
0
100
AcDbBlockBegin
  2
SEANNOT_GROUP
 70
     0
 10
0.0
 20
0.0
 30
0.0
  3
SEANNOT_GROUP
  1

  0
TEXT
  5
16B
330
169
100
AcDbEntity
  8
Predeterminado
 62
     7
370
     5
100
AcDbText
 10
202.5201921067479
 20
12.7403379754914
 30
0.0
 40
1.5
  1
V 
 50
90.0
  7
SEACAD_Solid_Edge_ANSI
 11
201.0201921067479
 21
12.7403379754914
 31
0.0
100
AcDbText
 73
     3
  0
TEXT
  5
16C
330
169
100
AcDbEntity
  8
Predeterminado
 62
     7
370
     5
100
AcDbText
 10
202.5201921067479
 20
14.6528379754914
 30
0.0
 40
1.5
  1
01
 50
90.0
  7
SEACAD_Solid_Edge_ANSI
 11
201.0201921067479
 21
14.6528379754914
 31
0.0
100
AcDbText
 73
     3
  0
TEXT
  5
16D
330
169
100
AcDbEntity
  8
Predeterminado
 62
     7
370
     5
100
AcDbText
 10
202.5201921067479
 20
16.7153379754914
 30
0.0
 40
1.5
  1
  
 50
90.0
  7
SEACAD_Solid_Edge_ANSI
 11
201.0201921067479
 21
16.7153379754914
 31
0.0
100
AcDbText
 73
     3
  0
TEXT
  5
16E
330
169
100
AcDbEntity
  8
Predeterminado
 62
     7
370
     5
100
AcDbText
 10
202.5201921067479
 20
17.7653379754914
 30
0.0
 40
1.5
  1
26/04/2021
 50
90.0
  7
SEACAD_Solid_Edge_ANSI
 11
201.0201921067479
 21
17.7653379754914
 31
0.0
100
AcDbText
 73
     3
  0
ENDBLK
  5
170
330
169
100
AcDbEntity
  8
0
100
AcDbBlockEnd
  0
BLOCK
  5
174
330
171
100
AcDbEntity
  8
0
100
AcDbBlockBegin
  2
SEANNOT_GROUP1
 70
     0
 10
0.0
 20
0.0
 30
0.0
  3
SEANNOT_GROUP1
  1

  0
TEXT
  5
173
330
171
100
AcDbEntity
  8
Predeterminado
 62
     7
370
     5
100
AcDbText
 10
80.60982528765383
 20
275.956987846381
 30
0.0
 40
6.0
  1
Pilona flexible
  7
SEACAD_Solid_Edge_ANSI
 11
80.60982528765383
 21
281.956987846381
 31
0.0
100
AcDbText
 73
     3
  0
ENDBLK
  5
175
330
171
100
AcDbEntity
  8
0
100
AcDbBlockEnd
  0
BLOCK
  5
179
330
176
100
AcDbEntity
  8
0
100
AcDbBlockBegin
  2
SEANNOT_GROUP2
 70
     0
 10
0.0
 20
0.0
 30
0.0
  3
SEANNOT_GROUP2
  1

  0
TEXT
  5
178
330
176
100
AcDbEntity
  8
Predeterminado
 62
     7
370
     5
100
AcDbText
 10
128.9685949365111
 20
271.5157094542311
 30
0.0
 40
3.0
  1
HflexLED
  7
SEACAD_Solid_Edge_ANSI
 11
128.9685949365111
 21
274.5157094542311
 31
0.0
100
AcDbText
 73
     3
  0
ENDBLK
  5
17A
330
176
100
AcDbEntity
  8
0
100
AcDbBlockEnd
  0
ENDSEC
  0
SECTION
  2
ENTITIES
  0
INSERT
  5
70
330
1F
100
AcDbEntity
  8
Default
100
AcDbBlockReference
  2
SE
 10
0.0
 20
0.0
 30
0.0
  0
INSERT
  5
B6
330
1F
100
AcDbEntity
  8
Default
100
AcDbBlockReference
  2
SE1
 10
0.0
 20
0.0
 30
0.0
  0
INSERT
  5
FB
330
1F
100
AcDbEntity
  8
Default
100
AcDbBlockReference
  2
SE2
 10
0.0
 20
0.0
 30
0.0
  0
INSERT
  5
103
330
1F
100
AcDbEntity
  8
Default
100
AcDbBlockReference
  2
SE3
 10
0.0
 20
0.0
 30
0.0
  0
INSERT
  5
142
330
1F
100
AcDbEntity
  8
Default
100
AcDbBlockReference
  2
GDimGGroup
 10
0.0
 20
0.0
 30
0.0
  0
INSERT
  5
14D
330
1F
100
AcDbEntity
  8
Default
100
AcDbBlockReference
  2
GDimGGroup1
 10
0.0
 20
0.0
 30
0.0
  0
INSERT
  5
157
330
1F
100
AcDbEntity
  8
Default
100
AcDbBlockReference
  2
GDimGGroup2
 10
0.0
 20
0.0
 30
0.0
  0
LINE
  5
162
330
1F
100
AcDbEntity
  8
Predeterminado
 62
     7
370
    35
100
AcDbLine
 10
199.9270202384685
 20
10.03236327681463
 30
0.0
 11
19.92702023846866
 21
10.03236327681461
 31
0.0
  0
LINE
  5
163
330
1F
100
AcDbEntity
  8
Predeterminado
 62
     7
370
    35
100
AcDbLine
 10
199.9270202384685
 20
10.03236327681463
 30
0.0
 11
199.9270202384685
 21
287.0323632768146
 31
0.0
  0
LINE
  5
164
330
1F
100
AcDbEntity
  8
Predeterminado
 62
     7
370
    35
100
AcDbLine
 10
199.9270202384685
 20
287.0323632768146
 30
0.0
 11
19.92702023846866
 21
287.0323632768146
 31
0.0
  0
LINE
  5
165
330
1F
100
AcDbEntity
  8
Predeterminado
 62
     7
370
    35
100
AcDbLine
 10
19.92702023846865
 20
287.0323632768146
 30
0.0
 11
19.92702023846865
 21
10.03236327681464
 31
0.0
  0
LINE
  5
166
330
1F
100
AcDbEntity
  8
Predeterminado
 62
     7
370
    35
100
AcDbLine
 10
19.92702023846865
 20
267.0323632768146
 30
0.0
 11
199.9270202384685
 21
267.0323632768146
 31
0.0
  0
LINE
  5
167
330
1F
100
AcDbEntity
  8
Predeterminado
 62
     7
370
    35
100
AcDbLine
 10
64.9270202384685
 20
271.0323632768146
 30
0.0
 11
64.9270202384685
 21
283.0323632768146
 31
0.0
  0
LINE
  5
168
330
1F
100
AcDbEntity
  8
Predeterminado
 62
     7
370
    35
100
AcDbLine
 10
154.9270202384685
 20
271.0323632768146
 30
0.0
 11
154.9270202384685
 21
283.0323632768146
 31
0.0
  0
INSERT
  5
16A
330
1F
100
AcDbEntity
  8
Predeterminado
100
AcDbBlockReference
  2
SEANNOT_GROUP
 10
0.0
 20
0.0
 30
0.0
  0
INSERT
  5
172
330
1F
100
AcDbEntity
  8
Predeterminado
100
AcDbBlockReference
  2
SEANNOT_GROUP1
 10
0.0
 20
0.0
 30
0.0
  0
INSERT
  5
177
330
1F
100
AcDbEntity
  8
Predeterminado
100
AcDbBlockReference
  2
SEANNOT_GROUP2
 10
0.0
 20
0.0
 30
0.0
  0
MTEXT
  5
17C
102
{ACAD_XDICTIONARY
360
1C4
102
}
330
1F
100
AcDbEntity
  8
D
100
AcDbMText
 10
26.00429443831315
 20
282.691347141335
 30
0.0
 40
6.0
 41
46.75465178080735
 71
     1
 72
     1
  1
{\C7;BENITO}\P{\fArial|b1|i0|c0|p34;\C7;–}{\C7;Urban}\P
 73
     1
 44
1.0
1001
ACAD
1000
ACAD_MTEXT_DEFINED_HEIGHT_BEGIN
1070
    46
1040
17.79999999999998
1000
ACAD_MTEXT_DEFINED_HEIGHT_END
  0
MTEXT
  5
17D
330
1F
100
AcDbEntity
  8
Predeterminado
100
AcDbMText
 10
163.8089186942272
 20
280.4449025454284
 30
0.0
 40
2.5
 41
32.175011
 71
     1
 72
     1
  1
{\fSolid Edge ANSI|b0||i0||c0|p34;\C7;\H2.5;\W1.;T +34 938 521 000\P}{\fSolid Edge ANSI|b0||i0||c0|p34;\C7;\H2.5;\W1.;www.benito.com\P}
 73
     1
 44
1.0
1001
ACAD
1000
ACAD_MTEXT_DEFINED_HEIGHT_BEGIN
1070
    46
1040
9.000010000000009
1000
ACAD_MTEXT_DEFINED_HEIGHT_END
  0
MTEXT
  5
17E
330
1F
100
AcDbEntity
  8
Predeterminado
100
AcDbMText
 10
150.6598696583449
 20
8.07143559968931
 30
0.0
 40
2.0
 41
54.23001100000002
 71
     1
 72
     1
  1
{\fSolid Edge ANSI|b0||i0||c0|p34;\C7;\H2.;\W1.;BENITO –Urban –Light –Play –Covers}
 73
     1
 44
1.0
1001
ACAD
1000
ACAD_MTEXT_DEFINED_HEIGHT_BEGIN
1070
    46
1040
3.60001
1000
ACAD_MTEXT_DEFINED_HEIGHT_END
  0
ENDSEC
  0
SECTION
  2
OBJECTS
  0
DICTIONARY
  5
C
330
0
100
AcDbDictionary
281
     1
  3
ACAD_GROUP
350
D
  3
ACAD_LAYOUT
350
1A
  3
ACAD_MATERIAL
350
43
  3
ACAD_MLEADERSTYLE
350
6B
  3
ACAD_MLINESTYLE
350
17
  3
ACAD_PLOTSETTINGS
350
19
  3
ACAD_PLOTSTYLENAME
350
E
  3
ACAD_SCALELIST
350
47
  3
ACAD_TABLESTYLE
350
69
  3
ACAD_VISUALSTYLE
350
2A
  3
ACDB_RECOMPOSE_DATA
350
201
  3
AcDbVariableDictionary
350
17F
  3
DWGPROPS
350
1C3
  0
DICTIONARY
  5
1C6
330
8
100
AcDbDictionary
280
     1
281
     1
  3
ACAD_XREC_ROUNDTRIP
360
1C7
  0
DICTIONARY
  5
1C4
330
17C
100
AcDbDictionary
280
     1
281
     1
  3
ACAD_MTEXT_RT
360
1C5
  0
DICTIONARY
  5
D
102
{ACAD_REACTORS
330
C
102
}
330
C
100
AcDbDictionary
281
     1
  0
DICTIONARY
  5
1A
102
{ACAD_REACTORS
330
C
102
}
330
C
100
AcDbDictionary
281
     1
  3
Layout1
350
1E
  3
Model
350
22
  0
DICTIONARY
  5
43
102
{ACAD_REACTORS
330
C
102
}
330
C
100
AcDbDictionary
281
     1
  3
ByBlock
350
45
  3
ByLayer
350
44
  3
Global
350
46
  0
DICTIONARY
  5
6B
102
{ACAD_REACTORS
330
C
102
}
330
C
100
AcDbDictionary
281
     1
  3
Standard
350
6C
  0
DICTIONARY
  5
17
102
{ACAD_REACTORS
330
C
102
}
330
C
100
AcDbDictionary
281
     1
  3
Standard
350
18
  0
DICTIONARY
  5
19
102
{ACAD_REACTORS
330
C
102
}
330
C
100
AcDbDictionary
281
     1
  0
ACDBDICTIONARYWDFLT
  5
E
102
{ACAD_REACTORS
330
C
102
}
330
C
100
AcDbDictionary
281
     1
  3
Normal
350
F
100
AcDbDictionaryWithDefault
340
F
  0
DICTIONARY
  5
47
102
{ACAD_REACTORS
330
C
102
}
330
C
100
AcDbDictionary
281
     1
  3
A0
350
48
  3
A1
350
49
  3
A2
350
4A
  3
A3
350
4B
  3
A4
350
4C
  3
A5
350
4D
  3
A6
350
4E
  3
A7
350
4F
  3
A8
350
50
  3
A9
350
51
  3
B0
350
52
  3
B1
350
53
  3
B2
350
54
  3
B3
350
55
  3
B4
350
56
  3
B5
350
57
  3
B6
350
58
  3
B7
350
59
  3
B8
350
5A
  3
B9
350
5B
  3
C0
350
5C
  3
C1
350
5D
  3
C2
350
5E
  3
C3
350
5F
  3
C4
350
60
  3
C5
350
61
  3
C6
350
62
  3
C7
350
63
  3
C8
350
64
  3
C9
350
65
  3
D0
350
66
  3
D1
350
67
  3
D2
350
68
  0
DICTIONARY
  5
69
102
{ACAD_REACTORS
330
C
102
}
330
C
100
AcDbDictionary
281
     1
  3
Standard
350
6A
  0
DICTIONARY
  5
2A
102
{ACAD_REACTORS
330
C
102
}
330
C
100
AcDbDictionary
281
     1
  3
2dWireframe
350
2F
  3
Basic
350
32
  3
Brighten
350
36
  3
ColorChange
350
3A
  3
Conceptual
350
34
  3
Dim
350
35
  3
EdgeColorOff
350
3D
  3
Facepattern
350
39
  3
Flat
350
2B
  3
FlatWithEdges
350
2C
  3
Gouraud
350
2D
  3
GouraudWithEdges
350
2E
  3
Hidden
350
31
  3
JitterOff
350
3B
  3
Linepattern
350
38
  3
OverhangOff
350
3C
  3
Realistic
350
33
  3
Shaded
350
42
  3
Shaded with edges
350
41
  3
Shades of Gray
350
3E
  3
Sketchy
350
3F
  3
Thicken
350
37
  3
Wireframe
350
30
  3
X-Ray
350
40
  0
XRECORD
  5
201
102
{ACAD_REACTORS
330
C
102
}
330
C
100
AcDbXrecord
280
     1
 90
        1
330
17C
  0
DICTIONARY
  5
17F
102
{ACAD_REACTORS
330
C
102
}
330
C
100
AcDbDictionary
281
     1
  3
CANNOSCALE
350
180
  3
CMLEADERSTYLE
350
1B9
  3
CTABLESTYLE
350
1B8
  3
DIMASSOC
350
1C1
  3
HIDETEXT
350
1C2
  3
MSLTSCALE
350
1C8
  3
PSOLHEIGHT
350
1C0
  3
PSOLWIDTH
350
1BF
  3
SECTIONTHICKNESSINC
350
1BC
  3
XCLIPFRAME
350
181
  0
XRECORD
  5
1C3
102
{ACAD_REACTORS
330
C
102
}
330
C
100
AcDbXrecord
280
     1
  1
DWGPROPS COOKIE
  2

  3

  4

  6

  7

  8
acae2
  9

300
=
301
=
302
=
303
=
304
=
305
=
306
=
307
=
308
=
309
=
 40
0.0
 41
2459356.504271898
 42
2460396.579181435
  1

 90
        0
  0
XRECORD
  5
1C7
102
{ACAD_REACTORS
330
1C6
102
}
330
1C6
100
AcDbXrecord
280
     1
102
VTR_0.000_0.000_1.000_1.000_VISUALSTYLE
340
2F
102
VTR_0.000_0.000_1.000_1.000_GRIDDISPLAY
 70
     3
102
VTR_0.000_0.000_1.000_1.000_GRIDMAJOR
 70
     5
102
VTR_0.000_0.000_1.000_1.000_DEFAULTLIGHTING
280
     1
102
VTR_0.000_0.000_1.000_1.000_DEFAULTLIGHTINGTYPE
 70
     1
102
VTR_0.000_0.000_1.000_1.000_BRIGHTNESS
141
0.0
102
VTR_0.000_0.000_1.000_1.000_CONTRAST
142
0.0
  0
XRECORD
  5
1C5
102
{ACAD_REACTORS
330
1C4
102
}
330
1C4
100
AcDbXrecord
280
     1
 40
129076.0
  1
{\fSolid Edge ANSI|b1||i0||c0|p34;\C7;\H6.;\W1.;\pxsa0.8;BENITO\P}{\fSolid Edge ANSI|b1||i0||c0|p34;\C7;\H6.;\W1.;\pxse0.8333333333;–Urban\P}
  0
LAYOUT
  5
1E
102
{ACAD_REACTORS
330
1A
102
}
330
1A
100
AcDbPlotSettings
  1

  2
none_device
  4

  6

 40
0.0
 41
0.0
 42
0.0
 43
0.0
 44
0.0
 45
0.0
 46
0.0
 47
0.0
 48
0.0
 49
0.0
140
0.0
141
0.0
142
1.0
143
1.0
 70
   688
 72
     1
 73
     0
 74
     5
  7

 75
    16
147
1.0
148
0.0
149
0.0
100
AcDbLayout
  1
Layout1
 70
     1
 71
     1
 10
0.0
 20
0.0
 11
210.0
 21
297.0
 12
0.0
 22
0.0
 32
0.0
 14
0.0
 24
0.0
 34
0.0
 15
210.0
 25
297.0
 35
0.0
146
0.0
 13
0.0
 23
0.0
 33
0.0
 16
1.0
 26
0.0
 36
0.0
 17
0.0
 27
1.0
 37
0.0
 76
     0
330
1B
  0
LAYOUT
  5
22
102
{ACAD_REACTORS
330
1A
102
}
330
1A
100
AcDbPlotSettings
  1

  2
none_device
  4
Letter_(8.50_x_11.00_Inches)
  6

 40
6.35
 41
6.35
 42
6.35000508
 43
6.35000508
 44
215.9
 45
279.4
 46
0.0
 47
0.0
 48
0.0
 49
0.0
140
0.0
141
0.0
142
1.0
143
1.0
 70
  1712
 72
     1
 73
     0
 74
     0
  7

 75
     0
147
1.0
148
0.0
149
0.0
100
AcDbLayout
  1
Model
 70
     1
 71
     0
 10
0.0
 20
0.0
 11
210.0
 21
297.0
 12
0.0
 22
0.0
 32
0.0
 14
0.0
 24
0.0
 34
0.0
 15
210.0
 25
297.0
 35
0.0
146
0.0
 13
0.0
 23
0.0
 33
0.0
 16
1.0
 26
0.0
 36
0.0
 17
0.0
 27
1.0
 37
0.0
 76
     0
330
1F
331
29
  0
MATERIAL
  5
45
102
{ACAD_REACTORS
330
43
102
}
102
{ACAD_XDICTIONARY
360
1FB
102
}
330
43
100
AcDbMaterial
  1
ByBlock
  0
MATERIAL
  5
44
102
{ACAD_REACTORS
330
43
102
}
102
{ACAD_XDICTIONARY
360
1F9
102
}
330
43
100
AcDbMaterial
  1
ByLayer
  0
MATERIAL
  5
46
102
{ACAD_REACTORS
330
43
102
}
102
{ACAD_XDICTIONARY
360
1FD
102
}
330
43
100
AcDbMaterial
  1
Global
  0
MLEADERSTYLE
  5
6C
102
{ACAD_REACTORS
330
6B
102
}
102
{ACAD_XDICTIONARY
360
1FF
102
}
330
6B
100
AcDbMLeaderStyle
170
     2
171
     1
172
     0
 90
        2
 40
0.0
 41
0.0
173
     1
 91
-1056964608
340
14
 92
       -2
290
     1
 42
2.0
291
     1
 43
8.0
  3
Standard
341
0
 44
4.0
300

342
11
174
     1
178
     6
175
     1
176
     0
 93
-1056964608
 45
4.0
292
     0
297
     0
 46
4.0
343
0
 94
-1056964608
 47
1.0
 49
1.0
140
1.0
293
     1
141
0.0
294
     1
177
     0
142
1.0
295
     0
296
     0
143
3.75
1001
ACAD_MLEADERVER
1070
     2
  0
MLINESTYLE
  5
18
102
{ACAD_REACTORS
330
17
102
}
330
17
100
AcDbMlineStyle
  2
Standard
 70
     0
  3

 62
   256
 51
90.0
 52
90.0
 71
     2
 49
0.5
 62
   256
  6
BYLAYER
 49
-0.5
 62
   256
  6
BYLAYER
  0
ACDBPLACEHOLDER
  5
F
102
{ACAD_REACTORS
330
E
102
}
330
E
  0
SCALE
  5
48
102
{ACAD_REACTORS
330
47
102
}
330
47
100
AcDbScale
 70
     0
300
1:1
140
1.0
141
1.0
290
     1
  0
SCALE
  5
49
102
{ACAD_REACTORS
330
47
102
}
330
47
100
AcDbScale
 70
     0
300
1:2
140
1.0
141
2.0
290
     0
  0
SCALE
  5
4A
102
{ACAD_REACTORS
330
47
102
}
330
47
100
AcDbScale
 70
     0
300
1:4
140
1.0
141
4.0
290
     0
  0
SCALE
  5
4B
102
{ACAD_REACTORS
330
47
102
}
330
47
100
AcDbScale
 70
     0
300
1:5
140
1.0
141
5.0
290
     0
  0
SCALE
  5
4C
102
{ACAD_REACTORS
330
47
102
}
330
47
100
AcDbScale
 70
     0
300
1:8
140
1.0
141
8.0
290
     0
  0
SCALE
  5
4D
102
{ACAD_REACTORS
330
47
102
}
330
47
100
AcDbScale
 70
     0
300
1:10
140
1.0
141
10.0
290
     0
  0
SCALE
  5
4E
102
{ACAD_REACTORS
330
47
102
}
330
47
100
AcDbScale
 70
     0
300
1:16
140
1.0
141
16.0
290
     0
  0
SCALE
  5
4F
102
{ACAD_REACTORS
330
47
102
}
330
47
100
AcDbScale
 70
     0
300
1:20
140
1.0
141
20.0
290
     0
  0
SCALE
  5
50
102
{ACAD_REACTORS
330
47
102
}
330
47
100
AcDbScale
 70
     0
300
1:30
140
1.0
141
30.0
290
     0
  0
SCALE
  5
51
102
{ACAD_REACTORS
330
47
102
}
330
47
100
AcDbScale
 70
     0
300
1:40
140
1.0
141
40.0
290
     0
  0
SCALE
  5
52
102
{ACAD_REACTORS
330
47
102
}
330
47
100
AcDbScale
 70
     0
300
1:50
140
1.0
141
50.0
290
     0
  0
SCALE
  5
53
102
{ACAD_REACTORS
330
47
102
}
330
47
100
AcDbScale
 70
     0
300
1:100
140
1.0
141
100.0
290
     0
  0
SCALE
  5
54
102
{ACAD_REACTORS
330
47
102
}
330
47
100
AcDbScale
 70
     0
300
2:1
140
2.0
141
1.0
290
     0
  0
SCALE
  5
55
102
{ACAD_REACTORS
330
47
102
}
330
47
100
AcDbScale
 70
     0
300
4:1
140
4.0
141
1.0
290
     0
  0
SCALE
  5
56
102
{ACAD_REACTORS
330
47
102
}
330
47
100
AcDbScale
 70
     0
300
8:1
140
8.0
141
1.0
290
     0
  0
SCALE
  5
57
102
{ACAD_REACTORS
330
47
102
}
330
47
100
AcDbScale
 70
     0
300
10:1
140
10.0
141
1.0
290
     0
  0
SCALE
  5
58
102
{ACAD_REACTORS
330
47
102
}
330
47
100
AcDbScale
 70
     0
300
100:1
140
100.0
141
1.0
290
     0
  0
SCALE
  5
59
102
{ACAD_REACTORS
330
47
102
}
330
47
100
AcDbScale
 70
     0
300
1/128" = 1'-0"
140
0.0078125
141
12.0
290
     0
  0
SCALE
  5
5A
102
{ACAD_REACTORS
330
47
102
}
330
47
100
AcDbScale
 70
     0
300
1/64" = 1'-0"
140
0.015625
141
12.0
290
     0
  0
SCALE
  5
5B
102
{ACAD_REACTORS
330
47
102
}
330
47
100
AcDbScale
 70
     0
300
1/32" = 1'-0"
140
0.03125
141
12.0
290
     0
  0
SCALE
  5
5C
102
{ACAD_REACTORS
330
47
102
}
330
47
100
AcDbScale
 70
     0
300
1/16" = 1'-0"
140
0.0625
141
12.0
290
     0
  0
SCALE
  5
5D
102
{ACAD_REACTORS
330
47
102
}
330
47
100
AcDbScale
 70
     0
300
3/32" = 1'-0"
140
0.09375
141
12.0
290
     0
  0
SCALE
  5
5E
102
{ACAD_REACTORS
330
47
102
}
330
47
100
AcDbScale
 70
     0
300
1/8" = 1'-0"
140
0.125
141
12.0
290
     0
  0
SCALE
  5
5F
102
{ACAD_REACTORS
330
47
102
}
330
47
100
AcDbScale
 70
     0
300
3/16" = 1'-0"
140
0.1875
141
12.0
290
     0
  0
SCALE
  5
60
102
{ACAD_REACTORS
330
47
102
}
330
47
100
AcDbScale
 70
     0
300
1/4" = 1'-0"
140
0.25
141
12.0
290
     0
  0
SCALE
  5
61
102
{ACAD_REACTORS
330
47
102
}
330
47
100
AcDbScale
 70
     0
300
3/8" = 1'-0"
140
0.375
141
12.0
290
     0
  0
SCALE
  5
62
102
{ACAD_REACTORS
330
47
102
}
330
47
100
AcDbScale
 70
     0
300
1/2" = 1'-0"
140
0.5
141
12.0
290
     0
  0
SCALE
  5
63
102
{ACAD_REACTORS
330
47
102
}
330
47
100
AcDbScale
 70
     0
300
3/4" = 1'-0"
140
0.75
141
12.0
290
     0
  0
SCALE
  5
64
102
{ACAD_REACTORS
330
47
102
}
330
47
100
AcDbScale
 70
     0
300
1" = 1'-0"
140
1.0
141
12.0
290
     0
  0
SCALE
  5
65
102
{ACAD_REACTORS
330
47
102
}
330
47
100
AcDbScale
 70
     0
300
1-1/2" = 1'-0"
140
1.5
141
12.0
290
     0
  0
SCALE
  5
66
102
{ACAD_REACTORS
330
47
102
}
330
47
100
AcDbScale
 70
     0
300
3" = 1'-0"
140
3.0
141
12.0
290
     0
  0
SCALE
  5
67
102
{ACAD_REACTORS
330
47
102
}
330
47
100
AcDbScale
 70
     0
300
6" = 1'-0"
140
6.0
141
12.0
290
     0
  0
SCALE
  5
68
102
{ACAD_REACTORS
330
47
102
}
330
47
100
AcDbScale
 70
     0
300
1'-0" = 1'-0"
140
12.0
141
12.0
290
     0
  0
TABLESTYLE
  5
6A
102
{ACAD_REACTORS
330
69
102
}
330
69
100
AcDbTableStyle
  3
Standard
 70
     0
 71
     0
 40
0.06
 41
0.06
280
     0
281
     0
  7
Standard
140
4.5
170
     2
 62
     0
 63
   257
283
     0
274
    -2
284
     1
 64
     0
275
    -2
285
     1
 65
     0
276
    -2
286
     1
 66
     0
277
    -2
287
     1
 67
     0
278
    -2
288
     1
 68
     0
279
    -2
289
     1
 69
     0
  7
Standard
140
6.0
170
     5
 62
     0
 63
   257
283
     0
274
    -2
284
     1
 64
     0
275
    -2
285
     1
 65
     0
276
    -2
286
     1
 66
     0
277
    -2
287
     1
 67
     0
278
    -2
288
     1
 68
     0
279
    -2
289
     1
 69
     0
  7
Standard
140
4.5
170
     5
 62
     0
 63
   257
283
     0
274
    -2
284
     1
 64
     0
275
    -2
285
     1
 65
     0
276
    -2
286
     1
 66
     0
277
    -2
287
     1
 67
     0
278
    -2
288
     1
 68
     0
279
    -2
289
     1
 69
     0
  0
VISUALSTYLE
  5
2F
102
{ACAD_REACTORS
330
2A
102
}
102
{ACAD_XDICTIONARY
360
1D1
102
}
330
2A
100
AcDbVisualStyle
  2
2dWireframe
 70
     4
 71
     0
 72
     2
 73
     0
 90
        0
 40
0.6
 41
30.0
 62
     5
 63
     7
 74
     1
 91
        4
 64
     7
 65
   257
 75
     1
175
     1
 42
1.0
 92
        0
 66
   257
 43
1.0
 76
     1
 77
     6
 78
     2
 67
     7
 79
     5
170
     0
171
     0
290
     0
174
     0
 93
        1
 44
0.0
173
     0
291
     0
 45
0.0
1001
ACAD
1000
AcDbSavedByObjectVersion
1070
     0
  0
VISUALSTYLE
  5
32
102
{ACAD_REACTORS
330
2A
102
}
102
{ACAD_XDICTIONARY
360
1D7
102
}
330
2A
100
AcDbVisualStyle
  2
Basic
 70
     7
 71
     1
 72
     0
 73
     1
 90
        0
 40
0.6
 41
30.0
 62
     5
 63
     7
 74
     0
 91
        4
 64
     7
 65
   257
 75
     1
175
     1
 42
1.0
 92
        8
 66
     7
 43
1.0
 76
     1
 77
     6
 78
     2
 67
     7
 79
     5
170
     0
171
     0
290
     0
174
     0
 93
        1
 44
0.0
173
     0
291
     1
 45
0.0
1001
ACAD
1000
AcDbSavedByObjectVersion
1070
     0
  0
VISUALSTYLE
  5
36
102
{ACAD_REACTORS
330
2A
102
}
102
{ACAD_XDICTIONARY
360
1DF
102
}
330
2A
100
AcDbVisualStyle
  2
Brighten
 70
    12
 71
     2
 72
     2
 73
     0
 90
        0
 40
0.6
 41
30.0
 62
     5
 63
     7
 74
     1
 91
        4
 64
     7
 65
   257
 75
     1
175
     1
 42
1.0
 92
        8
 66
     7
 43
1.0
 76
     1
 77
     6
 78
     2
 67
     7
 79
     5
170
     0
171
     0
290
     0
174
     0
 93
        1
 44
50.0
173
     0
291
     1
 45
0.0
1001
ACAD
1000
AcDbSavedByObjectVersion
1070
     0
  0
VISUALSTYLE
  5
3A
102
{ACAD_REACTORS
330
2A
102
}
102
{ACAD_XDICTIONARY
360
1E7
102
}
330
2A
100
AcDbVisualStyle
  2
ColorChange
 70
    16
 71
     2
 72
     2
 73
     3
 90
        0
 40
0.6
 41
30.0
 62
     5
 63
     8
 74
     1
 91
        4
 64
     7
 65
   257
 75
     1
175
     1
 42
1.0
 92
        8
 66
     8
 43
1.0
 76
     1
 77
     6
 78
     2
 67
     7
 79
     5
170
     0
171
     0
290
     0
174
     0
 93
        1
 44
0.0
173
     0
291
     1
 45
0.0
1001
ACAD
1000
AcDbSavedByObjectVersion
1070
     0
  0
VISUALSTYLE
  5
34
102
{ACAD_REACTORS
330
2A
102
}
102
{ACAD_XDICTIONARY
360
1DB
102
}
330
2A
100
AcDbVisualStyle
  2
Conceptual
 70
     9
 71
     3
 72
     2
 73
     0
 90
        0
 40
0.6
 41
30.0
 62
     5
 63
     7
 74
     2
 91
        2
 64
     7
 65
   257
 75
     1
175
     1
 42
179.0
 92
        8
 66
     7
 43
1.0
 76
     1
 77
     6
 78
     2
 67
     7
 79
     3
170
     0
171
     0
290
     0
174
     0
 93
        1
 44
0.0
173
     0
291
     0
 45
0.0
1001
ACAD
1000
AcDbSavedByObjectVersion
1070
     0
  0
VISUALSTYLE
  5
35
102
{ACAD_REACTORS
330
2A
102
}
102
{ACAD_XDICTIONARY
360
1DD
102
}
330
2A
100
AcDbVisualStyle
  2
Dim
 70
    11
 71
     2
 72
     2
 73
     0
 90
        0
 40
0.6
 41
30.0
 62
     5
 63
     7
 74
     1
 91
        4
 64
     7
 65
   257
 75
     1
175
     1
 42
1.0
 92
        8
 66
     7
 43
1.0
 76
     1
 77
     6
 78
     2
 67
     7
 79
     5
170
     0
171
     0
290
     0
174
     0
 93
        1
 44
-50.0
173
     0
291
     1
 45
0.0
1001
ACAD
1000
AcDbSavedByObjectVersion
1070
     0
  0
VISUALSTYLE
  5
3D
102
{ACAD_REACTORS
330
2A
102
}
102
{ACAD_XDICTIONARY
360
1ED
102
}
330
2A
100
AcDbVisualStyle
  2
EdgeColorOff
 70
    22
 71
     2
 72
     2
 73
     0
 90
        0
 40
0.6
 41
30.0
 62
     5
 63
     7
 74
     1
 91
        4
 64
     7
 65
   257
 75
     1
175
     1
 42
1.0
 92
        8
 66
     7
 43
1.0
 76
     1
 77
     6
 78
     2
 67
     7
 79
     5
170
     0
171
     0
290
     0
174
     0
 93
        1
 44
0.0
173
     0
291
     1
 45
0.0
1001
ACAD
1000
AcDbSavedByObjectVersion
1070
     0
  0
VISUALSTYLE
  5
39
102
{ACAD_REACTORS
330
2A
102
}
102
{ACAD_XDICTIONARY
360
1E5
102
}
330
2A
100
AcDbVisualStyle
  2
Facepattern
 70
    15
 71
     2
 72
     2
 73
     0
 90
        0
 40
0.6
 41
30.0
 62
     5
 63
     7
 74
     1
 91
        4
 64
     7
 65
   257
 75
     1
175
     1
 42
1.0
 92
        8
 66
     7
 43
1.0
 76
     1
 77
     6
 78
     2
 67
     7
 79
     5
170
     0
171
     0
290
     0
174
     0
 93
        1
 44
0.0
173
     0
291
     1
 45
0.0
1001
ACAD
1000
AcDbSavedByObjectVersion
1070
     0
  0
VISUALSTYLE
  5
2B
102
{ACAD_REACTORS
330
2A
102
}
102
{ACAD_XDICTIONARY
360
1C9
102
}
330
2A
100
AcDbVisualStyle
  2
Flat
 70
     0
 71
     2
 72
     1
 73
     1
 90
        2
 40
0.6
 41
30.0
 62
     5
 63
     7
 74
     0
 91
        0
 64
     7
 65
   257
 75
     1
175
     1
 42
1.0
 92
        8
 66
     7
 43
1.0
 76
     1
 77
     6
 78
     2
 67
     7
 79
     5
170
     0
171
     0
290
     0
174
     0
 93
       13
 44
0.0
173
     0
291
     1
 45
0.0
1001
ACAD
1000
AcDbSavedByObjectVersion
1070
     0
  0
VISUALSTYLE
  5
2C
102
{ACAD_REACTORS
330
2A
102
}
102
{ACAD_XDICTIONARY
360
1CB
102
}
330
2A
100
AcDbVisualStyle
  2
FlatWithEdges
 70
     1
 71
     2
 72
     1
 73
     1
 90
        2
 40
0.6
 41
30.0
 62
     5
 63
     7
 74
     1
 91
        0
 64
     7
 65
   257
 75
     1
175
     1
 42
1.0
 92
        0
 66
   257
 43
1.0
 76
     1
 77
     6
 78
     2
 67
     7
 79
     5
170
     0
171
     0
290
     0
174
     0
 93
       13
 44
0.0
173
     0
291
     1
 45
0.0
1001
ACAD
1000
AcDbSavedByObjectVersion
1070
     0
  0
VISUALSTYLE
  5
2D
102
{ACAD_REACTORS
330
2A
102
}
102
{ACAD_XDICTIONARY
360
1CD
102
}
330
2A
100
AcDbVisualStyle
  2
Gouraud
 70
     2
 71
     2
 72
     2
 73
     1
 90
        2
 40
0.6
 41
30.0
 62
     5
 63
     7
 74
     0
 91
        0
 64
     7
 65
   257
 75
     1
175
     1
 42
1.0
 92
        0
 66
     7
 43
1.0
 76
     1
 77
     6
 78
     2
 67
     7
 79
     5
170
     0
171
     0
290
     0
174
     0
 93
       13
 44
0.0
173
     0
291
     1
 45
0.0
1001
ACAD
1000
AcDbSavedByObjectVersion
1070
     0
  0
VISUALSTYLE
  5
2E
102
{ACAD_REACTORS
330
2A
102
}
102
{ACAD_XDICTIONARY
360
1CF
102
}
330
2A
100
AcDbVisualStyle
  2
GouraudWithEdges
 70
     3
 71
     2
 72
     2
 73
     1
 90
        2
 40
0.6
 41
30.0
 62
     5
 63
     7
 74
     1
 91
        0
 64
     7
 65
   257
 75
     1
175
     1
 42
1.0
 92
        0
 66
   257
 43
1.0
 76
     1
 77
     6
 78
     2
 67
     7
 79
     5
170
     0
171
     0
290
     0
174
     0
 93
       13
 44
0.0
173
     0
291
     1
 45
0.0
1001
ACAD
1000
AcDbSavedByObjectVersion
1070
     0
  0
VISUALSTYLE
  5
31
102
{ACAD_REACTORS
330
2A
102
}
102
{ACAD_XDICTIONARY
360
1D5
102
}
330
2A
100
AcDbVisualStyle
  2
Hidden
 70
     6
 71
     1
 72
     2
 73
     2
 90
        0
 40
0.6
 41
30.0
 62
     5
 63
     7
 74
     2
 91
        2
 64
     7
 65
   257
 75
     2
175
     1
 42
40.0
 92
        0
 66
   257
 43
1.0
 76
     1
 77
     6
 78
     2
 67
     7
 79
     3
170
     0
171
     0
290
     0
174
     0
 93
        1
 44
0.0
173
     0
291
     0
 45
0.0
1001
ACAD
1000
AcDbSavedByObjectVersion
1070
     0
  0
VISUALSTYLE
  5
3B
102
{ACAD_REACTORS
330
2A
102
}
102
{ACAD_XDICTIONARY
360
1E9
102
}
330
2A
100
AcDbVisualStyle
  2
JitterOff
 70
    20
 71
     2
 72
     2
 73
     0
 90
        0
 40
0.6
 41
30.0
 62
     5
 63
     7
 74
     1
 91
        4
 64
     7
 65
   257
 75
     1
175
     1
 42
1.0
 92
       10
 66
     7
 43
1.0
 76
     1
 77
     6
 78
     2
 67
     7
 79
     5
170
     0
171
     0
290
     0
174
     0
 93
        1
 44
0.0
173
     0
291
     1
 45
0.0
1001
ACAD
1000
AcDbSavedByObjectVersion
1070
     0
  0
VISUALSTYLE
  5
38
102
{ACAD_REACTORS
330
2A
102
}
102
{ACAD_XDICTIONARY
360
1E3
102
}
330
2A
100
AcDbVisualStyle
  2
Linepattern
 70
    14
 71
     2
 72
     2
 73
     0
 90
        0
 40
0.6
 41
30.0
 62
     5
 63
     7
 74
     1
 91
        4
 64
     7
 65
   257
 75
     7
175
     7
 42
1.0
 92
        8
 66
     7
 43
1.0
 76
     1
 77
     6
 78
     2
 67
     7
 79
     5
170
     0
171
     0
290
     0
174
     0
 93
        1
 44
0.0
173
     0
291
     1
 45
0.0
1001
ACAD
1000
AcDbSavedByObjectVersion
1070
     0
  0
VISUALSTYLE
  5
3C
102
{ACAD_REACTORS
330
2A
102
}
102
{ACAD_XDICTIONARY
360
1EB
102
}
330
2A
100
AcDbVisualStyle
  2
OverhangOff
 70
    21
 71
     2
 72
     2
 73
     0
 90
        0
 40
0.6
 41
30.0
 62
     5
 63
     7
 74
     1
 91
        4
 64
     7
 65
   257
 75
     1
175
     1
 42
1.0
 92
        9
 66
     7
 43
1.0
 76
     1
 77
     6
 78
     2
 67
     7
 79
     5
170
     0
171
     0
290
     0
174
     0
 93
        1
 44
0.0
173
     0
291
     1
 45
0.0
1001
ACAD
1000
AcDbSavedByObjectVersion
1070
     0
  0
VISUALSTYLE
  5
33
102
{ACAD_REACTORS
330
2A
102
}
102
{ACAD_XDICTIONARY
360
1D9
102
}
330
2A
100
AcDbVisualStyle
  2
Realistic
 70
     8
 71
     2
 72
     3
 73
     0
 90
        2
 40
0.6
 41
30.0
 62
     5
 63
     7
 74
     0
 91
        0
 64
     7
 65
   257
 75
     1
175
     1
 42
1.0
 92
        8
 66
   257
 43
1.0
 76
     1
 77
     6
 78
     2
 67
     7
 79
     3
170
     0
171
     0
290
     0
174
     0
 93
       13
 44
0.0
173
     0
291
     0
 45
0.0
1001
ACAD
1000
AcDbSavedByObjectVersion
1070
     0
  0
VISUALSTYLE
  5
42
102
{ACAD_REACTORS
330
2A
102
}
102
{ACAD_XDICTIONARY
360
1F7
102
}
330
2A
100
AcDbVisualStyle
  2
Shaded
 70
    27
 71
     2
 72
     2
 73
     1
 90
        2
 40
0.6
 41
30.0
 62
     5
 63
     7
 74
     0
 91
        4
 64
     7
 65
   257
 75
     1
175
     1
 42
1.0
 92
        8
 66
   257
 43
1.0
 76
     1
 77
     6
 78
     2
 67
     8
 79
     3
170
     0
171
     0
290
     0
174
     0
 93
        5
 44
0.0
173
     0
291
     0
 45
0.0
1001
ACAD
1000
AcDbSavedByObjectVersion
1070
     0
  0
VISUALSTYLE
  5
41
102
{ACAD_REACTORS
330
2A
102
}
102
{ACAD_XDICTIONARY
360
1F5
102
}
330
2A
100
AcDbVisualStyle
  2
Shaded with edges
 70
    26
 71
     2
 72
     2
 73
     1
 90
        2
 40
0.6
 41
30.0
 62
     5
 63
     7
 74
     1
 91
       10
 64
     7
 65
   257
 75
     2
175
     1
 42
1.0
 92
        8
 66
   257
 43
1.0
 76
     1
 77
     6
 78
     2
 67
     7
 79
     3
170
     0
171
     0
290
     0
174
     0
 93
        5
 44
0.0
173
     0
291
     0
 45
0.0
1001
ACAD
1000
AcDbSavedByObjectVersion
1070
     0
  0
VISUALSTYLE
  5
3E
102
{ACAD_REACTORS
330
2A
102
}
102
{ACAD_XDICTIONARY
360
1EF
102
}
330
2A
100
AcDbVisualStyle
  2
Shades of Gray
 70
    23
 71
     2
 72
     2
 73
     3
 90
        0
 40
0.6
 41
30.0
 62
     5
 63
     7
 74
     2
 91
        2
 64
     7
 65
     7
 75
     1
175
     1
 42
40.0
 92
        8
 66
     7
 43
1.0
 76
     1
 77
     6
 78
     2
 67
     7
 79
     3
170
     0
171
     0
290
     0
174
     0
 93
        1
 44
0.0
173
     0
291
     0
 45
0.0
1001
ACAD
1000
AcDbSavedByObjectVersion
1070
     0
  0
VISUALSTYLE
  5
3F
102
{ACAD_REACTORS
330
2A
102
}
102
{ACAD_XDICTIONARY
360
1F1
102
}
330
2A
100
AcDbVisualStyle
  2
Sketchy
 70
    24
 71
     1
 72
     2
 73
     2
 90
        0
 40
0.6
 41
30.0
 62
     5
 63
     7
 74
     2
 91
        2
 64
     7
 65
     7
 75
     1
175
     1
 42
40.0
 92
       11
 66
     7
 43
1.0
 76
     1
 77
     6
 78
     2
 67
     7
 79
     6
170
     0
171
     0
290
     0
174
     0
 93
        1
 44
0.0
173
     0
291
     0
 45
0.0
1001
ACAD
1000
AcDbSavedByObjectVersion
1070
     0
  0
VISUALSTYLE
  5
37
102
{ACAD_REACTORS
330
2A
102
}
102
{ACAD_XDICTIONARY
360
1E1
102
}
330
2A
100
AcDbVisualStyle
  2
Thicken
 70
    13
 71
     2
 72
     2
 73
     0
 90
        0
 40
0.6
 41
30.0
 62
     5
 63
     7
 74
     1
 91
        4
 64
     7
 65
   257
 75
     1
175
     1
 42
1.0
 92
       12
 66
     7
 43
1.0
 76
     1
 77
     6
 78
     2
 67
     7
 79
     5
170
     0
171
     0
290
     0
174
     0
 93
        1
 44
0.0
173
     0
291
     1
 45
0.0
1001
ACAD
1000
AcDbSavedByObjectVersion
1070
     0
  0
VISUALSTYLE
  5
30
102
{ACAD_REACTORS
330
2A
102
}
102
{ACAD_XDICTIONARY
360
1D3
102
}
330
2A
100
AcDbVisualStyle
  2
Wireframe
 70
     5
 71
     0
 72
     2
 73
     0
 90
        0
 40
0.6
 41
30.0
 62
     5
 63
     7
 74
     1
 91
        4
 64
     7
 65
   257
 75
     1
175
     1
 42
1.0
 92
        0
 66
   257
 43
1.0
 76
     1
 77
     6
 78
     2
 67
     7
 79
     3
170
     0
171
     0
290
     0
174
     0
 93
        1
 44
0.0
173
     0
291
     0
 45
0.0
1001
ACAD
1000
AcDbSavedByObjectVersion
1070
     0
  0
VISUALSTYLE
  5
40
102
{ACAD_REACTORS
330
2A
102
}
102
{ACAD_XDICTIONARY
360
1F3
102
}
330
2A
100
AcDbVisualStyle
  2
X-Ray
 70
    25
 71
     2
 72
     2
 73
     1
 90
        1
 40
0.5
 41
30.0
 62
     5
 63
     7
 74
     1
 91
        0
 64
     7
 65
   257
 75
     1
175
     1
 42
1.0
 92
        8
 66
     7
 43
1.0
 76
     1
 77
     6
 78
     2
 67
     7
 79
     3
170
     0
171
     0
290
     0
174
     0
 93
       13
 44
0.0
173
     0
291
     0
 45
0.0
1001
ACAD
1000
AcDbSavedByObjectVersion
1070
     0
  0
DICTIONARYVAR
  5
180
102
{ACAD_REACTORS
330
17F
102
}
330
17F
100
DictionaryVariables
280
     0
  1
1:1
  0
DICTIONARYVAR
  5
1B9
102
{ACAD_REACTORS
330
17F
102
}
330
17F
100
DictionaryVariables
280
     0
  1
Standard
  0
DICTIONARYVAR
  5
1B8
102
{ACAD_REACTORS
330
17F
102
}
330
17F
100
DictionaryVariables
280
     0
  1
Standard
  0
DICTIONARYVAR
  5
1C1
102
{ACAD_REACTORS
330
17F
102
}
330
17F
100
DictionaryVariables
280
     0
  1
2
  0
DICTIONARYVAR
  5
1C2
102
{ACAD_REACTORS
330
17F
102
}
330
17F
100
DictionaryVariables
280
     0
  1
1
  0
DICTIONARYVAR
  5
1C8
102
{ACAD_REACTORS
330
17F
102
}
330
17F
100
DictionaryVariables
280
     0
  1
1
  0
DICTIONARYVAR
  5
1C0
102
{ACAD_REACTORS
330
17F
102
}
330
17F
100
DictionaryVariables
280
     0
  1
80.000000
  0
DICTIONARYVAR
  5
1BF
102
{ACAD_REACTORS
330
17F
102
}
330
17F
100
DictionaryVariables
280
     0
  1
5.000000
  0
DICTIONARYVAR
  5
1BC
102
{ACAD_REACTORS
330
17F
102
}
330
17F
100
DictionaryVariables
280
     0
  1
6.000000
  0
DICTIONARYVAR
  5
181
102
{ACAD_REACTORS
330
17F
102
}
330
17F
100
DictionaryVariables
280
     0
  1
2
  0
DICTIONARY
  5
1FB
330
45
100
AcDbDictionary
280
     1
281
     1
  3
ACAD_XREC_ROUNDTRIP
360
1FC
  0
DICTIONARY
  5
1F9
330
44
100
AcDbDictionary
280
     1
281
     1
  3
ACAD_XREC_ROUNDTRIP
360
1FA
  0
DICTIONARY
  5
1FD
330
46
100
AcDbDictionary
280
     1
281
     1
  3
ACAD_XREC_ROUNDTRIP
360
1FE
  0
DICTIONARY
  5
1FF
330
6C
100
AcDbDictionary
280
     1
281
     1
  3
ACAD_XREC_ROUNDTRIP
360
200
  0
DICTIONARY
  5
1D1
330
2F
100
AcDbDictionary
280
     1
281
     1
  3
ACAD_XREC_ROUNDTRIP
360
1D2
  0
DICTIONARY
  5
1D7
330
32
100
AcDbDictionary
280
     1
281
     1
  3
ACAD_XREC_ROUNDTRIP
360
1D8
  0
DICTIONARY
  5
1DF
330
36
100
AcDbDictionary
280
     1
281
     1
  3
ACAD_XREC_ROUNDTRIP
360
1E0
  0
DICTIONARY
  5
1E7
330
3A
100
AcDbDictionary
280
     1
281
     1
  3
ACAD_XREC_ROUNDTRIP
360
1E8
  0
DICTIONARY
  5
1DB
330
34
100
AcDbDictionary
280
     1
281
     1
  3
ACAD_XREC_ROUNDTRIP
360
1DC
  0
DICTIONARY
  5
1DD
330
35
100
AcDbDictionary
280
     1
281
     1
  3
ACAD_XREC_ROUNDTRIP
360
1DE
  0
DICTIONARY
  5
1ED
330
3D
100
AcDbDictionary
280
     1
281
     1
  3
ACAD_XREC_ROUNDTRIP
360
1EE
  0
DICTIONARY
  5
1E5
330
39
100
AcDbDictionary
280
     1
281
     1
  3
ACAD_XREC_ROUNDTRIP
360
1E6
  0
DICTIONARY
  5
1C9
330
2B
100
AcDbDictionary
280
     1
281
     1
  3
ACAD_XREC_ROUNDTRIP
360
1CA
  0
DICTIONARY
  5
1CB
330
2C
100
AcDbDictionary
280
     1
281
     1
  3
ACAD_XREC_ROUNDTRIP
360
1CC
  0
DICTIONARY
  5
1CD
330
2D
100
AcDbDictionary
280
     1
281
     1
  3
ACAD_XREC_ROUNDTRIP
360
1CE
  0
DICTIONARY
  5
1CF
330
2E
100
AcDbDictionary
280
     1
281
     1
  3
ACAD_XREC_ROUNDTRIP
360
1D0
  0
DICTIONARY
  5
1D5
330
31
100
AcDbDictionary
280
     1
281
     1
  3
ACAD_XREC_ROUNDTRIP
360
1D6
  0
DICTIONARY
  5
1E9
330
3B
100
AcDbDictionary
280
     1
281
     1
  3
ACAD_XREC_ROUNDTRIP
360
1EA
  0
DICTIONARY
  5
1E3
330
38
100
AcDbDictionary
280
     1
281
     1
  3
ACAD_XREC_ROUNDTRIP
360
1E4
  0
DICTIONARY
  5
1EB
330
3C
100
AcDbDictionary
280
     1
281
     1
  3
ACAD_XREC_ROUNDTRIP
360
1EC
  0
DICTIONARY
  5
1D9
330
33
100
AcDbDictionary
280
     1
281
     1
  3
ACAD_XREC_ROUNDTRIP
360
1DA
  0
DICTIONARY
  5
1F7
330
42
100
AcDbDictionary
280
     1
281
     1
  3
ACAD_XREC_ROUNDTRIP
360
1F8
  0
DICTIONARY
  5
1F5
330
41
100
AcDbDictionary
280
     1
281
     1
  3
ACAD_XREC_ROUNDTRIP
360
1F6
  0
DICTIONARY
  5
1EF
330
3E
100
AcDbDictionary
280
     1
281
     1
  3
ACAD_XREC_ROUNDTRIP
360
1F0
  0
DICTIONARY
  5
1F1
330
3F
100
AcDbDictionary
280
     1
281
     1
  3
ACAD_XREC_ROUNDTRIP
360
1F2
  0
DICTIONARY
  5
1E1
330
37
100
AcDbDictionary
280
     1
281
     1
  3
ACAD_XREC_ROUNDTRIP
360
1E2
  0
DICTIONARY
  5
1D3
330
30
100
AcDbDictionary
280
     1
281
     1
  3
ACAD_XREC_ROUNDTRIP
360
1D4
  0
DICTIONARY
  5
1F3
330
40
100
AcDbDictionary
280
     1
281
     1
  3
ACAD_XREC_ROUNDTRIP
360
1F4
  0
XRECORD
  5
1FC
102
{ACAD_REACTORS
330
1FB
102
}
330
1FB
100
AcDbXrecord
280
     1
102
MATERIAL
148
0.0
149
0.0
149
0.0
 93
        0
 94
      127
282
     0
 72
     1
 77
     1
171
     1
175
     1
179
     1
273
     0
  0
XRECORD
  5
1FA
102
{ACAD_REACTORS
330
1F9
102
}
330
1F9
100
AcDbXrecord
280
     1
102
MATERIAL
148
0.0
149
0.0
149
0.0
 93
        0
 94
      127
282
     0
 72
     1
 77
     1
171
     1
175
     1
179
     1
273
     0
  0
XRECORD
  5
1FE
102
{ACAD_REACTORS
330
1FD
102
}
330
1FD
100
AcDbXrecord
280
     1
102
MATERIAL
148
0.0
149
0.0
149
0.0
 93
        0
 94
      127
282
     0
 72
     1
 77
     1
171
     1
175
     1
179
     1
273
     0
  0
XRECORD
  5
200
102
{ACAD_REACTORS
330
1FF
102
}
330
1FF
100
AcDbXrecord
280
     1
102
ACAD_ROUNDTRIP_2010_MLEADER_STYLE
  0
XRECORD
  5
1D2
102
{ACAD_REACTORS
330
1D1
102
}
330
1D1
100
AcDbXrecord
280
     1
102
RTVSPropertyOp0
 70
     1
102
RTVSPropertyOp1
 70
     1
102
RTVSPropertyOp2
 70
     1
102
RTVSPropertyOp3
 70
     1
102
RTVSPropertyOp4
 70
     1
102
RTVSPropertyOp5
 70
     1
102
RTVSPropertyOp6
 70
     1
102
RTVSPropertyOp7
 70
     1
102
RTVSPropertyOp8
 70
     1
102
RTVSPropertyOp9
 70
     1
102
RTVSPropertyOp10
 70
     1
102
RTVSPropertyOp11
 70
     1
102
RTVSPropertyOp12
 70
     1
102
RTVSPropertyOp13
 70
     1
102
RTVSPropertyOp14
 70
     1
102
RTVSPropertyOp15
 70
     1
102
RTVSPropertyOp16
 70
     1
102
RTVSPropertyOp17
 70
     1
102
RTVSPropertyOp18
 70
     1
102
RTVSPropertyOp19
 70
     1
102
RTVSPropertyOp20
 70
     1
102
RTVSPropertyOp21
 70
     1
102
RTVSPropertyOp22
 70
     1
102
RTVSPropertyOp23
 70
     1
102
RTVSPropertyOp24
 70
     1
102
RTVSPropertyOp25
 70
     1
102
RTVSPropertyOp26
 70
     1
102
RTVSPropertyOp27
 70
     1
102
RTVSPropertyOp28
 70
     1
102
RTVSPropertyOp29
 70
     1
102
RTVSPropertyOp30
 70
     1
102
RTVSPropertyOp31
 70
     1
102
RTVSPropertyOp32
 70
     1
102
RTVSPropertyOp33
 70
     1
102
RTVSPropertyOp34
 70
     1
102
RTVSPropertyOp35
 70
     1
102
RTVSPropertyOp36
 70
     1
102
RTVSPropertyOp37
 70
     1
102
RTVSPropertyOp38
 70
     1
102
RTVSPropertyOp39
 70
     1
102
RTVSPropertyOp40
 70
     1
102
RTVSPropertyOp41
 70
     1
102
RTVSPropertyOp42
 70
     1
102
RTVSPropertyOp43
 70
     1
102
RTVSPropertyOp44
 70
     1
102
RTVSPropertyOp45
 70
     1
102
RTVSPropertyOp46
 70
     1
102
RTVSPropertyOp47
 70
     1
102
RTVSPropertyOp48
 70
     1
102
RTVSPropertyOp49
 70
     1
102
RTVSPropertyOp50
 70
     1
102
RTVSPropertyOp51
 70
     0
102
RTVSPropertyOp52
 70
     0
102
RTVSPropertyOp53
 70
     1
102
RTVSPropertyOp54
 70
     1
102
RTVSPropertyOp55
 70
     1
102
RTVSPropertyOp56
 70
     1
102
RTVSPropertyOp57
 70
     1
102
RTVSPost2010Prop28
280
     1
102
RTVSPost2010PropOp28
 70
     1
102
RTVSPost2010Prop29
280
     1
102
RTVSPost2010PropOp29
 70
     1
102
RTVSPost2010Prop30
280
     0
102
RTVSPost2010PropOp30
 70
     1
102
RTVSPost2010Prop31
280
     0
102
RTVSPost2010PropOp31
 70
     1
102
RTVSPost2010Prop32
280
     0
102
RTVSPost2010PropOp32
 70
     1
102
RTVSPost2010Prop33
280
     0
102
RTVSPost2010PropOp33
 70
     1
102
RTVSPost2010Prop34
280
     0
102
RTVSPost2010PropOp34
 70
     1
102
RTVSPost2010Prop35
280
     0
102
RTVSPost2010PropOp35
 70
     1
102
RTVSPost2010Prop36
280
     0
102
RTVSPost2010PropOp36
 70
     1
102
RTVSPost2010Prop37
 90
       50
102
RTVSPost2010PropOp37
 70
     1
102
RTVSPost2010Prop38
140
0.0
102
RTVSPost2010PropOp38
 70
     1
102
RTVSPost2010Prop39
140
1.0
102
RTVSPost2010PropOp39
 70
     1
102
RTVSPost2010Prop40
 90
        0
102
RTVSPost2010PropOp40
 70
     1
102
RTVSPost2010Prop41ColorIndex
 90
       18
102
RTVSPost2010Prop41ColorRGB
 90
        0
102
RTVSPost2010PropOp41
 70
     1
102
RTVSPost2010Prop42
 90
       50
102
RTVSPost2010PropOp42
 70
     1
102
RTVSPost2010Prop43
 90
        3
102
RTVSPost2010PropOp43
 70
     1
102
RTVSPost2010Prop44ColorIndex
 90
        5
102
RTVSPost2010Prop44ColorRGB
 90
      255
102
RTVSPost2010PropOp44
 70
     1
102
RTVSPost2010Prop45
280
     0
102
RTVSPost2010PropOp45
 70
     1
102
RTVSPost2010Prop46
 90
       50
102
RTVSPost2010PropOp46
 70
     1
102
RTVSPost2010Prop47
 90
       50
102
RTVSPost2010PropOp47
 70
     1
102
RTVSPost2010Prop48
 90
       50
102
RTVSPost2010PropOp48
 70
     1
102
RTVSPost2010Prop49
280
     0
102
RTVSPost2010PropOp49
 70
     1
102
RTVSPost2010Prop50
 90
       50
102
RTVSPost2010PropOp50
 70
     1
102
RTVSPost2010Prop51ColorIndex
 90
      256
102
RTVSPost2010Prop51ColorRGB
 90
-16777216
102
RTVSPost2010PropOp51
 70
     0
102
RTVSPost2010Prop52
140
1.0
102
RTVSPost2010PropOp52
 70
     0
102
RTVSPost2010Prop53
 90
        2
102
RTVSPost2010PropOp53
 70
     1
102
RTVSPost2010Prop54
  1
strokes_ogs.tif
102
RTVSPost2010PropOp54
 70
     1
102
RTVSPost2010Prop55
280
     0
102
RTVSPost2010PropOp55
 70
     1
102
RTVSPost2010Prop56
140
1.0
102
RTVSPost2010PropOp56
 70
     1
102
RTVSPost2010Prop57
140
1.0
102
RTVSPost2010PropOp57
 70
     1
  0
XRECORD
  5
1D8
102
{ACAD_REACTORS
330
1D7
102
}
330
1D7
100
AcDbXrecord
280
     1
102
RTVSPropertyOp0
 70
     1
102
RTVSPropertyOp1
 70
     1
102
RTVSPropertyOp2
 70
     1
102
RTVSPropertyOp3
 70
     1
102
RTVSPropertyOp4
 70
     1
102
RTVSPropertyOp5
 70
     1
102
RTVSPropertyOp6
 70
     1
102
RTVSPropertyOp7
 70
     1
102
RTVSPropertyOp8
 70
     1
102
RTVSPropertyOp9
 70
     1
102
RTVSPropertyOp10
 70
     1
102
RTVSPropertyOp11
 70
     1
102
RTVSPropertyOp12
 70
     1
102
RTVSPropertyOp13
 70
     1
102
RTVSPropertyOp14
 70
     1
102
RTVSPropertyOp15
 70
     1
102
RTVSPropertyOp16
 70
     1
102
RTVSPropertyOp17
 70
     1
102
RTVSPropertyOp18
 70
     1
102
RTVSPropertyOp19
 70
     1
102
RTVSPropertyOp20
 70
     1
102
RTVSPropertyOp21
 70
     1
102
RTVSPropertyOp22
 70
     1
102
RTVSPropertyOp23
 70
     1
102
RTVSPropertyOp24
 70
     1
102
RTVSPropertyOp25
 70
     1
102
RTVSPropertyOp26
 70
     1
102
RTVSPropertyOp27
 70
     1
102
RTVSPropertyOp28
 70
     1
102
RTVSPropertyOp29
 70
     1
102
RTVSPropertyOp30
 70
     1
102
RTVSPropertyOp31
 70
     1
102
RTVSPropertyOp32
 70
     1
102
RTVSPropertyOp33
 70
     1
102
RTVSPropertyOp34
 70
     1
102
RTVSPropertyOp35
 70
     1
102
RTVSPropertyOp36
 70
     1
102
RTVSPropertyOp37
 70
     1
102
RTVSPropertyOp38
 70
     1
102
RTVSPropertyOp39
 70
     1
102
RTVSPropertyOp40
 70
     1
102
RTVSPropertyOp41
 70
     1
102
RTVSPropertyOp42
 70
     1
102
RTVSPropertyOp43
 70
     1
102
RTVSPropertyOp44
 70
     1
102
RTVSPropertyOp45
 70
     1
102
RTVSPropertyOp46
 70
     1
102
RTVSPropertyOp47
 70
     1
102
RTVSPropertyOp48
 70
     1
102
RTVSPropertyOp49
 70
     1
102
RTVSPropertyOp50
 70
     1
102
RTVSPropertyOp51
 70
     0
102
RTVSPropertyOp52
 70
     0
102
RTVSPropertyOp53
 70
     1
102
RTVSPropertyOp54
 70
     1
102
RTVSPropertyOp55
 70
     1
102
RTVSPropertyOp56
 70
     1
102
RTVSPropertyOp57
 70
     1
102
RTVSPost2010Prop28
280
     0
102
RTVSPost2010PropOp28
 70
     1
102
RTVSPost2010Prop29
280
     1
102
RTVSPost2010PropOp29
 70
     1
102
RTVSPost2010Prop30
280
     1
102
RTVSPost2010PropOp30
 70
     1
102
RTVSPost2010Prop31
280
     0
102
RTVSPost2010PropOp31
 70
     1
102
RTVSPost2010Prop32
280
     0
102
RTVSPost2010PropOp32
 70
     1
102
RTVSPost2010Prop33
280
     0
102
RTVSPost2010PropOp33
 70
     1
102
RTVSPost2010Prop34
280
     0
102
RTVSPost2010PropOp34
 70
     1
102
RTVSPost2010Prop35
280
     0
102
RTVSPost2010PropOp35
 70
     1
102
RTVSPost2010Prop36
280
     0
102
RTVSPost2010PropOp36
 70
     1
102
RTVSPost2010Prop37
 90
       50
102
RTVSPost2010PropOp37
 70
     1
102
RTVSPost2010Prop38
140
0.0
102
RTVSPost2010PropOp38
 70
     1
102
RTVSPost2010Prop39
140
1.0
102
RTVSPost2010PropOp39
 70
     1
102
RTVSPost2010Prop40
 90
        0
102
RTVSPost2010PropOp40
 70
     1
102
RTVSPost2010Prop41ColorIndex
 90
       18
102
RTVSPost2010Prop41ColorRGB
 90
        0
102
RTVSPost2010PropOp41
 70
     1
102
RTVSPost2010Prop42
 90
       50
102
RTVSPost2010PropOp42
 70
     1
102
RTVSPost2010Prop43
 90
        3
102
RTVSPost2010PropOp43
 70
     1
102
RTVSPost2010Prop44ColorIndex
 90
        5
102
RTVSPost2010Prop44ColorRGB
 90
      255
102
RTVSPost2010PropOp44
 70
     1
102
RTVSPost2010Prop45
280
     0
102
RTVSPost2010PropOp45
 70
     1
102
RTVSPost2010Prop46
 90
       50
102
RTVSPost2010PropOp46
 70
     1
102
RTVSPost2010Prop47
 90
       50
102
RTVSPost2010PropOp47
 70
     1
102
RTVSPost2010Prop48
 90
       50
102
RTVSPost2010PropOp48
 70
     1
102
RTVSPost2010Prop49
280
     0
102
RTVSPost2010PropOp49
 70
     1
102
RTVSPost2010Prop50
 90
       50
102
RTVSPost2010PropOp50
 70
     1
102
RTVSPost2010Prop51ColorIndex
 90
      256
102
RTVSPost2010Prop51ColorRGB
 90
-16777216
102
RTVSPost2010PropOp51
 70
     0
102
RTVSPost2010Prop52
140
1.0
102
RTVSPost2010PropOp52
 70
     0
102
RTVSPost2010Prop53
 90
        2
102
RTVSPost2010PropOp53
 70
     1
102
RTVSPost2010Prop54
  1
strokes_ogs.tif
102
RTVSPost2010PropOp54
 70
     1
102
RTVSPost2010Prop55
280
     0
102
RTVSPost2010PropOp55
 70
     1
102
RTVSPost2010Prop56
140
1.0
102
RTVSPost2010PropOp56
 70
     1
102
RTVSPost2010Prop57
140
1.0
102
RTVSPost2010PropOp57
 70
     1
  0
XRECORD
  5
1E0
102
{ACAD_REACTORS
330
1DF
102
}
330
1DF
100
AcDbXrecord
280
     1
102
RTVSPropertyOp0
 70
     1
102
RTVSPropertyOp1
 70
     1
102
RTVSPropertyOp2
 70
     1
102
RTVSPropertyOp3
 70
     1
102
RTVSPropertyOp4
 70
     1
102
RTVSPropertyOp5
 70
     1
102
RTVSPropertyOp6
 70
     1
102
RTVSPropertyOp7
 70
     1
102
RTVSPropertyOp8
 70
     1
102
RTVSPropertyOp9
 70
     1
102
RTVSPropertyOp10
 70
     1
102
RTVSPropertyOp11
 70
     1
102
RTVSPropertyOp12
 70
     1
102
RTVSPropertyOp13
 70
     1
102
RTVSPropertyOp14
 70
     1
102
RTVSPropertyOp15
 70
     1
102
RTVSPropertyOp16
 70
     1
102
RTVSPropertyOp17
 70
     1
102
RTVSPropertyOp18
 70
     1
102
RTVSPropertyOp19
 70
     1
102
RTVSPropertyOp20
 70
     1
102
RTVSPropertyOp21
 70
     1
102
RTVSPropertyOp22
 70
     1
102
RTVSPropertyOp23
 70
     1
102
RTVSPropertyOp24
 70
     1
102
RTVSPropertyOp25
 70
     1
102
RTVSPropertyOp26
 70
     1
102
RTVSPropertyOp27
 70
     1
102
RTVSPropertyOp28
 70
     1
102
RTVSPropertyOp29
 70
     1
102
RTVSPropertyOp30
 70
     1
102
RTVSPropertyOp31
 70
     1
102
RTVSPropertyOp32
 70
     1
102
RTVSPropertyOp33
 70
     1
102
RTVSPropertyOp34
 70
     1
102
RTVSPropertyOp35
 70
     1
102
RTVSPropertyOp36
 70
     1
102
RTVSPropertyOp37
 70
     1
102
RTVSPropertyOp38
 70
     1
102
RTVSPropertyOp39
 70
     1
102
RTVSPropertyOp40
 70
     1
102
RTVSPropertyOp41
 70
     1
102
RTVSPropertyOp42
 70
     1
102
RTVSPropertyOp43
 70
     1
102
RTVSPropertyOp44
 70
     1
102
RTVSPropertyOp45
 70
     1
102
RTVSPropertyOp46
 70
     1
102
RTVSPropertyOp47
 70
     1
102
RTVSPropertyOp48
 70
     1
102
RTVSPropertyOp49
 70
     1
102
RTVSPropertyOp50
 70
     1
102
RTVSPropertyOp51
 70
     0
102
RTVSPropertyOp52
 70
     0
102
RTVSPropertyOp53
 70
     1
102
RTVSPropertyOp54
 70
     1
102
RTVSPropertyOp55
 70
     1
102
RTVSPropertyOp56
 70
     1
102
RTVSPropertyOp57
 70
     1
102
RTVSPost2010Prop28
280
     0
102
RTVSPost2010PropOp28
 70
     1
102
RTVSPost2010Prop29
280
     1
102
RTVSPost2010PropOp29
 70
     1
102
RTVSPost2010Prop30
280
     1
102
RTVSPost2010PropOp30
 70
     1
102
RTVSPost2010Prop31
280
     0
102
RTVSPost2010PropOp31
 70
     1
102
RTVSPost2010Prop32
280
     0
102
RTVSPost2010PropOp32
 70
     1
102
RTVSPost2010Prop33
280
     0
102
RTVSPost2010PropOp33
 70
     1
102
RTVSPost2010Prop34
280
     0
102
RTVSPost2010PropOp34
 70
     1
102
RTVSPost2010Prop35
280
     0
102
RTVSPost2010PropOp35
 70
     1
102
RTVSPost2010Prop36
280
     0
102
RTVSPost2010PropOp36
 70
     1
102
RTVSPost2010Prop37
 90
       50
102
RTVSPost2010PropOp37
 70
     1
102
RTVSPost2010Prop38
140
0.0
102
RTVSPost2010PropOp38
 70
     1
102
RTVSPost2010Prop39
140
1.0
102
RTVSPost2010PropOp39
 70
     1
102
RTVSPost2010Prop40
 90
        0
102
RTVSPost2010PropOp40
 70
     1
102
RTVSPost2010Prop41ColorIndex
 90
       18
102
RTVSPost2010Prop41ColorRGB
 90
        0
102
RTVSPost2010PropOp41
 70
     1
102
RTVSPost2010Prop42
 90
       50
102
RTVSPost2010PropOp42
 70
     1
102
RTVSPost2010Prop43
 90
        3
102
RTVSPost2010PropOp43
 70
     1
102
RTVSPost2010Prop44ColorIndex
 90
        5
102
RTVSPost2010Prop44ColorRGB
 90
      255
102
RTVSPost2010PropOp44
 70
     1
102
RTVSPost2010Prop45
280
     0
102
RTVSPost2010PropOp45
 70
     1
102
RTVSPost2010Prop46
 90
       50
102
RTVSPost2010PropOp46
 70
     1
102
RTVSPost2010Prop47
 90
       50
102
RTVSPost2010PropOp47
 70
     1
102
RTVSPost2010Prop48
 90
       50
102
RTVSPost2010PropOp48
 70
     1
102
RTVSPost2010Prop49
280
     0
102
RTVSPost2010PropOp49
 70
     1
102
RTVSPost2010Prop50
 90
       50
102
RTVSPost2010PropOp50
 70
     1
102
RTVSPost2010Prop51ColorIndex
 90
      256
102
RTVSPost2010Prop51ColorRGB
 90
-16777216
102
RTVSPost2010PropOp51
 70
     0
102
RTVSPost2010Prop52
140
1.0
102
RTVSPost2010PropOp52
 70
     0
102
RTVSPost2010Prop53
 90
        2
102
RTVSPost2010PropOp53
 70
     1
102
RTVSPost2010Prop54
  1
strokes_ogs.tif
102
RTVSPost2010PropOp54
 70
     1
102
RTVSPost2010Prop55
280
     0
102
RTVSPost2010PropOp55
 70
     1
102
RTVSPost2010Prop56
140
1.0
102
RTVSPost2010PropOp56
 70
     1
102
RTVSPost2010Prop57
140
1.0
102
RTVSPost2010PropOp57
 70
     1
  0
XRECORD
  5
1E8
102
{ACAD_REACTORS
330
1E7
102
}
330
1E7
100
AcDbXrecord
280
     1
102
RTVSPropertyOp0
 70
     1
102
RTVSPropertyOp1
 70
     1
102
RTVSPropertyOp2
 70
     1
102
RTVSPropertyOp3
 70
     1
102
RTVSPropertyOp4
 70
     1
102
RTVSPropertyOp5
 70
     1
102
RTVSPropertyOp6
 70
     1
102
RTVSPropertyOp7
 70
     1
102
RTVSPropertyOp8
 70
     1
102
RTVSPropertyOp9
 70
     1
102
RTVSPropertyOp10
 70
     1
102
RTVSPropertyOp11
 70
     1
102
RTVSPropertyOp12
 70
     1
102
RTVSPropertyOp13
 70
     1
102
RTVSPropertyOp14
 70
     1
102
RTVSPropertyOp15
 70
     1
102
RTVSPropertyOp16
 70
     1
102
RTVSPropertyOp17
 70
     1
102
RTVSPropertyOp18
 70
     1
102
RTVSPropertyOp19
 70
     1
102
RTVSPropertyOp20
 70
     1
102
RTVSPropertyOp21
 70
     1
102
RTVSPropertyOp22
 70
     1
102
RTVSPropertyOp23
 70
     1
102
RTVSPropertyOp24
 70
     1
102
RTVSPropertyOp25
 70
     1
102
RTVSPropertyOp26
 70
     1
102
RTVSPropertyOp27
 70
     1
102
RTVSPropertyOp28
 70
     1
102
RTVSPropertyOp29
 70
     1
102
RTVSPropertyOp30
 70
     1
102
RTVSPropertyOp31
 70
     1
102
RTVSPropertyOp32
 70
     1
102
RTVSPropertyOp33
 70
     1
102
RTVSPropertyOp34
 70
     1
102
RTVSPropertyOp35
 70
     1
102
RTVSPropertyOp36
 70
     1
102
RTVSPropertyOp37
 70
     1
102
RTVSPropertyOp38
 70
     1
102
RTVSPropertyOp39
 70
     1
102
RTVSPropertyOp40
 70
     1
102
RTVSPropertyOp41
 70
     1
102
RTVSPropertyOp42
 70
     1
102
RTVSPropertyOp43
 70
     1
102
RTVSPropertyOp44
 70
     1
102
RTVSPropertyOp45
 70
     1
102
RTVSPropertyOp46
 70
     1
102
RTVSPropertyOp47
 70
     1
102
RTVSPropertyOp48
 70
     1
102
RTVSPropertyOp49
 70
     1
102
RTVSPropertyOp50
 70
     1
102
RTVSPropertyOp51
 70
     0
102
RTVSPropertyOp52
 70
     0
102
RTVSPropertyOp53
 70
     1
102
RTVSPropertyOp54
 70
     1
102
RTVSPropertyOp55
 70
     1
102
RTVSPropertyOp56
 70
     1
102
RTVSPropertyOp57
 70
     1
102
RTVSPost2010Prop28
280
     0
102
RTVSPost2010PropOp28
 70
     1
102
RTVSPost2010Prop29
280
     1
102
RTVSPost2010PropOp29
 70
     1
102
RTVSPost2010Prop30
280
     1
102
RTVSPost2010PropOp30
 70
     1
102
RTVSPost2010Prop31
280
     0
102
RTVSPost2010PropOp31
 70
     1
102
RTVSPost2010Prop32
280
     0
102
RTVSPost2010PropOp32
 70
     1
102
RTVSPost2010Prop33
280
     0
102
RTVSPost2010PropOp33
 70
     1
102
RTVSPost2010Prop34
280
     0
102
RTVSPost2010PropOp34
 70
     1
102
RTVSPost2010Prop35
280
     0
102
RTVSPost2010PropOp35
 70
     1
102
RTVSPost2010Prop36
280
     0
102
RTVSPost2010PropOp36
 70
     1
102
RTVSPost2010Prop37
 90
       50
102
RTVSPost2010PropOp37
 70
     1
102
RTVSPost2010Prop38
140
0.0
102
RTVSPost2010PropOp38
 70
     1
102
RTVSPost2010Prop39
140
1.0
102
RTVSPost2010PropOp39
 70
     1
102
RTVSPost2010Prop40
 90
        0
102
RTVSPost2010PropOp40
 70
     1
102
RTVSPost2010Prop41ColorIndex
 90
       18
102
RTVSPost2010Prop41ColorRGB
 90
        0
102
RTVSPost2010PropOp41
 70
     1
102
RTVSPost2010Prop42
 90
       50
102
RTVSPost2010PropOp42
 70
     1
102
RTVSPost2010Prop43
 90
        3
102
RTVSPost2010PropOp43
 70
     1
102
RTVSPost2010Prop44ColorIndex
 90
        5
102
RTVSPost2010Prop44ColorRGB
 90
      255
102
RTVSPost2010PropOp44
 70
     1
102
RTVSPost2010Prop45
280
     0
102
RTVSPost2010PropOp45
 70
     1
102
RTVSPost2010Prop46
 90
       50
102
RTVSPost2010PropOp46
 70
     1
102
RTVSPost2010Prop47
 90
       50
102
RTVSPost2010PropOp47
 70
     1
102
RTVSPost2010Prop48
 90
       50
102
RTVSPost2010PropOp48
 70
     1
102
RTVSPost2010Prop49
280
     0
102
RTVSPost2010PropOp49
 70
     1
102
RTVSPost2010Prop50
 90
       50
102
RTVSPost2010PropOp50
 70
     1
102
RTVSPost2010Prop51ColorIndex
 90
      256
102
RTVSPost2010Prop51ColorRGB
 90
-16777216
102
RTVSPost2010PropOp51
 70
     0
102
RTVSPost2010Prop52
140
1.0
102
RTVSPost2010PropOp52
 70
     0
102
RTVSPost2010Prop53
 90
        2
102
RTVSPost2010PropOp53
 70
     1
102
RTVSPost2010Prop54
  1
strokes_ogs.tif
102
RTVSPost2010PropOp54
 70
     1
102
RTVSPost2010Prop55
280
     0
102
RTVSPost2010PropOp55
 70
     1
102
RTVSPost2010Prop56
140
1.0
102
RTVSPost2010PropOp56
 70
     1
102
RTVSPost2010Prop57
140
1.0
102
RTVSPost2010PropOp57
 70
     1
  0
XRECORD
  5
1DC
102
{ACAD_REACTORS
330
1DB
102
}
330
1DB
100
AcDbXrecord
280
     1
102
RTVSPropertyOp0
 70
     1
102
RTVSPropertyOp1
 70
     1
102
RTVSPropertyOp2
 70
     1
102
RTVSPropertyOp3
 70
     1
102
RTVSPropertyOp4
 70
     1
102
RTVSPropertyOp5
 70
     1
102
RTVSPropertyOp6
 70
     1
102
RTVSPropertyOp7
 70
     1
102
RTVSPropertyOp8
 70
     1
102
RTVSPropertyOp9
 70
     1
102
RTVSPropertyOp10
 70
     1
102
RTVSPropertyOp11
 70
     1
102
RTVSPropertyOp12
 70
     1
102
RTVSPropertyOp13
 70
     1
102
RTVSPropertyOp14
 70
     1
102
RTVSPropertyOp15
 70
     1
102
RTVSPropertyOp16
 70
     1
102
RTVSPropertyOp17
 70
     1
102
RTVSPropertyOp18
 70
     1
102
RTVSPropertyOp19
 70
     1
102
RTVSPropertyOp20
 70
     1
102
RTVSPropertyOp21
 70
     1
102
RTVSPropertyOp22
 70
     1
102
RTVSPropertyOp23
 70
     1
102
RTVSPropertyOp24
 70
     1
102
RTVSPropertyOp25
 70
     1
102
RTVSPropertyOp26
 70
     1
102
RTVSPropertyOp27
 70
     1
102
RTVSPropertyOp28
 70
     1
102
RTVSPropertyOp29
 70
     1
102
RTVSPropertyOp30
 70
     1
102
RTVSPropertyOp31
 70
     1
102
RTVSPropertyOp32
 70
     1
102
RTVSPropertyOp33
 70
     1
102
RTVSPropertyOp34
 70
     1
102
RTVSPropertyOp35
 70
     1
102
RTVSPropertyOp36
 70
     1
102
RTVSPropertyOp37
 70
     1
102
RTVSPropertyOp38
 70
     1
102
RTVSPropertyOp39
 70
     1
102
RTVSPropertyOp40
 70
     1
102
RTVSPropertyOp41
 70
     1
102
RTVSPropertyOp42
 70
     1
102
RTVSPropertyOp43
 70
     1
102
RTVSPropertyOp44
 70
     1
102
RTVSPropertyOp45
 70
     1
102
RTVSPropertyOp46
 70
     1
102
RTVSPropertyOp47
 70
     1
102
RTVSPropertyOp48
 70
     1
102
RTVSPropertyOp49
 70
     1
102
RTVSPropertyOp50
 70
     1
102
RTVSPropertyOp51
 70
     0
102
RTVSPropertyOp52
 70
     0
102
RTVSPropertyOp53
 70
     1
102
RTVSPropertyOp54
 70
     1
102
RTVSPropertyOp55
 70
     1
102
RTVSPropertyOp56
 70
     1
102
RTVSPropertyOp57
 70
     1
102
RTVSPost2010Prop28
280
     0
102
RTVSPost2010PropOp28
 70
     1
102
RTVSPost2010Prop29
280
     1
102
RTVSPost2010PropOp29
 70
     1
102
RTVSPost2010Prop30
280
     1
102
RTVSPost2010PropOp30
 70
     1
102
RTVSPost2010Prop31
280
     0
102
RTVSPost2010PropOp31
 70
     1
102
RTVSPost2010Prop32
280
     0
102
RTVSPost2010PropOp32
 70
     1
102
RTVSPost2010Prop33
280
     0
102
RTVSPost2010PropOp33
 70
     1
102
RTVSPost2010Prop34
280
     0
102
RTVSPost2010PropOp34
 70
     1
102
RTVSPost2010Prop35
280
     0
102
RTVSPost2010PropOp35
 70
     1
102
RTVSPost2010Prop36
280
     0
102
RTVSPost2010PropOp36
 70
     1
102
RTVSPost2010Prop37
 90
       50
102
RTVSPost2010PropOp37
 70
     1
102
RTVSPost2010Prop38
140
0.0
102
RTVSPost2010PropOp38
 70
     1
102
RTVSPost2010Prop39
140
1.0
102
RTVSPost2010PropOp39
 70
     1
102
RTVSPost2010Prop40
 90
        0
102
RTVSPost2010PropOp40
 70
     1
102
RTVSPost2010Prop41ColorIndex
 90
       18
102
RTVSPost2010Prop41ColorRGB
 90
        0
102
RTVSPost2010PropOp41
 70
     1
102
RTVSPost2010Prop42
 90
       50
102
RTVSPost2010PropOp42
 70
     1
102
RTVSPost2010Prop43
 90
        3
102
RTVSPost2010PropOp43
 70
     1
102
RTVSPost2010Prop44ColorIndex
 90
        5
102
RTVSPost2010Prop44ColorRGB
 90
      255
102
RTVSPost2010PropOp44
 70
     1
102
RTVSPost2010Prop45
280
     0
102
RTVSPost2010PropOp45
 70
     1
102
RTVSPost2010Prop46
 90
       50
102
RTVSPost2010PropOp46
 70
     1
102
RTVSPost2010Prop47
 90
       50
102
RTVSPost2010PropOp47
 70
     1
102
RTVSPost2010Prop48
 90
       50
102
RTVSPost2010PropOp48
 70
     1
102
RTVSPost2010Prop49
280
     0
102
RTVSPost2010PropOp49
 70
     1
102
RTVSPost2010Prop50
 90
       50
102
RTVSPost2010PropOp50
 70
     1
102
RTVSPost2010Prop51ColorIndex
 90
      256
102
RTVSPost2010Prop51ColorRGB
 90
-16777216
102
RTVSPost2010PropOp51
 70
     0
102
RTVSPost2010Prop52
140
1.0
102
RTVSPost2010PropOp52
 70
     0
102
RTVSPost2010Prop53
 90
        2
102
RTVSPost2010PropOp53
 70
     1
102
RTVSPost2010Prop54
  1
strokes_ogs.tif
102
RTVSPost2010PropOp54
 70
     1
102
RTVSPost2010Prop55
280
     0
102
RTVSPost2010PropOp55
 70
     1
102
RTVSPost2010Prop56
140
1.0
102
RTVSPost2010PropOp56
 70
     1
102
RTVSPost2010Prop57
140
1.0
102
RTVSPost2010PropOp57
 70
     1
  0
XRECORD
  5
1DE
102
{ACAD_REACTORS
330
1DD
102
}
330
1DD
100
AcDbXrecord
280
     1
102
RTVSPropertyOp0
 70
     1
102
RTVSPropertyOp1
 70
     1
102
RTVSPropertyOp2
 70
     1
102
RTVSPropertyOp3
 70
     1
102
RTVSPropertyOp4
 70
     1
102
RTVSPropertyOp5
 70
     1
102
RTVSPropertyOp6
 70
     1
102
RTVSPropertyOp7
 70
     1
102
RTVSPropertyOp8
 70
     1
102
RTVSPropertyOp9
 70
     1
102
RTVSPropertyOp10
 70
     1
102
RTVSPropertyOp11
 70
     1
102
RTVSPropertyOp12
 70
     1
102
RTVSPropertyOp13
 70
     1
102
RTVSPropertyOp14
 70
     1
102
RTVSPropertyOp15
 70
     1
102
RTVSPropertyOp16
 70
     1
102
RTVSPropertyOp17
 70
     1
102
RTVSPropertyOp18
 70
     1
102
RTVSPropertyOp19
 70
     1
102
RTVSPropertyOp20
 70
     1
102
RTVSPropertyOp21
 70
     1
102
RTVSPropertyOp22
 70
     1
102
RTVSPropertyOp23
 70
     1
102
RTVSPropertyOp24
 70
     1
102
RTVSPropertyOp25
 70
     1
102
RTVSPropertyOp26
 70
     1
102
RTVSPropertyOp27
 70
     1
102
RTVSPropertyOp28
 70
     1
102
RTVSPropertyOp29
 70
     1
102
RTVSPropertyOp30
 70
     1
102
RTVSPropertyOp31
 70
     1
102
RTVSPropertyOp32
 70
     1
102
RTVSPropertyOp33
 70
     1
102
RTVSPropertyOp34
 70
     1
102
RTVSPropertyOp35
 70
     1
102
RTVSPropertyOp36
 70
     1
102
RTVSPropertyOp37
 70
     1
102
RTVSPropertyOp38
 70
     1
102
RTVSPropertyOp39
 70
     1
102
RTVSPropertyOp40
 70
     1
102
RTVSPropertyOp41
 70
     1
102
RTVSPropertyOp42
 70
     1
102
RTVSPropertyOp43
 70
     1
102
RTVSPropertyOp44
 70
     1
102
RTVSPropertyOp45
 70
     1
102
RTVSPropertyOp46
 70
     1
102
RTVSPropertyOp47
 70
     1
102
RTVSPropertyOp48
 70
     1
102
RTVSPropertyOp49
 70
     1
102
RTVSPropertyOp50
 70
     1
102
RTVSPropertyOp51
 70
     0
102
RTVSPropertyOp52
 70
     0
102
RTVSPropertyOp53
 70
     1
102
RTVSPropertyOp54
 70
     1
102
RTVSPropertyOp55
 70
     1
102
RTVSPropertyOp56
 70
     1
102
RTVSPropertyOp57
 70
     1
102
RTVSPost2010Prop28
280
     0
102
RTVSPost2010PropOp28
 70
     1
102
RTVSPost2010Prop29
280
     1
102
RTVSPost2010PropOp29
 70
     1
102
RTVSPost2010Prop30
280
     1
102
RTVSPost2010PropOp30
 70
     1
102
RTVSPost2010Prop31
280
     0
102
RTVSPost2010PropOp31
 70
     1
102
RTVSPost2010Prop32
280
     0
102
RTVSPost2010PropOp32
 70
     1
102
RTVSPost2010Prop33
280
     0
102
RTVSPost2010PropOp33
 70
     1
102
RTVSPost2010Prop34
280
     0
102
RTVSPost2010PropOp34
 70
     1
102
RTVSPost2010Prop35
280
     0
102
RTVSPost2010PropOp35
 70
     1
102
RTVSPost2010Prop36
280
     0
102
RTVSPost2010PropOp36
 70
     1
102
RTVSPost2010Prop37
 90
       50
102
RTVSPost2010PropOp37
 70
     1
102
RTVSPost2010Prop38
140
0.0
102
RTVSPost2010PropOp38
 70
     1
102
RTVSPost2010Prop39
140
1.0
102
RTVSPost2010PropOp39
 70
     1
102
RTVSPost2010Prop40
 90
        0
102
RTVSPost2010PropOp40
 70
     1
102
RTVSPost2010Prop41ColorIndex
 90
       18
102
RTVSPost2010Prop41ColorRGB
 90
        0
102
RTVSPost2010PropOp41
 70
     1
102
RTVSPost2010Prop42
 90
       50
102
RTVSPost2010PropOp42
 70
     1
102
RTVSPost2010Prop43
 90
        3
102
RTVSPost2010PropOp43
 70
     1
102
RTVSPost2010Prop44ColorIndex
 90
        5
102
RTVSPost2010Prop44ColorRGB
 90
      255
102
RTVSPost2010PropOp44
 70
     1
102
RTVSPost2010Prop45
280
     0
102
RTVSPost2010PropOp45
 70
     1
102
RTVSPost2010Prop46
 90
       50
102
RTVSPost2010PropOp46
 70
     1
102
RTVSPost2010Prop47
 90
       50
102
RTVSPost2010PropOp47
 70
     1
102
RTVSPost2010Prop48
 90
       50
102
RTVSPost2010PropOp48
 70
     1
102
RTVSPost2010Prop49
280
     0
102
RTVSPost2010PropOp49
 70
     1
102
RTVSPost2010Prop50
 90
       50
102
RTVSPost2010PropOp50
 70
     1
102
RTVSPost2010Prop51ColorIndex
 90
      256
102
RTVSPost2010Prop51ColorRGB
 90
-16777216
102
RTVSPost2010PropOp51
 70
     0
102
RTVSPost2010Prop52
140
1.0
102
RTVSPost2010PropOp52
 70
     0
102
RTVSPost2010Prop53
 90
        2
102
RTVSPost2010PropOp53
 70
     1
102
RTVSPost2010Prop54
  1
strokes_ogs.tif
102
RTVSPost2010PropOp54
 70
     1
102
RTVSPost2010Prop55
280
     0
102
RTVSPost2010PropOp55
 70
     1
102
RTVSPost2010Prop56
140
1.0
102
RTVSPost2010PropOp56
 70
     1
102
RTVSPost2010Prop57
140
1.0
102
RTVSPost2010PropOp57
 70
     1
  0
XRECORD
  5
1EE
102
{ACAD_REACTORS
330
1ED
102
}
330
1ED
100
AcDbXrecord
280
     1
102
RTVSPropertyOp0
 70
     0
102
RTVSPropertyOp1
 70
     0
102
RTVSPropertyOp2
 70
     0
102
RTVSPropertyOp3
 70
     0
102
RTVSPropertyOp4
 70
     0
102
RTVSPropertyOp5
 70
     0
102
RTVSPropertyOp6
 70
     0
102
RTVSPropertyOp7
 70
     0
102
RTVSPropertyOp8
 70
     0
102
RTVSPropertyOp9
 70
     0
102
RTVSPropertyOp10
 70
     0
102
RTVSPropertyOp11
 70
     0
102
RTVSPropertyOp12
 70
     0
102
RTVSPropertyOp13
 70
     0
102
RTVSPropertyOp14
 70
     2
102
RTVSPropertyOp15
 70
     0
102
RTVSPropertyOp16
 70
     0
102
RTVSPropertyOp17
 70
     0
102
RTVSPropertyOp18
 70
     0
102
RTVSPropertyOp19
 70
     0
102
RTVSPropertyOp20
 70
     0
102
RTVSPropertyOp21
 70
     0
102
RTVSPropertyOp22
 70
     0
102
RTVSPropertyOp23
 70
     0
102
RTVSPropertyOp24
 70
     0
102
RTVSPropertyOp25
 70
     0
102
RTVSPropertyOp26
 70
     0
102
RTVSPropertyOp27
 70
     0
102
RTVSPropertyOp28
 70
     0
102
RTVSPropertyOp29
 70
     0
102
RTVSPropertyOp30
 70
     0
102
RTVSPropertyOp31
 70
     0
102
RTVSPropertyOp32
 70
     0
102
RTVSPropertyOp33
 70
     0
102
RTVSPropertyOp34
 70
     0
102
RTVSPropertyOp35
 70
     0
102
RTVSPropertyOp36
 70
     0
102
RTVSPropertyOp37
 70
     0
102
RTVSPropertyOp38
 70
     0
102
RTVSPropertyOp39
 70
     0
102
RTVSPropertyOp40
 70
     0
102
RTVSPropertyOp41
 70
     0
102
RTVSPropertyOp42
 70
     0
102
RTVSPropertyOp43
 70
     0
102
RTVSPropertyOp44
 70
     0
102
RTVSPropertyOp45
 70
     0
102
RTVSPropertyOp46
 70
     0
102
RTVSPropertyOp47
 70
     0
102
RTVSPropertyOp48
 70
     0
102
RTVSPropertyOp49
 70
     0
102
RTVSPropertyOp50
 70
     0
102
RTVSPropertyOp51
 70
     0
102
RTVSPropertyOp52
 70
     0
102
RTVSPropertyOp53
 70
     0
102
RTVSPropertyOp54
 70
     0
102
RTVSPropertyOp55
 70
     0
102
RTVSPropertyOp56
 70
     0
102
RTVSPropertyOp57
 70
     0
102
RTVSPost2010Prop28
280
     0
102
RTVSPost2010PropOp28
 70
     0
102
RTVSPost2010Prop29
280
     1
102
RTVSPost2010PropOp29
 70
     0
102
RTVSPost2010Prop30
280
     1
102
RTVSPost2010PropOp30
 70
     0
102
RTVSPost2010Prop31
280
     0
102
RTVSPost2010PropOp31
 70
     0
102
RTVSPost2010Prop32
280
     0
102
RTVSPost2010PropOp32
 70
     0
102
RTVSPost2010Prop33
280
     0
102
RTVSPost2010PropOp33
 70
     0
102
RTVSPost2010Prop34
280
     0
102
RTVSPost2010PropOp34
 70
     0
102
RTVSPost2010Prop35
280
     0
102
RTVSPost2010PropOp35
 70
     0
102
RTVSPost2010Prop36
280
     0
102
RTVSPost2010PropOp36
 70
     0
102
RTVSPost2010Prop37
 90
       50
102
RTVSPost2010PropOp37
 70
     0
102
RTVSPost2010Prop38
140
0.0
102
RTVSPost2010PropOp38
 70
     0
102
RTVSPost2010Prop39
140
1.0
102
RTVSPost2010PropOp39
 70
     0
102
RTVSPost2010Prop40
 90
        0
102
RTVSPost2010PropOp40
 70
     0
102
RTVSPost2010Prop41ColorIndex
 90
       18
102
RTVSPost2010Prop41ColorRGB
 90
        0
102
RTVSPost2010PropOp41
 70
     0
102
RTVSPost2010Prop42
 90
       50
102
RTVSPost2010PropOp42
 70
     0
102
RTVSPost2010Prop43
 90
        3
102
RTVSPost2010PropOp43
 70
     0
102
RTVSPost2010Prop44ColorIndex
 90
        5
102
RTVSPost2010Prop44ColorRGB
 90
      255
102
RTVSPost2010PropOp44
 70
     0
102
RTVSPost2010Prop45
280
     0
102
RTVSPost2010PropOp45
 70
     0
102
RTVSPost2010Prop46
 90
       50
102
RTVSPost2010PropOp46
 70
     0
102
RTVSPost2010Prop47
 90
       50
102
RTVSPost2010PropOp47
 70
     0
102
RTVSPost2010Prop48
 90
       50
102
RTVSPost2010PropOp48
 70
     0
102
RTVSPost2010Prop49
280
     0
102
RTVSPost2010PropOp49
 70
     0
102
RTVSPost2010Prop50
 90
       50
102
RTVSPost2010PropOp50
 70
     0
102
RTVSPost2010Prop51ColorIndex
 90
      256
102
RTVSPost2010Prop51ColorRGB
 90
-16777216
102
RTVSPost2010PropOp51
 70
     0
102
RTVSPost2010Prop52
140
1.0
102
RTVSPost2010PropOp52
 70
     0
102
RTVSPost2010Prop53
 90
        2
102
RTVSPost2010PropOp53
 70
     0
102
RTVSPost2010Prop54
  1
strokes_ogs.tif
102
RTVSPost2010PropOp54
 70
     0
102
RTVSPost2010Prop55
280
     0
102
RTVSPost2010PropOp55
 70
     0
102
RTVSPost2010Prop56
140
1.0
102
RTVSPost2010PropOp56
 70
     0
102
RTVSPost2010Prop57
140
1.0
102
RTVSPost2010PropOp57
 70
     0
  0
XRECORD
  5
1E6
102
{ACAD_REACTORS
330
1E5
102
}
330
1E5
100
AcDbXrecord
280
     1
102
RTVSPropertyOp0
 70
     1
102
RTVSPropertyOp1
 70
     1
102
RTVSPropertyOp2
 70
     1
102
RTVSPropertyOp3
 70
     1
102
RTVSPropertyOp4
 70
     1
102
RTVSPropertyOp5
 70
     1
102
RTVSPropertyOp6
 70
     1
102
RTVSPropertyOp7
 70
     1
102
RTVSPropertyOp8
 70
     1
102
RTVSPropertyOp9
 70
     1
102
RTVSPropertyOp10
 70
     1
102
RTVSPropertyOp11
 70
     1
102
RTVSPropertyOp12
 70
     1
102
RTVSPropertyOp13
 70
     1
102
RTVSPropertyOp14
 70
     1
102
RTVSPropertyOp15
 70
     1
102
RTVSPropertyOp16
 70
     1
102
RTVSPropertyOp17
 70
     1
102
RTVSPropertyOp18
 70
     1
102
RTVSPropertyOp19
 70
     1
102
RTVSPropertyOp20
 70
     1
102
RTVSPropertyOp21
 70
     1
102
RTVSPropertyOp22
 70
     1
102
RTVSPropertyOp23
 70
     1
102
RTVSPropertyOp24
 70
     1
102
RTVSPropertyOp25
 70
     1
102
RTVSPropertyOp26
 70
     1
102
RTVSPropertyOp27
 70
     1
102
RTVSPropertyOp28
 70
     1
102
RTVSPropertyOp29
 70
     1
102
RTVSPropertyOp30
 70
     1
102
RTVSPropertyOp31
 70
     1
102
RTVSPropertyOp32
 70
     1
102
RTVSPropertyOp33
 70
     1
102
RTVSPropertyOp34
 70
     1
102
RTVSPropertyOp35
 70
     1
102
RTVSPropertyOp36
 70
     1
102
RTVSPropertyOp37
 70
     1
102
RTVSPropertyOp38
 70
     1
102
RTVSPropertyOp39
 70
     1
102
RTVSPropertyOp40
 70
     1
102
RTVSPropertyOp41
 70
     1
102
RTVSPropertyOp42
 70
     1
102
RTVSPropertyOp43
 70
     1
102
RTVSPropertyOp44
 70
     1
102
RTVSPropertyOp45
 70
     1
102
RTVSPropertyOp46
 70
     1
102
RTVSPropertyOp47
 70
     1
102
RTVSPropertyOp48
 70
     1
102
RTVSPropertyOp49
 70
     1
102
RTVSPropertyOp50
 70
     1
102
RTVSPropertyOp51
 70
     0
102
RTVSPropertyOp52
 70
     0
102
RTVSPropertyOp53
 70
     1
102
RTVSPropertyOp54
 70
     1
102
RTVSPropertyOp55
 70
     1
102
RTVSPropertyOp56
 70
     1
102
RTVSPropertyOp57
 70
     1
102
RTVSPost2010Prop28
280
     0
102
RTVSPost2010PropOp28
 70
     1
102
RTVSPost2010Prop29
280
     1
102
RTVSPost2010PropOp29
 70
     1
102
RTVSPost2010Prop30
280
     1
102
RTVSPost2010PropOp30
 70
     1
102
RTVSPost2010Prop31
280
     0
102
RTVSPost2010PropOp31
 70
     1
102
RTVSPost2010Prop32
280
     0
102
RTVSPost2010PropOp32
 70
     1
102
RTVSPost2010Prop33
280
     0
102
RTVSPost2010PropOp33
 70
     1
102
RTVSPost2010Prop34
280
     0
102
RTVSPost2010PropOp34
 70
     1
102
RTVSPost2010Prop35
280
     0
102
RTVSPost2010PropOp35
 70
     1
102
RTVSPost2010Prop36
280
     0
102
RTVSPost2010PropOp36
 70
     1
102
RTVSPost2010Prop37
 90
       50
102
RTVSPost2010PropOp37
 70
     1
102
RTVSPost2010Prop38
140
0.0
102
RTVSPost2010PropOp38
 70
     1
102
RTVSPost2010Prop39
140
1.0
102
RTVSPost2010PropOp39
 70
     1
102
RTVSPost2010Prop40
 90
        0
102
RTVSPost2010PropOp40
 70
     1
102
RTVSPost2010Prop41ColorIndex
 90
       18
102
RTVSPost2010Prop41ColorRGB
 90
        0
102
RTVSPost2010PropOp41
 70
     1
102
RTVSPost2010Prop42
 90
       50
102
RTVSPost2010PropOp42
 70
     1
102
RTVSPost2010Prop43
 90
        3
102
RTVSPost2010PropOp43
 70
     1
102
RTVSPost2010Prop44ColorIndex
 90
        5
102
RTVSPost2010Prop44ColorRGB
 90
      255
102
RTVSPost2010PropOp44
 70
     1
102
RTVSPost2010Prop45
280
     0
102
RTVSPost2010PropOp45
 70
     1
102
RTVSPost2010Prop46
 90
       50
102
RTVSPost2010PropOp46
 70
     1
102
RTVSPost2010Prop47
 90
       50
102
RTVSPost2010PropOp47
 70
     1
102
RTVSPost2010Prop48
 90
       50
102
RTVSPost2010PropOp48
 70
     1
102
RTVSPost2010Prop49
280
     0
102
RTVSPost2010PropOp49
 70
     1
102
RTVSPost2010Prop50
 90
       50
102
RTVSPost2010PropOp50
 70
     1
102
RTVSPost2010Prop51ColorIndex
 90
      256
102
RTVSPost2010Prop51ColorRGB
 90
-16777216
102
RTVSPost2010PropOp51
 70
     0
102
RTVSPost2010Prop52
140
1.0
102
RTVSPost2010PropOp52
 70
     0
102
RTVSPost2010Prop53
 90
        2
102
RTVSPost2010PropOp53
 70
     1
102
RTVSPost2010Prop54
  1
strokes_ogs.tif
102
RTVSPost2010PropOp54
 70
     1
102
RTVSPost2010Prop55
280
     0
102
RTVSPost2010PropOp55
 70
     1
102
RTVSPost2010Prop56
140
1.0
102
RTVSPost2010PropOp56
 70
     1
102
RTVSPost2010Prop57
140
1.0
102
RTVSPost2010PropOp57
 70
     1
  0
XRECORD
  5
1CA
102
{ACAD_REACTORS
330
1C9
102
}
330
1C9
100
AcDbXrecord
280
     1
102
RTVSPropertyOp0
 70
     1
102
RTVSPropertyOp1
 70
     1
102
RTVSPropertyOp2
 70
     1
102
RTVSPropertyOp3
 70
     1
102
RTVSPropertyOp4
 70
     1
102
RTVSPropertyOp5
 70
     1
102
RTVSPropertyOp6
 70
     1
102
RTVSPropertyOp7
 70
     1
102
RTVSPropertyOp8
 70
     1
102
RTVSPropertyOp9
 70
     1
102
RTVSPropertyOp10
 70
     1
102
RTVSPropertyOp11
 70
     1
102
RTVSPropertyOp12
 70
     1
102
RTVSPropertyOp13
 70
     1
102
RTVSPropertyOp14
 70
     1
102
RTVSPropertyOp15
 70
     1
102
RTVSPropertyOp16
 70
     1
102
RTVSPropertyOp17
 70
     1
102
RTVSPropertyOp18
 70
     1
102
RTVSPropertyOp19
 70
     1
102
RTVSPropertyOp20
 70
     1
102
RTVSPropertyOp21
 70
     1
102
RTVSPropertyOp22
 70
     1
102
RTVSPropertyOp23
 70
     1
102
RTVSPropertyOp24
 70
     1
102
RTVSPropertyOp25
 70
     1
102
RTVSPropertyOp26
 70
     1
102
RTVSPropertyOp27
 70
     1
102
RTVSPropertyOp28
 70
     1
102
RTVSPropertyOp29
 70
     1
102
RTVSPropertyOp30
 70
     1
102
RTVSPropertyOp31
 70
     1
102
RTVSPropertyOp32
 70
     1
102
RTVSPropertyOp33
 70
     1
102
RTVSPropertyOp34
 70
     1
102
RTVSPropertyOp35
 70
     1
102
RTVSPropertyOp36
 70
     1
102
RTVSPropertyOp37
 70
     1
102
RTVSPropertyOp38
 70
     1
102
RTVSPropertyOp39
 70
     1
102
RTVSPropertyOp40
 70
     1
102
RTVSPropertyOp41
 70
     1
102
RTVSPropertyOp42
 70
     1
102
RTVSPropertyOp43
 70
     1
102
RTVSPropertyOp44
 70
     1
102
RTVSPropertyOp45
 70
     1
102
RTVSPropertyOp46
 70
     1
102
RTVSPropertyOp47
 70
     1
102
RTVSPropertyOp48
 70
     1
102
RTVSPropertyOp49
 70
     1
102
RTVSPropertyOp50
 70
     1
102
RTVSPropertyOp51
 70
     0
102
RTVSPropertyOp52
 70
     0
102
RTVSPropertyOp53
 70
     1
102
RTVSPropertyOp54
 70
     1
102
RTVSPropertyOp55
 70
     1
102
RTVSPropertyOp56
 70
     1
102
RTVSPropertyOp57
 70
     1
102
RTVSPost2010Prop28
280
     0
102
RTVSPost2010PropOp28
 70
     1
102
RTVSPost2010Prop29
280
     1
102
RTVSPost2010PropOp29
 70
     1
102
RTVSPost2010Prop30
280
     1
102
RTVSPost2010PropOp30
 70
     1
102
RTVSPost2010Prop31
280
     0
102
RTVSPost2010PropOp31
 70
     1
102
RTVSPost2010Prop32
280
     0
102
RTVSPost2010PropOp32
 70
     1
102
RTVSPost2010Prop33
280
     0
102
RTVSPost2010PropOp33
 70
     1
102
RTVSPost2010Prop34
280
     0
102
RTVSPost2010PropOp34
 70
     1
102
RTVSPost2010Prop35
280
     0
102
RTVSPost2010PropOp35
 70
     1
102
RTVSPost2010Prop36
280
     0
102
RTVSPost2010PropOp36
 70
     1
102
RTVSPost2010Prop37
 90
       50
102
RTVSPost2010PropOp37
 70
     1
102
RTVSPost2010Prop38
140
0.0
102
RTVSPost2010PropOp38
 70
     1
102
RTVSPost2010Prop39
140
1.0
102
RTVSPost2010PropOp39
 70
     1
102
RTVSPost2010Prop40
 90
        0
102
RTVSPost2010PropOp40
 70
     1
102
RTVSPost2010Prop41ColorIndex
 90
       18
102
RTVSPost2010Prop41ColorRGB
 90
        0
102
RTVSPost2010PropOp41
 70
     1
102
RTVSPost2010Prop42
 90
       50
102
RTVSPost2010PropOp42
 70
     1
102
RTVSPost2010Prop43
 90
        3
102
RTVSPost2010PropOp43
 70
     1
102
RTVSPost2010Prop44ColorIndex
 90
        5
102
RTVSPost2010Prop44ColorRGB
 90
      255
102
RTVSPost2010PropOp44
 70
     1
102
RTVSPost2010Prop45
280
     0
102
RTVSPost2010PropOp45
 70
     1
102
RTVSPost2010Prop46
 90
       50
102
RTVSPost2010PropOp46
 70
     1
102
RTVSPost2010Prop47
 90
       50
102
RTVSPost2010PropOp47
 70
     1
102
RTVSPost2010Prop48
 90
       50
102
RTVSPost2010PropOp48
 70
     1
102
RTVSPost2010Prop49
280
     0
102
RTVSPost2010PropOp49
 70
     1
102
RTVSPost2010Prop50
 90
       50
102
RTVSPost2010PropOp50
 70
     1
102
RTVSPost2010Prop51ColorIndex
 90
      256
102
RTVSPost2010Prop51ColorRGB
 90
-16777216
102
RTVSPost2010PropOp51
 70
     0
102
RTVSPost2010Prop52
140
1.0
102
RTVSPost2010PropOp52
 70
     0
102
RTVSPost2010Prop53
 90
        2
102
RTVSPost2010PropOp53
 70
     1
102
RTVSPost2010Prop54
  1
strokes_ogs.tif
102
RTVSPost2010PropOp54
 70
     1
102
RTVSPost2010Prop55
280
     0
102
RTVSPost2010PropOp55
 70
     1
102
RTVSPost2010Prop56
140
1.0
102
RTVSPost2010PropOp56
 70
     1
102
RTVSPost2010Prop57
140
1.0
102
RTVSPost2010PropOp57
 70
     1
  0
XRECORD
  5
1CC
102
{ACAD_REACTORS
330
1CB
102
}
330
1CB
100
AcDbXrecord
280
     1
102
RTVSPropertyOp0
 70
     1
102
RTVSPropertyOp1
 70
     1
102
RTVSPropertyOp2
 70
     1
102
RTVSPropertyOp3
 70
     1
102
RTVSPropertyOp4
 70
     1
102
RTVSPropertyOp5
 70
     1
102
RTVSPropertyOp6
 70
     1
102
RTVSPropertyOp7
 70
     1
102
RTVSPropertyOp8
 70
     1
102
RTVSPropertyOp9
 70
     1
102
RTVSPropertyOp10
 70
     1
102
RTVSPropertyOp11
 70
     1
102
RTVSPropertyOp12
 70
     1
102
RTVSPropertyOp13
 70
     1
102
RTVSPropertyOp14
 70
     1
102
RTVSPropertyOp15
 70
     1
102
RTVSPropertyOp16
 70
     1
102
RTVSPropertyOp17
 70
     1
102
RTVSPropertyOp18
 70
     1
102
RTVSPropertyOp19
 70
     1
102
RTVSPropertyOp20
 70
     1
102
RTVSPropertyOp21
 70
     1
102
RTVSPropertyOp22
 70
     1
102
RTVSPropertyOp23
 70
     1
102
RTVSPropertyOp24
 70
     1
102
RTVSPropertyOp25
 70
     1
102
RTVSPropertyOp26
 70
     1
102
RTVSPropertyOp27
 70
     1
102
RTVSPropertyOp28
 70
     1
102
RTVSPropertyOp29
 70
     1
102
RTVSPropertyOp30
 70
     1
102
RTVSPropertyOp31
 70
     1
102
RTVSPropertyOp32
 70
     1
102
RTVSPropertyOp33
 70
     1
102
RTVSPropertyOp34
 70
     1
102
RTVSPropertyOp35
 70
     1
102
RTVSPropertyOp36
 70
     1
102
RTVSPropertyOp37
 70
     1
102
RTVSPropertyOp38
 70
     1
102
RTVSPropertyOp39
 70
     1
102
RTVSPropertyOp40
 70
     1
102
RTVSPropertyOp41
 70
     1
102
RTVSPropertyOp42
 70
     1
102
RTVSPropertyOp43
 70
     1
102
RTVSPropertyOp44
 70
     1
102
RTVSPropertyOp45
 70
     1
102
RTVSPropertyOp46
 70
     1
102
RTVSPropertyOp47
 70
     1
102
RTVSPropertyOp48
 70
     1
102
RTVSPropertyOp49
 70
     1
102
RTVSPropertyOp50
 70
     1
102
RTVSPropertyOp51
 70
     0
102
RTVSPropertyOp52
 70
     0
102
RTVSPropertyOp53
 70
     1
102
RTVSPropertyOp54
 70
     1
102
RTVSPropertyOp55
 70
     1
102
RTVSPropertyOp56
 70
     1
102
RTVSPropertyOp57
 70
     1
102
RTVSPost2010Prop28
280
     0
102
RTVSPost2010PropOp28
 70
     1
102
RTVSPost2010Prop29
280
     1
102
RTVSPost2010PropOp29
 70
     1
102
RTVSPost2010Prop30
280
     1
102
RTVSPost2010PropOp30
 70
     1
102
RTVSPost2010Prop31
280
     0
102
RTVSPost2010PropOp31
 70
     1
102
RTVSPost2010Prop32
280
     0
102
RTVSPost2010PropOp32
 70
     1
102
RTVSPost2010Prop33
280
     0
102
RTVSPost2010PropOp33
 70
     1
102
RTVSPost2010Prop34
280
     0
102
RTVSPost2010PropOp34
 70
     1
102
RTVSPost2010Prop35
280
     0
102
RTVSPost2010PropOp35
 70
     1
102
RTVSPost2010Prop36
280
     0
102
RTVSPost2010PropOp36
 70
     1
102
RTVSPost2010Prop37
 90
       50
102
RTVSPost2010PropOp37
 70
     1
102
RTVSPost2010Prop38
140
0.0
102
RTVSPost2010PropOp38
 70
     1
102
RTVSPost2010Prop39
140
1.0
102
RTVSPost2010PropOp39
 70
     1
102
RTVSPost2010Prop40
 90
        0
102
RTVSPost2010PropOp40
 70
     1
102
RTVSPost2010Prop41ColorIndex
 90
       18
102
RTVSPost2010Prop41ColorRGB
 90
        0
102
RTVSPost2010PropOp41
 70
     1
102
RTVSPost2010Prop42
 90
       50
102
RTVSPost2010PropOp42
 70
     1
102
RTVSPost2010Prop43
 90
        3
102
RTVSPost2010PropOp43
 70
     1
102
RTVSPost2010Prop44ColorIndex
 90
        5
102
RTVSPost2010Prop44ColorRGB
 90
      255
102
RTVSPost2010PropOp44
 70
     1
102
RTVSPost2010Prop45
280
     0
102
RTVSPost2010PropOp45
 70
     1
102
RTVSPost2010Prop46
 90
       50
102
RTVSPost2010PropOp46
 70
     1
102
RTVSPost2010Prop47
 90
       50
102
RTVSPost2010PropOp47
 70
     1
102
RTVSPost2010Prop48
 90
       50
102
RTVSPost2010PropOp48
 70
     1
102
RTVSPost2010Prop49
280
     0
102
RTVSPost2010PropOp49
 70
     1
102
RTVSPost2010Prop50
 90
       50
102
RTVSPost2010PropOp50
 70
     1
102
RTVSPost2010Prop51ColorIndex
 90
      256
102
RTVSPost2010Prop51ColorRGB
 90
-16777216
102
RTVSPost2010PropOp51
 70
     0
102
RTVSPost2010Prop52
140
1.0
102
RTVSPost2010PropOp52
 70
     0
102
RTVSPost2010Prop53
 90
        2
102
RTVSPost2010PropOp53
 70
     1
102
RTVSPost2010Prop54
  1
strokes_ogs.tif
102
RTVSPost2010PropOp54
 70
     1
102
RTVSPost2010Prop55
280
     0
102
RTVSPost2010PropOp55
 70
     1
102
RTVSPost2010Prop56
140
1.0
102
RTVSPost2010PropOp56
 70
     1
102
RTVSPost2010Prop57
140
1.0
102
RTVSPost2010PropOp57
 70
     1
  0
XRECORD
  5
1CE
102
{ACAD_REACTORS
330
1CD
102
}
330
1CD
100
AcDbXrecord
280
     1
102
RTVSPropertyOp0
 70
     1
102
RTVSPropertyOp1
 70
     1
102
RTVSPropertyOp2
 70
     1
102
RTVSPropertyOp3
 70
     1
102
RTVSPropertyOp4
 70
     1
102
RTVSPropertyOp5
 70
     1
102
RTVSPropertyOp6
 70
     1
102
RTVSPropertyOp7
 70
     1
102
RTVSPropertyOp8
 70
     1
102
RTVSPropertyOp9
 70
     1
102
RTVSPropertyOp10
 70
     1
102
RTVSPropertyOp11
 70
     1
102
RTVSPropertyOp12
 70
     1
102
RTVSPropertyOp13
 70
     1
102
RTVSPropertyOp14
 70
     1
102
RTVSPropertyOp15
 70
     1
102
RTVSPropertyOp16
 70
     1
102
RTVSPropertyOp17
 70
     1
102
RTVSPropertyOp18
 70
     1
102
RTVSPropertyOp19
 70
     1
102
RTVSPropertyOp20
 70
     1
102
RTVSPropertyOp21
 70
     1
102
RTVSPropertyOp22
 70
     1
102
RTVSPropertyOp23
 70
     1
102
RTVSPropertyOp24
 70
     1
102
RTVSPropertyOp25
 70
     1
102
RTVSPropertyOp26
 70
     1
102
RTVSPropertyOp27
 70
     1
102
RTVSPropertyOp28
 70
     1
102
RTVSPropertyOp29
 70
     1
102
RTVSPropertyOp30
 70
     1
102
RTVSPropertyOp31
 70
     1
102
RTVSPropertyOp32
 70
     1
102
RTVSPropertyOp33
 70
     1
102
RTVSPropertyOp34
 70
     1
102
RTVSPropertyOp35
 70
     1
102
RTVSPropertyOp36
 70
     1
102
RTVSPropertyOp37
 70
     1
102
RTVSPropertyOp38
 70
     1
102
RTVSPropertyOp39
 70
     1
102
RTVSPropertyOp40
 70
     1
102
RTVSPropertyOp41
 70
     1
102
RTVSPropertyOp42
 70
     1
102
RTVSPropertyOp43
 70
     1
102
RTVSPropertyOp44
 70
     1
102
RTVSPropertyOp45
 70
     1
102
RTVSPropertyOp46
 70
     1
102
RTVSPropertyOp47
 70
     1
102
RTVSPropertyOp48
 70
     1
102
RTVSPropertyOp49
 70
     1
102
RTVSPropertyOp50
 70
     1
102
RTVSPropertyOp51
 70
     0
102
RTVSPropertyOp52
 70
     0
102
RTVSPropertyOp53
 70
     1
102
RTVSPropertyOp54
 70
     1
102
RTVSPropertyOp55
 70
     1
102
RTVSPropertyOp56
 70
     1
102
RTVSPropertyOp57
 70
     1
102
RTVSPost2010Prop28
280
     0
102
RTVSPost2010PropOp28
 70
     1
102
RTVSPost2010Prop29
280
     1
102
RTVSPost2010PropOp29
 70
     1
102
RTVSPost2010Prop30
280
     1
102
RTVSPost2010PropOp30
 70
     1
102
RTVSPost2010Prop31
280
     0
102
RTVSPost2010PropOp31
 70
     1
102
RTVSPost2010Prop32
280
     0
102
RTVSPost2010PropOp32
 70
     1
102
RTVSPost2010Prop33
280
     0
102
RTVSPost2010PropOp33
 70
     1
102
RTVSPost2010Prop34
280
     0
102
RTVSPost2010PropOp34
 70
     1
102
RTVSPost2010Prop35
280
     0
102
RTVSPost2010PropOp35
 70
     1
102
RTVSPost2010Prop36
280
     0
102
RTVSPost2010PropOp36
 70
     1
102
RTVSPost2010Prop37
 90
       50
102
RTVSPost2010PropOp37
 70
     1
102
RTVSPost2010Prop38
140
0.0
102
RTVSPost2010PropOp38
 70
     1
102
RTVSPost2010Prop39
140
1.0
102
RTVSPost2010PropOp39
 70
     1
102
RTVSPost2010Prop40
 90
        0
102
RTVSPost2010PropOp40
 70
     1
102
RTVSPost2010Prop41ColorIndex
 90
       18
102
RTVSPost2010Prop41ColorRGB
 90
        0
102
RTVSPost2010PropOp41
 70
     1
102
RTVSPost2010Prop42
 90
       50
102
RTVSPost2010PropOp42
 70
     1
102
RTVSPost2010Prop43
 90
        3
102
RTVSPost2010PropOp43
 70
     1
102
RTVSPost2010Prop44ColorIndex
 90
        5
102
RTVSPost2010Prop44ColorRGB
 90
      255
102
RTVSPost2010PropOp44
 70
     1
102
RTVSPost2010Prop45
280
     0
102
RTVSPost2010PropOp45
 70
     1
102
RTVSPost2010Prop46
 90
       50
102
RTVSPost2010PropOp46
 70
     1
102
RTVSPost2010Prop47
 90
       50
102
RTVSPost2010PropOp47
 70
     1
102
RTVSPost2010Prop48
 90
       50
102
RTVSPost2010PropOp48
 70
     1
102
RTVSPost2010Prop49
280
     0
102
RTVSPost2010PropOp49
 70
     1
102
RTVSPost2010Prop50
 90
       50
102
RTVSPost2010PropOp50
 70
     1
102
RTVSPost2010Prop51ColorIndex
 90
      256
102
RTVSPost2010Prop51ColorRGB
 90
-16777216
102
RTVSPost2010PropOp51
 70
     0
102
RTVSPost2010Prop52
140
1.0
102
RTVSPost2010PropOp52
 70
     0
102
RTVSPost2010Prop53
 90
        2
102
RTVSPost2010PropOp53
 70
     1
102
RTVSPost2010Prop54
  1
strokes_ogs.tif
102
RTVSPost2010PropOp54
 70
     1
102
RTVSPost2010Prop55
280
     0
102
RTVSPost2010PropOp55
 70
     1
102
RTVSPost2010Prop56
140
1.0
102
RTVSPost2010PropOp56
 70
     1
102
RTVSPost2010Prop57
140
1.0
102
RTVSPost2010PropOp57
 70
     1
  0
XRECORD
  5
1D0
102
{ACAD_REACTORS
330
1CF
102
}
330
1CF
100
AcDbXrecord
280
     1
102
RTVSPropertyOp0
 70
     1
102
RTVSPropertyOp1
 70
     1
102
RTVSPropertyOp2
 70
     1
102
RTVSPropertyOp3
 70
     1
102
RTVSPropertyOp4
 70
     1
102
RTVSPropertyOp5
 70
     1
102
RTVSPropertyOp6
 70
     1
102
RTVSPropertyOp7
 70
     1
102
RTVSPropertyOp8
 70
     1
102
RTVSPropertyOp9
 70
     1
102
RTVSPropertyOp10
 70
     1
102
RTVSPropertyOp11
 70
     1
102
RTVSPropertyOp12
 70
     1
102
RTVSPropertyOp13
 70
     1
102
RTVSPropertyOp14
 70
     1
102
RTVSPropertyOp15
 70
     1
102
RTVSPropertyOp16
 70
     1
102
RTVSPropertyOp17
 70
     1
102
RTVSPropertyOp18
 70
     1
102
RTVSPropertyOp19
 70
     1
102
RTVSPropertyOp20
 70
     1
102
RTVSPropertyOp21
 70
     1
102
RTVSPropertyOp22
 70
     1
102
RTVSPropertyOp23
 70
     1
102
RTVSPropertyOp24
 70
     1
102
RTVSPropertyOp25
 70
     1
102
RTVSPropertyOp26
 70
     1
102
RTVSPropertyOp27
 70
     1
102
RTVSPropertyOp28
 70
     1
102
RTVSPropertyOp29
 70
     1
102
RTVSPropertyOp30
 70
     1
102
RTVSPropertyOp31
 70
     1
102
RTVSPropertyOp32
 70
     1
102
RTVSPropertyOp33
 70
     1
102
RTVSPropertyOp34
 70
     1
102
RTVSPropertyOp35
 70
     1
102
RTVSPropertyOp36
 70
     1
102
RTVSPropertyOp37
 70
     1
102
RTVSPropertyOp38
 70
     1
102
RTVSPropertyOp39
 70
     1
102
RTVSPropertyOp40
 70
     1
102
RTVSPropertyOp41
 70
     1
102
RTVSPropertyOp42
 70
     1
102
RTVSPropertyOp43
 70
     1
102
RTVSPropertyOp44
 70
     1
102
RTVSPropertyOp45
 70
     1
102
RTVSPropertyOp46
 70
     1
102
RTVSPropertyOp47
 70
     1
102
RTVSPropertyOp48
 70
     1
102
RTVSPropertyOp49
 70
     1
102
RTVSPropertyOp50
 70
     1
102
RTVSPropertyOp51
 70
     0
102
RTVSPropertyOp52
 70
     0
102
RTVSPropertyOp53
 70
     1
102
RTVSPropertyOp54
 70
     1
102
RTVSPropertyOp55
 70
     1
102
RTVSPropertyOp56
 70
     1
102
RTVSPropertyOp57
 70
     1
102
RTVSPost2010Prop28
280
     0
102
RTVSPost2010PropOp28
 70
     1
102
RTVSPost2010Prop29
280
     1
102
RTVSPost2010PropOp29
 70
     1
102
RTVSPost2010Prop30
280
     1
102
RTVSPost2010PropOp30
 70
     1
102
RTVSPost2010Prop31
280
     0
102
RTVSPost2010PropOp31
 70
     1
102
RTVSPost2010Prop32
280
     0
102
RTVSPost2010PropOp32
 70
     1
102
RTVSPost2010Prop33
280
     0
102
RTVSPost2010PropOp33
 70
     1
102
RTVSPost2010Prop34
280
     0
102
RTVSPost2010PropOp34
 70
     1
102
RTVSPost2010Prop35
280
     0
102
RTVSPost2010PropOp35
 70
     1
102
RTVSPost2010Prop36
280
     0
102
RTVSPost2010PropOp36
 70
     1
102
RTVSPost2010Prop37
 90
       50
102
RTVSPost2010PropOp37
 70
     1
102
RTVSPost2010Prop38
140
0.0
102
RTVSPost2010PropOp38
 70
     1
102
RTVSPost2010Prop39
140
1.0
102
RTVSPost2010PropOp39
 70
     1
102
RTVSPost2010Prop40
 90
        0
102
RTVSPost2010PropOp40
 70
     1
102
RTVSPost2010Prop41ColorIndex
 90
       18
102
RTVSPost2010Prop41ColorRGB
 90
        0
102
RTVSPost2010PropOp41
 70
     1
102
RTVSPost2010Prop42
 90
       50
102
RTVSPost2010PropOp42
 70
     1
102
RTVSPost2010Prop43
 90
        3
102
RTVSPost2010PropOp43
 70
     1
102
RTVSPost2010Prop44ColorIndex
 90
        5
102
RTVSPost2010Prop44ColorRGB
 90
      255
102
RTVSPost2010PropOp44
 70
     1
102
RTVSPost2010Prop45
280
     0
102
RTVSPost2010PropOp45
 70
     1
102
RTVSPost2010Prop46
 90
       50
102
RTVSPost2010PropOp46
 70
     1
102
RTVSPost2010Prop47
 90
       50
102
RTVSPost2010PropOp47
 70
     1
102
RTVSPost2010Prop48
 90
       50
102
RTVSPost2010PropOp48
 70
     1
102
RTVSPost2010Prop49
280
     0
102
RTVSPost2010PropOp49
 70
     1
102
RTVSPost2010Prop50
 90
       50
102
RTVSPost2010PropOp50
 70
     1
102
RTVSPost2010Prop51ColorIndex
 90
      256
102
RTVSPost2010Prop51ColorRGB
 90
-16777216
102
RTVSPost2010PropOp51
 70
     0
102
RTVSPost2010Prop52
140
1.0
102
RTVSPost2010PropOp52
 70
     0
102
RTVSPost2010Prop53
 90
        2
102
RTVSPost2010PropOp53
 70
     1
102
RTVSPost2010Prop54
  1
strokes_ogs.tif
102
RTVSPost2010PropOp54
 70
     1
102
RTVSPost2010Prop55
280
     0
102
RTVSPost2010PropOp55
 70
     1
102
RTVSPost2010Prop56
140
1.0
102
RTVSPost2010PropOp56
 70
     1
102
RTVSPost2010Prop57
140
1.0
102
RTVSPost2010PropOp57
 70
     1
  0
XRECORD
  5
1D6
102
{ACAD_REACTORS
330
1D5
102
}
330
1D5
100
AcDbXrecord
280
     1
102
RTVSPropertyOp0
 70
     1
102
RTVSPropertyOp1
 70
     1
102
RTVSPropertyOp2
 70
     1
102
RTVSPropertyOp3
 70
     1
102
RTVSPropertyOp4
 70
     1
102
RTVSPropertyOp5
 70
     1
102
RTVSPropertyOp6
 70
     1
102
RTVSPropertyOp7
 70
     1
102
RTVSPropertyOp8
 70
     1
102
RTVSPropertyOp9
 70
     1
102
RTVSPropertyOp10
 70
     1
102
RTVSPropertyOp11
 70
     1
102
RTVSPropertyOp12
 70
     1
102
RTVSPropertyOp13
 70
     1
102
RTVSPropertyOp14
 70
     1
102
RTVSPropertyOp15
 70
     1
102
RTVSPropertyOp16
 70
     1
102
RTVSPropertyOp17
 70
     1
102
RTVSPropertyOp18
 70
     1
102
RTVSPropertyOp19
 70
     1
102
RTVSPropertyOp20
 70
     1
102
RTVSPropertyOp21
 70
     1
102
RTVSPropertyOp22
 70
     1
102
RTVSPropertyOp23
 70
     1
102
RTVSPropertyOp24
 70
     1
102
RTVSPropertyOp25
 70
     1
102
RTVSPropertyOp26
 70
     1
102
RTVSPropertyOp27
 70
     1
102
RTVSPropertyOp28
 70
     1
102
RTVSPropertyOp29
 70
     1
102
RTVSPropertyOp30
 70
     1
102
RTVSPropertyOp31
 70
     1
102
RTVSPropertyOp32
 70
     1
102
RTVSPropertyOp33
 70
     1
102
RTVSPropertyOp34
 70
     1
102
RTVSPropertyOp35
 70
     1
102
RTVSPropertyOp36
 70
     1
102
RTVSPropertyOp37
 70
     1
102
RTVSPropertyOp38
 70
     1
102
RTVSPropertyOp39
 70
     1
102
RTVSPropertyOp40
 70
     1
102
RTVSPropertyOp41
 70
     1
102
RTVSPropertyOp42
 70
     1
102
RTVSPropertyOp43
 70
     1
102
RTVSPropertyOp44
 70
     1
102
RTVSPropertyOp45
 70
     1
102
RTVSPropertyOp46
 70
     1
102
RTVSPropertyOp47
 70
     1
102
RTVSPropertyOp48
 70
     1
102
RTVSPropertyOp49
 70
     1
102
RTVSPropertyOp50
 70
     1
102
RTVSPropertyOp51
 70
     0
102
RTVSPropertyOp52
 70
     0
102
RTVSPropertyOp53
 70
     1
102
RTVSPropertyOp54
 70
     1
102
RTVSPropertyOp55
 70
     1
102
RTVSPropertyOp56
 70
     1
102
RTVSPropertyOp57
 70
     1
102
RTVSPost2010Prop28
280
     0
102
RTVSPost2010PropOp28
 70
     1
102
RTVSPost2010Prop29
280
     1
102
RTVSPost2010PropOp29
 70
     1
102
RTVSPost2010Prop30
280
     1
102
RTVSPost2010PropOp30
 70
     1
102
RTVSPost2010Prop31
280
     0
102
RTVSPost2010PropOp31
 70
     1
102
RTVSPost2010Prop32
280
     0
102
RTVSPost2010PropOp32
 70
     1
102
RTVSPost2010Prop33
280
     0
102
RTVSPost2010PropOp33
 70
     1
102
RTVSPost2010Prop34
280
     0
102
RTVSPost2010PropOp34
 70
     1
102
RTVSPost2010Prop35
280
     0
102
RTVSPost2010PropOp35
 70
     1
102
RTVSPost2010Prop36
280
     0
102
RTVSPost2010PropOp36
 70
     1
102
RTVSPost2010Prop37
 90
       50
102
RTVSPost2010PropOp37
 70
     1
102
RTVSPost2010Prop38
140
0.0
102
RTVSPost2010PropOp38
 70
     1
102
RTVSPost2010Prop39
140
1.0
102
RTVSPost2010PropOp39
 70
     1
102
RTVSPost2010Prop40
 90
        0
102
RTVSPost2010PropOp40
 70
     1
102
RTVSPost2010Prop41ColorIndex
 90
       18
102
RTVSPost2010Prop41ColorRGB
 90
        0
102
RTVSPost2010PropOp41
 70
     1
102
RTVSPost2010Prop42
 90
       50
102
RTVSPost2010PropOp42
 70
     1
102
RTVSPost2010Prop43
 90
        3
102
RTVSPost2010PropOp43
 70
     1
102
RTVSPost2010Prop44ColorIndex
 90
        5
102
RTVSPost2010Prop44ColorRGB
 90
      255
102
RTVSPost2010PropOp44
 70
     1
102
RTVSPost2010Prop45
280
     0
102
RTVSPost2010PropOp45
 70
     1
102
RTVSPost2010Prop46
 90
       50
102
RTVSPost2010PropOp46
 70
     1
102
RTVSPost2010Prop47
 90
       50
102
RTVSPost2010PropOp47
 70
     1
102
RTVSPost2010Prop48
 90
       50
102
RTVSPost2010PropOp48
 70
     1
102
RTVSPost2010Prop49
280
     0
102
RTVSPost2010PropOp49
 70
     1
102
RTVSPost2010Prop50
 90
       50
102
RTVSPost2010PropOp50
 70
     1
102
RTVSPost2010Prop51ColorIndex
 90
      256
102
RTVSPost2010Prop51ColorRGB
 90
-16777216
102
RTVSPost2010PropOp51
 70
     0
102
RTVSPost2010Prop52
140
1.0
102
RTVSPost2010PropOp52
 70
     0
102
RTVSPost2010Prop53
 90
        2
102
RTVSPost2010PropOp53
 70
     1
102
RTVSPost2010Prop54
  1
strokes_ogs.tif
102
RTVSPost2010PropOp54
 70
     1
102
RTVSPost2010Prop55
280
     0
102
RTVSPost2010PropOp55
 70
     1
102
RTVSPost2010Prop56
140
1.0
102
RTVSPost2010PropOp56
 70
     1
102
RTVSPost2010Prop57
140
1.0
102
RTVSPost2010PropOp57
 70
     1
  0
XRECORD
  5
1EA
102
{ACAD_REACTORS
330
1E9
102
}
330
1E9
100
AcDbXrecord
280
     1
102
RTVSPropertyOp0
 70
     0
102
RTVSPropertyOp1
 70
     0
102
RTVSPropertyOp2
 70
     0
102
RTVSPropertyOp3
 70
     0
102
RTVSPropertyOp4
 70
     0
102
RTVSPropertyOp5
 70
     0
102
RTVSPropertyOp6
 70
     0
102
RTVSPropertyOp7
 70
     0
102
RTVSPropertyOp8
 70
     0
102
RTVSPropertyOp9
 70
     0
102
RTVSPropertyOp10
 70
     0
102
RTVSPropertyOp11
 70
     0
102
RTVSPropertyOp12
 70
     0
102
RTVSPropertyOp13
 70
     0
102
RTVSPropertyOp14
 70
     2
102
RTVSPropertyOp15
 70
     0
102
RTVSPropertyOp16
 70
     0
102
RTVSPropertyOp17
 70
     0
102
RTVSPropertyOp18
 70
     0
102
RTVSPropertyOp19
 70
     0
102
RTVSPropertyOp20
 70
     0
102
RTVSPropertyOp21
 70
     0
102
RTVSPropertyOp22
 70
     0
102
RTVSPropertyOp23
 70
     0
102
RTVSPropertyOp24
 70
     0
102
RTVSPropertyOp25
 70
     0
102
RTVSPropertyOp26
 70
     0
102
RTVSPropertyOp27
 70
     0
102
RTVSPropertyOp28
 70
     0
102
RTVSPropertyOp29
 70
     0
102
RTVSPropertyOp30
 70
     0
102
RTVSPropertyOp31
 70
     0
102
RTVSPropertyOp32
 70
     0
102
RTVSPropertyOp33
 70
     0
102
RTVSPropertyOp34
 70
     0
102
RTVSPropertyOp35
 70
     0
102
RTVSPropertyOp36
 70
     0
102
RTVSPropertyOp37
 70
     0
102
RTVSPropertyOp38
 70
     0
102
RTVSPropertyOp39
 70
     0
102
RTVSPropertyOp40
 70
     0
102
RTVSPropertyOp41
 70
     0
102
RTVSPropertyOp42
 70
     0
102
RTVSPropertyOp43
 70
     0
102
RTVSPropertyOp44
 70
     0
102
RTVSPropertyOp45
 70
     0
102
RTVSPropertyOp46
 70
     0
102
RTVSPropertyOp47
 70
     0
102
RTVSPropertyOp48
 70
     0
102
RTVSPropertyOp49
 70
     0
102
RTVSPropertyOp50
 70
     0
102
RTVSPropertyOp51
 70
     0
102
RTVSPropertyOp52
 70
     0
102
RTVSPropertyOp53
 70
     0
102
RTVSPropertyOp54
 70
     0
102
RTVSPropertyOp55
 70
     0
102
RTVSPropertyOp56
 70
     0
102
RTVSPropertyOp57
 70
     0
102
RTVSPost2010Prop28
280
     0
102
RTVSPost2010PropOp28
 70
     0
102
RTVSPost2010Prop29
280
     1
102
RTVSPost2010PropOp29
 70
     0
102
RTVSPost2010Prop30
280
     1
102
RTVSPost2010PropOp30
 70
     0
102
RTVSPost2010Prop31
280
     0
102
RTVSPost2010PropOp31
 70
     0
102
RTVSPost2010Prop32
280
     0
102
RTVSPost2010PropOp32
 70
     0
102
RTVSPost2010Prop33
280
     0
102
RTVSPost2010PropOp33
 70
     0
102
RTVSPost2010Prop34
280
     0
102
RTVSPost2010PropOp34
 70
     0
102
RTVSPost2010Prop35
280
     0
102
RTVSPost2010PropOp35
 70
     0
102
RTVSPost2010Prop36
280
     0
102
RTVSPost2010PropOp36
 70
     0
102
RTVSPost2010Prop37
 90
       50
102
RTVSPost2010PropOp37
 70
     0
102
RTVSPost2010Prop38
140
0.0
102
RTVSPost2010PropOp38
 70
     0
102
RTVSPost2010Prop39
140
1.0
102
RTVSPost2010PropOp39
 70
     0
102
RTVSPost2010Prop40
 90
        0
102
RTVSPost2010PropOp40
 70
     0
102
RTVSPost2010Prop41ColorIndex
 90
       18
102
RTVSPost2010Prop41ColorRGB
 90
        0
102
RTVSPost2010PropOp41
 70
     0
102
RTVSPost2010Prop42
 90
       50
102
RTVSPost2010PropOp42
 70
     0
102
RTVSPost2010Prop43
 90
        3
102
RTVSPost2010PropOp43
 70
     0
102
RTVSPost2010Prop44ColorIndex
 90
        5
102
RTVSPost2010Prop44ColorRGB
 90
      255
102
RTVSPost2010PropOp44
 70
     0
102
RTVSPost2010Prop45
280
     0
102
RTVSPost2010PropOp45
 70
     0
102
RTVSPost2010Prop46
 90
       50
102
RTVSPost2010PropOp46
 70
     0
102
RTVSPost2010Prop47
 90
       50
102
RTVSPost2010PropOp47
 70
     0
102
RTVSPost2010Prop48
 90
       50
102
RTVSPost2010PropOp48
 70
     0
102
RTVSPost2010Prop49
280
     0
102
RTVSPost2010PropOp49
 70
     0
102
RTVSPost2010Prop50
 90
       50
102
RTVSPost2010PropOp50
 70
     0
102
RTVSPost2010Prop51ColorIndex
 90
      256
102
RTVSPost2010Prop51ColorRGB
 90
-16777216
102
RTVSPost2010PropOp51
 70
     0
102
RTVSPost2010Prop52
140
1.0
102
RTVSPost2010PropOp52
 70
     0
102
RTVSPost2010Prop53
 90
        2
102
RTVSPost2010PropOp53
 70
     0
102
RTVSPost2010Prop54
  1
strokes_ogs.tif
102
RTVSPost2010PropOp54
 70
     0
102
RTVSPost2010Prop55
280
     0
102
RTVSPost2010PropOp55
 70
     0
102
RTVSPost2010Prop56
140
1.0
102
RTVSPost2010PropOp56
 70
     0
102
RTVSPost2010Prop57
140
1.0
102
RTVSPost2010PropOp57
 70
     0
  0
XRECORD
  5
1E4
102
{ACAD_REACTORS
330
1E3
102
}
330
1E3
100
AcDbXrecord
280
     1
102
RTVSPropertyOp0
 70
     1
102
RTVSPropertyOp1
 70
     1
102
RTVSPropertyOp2
 70
     1
102
RTVSPropertyOp3
 70
     1
102
RTVSPropertyOp4
 70
     1
102
RTVSPropertyOp5
 70
     1
102
RTVSPropertyOp6
 70
     1
102
RTVSPropertyOp7
 70
     1
102
RTVSPropertyOp8
 70
     1
102
RTVSPropertyOp9
 70
     1
102
RTVSPropertyOp10
 70
     1
102
RTVSPropertyOp11
 70
     1
102
RTVSPropertyOp12
 70
     1
102
RTVSPropertyOp13
 70
     1
102
RTVSPropertyOp14
 70
     1
102
RTVSPropertyOp15
 70
     1
102
RTVSPropertyOp16
 70
     1
102
RTVSPropertyOp17
 70
     1
102
RTVSPropertyOp18
 70
     1
102
RTVSPropertyOp19
 70
     1
102
RTVSPropertyOp20
 70
     1
102
RTVSPropertyOp21
 70
     1
102
RTVSPropertyOp22
 70
     1
102
RTVSPropertyOp23
 70
     1
102
RTVSPropertyOp24
 70
     1
102
RTVSPropertyOp25
 70
     1
102
RTVSPropertyOp26
 70
     1
102
RTVSPropertyOp27
 70
     1
102
RTVSPropertyOp28
 70
     1
102
RTVSPropertyOp29
 70
     1
102
RTVSPropertyOp30
 70
     1
102
RTVSPropertyOp31
 70
     1
102
RTVSPropertyOp32
 70
     1
102
RTVSPropertyOp33
 70
     1
102
RTVSPropertyOp34
 70
     1
102
RTVSPropertyOp35
 70
     1
102
RTVSPropertyOp36
 70
     1
102
RTVSPropertyOp37
 70
     1
102
RTVSPropertyOp38
 70
     1
102
RTVSPropertyOp39
 70
     1
102
RTVSPropertyOp40
 70
     1
102
RTVSPropertyOp41
 70
     1
102
RTVSPropertyOp42
 70
     1
102
RTVSPropertyOp43
 70
     1
102
RTVSPropertyOp44
 70
     1
102
RTVSPropertyOp45
 70
     1
102
RTVSPropertyOp46
 70
     1
102
RTVSPropertyOp47
 70
     1
102
RTVSPropertyOp48
 70
     1
102
RTVSPropertyOp49
 70
     1
102
RTVSPropertyOp50
 70
     1
102
RTVSPropertyOp51
 70
     0
102
RTVSPropertyOp52
 70
     0
102
RTVSPropertyOp53
 70
     1
102
RTVSPropertyOp54
 70
     1
102
RTVSPropertyOp55
 70
     1
102
RTVSPropertyOp56
 70
     1
102
RTVSPropertyOp57
 70
     1
102
RTVSPost2010Prop28
280
     0
102
RTVSPost2010PropOp28
 70
     1
102
RTVSPost2010Prop29
280
     1
102
RTVSPost2010PropOp29
 70
     1
102
RTVSPost2010Prop30
280
     1
102
RTVSPost2010PropOp30
 70
     1
102
RTVSPost2010Prop31
280
     0
102
RTVSPost2010PropOp31
 70
     1
102
RTVSPost2010Prop32
280
     0
102
RTVSPost2010PropOp32
 70
     1
102
RTVSPost2010Prop33
280
     0
102
RTVSPost2010PropOp33
 70
     1
102
RTVSPost2010Prop34
280
     0
102
RTVSPost2010PropOp34
 70
     1
102
RTVSPost2010Prop35
280
     0
102
RTVSPost2010PropOp35
 70
     1
102
RTVSPost2010Prop36
280
     0
102
RTVSPost2010PropOp36
 70
     1
102
RTVSPost2010Prop37
 90
       50
102
RTVSPost2010PropOp37
 70
     1
102
RTVSPost2010Prop38
140
0.0
102
RTVSPost2010PropOp38
 70
     1
102
RTVSPost2010Prop39
140
1.0
102
RTVSPost2010PropOp39
 70
     1
102
RTVSPost2010Prop40
 90
        0
102
RTVSPost2010PropOp40
 70
     1
102
RTVSPost2010Prop41ColorIndex
 90
       18
102
RTVSPost2010Prop41ColorRGB
 90
        0
102
RTVSPost2010PropOp41
 70
     1
102
RTVSPost2010Prop42
 90
       50
102
RTVSPost2010PropOp42
 70
     1
102
RTVSPost2010Prop43
 90
        3
102
RTVSPost2010PropOp43
 70
     1
102
RTVSPost2010Prop44ColorIndex
 90
        5
102
RTVSPost2010Prop44ColorRGB
 90
      255
102
RTVSPost2010PropOp44
 70
     1
102
RTVSPost2010Prop45
280
     0
102
RTVSPost2010PropOp45
 70
     1
102
RTVSPost2010Prop46
 90
       50
102
RTVSPost2010PropOp46
 70
     1
102
RTVSPost2010Prop47
 90
       50
102
RTVSPost2010PropOp47
 70
     1
102
RTVSPost2010Prop48
 90
       50
102
RTVSPost2010PropOp48
 70
     1
102
RTVSPost2010Prop49
280
     0
102
RTVSPost2010PropOp49
 70
     1
102
RTVSPost2010Prop50
 90
       50
102
RTVSPost2010PropOp50
 70
     1
102
RTVSPost2010Prop51ColorIndex
 90
      256
102
RTVSPost2010Prop51ColorRGB
 90
-16777216
102
RTVSPost2010PropOp51
 70
     0
102
RTVSPost2010Prop52
140
1.0
102
RTVSPost2010PropOp52
 70
     0
102
RTVSPost2010Prop53
 90
        2
102
RTVSPost2010PropOp53
 70
     1
102
RTVSPost2010Prop54
  1
strokes_ogs.tif
102
RTVSPost2010PropOp54
 70
     1
102
RTVSPost2010Prop55
280
     0
102
RTVSPost2010PropOp55
 70
     1
102
RTVSPost2010Prop56
140
1.0
102
RTVSPost2010PropOp56
 70
     1
102
RTVSPost2010Prop57
140
1.0
102
RTVSPost2010PropOp57
 70
     1
  0
XRECORD
  5
1EC
102
{ACAD_REACTORS
330
1EB
102
}
330
1EB
100
AcDbXrecord
280
     1
102
RTVSPropertyOp0
 70
     0
102
RTVSPropertyOp1
 70
     0
102
RTVSPropertyOp2
 70
     0
102
RTVSPropertyOp3
 70
     0
102
RTVSPropertyOp4
 70
     0
102
RTVSPropertyOp5
 70
     0
102
RTVSPropertyOp6
 70
     0
102
RTVSPropertyOp7
 70
     0
102
RTVSPropertyOp8
 70
     0
102
RTVSPropertyOp9
 70
     0
102
RTVSPropertyOp10
 70
     0
102
RTVSPropertyOp11
 70
     0
102
RTVSPropertyOp12
 70
     0
102
RTVSPropertyOp13
 70
     0
102
RTVSPropertyOp14
 70
     2
102
RTVSPropertyOp15
 70
     0
102
RTVSPropertyOp16
 70
     0
102
RTVSPropertyOp17
 70
     0
102
RTVSPropertyOp18
 70
     0
102
RTVSPropertyOp19
 70
     0
102
RTVSPropertyOp20
 70
     0
102
RTVSPropertyOp21
 70
     0
102
RTVSPropertyOp22
 70
     0
102
RTVSPropertyOp23
 70
     0
102
RTVSPropertyOp24
 70
     0
102
RTVSPropertyOp25
 70
     0
102
RTVSPropertyOp26
 70
     0
102
RTVSPropertyOp27
 70
     0
102
RTVSPropertyOp28
 70
     0
102
RTVSPropertyOp29
 70
     0
102
RTVSPropertyOp30
 70
     0
102
RTVSPropertyOp31
 70
     0
102
RTVSPropertyOp32
 70
     0
102
RTVSPropertyOp33
 70
     0
102
RTVSPropertyOp34
 70
     0
102
RTVSPropertyOp35
 70
     0
102
RTVSPropertyOp36
 70
     0
102
RTVSPropertyOp37
 70
     0
102
RTVSPropertyOp38
 70
     0
102
RTVSPropertyOp39
 70
     0
102
RTVSPropertyOp40
 70
     0
102
RTVSPropertyOp41
 70
     0
102
RTVSPropertyOp42
 70
     0
102
RTVSPropertyOp43
 70
     0
102
RTVSPropertyOp44
 70
     0
102
RTVSPropertyOp45
 70
     0
102
RTVSPropertyOp46
 70
     0
102
RTVSPropertyOp47
 70
     0
102
RTVSPropertyOp48
 70
     0
102
RTVSPropertyOp49
 70
     0
102
RTVSPropertyOp50
 70
     0
102
RTVSPropertyOp51
 70
     0
102
RTVSPropertyOp52
 70
     0
102
RTVSPropertyOp53
 70
     0
102
RTVSPropertyOp54
 70
     0
102
RTVSPropertyOp55
 70
     0
102
RTVSPropertyOp56
 70
     0
102
RTVSPropertyOp57
 70
     0
102
RTVSPost2010Prop28
280
     0
102
RTVSPost2010PropOp28
 70
     0
102
RTVSPost2010Prop29
280
     1
102
RTVSPost2010PropOp29
 70
     0
102
RTVSPost2010Prop30
280
     1
102
RTVSPost2010PropOp30
 70
     0
102
RTVSPost2010Prop31
280
     0
102
RTVSPost2010PropOp31
 70
     0
102
RTVSPost2010Prop32
280
     0
102
RTVSPost2010PropOp32
 70
     0
102
RTVSPost2010Prop33
280
     0
102
RTVSPost2010PropOp33
 70
     0
102
RTVSPost2010Prop34
280
     0
102
RTVSPost2010PropOp34
 70
     0
102
RTVSPost2010Prop35
280
     0
102
RTVSPost2010PropOp35
 70
     0
102
RTVSPost2010Prop36
280
     0
102
RTVSPost2010PropOp36
 70
     0
102
RTVSPost2010Prop37
 90
       50
102
RTVSPost2010PropOp37
 70
     0
102
RTVSPost2010Prop38
140
0.0
102
RTVSPost2010PropOp38
 70
     0
102
RTVSPost2010Prop39
140
1.0
102
RTVSPost2010PropOp39
 70
     0
102
RTVSPost2010Prop40
 90
        0
102
RTVSPost2010PropOp40
 70
     0
102
RTVSPost2010Prop41ColorIndex
 90
       18
102
RTVSPost2010Prop41ColorRGB
 90
        0
102
RTVSPost2010PropOp41
 70
     0
102
RTVSPost2010Prop42
 90
       50
102
RTVSPost2010PropOp42
 70
     0
102
RTVSPost2010Prop43
 90
        3
102
RTVSPost2010PropOp43
 70
     0
102
RTVSPost2010Prop44ColorIndex
 90
        5
102
RTVSPost2010Prop44ColorRGB
 90
      255
102
RTVSPost2010PropOp44
 70
     0
102
RTVSPost2010Prop45
280
     0
102
RTVSPost2010PropOp45
 70
     0
102
RTVSPost2010Prop46
 90
       50
102
RTVSPost2010PropOp46
 70
     0
102
RTVSPost2010Prop47
 90
       50
102
RTVSPost2010PropOp47
 70
     0
102
RTVSPost2010Prop48
 90
       50
102
RTVSPost2010PropOp48
 70
     0
102
RTVSPost2010Prop49
280
     0
102
RTVSPost2010PropOp49
 70
     0
102
RTVSPost2010Prop50
 90
       50
102
RTVSPost2010PropOp50
 70
     0
102
RTVSPost2010Prop51ColorIndex
 90
      256
102
RTVSPost2010Prop51ColorRGB
 90
-16777216
102
RTVSPost2010PropOp51
 70
     0
102
RTVSPost2010Prop52
140
1.0
102
RTVSPost2010PropOp52
 70
     0
102
RTVSPost2010Prop53
 90
        2
102
RTVSPost2010PropOp53
 70
     0
102
RTVSPost2010Prop54
  1
strokes_ogs.tif
102
RTVSPost2010PropOp54
 70
     0
102
RTVSPost2010Prop55
280
     0
102
RTVSPost2010PropOp55
 70
     0
102
RTVSPost2010Prop56
140
1.0
102
RTVSPost2010PropOp56
 70
     0
102
RTVSPost2010Prop57
140
1.0
102
RTVSPost2010PropOp57
 70
     0
  0
XRECORD
  5
1DA
102
{ACAD_REACTORS
330
1D9
102
}
330
1D9
100
AcDbXrecord
280
     1
102
RTVSPropertyOp0
 70
     1
102
RTVSPropertyOp1
 70
     1
102
RTVSPropertyOp2
 70
     1
102
RTVSPropertyOp3
 70
     1
102
RTVSPropertyOp4
 70
     1
102
RTVSPropertyOp5
 70
     1
102
RTVSPropertyOp6
 70
     1
102
RTVSPropertyOp7
 70
     1
102
RTVSPropertyOp8
 70
     1
102
RTVSPropertyOp9
 70
     1
102
RTVSPropertyOp10
 70
     1
102
RTVSPropertyOp11
 70
     1
102
RTVSPropertyOp12
 70
     1
102
RTVSPropertyOp13
 70
     1
102
RTVSPropertyOp14
 70
     1
102
RTVSPropertyOp15
 70
     1
102
RTVSPropertyOp16
 70
     1
102
RTVSPropertyOp17
 70
     1
102
RTVSPropertyOp18
 70
     1
102
RTVSPropertyOp19
 70
     1
102
RTVSPropertyOp20
 70
     1
102
RTVSPropertyOp21
 70
     1
102
RTVSPropertyOp22
 70
     1
102
RTVSPropertyOp23
 70
     1
102
RTVSPropertyOp24
 70
     1
102
RTVSPropertyOp25
 70
     1
102
RTVSPropertyOp26
 70
     1
102
RTVSPropertyOp27
 70
     1
102
RTVSPropertyOp28
 70
     1
102
RTVSPropertyOp29
 70
     1
102
RTVSPropertyOp30
 70
     1
102
RTVSPropertyOp31
 70
     1
102
RTVSPropertyOp32
 70
     1
102
RTVSPropertyOp33
 70
     1
102
RTVSPropertyOp34
 70
     1
102
RTVSPropertyOp35
 70
     1
102
RTVSPropertyOp36
 70
     1
102
RTVSPropertyOp37
 70
     1
102
RTVSPropertyOp38
 70
     1
102
RTVSPropertyOp39
 70
     1
102
RTVSPropertyOp40
 70
     1
102
RTVSPropertyOp41
 70
     1
102
RTVSPropertyOp42
 70
     1
102
RTVSPropertyOp43
 70
     1
102
RTVSPropertyOp44
 70
     1
102
RTVSPropertyOp45
 70
     1
102
RTVSPropertyOp46
 70
     1
102
RTVSPropertyOp47
 70
     1
102
RTVSPropertyOp48
 70
     1
102
RTVSPropertyOp49
 70
     1
102
RTVSPropertyOp50
 70
     1
102
RTVSPropertyOp51
 70
     0
102
RTVSPropertyOp52
 70
     0
102
RTVSPropertyOp53
 70
     1
102
RTVSPropertyOp54
 70
     1
102
RTVSPropertyOp55
 70
     1
102
RTVSPropertyOp56
 70
     1
102
RTVSPropertyOp57
 70
     1
102
RTVSPost2010Prop28
280
     0
102
RTVSPost2010PropOp28
 70
     1
102
RTVSPost2010Prop29
280
     1
102
RTVSPost2010PropOp29
 70
     1
102
RTVSPost2010Prop30
280
     1
102
RTVSPost2010PropOp30
 70
     1
102
RTVSPost2010Prop31
280
     0
102
RTVSPost2010PropOp31
 70
     1
102
RTVSPost2010Prop32
280
     0
102
RTVSPost2010PropOp32
 70
     1
102
RTVSPost2010Prop33
280
     0
102
RTVSPost2010PropOp33
 70
     1
102
RTVSPost2010Prop34
280
     0
102
RTVSPost2010PropOp34
 70
     1
102
RTVSPost2010Prop35
280
     0
102
RTVSPost2010PropOp35
 70
     1
102
RTVSPost2010Prop36
280
     0
102
RTVSPost2010PropOp36
 70
     1
102
RTVSPost2010Prop37
 90
       50
102
RTVSPost2010PropOp37
 70
     1
102
RTVSPost2010Prop38
140
0.0
102
RTVSPost2010PropOp38
 70
     1
102
RTVSPost2010Prop39
140
1.0
102
RTVSPost2010PropOp39
 70
     1
102
RTVSPost2010Prop40
 90
        0
102
RTVSPost2010PropOp40
 70
     1
102
RTVSPost2010Prop41ColorIndex
 90
       18
102
RTVSPost2010Prop41ColorRGB
 90
        0
102
RTVSPost2010PropOp41
 70
     1
102
RTVSPost2010Prop42
 90
       50
102
RTVSPost2010PropOp42
 70
     1
102
RTVSPost2010Prop43
 90
        3
102
RTVSPost2010PropOp43
 70
     1
102
RTVSPost2010Prop44ColorIndex
 90
        5
102
RTVSPost2010Prop44ColorRGB
 90
      255
102
RTVSPost2010PropOp44
 70
     1
102
RTVSPost2010Prop45
280
     0
102
RTVSPost2010PropOp45
 70
     1
102
RTVSPost2010Prop46
 90
       50
102
RTVSPost2010PropOp46
 70
     1
102
RTVSPost2010Prop47
 90
       50
102
RTVSPost2010PropOp47
 70
     1
102
RTVSPost2010Prop48
 90
       50
102
RTVSPost2010PropOp48
 70
     1
102
RTVSPost2010Prop49
280
     0
102
RTVSPost2010PropOp49
 70
     1
102
RTVSPost2010Prop50
 90
       50
102
RTVSPost2010PropOp50
 70
     1
102
RTVSPost2010Prop51ColorIndex
 90
      256
102
RTVSPost2010Prop51ColorRGB
 90
-16777216
102
RTVSPost2010PropOp51
 70
     0
102
RTVSPost2010Prop52
140
1.0
102
RTVSPost2010PropOp52
 70
     0
102
RTVSPost2010Prop53
 90
        2
102
RTVSPost2010PropOp53
 70
     1
102
RTVSPost2010Prop54
  1
strokes_ogs.tif
102
RTVSPost2010PropOp54
 70
     1
102
RTVSPost2010Prop55
280
     0
102
RTVSPost2010PropOp55
 70
     1
102
RTVSPost2010Prop56
140
1.0
102
RTVSPost2010PropOp56
 70
     1
102
RTVSPost2010Prop57
140
1.0
102
RTVSPost2010PropOp57
 70
     1
  0
XRECORD
  5
1F8
102
{ACAD_REACTORS
330
1F7
102
}
330
1F7
100
AcDbXrecord
280
     1
102
RTVSPropertyOp0
 70
     1
102
RTVSPropertyOp1
 70
     1
102
RTVSPropertyOp2
 70
     1
102
RTVSPropertyOp3
 70
     1
102
RTVSPropertyOp4
 70
     1
102
RTVSPropertyOp5
 70
     1
102
RTVSPropertyOp6
 70
     1
102
RTVSPropertyOp7
 70
     1
102
RTVSPropertyOp8
 70
     1
102
RTVSPropertyOp9
 70
     1
102
RTVSPropertyOp10
 70
     1
102
RTVSPropertyOp11
 70
     1
102
RTVSPropertyOp12
 70
     1
102
RTVSPropertyOp13
 70
     1
102
RTVSPropertyOp14
 70
     1
102
RTVSPropertyOp15
 70
     1
102
RTVSPropertyOp16
 70
     1
102
RTVSPropertyOp17
 70
     1
102
RTVSPropertyOp18
 70
     1
102
RTVSPropertyOp19
 70
     1
102
RTVSPropertyOp20
 70
     1
102
RTVSPropertyOp21
 70
     1
102
RTVSPropertyOp22
 70
     1
102
RTVSPropertyOp23
 70
     1
102
RTVSPropertyOp24
 70
     1
102
RTVSPropertyOp25
 70
     1
102
RTVSPropertyOp26
 70
     1
102
RTVSPropertyOp27
 70
     1
102
RTVSPropertyOp28
 70
     1
102
RTVSPropertyOp29
 70
     1
102
RTVSPropertyOp30
 70
     1
102
RTVSPropertyOp31
 70
     1
102
RTVSPropertyOp32
 70
     1
102
RTVSPropertyOp33
 70
     1
102
RTVSPropertyOp34
 70
     1
102
RTVSPropertyOp35
 70
     1
102
RTVSPropertyOp36
 70
     1
102
RTVSPropertyOp37
 70
     1
102
RTVSPropertyOp38
 70
     1
102
RTVSPropertyOp39
 70
     1
102
RTVSPropertyOp40
 70
     1
102
RTVSPropertyOp41
 70
     1
102
RTVSPropertyOp42
 70
     1
102
RTVSPropertyOp43
 70
     1
102
RTVSPropertyOp44
 70
     1
102
RTVSPropertyOp45
 70
     1
102
RTVSPropertyOp46
 70
     1
102
RTVSPropertyOp47
 70
     1
102
RTVSPropertyOp48
 70
     1
102
RTVSPropertyOp49
 70
     1
102
RTVSPropertyOp50
 70
     1
102
RTVSPropertyOp51
 70
     0
102
RTVSPropertyOp52
 70
     0
102
RTVSPropertyOp53
 70
     1
102
RTVSPropertyOp54
 70
     1
102
RTVSPropertyOp55
 70
     1
102
RTVSPropertyOp56
 70
     1
102
RTVSPropertyOp57
 70
     1
102
RTVSPost2010Prop28
280
     0
102
RTVSPost2010PropOp28
 70
     1
102
RTVSPost2010Prop29
280
     1
102
RTVSPost2010PropOp29
 70
     1
102
RTVSPost2010Prop30
280
     1
102
RTVSPost2010PropOp30
 70
     1
102
RTVSPost2010Prop31
280
     0
102
RTVSPost2010PropOp31
 70
     1
102
RTVSPost2010Prop32
280
     0
102
RTVSPost2010PropOp32
 70
     1
102
RTVSPost2010Prop33
280
     0
102
RTVSPost2010PropOp33
 70
     1
102
RTVSPost2010Prop34
280
     0
102
RTVSPost2010PropOp34
 70
     1
102
RTVSPost2010Prop35
280
     0
102
RTVSPost2010PropOp35
 70
     1
102
RTVSPost2010Prop36
280
     0
102
RTVSPost2010PropOp36
 70
     1
102
RTVSPost2010Prop37
 90
       50
102
RTVSPost2010PropOp37
 70
     1
102
RTVSPost2010Prop38
140
0.0
102
RTVSPost2010PropOp38
 70
     1
102
RTVSPost2010Prop39
140
1.0
102
RTVSPost2010PropOp39
 70
     1
102
RTVSPost2010Prop40
 90
        0
102
RTVSPost2010PropOp40
 70
     1
102
RTVSPost2010Prop41ColorIndex
 90
       18
102
RTVSPost2010Prop41ColorRGB
 90
        0
102
RTVSPost2010PropOp41
 70
     1
102
RTVSPost2010Prop42
 90
       50
102
RTVSPost2010PropOp42
 70
     1
102
RTVSPost2010Prop43
 90
        3
102
RTVSPost2010PropOp43
 70
     1
102
RTVSPost2010Prop44ColorIndex
 90
        5
102
RTVSPost2010Prop44ColorRGB
 90
      255
102
RTVSPost2010PropOp44
 70
     1
102
RTVSPost2010Prop45
280
     0
102
RTVSPost2010PropOp45
 70
     1
102
RTVSPost2010Prop46
 90
       50
102
RTVSPost2010PropOp46
 70
     1
102
RTVSPost2010Prop47
 90
       50
102
RTVSPost2010PropOp47
 70
     1
102
RTVSPost2010Prop48
 90
       50
102
RTVSPost2010PropOp48
 70
     1
102
RTVSPost2010Prop49
280
     0
102
RTVSPost2010PropOp49
 70
     1
102
RTVSPost2010Prop50
 90
       50
102
RTVSPost2010PropOp50
 70
     1
102
RTVSPost2010Prop51ColorIndex
 90
      256
102
RTVSPost2010Prop51ColorRGB
 90
-16777216
102
RTVSPost2010PropOp51
 70
     0
102
RTVSPost2010Prop52
140
1.0
102
RTVSPost2010PropOp52
 70
     0
102
RTVSPost2010Prop53
 90
        2
102
RTVSPost2010PropOp53
 70
     1
102
RTVSPost2010Prop54
  1
strokes_ogs.tif
102
RTVSPost2010PropOp54
 70
     1
102
RTVSPost2010Prop55
280
     0
102
RTVSPost2010PropOp55
 70
     1
102
RTVSPost2010Prop56
140
1.0
102
RTVSPost2010PropOp56
 70
     1
102
RTVSPost2010Prop57
140
1.0
102
RTVSPost2010PropOp57
 70
     1
  0
XRECORD
  5
1F6
102
{ACAD_REACTORS
330
1F5
102
}
330
1F5
100
AcDbXrecord
280
     1
102
RTVSPropertyOp0
 70
     1
102
RTVSPropertyOp1
 70
     1
102
RTVSPropertyOp2
 70
     1
102
RTVSPropertyOp3
 70
     1
102
RTVSPropertyOp4
 70
     1
102
RTVSPropertyOp5
 70
     1
102
RTVSPropertyOp6
 70
     1
102
RTVSPropertyOp7
 70
     1
102
RTVSPropertyOp8
 70
     1
102
RTVSPropertyOp9
 70
     1
102
RTVSPropertyOp10
 70
     1
102
RTVSPropertyOp11
 70
     1
102
RTVSPropertyOp12
 70
     1
102
RTVSPropertyOp13
 70
     1
102
RTVSPropertyOp14
 70
     1
102
RTVSPropertyOp15
 70
     1
102
RTVSPropertyOp16
 70
     1
102
RTVSPropertyOp17
 70
     1
102
RTVSPropertyOp18
 70
     1
102
RTVSPropertyOp19
 70
     1
102
RTVSPropertyOp20
 70
     1
102
RTVSPropertyOp21
 70
     1
102
RTVSPropertyOp22
 70
     1
102
RTVSPropertyOp23
 70
     1
102
RTVSPropertyOp24
 70
     1
102
RTVSPropertyOp25
 70
     1
102
RTVSPropertyOp26
 70
     1
102
RTVSPropertyOp27
 70
     1
102
RTVSPropertyOp28
 70
     1
102
RTVSPropertyOp29
 70
     1
102
RTVSPropertyOp30
 70
     1
102
RTVSPropertyOp31
 70
     1
102
RTVSPropertyOp32
 70
     1
102
RTVSPropertyOp33
 70
     1
102
RTVSPropertyOp34
 70
     1
102
RTVSPropertyOp35
 70
     1
102
RTVSPropertyOp36
 70
     1
102
RTVSPropertyOp37
 70
     1
102
RTVSPropertyOp38
 70
     1
102
RTVSPropertyOp39
 70
     1
102
RTVSPropertyOp40
 70
     1
102
RTVSPropertyOp41
 70
     1
102
RTVSPropertyOp42
 70
     1
102
RTVSPropertyOp43
 70
     1
102
RTVSPropertyOp44
 70
     1
102
RTVSPropertyOp45
 70
     1
102
RTVSPropertyOp46
 70
     1
102
RTVSPropertyOp47
 70
     1
102
RTVSPropertyOp48
 70
     1
102
RTVSPropertyOp49
 70
     1
102
RTVSPropertyOp50
 70
     1
102
RTVSPropertyOp51
 70
     0
102
RTVSPropertyOp52
 70
     0
102
RTVSPropertyOp53
 70
     1
102
RTVSPropertyOp54
 70
     1
102
RTVSPropertyOp55
 70
     1
102
RTVSPropertyOp56
 70
     1
102
RTVSPropertyOp57
 70
     1
102
RTVSPost2010Prop28
280
     0
102
RTVSPost2010PropOp28
 70
     1
102
RTVSPost2010Prop29
280
     1
102
RTVSPost2010PropOp29
 70
     1
102
RTVSPost2010Prop30
280
     1
102
RTVSPost2010PropOp30
 70
     1
102
RTVSPost2010Prop31
280
     0
102
RTVSPost2010PropOp31
 70
     1
102
RTVSPost2010Prop32
280
     0
102
RTVSPost2010PropOp32
 70
     1
102
RTVSPost2010Prop33
280
     0
102
RTVSPost2010PropOp33
 70
     1
102
RTVSPost2010Prop34
280
     0
102
RTVSPost2010PropOp34
 70
     1
102
RTVSPost2010Prop35
280
     0
102
RTVSPost2010PropOp35
 70
     1
102
RTVSPost2010Prop36
280
     0
102
RTVSPost2010PropOp36
 70
     1
102
RTVSPost2010Prop37
 90
       50
102
RTVSPost2010PropOp37
 70
     1
102
RTVSPost2010Prop38
140
0.0
102
RTVSPost2010PropOp38
 70
     1
102
RTVSPost2010Prop39
140
1.0
102
RTVSPost2010PropOp39
 70
     1
102
RTVSPost2010Prop40
 90
        0
102
RTVSPost2010PropOp40
 70
     1
102
RTVSPost2010Prop41ColorIndex
 90
       18
102
RTVSPost2010Prop41ColorRGB
 90
        0
102
RTVSPost2010PropOp41
 70
     1
102
RTVSPost2010Prop42
 90
       50
102
RTVSPost2010PropOp42
 70
     1
102
RTVSPost2010Prop43
 90
        3
102
RTVSPost2010PropOp43
 70
     1
102
RTVSPost2010Prop44ColorIndex
 90
        5
102
RTVSPost2010Prop44ColorRGB
 90
      255
102
RTVSPost2010PropOp44
 70
     1
102
RTVSPost2010Prop45
280
     0
102
RTVSPost2010PropOp45
 70
     1
102
RTVSPost2010Prop46
 90
       50
102
RTVSPost2010PropOp46
 70
     1
102
RTVSPost2010Prop47
 90
       50
102
RTVSPost2010PropOp47
 70
     1
102
RTVSPost2010Prop48
 90
       50
102
RTVSPost2010PropOp48
 70
     1
102
RTVSPost2010Prop49
280
     0
102
RTVSPost2010PropOp49
 70
     1
102
RTVSPost2010Prop50
 90
       50
102
RTVSPost2010PropOp50
 70
     1
102
RTVSPost2010Prop51ColorIndex
 90
      256
102
RTVSPost2010Prop51ColorRGB
 90
-16777216
102
RTVSPost2010PropOp51
 70
     0
102
RTVSPost2010Prop52
140
1.0
102
RTVSPost2010PropOp52
 70
     0
102
RTVSPost2010Prop53
 90
        2
102
RTVSPost2010PropOp53
 70
     1
102
RTVSPost2010Prop54
  1
strokes_ogs.tif
102
RTVSPost2010PropOp54
 70
     1
102
RTVSPost2010Prop55
280
     0
102
RTVSPost2010PropOp55
 70
     1
102
RTVSPost2010Prop56
140
1.0
102
RTVSPost2010PropOp56
 70
     1
102
RTVSPost2010Prop57
140
1.0
102
RTVSPost2010PropOp57
 70
     1
  0
XRECORD
  5
1F0
102
{ACAD_REACTORS
330
1EF
102
}
330
1EF
100
AcDbXrecord
280
     1
102
RTVSPropertyOp0
 70
     1
102
RTVSPropertyOp1
 70
     1
102
RTVSPropertyOp2
 70
     1
102
RTVSPropertyOp3
 70
     1
102
RTVSPropertyOp4
 70
     1
102
RTVSPropertyOp5
 70
     1
102
RTVSPropertyOp6
 70
     1
102
RTVSPropertyOp7
 70
     1
102
RTVSPropertyOp8
 70
     1
102
RTVSPropertyOp9
 70
     1
102
RTVSPropertyOp10
 70
     1
102
RTVSPropertyOp11
 70
     1
102
RTVSPropertyOp12
 70
     1
102
RTVSPropertyOp13
 70
     1
102
RTVSPropertyOp14
 70
     1
102
RTVSPropertyOp15
 70
     1
102
RTVSPropertyOp16
 70
     1
102
RTVSPropertyOp17
 70
     1
102
RTVSPropertyOp18
 70
     1
102
RTVSPropertyOp19
 70
     1
102
RTVSPropertyOp20
 70
     1
102
RTVSPropertyOp21
 70
     1
102
RTVSPropertyOp22
 70
     1
102
RTVSPropertyOp23
 70
     1
102
RTVSPropertyOp24
 70
     1
102
RTVSPropertyOp25
 70
     1
102
RTVSPropertyOp26
 70
     1
102
RTVSPropertyOp27
 70
     1
102
RTVSPropertyOp28
 70
     1
102
RTVSPropertyOp29
 70
     1
102
RTVSPropertyOp30
 70
     1
102
RTVSPropertyOp31
 70
     1
102
RTVSPropertyOp32
 70
     1
102
RTVSPropertyOp33
 70
     1
102
RTVSPropertyOp34
 70
     1
102
RTVSPropertyOp35
 70
     1
102
RTVSPropertyOp36
 70
     1
102
RTVSPropertyOp37
 70
     1
102
RTVSPropertyOp38
 70
     1
102
RTVSPropertyOp39
 70
     1
102
RTVSPropertyOp40
 70
     1
102
RTVSPropertyOp41
 70
     1
102
RTVSPropertyOp42
 70
     1
102
RTVSPropertyOp43
 70
     1
102
RTVSPropertyOp44
 70
     1
102
RTVSPropertyOp45
 70
     1
102
RTVSPropertyOp46
 70
     1
102
RTVSPropertyOp47
 70
     1
102
RTVSPropertyOp48
 70
     1
102
RTVSPropertyOp49
 70
     1
102
RTVSPropertyOp50
 70
     1
102
RTVSPropertyOp51
 70
     0
102
RTVSPropertyOp52
 70
     0
102
RTVSPropertyOp53
 70
     1
102
RTVSPropertyOp54
 70
     1
102
RTVSPropertyOp55
 70
     1
102
RTVSPropertyOp56
 70
     1
102
RTVSPropertyOp57
 70
     1
102
RTVSPost2010Prop28
280
     0
102
RTVSPost2010PropOp28
 70
     1
102
RTVSPost2010Prop29
280
     1
102
RTVSPost2010PropOp29
 70
     1
102
RTVSPost2010Prop30
280
     1
102
RTVSPost2010PropOp30
 70
     1
102
RTVSPost2010Prop31
280
     0
102
RTVSPost2010PropOp31
 70
     1
102
RTVSPost2010Prop32
280
     0
102
RTVSPost2010PropOp32
 70
     1
102
RTVSPost2010Prop33
280
     0
102
RTVSPost2010PropOp33
 70
     1
102
RTVSPost2010Prop34
280
     0
102
RTVSPost2010PropOp34
 70
     1
102
RTVSPost2010Prop35
280
     0
102
RTVSPost2010PropOp35
 70
     1
102
RTVSPost2010Prop36
280
     0
102
RTVSPost2010PropOp36
 70
     1
102
RTVSPost2010Prop37
 90
       50
102
RTVSPost2010PropOp37
 70
     1
102
RTVSPost2010Prop38
140
0.0
102
RTVSPost2010PropOp38
 70
     1
102
RTVSPost2010Prop39
140
1.0
102
RTVSPost2010PropOp39
 70
     1
102
RTVSPost2010Prop40
 90
        0
102
RTVSPost2010PropOp40
 70
     1
102
RTVSPost2010Prop41ColorIndex
 90
       18
102
RTVSPost2010Prop41ColorRGB
 90
        0
102
RTVSPost2010PropOp41
 70
     1
102
RTVSPost2010Prop42
 90
       50
102
RTVSPost2010PropOp42
 70
     1
102
RTVSPost2010Prop43
 90
        3
102
RTVSPost2010PropOp43
 70
     1
102
RTVSPost2010Prop44ColorIndex
 90
        5
102
RTVSPost2010Prop44ColorRGB
 90
      255
102
RTVSPost2010PropOp44
 70
     1
102
RTVSPost2010Prop45
280
     0
102
RTVSPost2010PropOp45
 70
     1
102
RTVSPost2010Prop46
 90
       50
102
RTVSPost2010PropOp46
 70
     1
102
RTVSPost2010Prop47
 90
       50
102
RTVSPost2010PropOp47
 70
     1
102
RTVSPost2010Prop48
 90
       50
102
RTVSPost2010PropOp48
 70
     1
102
RTVSPost2010Prop49
280
     0
102
RTVSPost2010PropOp49
 70
     1
102
RTVSPost2010Prop50
 90
       50
102
RTVSPost2010PropOp50
 70
     1
102
RTVSPost2010Prop51ColorIndex
 90
      256
102
RTVSPost2010Prop51ColorRGB
 90
-16777216
102
RTVSPost2010PropOp51
 70
     0
102
RTVSPost2010Prop52
140
1.0
102
RTVSPost2010PropOp52
 70
     0
102
RTVSPost2010Prop53
 90
        2
102
RTVSPost2010PropOp53
 70
     1
102
RTVSPost2010Prop54
  1
strokes_ogs.tif
102
RTVSPost2010PropOp54
 70
     1
102
RTVSPost2010Prop55
280
     0
102
RTVSPost2010PropOp55
 70
     1
102
RTVSPost2010Prop56
140
1.0
102
RTVSPost2010PropOp56
 70
     1
102
RTVSPost2010Prop57
140
1.0
102
RTVSPost2010PropOp57
 70
     1
  0
XRECORD
  5
1F2
102
{ACAD_REACTORS
330
1F1
102
}
330
1F1
100
AcDbXrecord
280
     1
102
RTVSPropertyOp0
 70
     1
102
RTVSPropertyOp1
 70
     1
102
RTVSPropertyOp2
 70
     1
102
RTVSPropertyOp3
 70
     1
102
RTVSPropertyOp4
 70
     1
102
RTVSPropertyOp5
 70
     1
102
RTVSPropertyOp6
 70
     1
102
RTVSPropertyOp7
 70
     1
102
RTVSPropertyOp8
 70
     1
102
RTVSPropertyOp9
 70
     1
102
RTVSPropertyOp10
 70
     1
102
RTVSPropertyOp11
 70
     1
102
RTVSPropertyOp12
 70
     1
102
RTVSPropertyOp13
 70
     1
102
RTVSPropertyOp14
 70
     1
102
RTVSPropertyOp15
 70
     1
102
RTVSPropertyOp16
 70
     1
102
RTVSPropertyOp17
 70
     1
102
RTVSPropertyOp18
 70
     1
102
RTVSPropertyOp19
 70
     1
102
RTVSPropertyOp20
 70
     1
102
RTVSPropertyOp21
 70
     1
102
RTVSPropertyOp22
 70
     1
102
RTVSPropertyOp23
 70
     1
102
RTVSPropertyOp24
 70
     1
102
RTVSPropertyOp25
 70
     1
102
RTVSPropertyOp26
 70
     1
102
RTVSPropertyOp27
 70
     1
102
RTVSPropertyOp28
 70
     1
102
RTVSPropertyOp29
 70
     1
102
RTVSPropertyOp30
 70
     1
102
RTVSPropertyOp31
 70
     1
102
RTVSPropertyOp32
 70
     1
102
RTVSPropertyOp33
 70
     1
102
RTVSPropertyOp34
 70
     1
102
RTVSPropertyOp35
 70
     1
102
RTVSPropertyOp36
 70
     1
102
RTVSPropertyOp37
 70
     1
102
RTVSPropertyOp38
 70
     1
102
RTVSPropertyOp39
 70
     1
102
RTVSPropertyOp40
 70
     1
102
RTVSPropertyOp41
 70
     1
102
RTVSPropertyOp42
 70
     1
102
RTVSPropertyOp43
 70
     1
102
RTVSPropertyOp44
 70
     1
102
RTVSPropertyOp45
 70
     1
102
RTVSPropertyOp46
 70
     1
102
RTVSPropertyOp47
 70
     1
102
RTVSPropertyOp48
 70
     1
102
RTVSPropertyOp49
 70
     1
102
RTVSPropertyOp50
 70
     1
102
RTVSPropertyOp51
 70
     0
102
RTVSPropertyOp52
 70
     0
102
RTVSPropertyOp53
 70
     1
102
RTVSPropertyOp54
 70
     1
102
RTVSPropertyOp55
 70
     1
102
RTVSPropertyOp56
 70
     1
102
RTVSPropertyOp57
 70
     1
102
RTVSPost2010Prop28
280
     0
102
RTVSPost2010PropOp28
 70
     1
102
RTVSPost2010Prop29
280
     1
102
RTVSPost2010PropOp29
 70
     1
102
RTVSPost2010Prop30
280
     1
102
RTVSPost2010PropOp30
 70
     1
102
RTVSPost2010Prop31
280
     0
102
RTVSPost2010PropOp31
 70
     1
102
RTVSPost2010Prop32
280
     0
102
RTVSPost2010PropOp32
 70
     1
102
RTVSPost2010Prop33
280
     0
102
RTVSPost2010PropOp33
 70
     1
102
RTVSPost2010Prop34
280
     0
102
RTVSPost2010PropOp34
 70
     1
102
RTVSPost2010Prop35
280
     0
102
RTVSPost2010PropOp35
 70
     1
102
RTVSPost2010Prop36
280
     0
102
RTVSPost2010PropOp36
 70
     1
102
RTVSPost2010Prop37
 90
       50
102
RTVSPost2010PropOp37
 70
     1
102
RTVSPost2010Prop38
140
0.0
102
RTVSPost2010PropOp38
 70
     1
102
RTVSPost2010Prop39
140
1.0
102
RTVSPost2010PropOp39
 70
     1
102
RTVSPost2010Prop40
 90
        0
102
RTVSPost2010PropOp40
 70
     1
102
RTVSPost2010Prop41ColorIndex
 90
       18
102
RTVSPost2010Prop41ColorRGB
 90
        0
102
RTVSPost2010PropOp41
 70
     1
102
RTVSPost2010Prop42
 90
       50
102
RTVSPost2010PropOp42
 70
     1
102
RTVSPost2010Prop43
 90
        3
102
RTVSPost2010PropOp43
 70
     1
102
RTVSPost2010Prop44ColorIndex
 90
        5
102
RTVSPost2010Prop44ColorRGB
 90
      255
102
RTVSPost2010PropOp44
 70
     1
102
RTVSPost2010Prop45
280
     0
102
RTVSPost2010PropOp45
 70
     1
102
RTVSPost2010Prop46
 90
       50
102
RTVSPost2010PropOp46
 70
     1
102
RTVSPost2010Prop47
 90
       50
102
RTVSPost2010PropOp47
 70
     1
102
RTVSPost2010Prop48
 90
       50
102
RTVSPost2010PropOp48
 70
     1
102
RTVSPost2010Prop49
280
     0
102
RTVSPost2010PropOp49
 70
     1
102
RTVSPost2010Prop50
 90
       50
102
RTVSPost2010PropOp50
 70
     1
102
RTVSPost2010Prop51ColorIndex
 90
      256
102
RTVSPost2010Prop51ColorRGB
 90
-16777216
102
RTVSPost2010PropOp51
 70
     0
102
RTVSPost2010Prop52
140
1.0
102
RTVSPost2010PropOp52
 70
     0
102
RTVSPost2010Prop53
 90
        2
102
RTVSPost2010PropOp53
 70
     1
102
RTVSPost2010Prop54
  1
strokes_ogs.tif
102
RTVSPost2010PropOp54
 70
     1
102
RTVSPost2010Prop55
280
     0
102
RTVSPost2010PropOp55
 70
     1
102
RTVSPost2010Prop56
140
1.0
102
RTVSPost2010PropOp56
 70
     1
102
RTVSPost2010Prop57
140
1.0
102
RTVSPost2010PropOp57
 70
     1
  0
XRECORD
  5
1E2
102
{ACAD_REACTORS
330
1E1
102
}
330
1E1
100
AcDbXrecord
280
     1
102
RTVSPropertyOp0
 70
     1
102
RTVSPropertyOp1
 70
     1
102
RTVSPropertyOp2
 70
     1
102
RTVSPropertyOp3
 70
     1
102
RTVSPropertyOp4
 70
     1
102
RTVSPropertyOp5
 70
     1
102
RTVSPropertyOp6
 70
     1
102
RTVSPropertyOp7
 70
     1
102
RTVSPropertyOp8
 70
     1
102
RTVSPropertyOp9
 70
     1
102
RTVSPropertyOp10
 70
     1
102
RTVSPropertyOp11
 70
     1
102
RTVSPropertyOp12
 70
     1
102
RTVSPropertyOp13
 70
     1
102
RTVSPropertyOp14
 70
     1
102
RTVSPropertyOp15
 70
     1
102
RTVSPropertyOp16
 70
     1
102
RTVSPropertyOp17
 70
     1
102
RTVSPropertyOp18
 70
     1
102
RTVSPropertyOp19
 70
     1
102
RTVSPropertyOp20
 70
     1
102
RTVSPropertyOp21
 70
     1
102
RTVSPropertyOp22
 70
     1
102
RTVSPropertyOp23
 70
     1
102
RTVSPropertyOp24
 70
     1
102
RTVSPropertyOp25
 70
     1
102
RTVSPropertyOp26
 70
     1
102
RTVSPropertyOp27
 70
     1
102
RTVSPropertyOp28
 70
     1
102
RTVSPropertyOp29
 70
     1
102
RTVSPropertyOp30
 70
     1
102
RTVSPropertyOp31
 70
     1
102
RTVSPropertyOp32
 70
     1
102
RTVSPropertyOp33
 70
     1
102
RTVSPropertyOp34
 70
     1
102
RTVSPropertyOp35
 70
     1
102
RTVSPropertyOp36
 70
     1
102
RTVSPropertyOp37
 70
     1
102
RTVSPropertyOp38
 70
     1
102
RTVSPropertyOp39
 70
     1
102
RTVSPropertyOp40
 70
     1
102
RTVSPropertyOp41
 70
     1
102
RTVSPropertyOp42
 70
     1
102
RTVSPropertyOp43
 70
     1
102
RTVSPropertyOp44
 70
     1
102
RTVSPropertyOp45
 70
     1
102
RTVSPropertyOp46
 70
     1
102
RTVSPropertyOp47
 70
     1
102
RTVSPropertyOp48
 70
     1
102
RTVSPropertyOp49
 70
     1
102
RTVSPropertyOp50
 70
     1
102
RTVSPropertyOp51
 70
     0
102
RTVSPropertyOp52
 70
     0
102
RTVSPropertyOp53
 70
     1
102
RTVSPropertyOp54
 70
     1
102
RTVSPropertyOp55
 70
     1
102
RTVSPropertyOp56
 70
     1
102
RTVSPropertyOp57
 70
     1
102
RTVSPost2010Prop28
280
     0
102
RTVSPost2010PropOp28
 70
     1
102
RTVSPost2010Prop29
280
     1
102
RTVSPost2010PropOp29
 70
     1
102
RTVSPost2010Prop30
280
     1
102
RTVSPost2010PropOp30
 70
     1
102
RTVSPost2010Prop31
280
     0
102
RTVSPost2010PropOp31
 70
     1
102
RTVSPost2010Prop32
280
     0
102
RTVSPost2010PropOp32
 70
     1
102
RTVSPost2010Prop33
280
     0
102
RTVSPost2010PropOp33
 70
     1
102
RTVSPost2010Prop34
280
     0
102
RTVSPost2010PropOp34
 70
     1
102
RTVSPost2010Prop35
280
     0
102
RTVSPost2010PropOp35
 70
     1
102
RTVSPost2010Prop36
280
     0
102
RTVSPost2010PropOp36
 70
     1
102
RTVSPost2010Prop37
 90
       50
102
RTVSPost2010PropOp37
 70
     1
102
RTVSPost2010Prop38
140
0.0
102
RTVSPost2010PropOp38
 70
     1
102
RTVSPost2010Prop39
140
1.0
102
RTVSPost2010PropOp39
 70
     1
102
RTVSPost2010Prop40
 90
        0
102
RTVSPost2010PropOp40
 70
     1
102
RTVSPost2010Prop41ColorIndex
 90
       18
102
RTVSPost2010Prop41ColorRGB
 90
        0
102
RTVSPost2010PropOp41
 70
     1
102
RTVSPost2010Prop42
 90
       50
102
RTVSPost2010PropOp42
 70
     1
102
RTVSPost2010Prop43
 90
        3
102
RTVSPost2010PropOp43
 70
     1
102
RTVSPost2010Prop44ColorIndex
 90
        5
102
RTVSPost2010Prop44ColorRGB
 90
      255
102
RTVSPost2010PropOp44
 70
     1
102
RTVSPost2010Prop45
280
     0
102
RTVSPost2010PropOp45
 70
     1
102
RTVSPost2010Prop46
 90
       50
102
RTVSPost2010PropOp46
 70
     1
102
RTVSPost2010Prop47
 90
       50
102
RTVSPost2010PropOp47
 70
     1
102
RTVSPost2010Prop48
 90
       50
102
RTVSPost2010PropOp48
 70
     1
102
RTVSPost2010Prop49
280
     0
102
RTVSPost2010PropOp49
 70
     1
102
RTVSPost2010Prop50
 90
       50
102
RTVSPost2010PropOp50
 70
     1
102
RTVSPost2010Prop51ColorIndex
 90
      256
102
RTVSPost2010Prop51ColorRGB
 90
-16777216
102
RTVSPost2010PropOp51
 70
     0
102
RTVSPost2010Prop52
140
1.0
102
RTVSPost2010PropOp52
 70
     0
102
RTVSPost2010Prop53
 90
        2
102
RTVSPost2010PropOp53
 70
     1
102
RTVSPost2010Prop54
  1
strokes_ogs.tif
102
RTVSPost2010PropOp54
 70
     1
102
RTVSPost2010Prop55
280
     0
102
RTVSPost2010PropOp55
 70
     1
102
RTVSPost2010Prop56
140
1.0
102
RTVSPost2010PropOp56
 70
     1
102
RTVSPost2010Prop57
140
1.0
102
RTVSPost2010PropOp57
 70
     1
  0
XRECORD
  5
1D4
102
{ACAD_REACTORS
330
1D3
102
}
330
1D3
100
AcDbXrecord
280
     1
102
RTVSPropertyOp0
 70
     1
102
RTVSPropertyOp1
 70
     1
102
RTVSPropertyOp2
 70
     1
102
RTVSPropertyOp3
 70
     1
102
RTVSPropertyOp4
 70
     1
102
RTVSPropertyOp5
 70
     1
102
RTVSPropertyOp6
 70
     1
102
RTVSPropertyOp7
 70
     1
102
RTVSPropertyOp8
 70
     1
102
RTVSPropertyOp9
 70
     1
102
RTVSPropertyOp10
 70
     1
102
RTVSPropertyOp11
 70
     1
102
RTVSPropertyOp12
 70
     1
102
RTVSPropertyOp13
 70
     1
102
RTVSPropertyOp14
 70
     1
102
RTVSPropertyOp15
 70
     1
102
RTVSPropertyOp16
 70
     1
102
RTVSPropertyOp17
 70
     1
102
RTVSPropertyOp18
 70
     1
102
RTVSPropertyOp19
 70
     1
102
RTVSPropertyOp20
 70
     1
102
RTVSPropertyOp21
 70
     1
102
RTVSPropertyOp22
 70
     1
102
RTVSPropertyOp23
 70
     1
102
RTVSPropertyOp24
 70
     1
102
RTVSPropertyOp25
 70
     1
102
RTVSPropertyOp26
 70
     1
102
RTVSPropertyOp27
 70
     1
102
RTVSPropertyOp28
 70
     1
102
RTVSPropertyOp29
 70
     1
102
RTVSPropertyOp30
 70
     1
102
RTVSPropertyOp31
 70
     1
102
RTVSPropertyOp32
 70
     1
102
RTVSPropertyOp33
 70
     1
102
RTVSPropertyOp34
 70
     1
102
RTVSPropertyOp35
 70
     1
102
RTVSPropertyOp36
 70
     1
102
RTVSPropertyOp37
 70
     1
102
RTVSPropertyOp38
 70
     1
102
RTVSPropertyOp39
 70
     1
102
RTVSPropertyOp40
 70
     1
102
RTVSPropertyOp41
 70
     1
102
RTVSPropertyOp42
 70
     1
102
RTVSPropertyOp43
 70
     1
102
RTVSPropertyOp44
 70
     1
102
RTVSPropertyOp45
 70
     1
102
RTVSPropertyOp46
 70
     1
102
RTVSPropertyOp47
 70
     1
102
RTVSPropertyOp48
 70
     1
102
RTVSPropertyOp49
 70
     1
102
RTVSPropertyOp50
 70
     1
102
RTVSPropertyOp51
 70
     0
102
RTVSPropertyOp52
 70
     0
102
RTVSPropertyOp53
 70
     1
102
RTVSPropertyOp54
 70
     1
102
RTVSPropertyOp55
 70
     1
102
RTVSPropertyOp56
 70
     1
102
RTVSPropertyOp57
 70
     1
102
RTVSPost2010Prop28
280
     0
102
RTVSPost2010PropOp28
 70
     1
102
RTVSPost2010Prop29
280
     1
102
RTVSPost2010PropOp29
 70
     1
102
RTVSPost2010Prop30
280
     1
102
RTVSPost2010PropOp30
 70
     1
102
RTVSPost2010Prop31
280
     0
102
RTVSPost2010PropOp31
 70
     1
102
RTVSPost2010Prop32
280
     0
102
RTVSPost2010PropOp32
 70
     1
102
RTVSPost2010Prop33
280
     0
102
RTVSPost2010PropOp33
 70
     1
102
RTVSPost2010Prop34
280
     0
102
RTVSPost2010PropOp34
 70
     1
102
RTVSPost2010Prop35
280
     0
102
RTVSPost2010PropOp35
 70
     1
102
RTVSPost2010Prop36
280
     0
102
RTVSPost2010PropOp36
 70
     1
102
RTVSPost2010Prop37
 90
       50
102
RTVSPost2010PropOp37
 70
     1
102
RTVSPost2010Prop38
140
0.0
102
RTVSPost2010PropOp38
 70
     1
102
RTVSPost2010Prop39
140
1.0
102
RTVSPost2010PropOp39
 70
     1
102
RTVSPost2010Prop40
 90
        0
102
RTVSPost2010PropOp40
 70
     1
102
RTVSPost2010Prop41ColorIndex
 90
       18
102
RTVSPost2010Prop41ColorRGB
 90
        0
102
RTVSPost2010PropOp41
 70
     1
102
RTVSPost2010Prop42
 90
       50
102
RTVSPost2010PropOp42
 70
     1
102
RTVSPost2010Prop43
 90
        3
102
RTVSPost2010PropOp43
 70
     1
102
RTVSPost2010Prop44ColorIndex
 90
        5
102
RTVSPost2010Prop44ColorRGB
 90
      255
102
RTVSPost2010PropOp44
 70
     1
102
RTVSPost2010Prop45
280
     0
102
RTVSPost2010PropOp45
 70
     1
102
RTVSPost2010Prop46
 90
       50
102
RTVSPost2010PropOp46
 70
     1
102
RTVSPost2010Prop47
 90
       50
102
RTVSPost2010PropOp47
 70
     1
102
RTVSPost2010Prop48
 90
       50
102
RTVSPost2010PropOp48
 70
     1
102
RTVSPost2010Prop49
280
     0
102
RTVSPost2010PropOp49
 70
     1
102
RTVSPost2010Prop50
 90
       50
102
RTVSPost2010PropOp50
 70
     1
102
RTVSPost2010Prop51ColorIndex
 90
      256
102
RTVSPost2010Prop51ColorRGB
 90
-16777216
102
RTVSPost2010PropOp51
 70
     0
102
RTVSPost2010Prop52
140
1.0
102
RTVSPost2010PropOp52
 70
     0
102
RTVSPost2010Prop53
 90
        2
102
RTVSPost2010PropOp53
 70
     1
102
RTVSPost2010Prop54
  1
strokes_ogs.tif
102
RTVSPost2010PropOp54
 70
     1
102
RTVSPost2010Prop55
280
     0
102
RTVSPost2010PropOp55
 70
     1
102
RTVSPost2010Prop56
140
1.0
102
RTVSPost2010PropOp56
 70
     1
102
RTVSPost2010Prop57
140
1.0
102
RTVSPost2010PropOp57
 70
     1
  0
XRECORD
  5
1F4
102
{ACAD_REACTORS
330
1F3
102
}
330
1F3
100
AcDbXrecord
280
     1
102
RTVSPropertyOp0
 70
     1
102
RTVSPropertyOp1
 70
     1
102
RTVSPropertyOp2
 70
     1
102
RTVSPropertyOp3
 70
     1
102
RTVSPropertyOp4
 70
     1
102
RTVSPropertyOp5
 70
     1
102
RTVSPropertyOp6
 70
     1
102
RTVSPropertyOp7
 70
     1
102
RTVSPropertyOp8
 70
     1
102
RTVSPropertyOp9
 70
     1
102
RTVSPropertyOp10
 70
     1
102
RTVSPropertyOp11
 70
     1
102
RTVSPropertyOp12
 70
     1
102
RTVSPropertyOp13
 70
     1
102
RTVSPropertyOp14
 70
     1
102
RTVSPropertyOp15
 70
     1
102
RTVSPropertyOp16
 70
     1
102
RTVSPropertyOp17
 70
     1
102
RTVSPropertyOp18
 70
     1
102
RTVSPropertyOp19
 70
     1
102
RTVSPropertyOp20
 70
     1
102
RTVSPropertyOp21
 70
     1
102
RTVSPropertyOp22
 70
     1
102
RTVSPropertyOp23
 70
     1
102
RTVSPropertyOp24
 70
     1
102
RTVSPropertyOp25
 70
     1
102
RTVSPropertyOp26
 70
     1
102
RTVSPropertyOp27
 70
     1
102
RTVSPropertyOp28
 70
     1
102
RTVSPropertyOp29
 70
     1
102
RTVSPropertyOp30
 70
     1
102
RTVSPropertyOp31
 70
     1
102
RTVSPropertyOp32
 70
     1
102
RTVSPropertyOp33
 70
     1
102
RTVSPropertyOp34
 70
     1
102
RTVSPropertyOp35
 70
     1
102
RTVSPropertyOp36
 70
     1
102
RTVSPropertyOp37
 70
     1
102
RTVSPropertyOp38
 70
     1
102
RTVSPropertyOp39
 70
     1
102
RTVSPropertyOp40
 70
     1
102
RTVSPropertyOp41
 70
     1
102
RTVSPropertyOp42
 70
     1
102
RTVSPropertyOp43
 70
     1
102
RTVSPropertyOp44
 70
     1
102
RTVSPropertyOp45
 70
     1
102
RTVSPropertyOp46
 70
     1
102
RTVSPropertyOp47
 70
     1
102
RTVSPropertyOp48
 70
     1
102
RTVSPropertyOp49
 70
     1
102
RTVSPropertyOp50
 70
     1
102
RTVSPropertyOp51
 70
     0
102
RTVSPropertyOp52
 70
     0
102
RTVSPropertyOp53
 70
     1
102
RTVSPropertyOp54
 70
     1
102
RTVSPropertyOp55
 70
     1
102
RTVSPropertyOp56
 70
     1
102
RTVSPropertyOp57
 70
     1
102
RTVSPost2010Prop28
280
     0
102
RTVSPost2010PropOp28
 70
     1
102
RTVSPost2010Prop29
280
     1
102
RTVSPost2010PropOp29
 70
     1
102
RTVSPost2010Prop30
280
     1
102
RTVSPost2010PropOp30
 70
     1
102
RTVSPost2010Prop31
280
     0
102
RTVSPost2010PropOp31
 70
     1
102
RTVSPost2010Prop32
280
     0
102
RTVSPost2010PropOp32
 70
     1
102
RTVSPost2010Prop33
280
     0
102
RTVSPost2010PropOp33
 70
     1
102
RTVSPost2010Prop34
280
     0
102
RTVSPost2010PropOp34
 70
     1
102
RTVSPost2010Prop35
280
     0
102
RTVSPost2010PropOp35
 70
     1
102
RTVSPost2010Prop36
280
     0
102
RTVSPost2010PropOp36
 70
     1
102
RTVSPost2010Prop37
 90
       50
102
RTVSPost2010PropOp37
 70
     1
102
RTVSPost2010Prop38
140
0.0
102
RTVSPost2010PropOp38
 70
     1
102
RTVSPost2010Prop39
140
1.0
102
RTVSPost2010PropOp39
 70
     1
102
RTVSPost2010Prop40
 90
        0
102
RTVSPost2010PropOp40
 70
     1
102
RTVSPost2010Prop41ColorIndex
 90
       18
102
RTVSPost2010Prop41ColorRGB
 90
        0
102
RTVSPost2010PropOp41
 70
     1
102
RTVSPost2010Prop42
 90
       50
102
RTVSPost2010PropOp42
 70
     1
102
RTVSPost2010Prop43
 90
        3
102
RTVSPost2010PropOp43
 70
     1
102
RTVSPost2010Prop44ColorIndex
 90
        5
102
RTVSPost2010Prop44ColorRGB
 90
      255
102
RTVSPost2010PropOp44
 70
     1
102
RTVSPost2010Prop45
280
     0
102
RTVSPost2010PropOp45
 70
     1
102
RTVSPost2010Prop46
 90
       50
102
RTVSPost2010PropOp46
 70
     1
102
RTVSPost2010Prop47
 90
       50
102
RTVSPost2010PropOp47
 70
     1
102
RTVSPost2010Prop48
 90
       50
102
RTVSPost2010PropOp48
 70
     1
102
RTVSPost2010Prop49
280
     0
102
RTVSPost2010PropOp49
 70
     1
102
RTVSPost2010Prop50
 90
       50
102
RTVSPost2010PropOp50
 70
     1
102
RTVSPost2010Prop51ColorIndex
 90
      256
102
RTVSPost2010Prop51ColorRGB
 90
-16777216
102
RTVSPost2010PropOp51
 70
     0
102
RTVSPost2010Prop52
140
1.0
102
RTVSPost2010PropOp52
 70
     0
102
RTVSPost2010Prop53
 90
        2
102
RTVSPost2010PropOp53
 70
     1
102
RTVSPost2010Prop54
  1
strokes_ogs.tif
102
RTVSPost2010PropOp54
 70
     1
102
RTVSPost2010Prop55
280
     0
102
RTVSPost2010PropOp55
 70
     1
102
RTVSPost2010Prop56
140
1.0
102
RTVSPost2010PropOp56
 70
     1
102
RTVSPost2010Prop57
140
1.0
102
RTVSPost2010PropOp57
 70
     1
  0
ENDSEC
  0
EOF
