  0
SECTION
  2
HEADER
  9
$ACADVER
  1
AC1015
  9
$ACADMAINTVER
 70
     6
  9
$DWGCODEPAGE
  3
ANSI_1252
  9
$INSBASE
 10
0.0
 20
0.0
 30
0.0
  9
$EXTMIN
 10
0.0
 20
0.0
 30
0.0
  9
$EXTMAX
 10
210.0
 20
297.0
 30
0.0
  9
$LIMMIN
 10
0.0
 20
0.0
  9
$LIMMAX
 10
210.0
 20
297.0
  9
$ORTHOMODE
 70
     0
  9
$REGENMODE
 70
     1
  9
$FILLMODE
 70
     1
  9
$QTEXTMODE
 70
     0
  9
$MIRRTEXT
 70
     1
  9
$LTSCALE
 40
1.0
  9
$ATTMODE
 70
     1
  9
$TEXTSIZE
 40
2.0
  9
$TRACEWID
 40
1.0
  9
$TEXTSTYLE
  7
Standard
  9
$CLAYER
  8
0
  9
$CELTYPE
  6
ByLayer
  9
$CECOLOR
 62
   256
  9
$CELTSCALE
 40
1.0
  9
$DISPSILH
 70
     0
  9
$DIMSCALE
 40
1.0
  9
$DIMASZ
 40
2.5
  9
$DIMEXO
 40
0.625
  9
$DIMDLI
 40
3.75
  9
$DIMRND
 40
0.0
  9
$DIMDLE
 40
0.0
  9
$DIMEXE
 40
1.25
  9
$DIMTP
 40
0.0
  9
$DIMTM
 40
0.0
  9
$DIMTXT
 40
2.5
  9
$DIMCEN
 40
2.5
  9
$DIMTSZ
 40
0.0
  9
$DIMTOL
 70
     0
  9
$DIMLIM
 70
     0
  9
$DIMTIH
 70
     0
  9
$DIMTOH
 70
     0
  9
$DIMSE1
 70
     0
  9
$DIMSE2
 70
     0
  9
$DIMTAD
 70
     1
  9
$DIMZIN
 70
     8
  9
$DIMBLK
  1

  9
$DIMASO
 70
     1
  9
$DIMSHO
 70
     1
  9
$DIMPOST
  1

  9
$DIMAPOST
  1

  9
$DIMALT
 70
     0
  9
$DIMALTD
 70
     3
  9
$DIMALTF
 40
0.03937007874016
  9
$DIMLFAC
 40
1.0
  9
$DIMTOFL
 70
     1
  9
$DIMTVP
 40
0.0
  9
$DIMTIX
 70
     0
  9
$DIMSOXD
 70
     0
  9
$DIMSAH
 70
     0
  9
$DIMBLK1
  1

  9
$DIMBLK2
  1

  9
$DIMSTYLE
  2
ISO-25
  9
$DIMCLRD
 70
     0
  9
$DIMCLRE
 70
     0
  9
$DIMCLRT
 70
     0
  9
$DIMTFAC
 40
1.0
  9
$DIMGAP
 40
0.625
  9
$DIMJUST
 70
     0
  9
$DIMSD1
 70
     0
  9
$DIMSD2
 70
     0
  9
$DIMTOLJ
 70
     0
  9
$DIMTZIN
 70
     8
  9
$DIMALTZ
 70
     0
  9
$DIMALTTZ
 70
     0
  9
$DIMUPT
 70
     0
  9
$DIMDEC
 70
     2
  9
$DIMTDEC
 70
     2
  9
$DIMALTU
 70
     2
  9
$DIMALTTD
 70
     3
  9
$DIMTXSTY
  7
Standard
  9
$DIMAUNIT
 70
     0
  9
$DIMADEC
 70
     0
  9
$DIMALTRND
 40
0.0
  9
$DIMAZIN
 70
     0
  9
$DIMDSEP
 70
    44
  9
$DIMATFIT
 70
     3
  9
$DIMFRAC
 70
     0
  9
$DIMLDRBLK
  1

  9
$DIMLUNIT
 70
     2
  9
$DIMLWD
 70
    -2
  9
$DIMLWE
 70
    -2
  9
$DIMTMOVE
 70
     0
  9
$LUNITS
 70
     2
  9
$LUPREC
 70
     4
  9
$SKETCHINC
 40
1.0
  9
$FILLETRAD
 40
10.0
  9
$AUNITS
 70
     0
  9
$AUPREC
 70
     0
  9
$MENU
  1
.
  9
$ELEVATION
 40
0.0
  9
$PELEVATION
 40
0.0
  9
$THICKNESS
 40
0.0
  9
$LIMCHECK
 70
     0
  9
$CHAMFERA
 40
0.0
  9
$CHAMFERB
 40
0.0
  9
$CHAMFERC
 40
0.0
  9
$CHAMFERD
 40
0.0
  9
$SKPOLY
 70
     0
  9
$TDCREATE
 40
2459361.657521053
  9
$TDUCREATE
 40
2459361.57418772
  9
$TDUPDATE
 40
2460427.595667523
  9
$TDUUPDATE
 40
2460427.51233419
  9
$TDINDWG
 40
0.0000000116
  9
$TDUSRTIMER
 40
0.0000000116
  9
$USRTIMER
 70
     1
  9
$ANGBASE
 50
0.0
  9
$ANGDIR
 70
     0
  9
$PDMODE
 70
     0
  9
$PDSIZE
 40
0.0
  9
$PLINEWID
 40
0.0
  9
$SPLFRAME
 70
     0
  9
$SPLINETYPE
 70
     6
  9
$SPLINESEGS
 70
     8
  9
$HANDSEED
  5
386
  9
$SURFTAB1
 70
     6
  9
$SURFTAB2
 70
     6
  9
$SURFTYPE
 70
     6
  9
$SURFU
 70
     6
  9
$SURFV
 70
     6
  9
$UCSBASE
  2

  9
$UCSNAME
  2

  9
$UCSORG
 10
0.0
 20
0.0
 30
0.0
  9
$UCSXDIR
 10
1.0
 20
0.0
 30
0.0
  9
$UCSYDIR
 10
0.0
 20
1.0
 30
0.0
  9
$UCSORTHOREF
  2

  9
$UCSORTHOVIEW
 70
     0
  9
$UCSORGTOP
 10
0.0
 20
0.0
 30
0.0
  9
$UCSORGBOTTOM
 10
0.0
 20
0.0
 30
0.0
  9
$UCSORGLEFT
 10
0.0
 20
0.0
 30
0.0
  9
$UCSORGRIGHT
 10
0.0
 20
0.0
 30
0.0
  9
$UCSORGFRONT
 10
0.0
 20
0.0
 30
0.0
  9
$UCSORGBACK
 10
0.0
 20
0.0
 30
0.0
  9
$PUCSBASE
  2

  9
$PUCSNAME
  2

  9
$PUCSORG
 10
0.0
 20
0.0
 30
0.0
  9
$PUCSXDIR
 10
1.0
 20
0.0
 30
0.0
  9
$PUCSYDIR
 10
0.0
 20
1.0
 30
0.0
  9
$PUCSORTHOREF
  2

  9
$PUCSORTHOVIEW
 70
     0
  9
$PUCSORGTOP
 10
0.0
 20
0.0
 30
0.0
  9
$PUCSORGBOTTOM
 10
0.0
 20
0.0
 30
0.0
  9
$PUCSORGLEFT
 10
0.0
 20
0.0
 30
0.0
  9
$PUCSORGRIGHT
 10
0.0
 20
0.0
 30
0.0
  9
$PUCSORGFRONT
 10
0.0
 20
0.0
 30
0.0
  9
$PUCSORGBACK
 10
0.0
 20
0.0
 30
0.0
  9
$USERI1
 70
     0
  9
$USERI2
 70
     0
  9
$USERI3
 70
     0
  9
$USERI4
 70
     0
  9
$USERI5
 70
     0
  9
$USERR1
 40
0.0
  9
$USERR2
 40
0.0
  9
$USERR3
 40
0.0
  9
$USERR4
 40
0.0
  9
$USERR5
 40
0.0
  9
$WORLDVIEW
 70
     1
  9
$SHADEDGE
 70
     3
  9
$SHADEDIF
 70
    70
  9
$TILEMODE
 70
     1
  9
$MAXACTVP
 70
    64
  9
$PINSBASE
 10
0.0
 20
0.0
 30
0.0
  9
$PLIMCHECK
 70
     0
  9
$PEXTMIN
 10
0.0
 20
0.0
 30
0.0
  9
$PEXTMAX
 10
210.0
 20
297.0
 30
0.0
  9
$PLIMMIN
 10
0.0
 20
0.0
  9
$PLIMMAX
 10
210.0
 20
297.0
  9
$UNITMODE
 70
     0
  9
$VISRETAIN
 70
     1
  9
$PLINEGEN
 70
     0
  9
$PSLTSCALE
 70
     1
  9
$TREEDEPTH
 70
  3020
  9
$CMLSTYLE
  2
Standard
  9
$CMLJUST
 70
     0
  9
$CMLSCALE
 40
20.0
  9
$PROXYGRAPHICS
 70
     1
  9
$MEASUREMENT
 70
     1
  9
$CELWEIGHT
370
    -1
  9
$ENDCAPS
280
     0
  9
$JOINSTYLE
280
     0
  9
$LWDISPLAY
290
     0
  9
$INSUNITS
 70
     4
  9
$HYPERLINKBASE
  1

  9
$STYLESHEET
  1

  9
$XEDIT
290
     1
  9
$CEPSNTYPE
380
     0
  9
$PSTYLEMODE
290
     1
  9
$FINGERPRINTGUID
  2
{C4D0C743-440E-4AC2-B526-9F5751A30A1E}
  9
$VERSIONGUID
  2
{FAEB1C32-E019-11D5-929B-00C0DF256EC4}
  9
$EXTNAMES
290
     1
  9
$PSVPSCALE
 40
0.0
  9
$OLESTARTUP
290
     0
  0
ENDSEC
  0
SECTION
  2
CLASSES
  0
CLASS
  1
ACDBDICTIONARYWDFLT
  2
AcDbDictionaryWithDefault
  3
ObjectDBX Classes
 90
        0
280
     0
281
     0
  0
CLASS
  1
VISUALSTYLE
  2
AcDbVisualStyle
  3
ObjectDBX Classes
 90
     4095
280
     0
281
     0
  0
CLASS
  1
MATERIAL
  2
AcDbMaterial
  3
ObjectDBX Classes
 90
     1153
280
     0
281
     0
  0
CLASS
  1
SCALE
  2
AcDbScale
  3
ObjectDBX Classes
 90
     1153
280
     0
281
     0
  0
CLASS
  1
TABLESTYLE
  2
AcDbTableStyle
  3
ObjectDBX Classes
 90
     4095
280
     0
281
     0
  0
CLASS
  1
MLEADERSTYLE
  2
AcDbMLeaderStyle
  3
ACDB_MLEADERSTYLE_CLASS
 90
     4095
280
     0
281
     0
  0
CLASS
  1
SUN
  2
AcDbSun
  3
SCENEOE
 90
     1153
280
     0
281
     0
  0
CLASS
  1
DICTIONARYVAR
  2
AcDbDictionaryVar
  3
ObjectDBX Classes
 90
        0
280
     0
281
     0
  0
CLASS
  1
CELLSTYLEMAP
  2
AcDbCellStyleMap
  3
ObjectDBX Classes
 90
     1152
280
     0
281
     0
  0
CLASS
  1
ACDBPLACEHOLDER
  2
AcDbPlaceHolder
  3
ObjectDBX Classes
 90
        0
280
     0
281
     0
  0
CLASS
  1
LAYOUT
  2
AcDbLayout
  3
ObjectDBX Classes
 90
        0
280
     0
281
     0
  0
ENDSEC
  0
SECTION
  2
TABLES
  0
TABLE
  2
VPORT
  5
8
102
{ACAD_XDICTIONARY
360
34A
102
}
330
0
100
AcDbSymbolTable
 70
     1
  0
VPORT
  5
29
330
8
100
AcDbSymbolTableRecord
100
AcDbViewportTableRecord
  2
*Active
 70
     0
 10
0.0
 20
0.0
 11
1.0
 21
1.0
 12
344.1869158878504
 22
148.5
 13
0.0
 23
0.0
 14
10.0
 24
10.0
 15
10.0
 25
10.0
 16
0.0
 26
0.0
 36
1.0
 17
0.0
 27
0.0
 37
0.0
 40
297.0
 41
1.972972972850329
 42
50.0
 43
0.0
 44
0.0
 50
0.0
 51
0.0
 71
     0
 72
   100
 73
     1
 74
     3
 75
     0
 76
     0
 77
     0
 78
     0
281
     0
 65
     1
110
0.0
120
0.0
130
0.0
111
1.0
121
0.0
131
0.0
112
0.0
122
1.0
132
0.0
 79
     0
146
0.0
  0
ENDTAB
  0
TABLE
  2
LTYPE
  5
5
330
0
100
AcDbSymbolTable
 70
     1
  0
LTYPE
  5
14
330
5
100
AcDbSymbolTableRecord
100
AcDbLinetypeTableRecord
  2
ByBlock
 70
     0
  3

 72
    65
 73
     0
 40
0.0
  0
LTYPE
  5
15
330
5
100
AcDbSymbolTableRecord
100
AcDbLinetypeTableRecord
  2
ByLayer
 70
     0
  3

 72
    65
 73
     0
 40
0.0
  0
LTYPE
  5
16
330
5
100
AcDbSymbolTableRecord
100
AcDbLinetypeTableRecord
  2
Continuous
 70
     0
  3
Solid line
 72
    65
 73
     0
 40
0.0
  0
ENDTAB
  0
TABLE
  2
LAYER
  5
2
330
0
100
AcDbSymbolTable
 70
     8
  0
LAYER
  5
10
330
2
100
AcDbSymbolTableRecord
100
AcDbLayerTableRecord
  2
0
 70
     0
 62
     7
  6
Continuous
370
    -3
390
F
  0
LAYER
  5
6E
330
2
100
AcDbSymbolTableRecord
100
AcDbLayerTableRecord
  2
Default
 70
     0
 62
     7
  6
Continuous
370
    -3
390
F
  0
LAYER
  5
71
330
2
100
AcDbSymbolTableRecord
100
AcDbLayerTableRecord
  2
DV1_0
 70
     0
 62
     7
  6
Continuous
370
    -3
390
F
  0
LAYER
  5
128
330
2
100
AcDbSymbolTableRecord
100
AcDbLayerTableRecord
  2
DV2_0
 70
     0
 62
     7
  6
Continuous
370
    -3
390
F
  0
LAYER
  5
15E
330
2
100
AcDbSymbolTableRecord
100
AcDbLayerTableRecord
  2
DV3_0
 70
     0
 62
     7
  6
Continuous
370
    -3
390
F
  0
LAYER
  5
29E
330
2
100
AcDbSymbolTableRecord
100
AcDbLayerTableRecord
  2
DV4_0
 70
     0
 62
     7
  6
Continuous
370
    -3
390
F
  0
LAYER
  5
2E5
330
2
100
AcDbSymbolTableRecord
100
AcDbLayerTableRecord
  2
Predeterminado
 70
     0
 62
     7
  6
Continuous
370
    -3
390
F
  0
LAYER
  5
2FF
330
2
100
AcDbSymbolTableRecord
100
AcDbLayerTableRecord
  2
D
 70
     0
 62
     7
  6
Continuous
370
    -3
390
F
  0
ENDTAB
  0
TABLE
  2
STYLE
  5
3
330
0
100
AcDbSymbolTable
 70
     5
  0
STYLE
  5
11
330
3
100
AcDbSymbolTableRecord
100
AcDbTextStyleTableRecord
  2
Standard
 70
     0
 40
0.0
 41
1.0
 50
0.0
 71
     0
 42
2.0
  3
txt
  4

  0
STYLE
  5
296
330
3
100
AcDbSymbolTableRecord
100
AcDbTextStyleTableRecord
  2
GDT
 70
     0
 40
0.0
 41
1.0
 50
0.0
 71
     0
 42
2.5
  3
gdt_____.ttf
  4

1001
ACAD
1000
GDT
1071
        0
  0
STYLE
  5
298
330
3
100
AcDbSymbolTableRecord
100
AcDbTextStyleTableRecord
  2
SEACAD_Solid_Edge_ANSI
 70
     0
 40
0.0
 41
1.0
 50
0.0
 71
     0
 42
2.5
  3
seans.ttf
  4

1001
ACAD
1000
Solid Edge ANSI
1071
        0
  0
STYLE
  5
341
330
3
100
AcDbSymbolTableRecord
100
AcDbTextStyleTableRecord
  2
MtXpl_Arial
 70
     0
 40
0.2
 41
1.0
 50
0.0
 71
     0
 42
2.0
  3
arialbd.ttf
  4

1001
ACAD
1000
Arial
1071
 33554466
  0
STYLE
  5
342
330
3
100
AcDbSymbolTableRecord
100
AcDbTextStyleTableRecord
  2
MtXpl_Arial1
 70
     0
 40
0.2
 41
1.0
 50
0.0
 71
     0
 42
2.0
  3

  4

1001
ACAD
1000
Arial
1071
       34
  0
ENDTAB
  0
TABLE
  2
VIEW
  5
6
330
0
100
AcDbSymbolTable
 70
     0
  0
ENDTAB
  0
TABLE
  2
UCS
  5
7
330
0
100
AcDbSymbolTable
 70
     0
  0
ENDTAB
  0
TABLE
  2
APPID
  5
9
330
0
100
AcDbSymbolTable
 70
     2
  0
APPID
  5
12
330
9
100
AcDbSymbolTableRecord
100
AcDbRegAppTableRecord
  2
ACAD
 70
     0
  0
APPID
  5
338
330
9
100
AcDbSymbolTableRecord
100
AcDbRegAppTableRecord
  2
ACAD_MLEADERVER
 70
     0
  0
ENDTAB
  0
TABLE
  2
DIMSTYLE
  5
A
330
0
100
AcDbSymbolTable
 70
     1
100
AcDbDimStyleTable
  0
DIMSTYLE
105
27
330
A
100
AcDbSymbolTableRecord
100
AcDbDimStyleTableRecord
  2
ISO-25
 70
     0
 41
2.5
 42
0.625
 43
3.75
 44
1.25
 73
     0
 74
     0
 77
     1
 78
     8
140
2.5
141
2.5
143
0.03937007874016
147
0.625
171
     3
172
     1
178
     0
271
     2
272
     2
274
     3
278
    44
283
     0
284
     8
340
11
  0
ENDTAB
  0
TABLE
  2
BLOCK_RECORD
  5
1
330
0
100
AcDbSymbolTable
 70
    10
  0
BLOCK_RECORD
  5
1F
330
1
100
AcDbSymbolTableRecord
100
AcDbBlockTableRecord
  2
*Model_Space
340
22
  0
BLOCK_RECORD
  5
1B
330
1
100
AcDbSymbolTableRecord
100
AcDbBlockTableRecord
  2
*Paper_Space
340
1E
  0
BLOCK_RECORD
  5
6F
330
1
100
AcDbSymbolTableRecord
100
AcDbBlockTableRecord
  2
SE
340
0
102
{BLKREFS
331
70
102
}
  0
BLOCK_RECORD
  5
126
330
1
100
AcDbSymbolTableRecord
100
AcDbBlockTableRecord
  2
SE1
340
0
102
{BLKREFS
331
127
102
}
  0
BLOCK_RECORD
  5
15C
330
1
100
AcDbSymbolTableRecord
100
AcDbBlockTableRecord
  2
SE2
340
0
102
{BLKREFS
331
15D
102
}
  0
BLOCK_RECORD
  5
290
330
1
100
AcDbSymbolTableRecord
100
AcDbBlockTableRecord
  2
GDimGGroup
340
0
102
{BLKREFS
331
291
102
}
  0
BLOCK_RECORD
  5
29C
330
1
100
AcDbSymbolTableRecord
100
AcDbBlockTableRecord
  2
SE3
340
0
102
{BLKREFS
331
29D
102
}
  0
BLOCK_RECORD
  5
2D1
330
1
100
AcDbSymbolTableRecord
100
AcDbBlockTableRecord
  2
GDimGGroup1
340
0
102
{BLKREFS
331
2D2
102
}
  0
BLOCK_RECORD
  5
2DB
330
1
100
AcDbSymbolTableRecord
100
AcDbBlockTableRecord
  2
GDimGGroup2
340
0
102
{BLKREFS
331
2DC
102
}
  0
BLOCK_RECORD
  5
2ED
330
1
100
AcDbSymbolTableRecord
100
AcDbBlockTableRecord
  2
SEANNOT_GROUP
340
0
102
{BLKREFS
331
2EE
102
}
  0
BLOCK_RECORD
  5
2F5
330
1
100
AcDbSymbolTableRecord
100
AcDbBlockTableRecord
  2
SEANNOT_GROUP1
340
0
102
{BLKREFS
331
2F6
102
}
  0
BLOCK_RECORD
  5
2FA
330
1
100
AcDbSymbolTableRecord
100
AcDbBlockTableRecord
  2
SEANNOT_GROUP2
340
0
102
{BLKREFS
331
2FB
102
}
  0
ENDTAB
  0
ENDSEC
  0
SECTION
  2
BLOCKS
  0
BLOCK
  5
20
330
1F
100
AcDbEntity
  8
0
100
AcDbBlockBegin
  2
*Model_Space
 70
     0
 10
0.0
 20
0.0
 30
0.0
  3
*Model_Space
  1

  0
ENDBLK
  5
21
330
1F
100
AcDbEntity
  8
0
100
AcDbBlockEnd
  0
BLOCK
  5
1C
330
1B
100
AcDbEntity
 67
     1
  8
0
100
AcDbBlockBegin
  2
*Paper_Space
 70
     0
 10
0.0
 20
0.0
 30
0.0
  3
*Paper_Space
  1

  0
ENDBLK
  5
1D
330
1B
100
AcDbEntity
 67
     1
  8
0
100
AcDbBlockEnd
  0
BLOCK
  5
124
330
6F
100
AcDbEntity
  8
0
100
AcDbBlockBegin
  2
SE
 70
     0
 10
0.0
 20
0.0
 30
0.0
  3
SE
  1

  0
ARC
  5
72
330
6F
100
AcDbEntity
  8
DV1_0
 62
     7
370
    35
100
AcDbCircle
 10
64.49398395710182
 20
68.8171030799174
 30
0.0
 40
1.95
100
AcDbArc
 50
278.0898880203639
 51
293.3256473865782
  0
ARC
  5
73
330
6F
100
AcDbEntity
  8
DV1_0
 62
     7
370
    35
100
AcDbCircle
 10
64.49398395710182
 20
68.8171030799174
 30
0.0
 40
1.95
100
AcDbArc
 50
246.6743526134218
 51
261.1688524838247
  0
ARC
  5
74
330
6F
100
AcDbEntity
  8
DV1_0
 62
     7
370
    35
100
AcDbCircle
 10
64.49398395710182
 20
68.8171030799174
 30
0.0
 40
1.95
100
AcDbArc
 50
234.6558387899671
 51
236.4375559040117
  0
ARC
  5
75
330
6F
100
AcDbEntity
  8
DV1_0
 62
     7
370
    35
100
AcDbCircle
 10
64.49398395710182
 20
68.8171030799174
 30
0.0
 40
1.95
100
AcDbArc
 50
223.2948826711815
 51
225.3967868410595
  0
ARC
  5
76
330
6F
100
AcDbEntity
  8
DV1_0
 62
     7
370
    35
100
AcDbCircle
 10
64.49398395710182
 20
68.8171030799174
 30
0.0
 40
1.95
100
AcDbArc
 50
211.2210296456804
 51
212.9551210848179
  0
ARC
  5
77
330
6F
100
AcDbEntity
  8
DV1_0
 62
     7
370
    35
100
AcDbCircle
 10
64.49398395710182
 20
73.2171030799174
 30
0.0
 40
8.25
100
AcDbArc
 50
260.0939282805238
 51
260.4462439071188
  0
ARC
  5
78
330
6F
100
AcDbEntity
  8
DV1_0
 62
     7
370
    35
100
AcDbCircle
 10
64.49398395710182
 20
73.2171030799174
 30
0.0
 40
8.25
100
AcDbArc
 50
253.3104986189143
 51
253.6726760139142
  0
ARC
  5
79
330
6F
100
AcDbEntity
  8
DV1_0
 62
     7
370
    35
100
AcDbCircle
 10
64.49398395710182
 20
73.2171030799174
 30
0.0
 40
8.25
100
AcDbArc
 50
249.6521557006282
 51
250.0331117995325
  0
CIRCLE
  5
7A
330
6F
100
AcDbEntity
  8
DV1_0
 62
     7
370
    35
100
AcDbCircle
 10
64.49398395710182
 20
73.2171030799174
 30
0.0
 40
10.5
  0
CIRCLE
  5
7B
330
6F
100
AcDbEntity
  8
DV1_0
 62
     7
370
    35
100
AcDbCircle
 10
64.49398395710182
 20
73.2171030799174
 30
0.0
 40
10.27
  0
CIRCLE
  5
7C
330
6F
100
AcDbEntity
  8
DV1_0
 62
     7
370
    35
100
AcDbCircle
 10
64.49398395710182
 20
73.2171030799174
 30
0.0
 40
10.25
  0
CIRCLE
  5
7D
330
6F
100
AcDbEntity
  8
DV1_0
 62
     7
370
    35
100
AcDbCircle
 10
70.99398395710182
 20
79.73304471670708
 30
0.0
 40
0.9125
  0
CIRCLE
  5
7E
330
6F
100
AcDbEntity
  8
DV1_0
 62
     7
370
    35
100
AcDbCircle
 10
70.99398395710182
 20
66.70116144312772
 30
0.0
 40
0.9125
  0
CIRCLE
  5
7F
330
6F
100
AcDbEntity
  8
DV1_0
 62
     7
370
    35
100
AcDbCircle
 10
57.99398395710182
 20
66.70116144312772
 30
0.0
 40
0.9125
  0
CIRCLE
  5
80
330
6F
100
AcDbEntity
  8
DV1_0
 62
     7
370
    35
100
AcDbCircle
 10
57.99398395710182
 20
79.73304471670708
 30
0.0
 40
0.9125
  0
CIRCLE
  5
81
330
6F
100
AcDbEntity
  8
DV1_0
 62
     7
370
    35
100
AcDbCircle
 10
64.49398395710182
 20
66.81710307991739
 30
0.0
 40
0.8000000000000008
  0
LINE
  5
82
330
6F
100
AcDbEntity
  8
DV1_0
 62
     7
370
    35
100
AcDbLine
 10
73.09066803202836
 20
75.21452769229587
 30
0.0
 11
73.06323190695858
 21
75.31269635463248
 31
0.0
  0
SPLINE
  5
83
330
6F
100
AcDbEntity
  8
DV1_0
 62
     7
370
    35
100
AcDbSpline
210
0.0
220
0.0
230
1.0
 70
     8
 71
     3
 72
    24
 73
    20
 74
     0
 42
0.000000001
 43
0.0000000001
 40
0.0
 40
0.0
 40
0.0
 40
0.0
 40
0.2722966659430821
 40
0.2722966659430821
 40
0.2722966659430821
 40
0.3487132484614281
 40
0.3487132484614281
 40
0.4251298309797747
 40
0.4251298309797747
 40
0.4251298309797747
 40
0.4898189083454266
 40
0.4898189083454266
 40
0.6016929597895566
 40
0.6016929597895566
 40
0.6016929597895566
 40
0.7277313724601802
 40
0.7277313724601802
 40
0.7277313724601802
 40
1.0
 40
1.0
 40
1.0
 40
1.0
 10
73.06323190695858
 20
75.3126963546325
 30
0.0
 10
73.20651848986404
 20
75.35274201193131
 30
0.0
 10
73.34980507276948
 20
75.39278766923015
 30
0.0
 10
73.49309165567495
 20
75.43283332652898
 30
0.0
 10
73.55804162924107
 20
75.45098551028727
 30
0.0
 10
73.60383719468757
 20
75.47073329118159
 30
0.0
 10
73.65866537714409
 20
75.51171397451903
 30
0.0
 10
73.6761482553102
 20
75.53905024571306
 30
0.0
 10
73.68483008935226
 20
75.57301377768393
 30
0.0
 10
73.69344826534872
 20
75.6067282779345
 30
0.0
 10
73.6914679718406
 20
75.64489206566162
 30
0.0
 10
73.65932059297094
 20
75.75991797304593
 30
0.0
 10
73.62854825527212
 20
75.80690862332727
 30
0.0
 10
73.58673845663131
 20
75.82836436416159
 30
0.0
 10
73.54526482221816
 20
75.84964759393914
 30
0.0
 10
73.47816213611385
 20
75.84773059375166
 30
0.0
 10
73.38445568570165
 20
75.82154156527595
 30
0.0
 10
73.24116910279618
 20
75.78149590797713
 30
0.0
 10
73.09788251989073
 20
75.7414502506783
 30
0.0
 10
72.95459593698527
 20
75.70140459337946
 30
0.0
  0
LINE
  5
84
330
6F
100
AcDbEntity
  8
DV1_0
 62
     7
370
    35
100
AcDbLine
 10
72.95459593698527
 20
75.70140459337946
 30
0.0
 11
72.92715981191549
 21
75.79957325571607
 31
0.0
  0
SPLINE
  5
85
330
6F
100
AcDbEntity
  8
DV1_0
 62
     7
370
    35
100
AcDbSpline
210
0.0
220
0.0
230
1.0
 70
     8
 71
     3
 72
    26
 73
    22
 74
     0
 42
0.000000001
 43
0.0000000001
 40
0.0
 40
0.0
 40
0.0
 40
0.0
 40
0.2292328751838727
 40
0.2292328751838727
 40
0.2292328751838727
 40
0.3205751777253577
 40
0.3205751777253577
 40
0.4119174802668428
 40
0.4119174802668428
 40
0.5032597828083302
 40
0.5032597828083302
 40
0.5926991207135364
 40
0.5926991207135364
 40
0.5926991207135364
 40
0.6694196472376215
 40
0.6694196472376215
 40
0.6694196472376215
 40
0.7707848380745643
 40
0.7707848380745643
 40
0.7707848380745643
 40
1.0
 40
1.0
 40
1.0
 40
1.0
 10
72.9271598119155
 20
75.79957325571607
 30
0.0
 10
73.07061166192925
 20
75.83966510177764
 30
0.0
 10
73.21406351194302
 20
75.87975694783921
 30
0.0
 10
73.35751536195679
 20
75.9198487939008
 30
0.0
 10
73.43238136202157
 20
75.94077230342371
 30
0.0
 10
73.49423314791339
 20
75.94897163548761
 30
0.0
 10
73.59190829135107
 20
75.93992194469737
 30
0.0
 10
73.63619709661654
 20
75.91915903530422
 30
0.0
 10
73.71639164431413
 20
75.84642582374816
 30
0.0
 10
73.74599053581036
 20
75.79215835851332
 30
0.0
 10
73.78548192795627
 20
75.6508549809076
 30
0.0
 10
73.78951781930448
 20
75.5905122376228
 30
0.0
 10
73.77805175536031
 20
75.53973473786874
 30
0.0
 10
73.76653186539468
 20
75.48871886941166
 30
0.0
 10
73.74025203979275
 20
75.44738774685457
 30
0.0
 10
73.69990383685175
 20
75.41579919798987
 30
0.0
 10
73.65940088706864
 20
75.38408949804958
 30
0.0
 10
73.60035179405884
 20
75.3569738365976
 30
0.0
 10
73.52102358206966
 20
75.3348032304806
 30
0.0
 10
73.37757173205588
 20
75.29471138441903
 30
0.0
 10
73.23411988204214
 20
75.25461953835745
 30
0.0
 10
73.09066803202836
 20
75.21452769229587
 30
0.0
  0
LINE
  5
86
330
6F
100
AcDbEntity
  8
DV1_0
 62
     7
370
    35
100
AcDbLine
 10
73.78070758855638
 20
75.22265116613609
 30
0.0
 11
73.87062219260912
 21
75.24032159440345
 31
0.0
  0
LINE
  5
87
330
6F
100
AcDbEntity
  8
DV1_0
 62
     7
370
    35
100
AcDbLine
 10
73.87062219260912
 20
75.24032159440345
 30
0.0
 11
73.96393793739182
 21
74.76549166288902
 31
0.0
  0
LINE
  5
88
330
6F
100
AcDbEntity
  8
DV1_0
 62
     7
370
    35
100
AcDbLine
 10
73.96393793739182
 20
74.76549166288902
 30
0.0
 11
73.20471518519375
 21
74.61628574330561
 31
0.0
  0
LINE
  5
89
330
6F
100
AcDbEntity
  8
DV1_0
 62
     7
370
    35
100
AcDbLine
 10
73.20471518519375
 20
74.61628574330561
 30
0.0
 11
73.18505931554803
 21
74.71630311185865
 31
0.0
  0
LINE
  5
8A
330
6F
100
AcDbEntity
  8
DV1_0
 62
     7
370
    35
100
AcDbLine
 10
73.18505931554803
 20
74.71630311185866
 30
0.0
 11
73.85436746369338
 21
74.84783860317471
 31
0.0
  0
LINE
  5
8B
330
6F
100
AcDbEntity
  8
DV1_0
 62
     7
370
    35
100
AcDbLine
 10
73.85436746369338
 20
74.84783860317471
 30
0.0
 11
73.78070758855638
 21
75.2226511661361
 31
0.0
  0
LINE
  5
8C
330
6F
100
AcDbEntity
  8
DV1_0
 62
     7
370
    35
100
AcDbLine
 10
73.22587462896513
 20
74.44003618592897
 30
0.0
 11
73.9917379763592
 21
74.55019483067505
 31
0.0
  0
LINE
  5
8D
330
6F
100
AcDbEntity
  8
DV1_0
 62
     7
370
    35
100
AcDbLine
 10
73.9917379763592
 20
74.55019483067504
 30
0.0
 11
74.00624989363114
 21
74.44930265317403
 31
0.0
  0
LINE
  5
8E
330
6F
100
AcDbEntity
  8
DV1_0
 62
     7
370
    35
100
AcDbLine
 10
74.00624989363114
 20
74.44930265317403
 30
0.0
 11
73.24038654623706
 21
74.33914400842795
 31
0.0
  0
LINE
  5
8F
330
6F
100
AcDbEntity
  8
DV1_0
 62
     7
370
    35
100
AcDbLine
 10
73.24038654623706
 20
74.33914400842795
 30
0.0
 11
73.22587462896513
 21
74.44003618592896
 31
0.0
  0
LINE
  5
90
330
6F
100
AcDbEntity
  8
DV1_0
 62
     7
370
    35
100
AcDbLine
 10
73.37042534436188
 20
73.9690696518142
 30
0.0
 11
74.05039148070897
 21
74.02926602172865
 31
0.0
  0
LINE
  5
91
330
6F
100
AcDbEntity
  8
DV1_0
 62
     7
370
    35
100
AcDbLine
 10
74.05039148070897
 20
74.02926602172865
 30
0.0
 11
74.05938007893148
 21
73.92773261675374
 31
0.0
  0
LINE
  5
92
330
6F
100
AcDbEntity
  8
DV1_0
 62
     7
370
    35
100
AcDbLine
 10
74.0593800789315
 20
73.92773261675374
 30
0.0
 11
73.3794139425844
 21
73.8675362468393
 31
0.0
  0
LINE
  5
93
330
6F
100
AcDbEntity
  8
DV1_0
 62
     7
370
    35
100
AcDbLine
 10
73.3794139425844
 20
73.8675362468393
 30
0.0
 11
73.40184004117998
 21
73.61421552937665
 31
0.0
  0
LINE
  5
94
330
6F
100
AcDbEntity
  8
DV1_0
 62
     7
370
    35
100
AcDbLine
 10
73.40184004117997
 20
73.61421552937665
 30
0.0
 11
73.3110753306721
 21
73.60618026732925
 31
0.0
  0
LINE
  5
95
330
6F
100
AcDbEntity
  8
DV1_0
 62
     7
370
    35
100
AcDbLine
 10
73.31107533067211
 20
73.60618026732925
 30
0.0
 11
73.25718913829772
 21
74.21486790220406
 31
0.0
  0
LINE
  5
96
330
6F
100
AcDbEntity
  8
DV1_0
 62
     7
370
    35
100
AcDbLine
 10
73.2571891382977
 20
74.21486790220406
 30
0.0
 11
73.34795384880557
 21
74.22290316425146
 31
0.0
  0
LINE
  5
97
330
6F
100
AcDbEntity
  8
DV1_0
 62
     7
370
    35
100
AcDbLine
 10
73.34795384880557
 20
74.22290316425146
 30
0.0
 11
73.37042534436188
 21
73.9690696518142
 31
0.0
  0
LINE
  5
98
330
6F
100
AcDbEntity
  8
DV1_0
 62
     7
370
    35
100
AcDbLine
 10
73.7694000469177
 20
73.08397924547499
 30
0.0
 11
73.76684386436592
 21
73.34651506417003
 31
0.0
  0
SPLINE
  5
99
330
6F
100
AcDbEntity
  8
DV1_0
 62
     7
370
    35
100
AcDbSpline
210
0.0
220
0.0
230
1.0
 70
     8
 71
     3
 72
    11
 73
     7
 74
     0
 42
0.000000001
 43
0.0000000001
 40
0.0
 40
0.0
 40
0.0
 40
0.0
 40
0.5737530961287043
 40
0.5737530961287043
 40
0.5737530961287043
 40
1.0
 40
1.0
 40
1.0
 40
1.0
 10
73.76684386436591
 20
73.34651506417003
 30
0.0
 10
73.69537735200056
 20
73.31921994246783
 30
0.0
 10
73.6239108396352
 20
73.29192482076562
 30
0.0
 10
73.55244432726982
 20
73.26462969906342
 30
0.0
 10
73.487603108568
 20
73.23986496804173
 30
0.0
 10
73.43447185122481
 20
73.21972094107129
 30
0.0
 10
73.39186071249345
 20
73.20746508424426
 30
0.0
  0
LINE
  5
9A
330
6F
100
AcDbEntity
  8
DV1_0
 62
     7
370
    35
100
AcDbLine
 10
73.85256970456064
 20
73.0549291825466
 30
0.0
 11
74.08760981291785
 21
72.97330119159321
 31
0.0
  0
LINE
  5
9B
330
6F
100
AcDbEntity
  8
DV1_0
 62
     7
370
    35
100
AcDbLine
 10
74.08760981291786
 20
72.97330119159322
 30
0.0
 11
74.08866235867447
 21
72.86519820742468
 31
0.0
  0
LINE
  5
9C
330
6F
100
AcDbEntity
  8
DV1_0
 62
     7
370
    35
100
AcDbLine
 10
74.08866235867448
 20
72.86519820742467
 30
0.0
 11
73.31207689929535
 21
73.15314647714159
 31
0.0
  0
LINE
  5
9D
330
6F
100
AcDbEntity
  8
DV1_0
 62
     7
370
    35
100
AcDbLine
 10
73.31207689929533
 20
73.15314647714159
 30
0.0
 11
73.31098926868017
 21
73.26485289411575
 31
0.0
  0
LINE
  5
9E
330
6F
100
AcDbEntity
  8
DV1_0
 62
     7
370
    35
100
AcDbLine
 10
73.31098926868017
 20
73.26485289411576
 30
0.0
 11
74.08162533847312
 21
73.58794387300865
 31
0.0
  0
LINE
  5
9F
330
6F
100
AcDbEntity
  8
DV1_0
 62
     7
370
    35
100
AcDbLine
 10
74.0816253384731
 20
73.58794387300865
 30
0.0
 11
74.08275807819213
 21
73.4716044709987
 31
0.0
  0
LINE
  5
A0
330
6F
100
AcDbEntity
  8
DV1_0
 62
     7
370
    35
100
AcDbLine
 10
74.08275807819213
 20
73.4716044709987
 30
0.0
 11
73.84940705516814
 21
73.37975291116734
 31
0.0
  0
LINE
  5
A1
330
6F
100
AcDbEntity
  8
DV1_0
 62
     7
370
    35
100
AcDbLine
 10
73.84940705516816
 20
73.37975291116733
 30
0.0
 11
73.85256970456065
 21
73.0549291825466
 31
0.0
  0
SPLINE
  5
A2
330
6F
100
AcDbEntity
  8
DV1_0
 62
     7
370
    35
100
AcDbSpline
210
0.0
220
0.0
230
1.0
 70
     8
 71
     3
 72
    11
 73
     7
 74
     0
 42
0.000000001
 43
0.0000000001
 40
0.0
 40
0.0
 40
0.0
 40
0.0
 40
0.3883825032163841
 40
0.3883825032163841
 40
0.3883825032163841
 40
1.0
 40
1.0
 40
1.0
 40
1.0
 10
73.39186071249345
 20
73.20746508424426
 30
0.0
 10
73.44189925023267
 20
73.19714096172451
 30
0.0
 10
73.49145308459272
 20
73.18372317039159
 30
0.0
 10
73.54053223981887
 20
73.16618215801529
 30
0.0
 10
73.61686429180884
 20
73.13890089242517
 30
0.0
 10
73.69311077788475
 20
73.11138021632176
 30
0.0
 10
73.7694000469177
 20
73.08397924547499
 30
0.0
  0
LINE
  5
A3
330
6F
100
AcDbEntity
  8
DV1_0
 62
     7
370
    35
100
AcDbLine
 10
73.30746260415108
 20
72.84919330974144
 30
0.0
 11
74.05746098119506
 21
72.49299062771631
 31
0.0
  0
LINE
  5
A4
330
6F
100
AcDbEntity
  8
DV1_0
 62
     7
370
    35
100
AcDbLine
 10
74.05746098119506
 20
72.4929906277163
 30
0.0
 11
74.04966047116493
 21
72.3851643086565
 31
0.0
  0
LINE
  5
A5
330
6F
100
AcDbEntity
  8
DV1_0
 62
     7
370
    35
100
AcDbLine
 10
74.04966047116491
 20
72.3851643086565
 30
0.0
 11
73.25642498138245
 21
72.14370110789307
 31
0.0
  0
LINE
  5
A6
330
6F
100
AcDbEntity
  8
DV1_0
 62
     7
370
    35
100
AcDbLine
 10
73.25642498138245
 20
72.14370110789308
 30
0.0
 11
73.26441121784188
 21
72.25409472026382
 31
0.0
  0
SPLINE
  5
A7
330
6F
100
AcDbEntity
  8
DV1_0
 62
     7
370
    35
100
AcDbSpline
210
0.0
220
0.0
230
1.0
 70
     8
 71
     3
 72
    11
 73
     7
 74
     0
 42
0.000000001
 43
0.0000000001
 40
0.0
 40
0.0
 40
0.0
 40
0.0
 40
0.8177900506417076
 40
0.8177900506417076
 40
0.8177900506417076
 40
1.0
 40
1.0
 40
1.0
 40
1.0
 10
73.26441121784188
 20
72.25409472026381
 30
0.0
 10
73.45615143980231
 20
72.3074946151836
 30
0.0
 10
73.64789166176276
 20
72.36089451010338
 30
0.0
 10
73.8396318837232
 20
72.41429440502318
 30
0.0
 10
73.88606872043054
 20
72.42722712292256
 30
0.0
 10
73.92907428287516
 20
72.43776030883434
 30
0.0
 10
73.96887719220457
 20
72.44571989901513
 30
0.0
  0
SPLINE
  5
A8
330
6F
100
AcDbEntity
  8
DV1_0
 62
     7
370
    35
100
AcDbSpline
210
0.0
220
0.0
230
1.0
 70
     8
 71
     3
 72
    11
 73
     7
 74
     0
 42
0.000000001
 43
0.0000000001
 40
0.0
 40
0.0
 40
0.0
 40
0.0
 40
0.1819655830247074
 40
0.1819655830247074
 40
0.1819655830247074
 40
1.0
 40
1.0
 40
1.0
 40
1.0
 10
73.96887719220457
 20
72.44571989901513
 30
0.0
 10
73.92762792347978
 20
72.46057536168583
 30
0.0
 10
73.8865272358984
 20
72.47748465900528
 30
0.0
 10
73.84557512946046
 20
72.4964477909735
 30
0.0
 10
73.66421884599882
 20
72.58042596537483
 30
0.0
 10
73.4818064505681
 20
72.66212339786914
 30
0.0
 10
73.29992211112193
 20
72.74496120131695
 30
0.0
  0
LINE
  5
A9
330
6F
100
AcDbEntity
  8
DV1_0
 62
     7
370
    35
100
AcDbLine
 10
73.29992211112193
 20
72.74496120131695
 30
0.0
 11
73.30746260415107
 21
72.84919330974142
 31
0.0
  0
SPLINE
  5
AA
330
6F
100
AcDbEntity
  8
DV1_0
 62
     7
370
    35
100
AcDbSpline
210
0.0
220
0.0
230
1.0
 70
    11
 71
     3
 72
    29
 73
    25
 74
     0
 42
0.000000001
 43
0.0000000001
 40
0.0
 40
0.0
 40
0.0
 40
0.0
 40
0.1293055361544339
 40
0.1293055361544339
 40
0.1293055361544339
 40
0.2434456795884786
 40
0.2434456795884786
 40
0.3591387501440764
 40
0.3591387501440764
 40
0.3591387501440764
 40
0.4979253625313684
 40
0.4979253625313684
 40
0.5852035414553355
 40
0.5852035414553355
 40
0.5852035414553355
 40
0.6643341335063765
 40
0.6643341335063765
 40
0.6643341335063765
 40
0.7428412948431294
 40
0.7428412948431294
 40
0.8546545246257783
 40
0.8546545246257783
 40
0.8546545246257783
 40
1.0
 40
1.0
 40
1.0
 40
1.0
 10
73.53539803774316
 20
71.40133054933813
 30
0.0
 10
73.6273743200871
 20
71.38640843084812
 30
0.0
 10
73.70399791159376
 20
71.3990106331047
 30
0.0
 10
73.76492554129428
 20
71.44023591126351
 30
0.0
 10
73.82556076611178
 20
71.48126334038906
 30
0.0
 10
73.86225285618359
 20
71.53866107893691
 30
0.0
 10
73.88665587868658
 20
71.68907533072591
 30
0.0
 10
73.870372198534
 20
71.75586556768606
 30
0.0
 10
73.82450457182169
 20
71.81389564474298
 30
0.0
 10
73.77908795640619
 20
71.87135511847501
 30
0.0
 10
73.70738706610726
 20
71.90851873334151
 30
0.0
 10
73.54680968919739
 20
71.93457060871631
 30
0.0
 10
73.4912138305413
 20
71.93263824756006
 30
0.0
 10
73.44108330659803
 20
71.91938856427264
 30
0.0
 10
73.39120479416003
 20
71.90620548856016
 30
0.0
 10
73.35035284347262
 20
71.88091233441794
 30
0.0
 10
73.31834961918312
 20
71.84438196611399
 30
0.0
 10
73.28663406432545
 20
71.8081799606712
 30
0.0
 10
73.26638753585651
 20
71.76519491336794
 30
0.0
 10
73.24660130139462
 20
71.6432374119174
 30
0.0
 10
73.26101724181021
 20
71.57779325804371
 30
0.0
 10
73.30198169164376
 20
71.51847253975494
 30
0.0
 10
73.34315712615009
 20
71.45884629405425
 30
0.0
 10
73.42055472387723
 20
71.41996258678974
 30
0.0
 10
73.53539803774316
 20
71.40133054933813
 30
0.0
  0
SPLINE
  5
AB
330
6F
100
AcDbEntity
  8
DV1_0
 62
     7
370
    35
100
AcDbSpline
210
0.0
220
0.0
230
1.0
 70
    11
 71
     3
 72
    34
 73
    30
 74
     0
 42
0.000000001
 43
0.0000000001
 40
0.0
 40
0.0
 40
0.0
 40
0.0
 40
0.1272149066066374
 40
0.1272149066066374
 40
0.2544298132132748
 40
0.2544298132132748
 40
0.3372395165704252
 40
0.3372395165704252
 40
0.3372395165704252
 40
0.4173908743980872
 40
0.4173908743980872
 40
0.4173908743980872
 40
0.5050162553902596
 40
0.5050162553902596
 40
0.5938099747956609
 40
0.5938099747956609
 40
0.5938099747956609
 40
0.6745860655729913
 40
0.6745860655729913
 40
0.6745860655729913
 40
0.7526551498014479
 40
0.7526551498014479
 40
0.8379306110356078
 40
0.8379306110356078
 40
0.8379306110356078
 40
0.9183935050482327
 40
0.9183935050482327
 40
0.9183935050482327
 40
1.0
 40
1.0
 40
1.0
 40
1.0
 10
73.51689038439524
 20
71.29689768852386
 30
0.0
 10
73.3903594766403
 20
71.31742590677806
 30
0.0
 10
73.29679266383235
 20
71.36754869143327
 30
0.0
 10
73.1755872281104
 20
71.52698339354576
 30
0.0
 10
73.15377071127254
 20
71.62074785353634
 30
0.0
 10
73.18262563652947
 20
71.7986025431517
 30
0.0
 10
73.21020827968385
 20
71.8593190252751
 30
0.0
 10
73.25298016866496
 20
71.910791311475
 30
0.0
 10
73.29546859897354
 20
71.96192247956517
 30
0.0
 10
73.34993577151982
 20
71.9972815573286
 30
0.0
 10
73.41467988306128
 20
72.0170263882354
 30
0.0
 10
73.48008312021771
 20
72.03697223084045
 30
0.0
 10
73.55049836847643
 20
72.0408861499387
 30
0.0
 10
73.70396155780169
 20
72.01598847157416
 30
0.0
 10
73.77102324292838
 20
71.98894098546481
 30
0.0
 10
73.82697299239459
 20
71.94805033661518
 30
0.0
 10
73.88311108327228
 20
71.90702203920424
 30
0.0
 10
73.92191000852478
 20
71.85493965666691
 30
0.0
 10
73.94409967767369
 20
71.79240655583129
 30
0.0
 10
73.96613841486487
 20
71.73029879902712
 30
0.0
 10
73.9715584746294
 20
71.66591326870662
 30
0.0
 10
73.9491340755726
 20
71.52769476706268
 30
0.0
 10
73.92146898977461
 20
71.46647012868326
 30
0.0
 10
73.87776323092501
 20
71.41567088402655
 30
0.0
 10
73.8337711729174
 20
71.36453887358903
 30
0.0
 10
73.77979131555806
 20
71.32934552346013
 30
0.0
 10
73.71462149040414
 20
71.31019129145298
 30
0.0
 10
73.64968374618988
 20
71.29110527095555
 30
0.0
 10
73.58396701019304
 20
71.28601525956982
 30
0.0
 10
73.51689038439524
 20
71.29689768852386
 30
0.0
  0
LINE
  5
AC
330
6F
100
AcDbEntity
  8
DV1_0
 62
     7
370
    35
100
AcDbLine
 10
73.11858519698819
 20
70.68694025496977
 30
0.0
 11
73.70673021456184
 21
70.53495773089077
 31
0.0
  0
LINE
  5
AD
330
6F
100
AcDbEntity
  8
DV1_0
 62
     7
370
    35
100
AcDbLine
 10
73.70673021456184
 20
70.53495773089077
 30
0.0
 11
73.68212965346092
 21
70.43975798652079
 31
0.0
  0
LINE
  5
AE
330
6F
100
AcDbEntity
  8
DV1_0
 62
     7
370
    35
100
AcDbLine
 10
73.6821296534609
 20
70.43975798652079
 30
0.0
 11
72.932992398026
 21
70.63334250659769
 31
0.0
  0
LINE
  5
AF
330
6F
100
AcDbEntity
  8
DV1_0
 62
     7
370
    35
100
AcDbLine
 10
72.932992398026
 20
70.63334250659769
 30
0.0
 11
72.95926734286678
 21
70.73502181472058
 31
0.0
  0
LINE
  5
B0
330
6F
100
AcDbEntity
  8
DV1_0
 62
     7
370
    35
100
AcDbLine
 10
72.95926734286678
 20
70.7350218147206
 30
0.0
 11
73.64903457357461
 21
70.97629896764634
 31
0.0
  0
LINE
  5
B1
330
6F
100
AcDbEntity
  8
DV1_0
 62
     7
370
    35
100
AcDbLine
 10
73.64903457357461
 20
70.97629896764634
 30
0.0
 11
73.06088955600096
 21
71.12828149172535
 31
0.0
  0
LINE
  5
B2
330
6F
100
AcDbEntity
  8
DV1_0
 62
     7
370
    35
100
AcDbLine
 10
73.06088955600096
 20
71.12828149172535
 30
0.0
 11
73.0856189158511
 21
71.22397966407631
 31
0.0
  0
LINE
  5
B3
330
6F
100
AcDbEntity
  8
DV1_0
 62
     7
370
    35
100
AcDbLine
 10
73.0856189158511
 20
71.2239796640763
 30
0.0
 11
73.834756171286
 21
71.0303951439994
 31
0.0
  0
LINE
  5
B4
330
6F
100
AcDbEntity
  8
DV1_0
 62
     7
370
    35
100
AcDbLine
 10
73.83475617128602
 20
71.0303951439994
 30
0.0
 11
73.80835242769602
 21
70.9282174078955
 31
0.0
  0
LINE
  5
B5
330
6F
100
AcDbEntity
  8
DV1_0
 62
     7
370
    35
100
AcDbLine
 10
73.80835242769601
 20
70.92821740789552
 30
0.0
 11
73.11858519698818
 21
70.68694025496977
 31
0.0
  0
SPLINE
  5
B6
330
6F
100
AcDbEntity
  8
DV1_0
 62
     7
370
    35
100
AcDbSpline
210
0.0
220
0.0
230
1.0
 70
    11
 71
     3
 72
    29
 73
    25
 74
     0
 42
0.000000001
 43
0.0000000001
 40
0.0
 40
0.0
 40
0.0
 40
0.0
 40
0.1292931142288072
 40
0.1292931142288072
 40
0.1292931142288072
 40
0.2434222926228785
 40
0.2434222926228785
 40
0.3591042489542855
 40
0.3591042489542855
 40
0.3591042489542855
 40
0.4978847304541261
 40
0.4978847304541261
 40
0.5851590538715514
 40
0.5851590538715514
 40
0.5851590538715514
 40
0.6640719154630759
 40
0.6640719154630759
 40
0.6640719154630759
 40
0.7426930014083617
 40
0.7426930014083617
 40
0.8546684874516475
 40
0.8546684874516475
 40
0.8546684874516475
 40
1.0
 40
1.0
 40
1.0
 40
1.0
 10
55.37703754750011
 20
71.83037403733475
 30
0.0
 10
55.28549892879479
 20
71.81296750351652
 30
0.0
 10
55.21779446000149
 20
71.77493994531838
 30
0.0
 10
55.17462221673539
 20
71.71537605498568
 30
0.0
 10
55.13165716640953
 20
71.65609802465556
 30
0.0
 10
55.11678799788546
 20
71.58961706729447
 30
0.0
 10
55.14525393164345
 20
71.43991855272665
 30
0.0
 10
55.18338106883859
 20
71.38271352321169
 30
0.0
 10
55.24631768410452
 20
71.34385079708085
 30
0.0
 10
55.30893115666189
 20
71.30518760831836
 30
0.0
 10
55.38871965402052
 20
71.29494560303422
 30
0.0
 10
55.54853293308616
 20
71.32533491069479
 30
0.0
 10
55.60012164232695
 20
71.34614929510111
 30
0.0
 10
55.64270664251668
 20
71.37573208227346
 30
0.0
 10
55.68507756335602
 20
71.40516615361084
 30
0.0
 10
55.71482702804597
 20
71.44289670982316
 30
0.0
 10
55.7325166123754
 20
71.487658464346
 30
0.0
 10
55.75036607282448
 20
71.53282476967621
 30
0.0
 10
55.75419446976554
 20
71.58034087648726
 30
0.0
 10
55.73111398293474
 20
71.70171805046117
 30
0.0
 10
55.69520213602942
 20
71.75829627830683
 30
0.0
 10
55.63643249000701
 20
71.8000474755934
 30
0.0
 10
55.57736015483373
 20
71.84201370964315
 30
0.0
 10
55.49133438632555
 20
71.85210816243377
 30
0.0
 10
55.37703754750011
 20
71.83037403733475
 30
0.0
  0
SPLINE
  5
B7
330
6F
100
AcDbEntity
  8
DV1_0
 62
     7
370
    35
100
AcDbSpline
210
0.0
220
0.0
230
1.0
 70
    11
 71
     3
 72
    35
 73
    31
 74
     0
 42
0.000000001
 43
0.0000000001
 40
0.0
 40
0.0
 40
0.0
 40
0.0
 40
0.1332774546593269
 40
0.1332774546593269
 40
0.1332774546593269
 40
0.2564673865178754
 40
0.2564673865178754
 40
0.3372381437270175
 40
0.3372381437270175
 40
0.3372381437270175
 40
0.4173896675803644
 40
0.4173896675803644
 40
0.4173896675803644
 40
0.5050152300799282
 40
0.5050152300799282
 40
0.5938091334128199
 40
0.5938091334128199
 40
0.5938091334128199
 40
0.6745853915099084
 40
0.6745853915099084
 40
0.6745853915099084
 40
0.7526546374508235
 40
0.7526546374508235
 40
0.8379302753247476
 40
0.8379302753247476
 40
0.8379302753247476
 40
0.9183933360083739
 40
0.9183933360083739
 40
0.9183933360083739
 40
1.0
 40
1.0
 40
1.0
 40
1.0
 10
55.35874401097834
 20
71.93484461774774
 30
0.0
 10
55.48467282897627
 20
71.95879062283471
 30
0.0
 10
55.5898312540988
 20
71.94315331909212
 30
0.0
 10
55.67393078026054
 20
71.88944992119468
 30
0.0
 10
55.75832802366955
 20
71.83555641012396
 30
0.0
 10
55.8106710733419
 20
71.75457604952028
 30
0.0
 10
55.84442628533196
 20
71.57706193258343
 30
0.0
 10
55.83915610388158
 20
71.51108065706256
 30
0.0
 10
55.81654827489313
 20
71.44809084199626
 30
0.0
 10
55.79409027293703
 20
71.38551847422508
 30
0.0
 10
55.75498496138057
 20
71.33367532739217
 30
0.0
 10
55.70088563516084
 20
71.29299460432333
 30
0.0
 10
55.64623555226513
 20
71.25189973229217
 30
0.0
 10
55.58139670943466
 20
71.2241589606654
 30
0.0
 10
55.42866376551748
 20
71.19511601473664
 30
0.0
 10
55.35639639915841
 20
71.19761878847568
 30
0.0
 10
55.28984152176862
 20
71.21692857677866
 30
0.0
 10
55.22306260334794
 20
71.23630336685228
 30
0.0
 10
55.16880162074244
 20
71.27199197761536
 30
0.0
 10
55.12657878824967
 20
71.32317793793013
 30
0.0
 10
55.08464315133095
 20
71.37401573635265
 30
0.0
 10
55.05754739689963
 20
71.43267316260287
 30
0.0
 10
55.03138951182471
 20
71.5702339597733
 30
0.0
 10
55.03646735588484
 20
71.63722671174396
 30
0.0
 10
55.0601828300182
 20
71.69990312597562
 30
0.0
 10
55.08405365485258
 20
71.76299010863335
 30
0.0
 10
55.12275761998053
 20
71.81451097796997
 30
0.0
 10
55.17745885312028
 20
71.85478213150905
 30
0.0
 10
55.23196528577441
 20
71.89490987255421
 30
0.0
 10
55.2919865652927
 20
71.92215034999079
 30
0.0
 10
55.35874401097834
 20
71.93484461774774
 30
0.0
  0
LINE
  5
B8
330
6F
100
AcDbEntity
  8
DV1_0
 62
     7
370
    35
100
AcDbLine
 10
55.62991085307069
 20
72.33138586479774
 30
0.0
 11
54.95088096386939
 21
72.2614147343157
 31
0.0
  0
LINE
  5
B9
330
6F
100
AcDbEntity
  8
DV1_0
 62
     7
370
    35
100
AcDbLine
 10
54.95088096386938
 20
72.2614147343157
 30
0.0
 11
54.9404327860146
 21
72.36280833768059
 31
0.0
  0
LINE
  5
BA
330
6F
100
AcDbEntity
  8
DV1_0
 62
     7
370
    35
100
AcDbLine
 10
54.94043278601459
 20
72.36280833768059
 30
0.0
 11
55.61946267521589
 21
72.43277946816264
 31
0.0
  0
LINE
  5
BB
330
6F
100
AcDbEntity
  8
DV1_0
 62
     7
370
    35
100
AcDbLine
 10
55.6194626752159
 20
72.43277946816264
 30
0.0
 11
55.59334223057894
 21
72.6862634765749
 31
0.0
  0
LINE
  5
BC
330
6F
100
AcDbEntity
  8
DV1_0
 62
     7
370
    35
100
AcDbLine
 10
55.59334223057893
 20
72.68626347657488
 30
0.0
 11
55.68398196692029
 21
72.69560351435416
 31
0.0
  0
LINE
  5
BD
330
6F
100
AcDbEntity
  8
DV1_0
 62
     7
370
    35
100
AcDbLine
 10
55.68398196692029
 20
72.69560351435415
 30
0.0
 11
55.74661826547397
 21
72.08775398307063
 31
0.0
  0
LINE
  5
BE
330
6F
100
AcDbEntity
  8
DV1_0
 62
     7
370
    35
100
AcDbLine
 10
55.74661826547398
 20
72.08775398307064
 30
0.0
 11
55.65597852913262
 21
72.07841394529136
 31
0.0
  0
LINE
  5
BF
330
6F
100
AcDbEntity
  8
DV1_0
 62
     7
370
    35
100
AcDbLine
 10
55.65597852913262
 20
72.07841394529137
 30
0.0
 11
55.62991085307069
 21
72.33138586479774
 31
0.0
  0
LINE
  5
C0
330
6F
100
AcDbEntity
  8
DV1_0
 62
     7
370
    35
100
AcDbLine
 10
55.68586467765383
 20
72.81942341088408
 30
0.0
 11
54.91301535223607
 21
72.7822009164046
 31
0.0
  0
LINE
  5
C1
330
6F
100
AcDbEntity
  8
DV1_0
 62
     7
370
    35
100
AcDbLine
 10
54.91301535223607
 20
72.7822009164046
 30
0.0
 11
54.90811179008907
 21
72.88401340238778
 31
0.0
  0
LINE
  5
C2
330
6F
100
AcDbEntity
  8
DV1_0
 62
     7
370
    35
100
AcDbLine
 10
54.90811179008908
 20
72.8840134023878
 30
0.0
 11
55.68096111550683
 21
72.92123589686727
 31
0.0
  0
LINE
  5
C3
330
6F
100
AcDbEntity
  8
DV1_0
 62
     7
370
    35
100
AcDbLine
 10
55.68096111550683
 20
72.92123589686726
 30
0.0
 11
55.68586467765383
 21
72.81942341088408
 31
0.0
  0
LINE
  5
C4
330
6F
100
AcDbEntity
  8
DV1_0
 62
     7
370
    35
100
AcDbLine
 10
55.5152503850745
 20
73.6238297867602
 30
0.0
 11
54.90783905853173
 21
73.6318752643518
 31
0.0
  0
LINE
  5
C5
330
6F
100
AcDbEntity
  8
DV1_0
 62
     7
370
    35
100
AcDbLine
 10
54.90783905853173
 20
73.6318752643518
 30
0.0
 11
54.9091481531907
 21
73.73070829375537
 31
0.0
  0
LINE
  5
C6
330
6F
100
AcDbEntity
  8
DV1_0
 62
     7
370
    35
100
AcDbLine
 10
54.9091481531907
 20
73.73070829375537
 30
0.0
 11
55.68282546149052
 21
73.7204605371281
 31
0.0
  0
LINE
  5
C7
330
6F
100
AcDbEntity
  8
DV1_0
 62
     7
370
    35
100
AcDbLine
 10
55.68282546149052
 20
73.72046053712809
 30
0.0
 11
55.68142773021402
 21
73.61493568802533
 31
0.0
  0
LINE
  5
C8
330
6F
100
AcDbEntity
  8
DV1_0
 62
     7
370
    35
100
AcDbLine
 10
55.68142773021402
 20
73.61493568802533
 30
0.0
 11
55.06863684280703
 21
73.21683918541163
 31
0.0
  0
LINE
  5
C9
330
6F
100
AcDbEntity
  8
DV1_0
 62
     7
370
    35
100
AcDbLine
 10
55.06863684280703
 20
73.21683918541163
 30
0.0
 11
55.67604816934981
 21
73.20879370782002
 31
0.0
  0
LINE
  5
CA
330
6F
100
AcDbEntity
  8
DV1_0
 62
     7
370
    35
100
AcDbLine
 10
55.67604816934981
 20
73.20879370782004
 30
0.0
 11
55.67474589289218
 21
73.11047543377795
 31
0.0
  0
LINE
  5
CB
330
6F
100
AcDbEntity
  8
DV1_0
 62
     7
370
    35
100
AcDbLine
 10
55.67474589289218
 20
73.11047543377794
 30
0.0
 11
54.90106858459235
 21
73.1207231904052
 31
0.0
  0
LINE
  5
CC
330
6F
100
AcDbEntity
  8
DV1_0
 62
     7
370
    35
100
AcDbLine
 10
54.90106858459236
 20
73.1207231904052
 30
0.0
 11
54.90246631586886
 21
73.22624803950796
 31
0.0
  0
LINE
  5
CD
330
6F
100
AcDbEntity
  8
DV1_0
 62
     7
370
    35
100
AcDbLine
 10
54.90246631586886
 20
73.22624803950798
 30
0.0
 11
55.51525038507451
 21
73.6238297867602
 31
0.0
  0
LINE
  5
CE
330
6F
100
AcDbEntity
  8
DV1_0
 62
     7
370
    35
100
AcDbLine
 10
55.01884922708853
 20
73.92840648655242
 30
0.0
 11
54.92765866378607
 21
73.93741543886061
 31
0.0
  0
LINE
  5
CF
330
6F
100
AcDbEntity
  8
DV1_0
 62
     7
370
    35
100
AcDbLine
 10
54.92765866378606
 20
73.93741543886063
 30
0.0
 11
54.98424298221617
 21
74.51017414544576
 31
0.0
  0
LINE
  5
D0
330
6F
100
AcDbEntity
  8
DV1_0
 62
     7
370
    35
100
AcDbLine
 10
54.98424298221617
 20
74.51017414544575
 30
0.0
 11
55.75423970493303
 21
74.4341041717423
 31
0.0
  0
LINE
  5
D1
330
6F
100
AcDbEntity
  8
DV1_0
 62
     7
370
    35
100
AcDbLine
 10
55.75423970493303
 20
74.4341041717423
 30
0.0
 11
55.6994268097096
 21
73.87927619389642
 31
0.0
  0
LINE
  5
D2
330
6F
100
AcDbEntity
  8
DV1_0
 62
     7
370
    35
100
AcDbLine
 10
55.69942680970959
 20
73.87927619389642
 30
0.0
 11
55.60874855294254
 21
73.888234534113
 31
0.0
  0
LINE
  5
D3
330
6F
100
AcDbEntity
  8
DV1_0
 62
     7
370
    35
100
AcDbLine
 10
55.60874855294254
 20
73.888234534113
 30
0.0
 11
55.65348964193378
 21
74.34111351141287
 31
0.0
  0
LINE
  5
D4
330
6F
100
AcDbEntity
  8
DV1_0
 62
     7
370
    35
100
AcDbLine
 10
55.65348964193378
 20
74.34111351141287
 30
0.0
 11
55.41782863564652
 21
74.36439507355763
 31
0.0
  0
LINE
  5
D5
330
6F
100
AcDbEntity
  8
DV1_0
 62
     7
370
    35
100
AcDbLine
 10
55.41782863564652
 20
74.36439507355763
 30
0.0
 11
55.37592182378594
 21
73.94020526224055
 31
0.0
  0
LINE
  5
D6
330
6F
100
AcDbEntity
  8
DV1_0
 62
     7
370
    35
100
AcDbLine
 10
55.37592182378594
 20
73.94020526224055
 30
0.0
 11
55.28524356701889
 21
73.94916360245713
 31
0.0
  0
LINE
  5
D7
330
6F
100
AcDbEntity
  8
DV1_0
 62
     7
370
    35
100
AcDbLine
 10
55.28524356701889
 20
73.94916360245713
 30
0.0
 11
55.32715037887947
 21
74.37335341377421
 31
0.0
  0
LINE
  5
D8
330
6F
100
AcDbEntity
  8
DV1_0
 62
     7
370
    35
100
AcDbLine
 10
55.32715037887947
 20
74.3733534137742
 30
0.0
 11
55.06536173928644
 21
74.39921619259154
 31
0.0
  0
LINE
  5
D9
330
6F
100
AcDbEntity
  8
DV1_0
 62
     7
370
    35
100
AcDbLine
 10
55.06536173928644
 20
74.39921619259154
 30
0.0
 11
55.01884922708853
 21
73.92840648655242
 31
0.0
  0
SPLINE
  5
DA
330
6F
100
AcDbEntity
  8
DV1_0
 62
     7
370
    35
100
AcDbSpline
210
0.0
220
0.0
230
1.0
 70
     8
 71
     3
 72
    21
 73
    17
 74
     0
 42
0.000000001
 43
0.0000000001
 40
0.0
 40
0.0
 40
0.0
 40
0.0
 40
0.3356404714315034
 40
0.3356404714315034
 40
0.3356404714315034
 40
0.5036402595126096
 40
0.5036402595126096
 40
0.5036402595126096
 40
0.6341709805462858
 40
0.6341709805462858
 40
0.6341709805462858
 40
0.7610162184473221
 40
0.7610162184473221
 40
0.8805081092236614
 40
0.8805081092236614
 40
1.0
 40
1.0
 40
1.0
 40
1.0
 10
55.88439430932985
 20
75.15231668591646
 30
0.0
 10
55.86707143645819
 20
75.05727152076098
 30
0.0
 10
55.84974856358652
 20
74.96222635560548
 30
0.0
 10
55.83242569071486
 20
74.86718119045
 30
0.0
 10
55.82181043113986
 20
74.8089385936851
 30
0.0
 10
55.80572136303227
 20
74.76372911534816
 30
0.0
 10
55.7836520290289
 20
74.73164506204422
 30
0.0
 10
55.76143613181475
 20
74.69934793743208
 30
0.0
 10
55.73320879304458
 20
74.67595195759576
 30
0.0
 10
55.6971955642065
 20
74.662107743152
 30
0.0
 10
55.66159266946948
 20
74.64842126944609
 30
0.0
 10
55.62641647466217
 20
74.64413431076979
 30
0.0
 10
55.55855118799698
 20
74.65650339583978
 30
0.0
 10
55.52973295849159
 20
74.67065156731373
 30
0.0
 10
55.47845828143985
 20
74.71662653570584
 30
0.0
 10
55.46005349279888
 20
74.74771487978401
 30
0.0
 10
55.44878894743783
 20
74.78639762638113
 30
0.0
  0
SPLINE
  5
DB
330
6F
100
AcDbEntity
  8
DV1_0
 62
     7
370
    35
100
AcDbSpline
210
0.0
220
0.0
230
1.0
 70
     8
 71
     3
 72
    23
 73
    19
 74
     0
 42
0.000000001
 43
0.0000000001
 40
0.0
 40
0.0
 40
0.0
 40
0.0
 40
0.1297390389371756
 40
0.1297390389371756
 40
0.2594780778743526
 40
0.2594780778743526
 40
0.3638658103525407
 40
0.3638658103525407
 40
0.4682535428307293
 40
0.4682535428307293
 40
0.4682535428307293
 40
0.5652533807024966
 40
0.5652533807024966
 40
0.5652533807024966
 40
0.6951950690437623
 40
0.6951950690437623
 40
0.6951950690437623
 40
1.0
 40
1.0
 40
1.0
 40
1.0
 10
55.44878894743783
 20
74.78639762638113
 30
0.0
 10
55.42680700418216
 20
74.74330874203054
 30
0.0
 10
55.39755496048937
 20
74.71201052383343
 30
0.0
 10
55.32368237071321
 20
74.67419294768246
 30
0.0
 10
55.28297625259206
 20
74.6690532729463
 30
0.0
 10
55.20346244657389
 20
74.6835454099313
 30
0.0
 10
55.17132855307445
 20
74.69672804894573
 30
0.0
 10
55.11609206579368
 20
74.73819228333612
 30
0.0
 10
55.09570391410955
 20
74.76126961620852
 30
0.0
 10
55.08296000513983
 20
74.78609340078995
 30
0.0
 10
55.0701727200334
 20
74.81100167749047
 30
0.0
 10
55.06323028933397
 20
74.84149415622909
 30
0.0
 10
55.06071275009002
 20
74.87648955448351
 30
0.0
 10
55.05820442466031
 20
74.91135687485414
 30
0.0
 10
55.06152808034069
 20
74.95273999463178
 30
0.0
 10
55.07038951442068
 20
75.00135990149641
 30
0.0
 10
55.08798930710735
 20
75.09792443874142
 30
0.0
 10
55.10558909979401
 20
75.19448897598642
 30
0.0
 10
55.12318889248068
 20
75.29105351323143
 30
0.0
  0
LINE
  5
DC
330
6F
100
AcDbEntity
  8
DV1_0
 62
     7
370
    35
100
AcDbLine
 10
55.45588713736964
 20
75.12680647805817
 30
0.0
 11
55.19506159533549
 21
75.17434437963315
 31
0.0
  0
LINE
  5
DD
330
6F
100
AcDbEntity
  8
DV1_0
 62
     7
370
    35
100
AcDbLine
 10
55.77647464825821
 20
75.06837639709318
 30
0.0
 11
55.54603654801445
 21
75.11037590236816
 31
0.0
  0
SPLINE
  5
DE
330
6F
100
AcDbEntity
  8
DV1_0
 62
     7
370
    35
100
AcDbSpline
210
0.0
220
0.0
230
1.0
 70
     8
 71
     3
 72
    29
 73
    25
 74
     0
 42
0.000000001
 43
0.0000000001
 40
0.0
 40
0.0
 40
0.0
 40
0.0
 40
0.2134781515471444
 40
0.2134781515471444
 40
0.2134781515471444
 40
0.2912971074834136
 40
0.2912971074834136
 40
0.2912971074834136
 40
0.3614073574760486
 40
0.3614073574760486
 40
0.3614073574760486
 40
0.4260152596386239
 40
0.4260152596386239
 40
0.4260152596386239
 40
0.5081973324652238
 40
0.5081973324652238
 40
0.6061163979607475
 40
0.6061163979607475
 40
0.7040354634562707
 40
0.7040354634562707
 40
0.8019545289517939
 40
0.8019545289517939
 40
0.8019545289517939
 40
1.0
 40
1.0
 40
1.0
 40
1.0
 10
55.1950615953355
 20
75.17434437963315
 30
0.0
 10
55.18355403857883
 20
75.11120602835757
 30
0.0
 10
55.17204648182216
 20
75.048067677082
 30
0.0
 10
55.1605389250655
 20
74.98492932580642
 30
0.0
 10
55.1545389957405
 20
74.95200959720016
 30
0.0
 10
55.15139811324185
 20
74.92903440264736
 30
0.0
 10
55.15153042832771
 20
74.91540497817988
 30
0.0
 10
55.15175881813356
 20
74.89187915277948
 30
0.0
 10
55.15441227813435
 20
74.87092412096833
 30
0.0
 10
55.16167992064281
 20
74.85337781060997
 30
0.0
 10
55.16867522680452
 20
74.83648900343182
 30
0.0
 10
55.17980778946878
 20
74.82077009444227
 30
0.0
 10
55.19679288641118
 20
74.80773206015698
 30
0.0
 10
55.2139645248807
 20
74.79455083358764
 30
0.0
 10
55.23403381995186
 20
74.78524611746678
 30
0.0
 10
55.28619892835869
 20
74.7757385371518
 30
0.0
 10
55.31230763162417
 20
74.77830591659122
 30
0.0
 10
55.35919091849436
 20
74.80011130204525
 30
0.0
 10
55.37757044622639
 20
74.81769270502718
 30
0.0
 10
55.40420527028427
 20
74.86621293150084
 30
0.0
 10
55.41499531135464
 20
74.90244586617249
 30
0.0
 10
55.42385674543465
 20
74.95106577303709
 30
0.0
 10
55.43453354274631
 20
75.00964600804411
 30
0.0
 10
55.44521034005798
 20
75.06822624305114
 30
0.0
 10
55.45588713736964
 20
75.12680647805817
 30
0.0
  0
SPLINE
  5
DF
330
6F
100
AcDbEntity
  8
DV1_0
 62
     7
370
    35
100
AcDbSpline
210
0.0
220
0.0
230
1.0
 70
     8
 71
     3
 72
    27
 73
    23
 74
     0
 42
0.000000001
 43
0.0000000001
 40
0.0
 40
0.0
 40
0.0
 40
0.0
 40
0.2037752312648243
 40
0.2037752312648243
 40
0.2037752312648243
 40
0.3231279547111104
 40
0.3231279547111104
 40
0.3231279547111104
 40
0.4106804246950365
 40
0.4106804246950365
 40
0.4106804246950365
 40
0.5007203177823226
 40
0.5007203177823226
 40
0.5839647472403799
 40
0.5839647472403799
 40
0.6672091766984389
 40
0.6672091766984389
 40
0.6672091766984389
 40
0.8118614737392147
 40
0.8118614737392147
 40
0.8118614737392147
 40
1.0
 40
1.0
 40
1.0
 40
1.0
 10
55.54603654801446
 20
75.11037590236816
 30
0.0
 10
55.53603666580612
 20
75.0555096880244
 30
0.0
 10
55.52603678359778
 20
75.00064347368065
 30
0.0
 10
55.51603690138946
 20
74.94577725933691
 30
0.0
 10
55.50791392014946
 20
74.90120901137767
 30
0.0
 10
55.50463089085032
 20
74.86884066447277
 30
0.0
 10
55.5072007282184
 20
74.8484876054122
 30
0.0
 10
55.51062825689951
 20
74.8213416488062
 30
0.0
 10
55.51924373490033
 20
74.79972063588978
 30
0.0
 10
55.53456977088139
 20
74.78332201327228
 30
0.0
 10
55.54968619248291
 20
74.76714767481474
 30
0.0
 10
55.57107225158207
 20
74.75678441167672
 30
0.0
 10
55.62273090262572
 20
74.74736913796671
 30
0.0
 10
55.64612270586534
 20
74.7493851357048
 30
0.0
 10
55.68904418250649
 20
74.7666797871571
 30
0.0
 10
55.70535049851899
 20
74.78149936577498
 30
0.0
 10
55.71700884958658
 20
74.80239889067961
 30
0.0
 10
55.72882365238068
 20
74.82357888121227
 30
0.0
 10
55.73881355341822
 20
74.86174179291855
 30
0.0
 10
55.74878266675822
 20
74.91643918814124
 30
0.0
 10
55.75801332725822
 20
74.96708492445856
 30
0.0
 10
55.76724398775821
 20
75.01773066077587
 30
0.0
 10
55.77647464825821
 20
75.06837639709318
 30
0.0
  0
LINE
  5
E0
330
6F
100
AcDbEntity
  8
DV1_0
 62
     7
370
    35
100
AcDbLine
 10
55.12318889248068
 20
75.29105351323143
 30
0.0
 11
55.88439430932985
 21
75.15231668591646
 31
0.0
  0
LINE
  5
E1
330
6F
100
AcDbEntity
  8
DV1_0
 62
     7
370
    35
100
AcDbLine
 10
62.17470764131235
 20
67.75633827728582
 30
0.0
 11
63.07470764131234
 21
67.75633827728582
 31
0.0
  0
LINE
  5
E2
330
6F
100
AcDbEntity
  8
DV1_0
 62
     7
370
    35
100
AcDbLine
 10
63.07470764131234
 20
67.75633827728582
 30
0.0
 11
63.07470764131234
 21
66.85633827728581
 31
0.0
  0
LINE
  5
E3
330
6F
100
AcDbEntity
  8
DV1_0
 62
     7
370
    35
100
AcDbLine
 10
63.07470764131234
 20
66.85633827728581
 30
0.0
 11
62.17470764131235
 21
66.85633827728581
 31
0.0
  0
LINE
  5
E4
330
6F
100
AcDbEntity
  8
DV1_0
 62
     7
370
    35
100
AcDbLine
 10
62.17470764131235
 20
66.85633827728581
 30
0.0
 11
62.17470764131235
 21
67.75633827728582
 31
0.0
  0
LINE
  5
E5
330
6F
100
AcDbEntity
  8
DV1_0
 62
     7
370
    35
100
AcDbLine
 10
62.12470764131235
 20
67.75633827728582
 30
0.0
 11
62.12470764131235
 21
66.80633827728582
 31
0.0
  0
LINE
  5
E6
330
6F
100
AcDbEntity
  8
DV1_0
 62
     7
370
    35
100
AcDbLine
 10
62.12470764131235
 20
66.80633827728583
 30
0.0
 11
63.12470764131235
 21
66.80633827728583
 31
0.0
  0
LINE
  5
E7
330
6F
100
AcDbEntity
  8
DV1_0
 62
     7
370
    35
100
AcDbLine
 10
63.12470764131234
 20
66.80633827728583
 30
0.0
 11
63.12470764131234
 21
67.80633827728583
 31
0.0
  0
LINE
  5
E8
330
6F
100
AcDbEntity
  8
DV1_0
 62
     7
370
    35
100
AcDbLine
 10
63.12470764131234
 20
67.80633827728583
 30
0.0
 11
62.12470764131234
 21
67.80633827728583
 31
0.0
  0
ARC
  5
E9
330
6F
100
AcDbEntity
  8
DV1_0
 62
     7
370
    35
100
AcDbCircle
 10
62.12470764131235
 20
68.25633827728582
 30
0.0
 40
0.449999999999999
100
AcDbArc
 50
90.0
 51
270.0
  0
LINE
  5
EA
330
6F
100
AcDbEntity
  8
DV1_0
 62
     7
370
    35
100
AcDbLine
 10
62.12470764131235
 20
68.70633827728581
 30
0.0
 11
62.12470764131235
 21
68.7563382772858
 31
0.0
  0
ARC
  5
EB
330
6F
100
AcDbEntity
  8
DV1_0
 62
     7
370
    35
100
AcDbCircle
 10
62.12470764131235
 20
68.25633827728582
 30
0.0
 40
0.4999999999999991
100
AcDbArc
 50
90.0
 51
270.0
  0
LINE
  5
EC
330
6F
100
AcDbEntity
  8
DV1_0
 62
     7
370
    35
100
AcDbLine
 10
63.12470764131234
 20
65.00633827728582
 30
0.0
 11
62.12470764131234
 21
65.00633827728582
 31
0.0
  0
ARC
  5
ED
330
6F
100
AcDbEntity
  8
DV1_0
 62
     7
370
    35
100
AcDbCircle
 10
62.12470764131235
 20
65.50633827728582
 30
0.0
 40
0.4999999999999991
100
AcDbArc
 50
90.0
 51
270.0
  0
LINE
  5
EE
330
6F
100
AcDbEntity
  8
DV1_0
 62
     7
370
    35
100
AcDbLine
 10
62.12470764131235
 20
66.00633827728582
 30
0.0
 11
63.12470764131235
 21
66.00633827728582
 31
0.0
  0
LINE
  5
EF
330
6F
100
AcDbEntity
  8
DV1_0
 62
     7
370
    35
100
AcDbLine
 10
63.12470764131234
 20
66.00633827728582
 30
0.0
 11
63.12470764131234
 21
65.00633827728582
 31
0.0
  0
LINE
  5
F0
330
6F
100
AcDbEntity
  8
DV1_0
 62
     7
370
    35
100
AcDbLine
 10
63.07470764131234
 20
65.05633827728582
 30
0.0
 11
62.17470764131235
 21
65.05633827728582
 31
0.0
  0
LINE
  5
F1
330
6F
100
AcDbEntity
  8
DV1_0
 62
     7
370
    35
100
AcDbLine
 10
62.17470764131235
 20
65.05633827728582
 30
0.0
 11
62.17470764131235
 21
65.95633827728582
 31
0.0
  0
LINE
  5
F2
330
6F
100
AcDbEntity
  8
DV1_0
 62
     7
370
    35
100
AcDbLine
 10
62.17470764131235
 20
65.95633827728582
 30
0.0
 11
63.07470764131234
 21
65.95633827728582
 31
0.0
  0
LINE
  5
F3
330
6F
100
AcDbEntity
  8
DV1_0
 62
     7
370
    35
100
AcDbLine
 10
63.07470764131234
 20
65.95633827728582
 30
0.0
 11
63.07470764131234
 21
65.05633827728582
 31
0.0
  0
LINE
  5
F4
330
6F
100
AcDbEntity
  8
DV1_0
 62
     7
370
    35
100
AcDbLine
 10
62.12470764131235
 20
65.95633827728582
 30
0.0
 11
62.12470764131235
 21
65.05633827728583
 31
0.0
  0
ARC
  5
F5
330
6F
100
AcDbEntity
  8
DV1_0
 62
     7
370
    35
100
AcDbCircle
 10
62.12470764131235
 20
65.50633827728582
 30
0.0
 40
0.449999999999999
100
AcDbArc
 50
90.0
 51
270.0
  0
LINE
  5
F6
330
6F
100
AcDbEntity
  8
DV1_0
 62
     7
370
    35
100
AcDbLine
 10
63.3159352866335
 20
65.81737521843796
 30
0.0
 11
63.36593528663349
 21
65.81737521843796
 31
0.0
  0
LINE
  5
F7
330
6F
100
AcDbEntity
  8
DV1_0
 62
     7
370
    35
100
AcDbLine
 10
63.36593528663351
 20
65.81737521843796
 30
0.0
 11
63.36593528663351
 21
67.5272297221858
 31
0.0
  0
LINE
  5
F8
330
6F
100
AcDbEntity
  8
DV1_0
 62
     7
370
    35
100
AcDbLine
 10
63.36593528663351
 20
67.52722972218578
 30
0.0
 11
63.31593528663351
 21
67.52722972218578
 31
0.0
  0
LINE
  5
F9
330
6F
100
AcDbEntity
  8
DV1_0
 62
     7
370
    35
100
AcDbLine
 10
63.3159352866335
 20
67.52722972218578
 30
0.0
 11
63.3909352866335
 21
67.62722972218577
 31
0.0
  0
LINE
  5
FA
330
6F
100
AcDbEntity
  8
DV1_0
 62
     7
370
    35
100
AcDbLine
 10
63.39093528663351
 20
67.62722972218577
 30
0.0
 11
63.46593528663351
 21
67.52722972218578
 31
0.0
  0
LINE
  5
FB
330
6F
100
AcDbEntity
  8
DV1_0
 62
     7
370
    35
100
AcDbLine
 10
63.46593528663351
 20
67.52722972218578
 30
0.0
 11
63.41593528663351
 21
67.52722972218578
 31
0.0
  0
LINE
  5
FC
330
6F
100
AcDbEntity
  8
DV1_0
 62
     7
370
    35
100
AcDbLine
 10
63.4159352866335
 20
67.52722972218578
 30
0.0
 11
63.4159352866335
 21
65.81737521843795
 31
0.0
  0
LINE
  5
FD
330
6F
100
AcDbEntity
  8
DV1_0
 62
     7
370
    35
100
AcDbLine
 10
63.4159352866335
 20
65.81737521843796
 30
0.0
 11
63.4659352866335
 21
65.81737521843796
 31
0.0
  0
LINE
  5
FE
330
6F
100
AcDbEntity
  8
DV1_0
 62
     7
370
    35
100
AcDbLine
 10
63.46593528663351
 20
65.81737521843796
 30
0.0
 11
63.39093528663351
 21
65.71737521843797
 31
0.0
  0
LINE
  5
FF
330
6F
100
AcDbEntity
  8
DV1_0
 62
     7
370
    35
100
AcDbLine
 10
63.39093528663351
 20
65.71737521843795
 30
0.0
 11
63.3159352866335
 21
65.81737521843795
 31
0.0
  0
CIRCLE
  5
100
330
6F
100
AcDbEntity
  8
DV1_0
 62
     7
370
    35
100
AcDbCircle
 10
57.99398395710182
 20
79.73304471670708
 30
0.0
 40
0.8
  0
LINE
  5
101
330
6F
100
AcDbEntity
  8
DV1_0
 62
     7
370
    35
100
AcDbLine
 10
57.76292069605755
 20
79.55962118755815
 30
0.0
 11
58.02864150843661
 21
79.446226298187
 31
0.0
  0
LINE
  5
102
330
6F
100
AcDbEntity
  8
DV1_0
 62
     7
370
    35
100
AcDbLine
 10
58.02864150843661
 20
79.44622629818701
 30
0.0
 11
58.25970476948088
 21
79.61964982733595
 31
0.0
  0
LINE
  5
103
330
6F
100
AcDbEntity
  8
DV1_0
 62
     7
370
    35
100
AcDbLine
 10
58.25970476948088
 20
79.61964982733593
 30
0.0
 11
58.22504721814609
 21
79.90646824585602
 31
0.0
  0
LINE
  5
104
330
6F
100
AcDbEntity
  8
DV1_0
 62
     7
370
    35
100
AcDbLine
 10
58.22504721814609
 20
79.906468245856
 30
0.0
 11
57.95932640576703
 21
80.01986313522715
 31
0.0
  0
LINE
  5
105
330
6F
100
AcDbEntity
  8
DV1_0
 62
     7
370
    35
100
AcDbLine
 10
57.95932640576703
 20
80.01986313522715
 30
0.0
 11
57.72826314472276
 21
79.84643960607822
 31
0.0
  0
LINE
  5
106
330
6F
100
AcDbEntity
  8
DV1_0
 62
     7
370
    35
100
AcDbLine
 10
57.72826314472275
 20
79.84643960607823
 30
0.0
 11
57.76292069605754
 21
79.55962118755815
 31
0.0
  0
CIRCLE
  5
107
330
6F
100
AcDbEntity
  8
DV1_0
 62
     7
370
    35
100
AcDbCircle
 10
70.99398395710182
 20
79.73304471670708
 30
0.0
 40
0.8
  0
LINE
  5
108
330
6F
100
AcDbEntity
  8
DV1_0
 62
     7
370
    35
100
AcDbLine
 10
70.76292069605755
 20
79.55962118755815
 30
0.0
 11
71.0286415084366
 21
79.446226298187
 31
0.0
  0
LINE
  5
109
330
6F
100
AcDbEntity
  8
DV1_0
 62
     7
370
    35
100
AcDbLine
 10
71.02864150843662
 20
79.44622629818701
 30
0.0
 11
71.25970476948089
 21
79.61964982733595
 31
0.0
  0
LINE
  5
10A
330
6F
100
AcDbEntity
  8
DV1_0
 62
     7
370
    35
100
AcDbLine
 10
71.25970476948088
 20
79.61964982733593
 30
0.0
 11
71.22504721814609
 21
79.90646824585602
 31
0.0
  0
LINE
  5
10B
330
6F
100
AcDbEntity
  8
DV1_0
 62
     7
370
    35
100
AcDbLine
 10
71.22504721814609
 20
79.906468245856
 30
0.0
 11
70.95932640576703
 21
80.01986313522715
 31
0.0
  0
LINE
  5
10C
330
6F
100
AcDbEntity
  8
DV1_0
 62
     7
370
    35
100
AcDbLine
 10
70.95932640576703
 20
80.01986313522715
 30
0.0
 11
70.72826314472276
 21
79.84643960607822
 31
0.0
  0
LINE
  5
10D
330
6F
100
AcDbEntity
  8
DV1_0
 62
     7
370
    35
100
AcDbLine
 10
70.72826314472276
 20
79.84643960607823
 30
0.0
 11
70.76292069605755
 21
79.55962118755815
 31
0.0
  0
CIRCLE
  5
10E
330
6F
100
AcDbEntity
  8
DV1_0
 62
     7
370
    35
100
AcDbCircle
 10
70.99398395710182
 20
66.70116144312772
 30
0.0
 40
0.8
  0
LINE
  5
10F
330
6F
100
AcDbEntity
  8
DV1_0
 62
     7
370
    35
100
AcDbLine
 10
70.76292069605755
 20
66.52773791397878
 30
0.0
 11
71.0286415084366
 21
66.41434302460763
 31
0.0
  0
LINE
  5
110
330
6F
100
AcDbEntity
  8
DV1_0
 62
     7
370
    35
100
AcDbLine
 10
71.02864150843662
 20
66.41434302460763
 30
0.0
 11
71.25970476948089
 21
66.58776655375657
 31
0.0
  0
LINE
  5
111
330
6F
100
AcDbEntity
  8
DV1_0
 62
     7
370
    35
100
AcDbLine
 10
71.25970476948088
 20
66.58776655375657
 30
0.0
 11
71.22504721814609
 21
66.87458497227665
 31
0.0
  0
LINE
  5
112
330
6F
100
AcDbEntity
  8
DV1_0
 62
     7
370
    35
100
AcDbLine
 10
71.22504721814609
 20
66.87458497227665
 30
0.0
 11
70.95932640576703
 21
66.9879798616478
 31
0.0
  0
LINE
  5
113
330
6F
100
AcDbEntity
  8
DV1_0
 62
     7
370
    35
100
AcDbLine
 10
70.95932640576703
 20
66.98797986164779
 30
0.0
 11
70.72826314472276
 21
66.81455633249885
 31
0.0
  0
LINE
  5
114
330
6F
100
AcDbEntity
  8
DV1_0
 62
     7
370
    35
100
AcDbLine
 10
70.72826314472276
 20
66.81455633249885
 30
0.0
 11
70.76292069605755
 21
66.52773791397877
 31
0.0
  0
CIRCLE
  5
115
330
6F
100
AcDbEntity
  8
DV1_0
 62
     7
370
    35
100
AcDbCircle
 10
57.99398395710182
 20
66.70116144312772
 30
0.0
 40
0.8
  0
LINE
  5
116
330
6F
100
AcDbEntity
  8
DV1_0
 62
     7
370
    35
100
AcDbLine
 10
57.76292069605755
 20
66.52773791397878
 30
0.0
 11
58.02864150843661
 21
66.41434302460763
 31
0.0
  0
LINE
  5
117
330
6F
100
AcDbEntity
  8
DV1_0
 62
     7
370
    35
100
AcDbLine
 10
58.02864150843661
 20
66.41434302460763
 30
0.0
 11
58.25970476948088
 21
66.58776655375657
 31
0.0
  0
LINE
  5
118
330
6F
100
AcDbEntity
  8
DV1_0
 62
     7
370
    35
100
AcDbLine
 10
58.25970476948088
 20
66.58776655375657
 30
0.0
 11
58.22504721814609
 21
66.87458497227665
 31
0.0
  0
LINE
  5
119
330
6F
100
AcDbEntity
  8
DV1_0
 62
     7
370
    35
100
AcDbLine
 10
58.22504721814609
 20
66.87458497227665
 30
0.0
 11
57.95932640576703
 21
66.9879798616478
 31
0.0
  0
LINE
  5
11A
330
6F
100
AcDbEntity
  8
DV1_0
 62
     7
370
    35
100
AcDbLine
 10
57.95932640576703
 20
66.9879798616478
 30
0.0
 11
57.72826314472276
 21
66.81455633249887
 31
0.0
  0
LINE
  5
11B
330
6F
100
AcDbEntity
  8
DV1_0
 62
     7
370
    35
100
AcDbLine
 10
57.72826314472275
 20
66.81455633249885
 30
0.0
 11
57.76292069605754
 21
66.52773791397877
 31
0.0
  0
CIRCLE
  5
11C
330
6F
100
AcDbEntity
  8
DV1_0
 62
     7
370
    35
100
AcDbCircle
 10
64.49398395710182
 20
66.81710307991739
 30
0.0
 40
0.8
  0
CIRCLE
  5
11D
330
6F
100
AcDbEntity
  8
DV1_0
 62
     7
370
    35
100
AcDbCircle
 10
64.49398395710182
 20
66.81710307991739
 30
0.0
 40
0.8500000000000001
  0
LINE
  5
11E
330
6F
100
AcDbEntity
  8
DV1_0
 62
     7
370
    35
100
AcDbLine
 10
63.97312867609685
 20
66.608450979856
 30
0.0
 11
64.57371357839817
 21
67.3725030349937
 31
0.0
  0
LINE
  5
11F
330
6F
100
AcDbEntity
  8
DV1_0
 62
     7
370
    35
100
AcDbLine
 10
64.57371357839817
 20
67.37250303499368
 30
0.0
 11
64.93510961681046
 21
66.4703552249025
 31
0.0
  0
LINE
  5
120
330
6F
100
AcDbEntity
  8
DV1_0
 62
     7
370
    35
100
AcDbLine
 10
64.93510961681045
 20
66.4703552249025
 30
0.0
 11
63.97312867609684
 21
66.60845097985599
 31
0.0
  0
CIRCLE
  5
121
330
6F
100
AcDbEntity
  8
DV1_0
 62
     7
370
    35
100
AcDbCircle
 10
64.49398395710179
 20
75.21710307991741
 30
0.0
 40
6.0
  0
CIRCLE
  5
122
330
6F
100
AcDbEntity
  8
DV1_0
 62
     7
370
    25
100
AcDbCircle
 10
64.49398395710179
 20
75.21710307991744
 30
0.0
 40
4.6
  0
CIRCLE
  5
123
330
6F
100
AcDbEntity
  8
DV1_0
 62
     7
370
    35
100
AcDbCircle
 10
64.49398395710179
 20
75.21710307991744
 30
0.0
 40
5.000000000000001
  0
ENDBLK
  5
125
330
6F
100
AcDbEntity
  8
0
100
AcDbBlockEnd
  0
BLOCK
  5
15A
330
126
100
AcDbEntity
  8
0
100
AcDbBlockBegin
  2
SE1
 70
     0
 10
0.0
 20
0.0
 30
0.0
  3
SE1
  1

  0
LINE
  5
129
330
126
100
AcDbEntity
  8
DV2_0
 62
     7
370
    35
100
AcDbLine
 10
53.99398395710182
 20
149.7862738720061
 30
0.0
 11
74.99398395710182
 21
149.7862738720061
 31
0.0
  0
LINE
  5
12A
330
126
100
AcDbEntity
  8
DV2_0
 62
     7
370
    35
100
AcDbLine
 10
73.39398395710182
 20
131.2862738720061
 30
0.0
 11
55.59398395710183
 21
131.2862738720061
 31
0.0
  0
LINE
  5
12B
330
126
100
AcDbEntity
  8
DV2_0
 62
     7
370
    35
100
AcDbLine
 10
73.39398395710182
 20
130.5362738720061
 30
0.0
 11
55.59398395710183
 21
130.5362738720061
 31
0.0
  0
LINE
  5
12C
330
126
100
AcDbEntity
  8
DV2_0
 62
     7
370
    35
100
AcDbLine
 10
53.99398395710182
 20
151.4862738720061
 30
0.0
 11
74.99398395710182
 21
151.4862738720061
 31
0.0
  0
LINE
  5
12D
330
126
100
AcDbEntity
  8
DV2_0
 62
     7
370
    35
100
AcDbLine
 10
53.99398395710182
 20
151.4862738720061
 30
0.0
 11
53.99398395710182
 21
149.7862738720061
 31
0.0
  0
LINE
  5
12E
330
126
100
AcDbEntity
  8
DV2_0
 62
     7
370
    35
100
AcDbLine
 10
74.99398395710183
 20
149.7862738720061
 30
0.0
 11
74.99398395710183
 21
151.4862738720061
 31
0.0
  0
LINE
  5
12F
330
126
100
AcDbEntity
  8
DV2_0
 62
     7
370
    35
100
AcDbLine
 10
55.74398395710182
 20
149.7862738720061
 30
0.0
 11
55.74398395710182
 21
131.2862738720061
 31
0.0
  0
LINE
  5
130
330
126
100
AcDbEntity
  8
DV2_0
 62
     7
370
    35
100
AcDbLine
 10
73.24398395710183
 20
131.2862738720061
 30
0.0
 11
73.24398395710183
 21
149.7862738720061
 31
0.0
  0
LINE
  5
131
330
126
100
AcDbEntity
  8
DV2_0
 62
     7
370
    35
100
AcDbLine
 10
73.39398395710182
 20
130.5362738720061
 30
0.0
 11
73.39398395710182
 21
131.2862738720061
 31
0.0
  0
LINE
  5
132
330
126
100
AcDbEntity
  8
DV2_0
 62
     7
370
    35
100
AcDbLine
 10
55.59398395710182
 20
131.2862738720061
 30
0.0
 11
55.59398395710182
 21
130.5362738720061
 31
0.0
  0
LINE
  5
133
330
126
100
AcDbEntity
  8
DV2_0
 62
     7
370
    35
100
AcDbLine
 10
70.59398395710183
 20
149.4362738720061
 30
0.0
 11
71.39398395710182
 21
149.4362738720061
 31
0.0
  0
LINE
  5
134
330
126
100
AcDbEntity
  8
DV2_0
 62
     7
370
    35
100
AcDbLine
 10
70.59398395710181
 20
149.7862738720061
 30
0.0
 11
70.59398395710181
 21
149.4362738720061
 31
0.0
  0
LINE
  5
135
330
126
100
AcDbEntity
  8
DV2_0
 62
     7
370
    35
100
AcDbLine
 10
71.39398395710182
 20
149.4362738720061
 30
0.0
 11
71.39398395710182
 21
149.7862738720061
 31
0.0
  0
LINE
  5
136
330
126
100
AcDbEntity
  8
DV2_0
 62
     7
370
    15
100
AcDbLine
 10
70.67068395710183
 20
149.4362738720061
 30
0.0
 11
70.67068395710183
 21
149.7862738720061
 31
0.0
  0
LINE
  5
137
330
126
100
AcDbEntity
  8
DV2_0
 62
     7
370
    15
100
AcDbLine
 10
71.31728395710182
 20
149.4362738720061
 30
0.0
 11
71.31728395710182
 21
149.7862738720061
 31
0.0
  0
LINE
  5
138
330
126
100
AcDbEntity
  8
DV2_0
 62
     7
370
    35
100
AcDbLine
 10
57.59398395710182
 20
149.4362738720061
 30
0.0
 11
58.39398395710181
 21
149.4362738720061
 31
0.0
  0
LINE
  5
139
330
126
100
AcDbEntity
  8
DV2_0
 62
     7
370
    35
100
AcDbLine
 10
57.59398395710181
 20
149.7862738720061
 30
0.0
 11
57.59398395710181
 21
149.4362738720061
 31
0.0
  0
LINE
  5
13A
330
126
100
AcDbEntity
  8
DV2_0
 62
     7
370
    35
100
AcDbLine
 10
58.39398395710182
 20
149.4362738720061
 30
0.0
 11
58.39398395710182
 21
149.7862738720061
 31
0.0
  0
LINE
  5
13B
330
126
100
AcDbEntity
  8
DV2_0
 62
     7
370
    15
100
AcDbLine
 10
57.67068395710182
 20
149.4362738720061
 30
0.0
 11
57.67068395710182
 21
149.7862738720061
 31
0.0
  0
LINE
  5
13C
330
126
100
AcDbEntity
  8
DV2_0
 62
     7
370
    15
100
AcDbLine
 10
58.31728395710182
 20
149.4362738720061
 30
0.0
 11
58.31728395710182
 21
149.7862738720061
 31
0.0
  0
LINE
  5
13D
330
126
100
AcDbEntity
  8
DV2_0
 62
     7
370
    25
100
AcDbLine
 10
69.49398395710175
 20
217.2518606007634
 30
0.0
 11
59.49398395710185
 21
217.2518606007634
 31
0.0
  0
LINE
  5
13E
330
126
100
AcDbEntity
  8
DV2_0
 62
     7
370
    35
100
AcDbLine
 10
69.49398395710178
 20
153.5362738720061
 30
0.0
 11
59.49398395710178
 21
153.5362738720061
 31
0.0
  0
LINE
  5
13F
330
126
100
AcDbEntity
  8
DV2_0
 62
     7
370
    35
100
AcDbLine
 10
69.49398395710179
 20
153.5362738720061
 30
0.0
 11
69.49398395710179
 21
217.2518606007635
 31
0.0
  0
LINE
  5
140
330
126
100
AcDbEntity
  8
DV2_0
 62
     7
370
    35
100
AcDbLine
 10
59.4939839571018
 20
217.2518606007634
 30
0.0
 11
59.49398395710179
 21
153.5362738720061
 31
0.0
  0
ARC
  5
141
330
126
100
AcDbEntity
  8
DV2_0
 62
     7
370
    35
100
AcDbCircle
 10
60.04398395710179
 20
217.2518606007634
 30
0.0
 40
0.5500000000000062
100
AcDbArc
 50
133.7021144373583
 51
180.0
  0
ARC
  5
142
330
126
100
AcDbEntity
  8
DV2_0
 62
     7
370
    35
100
AcDbCircle
 10
68.94398395710179
 20
217.2518606007634
 30
0.0
 40
0.5500000000000062
100
AcDbArc
 50
0.0
 51
46.29788556265061
  0
SPLINE
  5
143
330
126
100
AcDbEntity
  8
DV2_0
 62
     7
370
    35
100
AcDbSpline
210
0.0
220
0.0
230
1.0
 70
    12
 71
     2
 72
     6
 73
     3
 74
     0
 42
0.000000001
 43
0.0000000001
 40
0.997016221777749
 40
0.997016221777749
 40
0.997016221777749
 40
0.9980565865989981
 40
0.9980565865989981
 40
0.9980565865989981
 10
69.49242209347283
 20
151.4864048450725
 30
0.0
 41
0.9866932953945741
 10
69.49398520220493
 20
151.4951613349654
 30
0.0
 41
0.9874541936912345
 10
69.49398395610936
 20
151.5038879968264
 30
0.0
 41
0.9883702949078786
  0
LINE
  5
144
330
126
100
AcDbEntity
  8
DV2_0
 62
     7
370
    35
100
AcDbLine
 10
58.49398395710178
 20
152.5362738720061
 30
0.0
 11
70.49398395710179
 21
152.5362738720061
 31
0.0
  0
LINE
  5
145
330
126
100
AcDbEntity
  8
DV2_0
 62
     7
370
    35
100
AcDbLine
 10
70.49398395710179
 20
151.5362738720061
 30
0.0
 11
58.49398395710179
 21
151.5362738720061
 31
0.0
  0
LINE
  5
146
330
126
100
AcDbEntity
  8
DV2_0
 62
     7
370
    35
100
AcDbLine
 10
69.4939839571017
 20
153.5362738720061
 30
0.0
 11
59.4939839571018
 21
153.5362738720061
 31
0.0
  0
SPLINE
  5
147
330
126
100
AcDbEntity
  8
DV2_0
 62
     7
370
    35
100
AcDbSpline
210
0.0
220
0.0
230
1.0
 70
     8
 71
     3
 72
     9
 73
     5
 74
     0
 42
0.000000001
 43
0.0000000001
 40
0.9830034913506245
 40
0.9830034913506245
 40
0.9830034913506245
 40
0.9830034913506245
 40
0.9932880907665321
 40
1.0
 40
1.0
 40
1.0
 40
1.0
 10
69.8422880636723
 20
151.4882713017103
 30
0.0
 10
69.82691443365893
 20
151.4994332136824
 30
0.0
 10
69.8018444592539
 20
151.5165873738508
 30
0.0
 10
69.77847546296238
 20
151.5305708615447
 30
0.0
 10
69.76766098705633
 20
151.5369889960081
 30
0.0
  0
LINE
  5
148
330
126
100
AcDbEntity
  8
DV2_0
 62
     7
370
    35
100
AcDbLine
 10
58.49398395710178
 20
152.5362738720061
 30
0.0
 11
58.49398395710178
 21
151.5362738720061
 31
0.0
  0
LINE
  5
149
330
126
100
AcDbEntity
  8
DV2_0
 62
     7
370
    35
100
AcDbLine
 10
70.49398395710179
 20
151.5362738720061
 30
0.0
 11
70.49398395710179
 21
152.5362738720061
 31
0.0
  0
LINE
  5
14A
330
126
100
AcDbEntity
  8
DV2_0
 62
     7
370
    35
100
AcDbLine
 10
69.49398395710179
 20
151.5037412775242
 30
0.0
 11
69.49398395710179
 21
151.5362738720061
 31
0.0
  0
LINE
  5
14B
330
126
100
AcDbEntity
  8
DV2_0
 62
     7
370
    35
100
AcDbLine
 10
59.49398395710179
 20
151.5362738720061
 30
0.0
 11
59.49398395710179
 21
151.4862738720061
 31
0.0
  0
ARC
  5
14C
330
126
100
AcDbEntity
  8
DV2_0
 62
     7
370
    35
100
AcDbCircle
 10
70.49398395710176
 20
153.5362738720061
 30
0.0
 40
1.000000000000001
100
AcDbArc
 50
180.0
 51
270.0
  0
ARC
  5
14D
330
126
100
AcDbEntity
  8
DV2_0
 62
     7
370
    35
100
AcDbCircle
 10
58.49398395710175
 20
153.5362738720061
 30
0.0
 40
1.000000000000001
100
AcDbArc
 50
270.0
 51
0.0
  0
LINE
  5
14E
330
126
100
AcDbEntity
  8
DV2_0
 62
     7
370
    35
100
AcDbLine
 10
69.3239839571017
 20
220.1490692362076
 30
0.0
 11
59.66398395710179
 21
220.1490692362076
 31
0.0
  0
LINE
  5
14F
330
126
100
AcDbEntity
  8
DV2_0
 62
     7
370
    35
100
AcDbLine
 10
59.89398395710183
 20
232.5359997020265
 30
0.0
 11
69.09398395710174
 21
232.5359997020265
 31
0.0
  0
LINE
  5
150
330
126
100
AcDbEntity
  8
DV2_0
 62
     7
370
    25
100
AcDbLine
 10
69.49398395710175
 20
232.1359997020265
 30
0.0
 11
59.49398395710185
 21
232.1359997020265
 31
0.0
  0
LINE
  5
151
330
126
100
AcDbEntity
  8
DV2_0
 62
     7
370
    25
100
AcDbLine
 10
59.4939839571018
 20
220.546687143249
 30
0.0
 11
69.4939839571017
 21
220.546687143249
 31
0.0
  0
LINE
  5
152
330
126
100
AcDbEntity
  8
DV2_0
 62
     7
370
    35
100
AcDbLine
 10
69.32398395710175
 20
217.6494785078049
 30
0.0
 11
69.32398395710175
 21
220.1490692362076
 31
0.0
  0
LINE
  5
153
330
126
100
AcDbEntity
  8
DV2_0
 62
     7
370
    35
100
AcDbLine
 10
59.66398395710176
 20
220.1490692362076
 30
0.0
 11
59.66398395710176
 21
217.6494785078048
 31
0.0
  0
ARC
  5
154
330
126
100
AcDbEntity
  8
DV2_0
 62
     7
370
    35
100
AcDbCircle
 10
69.09398395710178
 20
232.1359997020265
 30
0.0
 40
0.4000000000000004
100
AcDbArc
 50
0.0
 51
90.0
  0
ARC
  5
155
330
126
100
AcDbEntity
  8
DV2_0
 62
     7
370
    35
100
AcDbCircle
 10
59.89398395710178
 20
232.1359997020265
 30
0.0
 40
0.4000000000000004
100
AcDbArc
 50
90.0
 51
180.0
  0
LINE
  5
156
330
126
100
AcDbEntity
  8
DV2_0
 62
     7
370
    35
100
AcDbLine
 10
59.49398395710179
 20
232.1359997020265
 30
0.0
 11
59.49398395710179
 21
220.546687143249
 31
0.0
  0
LINE
  5
157
330
126
100
AcDbEntity
  8
DV2_0
 62
     7
370
    35
100
AcDbLine
 10
69.49398395710179
 20
220.546687143249
 30
0.0
 11
69.49398395710179
 21
232.1359997020265
 31
0.0
  0
ARC
  5
158
330
126
100
AcDbEntity
  8
DV2_0
 62
     7
370
    35
100
AcDbCircle
 10
68.94398395710175
 20
220.546687143249
 30
0.0
 40
0.549999999999997
100
AcDbArc
 50
313.7021144373576
 51
0.0
  0
ARC
  5
159
330
126
100
AcDbEntity
  8
DV2_0
 62
     7
370
    35
100
AcDbCircle
 10
60.04398395710175
 20
220.546687143249
 30
0.0
 40
0.5499999999999949
100
AcDbArc
 50
180.0
 51
226.2978855626418
  0
ENDBLK
  5
15B
330
126
100
AcDbEntity
  8
0
100
AcDbBlockEnd
  0
BLOCK
  5
28E
330
15C
100
AcDbEntity
  8
0
100
AcDbBlockBegin
  2
SE2
 70
     0
 10
0.0
 20
0.0
 30
0.0
  3
SE2
  1

  0
ELLIPSE
  5
15F
330
15C
100
AcDbEntity
  8
DV3_0
 62
     7
370
    35
100
AcDbEllipse
 10
151.4091593394241
 20
43.04116047635634
 30
0.0
 11
-10.50000000000001
 21
6.591949208711868E-15
 31
0.0
210
0.0
220
0.0
230
1.0
 40
0.5773502691896256
 41
0.0000000000000011
 42
3.141592653589793
  0
ELLIPSE
  5
160
330
15C
100
AcDbEntity
  8
DV3_0
 62
     7
370
    35
100
AcDbEllipse
 10
151.4091593394241
 20
27.9359737291934
 30
0.0
 11
-8.750000000000002
 21
4.510281037539699E-15
 31
0.0
210
0.0
220
0.0
230
1.0
 40
0.5773502691896258
 41
0.0
 42
3.141592653589793
  0
ELLIPSE
  5
161
330
15C
100
AcDbEntity
  8
DV3_0
 62
     7
370
    35
100
AcDbEllipse
 10
151.4091593394241
 20
27.9359737291934
 30
0.0
 11
8.9
 21
-1.734723475976807E-15
 31
0.0
210
0.0
220
0.0
230
1.0
 40
0.5773502691896256
 41
0.0
 42
0.1838558621663698
  0
ELLIPSE
  5
162
330
15C
100
AcDbEntity
  8
DV3_0
 62
     7
370
    35
100
AcDbEllipse
 10
151.4091593394241
 20
27.9359737291934
 30
0.0
 11
8.9
 21
-1.734723475976807E-15
 31
0.0
210
0.0
220
0.0
230
1.0
 40
0.5773502691896256
 41
2.957736791423423
 42
6.283185307179586
  0
ELLIPSE
  5
163
330
15C
100
AcDbEntity
  8
DV3_0
 62
     7
370
    35
100
AcDbEllipse
 10
151.4091593394241
 20
43.98013154442322
 30
0.0
 11
-10.27
 21
1.734723475976807E-15
 31
0.0
210
0.0
220
0.0
230
1.0
 40
0.5773502691896258
 41
-0.0624187803674934
 42
-0.0378774819878087
  0
ELLIPSE
  5
164
330
15C
100
AcDbEntity
  8
DV3_0
 62
     7
370
    35
100
AcDbEllipse
 10
151.4091593394241
 20
43.98013154442322
 30
0.0
 11
-10.27
 21
1.734723475976807E-15
 31
0.0
210
0.0
220
0.0
230
1.0
 40
0.5773502691896258
 41
3.179470135577601
 42
3.204011433957286
  0
ELLIPSE
  5
165
330
15C
100
AcDbEntity
  8
DV3_0
 62
     7
370
    35
100
AcDbEllipse
 10
151.4091593394241
 20
27.3236012934976
 30
0.0
 11
8.899999999999997
 21
0.0
 31
0.0
210
0.0
220
0.0
230
1.0
 40
0.5773502691896262
 41
3.141592653589793
 42
6.283185307179586
  0
ELLIPSE
  5
166
330
15C
100
AcDbEntity
  8
DV3_0
 62
     7
370
    35
100
AcDbEllipse
 10
151.4091593394241
 20
44.42920466393346
 30
0.0
 11
-10.50000000000001
 21
5.551115123125782E-15
 31
0.0
210
0.0
220
0.0
230
1.0
 40
0.5773502691896256
 41
5.369557414666636
 42
6.283185307179584
  0
ELLIPSE
  5
167
330
15C
100
AcDbEntity
  8
DV3_0
 62
     7
370
    35
100
AcDbEllipse
 10
151.4091593394241
 20
44.42920466393346
 30
0.0
 11
-10.50000000000001
 21
5.551115123125782E-15
 31
0.0
210
0.0
220
0.0
230
1.0
 40
0.5773502691896256
 41
0.0
 42
4.363872907010222
  0
ELLIPSE
  5
168
330
15C
100
AcDbEntity
  8
DV3_0
 62
     7
370
    35
100
AcDbEllipse
 10
151.4091593394241
 20
44.42920466393348
 30
0.0
 11
-10.27
 21
1.387778780781446E-15
 31
0.0
210
0.0
220
0.0
230
1.0
 40
0.5773502691896254
 41
5.386954790285848
 42
6.283185307179586
  0
ELLIPSE
  5
169
330
15C
100
AcDbEntity
  8
DV3_0
 62
     7
370
    35
100
AcDbEllipse
 10
151.4091593394241
 20
44.42920466393348
 30
0.0
 11
-10.27
 21
1.387778780781446E-15
 31
0.0
210
0.0
220
0.0
230
1.0
 40
0.5773502691896254
 41
0.0000000000000002
 42
4.355723459884417
  0
LINE
  5
16A
330
15C
100
AcDbEntity
  8
DV3_0
 62
     7
370
    35
100
AcDbLine
 10
140.909159339424
 20
44.42920466393346
 30
0.0
 11
140.909159339424
 21
43.04116047635632
 31
0.0
  0
LINE
  5
16B
330
15C
100
AcDbEntity
  8
DV3_0
 62
     7
370
    35
100
AcDbLine
 10
161.9091593394241
 20
43.04116047635634
 30
0.0
 11
161.9091593394241
 21
44.42920466393348
 31
0.0
  0
LINE
  5
16C
330
15C
100
AcDbEntity
  8
DV3_0
 62
     7
370
    35
100
AcDbLine
 10
142.6591593394241
 20
39.69016559920915
 30
0.0
 11
142.6591593394241
 21
27.93597372919341
 31
0.0
  0
LINE
  5
16D
330
15C
100
AcDbEntity
  8
DV3_0
 62
     7
370
    35
100
AcDbLine
 10
160.1591593394241
 20
27.9359737291934
 30
0.0
 11
160.1591593394241
 21
39.69016559920915
 31
0.0
  0
LINE
  5
16E
330
15C
100
AcDbEntity
  8
DV3_0
 62
     7
370
    35
100
AcDbLine
 10
160.309159339424
 20
27.32360129349761
 30
0.0
 11
160.309159339424
 21
27.9359737291934
 31
0.0
  0
LINE
  5
16F
330
15C
100
AcDbEntity
  8
DV3_0
 62
     7
370
    35
100
AcDbLine
 10
142.5091593394241
 20
27.9359737291934
 30
0.0
 11
142.5091593394241
 21
27.32360129349761
 31
0.0
  0
ELLIPSE
  5
170
330
15C
100
AcDbEntity
  8
DV3_0
 62
     7
370
    35
100
AcDbEllipse
 10
151.4091593394241
 20
44.3883798348871
 30
0.0
 11
-10.25000000000001
 21
-4.510281037539698E-15
 31
0.0
210
0.0
220
0.0
230
1.0
 40
0.5773502691896254
 41
0.0
 42
0.2846946889990826
  0
ELLIPSE
  5
171
330
15C
100
AcDbEntity
  8
DV3_0
 62
     7
370
    35
100
AcDbEllipse
 10
151.4091593394241
 20
44.3883798348871
 30
0.0
 11
-10.25000000000001
 21
-4.510281037539698E-15
 31
0.0
210
0.0
220
0.0
230
1.0
 40
0.5773502691896254
 41
2.85689796459067
 42
4.354996335557471
  0
ELLIPSE
  5
172
330
15C
100
AcDbEntity
  8
DV3_0
 62
     7
370
    35
100
AcDbEllipse
 10
151.4091593394241
 20
44.3883798348871
 30
0.0
 11
-10.25000000000001
 21
-4.510281037539698E-15
 31
0.0
210
0.0
220
0.0
230
1.0
 40
0.5773502691896254
 41
5.388516181011244
 42
6.283185307179586
  0
ELLIPSE
  5
173
330
15C
100
AcDbEntity
  8
DV3_0
 62
     7
370
    35
100
AcDbEllipse
 10
149.994945777051
 20
45.20487641581482
 30
0.0
 11
6.000000000000002
 21
3.469446951953615E-15
 31
0.0
210
0.0
220
0.0
230
1.0
 40
0.577350269189626
 41
3.129807267770907
 42
6.283185307179584
  0
ELLIPSE
  5
174
330
15C
100
AcDbEntity
  8
DV3_0
 62
     7
370
    35
100
AcDbEllipse
 10
149.994945777051
 20
45.20487641581482
 30
0.0
 11
6.000000000000002
 21
3.469446951953615E-15
 31
0.0
210
0.0
220
0.0
230
1.0
 40
0.577350269189626
 41
0.0
 42
0.0117853858321503
  0
ELLIPSE
  5
175
330
15C
100
AcDbEntity
  8
DV3_0
 62
     7
370
    35
100
AcDbEllipse
 10
149.994945777051
 20
44.79662812535095
 30
0.0
 11
6.000000000000002
 21
1.734723475976807E-15
 31
0.0
210
0.0
220
0.0
230
1.0
 40
0.5773502691896258
 41
-3.212362390251968
 42
-3.200552372523621
  0
ELLIPSE
  5
176
330
15C
100
AcDbEntity
  8
DV3_0
 62
     7
370
    35
100
AcDbEllipse
 10
149.994945777051
 20
44.79662812535095
 30
0.0
 11
6.000000000000002
 21
1.734723475976807E-15
 31
0.0
210
0.0
220
0.0
230
1.0
 40
0.5773502691896258
 41
0.0589597189339077
 42
0.0707697366622425
  0
ELLIPSE
  5
177
330
15C
100
AcDbEntity
  8
DV3_0
 62
     7
370
    35
100
AcDbEllipse
 10
160.6128199343264
 20
44.3818716889205
 30
0.0
 11
0.9124999999999984
 21
1.691355389077387E-15
 31
0.0
210
0.0
220
0.0
230
1.0
 40
0.5773502691896264
 41
0.0
 42
6.283185307179586
  0
ELLIPSE
  5
178
330
15C
100
AcDbEntity
  8
DV3_0
 62
     7
370
    35
100
AcDbEllipse
 10
160.6128199343264
 20
43.97362339845665
 30
0.0
 11
-0.4124999999999986
 21
-3.122502256758252E-15
 31
0.0
210
0.0
220
0.0
230
1.0
 40
0.5773502691896272
 41
0.1200122790163105
 42
0.2822915387667227
  0
ELLIPSE
  5
179
330
15C
100
AcDbEntity
  8
DV3_0
 62
     7
370
    35
100
AcDbEllipse
 10
160.6128199343264
 20
43.97362339845665
 30
0.0
 11
-0.4124999999999986
 21
-3.122502256758252E-15
 31
0.0
210
0.0
220
0.0
230
1.0
 40
0.5773502691896272
 41
2.859301114821578
 42
3.021580374572899
  0
ELLIPSE
  5
17A
330
15C
100
AcDbEntity
  8
DV3_0
 62
     7
370
    35
100
AcDbEllipse
 10
151.4204317789013
 20
39.07464391289029
 30
0.0
 11
0.9125000000000003
 21
-5.637851296924623E-16
 31
0.0
210
0.0
220
0.0
230
1.0
 40
0.5773502691896251
 41
0.0
 42
6.283185307179586
  0
ELLIPSE
  5
17B
330
15C
100
AcDbEntity
  8
DV3_0
 62
     7
370
    35
100
AcDbEllipse
 10
151.4204317789013
 20
38.66639562242641
 30
0.0
 11
-0.4124999999999991
 21
-1.127570259384925E-15
 31
0.0
210
0.0
220
0.0
230
1.0
 40
0.5773502691896265
 41
0.1200122790163238
 42
0.282291538758814
  0
ELLIPSE
  5
17C
330
15C
100
AcDbEntity
  8
DV3_0
 62
     7
370
    35
100
AcDbEllipse
 10
151.4204317789013
 20
38.66639562242641
 30
0.0
 11
-0.4124999999999991
 21
-1.127570259384925E-15
 31
0.0
210
0.0
220
0.0
230
1.0
 40
0.5773502691896265
 41
2.859301114830728
 42
3.021580374572892
  0
ELLIPSE
  5
17D
330
15C
100
AcDbEntity
  8
DV3_0
 62
     7
370
    35
100
AcDbEllipse
 10
142.2054987445217
 20
44.39488798085367
 30
0.0
 11
0.9124999999999994
 21
2.255140518769849E-15
 31
0.0
210
0.0
220
0.0
230
1.0
 40
0.577350269189627
 41
0.0
 42
6.283185307179586
  0
ELLIPSE
  5
17E
330
15C
100
AcDbEntity
  8
DV3_0
 62
     7
370
    35
100
AcDbEllipse
 10
142.2054987445217
 20
43.98663969038981
 30
0.0
 11
-0.4125
 21
5.637851296924623E-16
 31
0.0
210
0.0
220
0.0
230
1.0
 40
0.5773502691896278
 41
0.1200122790169207
 42
0.2822915387687187
  0
ELLIPSE
  5
17F
330
15C
100
AcDbEntity
  8
DV3_0
 62
     7
370
    35
100
AcDbEllipse
 10
142.2054987445217
 20
43.98663969038981
 30
0.0
 11
-0.4125
 21
5.637851296924623E-16
 31
0.0
210
0.0
220
0.0
230
1.0
 40
0.5773502691896278
 41
2.85930111482256
 42
3.021580374573451
  0
ELLIPSE
  5
180
330
15C
100
AcDbEntity
  8
DV3_0
 62
     7
370
    35
100
AcDbEllipse
 10
155.934642739018
 20
41.77559077591837
 30
0.0
 11
0.7999999999999994
 21
2.255140518769849E-15
 31
0.0
210
0.0
220
0.0
230
1.0
 40
0.5773502691896253
 41
0.0
 42
6.283185307179586
  0
ELLIPSE
  5
181
330
15C
100
AcDbEntity
  8
DV3_0
 62
     7
370
    35
100
AcDbEllipse
 10
155.934642739018
 20
41.36734248545451
 30
0.0
 11
0.8000000000000013
 21
0.0
 31
0.0
210
0.0
220
0.0
230
1.0
 40
0.5773502691896261
 41
2.004723393887265
 42
2.683830534442807
  0
ELLIPSE
  5
182
330
15C
100
AcDbEntity
  8
DV3_0
 62
     7
370
    35
100
AcDbEllipse
 10
155.934642739018
 20
41.36734248545451
 30
0.0
 11
0.8000000000000013
 21
0.0
 31
0.0
210
0.0
220
0.0
230
1.0
 40
0.5773502691896261
 41
0.4577621191469863
 42
0.8004436563264604
  0
LINE
  5
183
330
15C
100
AcDbEntity
  8
DV3_0
 62
     7
370
    35
100
AcDbLine
 10
156.0755404562013
 20
48.71340659546772
 30
0.0
 11
155.9867244592767
 21
48.74228303288708
 31
0.0
  0
SPLINE
  5
184
330
15C
100
AcDbEntity
  8
DV3_0
 62
     7
370
    35
100
AcDbSpline
210
0.0
220
0.0
230
1.0
 70
     8
 71
     3
 72
    24
 73
    20
 74
     0
 42
0.000000001
 43
0.0000000001
 40
0.0
 40
0.0
 40
0.0
 40
0.0
 40
0.2722966659430821
 40
0.2722966659430821
 40
0.2722966659430821
 40
0.3487132484614281
 40
0.3487132484614281
 40
0.4251298309797747
 40
0.4251298309797747
 40
0.4251298309797747
 40
0.4898189083454266
 40
0.4898189083454266
 40
0.6016929597895566
 40
0.6016929597895566
 40
0.6016929597895566
 40
0.7277313724601802
 40
0.7277313724601802
 40
0.7277313724601802
 40
1.0
 40
1.0
 40
1.0
 40
1.0
 10
155.9867244592767
 20
48.74228303288708
 30
0.0
 10
156.0597268178691
 20
48.81712810653739
 30
0.0
 10
156.1327291764616
 20
48.8919731801877
 30
0.0
 10
156.205731535054
 20
48.966818253838
 30
0.0
 10
156.2388225695717
 20
49.00074456749956
 30
0.0
 10
156.2572411346634
 20
49.02750252659449
 30
0.0
 10
156.267032795193
 20
49.06661633226614
 30
0.0
 10
156.2600653941652
 20
49.08491367337246
 30
0.0
 10
156.2421885341199
 20
49.10232357114346
 30
0.0
 10
156.2244427530569
 20
49.11960581385207
 30
0.0
 10
156.1960566009909
 20
49.13437766350997
 30
0.0
 10
156.0919893722713
 20
49.16821268109224
 30
0.0
 10
156.0370026361452
 20
49.17483377947826
 30
0.0
 10
155.9922671441669
 20
49.16652427017476
 30
0.0
 10
155.9478913399316
 20
49.1582815719985
 30
0.0
 10
155.9017980993836
 20
49.13010440306154
 30
0.0
 10
155.854056072484
 20
49.0811572787712
 30
0.0
 10
155.7810537138916
 20
49.00631220512089
 30
0.0
 10
155.7080513552992
 20
48.93146713147058
 30
0.0
 10
155.6350489967068
 20
48.85662205782027
 30
0.0
  0
LINE
  5
185
330
15C
100
AcDbEntity
  8
DV3_0
 62
     7
370
    35
100
AcDbLine
 10
155.6350489967068
 20
48.85662205782027
 30
0.0
 11
155.5462329997822
 21
48.88549849523962
 31
0.0
  0
SPLINE
  5
186
330
15C
100
AcDbEntity
  8
DV3_0
 62
     7
370
    35
100
AcDbSpline
210
0.0
220
0.0
230
1.0
 70
     8
 71
     3
 72
    26
 73
    22
 74
     0
 42
0.000000001
 43
0.0000000001
 40
0.0
 40
0.0
 40
0.0
 40
0.0
 40
0.2292328751838727
 40
0.2292328751838727
 40
0.2292328751838727
 40
0.3205751777253577
 40
0.3205751777253577
 40
0.4119174802668428
 40
0.4119174802668428
 40
0.5032597828083302
 40
0.5032597828083302
 40
0.5926991207135364
 40
0.5926991207135364
 40
0.5926991207135364
 40
0.6694196472376215
 40
0.6694196472376215
 40
0.6694196472376215
 40
0.7707848380745643
 40
0.7707848380745643
 40
0.7707848380745643
 40
1.0
 40
1.0
 40
1.0
 40
1.0
 10
155.5462329997822
 20
48.88549849523962
 30
0.0
 10
155.6193195594803
 20
48.96042989538779
 30
0.0
 10
155.6924061191783
 20
49.03536129553597
 30
0.0
 10
155.7654926788764
 20
49.11029269568415
 30
0.0
 10
155.8036357797326
 20
49.1493985992177
 30
0.0
 10
155.8415737936616
 20
49.1779968483682
 30
0.0
 10
155.9170396476652
 20
49.21417803790311
 30
0.0
 10
155.9630381562282
 20
49.22378244467461
 30
0.0
 10
156.0711744118281
 20
49.22682852239897
 30
0.0
 10
156.130476881386
 20
49.216757619342
 30
0.0
 10
156.2583180890805
 20
49.17519305032929
 30
0.0
 10
156.303840658193
 20
49.15220587428479
 30
0.0
 10
156.3316380410324
 20
49.1267950458126
 30
0.0
 10
156.3595659152533
 20
49.10126492934367
 30
0.0
 10
156.3702087893959
 20
49.0736628753411
 30
0.0
 10
156.3640147785977
 20
49.0442948193949
 30
0.0
 10
156.3577970120052
 20
49.01481412859546
 30
0.0
 10
156.3352166660041
 20
48.97963751488821
 30
0.0
 10
156.2948001352955
 20
48.93820079591225
 30
0.0
 10
156.2217135755974
 20
48.86326939576408
 30
0.0
 10
156.1486270158993
 20
48.7883379956159
 30
0.0
 10
156.0755404562013
 20
48.71340659546772
 30
0.0
  0
LINE
  5
187
330
15C
100
AcDbEntity
  8
DV3_0
 62
     7
370
    35
100
AcDbLine
 10
156.55772794247
 20
48.99843045908063
 30
0.0
 11
156.608812289069
 21
49.04235186460481
 31
0.0
  0
LINE
  5
188
330
15C
100
AcDbEntity
  8
DV3_0
 62
     7
370
    35
100
AcDbLine
 10
156.608812289069
 20
48.97862530609346
 30
0.0
 11
156.608812289069
 21
49.04235186460481
 31
0.0
  0
LINE
  5
189
330
15C
100
AcDbEntity
  8
DV3_0
 62
     7
370
    35
100
AcDbLine
 10
156.608812289069
 20
49.04235186460481
 30
0.0
 11
157.0105519494806
 21
48.88659935008388
 31
0.0
  0
LINE
  5
18A
330
15C
100
AcDbEntity
  8
DV3_0
 62
     7
370
    35
100
AcDbLine
 10
157.0105519494806
 20
48.88659935008387
 30
0.0
 11
156.5792049105008
 21
48.51573489782072
 31
0.0
  0
LINE
  5
18B
330
15C
100
AcDbEntity
  8
DV3_0
 62
     7
370
    35
100
AcDbLine
 10
156.5792049105008
 20
48.51573489782073
 30
0.0
 11
156.4945831522439
 21
48.54854234236875
 31
0.0
  0
LINE
  5
18C
330
15C
100
AcDbEntity
  8
DV3_0
 62
     7
370
    35
100
AcDbLine
 10
156.4945831522439
 20
48.54854234236875
 30
0.0
 11
156.8748458446246
 21
48.87548538910772
 31
0.0
  0
LINE
  5
18D
330
15C
100
AcDbEntity
  8
DV3_0
 62
     7
370
    35
100
AcDbLine
 10
156.8748458446246
 20
48.76992167364679
 30
0.0
 11
156.8748458446246
 21
48.87548538910772
 31
0.0
  0
LINE
  5
18E
330
15C
100
AcDbEntity
  8
DV3_0
 62
     7
370
    35
100
AcDbLine
 10
156.8748458446246
 20
48.87548538910772
 30
0.0
 11
156.55772794247
 21
48.99843045908062
 31
0.0
  0
LINE
  5
18F
330
15C
100
AcDbEntity
  8
DV3_0
 62
     7
370
    35
100
AcDbLine
 10
156.7187941538799
 20
48.45241962407353
 30
0.0
 11
157.1824473955782
 21
48.81005410477349
 31
0.0
  0
LINE
  5
190
330
15C
100
AcDbEntity
  8
DV3_0
 62
     7
370
    35
100
AcDbLine
 10
157.1824473955782
 20
48.7118458060005
 30
0.0
 11
157.1824473955782
 21
48.81005410477349
 31
0.0
  0
LINE
  5
191
330
15C
100
AcDbEntity
  8
DV3_0
 62
     7
370
    35
100
AcDbLine
 10
157.1824473955782
 20
48.81005410477349
 30
0.0
 11
157.2640504135688
 21
48.77478951120514
 31
0.0
  0
LINE
  5
192
330
15C
100
AcDbEntity
  8
DV3_0
 62
     7
370
    35
100
AcDbLine
 10
157.2640504135688
 20
48.77478951120514
 30
0.0
 11
156.8003971718705
 21
48.41715503050518
 31
0.0
  0
LINE
  5
193
330
15C
100
AcDbEntity
  8
DV3_0
 62
     7
370
    35
100
AcDbLine
 10
156.8003971718705
 20
48.41715503050517
 30
0.0
 11
156.7187941538798
 21
48.45241962407351
 31
0.0
  0
LINE
  5
194
330
15C
100
AcDbEntity
  8
DV3_0
 62
     7
370
    35
100
AcDbLine
 10
157.1540305749467
 20
48.25054545697729
 30
0.0
 11
157.1540305749467
 21
48.31916092410154
 31
0.0
  0
LINE
  5
195
330
15C
100
AcDbEntity
  8
DV3_0
 62
     7
370
    35
100
AcDbLine
 10
157.1540305749467
 20
48.31916092410153
 30
0.0
 11
157.5922739795657
 21
48.62133100194826
 31
0.0
  0
LINE
  5
196
330
15C
100
AcDbEntity
  8
DV3_0
 62
     7
370
    35
100
AcDbLine
 10
157.5922739795656
 20
48.52966450328276
 30
0.0
 11
157.5922739795656
 21
48.62133100194826
 31
0.0
  0
LINE
  5
197
330
15C
100
AcDbEntity
  8
DV3_0
 62
     7
370
    35
100
AcDbLine
 10
157.5922739795656
 20
48.62133100194825
 30
0.0
 11
157.6704248374969
 21
48.58354974280028
 31
0.0
  0
LINE
  5
198
330
15C
100
AcDbEntity
  8
DV3_0
 62
     7
370
    35
100
AcDbLine
 10
157.6704248374969
 20
48.58354974280029
 30
0.0
 11
157.232181432878
 21
48.28137966495356
 31
0.0
  0
LINE
  5
199
330
15C
100
AcDbEntity
  8
DV3_0
 62
     7
370
    35
100
AcDbLine
 10
157.232181432878
 20
48.21276419782932
 30
0.0
 11
157.232181432878
 21
48.28137966495356
 31
0.0
  0
LINE
  5
19A
330
15C
100
AcDbEntity
  8
DV3_0
 62
     7
370
    35
100
AcDbLine
 10
157.232181432878
 20
48.28137966495356
 30
0.0
 11
157.4271638764033
 21
48.18711733152378
 31
0.0
  0
LINE
  5
19B
330
15C
100
AcDbEntity
  8
DV3_0
 62
     7
370
    35
100
AcDbLine
 10
157.4271638764033
 20
48.18711733152377
 30
0.0
 11
157.3686653223931
 21
48.14678241163021
 31
0.0
  0
LINE
  5
19C
330
15C
100
AcDbEntity
  8
DV3_0
 62
     7
370
    35
100
AcDbLine
 10
157.3686653223931
 20
48.14678241163021
 30
0.0
 11
156.9001548761084
 21
48.37327915207789
 31
0.0
  0
LINE
  5
19D
330
15C
100
AcDbEntity
  8
DV3_0
 62
     7
370
    35
100
AcDbLine
 10
156.9001548761085
 20
48.37327915207789
 30
0.0
 11
156.9586534301187
 21
48.41361407197146
 31
0.0
  0
LINE
  5
19E
330
15C
100
AcDbEntity
  8
DV3_0
 62
     7
370
    35
100
AcDbLine
 10
156.9586534301187
 20
48.34499860484721
 30
0.0
 11
156.9586534301187
 21
48.41361407197145
 31
0.0
  0
LINE
  5
19F
330
15C
100
AcDbEntity
  8
DV3_0
 62
     7
370
    35
100
AcDbLine
 10
156.9586534301187
 20
48.41361407197145
 30
0.0
 11
157.1540305749467
 21
48.31916092410152
 31
0.0
  0
LINE
  5
1A0
330
15C
100
AcDbEntity
  8
DV3_0
 62
     7
370
    35
100
AcDbLine
 10
158.0620017209314
 20
48.06090121043857
 30
0.0
 11
158.0620017209314
 21
48.12070501906434
 31
0.0
  0
LINE
  5
1A1
330
15C
100
AcDbEntity
  8
DV3_0
 62
     7
370
    35
100
AcDbLine
 10
158.0620017209314
 20
48.12070501906433
 30
0.0
 11
157.8745533692115
 21
48.22684126107523
 31
0.0
  0
ARC
  5
1A2
330
15C
100
AcDbEntity
  8
DV3_0
 62
     7
370
    35
100
AcDbCircle
 10
154.2098344256277
 20
50.96899491939013
 30
0.0
 40
4.577070200605576
100
AcDbArc
 50
319.8376575337678
 51
323.1940498295257
  0
LINE
  5
1A3
330
15C
100
AcDbEntity
  8
DV3_0
 62
     7
370
    35
100
AcDbLine
 10
158.1413530463303
 20
48.08193030863747
 30
0.0
 11
158.1413530463303
 21
48.14279925108714
 31
0.0
  0
LINE
  5
1A4
330
15C
100
AcDbEntity
  8
DV3_0
 62
     7
370
    35
100
AcDbLine
 10
158.1413530463303
 20
48.14279925108714
 30
0.0
 11
158.3652712067383
 21
48.20542948575369
 31
0.0
  0
LINE
  5
1A5
330
15C
100
AcDbEntity
  8
DV3_0
 62
     7
370
    35
100
AcDbLine
 10
158.3652712067383
 20
48.14127143444816
 30
0.0
 11
158.3652712067383
 21
48.20542948575369
 31
0.0
  0
LINE
  5
1A6
330
15C
100
AcDbEntity
  8
DV3_0
 62
     7
370
    35
100
AcDbLine
 10
158.3652712067383
 20
48.2054294857537
 30
0.0
 11
158.4424558221524
 21
48.16172632727862
 31
0.0
  0
LINE
  5
1A7
330
15C
100
AcDbEntity
  8
DV3_0
 62
     7
370
    35
100
AcDbLine
 10
158.4424558221524
 20
48.16172632727861
 30
0.0
 11
157.6897168035068
 21
47.96224102994194
 31
0.0
  0
LINE
  5
1A8
330
15C
100
AcDbEntity
  8
DV3_0
 62
     7
370
    35
100
AcDbLine
 10
157.6897168035067
 20
47.96224102994195
 30
0.0
 11
157.6099593675789
 21
48.0074009603662
 31
0.0
  0
LINE
  5
1A9
330
15C
100
AcDbEntity
  8
DV3_0
 62
     7
370
    35
100
AcDbLine
 10
157.6099593675789
 20
48.0074009603662
 30
0.0
 11
157.926421536241
 21
48.45391315822628
 31
0.0
  0
LINE
  5
1AA
330
15C
100
AcDbEntity
  8
DV3_0
 62
     7
370
    35
100
AcDbLine
 10
157.926421536241
 20
48.29666073047434
 30
0.0
 11
157.926421536241
 21
48.45391315822629
 31
0.0
  0
LINE
  5
1AB
330
15C
100
AcDbEntity
  8
DV3_0
 62
     7
370
    35
100
AcDbLine
 10
157.926421536241
 20
48.45391315822628
 30
0.0
 11
158.0094868842581
 21
48.40688023529596
 31
0.0
  0
LINE
  5
1AC
330
15C
100
AcDbEntity
  8
DV3_0
 62
     7
370
    35
100
AcDbLine
 10
158.0094868842581
 20
48.40688023529596
 30
0.0
 11
157.9094316543004
 21
48.27411683679083
 31
0.0
  0
LINE
  5
1AD
330
15C
100
AcDbEntity
  8
DV3_0
 62
     7
370
    35
100
AcDbLine
 10
157.9094316543004
 20
48.20709262059295
 30
0.0
 11
157.9094316543004
 21
48.27411683679082
 31
0.0
  0
LINE
  5
1AE
330
15C
100
AcDbEntity
  8
DV3_0
 62
     7
370
    35
100
AcDbLine
 10
157.9094316543004
 20
48.27411683679082
 30
0.0
 11
158.1413530463303
 21
48.14279925108714
 31
0.0
  0
LINE
  5
1AF
330
15C
100
AcDbEntity
  8
DV3_0
 62
     7
370
    35
100
AcDbLine
 10
157.7077234234212
 20
47.96701301045402
 30
0.0
 11
157.7077234234212
 21
48.01698811377681
 31
0.0
  0
ARC
  5
1B0
330
15C
100
AcDbEntity
  8
DV3_0
 62
     7
370
    35
100
AcDbCircle
 10
158.926921898847
 20
44.50935929542865
 30
0.0
 40
3.713476114072512
100
AcDbArc
 50
103.4686857377922
 51
109.1666746286576
  0
LINE
  5
1B1
330
15C
100
AcDbEntity
  8
DV3_0
 62
     7
370
    35
100
AcDbLine
 10
157.9013813499516
 20
47.83626889086541
 30
0.0
 11
158.6835836201751
 21
47.99703531014889
 31
0.0
  0
LINE
  5
1B2
330
15C
100
AcDbEntity
  8
DV3_0
 62
     7
370
    35
100
AcDbLine
 10
158.6835836201751
 20
47.87325524549715
 30
0.0
 11
158.6835836201751
 21
47.99703531014889
 31
0.0
  0
LINE
  5
1B3
330
15C
100
AcDbEntity
  8
DV3_0
 62
     7
370
    35
100
AcDbLine
 10
158.6835836201751
 20
47.99703531014889
 30
0.0
 11
158.7543125480337
 21
47.94983085484117
 31
0.0
  0
LINE
  5
1B4
330
15C
100
AcDbEntity
  8
DV3_0
 62
     7
370
    35
100
AcDbLine
 10
158.7543125480337
 20
47.94983085484117
 30
0.0
 11
158.3641506207975
 21
47.52741688328061
 31
0.0
  0
LINE
  5
1B5
330
15C
100
AcDbEntity
  8
DV3_0
 62
     7
370
    35
100
AcDbLine
 10
158.3641506207975
 20
47.5274168832806
 30
0.0
 11
158.2917376708471
 21
47.57574525419088
 31
0.0
  0
ARC
  5
1B6
330
15C
100
AcDbEntity
  8
DV3_0
 62
     7
370
    35
100
AcDbCircle
 10
163.2934090365916
 20
42.98039658875678
 30
0.0
 40
6.792197421145502
100
AcDbArc
 50
133.0781433827751
 51
137.4243650886999
  0
LINE
  5
1B7
330
15C
100
AcDbEntity
  8
DV3_0
 62
     7
370
    35
100
AcDbLine
 10
158.654370875093
 20
47.84162768060956
 30
0.0
 11
158.654370875093
 21
47.94157293554949
 31
0.0
  0
ARC
  5
1B8
330
15C
100
AcDbEntity
  8
DV3_0
 62
     7
370
    35
100
AcDbCircle
 10
155.1042864042692
 20
62.4160853327977
 30
0.0
 40
14.90350995195683
100
AcDbArc
 50
281.0851646761834
 51
283.780597979357
  0
LINE
  5
1B9
330
15C
100
AcDbEntity
  8
DV3_0
 62
     7
370
    35
100
AcDbLine
 10
157.9697526468816
 20
47.79063791740128
 30
0.0
 11
157.9013813499517
 21
47.83626889086541
 31
0.0
  0
SPLINE
  5
1BA
330
15C
100
AcDbEntity
  8
DV3_0
 62
     7
370
    35
100
AcDbSpline
210
0.0
220
0.0
230
1.0
 70
    11
 71
     3
 72
    29
 73
    25
 74
     0
 42
0.000000001
 43
0.0000000001
 40
0.0
 40
0.0
 40
0.0
 40
0.0
 40
0.1293055361544339
 40
0.1293055361544339
 40
0.1293055361544339
 40
0.2434456795884786
 40
0.2434456795884786
 40
0.3591387501440764
 40
0.3591387501440764
 40
0.3591387501440764
 40
0.4979253625313684
 40
0.4979253625313684
 40
0.5852035414553355
 40
0.5852035414553355
 40
0.5852035414553355
 40
0.6643341335063765
 40
0.6643341335063765
 40
0.6643341335063765
 40
0.7428412948431294
 40
0.7428412948431294
 40
0.8546545246257783
 40
0.8546545246257783
 40
0.8546545246257783
 40
1.0
 40
1.0
 40
1.0
 40
1.0
 10
159.0863496168259
 20
47.33823564520459
 30
0.0
 10
159.1619382009536
 20
47.36969287587108
 30
0.0
 10
159.2072081594333
 20
47.4061191536402
 30
0.0
 10
159.2211398258138
 20
47.44782290363968
 30
0.0
 10
159.2350046311117
 20
47.48932650831595
 30
0.0
 10
159.2203635266654
 20
47.52773851999996
 30
0.0
 10
159.1312601319316
 20
47.59910737337322
 30
0.0
 10
159.0725180018015
 20
47.61972658884713
 30
0.0
 10
158.9990512309166
 20
47.62469188840817
 30
0.0
 10
158.9263068506584
 20
47.6296083647282
 30
0.0
 10
158.8493280208254
 20
47.61550858107562
 30
0.0
 10
158.7173612109671
 20
47.56058877505014
 30
0.0
 10
158.6794153879828
 20
47.53710297765833
 30
0.0
 10
158.6533366954592
 20
47.51122811640715
 30
0.0
 10
158.627389103312
 20
47.48548333085078
 30
0.0
 10
158.6163873727678
 20
47.45847970488153
 30
0.0
 10
158.6195885469998
 20
47.4305009828659
 30
0.0
 10
158.622760946632
 20
47.40277375498076
 30
0.0
 10
158.6388395074939
 20
47.37695957226843
 30
0.0
 10
158.711085503224
 20
47.31909293439822
 30
0.0
 10
158.7675551174421
 20
47.29826075348851
 30
0.0
 10
158.8384674398739
 20
47.29076683827238
 30
0.0
 10
158.9097449915032
 20
47.28323432614462
 30
0.0
 10
158.9919682907881
 20
47.2989575560851
 30
0.0
 10
159.0863496168259
 20
47.33823564520459
 30
0.0
  0
SPLINE
  5
1BB
330
15C
100
AcDbEntity
  8
DV3_0
 62
     7
370
    35
100
AcDbSpline
210
0.0
220
0.0
230
1.0
 70
    11
 71
     3
 72
    34
 73
    30
 74
     0
 42
0.000000001
 43
0.0000000001
 40
0.0
 40
0.0
 40
0.0
 40
0.0
 40
0.1272149066066374
 40
0.1272149066066374
 40
0.2544298132132748
 40
0.2544298132132748
 40
0.3372395165704252
 40
0.3372395165704252
 40
0.3372395165704252
 40
0.4173908743980872
 40
0.4173908743980872
 40
0.4173908743980872
 40
0.5050162553902596
 40
0.5050162553902596
 40
0.5938099747956609
 40
0.5938099747956609
 40
0.5938099747956609
 40
0.6745860655729913
 40
0.6745860655729913
 40
0.6745860655729913
 40
0.7526551498014479
 40
0.7526551498014479
 40
0.8379306110356078
 40
0.8379306110356078
 40
0.8379306110356078
 40
0.9183935050482327
 40
0.9183935050482327
 40
0.9183935050482327
 40
1.0
 40
1.0
 40
1.0
 40
1.0
 10
159.1471079137003
 20
47.28804539046912
 30
0.0
 10
159.0431214084638
 20
47.24476997369588
 30
0.0
 10
158.9415175197117
 20
47.22703402347165
 30
0.0
 10
158.7430749751758
 20
47.24264105612129
 30
0.0
 10
158.6613468826843
 20
47.27201368091577
 30
0.0
 10
158.5559881389112
 20
47.35640252780983
 30
0.0
 10
158.5325589766895
 20
47.39245049475394
 30
0.0
 10
158.526406866817
 20
47.43092551815776
 30
0.0
 10
158.5202955283237
 20
47.46914555915796
 30
0.0
 10
158.5338069917202
 20
47.50581697228568
 30
0.0
 10
158.5656262882055
 20
47.54030943860328
 30
0.0
 10
158.5977695201478
 20
47.57515305450858
 30
0.0
 10
158.6447930609551
 20
47.60549781001365
 30
0.0
 10
158.7709132399969
 20
47.65798446007598
 30
0.0
 10
158.8374584731497
 20
47.6743201884191
 30
0.0
 10
158.9059349754916
 20
47.68046804050173
 30
0.0
 10
158.974641987554
 20
47.6866365878538
 30
0.0
 10
159.0389047765753
 20
47.68121363912581
 30
0.0
 10
159.0988128217522
 20
47.66474350210827
 30
0.0
 10
159.1583133782694
 20
47.64838539335071
 30
0.0
 10
159.2076733843832
 20
47.62431284079983
 30
0.0
 10
159.289552179544
 20
47.55873065121359
 30
0.0
 10
159.313282366748
 20
47.52244157327836
 30
0.0
 10
159.3182982186644
 20
47.48386006715664
 30
0.0
 10
159.323346927445
 20
47.44502582883194
 30
0.0
 10
159.3100628607875
 20
47.4086210193197
 30
0.0
 10
159.2775249228331
 20
47.37419586713871
 30
0.0
 10
159.2451028580638
 20
47.33989330883683
 30
0.0
 10
159.2022332899702
 20
47.31098657526459
 30
0.0
 10
159.1471079137003
 20
47.28804539046912
 30
0.0
  0
LINE
  5
1BC
330
15C
100
AcDbEntity
  8
DV3_0
 62
     7
370
    35
100
AcDbLine
 10
159.2967686522042
 20
46.81053061936178
 30
0.0
 11
159.2967686522042
 21
46.87642389912313
 31
0.0
  0
LINE
  5
1BD
330
15C
100
AcDbEntity
  8
DV3_0
 62
     7
370
    35
100
AcDbLine
 10
159.2967686522042
 20
46.87642389912313
 30
0.0
 11
159.8201178558497
 21
47.05448649145677
 31
0.0
  0
LINE
  5
1BE
330
15C
100
AcDbEntity
  8
DV3_0
 62
     7
370
    35
100
AcDbLine
 10
159.8201178558497
 20
46.98859321169542
 30
0.0
 11
159.8201178558497
 21
47.05448649145677
 31
0.0
  0
LINE
  5
1BF
330
15C
100
AcDbEntity
  8
DV3_0
 62
     7
370
    35
100
AcDbLine
 10
159.8201178558497
 20
47.05448649145677
 30
0.0
 11
159.8700390170855
 21
47.00557822155123
 31
0.0
  0
LINE
  5
1C0
330
15C
100
AcDbEntity
  8
DV3_0
 62
     7
370
    35
100
AcDbLine
 10
159.8700390170855
 20
47.00557822155123
 30
0.0
 11
159.2034340568489
 21
46.77877476707879
 31
0.0
  0
LINE
  5
1C1
330
15C
100
AcDbEntity
  8
DV3_0
 62
     7
370
    35
100
AcDbLine
 10
159.2034340568489
 20
46.7787747670788
 30
0.0
 11
159.150115120241
 21
46.8310118721088
 31
0.0
  0
LINE
  5
1C2
330
15C
100
AcDbEntity
  8
DV3_0
 62
     7
370
    35
100
AcDbLine
 10
159.150115120241
 20
46.8310118721088
 30
0.0
 11
159.4672454955356
 21
47.21110915007318
 31
0.0
  0
LINE
  5
1C3
330
15C
100
AcDbEntity
  8
DV3_0
 62
     7
370
    35
100
AcDbLine
 10
159.4672454955356
 20
47.08074927806559
 30
0.0
 11
159.4672454955356
 21
47.21110915007319
 31
0.0
  0
LINE
  5
1C4
330
15C
100
AcDbEntity
  8
DV3_0
 62
     7
370
    35
100
AcDbLine
 10
159.4672454955356
 20
47.21110915007319
 30
0.0
 11
158.9438962918901
 21
47.03304655773955
 31
0.0
  0
LINE
  5
1C5
330
15C
100
AcDbEntity
  8
DV3_0
 62
     7
370
    35
100
AcDbLine
 10
158.9438962918901
 20
47.03304655773955
 30
0.0
 11
158.893713763318
 21
47.08221089188543
 31
0.0
  0
LINE
  5
1C6
330
15C
100
AcDbEntity
  8
DV3_0
 62
     7
370
    35
100
AcDbLine
 10
158.893713763318
 20
47.08221089188542
 30
0.0
 11
159.5603187235546
 21
47.30901434635786
 31
0.0
  0
LINE
  5
1C7
330
15C
100
AcDbEntity
  8
DV3_0
 62
     7
370
    35
100
AcDbLine
 10
159.5603187235546
 20
47.1923023911615
 30
0.0
 11
159.5603187235546
 21
47.30901434635786
 31
0.0
  0
LINE
  5
1C8
330
15C
100
AcDbEntity
  8
DV3_0
 62
     7
370
    35
100
AcDbLine
 10
159.5603187235546
 20
47.30901434635786
 30
0.0
 11
159.6138990274988
 21
47.25652117708751
 31
0.0
  0
LINE
  5
1C9
330
15C
100
AcDbEntity
  8
DV3_0
 62
     7
370
    35
100
AcDbLine
 10
159.6138990274988
 20
47.25652117708751
 30
0.0
 11
159.2967686522042
 21
46.87642389912312
 31
0.0
  0
SPLINE
  5
1CA
330
15C
100
AcDbEntity
  8
DV3_0
 62
     7
370
    35
100
AcDbSpline
210
0.0
220
0.0
230
1.0
 70
    11
 71
     3
 72
    29
 73
    25
 74
     0
 42
0.000000001
 43
0.0000000001
 40
0.0
 40
0.0
 40
0.0
 40
0.0
 40
0.1292931142288072
 40
0.1292931142288072
 40
0.1292931142288072
 40
0.2434222926228785
 40
0.2434222926228785
 40
0.3591042489542855
 40
0.3591042489542855
 40
0.3591042489542855
 40
0.4978847304541261
 40
0.4978847304541261
 40
0.5851590538715514
 40
0.5851590538715514
 40
0.5851590538715514
 40
0.6640719154630759
 40
0.6640719154630759
 40
0.6640719154630759
 40
0.7426930014083617
 40
0.7426930014083617
 40
0.8546684874516475
 40
0.8546684874516475
 40
0.8546684874516475
 40
1.0
 40
1.0
 40
1.0
 40
1.0
 10
145.9430702191589
 20
40.10027228794558
 30
0.0
 10
145.8906509192317
 20
40.05579561567352
 30
0.0
 10
145.8696661745052
 20
40.01263069640698
 30
0.0
 10
145.8812568193008
 20
39.9706888454964
 30
0.0
 10
145.8927918380832
 20
39.92894828260685
 30
0.0
 10
145.929286883959
 20
39.89573723278521
 30
0.0
 10
146.0552681735366
 20
39.84624423892107
 30
0.0
 10
146.1226781950824
 20
39.83845572199586
 30
0.0
 10
146.1946611997045
 20
39.84828384608007
 30
0.0
 10
146.2662746136996
 20
39.85806150849545
 30
0.0
 10
146.329935792632
 20
39.88645374499263
 30
0.0
 10
146.4214523604606
 20
39.96410362586541
 30
0.0
 10
146.4432130942375
 20
39.99366206507112
 30
0.0
 10
146.4524070472325
 20
40.02312444088825
 30
0.0
 10
146.4615547812425
 20
40.05243870619118
 30
0.0
 10
146.4559112973058
 20
40.07998730936499
 30
0.0
 10
146.4367683821806
 20
40.10548296168861
 30
0.0
 10
146.4174524559245
 20
40.13120904034027
 30
0.0
 10
146.386560580021
 20
40.15217034622179
 30
0.0
 10
146.2844135884716
 20
40.19229980070622
 30
0.0
 10
146.2190132294227
 20
40.2007368153952
 30
0.0
 10
146.1479342594684
 20
40.19378906279245
 30
0.0
 10
146.0764892020094
 20
40.18680552625226
 30
0.0
 10
146.0085219417198
 20
40.15580669641788
 30
0.0
 10
145.9430702191589
 20
40.10027228794558
 30
0.0
  0
SPLINE
  5
1CB
330
15C
100
AcDbEntity
  8
DV3_0
 62
     7
370
    35
100
AcDbSpline
210
0.0
220
0.0
230
1.0
 70
    11
 71
     3
 72
    35
 73
    31
 74
     0
 42
0.000000001
 43
0.0000000001
 40
0.0
 40
0.0
 40
0.0
 40
0.0
 40
0.1332774546593269
 40
0.1332774546593269
 40
0.1332774546593269
 40
0.2564673865178754
 40
0.2564673865178754
 40
0.3372381437270175
 40
0.3372381437270175
 40
0.3372381437270175
 40
0.4173896675803644
 40
0.4173896675803644
 40
0.4173896675803644
 40
0.5050152300799282
 40
0.5050152300799282
 40
0.5938091334128199
 40
0.5938091334128199
 40
0.5938091334128199
 40
0.6745853915099084
 40
0.6745853915099084
 40
0.6745853915099084
 40
0.7526546374508235
 40
0.7526546374508235
 40
0.8379302753247476
 40
0.8379302753247476
 40
0.8379302753247476
 40
0.9183933360083739
 40
0.9183933360083739
 40
0.9183933360083739
 40
1.0
 40
1.0
 40
1.0
 40
1.0
 10
145.8562628795879
 20
40.13545391879141
 30
0.0
 10
145.9283756181617
 20
40.19664005909939
 30
0.0
 10
146.0137910971806
 20
40.23318690386316
 30
0.0
 10
146.1112324792502
 20
40.24559607126378
 30
0.0
 10
146.2090188095182
 20
40.25804916784364
 30
0.0
 10
146.3032926970153
 20
40.24635803461245
 30
0.0
 10
146.4526826721563
 20
40.18766870742897
 30
0.0
 10
146.4956118984668
 20
40.1585804219274
 30
0.0
 10
146.5241662746602
 20
40.12363533007431
 30
0.0
 10
146.5525314147511
 20
40.08892182699564
 30
0.0
 10
146.5615384244527
 20
40.05179227433786
 30
0.0
 10
146.5520500391706
 20
40.01309848124571
 30
0.0
 10
146.5424650576479
 20
39.97401076707628
 30
0.0
 10
146.5162327599308
 20
39.9362152977423
 30
0.0
 10
146.4287707235882
 20
39.86200560146516
 30
0.0
 10
146.3759002504946
 20
39.83352432579311
 30
0.0
 10
146.3151847631189
 20
39.81423659894061
 30
0.0
 10
146.2542648916182
 20
39.794883944582
 30
0.0
 10
146.1906609241823
 20
39.78730180552747
 30
0.0
 10
146.1246109333657
 20
39.79096098713801
 30
0.0
 10
146.0590102081219
 20
39.79459527935337
 30
0.0
 10
145.9983735525537
 20
39.80748027791763
 30
0.0
 10
145.8826069621311
 20
39.85296032633331
 30
0.0
 10
145.838826510891
 20
39.8823830239556
 30
0.0
 10
145.8112769659461
 20
39.91765236469055
 30
0.0
 10
145.7835469548171
 20
39.95315274094169
 30
0.0
 10
145.7744840349373
 20
39.98998687536925
 30
0.0
 10
145.784687642076
 20
40.02875918987214
 30
0.0
 10
145.7948549124173
 20
40.06739342950434
 30
0.0
 10
145.8180344398621
 20
40.10301789260404
 30
0.0
 10
145.8562628795879
 20
40.13545391879141
 30
0.0
  0
LINE
  5
1CC
330
15C
100
AcDbEntity
  8
DV3_0
 62
     7
370
    35
100
AcDbLine
 10
145.7676097876551
 20
40.40804460471264
 30
0.0
 11
145.3369402092237
 21
40.10226621887123
 31
0.0
  0
LINE
  5
1CD
330
15C
100
AcDbEntity
  8
DV3_0
 62
     7
370
    35
100
AcDbLine
 10
145.3369402092237
 20
40.10226621887124
 30
0.0
 11
145.2578561273033
 21
40.13939453336125
 31
0.0
  0
LINE
  5
1CE
330
15C
100
AcDbEntity
  8
DV3_0
 62
     7
370
    35
100
AcDbLine
 10
145.2578561273033
 20
40.13939453336125
 30
0.0
 11
145.6885257057347
 21
40.44517291920267
 31
0.0
  0
LINE
  5
1CF
330
15C
100
AcDbEntity
  8
DV3_0
 62
     7
370
    35
100
AcDbLine
 10
145.6885257057347
 20
40.35189435838355
 30
0.0
 11
145.6885257057347
 21
40.44517291920266
 31
0.0
  0
LINE
  5
1D0
330
15C
100
AcDbEntity
  8
DV3_0
 62
     7
370
    35
100
AcDbLine
 10
145.6885257057347
 20
40.44517291920266
 30
0.0
 11
145.4908155009337
 21
40.5379937054277
 31
0.0
  0
LINE
  5
1D1
330
15C
100
AcDbEntity
  8
DV3_0
 62
     7
370
    35
100
AcDbLine
 10
145.4908155009336
 20
40.5379937054277
 30
0.0
 11
145.5483030690953
 21
40.57881027729341
 31
0.0
  0
LINE
  5
1D2
330
15C
100
AcDbEntity
  8
DV3_0
 62
     7
370
    35
100
AcDbLine
 10
145.5483030690953
 20
40.51100450029131
 30
0.0
 11
145.5483030690953
 21
40.57881027729341
 31
0.0
  0
LINE
  5
1D3
330
15C
100
AcDbEntity
  8
DV3_0
 62
     7
370
    35
100
AcDbLine
 10
145.5483030690953
 20
40.57881027729341
 30
0.0
 11
146.0224081460627
 21
40.35622790709318
 31
0.0
  0
LINE
  5
1D4
330
15C
100
AcDbEntity
  8
DV3_0
 62
     7
370
    35
100
AcDbLine
 10
146.0224081460627
 20
40.35622790709317
 30
0.0
 11
145.964920577901
 21
40.31541133522746
 31
0.0
  0
LINE
  5
1D5
330
15C
100
AcDbEntity
  8
DV3_0
 62
     7
370
    35
100
AcDbLine
 10
145.964920577901
 20
40.31541133522747
 30
0.0
 11
145.7676097876551
 21
40.40804460471265
 31
0.0
  0
LINE
  5
1D6
330
15C
100
AcDbEntity
  8
DV3_0
 62
     7
370
    35
100
AcDbLine
 10
145.4620804581399
 20
40.63012815181557
 30
0.0
 11
144.9419137375607
 21
40.29941771618957
 31
0.0
  0
LINE
  5
1D7
330
15C
100
AcDbEntity
  8
DV3_0
 62
     7
370
    35
100
AcDbLine
 10
144.9419137375607
 20
40.29941771618957
 30
0.0
 11
144.8664540962664
 21
40.33898061867639
 31
0.0
  0
LINE
  5
1D8
330
15C
100
AcDbEntity
  8
DV3_0
 62
     7
370
    35
100
AcDbLine
 10
144.8664540962664
 20
40.33898061867639
 30
0.0
 11
145.3866208168456
 21
40.66969105430238
 31
0.0
  0
LINE
  5
1D9
330
15C
100
AcDbEntity
  8
DV3_0
 62
     7
370
    35
100
AcDbLine
 10
145.3866208168456
 20
40.58215258964039
 30
0.0
 11
145.3866208168456
 21
40.66969105430239
 31
0.0
  0
LINE
  5
1DA
330
15C
100
AcDbEntity
  8
DV3_0
 62
     7
370
    35
100
AcDbLine
 10
145.3866208168456
 20
40.66969105430238
 30
0.0
 11
145.4620804581399
 21
40.63012815181556
 31
0.0
  0
LINE
  5
1DB
330
15C
100
AcDbEntity
  8
DV3_0
 62
     7
370
    35
100
AcDbLine
 10
144.772636731678
 20
40.61655485560322
 30
0.0
 11
144.772636731678
 21
40.88887268633102
 31
0.0
  0
LINE
  5
1DC
330
15C
100
AcDbEntity
  8
DV3_0
 62
     7
370
    35
100
AcDbLine
 10
144.772636731678
 20
40.88887268633101
 30
0.0
 11
144.3374430519472
 21
40.64418260313428
 31
0.0
  0
LINE
  5
1DD
330
15C
100
AcDbEntity
  8
DV3_0
 62
     7
370
    35
100
AcDbLine
 10
144.3374430519472
 20
40.64418260313428
 30
0.0
 11
144.2684832163613
 21
40.68506545408624
 31
0.0
  0
LINE
  5
1DE
330
15C
100
AcDbEntity
  8
DV3_0
 62
     7
370
    35
100
AcDbLine
 10
144.2684832163613
 20
40.68506545408623
 30
0.0
 11
144.8228019457133
 21
40.99673426344614
 31
0.0
  0
LINE
  5
1DF
330
15C
100
AcDbEntity
  8
DV3_0
 62
     7
370
    35
100
AcDbLine
 10
144.8228019457133
 20
40.75292651824353
 30
0.0
 11
144.8228019457133
 21
40.99673426344614
 31
0.0
  0
LINE
  5
1E0
330
15C
100
AcDbEntity
  8
DV3_0
 62
     7
370
    35
100
AcDbLine
 10
144.8228019457133
 20
40.99673426344614
 30
0.0
 11
144.8964309368337
 21
40.95308330279431
 31
0.0
  0
LINE
  5
1E1
330
15C
100
AcDbEntity
  8
DV3_0
 62
     7
370
    35
100
AcDbLine
 10
144.8964309368337
 20
40.95308330279432
 30
0.0
 11
144.7446190814637
 21
40.5403902539669
 31
0.0
  0
LINE
  5
1E2
330
15C
100
AcDbEntity
  8
DV3_0
 62
     7
370
    35
100
AcDbLine
 10
144.7446190814637
 20
40.46114922383515
 30
0.0
 11
144.7446190814637
 21
40.5403902539669
 31
0.0
  0
LINE
  5
1E3
330
15C
100
AcDbEntity
  8
DV3_0
 62
     7
370
    35
100
AcDbLine
 10
144.7446190814637
 20
40.5403902539669
 30
0.0
 11
145.1798127611945
 21
40.78508033716363
 31
0.0
  0
LINE
  5
1E4
330
15C
100
AcDbEntity
  8
DV3_0
 62
     7
370
    35
100
AcDbLine
 10
145.1798127611945
 20
40.70583930703189
 30
0.0
 11
145.1798127611945
 21
40.78508033716363
 31
0.0
  0
LINE
  5
1E5
330
15C
100
AcDbEntity
  8
DV3_0
 62
     7
370
    35
100
AcDbLine
 10
145.1798127611945
 20
40.78508033716363
 30
0.0
 11
145.2484134309701
 21
40.74441041772706
 31
0.0
  0
LINE
  5
1E6
330
15C
100
AcDbEntity
  8
DV3_0
 62
     7
370
    35
100
AcDbLine
 10
145.2484134309701
 20
40.74441041772705
 30
0.0
 11
144.694094701618
 21
40.43274160836714
 31
0.0
  0
LINE
  5
1E7
330
15C
100
AcDbEntity
  8
DV3_0
 62
     7
370
    35
100
AcDbLine
 10
144.694094701618
 20
40.43274160836715
 30
0.0
 11
144.6204657104977
 21
40.47639256901897
 31
0.0
  0
LINE
  5
1E8
330
15C
100
AcDbEntity
  8
DV3_0
 62
     7
370
    35
100
AcDbLine
 10
144.6204657104977
 20
40.47639256901896
 30
0.0
 11
144.772636731678
 21
40.88887268633101
 31
0.0
  0
LINE
  5
1E9
330
15C
100
AcDbEntity
  8
DV3_0
 62
     7
370
    35
100
AcDbLine
 10
144.2062598568628
 20
40.81056067920426
 30
0.0
 11
144.1354080999029
 21
40.77701017700828
 31
0.0
  0
LINE
  5
1EA
330
15C
100
AcDbEntity
  8
DV3_0
 62
     7
370
    35
100
AcDbLine
 10
144.1354080999029
 20
40.77701017700829
 30
0.0
 11
143.7704176897637
 21
41.03393839108611
 31
0.0
  0
LINE
  5
1EB
330
15C
100
AcDbEntity
  8
DV3_0
 62
     7
370
    35
100
AcDbLine
 10
143.7704176897636
 20
41.03393839108612
 30
0.0
 11
144.3686771881385
 21
41.317232800078
 31
0.0
  0
LINE
  5
1EC
330
15C
100
AcDbEntity
  8
DV3_0
 62
     7
370
    35
100
AcDbLine
 10
144.3686771881385
 20
41.23427620204286
 30
0.0
 11
144.3686771881385
 21
41.31723280007799
 31
0.0
  0
LINE
  5
1ED
330
15C
100
AcDbEntity
  8
DV3_0
 62
     7
370
    35
100
AcDbLine
 10
144.3686771881385
 20
41.31723280007799
 30
0.0
 11
144.7222412437564
 21
41.06834795585054
 31
0.0
  0
LINE
  5
1EE
330
15C
100
AcDbEntity
  8
DV3_0
 62
     7
370
    35
100
AcDbLine
 10
144.7222412437564
 20
41.06834795585053
 30
0.0
 11
144.6517875303749
 21
41.03498593962195
 31
0.0
  0
LINE
  5
1EF
330
15C
100
AcDbEntity
  8
DV3_0
 62
     7
370
    35
100
AcDbLine
 10
144.6517875303749
 20
41.03498593962195
 30
0.0
 11
144.3631904618928
 21
41.23813848098581
 31
0.0
  0
LINE
  5
1F0
330
15C
100
AcDbEntity
  8
DV3_0
 62
     7
370
    35
100
AcDbLine
 10
144.3631904618927
 20
41.23813848098582
 30
0.0
 11
144.1800904158166
 21
41.15143493598498
 31
0.0
  0
LINE
  5
1F1
330
15C
100
AcDbEntity
  8
DV3_0
 62
     7
370
    35
100
AcDbLine
 10
144.1800904158166
 20
41.06847833794984
 30
0.0
 11
144.1800904158166
 21
41.15143493598497
 31
0.0
  0
LINE
  5
1F2
330
15C
100
AcDbEntity
  8
DV3_0
 62
     7
370
    35
100
AcDbLine
 10
144.1800904158166
 20
41.15143493598497
 30
0.0
 11
144.4504053170646
 21
40.96115178638172
 31
0.0
  0
LINE
  5
1F3
330
15C
100
AcDbEntity
  8
DV3_0
 62
     7
370
    35
100
AcDbLine
 10
144.4504053170646
 20
40.96115178638171
 30
0.0
 11
144.3799516036831
 21
40.92778977015313
 31
0.0
  0
LINE
  5
1F4
330
15C
100
AcDbEntity
  8
DV3_0
 62
     7
370
    35
100
AcDbLine
 10
144.3799516036832
 20
40.92778977015313
 30
0.0
 11
144.1096367024352
 21
41.11807291975639
 31
0.0
  0
LINE
  5
1F5
330
15C
100
AcDbEntity
  8
DV3_0
 62
     7
370
    35
100
AcDbLine
 10
144.1096367024351
 20
41.11807291975639
 30
0.0
 11
143.9062364338592
 21
41.0217565904185
 31
0.0
  0
LINE
  5
1F6
330
15C
100
AcDbEntity
  8
DV3_0
 62
     7
370
    35
100
AcDbLine
 10
143.9062364338592
 20
40.93833131103855
 30
0.0
 11
143.9062364338592
 21
41.0217565904185
 31
0.0
  0
LINE
  5
1F7
330
15C
100
AcDbEntity
  8
DV3_0
 62
     7
370
    35
100
AcDbLine
 10
143.9062364338592
 20
41.0217565904185
 30
0.0
 11
144.2062598568628
 21
40.81056067920426
 31
0.0
  0
LINE
  5
1F8
330
15C
100
AcDbEntity
  8
DV3_0
 62
     7
370
    35
100
AcDbLine
 10
143.9528574524046
 20
41.57109737496624
 30
0.0
 11
143.9528574524046
 21
41.66357722592033
 31
0.0
  0
SPLINE
  5
1F9
330
15C
100
AcDbEntity
  8
DV3_0
 62
     7
370
    35
100
AcDbSpline
210
0.0
220
0.0
230
1.0
 70
     8
 71
     3
 72
    21
 73
    17
 74
     0
 42
0.000000001
 43
0.0000000001
 40
0.0
 40
0.0
 40
0.0
 40
0.0
 40
0.3356404714315034
 40
0.3356404714315034
 40
0.3356404714315034
 40
0.5036402595126096
 40
0.5036402595126096
 40
0.5036402595126096
 40
0.6341709805462858
 40
0.6341709805462858
 40
0.6341709805462858
 40
0.7610162184473221
 40
0.7610162184473221
 40
0.8805081092236614
 40
0.8805081092236614
 40
1.0
 40
1.0
 40
1.0
 40
1.0
 10
143.9528574524046
 20
41.66357722592033
 30
0.0
 10
144.0078154123279
 20
41.61770316649297
 30
0.0
 10
144.0627733722511
 20
41.57182910706561
 30
0.0
 10
144.1177313321744
 20
41.52595504763824
 30
0.0
 10
144.1514089452712
 20
41.49784394550247
 30
0.0
 10
144.1720001848153
 20
41.47281891870858
 30
0.0
 10
144.1790816607444
 20
41.45071089091753
 30
0.0
 10
144.1862101650002
 20
41.42845604294894
 30
0.0
 10
144.1827938783357
 20
41.40738091137976
 30
0.0
 10
144.1671180179253
 20
41.38702669539305
 30
0.0
 10
144.1516207679949
 20
41.36690439498818
 30
0.0
 10
144.129778779661
 20
41.3507936300422
 30
0.0
 10
144.0730445113227
 20
41.32813740061371
 30
0.0
 10
144.0426626778271
 20
41.32214837450137
 30
0.0
 10
143.9738967940658
 20
41.31998477750113
 30
0.0
 10
143.9388998642979
 20
41.32516281732536
 30
0.0
 10
143.9035817954524
 20
41.33635625110758
 30
0.0
  0
LINE
  5
1FA
330
15C
100
AcDbEntity
  8
DV3_0
 62
     7
370
    35
100
AcDbLine
 10
143.9035817954524
 20
41.26074236738149
 30
0.0
 11
143.9035817954524
 21
41.33635625110758
 31
0.0
  0
SPLINE
  5
1FB
330
15C
100
AcDbEntity
  8
DV3_0
 62
     7
370
    35
100
AcDbSpline
210
0.0
220
0.0
230
1.0
 70
     8
 71
     3
 72
    23
 73
    19
 74
     0
 42
0.000000001
 43
0.0000000001
 40
0.0
 40
0.0
 40
0.0
 40
0.0
 40
0.1297390389371756
 40
0.1297390389371756
 40
0.2594780778743526
 40
0.2594780778743526
 40
0.3638658103525407
 40
0.3638658103525407
 40
0.4682535428307293
 40
0.4682535428307293
 40
0.4682535428307293
 40
0.5652533807024966
 40
0.5652533807024966
 40
0.5652533807024966
 40
0.6951950690437623
 40
0.6951950690437623
 40
0.6951950690437623
 40
1.0
 40
1.0
 40
1.0
 40
1.0
 10
143.9035817954524
 20
41.33635625110758
 30
0.0
 10
143.9185066566307
 20
41.30979119697827
 30
0.0
 10
143.9199535204982
 20
41.28507165607456
 30
0.0
 10
143.894458775868
 20
41.23947433677319
 30
0.0
 10
143.8693095025678
 20
41.22075787021423
 30
0.0
 10
143.8028372627984
 20
41.19421288498833
 30
0.0
 10
143.770793635358
 20
41.18647606774269
 30
0.0
 10
143.7024158993187
 20
41.18085356904435
 30
0.0
 10
143.6716811604412
 20
41.1819514226672
 30
0.0
 10
143.6451167895777
 20
41.18688301123471
 30
0.0
 10
143.6184620022034
 20
41.19183138533171
 30
0.0
 10
143.5919915238866
 20
41.20144565218406
 30
0.0
 10
143.5654658713993
 20
41.21470468260301
 30
0.0
 10
143.5390372988026
 20
41.22791518696877
 30
0.0
 10
143.5121251936511
 20
41.24616665162166
 30
0.0
 10
143.4840117079355
 20
41.26963331079588
 30
0.0
 10
143.4281752015836
 20
41.31624070332243
 30
0.0
 10
143.3723386952317
 20
41.36284809584899
 30
0.0
 10
143.3165021888799
 20
41.40945548837554
 30
0.0
  0
LINE
  5
1FC
330
15C
100
AcDbEntity
  8
DV3_0
 62
     7
370
    35
100
AcDbLine
 10
143.6678955662905
 20
41.47822540676854
 30
0.0
 11
143.4498496842445
 21
41.39115109217403
 31
0.0
  0
LINE
  5
1FD
330
15C
100
AcDbEntity
  8
DV3_0
 62
     7
370
    35
100
AcDbLine
 10
143.9359014756792
 20
41.58525072936725
 30
0.0
 11
143.7432589973667
 21
41.50832099511384
 31
0.0
  0
LINE
  5
1FE
330
15C
100
AcDbEntity
  8
DV3_0
 62
     7
370
    35
100
AcDbLine
 10
143.4498496842445
 20
41.29919181737458
 30
0.0
 11
143.4498496842445
 21
41.39115109217402
 31
0.0
  0
SPLINE
  5
1FF
330
15C
100
AcDbEntity
  8
DV3_0
 62
     7
370
    35
100
AcDbSpline
210
0.0
220
0.0
230
1.0
 70
     8
 71
     3
 72
    29
 73
    25
 74
     0
 42
0.000000001
 43
0.0000000001
 40
0.0
 40
0.0
 40
0.0
 40
0.0
 40
0.2134781515471444
 40
0.2134781515471444
 40
0.2134781515471444
 40
0.2912971074834136
 40
0.2912971074834136
 40
0.2912971074834136
 40
0.3614073574760486
 40
0.3614073574760486
 40
0.3614073574760486
 40
0.4260152596386239
 40
0.4260152596386239
 40
0.4260152596386239
 40
0.5081973324652238
 40
0.5081973324652238
 40
0.6061163979607475
 40
0.6061163979607475
 40
0.7040354634562707
 40
0.7040354634562707
 40
0.8019545289517939
 40
0.8019545289517939
 40
0.8019545289517939
 40
1.0
 40
1.0
 40
1.0
 40
1.0
 10
143.4498496842445
 20
41.39115109217402
 30
0.0
 10
143.4863581691669
 20
41.36067702782974
 30
0.0
 10
143.5228666540892
 20
41.33020296348545
 30
0.0
 10
143.5593751390116
 20
41.29972889914116
 30
0.0
 10
143.5784103116316
 20
41.28384001532528
 30
0.0
 10
143.5924352881852
 20
41.27317817151542
 30
0.0
 10
143.6021663075443
 20
41.26766799968416
 30
0.0
 10
143.6189630741984
 20
41.25815686143049
 30
0.0
 10
143.6356567988522
 20
41.25068527602611
 30
0.0
 10
143.6532029131924
 20
41.24648902744815
 30
0.0
 10
143.6700915316976
 20
41.24245002257149
 30
0.0
 10
143.6890783893889
 20
41.24057765452471
 30
0.0
 10
143.7103079490724
 20
41.24218903610682
 30
0.0
 10
143.7317706657699
 20
41.24381811494332
 30
0.0
 10
143.7525412282744
 20
41.24821273589735
 30
0.0
 10
143.7961504046836
 20
41.26562759881626
 30
0.0
 10
143.8127966343991
 20
41.27733456055773
 30
0.0
 10
143.8305293885484
 20
41.30537659360834
 30
0.0
 10
143.8310937479714
 20
41.32005758209579
 30
0.0
 10
143.8156184315142
 20
41.35073950299502
 30
0.0
 10
143.7976275889158
 20
41.36993655245422
 30
0.0
 10
143.7695141032002
 20
41.39340321162843
 30
0.0
 10
143.7356412575636
 20
41.42167727667514
 30
0.0
 10
143.7017684119271
 20
41.44995134172184
 30
0.0
 10
143.6678955662905
 20
41.47822540676854
 30
0.0
  0
LINE
  5
200
330
15C
100
AcDbEntity
  8
DV3_0
 62
     7
370
    35
100
AcDbLine
 10
143.7432589973666
 20
41.4153186591261
 30
0.0
 11
143.7432589973666
 21
41.50832099511383
 31
0.0
  0
SPLINE
  5
201
330
15C
100
AcDbEntity
  8
DV3_0
 62
     7
370
    35
100
AcDbSpline
210
0.0
220
0.0
230
1.0
 70
     8
 71
     3
 72
    27
 73
    23
 74
     0
 42
0.000000001
 43
0.0000000001
 40
0.0
 40
0.0
 40
0.0
 40
0.0
 40
0.2037752312648243
 40
0.2037752312648243
 40
0.2037752312648243
 40
0.3231279547111104
 40
0.3231279547111104
 40
0.3231279547111104
 40
0.4106804246950365
 40
0.4106804246950365
 40
0.4106804246950365
 40
0.5007203177823226
 40
0.5007203177823226
 40
0.5839647472403799
 40
0.5839647472403799
 40
0.6672091766984389
 40
0.6672091766984389
 40
0.6672091766984389
 40
0.8118614737392147
 40
0.8118614737392147
 40
0.8118614737392147
 40
1.0
 40
1.0
 40
1.0
 40
1.0
 10
143.7432589973666
 20
41.50832099511384
 30
0.0
 10
143.7749842850666
 20
41.48183952208738
 30
0.0
 10
143.8067095727665
 20
41.45535804906093
 30
0.0
 10
143.8384348604664
 20
41.42887657603448
 30
0.0
 10
143.8642055557058
 20
41.40736547179146
 30
0.0
 10
143.8847719810178
 20
41.39281085840348
 30
0.0
 10
143.9009809165269
 20
41.38555088854857
 30
0.0
 10
143.9225996352979
 20
41.37586788089574
 30
0.0
 10
143.9439800630648
 20
41.37055839349988
 30
0.0
 10
143.9664127842906
 20
41.37012051183918
 30
0.0
 10
143.9885386929169
 20
41.36968861909125
 30
0.0
 10
144.0109888539689
 20
41.37418865669852
 30
0.0
 10
144.0541746403159
 20
41.39143444327841
 30
0.0
 10
144.0692896173393
 20
41.40180713459199
 30
0.0
 10
144.0874105192106
 20
41.42639026594451
 30
0.0
 10
144.0884618013042
 20
41.43909735921652
 30
0.0
 10
144.0819273046179
 20
41.45238905642331
 30
0.0
 10
144.0753051168609
 20
41.46585912439317
 30
0.0
 10
144.0553837899706
 20
41.48551742787686
 30
0.0
 10
144.0237561185405
 20
41.51191741944784
 30
0.0
 10
143.9944712375867
 20
41.53636185608764
 30
0.0
 10
143.965186356633
 20
41.56080629272744
 30
0.0
 10
143.9359014756792
 20
41.58525072936725
 30
0.0
  0
LINE
  5
202
330
15C
100
AcDbEntity
  8
DV3_0
 62
     7
370
    35
100
AcDbLine
 10
143.3165021888799
 20
41.40945548837554
 30
0.0
 11
143.9528574524046
 21
41.66357722592033
 31
0.0
  0
LINE
  5
203
330
15C
100
AcDbEntity
  8
DV3_0
 62
     7
370
    35
100
AcDbLine
 10
154.2669232545575
 20
41.57961480997061
 30
0.0
 11
154.2669232545575
 21
41.62043963901699
 31
0.0
  0
LINE
  5
204
330
15C
100
AcDbEntity
  8
DV3_0
 62
     7
370
    25
100
AcDbLine
 10
153.5598164733709
 20
41.17322992566374
 30
0.0
 11
153.5598164733709
 21
41.21219134855313
 31
0.0
  0
LINE
  5
205
330
15C
100
AcDbEntity
  8
DV3_0
 62
     7
370
    35
100
AcDbLine
 10
152.8880650312437
 20
41.55663059194509
 30
0.0
 11
152.8880650312437
 21
41.60002722449381
 31
0.0
  0
LINE
  5
206
330
15C
100
AcDbEntity
  8
DV3_0
 62
     7
370
    35
100
AcDbLine
 10
154.9033193576253
 20
41.17136651950674
 30
0.0
 11
154.9033193576253
 21
41.21219134855313
 31
0.0
  0
LINE
  5
207
330
15C
100
AcDbEntity
  8
DV3_0
 62
     7
370
    35
100
AcDbLine
 10
154.2669232545575
 20
40.80394305808927
 30
0.0
 11
154.2669232545575
 21
40.84476788713565
 31
0.0
  0
LINE
  5
208
330
15C
100
AcDbEntity
  8
DV3_0
 62
     7
370
    35
100
AcDbLine
 10
153.6305271514896
 20
41.17136651950674
 30
0.0
 11
153.6305271514896
 21
41.21219134855313
 31
0.0
  0
LINE
  5
209
330
15C
100
AcDbEntity
  8
DV3_0
 62
     7
370
    35
100
AcDbLine
 10
153.6305271514896
 20
41.21219134855313
 30
0.0
 11
154.2669232545575
 21
41.57961480997061
 31
0.0
  0
LINE
  5
20A
330
15C
100
AcDbEntity
  8
DV3_0
 62
     7
370
    35
100
AcDbLine
 10
154.2669232545575
 20
41.57961480997061
 30
0.0
 11
154.9033193576253
 21
41.21219134855313
 31
0.0
  0
LINE
  5
20B
330
15C
100
AcDbEntity
  8
DV3_0
 62
     7
370
    35
100
AcDbLine
 10
154.9033193576253
 20
41.21219134855313
 30
0.0
 11
154.2669232545575
 21
40.84476788713566
 31
0.0
  0
LINE
  5
20C
330
15C
100
AcDbEntity
  8
DV3_0
 62
     7
370
    35
100
AcDbLine
 10
154.2669232545575
 20
40.84476788713566
 30
0.0
 11
153.6305271514896
 21
41.21219134855313
 31
0.0
  0
LINE
  5
20D
330
15C
100
AcDbEntity
  8
DV3_0
 62
     7
370
    35
100
AcDbLine
 10
153.5951718124303
 20
41.19177893402994
 30
0.0
 11
154.2669232545575
 21
40.80394305808927
 31
0.0
  0
LINE
  5
20E
330
15C
100
AcDbEntity
  8
DV3_0
 62
     7
370
    35
100
AcDbLine
 10
154.2669232545575
 20
40.80394305808928
 30
0.0
 11
154.974030035744
 21
41.21219134855314
 31
0.0
  0
LINE
  5
20F
330
15C
100
AcDbEntity
  8
DV3_0
 62
     7
370
    35
100
AcDbLine
 10
154.974030035744
 20
41.21219134855313
 30
0.0
 11
154.2669232545575
 21
41.62043963901699
 31
0.0
  0
LINE
  5
210
330
15C
100
AcDbEntity
  8
DV3_0
 62
     7
370
    35
100
AcDbLine
 10
154.2669232545575
 20
41.620439639017
 30
0.0
 11
153.5598164733709
 21
41.21219134855313
 31
0.0
  0
ELLIPSE
  5
211
330
15C
100
AcDbEntity
  8
DV3_0
 62
     7
370
    35
100
AcDbEllipse
 10
153.241618421837
 20
41.39590307926187
 30
0.0
 11
0.4500000000000004
 21
-1.127570259384925E-15
 31
0.0
210
0.0
220
0.0
230
1.0
 40
0.5773502691896274
 41
2.356194490192371
 42
5.497787143782075
  0
LINE
  5
212
330
15C
100
AcDbEntity
  8
DV3_0
 62
     7
370
    35
100
AcDbLine
 10
152.923420370303
 20
41.57961480997061
 30
0.0
 11
152.8880650312437
 21
41.6000272244938
 31
0.0
  0
ELLIPSE
  5
213
330
15C
100
AcDbEntity
  8
DV3_0
 62
     7
370
    35
100
AcDbEllipse
 10
153.241618421837
 20
41.39590307926187
 30
0.0
 11
0.5000000000000003
 21
-1.127570259384925E-15
 31
0.0
210
0.0
220
0.0
230
1.0
 40
0.5773502691896308
 41
2.356194490192434
 42
5.497787143782147
  0
LINE
  5
214
330
15C
100
AcDbEntity
  8
DV3_0
 62
     7
370
    35
100
AcDbLine
 10
156.2468222418798
 20
40.47734442571818
 30
0.0
 11
155.5397154606933
 21
40.06909613525432
 31
0.0
  0
ELLIPSE
  5
215
330
15C
100
AcDbEntity
  8
DV3_0
 62
     7
370
    35
100
AcDbEllipse
 10
155.1861620701
 20
40.27322028048624
 30
0.0
 11
0.4999999999999993
 21
5.637851296924623E-16
 31
0.0
210
0.0
220
0.0
230
1.0
 40
0.5773502691896245
 41
2.356194490192354
 42
5.497787143782147
  0
LINE
  5
216
330
15C
100
AcDbEntity
  8
DV3_0
 62
     7
370
    25
100
AcDbLine
 10
154.8326086795067
 20
40.43394779316947
 30
0.0
 11
154.8326086795067
 21
40.47734442571819
 31
0.0
  0
LINE
  5
217
330
15C
100
AcDbEntity
  8
DV3_0
 62
     7
370
    35
100
AcDbLine
 10
154.8326086795067
 20
40.47734442571818
 30
0.0
 11
155.5397154606933
 21
40.88559271618205
 31
0.0
  0
LINE
  5
218
330
15C
100
AcDbEntity
  8
DV3_0
 62
     7
370
    35
100
AcDbLine
 10
155.5043601216339
 20
40.05054712688813
 30
0.0
 11
155.5043601216339
 21
40.08950854977751
 31
0.0
  0
LINE
  5
219
330
15C
100
AcDbEntity
  8
DV3_0
 62
     7
370
    35
100
AcDbLine
 10
155.5397154606933
 20
40.06909613525432
 30
0.0
 11
155.5397154606933
 21
40.1099209643007
 31
0.0
  0
LINE
  5
21A
330
15C
100
AcDbEntity
  8
DV3_0
 62
     7
370
    35
100
AcDbLine
 10
156.1761115637612
 20
40.43651959667179
 30
0.0
 11
156.1761115637612
 21
40.47734442571818
 31
0.0
  0
LINE
  5
21B
330
15C
100
AcDbEntity
  8
DV3_0
 62
     7
370
    35
100
AcDbLine
 10
154.9033193576253
 20
40.43651959667179
 30
0.0
 11
154.9033193576253
 21
40.47734442571818
 31
0.0
  0
LINE
  5
21C
330
15C
100
AcDbEntity
  8
DV3_0
 62
     7
370
    35
100
AcDbLine
 10
155.5397154606933
 20
40.84476788713565
 30
0.0
 11
155.5397154606933
 21
40.88559271618205
 31
0.0
  0
LINE
  5
21D
330
15C
100
AcDbEntity
  8
DV3_0
 62
     7
370
    35
100
AcDbLine
 10
155.5397154606933
 20
40.88559271618205
 30
0.0
 11
156.2468222418798
 21
40.47734442571818
 31
0.0
  0
LINE
  5
21E
330
15C
100
AcDbEntity
  8
DV3_0
 62
     7
370
    35
100
AcDbLine
 10
156.1761115637612
 20
40.47734442571818
 30
0.0
 11
155.5397154606933
 21
40.10992096430071
 31
0.0
  0
LINE
  5
21F
330
15C
100
AcDbEntity
  8
DV3_0
 62
     7
370
    35
100
AcDbLine
 10
155.5397154606933
 20
40.1099209643007
 30
0.0
 11
154.9033193576254
 21
40.47734442571817
 31
0.0
  0
LINE
  5
220
330
15C
100
AcDbEntity
  8
DV3_0
 62
     7
370
    35
100
AcDbLine
 10
154.9033193576253
 20
40.47734442571818
 30
0.0
 11
155.5397154606932
 21
40.84476788713566
 31
0.0
  0
LINE
  5
221
330
15C
100
AcDbEntity
  8
DV3_0
 62
     7
370
    35
100
AcDbLine
 10
155.5397154606933
 20
40.84476788713566
 30
0.0
 11
156.1761115637611
 21
40.47734442571819
 31
0.0
  0
LINE
  5
222
330
15C
100
AcDbEntity
  8
DV3_0
 62
     7
370
    35
100
AcDbLine
 10
154.867964018566
 20
40.45693201119499
 30
0.0
 11
155.5043601216339
 21
40.08950854977752
 31
0.0
  0
ELLIPSE
  5
223
330
15C
100
AcDbEntity
  8
DV3_0
 62
     7
370
    35
100
AcDbEllipse
 10
155.1861620701
 20
40.27322028048624
 30
0.0
 11
0.4499999999999994
 21
2.840609691912022E-15
 31
0.0
210
0.0
220
0.0
230
1.0
 40
0.5773502691896272
 41
2.356194490192458
 42
5.497787143782072
  0
LINE
  5
224
330
15C
100
AcDbEntity
  8
DV3_0
 62
     7
370
    35
100
AcDbLine
 10
155.8085508857553
 20
40.88651722973837
 30
0.0
 11
155.8439062248146
 21
40.90692964426157
 31
0.0
  0
LINE
  5
225
330
15C
100
AcDbEntity
  8
DV3_0
 62
     7
370
    35
100
AcDbLine
 10
155.8439062248146
 20
40.88360117052078
 30
0.0
 11
155.8439062248146
 21
40.90692964426157
 31
0.0
  0
LINE
  5
226
330
15C
100
AcDbEntity
  8
DV3_0
 62
     7
370
    35
100
AcDbLine
 10
155.8439062248146
 20
40.90692964426156
 30
0.0
 11
154.6348565103721
 21
41.60497482235855
 31
0.0
  0
LINE
  5
227
330
15C
100
AcDbEntity
  8
DV3_0
 62
     7
370
    35
100
AcDbLine
 10
154.6348565103721
 20
41.60497482235855
 30
0.0
 11
154.5995011713128
 21
41.58456240783536
 31
0.0
  0
LINE
  5
228
330
15C
100
AcDbEntity
  8
DV3_0
 62
     7
370
    35
100
AcDbLine
 10
154.5995011713128
 20
41.58456240783536
 30
0.0
 11
154.5818235017831
 21
41.65600585866654
 31
0.0
  0
LINE
  5
229
330
15C
100
AcDbEntity
  8
DV3_0
 62
     7
370
    35
100
AcDbLine
 10
154.5818235017832
 20
41.65600585866654
 30
0.0
 11
154.7055671884908
 21
41.64579965140494
 31
0.0
  0
LINE
  5
22A
330
15C
100
AcDbEntity
  8
DV3_0
 62
     7
370
    35
100
AcDbLine
 10
154.7055671884908
 20
41.64579965140494
 30
0.0
 11
154.6702118494315
 21
41.62538723688175
 31
0.0
  0
LINE
  5
22B
330
15C
100
AcDbEntity
  8
DV3_0
 62
     7
370
    35
100
AcDbLine
 10
154.6702118494315
 20
41.58456240783536
 30
0.0
 11
154.6702118494315
 21
41.62538723688175
 31
0.0
  0
LINE
  5
22C
330
15C
100
AcDbEntity
  8
DV3_0
 62
     7
370
    35
100
AcDbLine
 10
154.6702118494315
 20
41.62538723688175
 30
0.0
 11
155.8792615638739
 21
40.92734205878476
 31
0.0
  0
LINE
  5
22D
330
15C
100
AcDbEntity
  8
DV3_0
 62
     7
370
    35
100
AcDbLine
 10
155.8792615638739
 20
40.88068511130318
 30
0.0
 11
155.8792615638739
 21
40.92734205878477
 31
0.0
  0
LINE
  5
22E
330
15C
100
AcDbEntity
  8
DV3_0
 62
     7
370
    35
100
AcDbLine
 10
155.8792615638739
 20
40.92734205878476
 30
0.0
 11
155.9146169029332
 21
40.94775447330795
 31
0.0
  0
LINE
  5
22F
330
15C
100
AcDbEntity
  8
DV3_0
 62
     7
370
    35
100
AcDbLine
 10
155.9146169029332
 20
40.87776905208558
 30
0.0
 11
155.9146169029332
 21
40.94775447330796
 31
0.0
  0
LINE
  5
230
330
15C
100
AcDbEntity
  8
DV3_0
 62
     7
370
    35
100
AcDbLine
 10
155.9146169029332
 20
40.94775447330795
 30
0.0
 11
155.9322945724629
 21
40.87631102247678
 31
0.0
  0
LINE
  5
231
330
15C
100
AcDbEntity
  8
DV3_0
 62
     7
370
    35
100
AcDbLine
 10
155.9322945724629
 20
40.87631102247677
 30
0.0
 11
155.8085508857553
 21
40.88651722973837
 31
0.0
  0
LINE
  5
232
330
15C
100
AcDbEntity
  8
DV3_0
 62
     7
370
    35
100
AcDbLine
 10
161.6591593394241
 20
44.05933982375532
 30
0.0
 11
161.6591593394241
 21
44.38837983488709
 31
0.0
  0
LINE
  5
233
330
15C
100
AcDbEntity
  8
DV3_0
 62
     7
370
    35
100
AcDbLine
 10
141.1591593394241
 20
44.38837983488708
 30
0.0
 11
141.1591593394241
 21
44.05933982375531
 31
0.0
  0
LINE
  5
234
330
15C
100
AcDbEntity
  8
DV3_0
 62
     7
370
    35
100
AcDbLine
 10
156.2636607936649
 20
48.90632756564915
 30
0.0
 11
156.2636607936649
 21
49.05910767912961
 31
0.0
  0
LINE
  5
235
330
15C
100
AcDbEntity
  8
DV3_0
 62
     7
370
    35
100
AcDbLine
 10
158.6190484742887
 20
47.43989506023019
 30
0.0
 11
158.6190484742887
 21
47.31006939599264
 31
0.0
  0
LINE
  5
236
330
15C
100
AcDbEntity
  8
DV3_0
 62
     7
370
    35
100
AcDbLine
 10
159.2261817728684
 20
47.33504895848251
 30
0.0
 11
159.2261817728684
 21
47.47741999971548
 31
0.0
  0
LINE
  5
237
330
15C
100
AcDbEntity
  8
DV3_0
 62
     7
370
    35
100
AcDbLine
 10
146.4566891504164
 20
39.89042766804102
 30
0.0
 11
146.4566891504164
 21
40.05016681893698
 31
0.0
  0
LINE
  5
238
330
15C
100
AcDbEntity
  8
DV3_0
 62
     7
370
    35
100
AcDbLine
 10
145.8781573160971
 20
39.99326136832122
 30
0.0
 11
145.8781573160971
 21
39.86647098463577
 31
0.0
  0
LINE
  5
239
330
15C
100
AcDbEntity
  8
DV3_0
 62
     7
370
    35
100
AcDbLine
 10
143.8287648371138
 20
41.2061007704057
 30
0.0
 11
143.8287648371138
 21
41.3143813574474
 31
0.0
  0
LINE
  5
23A
330
15C
100
AcDbEntity
  8
DV3_0
 62
     7
370
    35
100
AcDbLine
 10
144.086115752085
 20
41.33742289049222
 30
0.0
 11
144.086115752085
 21
41.43572090138996
 31
0.0
  0
LINE
  5
23B
330
15C
100
AcDbEntity
  8
DV3_0
 62
     7
370
    35
100
AcDbLine
 10
152.791618421837
 20
41.39590307926187
 30
0.0
 11
152.791618421837
 21
41.27007250534069
 31
0.0
  0
LINE
  5
23C
330
15C
100
AcDbEntity
  8
DV3_0
 62
     7
370
    35
100
AcDbLine
 10
154.7361620701
 20
40.27322028048624
 30
0.0
 11
154.7361620701
 21
40.14738970656506
 31
0.0
  0
ELLIPSE
  5
23D
330
15C
100
AcDbEntity
  8
DV3_0
 62
     7
370
    35
100
AcDbEllipse
 10
142.2054987445217
 20
44.39488798085367
 30
0.0
 11
-0.7999999999999994
 21
1.127570259384925E-15
 31
0.0
210
0.0
220
0.0
230
1.0
 40
0.5773502691896255
 41
0.0
 42
6.283185307179586
  0
LINE
  5
23E
330
15C
100
AcDbEntity
  8
DV3_0
 62
     7
370
    35
100
AcDbLine
 10
142.2836063071874
 20
44.25733066543029
 30
0.0
 11
142.2462561898107
 21
44.27424521814056
 31
0.0
  0
LINE
  5
23F
330
15C
100
AcDbEntity
  8
DV3_0
 62
     7
370
    35
100
AcDbLine
 10
142.2462561898107
 20
44.27424521814056
 30
0.0
 11
142.2462561898107
 21
44.56001902146527
 31
0.0
  0
LINE
  5
240
330
15C
100
AcDbEntity
  8
DV3_0
 62
     7
370
    35
100
AcDbLine
 10
142.2462561898107
 20
44.27424521814056
 30
0.0
 11
142.127391181856
 21
44.24667149295235
 31
0.0
  0
LINE
  5
241
330
15C
100
AcDbEntity
  8
DV3_0
 62
     7
370
    35
100
AcDbLine
 10
141.9781809062488
 20
44.31424357167477
 30
0.0
 11
141.9781809062488
 21
44.49783222380395
 31
0.0
  0
LINE
  5
242
330
15C
100
AcDbEntity
  8
DV3_0
 62
     7
370
    35
100
AcDbLine
 10
142.1647412992328
 20
44.22975694024208
 30
0.0
 11
142.4328165827947
 21
44.2919437379034
 31
0.0
  0
LINE
  5
243
330
15C
100
AcDbEntity
  8
DV3_0
 62
     7
370
    35
100
AcDbLine
 10
142.4328165827946
 20
44.29194373790339
 30
0.0
 11
142.4735740280836
 21
44.45707477851498
 31
0.0
  0
LINE
  5
244
330
15C
100
AcDbEntity
  8
DV3_0
 62
     7
370
    35
100
AcDbLine
 10
142.4735740280836
 20
44.45707477851498
 30
0.0
 11
142.2462561898107
 21
44.56001902146526
 31
0.0
  0
LINE
  5
245
330
15C
100
AcDbEntity
  8
DV3_0
 62
     7
370
    35
100
AcDbLine
 10
142.2462561898107
 20
44.56001902146527
 30
0.0
 11
141.9781809062488
 21
44.49783222380395
 31
0.0
  0
LINE
  5
246
330
15C
100
AcDbEntity
  8
DV3_0
 62
     7
370
    35
100
AcDbLine
 10
141.9781809062488
 20
44.49783222380395
 30
0.0
 11
141.9374234609599
 21
44.33270118319236
 31
0.0
  0
LINE
  5
247
330
15C
100
AcDbEntity
  8
DV3_0
 62
     7
370
    35
100
AcDbLine
 10
141.9374234609599
 20
44.33270118319236
 30
0.0
 11
142.1647412992328
 21
44.22975694024208
 31
0.0
  0
LINE
  5
248
330
15C
100
AcDbEntity
  8
DV3_0
 62
     7
370
    35
100
AcDbLine
 10
141.5926878519271
 20
44.09798013324359
 30
0.0
 11
141.8748403296075
 21
43.90386141584034
 31
0.0
  0
LINE
  5
249
330
15C
100
AcDbEntity
  8
DV3_0
 62
     7
370
    35
100
AcDbLine
 10
142.536157159436
 20
43.90386141584035
 30
0.0
 11
142.8183096371164
 21
44.0979801332436
 31
0.0
  0
ELLIPSE
  5
24A
330
15C
100
AcDbEntity
  8
DV3_0
 62
     7
370
    35
100
AcDbEllipse
 10
160.6128199343264
 20
44.3818716889205
 30
0.0
 11
-0.8000000000000003
 21
-2.818925648462312E-15
 31
0.0
210
0.0
220
0.0
230
1.0
 40
0.5773502691896265
 41
0.0
 42
6.283185307179586
  0
LINE
  5
24B
330
15C
100
AcDbEntity
  8
DV3_0
 62
     7
370
    35
100
AcDbLine
 10
160.690927496992
 20
44.24431437349712
 30
0.0
 11
160.6535773796153
 21
44.26122892620739
 31
0.0
  0
LINE
  5
24C
330
15C
100
AcDbEntity
  8
DV3_0
 62
     7
370
    35
100
AcDbLine
 10
160.6535773796154
 20
44.26122892620739
 30
0.0
 11
160.6535773796154
 21
44.5470027295321
 31
0.0
  0
LINE
  5
24D
330
15C
100
AcDbEntity
  8
DV3_0
 62
     7
370
    35
100
AcDbLine
 10
160.6535773796154
 20
44.26122892620739
 30
0.0
 11
160.5347123716607
 21
44.23365520101918
 31
0.0
  0
LINE
  5
24E
330
15C
100
AcDbEntity
  8
DV3_0
 62
     7
370
    35
100
AcDbLine
 10
160.3855020960535
 20
44.3012272797416
 30
0.0
 11
160.3855020960535
 21
44.48481593187078
 31
0.0
  0
LINE
  5
24F
330
15C
100
AcDbEntity
  8
DV3_0
 62
     7
370
    35
100
AcDbLine
 10
160.5720624890374
 20
44.21674064830891
 30
0.0
 11
160.8401377725993
 21
44.27892744597023
 31
0.0
  0
LINE
  5
250
330
15C
100
AcDbEntity
  8
DV3_0
 62
     7
370
    35
100
AcDbLine
 10
160.8401377725993
 20
44.27892744597023
 30
0.0
 11
160.8808952178883
 21
44.44405848658182
 31
0.0
  0
LINE
  5
251
330
15C
100
AcDbEntity
  8
DV3_0
 62
     7
370
    35
100
AcDbLine
 10
160.8808952178883
 20
44.44405848658181
 30
0.0
 11
160.6535773796153
 21
44.54700272953209
 31
0.0
  0
LINE
  5
252
330
15C
100
AcDbEntity
  8
DV3_0
 62
     7
370
    35
100
AcDbLine
 10
160.6535773796154
 20
44.54700272953209
 30
0.0
 11
160.3855020960535
 21
44.48481593187078
 31
0.0
  0
LINE
  5
253
330
15C
100
AcDbEntity
  8
DV3_0
 62
     7
370
    35
100
AcDbLine
 10
160.3855020960535
 20
44.48481593187078
 30
0.0
 11
160.3447446507645
 21
44.31968489125919
 31
0.0
  0
LINE
  5
254
330
15C
100
AcDbEntity
  8
DV3_0
 62
     7
370
    35
100
AcDbLine
 10
160.3447446507645
 20
44.31968489125919
 30
0.0
 11
160.5720624890374
 21
44.21674064830891
 31
0.0
  0
LINE
  5
255
330
15C
100
AcDbEntity
  8
DV3_0
 62
     7
370
    35
100
AcDbLine
 10
160.0000090417317
 20
44.08496384131043
 30
0.0
 11
160.2821615194121
 21
43.89084512390718
 31
0.0
  0
LINE
  5
256
330
15C
100
AcDbEntity
  8
DV3_0
 62
     7
370
    35
100
AcDbLine
 10
160.9434783492406
 20
43.89084512390718
 30
0.0
 11
161.225630826921
 21
44.08496384131043
 31
0.0
  0
ELLIPSE
  5
257
330
15C
100
AcDbEntity
  8
DV3_0
 62
     7
370
    35
100
AcDbEllipse
 10
151.4204317789012
 20
39.07464391289029
 30
0.0
 11
-0.8000000000000013
 21
0.0
 31
0.0
210
0.0
220
0.0
230
1.0
 40
0.5773502691896253
 41
0.0
 42
6.283185307179586
  0
LINE
  5
258
330
15C
100
AcDbEntity
  8
DV3_0
 62
     7
370
    35
100
AcDbLine
 10
151.4985393415669
 20
38.9370865974669
 30
0.0
 11
151.4611892241902
 21
38.95400115017717
 31
0.0
  0
LINE
  5
259
330
15C
100
AcDbEntity
  8
DV3_0
 62
     7
370
    35
100
AcDbLine
 10
151.4611892241902
 20
38.95400115017717
 30
0.0
 11
151.4611892241902
 21
39.23977495350187
 31
0.0
  0
LINE
  5
25A
330
15C
100
AcDbEntity
  8
DV3_0
 62
     7
370
    35
100
AcDbLine
 10
151.4611892241902
 20
38.95400115017717
 30
0.0
 11
151.3423242162356
 21
38.92642742498896
 31
0.0
  0
LINE
  5
25B
330
15C
100
AcDbEntity
  8
DV3_0
 62
     7
370
    35
100
AcDbLine
 10
151.1931139406283
 20
38.99399950371138
 30
0.0
 11
151.1931139406283
 21
39.17758815584056
 31
0.0
  0
LINE
  5
25C
330
15C
100
AcDbEntity
  8
DV3_0
 62
     7
370
    35
100
AcDbLine
 10
151.3796743336123
 20
38.9095128722787
 30
0.0
 11
151.6477496171742
 21
38.97169966994002
 31
0.0
  0
LINE
  5
25D
330
15C
100
AcDbEntity
  8
DV3_0
 62
     7
370
    35
100
AcDbLine
 10
151.6477496171742
 20
38.97169966994
 30
0.0
 11
151.6885070624631
 21
39.13683071055159
 31
0.0
  0
LINE
  5
25E
330
15C
100
AcDbEntity
  8
DV3_0
 62
     7
370
    35
100
AcDbLine
 10
151.6885070624631
 20
39.13683071055159
 30
0.0
 11
151.4611892241902
 21
39.23977495350187
 31
0.0
  0
LINE
  5
25F
330
15C
100
AcDbEntity
  8
DV3_0
 62
     7
370
    35
100
AcDbLine
 10
151.4611892241902
 20
39.23977495350187
 30
0.0
 11
151.1931139406283
 21
39.17758815584056
 31
0.0
  0
LINE
  5
260
330
15C
100
AcDbEntity
  8
DV3_0
 62
     7
370
    35
100
AcDbLine
 10
151.1931139406284
 20
39.17758815584056
 30
0.0
 11
151.1523564953394
 21
39.01245711522897
 31
0.0
  0
LINE
  5
261
330
15C
100
AcDbEntity
  8
DV3_0
 62
     7
370
    35
100
AcDbLine
 10
151.1523564953394
 20
39.01245711522898
 30
0.0
 11
151.3796743336123
 21
38.9095128722787
 31
0.0
  0
LINE
  5
262
330
15C
100
AcDbEntity
  8
DV3_0
 62
     7
370
    35
100
AcDbLine
 10
150.8076208863066
 20
38.7777360652802
 30
0.0
 11
151.089773363987
 21
38.58361734787695
 31
0.0
  0
LINE
  5
263
330
15C
100
AcDbEntity
  8
DV3_0
 62
     7
370
    35
100
AcDbLine
 10
151.7510901938155
 20
38.58361734787695
 30
0.0
 11
152.0332426714959
 21
38.7777360652802
 31
0.0
  0
ELLIPSE
  5
264
330
15C
100
AcDbEntity
  8
DV3_0
 62
     7
370
    35
100
AcDbEllipse
 10
155.934642739018
 20
41.36734248545451
 30
0.0
 11
0.8000000000000003
 21
5.637851296924623E-16
 31
0.0
210
0.0
220
0.0
230
1.0
 40
0.5773502691896253
 41
2.004723393887266
 42
2.683830534442809
  0
ELLIPSE
  5
265
330
15C
100
AcDbEntity
  8
DV3_0
 62
     7
370
    35
100
AcDbEllipse
 10
155.934642739018
 20
41.36734248545451
 30
0.0
 11
0.8000000000000003
 21
5.637851296924623E-16
 31
0.0
210
0.0
220
0.0
230
1.0
 40
0.5773502691896253
 41
0.4577621191469028
 42
0.8004436563264589
  0
ELLIPSE
  5
266
330
15C
100
AcDbEntity
  8
DV3_0
 62
     7
370
    35
100
AcDbEllipse
 10
155.934642739018
 20
41.77559077591837
 30
0.0
 11
0.8000000000000003
 21
-5.637851296924623E-16
 31
0.0
210
0.0
220
0.0
230
1.0
 40
0.5773502691896262
 41
0.0
 42
6.283185307179586
  0
ELLIPSE
  5
267
330
15C
100
AcDbEntity
  8
DV3_0
 62
     7
370
    35
100
AcDbEllipse
 10
155.934642739018
 20
41.77559077591837
 30
0.0
 11
0.8499999999999991
 21
1.127570259384925E-15
 31
0.0
210
0.0
220
0.0
230
1.0
 40
0.5773502691896264
 41
0.0
 42
6.283185307179586
  0
LINE
  5
268
330
15C
100
AcDbEntity
  8
DV3_0
 62
     7
370
    35
100
AcDbLine
 10
155.7138817526648
 20
41.47777063471725
 30
0.0
 11
155.5982930203929
 21
42.03488133969553
 31
0.0
  0
LINE
  5
269
330
15C
100
AcDbEntity
  8
DV3_0
 62
     7
370
    35
100
AcDbLine
 10
155.5982930203929
 20
42.03488133969553
 30
0.0
 11
155.5982930203929
 21
41.62663304923167
 31
0.0
  0
LINE
  5
26A
330
15C
100
AcDbEntity
  8
DV3_0
 62
     7
370
    35
100
AcDbLine
 10
155.5982930203929
 20
42.03488133969553
 30
0.0
 11
156.4917534439962
 21
41.81412035334233
 31
0.0
  0
LINE
  5
26B
330
15C
100
AcDbEntity
  8
DV3_0
 62
     7
370
    35
100
AcDbLine
 10
156.4917534439962
 20
41.81412035334233
 30
0.0
 11
156.4917534439962
 21
41.44411545637526
 31
0.0
  0
LINE
  5
26C
330
15C
100
AcDbEntity
  8
DV3_0
 62
     7
370
    35
100
AcDbLine
 10
156.4917534439962
 20
41.81412035334233
 30
0.0
 11
155.7138817526647
 21
41.47777063471725
 31
0.0
  0
LINE
  5
26D
330
15C
100
AcDbEntity
  8
DV3_0
 62
     7
370
    35
100
AcDbLine
 10
155.7138817526648
 20
41.47777063471725
 30
0.0
 11
155.7138817526648
 21
41.33164461292697
 31
0.0
  0
LINE
  5
26E
330
15C
100
AcDbEntity
  8
DV3_0
 62
     7
370
    35
100
AcDbLine
 10
155.6572736625677
 20
41.34236012317507
 30
0.0
 11
155.5982930203929
 21
41.62663304923167
 31
0.0
  0
ELLIPSE
  5
26F
330
15C
100
AcDbEntity
  8
DV3_0
 62
     7
370
    25
100
AcDbEllipse
 10
149.9949457770509
 20
98.94307795159739
 30
0.0
 11
4.999999999999997
 21
-5.204170427930422E-16
 31
0.0
210
0.0
220
0.0
230
1.0
 40
0.5773502691896254
 41
3.143882090118108
 42
6.280840515521322
  0
ELLIPSE
  5
270
330
15C
100
AcDbEntity
  8
DV3_0
 62
     7
370
    35
100
AcDbEllipse
 10
149.9949457770509
 20
46.91951923576305
 30
0.0
 11
-5.000000000000004
 21
1.214306433183765E-15
 31
0.0
210
0.0
220
0.0
230
1.0
 40
0.5773502691896257
 41
0.0
 42
3.141592653589794
  0
LINE
  5
271
330
15C
100
AcDbEntity
  8
DV3_0
 62
     7
370
    35
100
AcDbLine
 10
154.9949457770509
 20
46.91951923576305
 30
0.0
 11
154.9949457770509
 21
98.94307795159739
 31
0.0
  0
LINE
  5
272
330
15C
100
AcDbEntity
  8
DV3_0
 62
     7
370
    35
100
AcDbLine
 10
144.9949457770509
 20
98.94307795159739
 30
0.0
 11
144.9949457770509
 21
46.91951923576305
 31
0.0
  0
SPLINE
  5
273
330
15C
100
AcDbEntity
  8
DV3_0
 62
     7
370
    35
100
AcDbSpline
210
0.0
220
0.0
230
1.0
 70
     8
 71
     3
 72
    12
 73
     8
 74
     0
 42
0.000000001
 43
0.0000000001
 40
0.0
 40
0.0
 40
0.0
 40
0.0
 40
0.0073922797342143
 40
0.0269391353758134
 40
0.0464843154354092
 40
0.066112413708226
 40
0.0788585674701286
 40
0.0788585674701286
 40
0.0788585674701286
 40
0.0788585674701286
 10
154.9923950740232
 20
98.93484619531704
 30
0.0
 10
154.9932873727442
 20
98.96378615025023
 30
0.0
 10
154.9957867514734
 20
99.05370929803823
 30
0.0
 10
154.9785007336967
 20
99.22350232091897
 30
0.0
 10
154.9403235181814
 20
99.42843376041449
 30
0.0
 10
154.8871537751491
 20
99.60808578904266
 30
0.0
 10
154.8451108771048
 20
99.71760191424869
 30
0.0
 10
154.8272025683477
 20
99.76031607878694
 30
0.0
  0
SPLINE
  5
274
330
15C
100
AcDbEntity
  8
DV3_0
 62
     7
370
    35
100
AcDbSpline
210
0.0
220
0.0
230
1.0
 70
     8
 71
     3
 72
    12
 73
     8
 74
     0
 42
0.000000001
 43
0.0000000001
 40
0.9210386110886222
 40
0.9210386110886222
 40
0.9210386110886222
 40
0.9210386110886222
 40
0.9371435686422437
 40
0.9572672812060173
 40
0.9771339501790123
 40
0.9968096257144617
 40
1.0
 40
1.0
 40
1.0
 40
1.0
 10
145.1631951405737
 20
99.76152068142221
 30
0.0
 10
145.140541142857
 20
99.70756407557654
 30
0.0
 10
145.0944632499725
 20
99.58475756373916
 30
0.0
 10
145.0403526920742
 20
99.38984488409585
 30
0.0
 10
145.0062826251315
 20
99.18131323382953
 30
0.0
 10
144.9924378213071
 20
99.02429329060462
 30
0.0
 10
144.9958548282997
 20
98.94751553422508
 30
0.0
 10
144.9964264305584
 20
98.93503248184862
 30
0.0
  0
SPLINE
  5
275
330
15C
100
AcDbEntity
  8
DV3_0
 62
     7
370
    35
100
AcDbSpline
210
0.0
220
0.0
230
1.0
 70
    12
 71
     2
 72
     8
 73
     5
 74
     0
 42
0.000000001
 43
0.0000000001
 40
0.9354986839960566
 40
0.9354986839960566
 40
0.9354986839960566
 40
0.9374148620416995
 40
0.9374148620416995
 40
0.9384235302203124
 40
0.9384235302203124
 40
0.9384235302203124
 10
153.7629477570521
 20
42.50670516471087
 30
0.0
 41
0.9945364887044509
 10
153.8379417888619
 20
42.56917984090386
 30
0.0
 41
0.9970049931914003
 10
153.9089362200178
 20
42.6334358102662
 30
0.0
 41
1.0
 10
153.9462543014723
 20
42.66721183268886
 30
0.0
 41
0.9984234408334692
 10
153.9824356949395
 20
42.70153778513119
 30
0.0
 41
0.9969927715615348
  0
ELLIPSE
  5
276
330
15C
100
AcDbEntity
  8
DV3_0
 62
     7
370
    35
100
AcDbEllipse
 10
149.9949457770509
 20
46.10302265483532
 30
0.0
 11
-6.000000000000002
 21
-3.469446951953614E-16
 31
0.0
210
0.0
220
0.0
230
1.0
 40
0.5773502691896256
 41
0.0
 42
3.727278197046945
  0
ELLIPSE
  5
277
330
15C
100
AcDbEntity
  8
DV3_0
 62
     7
370
    35
100
AcDbEllipse
 10
149.9949457770509
 20
46.10302265483532
 30
0.0
 11
-6.000000000000002
 21
-3.469446951953614E-16
 31
0.0
210
0.0
220
0.0
230
1.0
 40
0.5773502691896256
 41
5.697499763722435
 42
6.283185307179586
  0
ELLIPSE
  5
278
330
15C
100
AcDbEntity
  8
DV3_0
 62
     7
370
    35
100
AcDbEllipse
 10
149.9949457770509
 20
45.28652607390759
 30
0.0
 11
6.000000000000002
 21
-6.938893903907228E-16
 31
0.0
210
0.0
220
0.0
230
1.0
 40
0.5773502691896255
 41
3.141592653589793
 42
6.283185307179586
  0
ELLIPSE
  5
279
330
15C
100
AcDbEntity
  8
DV3_0
 62
     7
370
    35
100
AcDbEllipse
 10
149.994945777051
 20
46.91951923576301
 30
0.0
 11
4.999999999999997
 21
-1.734723475976807E-15
 31
0.0
210
0.0
220
0.0
230
1.0
 40
0.5773502691896258
 41
3.140815719242996
 42
6.283185307179586
  0
ELLIPSE
  5
27A
330
15C
100
AcDbEntity
  8
DV3_0
 62
     7
370
    35
100
AcDbEllipse
 10
149.994945777051
 20
46.91951923576301
 30
0.0
 11
4.999999999999997
 21
-1.734723475976807E-15
 31
0.0
210
0.0
220
0.0
230
1.0
 40
0.5773502691896258
 41
0.0000000000000006
 42
0.0006868713602973
  0
SPLINE
  5
27B
330
15C
100
AcDbEntity
  8
DV3_0
 62
     7
370
    35
100
AcDbSpline
210
0.0
220
0.0
230
1.0
 70
     8
 71
     3
 72
     8
 73
     4
 74
     0
 42
0.000000001
 43
0.0000000001
 40
0.718319544823878
 40
0.718319544823878
 40
0.718319544823878
 40
0.718319544823878
 40
0.7312514679977375
 40
0.7312514679977375
 40
0.7312514679977375
 40
0.7312514679977375
 10
155.643457952784
 20
41.41642599313786
 30
0.0
 10
155.61366784017
 20
41.53208343440977
 30
0.0
 10
155.5774343028772
 20
41.64665573613779
 30
0.0
 10
155.5349613704097
 20
41.75963352234226
 30
0.0
  0
SPLINE
  5
27C
330
15C
100
AcDbEntity
  8
DV3_0
 62
     7
370
    35
100
AcDbSpline
210
0.0
220
0.0
230
1.0
 70
     8
 71
     3
 72
     8
 73
     4
 74
     0
 42
0.000000001
 43
0.0000000001
 40
0.1513182696318445
 40
0.1513182696318445
 40
0.1513182696318445
 40
0.1513182696318445
 40
0.1538907188356344
 40
0.1538907188356344
 40
0.1538907188356344
 40
0.1538907188356344
 10
144.7022419770624
 20
43.65501040831411
 30
0.0
 10
144.6911601808474
 20
43.64102671260409
 30
0.0
 10
144.6802392458017
 20
43.62693323374322
 30
0.0
 10
144.6694857654783
 20
43.61273490404199
 30
0.0
  0
SPLINE
  5
27D
330
15C
100
AcDbEntity
  8
DV3_0
 62
     7
370
    35
100
AcDbSpline
210
0.0
220
0.0
230
1.0
 70
     8
 71
     3
 72
     9
 73
     5
 74
     0
 42
0.000000001
 43
0.0000000001
 40
0.7935913898688315
 40
0.7935913898688315
 40
0.7935913898688315
 40
0.7935913898688315
 40
0.7952716510148835
 40
0.7974729614620742
 40
0.7974729614620742
 40
0.7974729614620742
 40
0.7974729614620742
 10
155.7449081939787
 20
44.21451509073482
 30
0.0
 10
155.7448432266771
 20
44.22788206899072
 30
0.0
 10
155.7444955693505
 20
44.25876168527679
 30
0.0
 10
155.7436912624522
 20
44.28963819737456
 30
0.0
 10
155.7430885143955
 20
44.3071457124895
 30
0.0
  0
LINE
  5
27E
330
15C
100
AcDbEntity
  8
DV3_0
 62
     7
370
    35
100
AcDbLine
 10
143.9949457770509
 20
46.10302265483534
 30
0.0
 11
143.9949457770509
 21
45.28652607390761
 31
0.0
  0
LINE
  5
27F
330
15C
100
AcDbEntity
  8
DV3_0
 62
     7
370
    35
100
AcDbLine
 10
155.994945777051
 20
45.28652607390759
 30
0.0
 11
155.994945777051
 21
46.10302265483532
 31
0.0
  0
LINE
  5
280
330
15C
100
AcDbEntity
  8
DV3_0
 62
     7
370
    35
100
AcDbLine
 10
144.9949457770509
 20
43.37167185839492
 30
0.0
 11
144.9949457770509
 21
43.29002220030217
 31
0.0
  0
ELLIPSE
  5
281
330
15C
100
AcDbEntity
  8
DV3_0
 62
     7
370
    35
100
AcDbEllipse
 10
149.9949457770509
 20
101.3086388966718
 30
0.0
 11
4.83
 21
0.0
 31
0.0
210
0.0
220
0.0
230
1.0
 40
0.5773502691896263
 41
3.915132881860238
 42
5.430705783289536
  0
ELLIPSE
  5
282
330
15C
100
AcDbEntity
  8
DV3_0
 62
     7
370
    25
100
AcDbEllipse
 10
149.9949457770509
 20
111.4225252702025
 30
0.0
 11
-4.600000000000004
 21
-2.255140518769849E-15
 31
0.0
210
0.0
220
0.0
230
1.0
 40
0.5773502691896252
 41
0.0
 42
6.283185307179586
  0
ELLIPSE
  5
283
330
15C
100
AcDbEntity
  8
DV3_0
 62
     7
370
    35
100
AcDbEllipse
 10
149.9949457770509
 20
111.0959266378314
 30
0.0
 11
4.999999999999998
 21
0.0
 31
0.0
210
0.0
220
0.0
230
1.0
 40
0.5773502691896258
 41
6.281035572367766
 42
6.283185307179586
  0
ELLIPSE
  5
284
330
15C
100
AcDbEntity
  8
DV3_0
 62
     7
370
    25
100
AcDbEllipse
 10
149.9949457770509
 20
111.0959266378314
 30
0.0
 11
4.999999999999998
 21
0.0
 31
0.0
210
0.0
220
0.0
230
1.0
 40
0.5773502691896258
 41
3.142241376271729
 42
6.281035572367766
  0
ELLIPSE
  5
285
330
15C
100
AcDbEntity
  8
DV3_0
 62
     7
370
    25
100
AcDbEllipse
 10
149.994945777051
 20
101.6332925582867
 30
0.0
 11
-5.000000000000007
 21
0.0
 31
0.0
210
0.0
220
0.0
230
1.0
 40
0.5773502691896258
 41
0.0
 42
3.141592653589793
  0
LINE
  5
286
330
15C
100
AcDbEntity
  8
DV3_0
 62
     7
370
    35
100
AcDbLine
 10
154.824945777051
 20
99.17507655628646
 30
0.0
 11
154.824945777051
 21
100.8150327621014
 31
0.0
  0
LINE
  5
287
330
15C
100
AcDbEntity
  8
DV3_0
 62
     7
370
    35
100
AcDbLine
 10
145.1649457770509
 20
100.8147274576322
 30
0.0
 11
145.1649457770509
 21
99.17507655628646
 31
0.0
  0
ARC
  5
288
330
15C
100
AcDbEntity
  8
DV3_0
 62
     7
370
    35
100
AcDbCircle
 10
152.8818518247299
 20
111.0728209734701
 30
0.0
 40
2.11266544027449
100
AcDbArc
 50
0.4313573866722889
 51
35.36558395386513
  0
SPLINE
  5
289
330
15C
100
AcDbEntity
  8
DV3_0
 62
     7
370
    35
100
AcDbSpline
210
0.0
220
0.0
230
1.0
 70
     8
 71
     3
 72
    60
 73
    56
 74
     0
 42
0.000000001
 43
0.0000000001
 40
0.0
 40
0.0
 40
0.0
 40
0.0
 40
0.0104348897109906
 40
0.029241744441957
 40
0.0481394701450975
 40
0.0671600219497383
 40
0.0862785537060293
 40
0.1054701580087472
 40
0.1247117682581761
 40
0.1439835408830457
 40
0.1632694492816689
 40
0.1825548642258855
 40
0.2018312105310473
 40
0.2210934574856533
 40
0.2403387022054541
 40
0.2595656609176308
 40
0.2787742464445775
 40
0.2979652342518298
 40
0.3171400078726631
 40
0.336300370401137
 40
0.3554484084310918
 40
0.3745863962576457
 40
0.3937167301763261
 40
0.4128418847132763
 40
0.4319643843308494
 40
0.4510867854868679
 40
0.4702111654656279
 40
0.489339754222645
 40
0.5084751452731647
 40
0.5276199242479847
 40
0.5467766497167067
 40
0.5659478229444823
 40
0.5851358410445566
 40
0.6043429265758365
 40
0.6235710247199225
 40
0.6428216569079024
 40
0.6620957174084805
 40
0.6813931975355794
 40
0.7007128219911595
 40
0.720051585594054
 40
0.7394041897421272
 40
0.7587608669258459
 40
0.7781065312693402
 40
0.7974238230549978
 40
0.8166910864233797
 40
0.8358829749303348
 40
0.8549719736514056
 40
0.8739309186968157
 40
0.892736301117328
 40
0.9113718048949594
 40
0.9298313243803109
 40
0.9481207774067097
 40
0.9662583622215758
 40
0.9842733239956498
 40
1.0
 40
1.0
 40
1.0
 40
1.0
 10
154.6046789578718
 20
112.2956136508446
 30
0.0
 10
154.583550271303
 20
112.3259169399674
 30
0.0
 10
154.5329943392566
 20
112.3979046489847
 30
0.0
 10
154.4324483559593
 20
112.5243598344572
 30
0.0
 10
154.306193923735
 20
112.6638796696515
 30
0.0
 10
154.1669520863212
 20
112.8001228489136
 30
0.0
 10
154.0163314443715
 20
112.931231537833
 30
0.0
 10
153.8544718084632
 20
113.0571954573355
 30
0.0
 10
153.6820082897761
 20
113.1775163101223
 30
0.0
 10
153.4994885736164
 20
113.2918806775391
 30
0.0
 10
153.3075207585656
 20
113.3999745481925
 30
0.0
 10
153.1067160379617
 20
113.5015343033425
 30
0.0
 10
152.8976916698839
 20
113.5963296217499
 30
0.0
 10
152.6810560130046
 20
113.6841642278738
 30
0.0
 10
152.4574180314268
 20
113.7648649391853
 30
0.0
 10
152.22739090588
 20
113.838277235075
 30
0.0
 10
151.9915931313198
 20
113.90426301533
 30
0.0
 10
151.7506493627281
 20
113.9626992898192
 30
0.0
 10
151.5051909353015
 20
114.0134774836243
 30
0.0
 10
151.2558559795129
 20
114.0565031922053
 30
0.0
 10
151.0032891462659
 20
114.0916962167121
 30
0.0
 10
150.7481409819319
 20
114.1189907550634
 30
0.0
 10
150.4910670093651
 20
114.1383356540332
 30
0.0
 10
150.2327265738241
 20
114.1496946546797
 30
0.0
 10
149.9737815118602
 20
114.1530465837259
 30
0.0
 10
149.7148969496156
 20
114.1483854994361
 30
0.0
 10
149.4567391064731
 20
114.1357210426534
 30
0.0
 10
149.1999719886874
 20
114.1150784577369
 30
0.0
 10
148.9452535338216
 20
114.0864979830148
 30
0.0
 10
148.6932347975062
 20
114.0500342108821
 30
0.0
 10
148.4445602148335
 20
114.0057556802624
 30
0.0
 10
148.1998664173643
 20
113.9537442988185
 30
0.0
 10
147.9597812828799
 20
113.8940947082852
 30
0.0
 10
147.7249232873866
 20
113.8269136469003
 30
0.0
 10
147.4959012332686
 20
113.7523193900981
 30
0.0
 10
147.2733144278342
 20
113.6704413875275
 30
0.0
 10
147.0577533762222
 20
113.5814202623951
 30
0.0
 10
146.8498010226153
 20
113.48540839765
 30
0.0
 10
146.6500345098933
 20
113.3825713972896
 30
0.0
 10
146.4590273128832
 20
113.2730907663019
 30
0.0
 10
146.2773562131982
 20
113.1571712333653
 30
0.0
 10
146.1056065837854
 20
113.0350514165339
 30
0.0
 10
145.9443639492735
 20
112.9070095753571
 30
0.0
 10
145.7942056739468
 20
112.7733698149513
 30
0.0
 10
145.6556894704659
 20
112.6345066214273
 30
0.0
 10
145.5293453840831
 20
112.4908548569046
 30
0.0
 10
145.4156576371838
 20
112.342911650842
 30
0.0
 10
145.3150428390284
 20
112.1912263849222
 30
0.0
 10
145.2278346356296
 20
112.0363989390159
 30
0.0
 10
145.1542575324968
 20
111.8790105158111
 30
0.0
 10
145.09447494193
 20
111.7197752982119
 30
0.0
 10
145.0484132741584
 20
111.558870271757
 30
0.0
 10
145.0164623457851
 20
111.3983045538883
 30
0.0
 10
144.9977778986965
 20
111.2398401489245
 30
0.0
 10
144.9962416998092
 20
111.1457283409025
 30
0.0
 10
144.9956742644809
 20
111.0937709734048
 30
0.0
  0
LINE
  5
28A
330
15C
100
AcDbEntity
  8
DV3_0
 62
     7
370
    35
100
AcDbLine
 10
144.9949457770509
 20
111.0959266378314
 30
0.0
 11
144.9949457770509
 21
101.6332925582868
 31
0.0
  0
LINE
  5
28B
330
15C
100
AcDbEntity
  8
DV3_0
 62
     7
370
    35
100
AcDbLine
 10
154.9949457770509
 20
101.6332925582868
 30
0.0
 11
154.9949457770509
 21
111.0959266378314
 31
0.0
  0
SPLINE
  5
28C
330
15C
100
AcDbEntity
  8
DV3_0
 62
     7
370
    35
100
AcDbSpline
210
0.0
220
0.0
230
1.0
 70
     8
 71
     3
 72
    25
 73
    21
 74
     0
 42
0.000000001
 43
0.0000000001
 40
0.0
 40
0.0
 40
0.0
 40
0.0
 40
0.0069309055831962
 40
0.0691455841525669
 40
0.1314309280501038
 40
0.193753770587723
 40
0.2560495849789005
 40
0.3182485519268444
 40
0.3802629867876212
 40
0.4419899840198172
 40
0.5033178813509079
 40
0.5641366338293263
 40
0.6243508799611824
 40
0.6838931902907597
 40
0.7427345094217399
 40
0.8008895517293411
 40
0.8584165202383146
 40
0.9154120934849459
 40
0.9720034465790548
 40
1.0
 40
1.0
 40
1.0
 40
1.0
 10
153.1709548117385
 20
99.2082289392619
 30
0.0
 10
153.1794274028047
 20
99.21230341317455
 30
0.0
 10
153.2520692189077
 20
99.2472703160031
 30
0.0
 10
153.3949952967661
 20
99.32650549263376
 30
0.0
 10
153.5834643436885
 20
99.43908401313459
 30
0.0
 10
153.7639444918956
 20
99.56025050402094
 30
0.0
 10
153.9338812081058
 20
99.68741452935186
 30
0.0
 10
154.0931368604634
 20
99.82089389160073
 30
0.0
 10
154.240941979796
 20
99.9601523156894
 30
0.0
 10
154.3767238186588
 20
100.10479102518
 30
0.0
 10
154.4999105698043
 20
100.254278415127
 30
0.0
 10
154.6100165461084
 20
100.4080292213634
 30
0.0
 10
154.7066530356945
 20
100.5654084008986
 30
0.0
 10
154.7895403755767
 20
100.725745473359
 30
0.0
 10
154.8585377296845
 20
100.8884220862401
 30
0.0
 10
154.9135289181997
 20
101.0526734317654
 30
0.0
 10
154.9547814421518
 20
101.2184249399675
 30
0.0
 10
154.9815228138157
 20
101.3832871846674
 30
0.0
 10
154.9944717198252
 20
101.5252455557742
 30
0.0
 10
154.9936695231267
 20
101.6027184070728
 30
0.0
 10
154.9932615636335
 20
101.6328793126217
 30
0.0
  0
ARC
  5
28D
330
15C
100
AcDbEntity
  8
DV3_0
 62
     7
370
    35
100
AcDbCircle
 10
147.7205009010618
 20
101.8223054721564
 30
0.0
 40
2.730631848148087
100
AcDbArc
 50
184.0268394708199
 51
244.3258291630326
  0
ENDBLK
  5
28F
330
15C
100
AcDbEntity
  8
0
100
AcDbBlockEnd
  0
BLOCK
  5
29A
330
290
100
AcDbEntity
  8
0
100
AcDbBlockBegin
  2
GDimGGroup
 70
     0
 10
0.0
 20
0.0
 30
0.0
  3
GDimGGroup
  1

  0
LINE
  5
292
330
290
100
AcDbEntity
  8
Default
 62
     7
370
    25
100
AcDbLine
 10
68.82260505817538
 20
72.71449656603228
 30
0.0
 11
60.16536304953264
 21
77.71970948192737
 31
0.0
  0
LINE
  5
293
330
290
100
AcDbEntity
  8
Default
 62
     7
370
    25
100
AcDbLine
 10
60.1653628560282
 20
77.7197095938026
 30
0.0
 11
39.97697343688627
 21
89.39169327762836
 31
0.0
  0
LWPOLYLINE
  5
294
330
290
100
AcDbEntity
  8
Default
 62
     7
370
    25
100
AcDbPolyline
 90
        4
 70
     0
 43
0.0
 10
65.97517172139185
 20
73.78319837354553
 10
66.47569302851959
 20
74.64892260128543
 10
68.82260505817538
 20
72.71449656603228
 10
65.97517172139185
 20
73.78319837354553
  0
LWPOLYLINE
  5
295
330
290
100
AcDbEntity
  8
Default
 62
     7
370
    25
100
AcDbPolyline
 90
        4
 70
     0
 43
0.0
 10
62.51227488568401
 20
75.78528355854945
 10
63.01279619281175
 20
76.65100778628934
 10
60.1653628560282
 20
77.7197095938026
 10
62.51227488568401
 20
75.78528355854945
  0
TEXT
  5
297
330
290
100
AcDbEntity
  8
Default
 62
     7
370
    25
100
AcDbText
 10
41.26137374757118
 20
89.51543970946804
 30
0.0
 40
3.0
  1
n
 50
329.9655048886326
  7
GDT
 11
42.76293765590228
 21
92.1126123701122
 31
0.0
100
AcDbText
 73
     3
  0
TEXT
  5
299
330
290
100
AcDbEntity
  8
Default
 62
     7
370
    25
100
AcDbText
 10
45.78136546574486
 20
86.9021916444427
 30
0.0
 40
3.0
  1
100
 50
329.9655048886326
  7
SEACAD_Solid_Edge_ANSI
 11
47.28292937407596
 21
89.49936430508686
 31
0.0
100
AcDbText
 73
     3
  0
ENDBLK
  5
29B
330
290
100
AcDbEntity
  8
0
100
AcDbBlockEnd
  0
BLOCK
  5
2CF
330
29C
100
AcDbEntity
  8
0
100
AcDbBlockBegin
  2
SE3
 70
     0
 10
0.0
 20
0.0
 30
0.0
  3
SE3
  1

  0
LINE
  5
29F
330
29C
100
AcDbEntity
  8
DV4_0
 62
     7
370
    35
100
AcDbLine
 10
142.899324829668
 20
149.7862738720061
 30
0.0
 11
163.899324829668
 21
149.7862738720061
 31
0.0
  0
LINE
  5
2A0
330
29C
100
AcDbEntity
  8
DV4_0
 62
     7
370
    35
100
AcDbLine
 10
144.4993248296681
 20
131.2862738720061
 30
0.0
 11
162.2993248296681
 21
131.2862738720061
 31
0.0
  0
LINE
  5
2A1
330
29C
100
AcDbEntity
  8
DV4_0
 62
     7
370
    35
100
AcDbLine
 10
144.4993248296681
 20
130.5362738720061
 30
0.0
 11
162.2993248296681
 21
130.5362738720061
 31
0.0
  0
LINE
  5
2A2
330
29C
100
AcDbEntity
  8
DV4_0
 62
     7
370
    35
100
AcDbLine
 10
142.899324829668
 20
151.4862738720061
 30
0.0
 11
163.899324829668
 21
151.4862738720061
 31
0.0
  0
LINE
  5
2A3
330
29C
100
AcDbEntity
  8
DV4_0
 62
     7
370
    35
100
AcDbLine
 10
142.899324829668
 20
151.4862738720061
 30
0.0
 11
142.899324829668
 21
149.7862738720061
 31
0.0
  0
LINE
  5
2A4
330
29C
100
AcDbEntity
  8
DV4_0
 62
     7
370
    35
100
AcDbLine
 10
163.8993248296681
 20
149.7862738720061
 30
0.0
 11
163.8993248296681
 21
151.4862738720061
 31
0.0
  0
LINE
  5
2A5
330
29C
100
AcDbEntity
  8
DV4_0
 62
     7
370
    35
100
AcDbLine
 10
144.649324829668
 20
149.7862738720061
 30
0.0
 11
144.649324829668
 21
131.2862738720061
 31
0.0
  0
LINE
  5
2A6
330
29C
100
AcDbEntity
  8
DV4_0
 62
     7
370
    35
100
AcDbLine
 10
162.1493248296681
 20
131.2862738720061
 30
0.0
 11
162.1493248296681
 21
149.7862738720061
 31
0.0
  0
LINE
  5
2A7
330
29C
100
AcDbEntity
  8
DV4_0
 62
     7
370
    35
100
AcDbLine
 10
162.2993248296681
 20
130.5362738720061
 30
0.0
 11
162.2993248296681
 21
131.2862738720061
 31
0.0
  0
LINE
  5
2A8
330
29C
100
AcDbEntity
  8
DV4_0
 62
     7
370
    35
100
AcDbLine
 10
144.4993248296681
 20
131.2862738720061
 30
0.0
 11
144.4993248296681
 21
130.5362738720061
 31
0.0
  0
LINE
  5
2A9
330
29C
100
AcDbEntity
  8
DV4_0
 62
     7
370
    35
100
AcDbLine
 10
146.4833831928784
 20
149.4362738720061
 30
0.0
 11
147.2833831928784
 21
149.4362738720061
 31
0.0
  0
LINE
  5
2AA
330
29C
100
AcDbEntity
  8
DV4_0
 62
     7
370
    35
100
AcDbLine
 10
146.4833831928784
 20
149.7862738720061
 30
0.0
 11
146.4833831928784
 21
149.4362738720061
 31
0.0
  0
LINE
  5
2AB
330
29C
100
AcDbEntity
  8
DV4_0
 62
     7
370
    35
100
AcDbLine
 10
147.2833831928784
 20
149.4362738720061
 30
0.0
 11
147.2833831928784
 21
149.7862738720061
 31
0.0
  0
LINE
  5
2AC
330
29C
100
AcDbEntity
  8
DV4_0
 62
     7
370
    15
100
AcDbLine
 10
146.5600831928784
 20
149.4362738720061
 30
0.0
 11
146.5600831928784
 21
149.7862738720061
 31
0.0
  0
LINE
  5
2AD
330
29C
100
AcDbEntity
  8
DV4_0
 62
     7
370
    15
100
AcDbLine
 10
147.2066831928784
 20
149.4362738720061
 30
0.0
 11
147.2066831928784
 21
149.7862738720061
 31
0.0
  0
LINE
  5
2AE
330
29C
100
AcDbEntity
  8
DV4_0
 62
     7
370
    35
100
AcDbLine
 10
159.5152664664577
 20
149.4362738720061
 30
0.0
 11
160.3152664664578
 21
149.4362738720061
 31
0.0
  0
LINE
  5
2AF
330
29C
100
AcDbEntity
  8
DV4_0
 62
     7
370
    35
100
AcDbLine
 10
159.5152664664577
 20
149.7862738720061
 30
0.0
 11
159.5152664664577
 21
149.4362738720061
 31
0.0
  0
LINE
  5
2B0
330
29C
100
AcDbEntity
  8
DV4_0
 62
     7
370
    35
100
AcDbLine
 10
160.3152664664578
 20
149.4362738720061
 30
0.0
 11
160.3152664664578
 21
149.7862738720061
 31
0.0
  0
LINE
  5
2B1
330
29C
100
AcDbEntity
  8
DV4_0
 62
     7
370
    15
100
AcDbLine
 10
159.5919664664577
 20
149.4362738720061
 30
0.0
 11
159.5919664664577
 21
149.7862738720061
 31
0.0
  0
LINE
  5
2B2
330
29C
100
AcDbEntity
  8
DV4_0
 62
     7
370
    15
100
AcDbLine
 10
160.2385664664577
 20
149.4362738720061
 30
0.0
 11
160.2385664664577
 21
149.7862738720061
 31
0.0
  0
LINE
  5
2B3
330
29C
100
AcDbEntity
  8
DV4_0
 62
     7
370
    25
100
AcDbLine
 10
156.399324829668
 20
217.2518606007634
 30
0.0
 11
146.399324829668
 21
217.2518606007634
 31
0.0
  0
LINE
  5
2B4
330
29C
100
AcDbEntity
  8
DV4_0
 62
     7
370
    35
100
AcDbLine
 10
156.399324829668
 20
153.5362738720061
 30
0.0
 11
146.3993248296681
 21
153.5362738720061
 31
0.0
  0
LINE
  5
2B5
330
29C
100
AcDbEntity
  8
DV4_0
 62
     7
370
    35
100
AcDbLine
 10
156.399324829668
 20
153.5362738720061
 30
0.0
 11
156.399324829668
 21
217.2518606007635
 31
0.0
  0
LINE
  5
2B6
330
29C
100
AcDbEntity
  8
DV4_0
 62
     7
370
    35
100
AcDbLine
 10
146.399324829668
 20
217.2518606007634
 30
0.0
 11
146.399324829668
 21
153.5362738720061
 31
0.0
  0
ARC
  5
2B7
330
29C
100
AcDbEntity
  8
DV4_0
 62
     7
370
    35
100
AcDbCircle
 10
146.9493248296681
 20
217.2518606007634
 30
0.0
 40
0.5500000000000062
100
AcDbArc
 50
133.7021144373452
 51
180.0
  0
ARC
  5
2B8
330
29C
100
AcDbEntity
  8
DV4_0
 62
     7
370
    35
100
AcDbCircle
 10
155.849324829668
 20
217.2518606007634
 30
0.0
 40
0.5499999999999949
100
AcDbArc
 50
0.0
 51
46.29788556263387
  0
ELLIPSE
  5
2B9
330
29C
100
AcDbEntity
  8
DV4_0
 62
     7
370
    35
100
AcDbEllipse
 10
146.8134162547441
 20
151.5626572498844
 30
0.0
 11
9.668527210502096E-15
 21
-0.749999999999995
 31
0.0
210
0.0
220
0.0
230
1.0
 40
0.917181714984796
 41
4.747574076911941
 42
4.814410371441638
  0
LINE
  5
2BA
330
29C
100
AcDbEntity
  8
DV4_0
 62
     7
370
    35
100
AcDbLine
 10
145.399324829668
 20
152.5362738720061
 30
0.0
 11
157.399324829668
 21
152.5362738720061
 31
0.0
  0
LINE
  5
2BB
330
29C
100
AcDbEntity
  8
DV4_0
 62
     7
370
    35
100
AcDbLine
 10
157.399324829668
 20
151.5362738720061
 30
0.0
 11
145.399324829668
 21
151.5362738720061
 31
0.0
  0
LINE
  5
2BC
330
29C
100
AcDbEntity
  8
DV4_0
 62
     7
370
    35
100
AcDbLine
 10
156.3993248296681
 20
153.5362738720061
 30
0.0
 11
146.3993248296681
 21
153.5362738720061
 31
0.0
  0
LINE
  5
2BD
330
29C
100
AcDbEntity
  8
DV4_0
 62
     7
370
    35
100
AcDbLine
 10
145.399324829668
 20
152.5362738720061
 30
0.0
 11
145.399324829668
 21
151.5362738720061
 31
0.0
  0
LINE
  5
2BE
330
29C
100
AcDbEntity
  8
DV4_0
 62
     7
370
    35
100
AcDbLine
 10
157.399324829668
 20
151.5362738720061
 30
0.0
 11
157.399324829668
 21
152.5362738720061
 31
0.0
  0
LINE
  5
2BF
330
29C
100
AcDbEntity
  8
DV4_0
 62
     7
370
    35
100
AcDbLine
 10
156.399324829668
 20
151.4862738720061
 30
0.0
 11
156.399324829668
 21
151.5362738720061
 31
0.0
  0
LINE
  5
2C0
330
29C
100
AcDbEntity
  8
DV4_0
 62
     7
370
    35
100
AcDbLine
 10
146.399324829668
 20
151.5362738720061
 30
0.0
 11
146.399324829668
 21
151.4862738720061
 31
0.0
  0
ARC
  5
2C1
330
29C
100
AcDbEntity
  8
DV4_0
 62
     7
370
    35
100
AcDbCircle
 10
157.3993248296681
 20
153.5362738720061
 30
0.0
 40
1.000000000000001
100
AcDbArc
 50
180.0
 51
270.0
  0
ARC
  5
2C2
330
29C
100
AcDbEntity
  8
DV4_0
 62
     7
370
    35
100
AcDbCircle
 10
145.3993248296681
 20
153.5362738720061
 30
0.0
 40
0.9999999999999981
100
AcDbArc
 50
270.0
 51
0.0
  0
LINE
  5
2C3
330
29C
100
AcDbEntity
  8
DV4_0
 62
     7
370
    35
100
AcDbLine
 10
156.2293248296681
 20
220.1490692362076
 30
0.0
 11
146.5693248296681
 21
220.1490692362076
 31
0.0
  0
LINE
  5
2C4
330
29C
100
AcDbEntity
  8
DV4_0
 62
     7
370
    35
100
AcDbLine
 10
146.799324829668
 20
232.5359997020265
 30
0.0
 11
155.999324829668
 21
232.5359997020265
 31
0.0
  0
LINE
  5
2C5
330
29C
100
AcDbEntity
  8
DV4_0
 62
     7
370
    25
100
AcDbLine
 10
156.399324829668
 20
232.1359997020265
 30
0.0
 11
146.399324829668
 21
232.1359997020265
 31
0.0
  0
LINE
  5
2C6
330
29C
100
AcDbEntity
  8
DV4_0
 62
     7
370
    25
100
AcDbLine
 10
146.3993248296681
 20
220.546687143249
 30
0.0
 11
156.3993248296681
 21
220.546687143249
 31
0.0
  0
LINE
  5
2C7
330
29C
100
AcDbEntity
  8
DV4_0
 62
     7
370
    35
100
AcDbLine
 10
156.2293248296681
 20
217.6494785078048
 30
0.0
 11
156.2293248296681
 21
220.1490692362076
 31
0.0
  0
LINE
  5
2C8
330
29C
100
AcDbEntity
  8
DV4_0
 62
     7
370
    35
100
AcDbLine
 10
146.5693248296681
 20
220.1490692362076
 30
0.0
 11
146.5693248296681
 21
217.649478507805
 31
0.0
  0
ARC
  5
2C9
330
29C
100
AcDbEntity
  8
DV4_0
 62
     7
370
    35
100
AcDbCircle
 10
155.999324829668
 20
232.1359997020265
 30
0.0
 40
0.4000000000000004
100
AcDbArc
 50
0.0
 51
90.0
  0
ARC
  5
2CA
330
29C
100
AcDbEntity
  8
DV4_0
 62
     7
370
    35
100
AcDbCircle
 10
146.799324829668
 20
232.1359997020265
 30
0.0
 40
0.4000000000000004
100
AcDbArc
 50
90.0
 51
180.0
  0
LINE
  5
2CB
330
29C
100
AcDbEntity
  8
DV4_0
 62
     7
370
    35
100
AcDbLine
 10
146.399324829668
 20
232.1359997020265
 30
0.0
 11
146.399324829668
 21
220.546687143249
 31
0.0
  0
LINE
  5
2CC
330
29C
100
AcDbEntity
  8
DV4_0
 62
     7
370
    35
100
AcDbLine
 10
156.399324829668
 20
220.546687143249
 30
0.0
 11
156.399324829668
 21
232.1359997020265
 31
0.0
  0
ARC
  5
2CD
330
29C
100
AcDbEntity
  8
DV4_0
 62
     7
370
    35
100
AcDbCircle
 10
155.8493248296681
 20
220.546687143249
 30
0.0
 40
0.550000000000005
100
AcDbArc
 50
313.7021144373598
 51
0.0
  0
ARC
  5
2CE
330
29C
100
AcDbEntity
  8
DV4_0
 62
     7
370
    35
100
AcDbCircle
 10
146.9493248296681
 20
220.546687143249
 30
0.0
 40
0.5500000000000005
100
AcDbArc
 50
180.0
 51
226.2978855626444
  0
ENDBLK
  5
2D0
330
29C
100
AcDbEntity
  8
0
100
AcDbBlockEnd
  0
BLOCK
  5
2D9
330
2D1
100
AcDbEntity
  8
0
100
AcDbBlockBegin
  2
GDimGGroup1
 70
     0
 10
0.0
 20
0.0
 30
0.0
  3
GDimGGroup1
  1

  0
LWPOLYLINE
  5
2D3
330
2D1
100
AcDbEntity
  8
Default
 62
     7
370
    25
100
AcDbPolyline
 90
        4
 70
     0
 43
0.0
 10
85.72931963931018
 20
148.486273845929
 10
84.72931963061782
 20
148.486273845929
 10
85.229319634964
 20
151.4862738720061
 10
85.72931963931018
 20
148.486273845929
  0
LWPOLYLINE
  5
2D4
330
2D1
100
AcDbEntity
  8
Default
 62
     7
370
    25
100
AcDbPolyline
 90
        4
 70
     0
 43
0.0
 10
85.72931963931018
 20
133.536273164946
 10
84.72931963061782
 20
133.536273164946
 10
85.229319634964
 20
130.5362731388689
 10
85.72931963931018
 20
133.536273164946
  0
LINE
  5
2D5
330
2D1
100
AcDbEntity
  8
Default
 62
     7
370
    25
100
AcDbLine
 10
74.99398395710183
 20
151.4862738720061
 30
0.0
 11
86.72931964800252
 21
151.4862738720061
 31
0.0
  0
LINE
  5
2D6
330
2D1
100
AcDbEntity
  8
Default
 62
     7
370
    25
100
AcDbLine
 10
73.39398395710182
 20
130.5362738720061
 30
0.0
 11
86.72931964800252
 21
130.5362738720061
 31
0.0
  0
LINE
  5
2D7
330
2D1
100
AcDbEntity
  8
Default
 62
     7
370
    25
100
AcDbLine
 10
85.229319634964
 20
151.4862738720061
 30
0.0
 11
85.229319634964
 21
130.5362731388689
 31
0.0
  0
TEXT
  5
2D8
330
2D1
100
AcDbEntity
  8
Default
 62
     7
370
    25
100
AcDbText
 10
84.47931963496399
 20
137.4895343750027
 30
0.0
 40
3.0
  1
210
 50
90.0
  7
SEACAD_Solid_Edge_ANSI
 11
81.47931963496399
 21
137.4895343750027
 31
0.0
100
AcDbText
 73
     3
  0
ENDBLK
  5
2DA
330
2D1
100
AcDbEntity
  8
0
100
AcDbBlockEnd
  0
BLOCK
  5
2E3
330
2DB
100
AcDbEntity
  8
0
100
AcDbBlockBegin
  2
GDimGGroup2
 70
     0
 10
0.0
 20
0.0
 30
0.0
  3
GDimGGroup2
  1

  0
LWPOLYLINE
  5
2DD
330
2DB
100
AcDbEntity
  8
Default
 62
     7
370
    25
100
AcDbPolyline
 90
        4
 70
     0
 43
0.0
 10
181.4892520215762
 20
229.5359996759495
 10
180.4892520128838
 20
229.5359996759495
 10
180.98925201723
 20
232.5359997020265
 10
181.4892520215762
 20
229.5359996759495
  0
LWPOLYLINE
  5
2DE
330
2DB
100
AcDbEntity
  8
Default
 62
     7
370
    25
100
AcDbPolyline
 90
        4
 70
     0
 43
0.0
 10
181.4892520215762
 20
133.5362773069343
 10
180.4892520128838
 20
133.5362773069343
 10
180.98925201723
 20
130.5362772808573
 10
181.4892520215762
 20
133.5362773069343
  0
LINE
  5
2DF
330
2DB
100
AcDbEntity
  8
Default
 62
     7
370
    25
100
AcDbLine
 10
155.999324829668
 20
232.5359997020265
 30
0.0
 11
182.4892520302685
 21
232.5359997020265
 31
0.0
  0
LINE
  5
2E0
330
2DB
100
AcDbEntity
  8
Default
 62
     7
370
    25
100
AcDbLine
 10
162.2993248296681
 20
130.5362738720061
 30
0.0
 11
182.4892520302685
 21
130.5362738720061
 31
0.0
  0
LINE
  5
2E1
330
2DB
100
AcDbEntity
  8
Default
 62
     7
370
    25
100
AcDbLine
 10
180.98925201723
 20
232.5359997020265
 30
0.0
 11
180.98925201723
 21
130.5362772808573
 31
0.0
  0
TEXT
  5
2E2
330
2DB
100
AcDbEntity
  8
Default
 62
     7
370
    25
100
AcDbText
 10
180.23925201723
 20
176.8404863175288
 30
0.0
 40
3.0
  1
1020
 50
90.0
  7
SEACAD_Solid_Edge_ANSI
 11
177.23925201723
 21
176.8404863175288
 31
0.0
100
AcDbText
 73
     3
  0
ENDBLK
  5
2E4
330
2DB
100
AcDbEntity
  8
0
100
AcDbBlockEnd
  0
BLOCK
  5
2F3
330
2ED
100
AcDbEntity
  8
0
100
AcDbBlockBegin
  2
SEANNOT_GROUP
 70
     0
 10
0.0
 20
0.0
 30
0.0
  3
SEANNOT_GROUP
  1

  0
TEXT
  5
2EF
330
2ED
100
AcDbEntity
  8
Predeterminado
 62
     7
370
     5
100
AcDbText
 10
202.5201921067479
 20
12.7403379754914
 30
0.0
 40
1.5
  1
V 
 50
90.0
  7
SEACAD_Solid_Edge_ANSI
 11
201.0201921067479
 21
12.7403379754914
 31
0.0
100
AcDbText
 73
     3
  0
TEXT
  5
2F0
330
2ED
100
AcDbEntity
  8
Predeterminado
 62
     7
370
     5
100
AcDbText
 10
202.5201921067479
 20
14.6528379754914
 30
0.0
 40
1.5
  1
01
 50
90.0
  7
SEACAD_Solid_Edge_ANSI
 11
201.0201921067479
 21
14.6528379754914
 31
0.0
100
AcDbText
 73
     3
  0
TEXT
  5
2F1
330
2ED
100
AcDbEntity
  8
Predeterminado
 62
     7
370
     5
100
AcDbText
 10
202.5201921067479
 20
16.7153379754914
 30
0.0
 40
1.5
  1
  
 50
90.0
  7
SEACAD_Solid_Edge_ANSI
 11
201.0201921067479
 21
16.7153379754914
 31
0.0
100
AcDbText
 73
     3
  0
TEXT
  5
2F2
330
2ED
100
AcDbEntity
  8
Predeterminado
 62
     7
370
     5
100
AcDbText
 10
202.5201921067479
 20
17.7653379754914
 30
0.0
 40
1.5
  1
26/04/2021
 50
90.0
  7
SEACAD_Solid_Edge_ANSI
 11
201.0201921067479
 21
17.7653379754914
 31
0.0
100
AcDbText
 73
     3
  0
ENDBLK
  5
2F4
330
2ED
100
AcDbEntity
  8
0
100
AcDbBlockEnd
  0
BLOCK
  5
2F8
330
2F5
100
AcDbEntity
  8
0
100
AcDbBlockBegin
  2
SEANNOT_GROUP1
 70
     0
 10
0.0
 20
0.0
 30
0.0
  3
SEANNOT_GROUP1
  1

  0
TEXT
  5
2F7
330
2F5
100
AcDbEntity
  8
Predeterminado
 62
     7
370
     5
100
AcDbText
 10
83.57180796662536
 20
275.956987846381
 30
0.0
 40
6.0
  1
Pilona flexible
  7
SEACAD_Solid_Edge_ANSI
 11
83.57180796662536
 21
281.956987846381
 31
0.0
100
AcDbText
 73
     3
  0
ENDBLK
  5
2F9
330
2F5
100
AcDbEntity
  8
0
100
AcDbBlockEnd
  0
BLOCK
  5
2FD
330
2FA
100
AcDbEntity
  8
0
100
AcDbBlockBegin
  2
SEANNOT_GROUP2
 70
     0
 10
0.0
 20
0.0
 30
0.0
  3
SEANNOT_GROUP2
  1

  0
TEXT
  5
2FC
330
2FA
100
AcDbEntity
  8
Predeterminado
 62
     7
370
     5
100
AcDbText
 10
132.0043047790776
 20
271.5157094542311
 30
0.0
 40
3.0
  1
HflexMi
  7
SEACAD_Solid_Edge_ANSI
 11
132.0043047790776
 21
274.5157094542311
 31
0.0
100
AcDbText
 73
     3
  0
ENDBLK
  5
2FE
330
2FA
100
AcDbEntity
  8
0
100
AcDbBlockEnd
  0
ENDSEC
  0
SECTION
  2
ENTITIES
  0
INSERT
  5
70
330
1F
100
AcDbEntity
  8
Default
100
AcDbBlockReference
  2
SE
 10
0.0
 20
0.0
 30
0.0
  0
INSERT
  5
127
330
1F
100
AcDbEntity
  8
Default
100
AcDbBlockReference
  2
SE1
 10
0.0
 20
0.0
 30
0.0
  0
INSERT
  5
15D
330
1F
100
AcDbEntity
  8
Default
100
AcDbBlockReference
  2
SE2
 10
0.0
 20
0.0
 30
0.0
  0
INSERT
  5
291
330
1F
100
AcDbEntity
  8
Default
100
AcDbBlockReference
  2
GDimGGroup
 10
0.0
 20
0.0
 30
0.0
  0
INSERT
  5
29D
330
1F
100
AcDbEntity
  8
Default
100
AcDbBlockReference
  2
SE3
 10
0.0
 20
0.0
 30
0.0
  0
INSERT
  5
2D2
330
1F
100
AcDbEntity
  8
Default
100
AcDbBlockReference
  2
GDimGGroup1
 10
0.0
 20
0.0
 30
0.0
  0
INSERT
  5
2DC
330
1F
100
AcDbEntity
  8
Default
100
AcDbBlockReference
  2
GDimGGroup2
 10
0.0
 20
0.0
 30
0.0
  0
LINE
  5
2E6
330
1F
100
AcDbEntity
  8
Predeterminado
 62
     7
370
    35
100
AcDbLine
 10
199.9270202384685
 20
10.03236327681463
 30
0.0
 11
19.92702023846866
 21
10.03236327681461
 31
0.0
  0
LINE
  5
2E7
330
1F
100
AcDbEntity
  8
Predeterminado
 62
     7
370
    35
100
AcDbLine
 10
199.9270202384685
 20
10.03236327681463
 30
0.0
 11
199.9270202384685
 21
287.0323632768146
 31
0.0
  0
LINE
  5
2E8
330
1F
100
AcDbEntity
  8
Predeterminado
 62
     7
370
    35
100
AcDbLine
 10
199.9270202384685
 20
287.0323632768146
 30
0.0
 11
19.92702023846866
 21
287.0323632768146
 31
0.0
  0
LINE
  5
2E9
330
1F
100
AcDbEntity
  8
Predeterminado
 62
     7
370
    35
100
AcDbLine
 10
19.92702023846865
 20
287.0323632768146
 30
0.0
 11
19.92702023846865
 21
10.03236327681464
 31
0.0
  0
LINE
  5
2EA
330
1F
100
AcDbEntity
  8
Predeterminado
 62
     7
370
    35
100
AcDbLine
 10
19.92702023846865
 20
267.0323632768146
 30
0.0
 11
199.9270202384685
 21
267.0323632768146
 31
0.0
  0
LINE
  5
2EB
330
1F
100
AcDbEntity
  8
Predeterminado
 62
     7
370
    35
100
AcDbLine
 10
64.9270202384685
 20
271.0323632768146
 30
0.0
 11
64.9270202384685
 21
283.0323632768146
 31
0.0
  0
LINE
  5
2EC
330
1F
100
AcDbEntity
  8
Predeterminado
 62
     7
370
    35
100
AcDbLine
 10
154.9270202384685
 20
271.0323632768146
 30
0.0
 11
154.9270202384685
 21
283.0323632768146
 31
0.0
  0
INSERT
  5
2EE
330
1F
100
AcDbEntity
  8
Predeterminado
100
AcDbBlockReference
  2
SEANNOT_GROUP
 10
0.0
 20
0.0
 30
0.0
  0
INSERT
  5
2F6
330
1F
100
AcDbEntity
  8
Predeterminado
100
AcDbBlockReference
  2
SEANNOT_GROUP1
 10
0.0
 20
0.0
 30
0.0
  0
INSERT
  5
2FB
330
1F
100
AcDbEntity
  8
Predeterminado
100
AcDbBlockReference
  2
SEANNOT_GROUP2
 10
0.0
 20
0.0
 30
0.0
  0
MTEXT
  5
300
102
{ACAD_XDICTIONARY
360
348
102
}
330
1F
100
AcDbEntity
  8
D
100
AcDbMText
 10
26.00429443831315
 20
282.691347141335
 30
0.0
 40
6.0
 41
46.75465178080735
 71
     1
 72
     1
  1
{\C7;BENITO}\P{\fArial|b1|i0|c0|p34;\C7;–}{\C7;Urban}\P
 73
     1
 44
1.0
1001
ACAD
1000
ACAD_MTEXT_DEFINED_HEIGHT_BEGIN
1070
    46
1040
17.79999999999998
1000
ACAD_MTEXT_DEFINED_HEIGHT_END
  0
MTEXT
  5
301
330
1F
100
AcDbEntity
  8
Predeterminado
100
AcDbMText
 10
163.8089186942272
 20
280.4449025454284
 30
0.0
 40
2.5
 41
32.175011
 71
     1
 72
     1
  1
{\fSolid Edge ANSI|b0||i0||c0|p34;\C7;\H2.5;\W1.;T +34 938 521 000\P}{\fSolid Edge ANSI|b0||i0||c0|p34;\C7;\H2.5;\W1.;www.benito.com\P}
 73
     1
 44
1.0
1001
ACAD
1000
ACAD_MTEXT_DEFINED_HEIGHT_BEGIN
1070
    46
1040
9.000010000000009
1000
ACAD_MTEXT_DEFINED_HEIGHT_END
  0
MTEXT
  5
302
330
1F
100
AcDbEntity
  8
Predeterminado
100
AcDbMText
 10
150.6598696583449
 20
8.07143559968931
 30
0.0
 40
2.0
 41
54.23001100000002
 71
     1
 72
     1
  1
{\fSolid Edge ANSI|b0||i0||c0|p34;\C7;\H2.;\W1.;BENITO –Urban –Light –Play –Covers}
 73
     1
 44
1.0
1001
ACAD
1000
ACAD_MTEXT_DEFINED_HEIGHT_BEGIN
1070
    46
1040
3.60001
1000
ACAD_MTEXT_DEFINED_HEIGHT_END
  0
ENDSEC
  0
SECTION
  2
OBJECTS
  0
DICTIONARY
  5
C
330
0
100
AcDbDictionary
281
     1
  3
ACAD_GROUP
350
D
  3
ACAD_LAYOUT
350
1A
  3
ACAD_MATERIAL
350
43
  3
ACAD_MLEADERSTYLE
350
6B
  3
ACAD_MLINESTYLE
350
17
  3
ACAD_PLOTSETTINGS
350
19
  3
ACAD_PLOTSTYLENAME
350
E
  3
ACAD_SCALELIST
350
47
  3
ACAD_TABLESTYLE
350
69
  3
ACAD_VISUALSTYLE
350
2A
  3
ACDB_RECOMPOSE_DATA
350
385
  3
AcDbVariableDictionary
350
303
  3
DWGPROPS
350
347
  0
DICTIONARY
  5
34A
330
8
100
AcDbDictionary
280
     1
281
     1
  3
ACAD_XREC_ROUNDTRIP
360
34B
  0
DICTIONARY
  5
348
330
300
100
AcDbDictionary
280
     1
281
     1
  3
ACAD_MTEXT_RT
360
349
  0
DICTIONARY
  5
D
102
{ACAD_REACTORS
330
C
102
}
330
C
100
AcDbDictionary
281
     1
  0
DICTIONARY
  5
1A
102
{ACAD_REACTORS
330
C
102
}
330
C
100
AcDbDictionary
281
     1
  3
Layout1
350
1E
  3
Model
350
22
  0
DICTIONARY
  5
43
102
{ACAD_REACTORS
330
C
102
}
330
C
100
AcDbDictionary
281
     1
  3
ByBlock
350
45
  3
ByLayer
350
44
  3
Global
350
46
  0
DICTIONARY
  5
6B
102
{ACAD_REACTORS
330
C
102
}
330
C
100
AcDbDictionary
281
     1
  3
Standard
350
6C
  0
DICTIONARY
  5
17
102
{ACAD_REACTORS
330
C
102
}
330
C
100
AcDbDictionary
281
     1
  3
Standard
350
18
  0
DICTIONARY
  5
19
102
{ACAD_REACTORS
330
C
102
}
330
C
100
AcDbDictionary
281
     1
  0
ACDBDICTIONARYWDFLT
  5
E
102
{ACAD_REACTORS
330
C
102
}
330
C
100
AcDbDictionary
281
     1
  3
Normal
350
F
100
AcDbDictionaryWithDefault
340
F
  0
DICTIONARY
  5
47
102
{ACAD_REACTORS
330
C
102
}
330
C
100
AcDbDictionary
281
     1
  3
A0
350
48
  3
A1
350
49
  3
A2
350
4A
  3
A3
350
4B
  3
A4
350
4C
  3
A5
350
4D
  3
A6
350
4E
  3
A7
350
4F
  3
A8
350
50
  3
A9
350
51
  3
B0
350
52
  3
B1
350
53
  3
B2
350
54
  3
B3
350
55
  3
B4
350
56
  3
B5
350
57
  3
B6
350
58
  3
B7
350
59
  3
B8
350
5A
  3
B9
350
5B
  3
C0
350
5C
  3
C1
350
5D
  3
C2
350
5E
  3
C3
350
5F
  3
C4
350
60
  3
C5
350
61
  3
C6
350
62
  3
C7
350
63
  3
C8
350
64
  3
C9
350
65
  3
D0
350
66
  3
D1
350
67
  3
D2
350
68
  0
DICTIONARY
  5
69
102
{ACAD_REACTORS
330
C
102
}
330
C
100
AcDbDictionary
281
     1
  3
Standard
350
6A
  0
DICTIONARY
  5
2A
102
{ACAD_REACTORS
330
C
102
}
330
C
100
AcDbDictionary
281
     1
  3
2dWireframe
350
2F
  3
Basic
350
32
  3
Brighten
350
36
  3
ColorChange
350
3A
  3
Conceptual
350
34
  3
Dim
350
35
  3
EdgeColorOff
350
3D
  3
Facepattern
350
39
  3
Flat
350
2B
  3
FlatWithEdges
350
2C
  3
Gouraud
350
2D
  3
GouraudWithEdges
350
2E
  3
Hidden
350
31
  3
JitterOff
350
3B
  3
Linepattern
350
38
  3
OverhangOff
350
3C
  3
Realistic
350
33
  3
Shaded
350
42
  3
Shaded with edges
350
41
  3
Shades of Gray
350
3E
  3
Sketchy
350
3F
  3
Thicken
350
37
  3
Wireframe
350
30
  3
X-Ray
350
40
  0
XRECORD
  5
385
102
{ACAD_REACTORS
330
C
102
}
330
C
100
AcDbXrecord
280
     1
 90
        1
330
300
  0
DICTIONARY
  5
303
102
{ACAD_REACTORS
330
C
102
}
330
C
100
AcDbDictionary
281
     1
  3
CANNOSCALE
350
304
  3
CMLEADERSTYLE
350
33D
  3
CTABLESTYLE
350
33C
  3
DIMASSOC
350
345
  3
HIDETEXT
350
346
  3
MSLTSCALE
350
34C
  3
PSOLHEIGHT
350
344
  3
PSOLWIDTH
350
343
  3
SECTIONTHICKNESSINC
350
340
  3
XCLIPFRAME
350
305
  0
XRECORD
  5
347
102
{ACAD_REACTORS
330
C
102
}
330
C
100
AcDbXrecord
280
     1
  1
DWGPROPS COOKIE
  2

  3

  4

  6

  7

  8
acae2
  9

300
=
301
=
302
=
303
=
304
=
305
=
306
=
307
=
308
=
309
=
 40
0.0
 41
2459361.57418772
 42
2460427.51233419
  1

 90
        0
  0
XRECORD
  5
34B
102
{ACAD_REACTORS
330
34A
102
}
330
34A
100
AcDbXrecord
280
     1
102
VTR_0.000_0.000_1.000_1.000_VISUALSTYLE
340
2F
102
VTR_0.000_0.000_1.000_1.000_GRIDDISPLAY
 70
     3
102
VTR_0.000_0.000_1.000_1.000_GRIDMAJOR
 70
     5
102
VTR_0.000_0.000_1.000_1.000_DEFAULTLIGHTING
280
     1
102
VTR_0.000_0.000_1.000_1.000_DEFAULTLIGHTINGTYPE
 70
     1
102
VTR_0.000_0.000_1.000_1.000_BRIGHTNESS
141
0.0
102
VTR_0.000_0.000_1.000_1.000_CONTRAST
142
0.0
  0
XRECORD
  5
349
102
{ACAD_REACTORS
330
348
102
}
330
348
100
AcDbXrecord
280
     1
 40
129076.0
  1
{\fSolid Edge ANSI|b1||i0||c0|p34;\C7;\H6.;\W1.;\pxsa0.8;BENITO\P}{\fSolid Edge ANSI|b1||i0||c0|p34;\C7;\H6.;\W1.;\pxse0.8333333333;–Urban\P}
  0
LAYOUT
  5
1E
102
{ACAD_REACTORS
330
1A
102
}
330
1A
100
AcDbPlotSettings
  1

  2
none_device
  4

  6

 40
0.0
 41
0.0
 42
0.0
 43
0.0
 44
0.0
 45
0.0
 46
0.0
 47
0.0
 48
0.0
 49
0.0
140
0.0
141
0.0
142
1.0
143
1.0
 70
   688
 72
     1
 73
     0
 74
     5
  7

 75
    16
147
1.0
148
0.0
149
0.0
100
AcDbLayout
  1
Layout1
 70
     1
 71
     1
 10
0.0
 20
0.0
 11
210.0
 21
297.0
 12
0.0
 22
0.0
 32
0.0
 14
0.0
 24
0.0
 34
0.0
 15
210.0
 25
297.0
 35
0.0
146
0.0
 13
0.0
 23
0.0
 33
0.0
 16
1.0
 26
0.0
 36
0.0
 17
0.0
 27
1.0
 37
0.0
 76
     0
330
1B
  0
LAYOUT
  5
22
102
{ACAD_REACTORS
330
1A
102
}
330
1A
100
AcDbPlotSettings
  1

  2
none_device
  4
Letter_(8.50_x_11.00_Inches)
  6

 40
6.35
 41
6.35
 42
6.35000508
 43
6.35000508
 44
215.9
 45
279.4
 46
0.0
 47
0.0
 48
0.0
 49
0.0
140
0.0
141
0.0
142
1.0
143
1.0
 70
  1712
 72
     1
 73
     0
 74
     0
  7

 75
     0
147
1.0
148
0.0
149
0.0
100
AcDbLayout
  1
Model
 70
     1
 71
     0
 10
0.0
 20
0.0
 11
210.0
 21
297.0
 12
0.0
 22
0.0
 32
0.0
 14
0.0
 24
0.0
 34
0.0
 15
210.0
 25
297.0
 35
0.0
146
0.0
 13
0.0
 23
0.0
 33
0.0
 16
1.0
 26
0.0
 36
0.0
 17
0.0
 27
1.0
 37
0.0
 76
     0
330
1F
331
29
  0
MATERIAL
  5
45
102
{ACAD_REACTORS
330
43
102
}
102
{ACAD_XDICTIONARY
360
37F
102
}
330
43
100
AcDbMaterial
  1
ByBlock
  0
MATERIAL
  5
44
102
{ACAD_REACTORS
330
43
102
}
102
{ACAD_XDICTIONARY
360
37D
102
}
330
43
100
AcDbMaterial
  1
ByLayer
  0
MATERIAL
  5
46
102
{ACAD_REACTORS
330
43
102
}
102
{ACAD_XDICTIONARY
360
381
102
}
330
43
100
AcDbMaterial
  1
Global
  0
MLEADERSTYLE
  5
6C
102
{ACAD_REACTORS
330
6B
102
}
102
{ACAD_XDICTIONARY
360
383
102
}
330
6B
100
AcDbMLeaderStyle
170
     2
171
     1
172
     0
 90
        2
 40
0.0
 41
0.0
173
     1
 91
-1056964608
340
14
 92
       -2
290
     1
 42
2.0
291
     1
 43
8.0
  3
Standard
341
0
 44
4.0
300

342
11
174
     1
178
     6
175
     1
176
     0
 93
-1056964608
 45
4.0
292
     0
297
     0
 46
4.0
343
0
 94
-1056964608
 47
1.0
 49
1.0
140
1.0
293
     1
141
0.0
294
     1
177
     0
142
1.0
295
     0
296
     0
143
3.75
1001
ACAD_MLEADERVER
1070
     2
  0
MLINESTYLE
  5
18
102
{ACAD_REACTORS
330
17
102
}
330
17
100
AcDbMlineStyle
  2
Standard
 70
     0
  3

 62
   256
 51
90.0
 52
90.0
 71
     2
 49
0.5
 62
   256
  6
BYLAYER
 49
-0.5
 62
   256
  6
BYLAYER
  0
ACDBPLACEHOLDER
  5
F
102
{ACAD_REACTORS
330
E
102
}
330
E
  0
SCALE
  5
48
102
{ACAD_REACTORS
330
47
102
}
330
47
100
AcDbScale
 70
     0
300
1:1
140
1.0
141
1.0
290
     1
  0
SCALE
  5
49
102
{ACAD_REACTORS
330
47
102
}
330
47
100
AcDbScale
 70
     0
300
1:2
140
1.0
141
2.0
290
     0
  0
SCALE
  5
4A
102
{ACAD_REACTORS
330
47
102
}
330
47
100
AcDbScale
 70
     0
300
1:4
140
1.0
141
4.0
290
     0
  0
SCALE
  5
4B
102
{ACAD_REACTORS
330
47
102
}
330
47
100
AcDbScale
 70
     0
300
1:5
140
1.0
141
5.0
290
     0
  0
SCALE
  5
4C
102
{ACAD_REACTORS
330
47
102
}
330
47
100
AcDbScale
 70
     0
300
1:8
140
1.0
141
8.0
290
     0
  0
SCALE
  5
4D
102
{ACAD_REACTORS
330
47
102
}
330
47
100
AcDbScale
 70
     0
300
1:10
140
1.0
141
10.0
290
     0
  0
SCALE
  5
4E
102
{ACAD_REACTORS
330
47
102
}
330
47
100
AcDbScale
 70
     0
300
1:16
140
1.0
141
16.0
290
     0
  0
SCALE
  5
4F
102
{ACAD_REACTORS
330
47
102
}
330
47
100
AcDbScale
 70
     0
300
1:20
140
1.0
141
20.0
290
     0
  0
SCALE
  5
50
102
{ACAD_REACTORS
330
47
102
}
330
47
100
AcDbScale
 70
     0
300
1:30
140
1.0
141
30.0
290
     0
  0
SCALE
  5
51
102
{ACAD_REACTORS
330
47
102
}
330
47
100
AcDbScale
 70
     0
300
1:40
140
1.0
141
40.0
290
     0
  0
SCALE
  5
52
102
{ACAD_REACTORS
330
47
102
}
330
47
100
AcDbScale
 70
     0
300
1:50
140
1.0
141
50.0
290
     0
  0
SCALE
  5
53
102
{ACAD_REACTORS
330
47
102
}
330
47
100
AcDbScale
 70
     0
300
1:100
140
1.0
141
100.0
290
     0
  0
SCALE
  5
54
102
{ACAD_REACTORS
330
47
102
}
330
47
100
AcDbScale
 70
     0
300
2:1
140
2.0
141
1.0
290
     0
  0
SCALE
  5
55
102
{ACAD_REACTORS
330
47
102
}
330
47
100
AcDbScale
 70
     0
300
4:1
140
4.0
141
1.0
290
     0
  0
SCALE
  5
56
102
{ACAD_REACTORS
330
47
102
}
330
47
100
AcDbScale
 70
     0
300
8:1
140
8.0
141
1.0
290
     0
  0
SCALE
  5
57
102
{ACAD_REACTORS
330
47
102
}
330
47
100
AcDbScale
 70
     0
300
10:1
140
10.0
141
1.0
290
     0
  0
SCALE
  5
58
102
{ACAD_REACTORS
330
47
102
}
330
47
100
AcDbScale
 70
     0
300
100:1
140
100.0
141
1.0
290
     0
  0
SCALE
  5
59
102
{ACAD_REACTORS
330
47
102
}
330
47
100
AcDbScale
 70
     0
300
1/128" = 1'-0"
140
0.0078125
141
12.0
290
     0
  0
SCALE
  5
5A
102
{ACAD_REACTORS
330
47
102
}
330
47
100
AcDbScale
 70
     0
300
1/64" = 1'-0"
140
0.015625
141
12.0
290
     0
  0
SCALE
  5
5B
102
{ACAD_REACTORS
330
47
102
}
330
47
100
AcDbScale
 70
     0
300
1/32" = 1'-0"
140
0.03125
141
12.0
290
     0
  0
SCALE
  5
5C
102
{ACAD_REACTORS
330
47
102
}
330
47
100
AcDbScale
 70
     0
300
1/16" = 1'-0"
140
0.0625
141
12.0
290
     0
  0
SCALE
  5
5D
102
{ACAD_REACTORS
330
47
102
}
330
47
100
AcDbScale
 70
     0
300
3/32" = 1'-0"
140
0.09375
141
12.0
290
     0
  0
SCALE
  5
5E
102
{ACAD_REACTORS
330
47
102
}
330
47
100
AcDbScale
 70
     0
300
1/8" = 1'-0"
140
0.125
141
12.0
290
     0
  0
SCALE
  5
5F
102
{ACAD_REACTORS
330
47
102
}
330
47
100
AcDbScale
 70
     0
300
3/16" = 1'-0"
140
0.1875
141
12.0
290
     0
  0
SCALE
  5
60
102
{ACAD_REACTORS
330
47
102
}
330
47
100
AcDbScale
 70
     0
300
1/4" = 1'-0"
140
0.25
141
12.0
290
     0
  0
SCALE
  5
61
102
{ACAD_REACTORS
330
47
102
}
330
47
100
AcDbScale
 70
     0
300
3/8" = 1'-0"
140
0.375
141
12.0
290
     0
  0
SCALE
  5
62
102
{ACAD_REACTORS
330
47
102
}
330
47
100
AcDbScale
 70
     0
300
1/2" = 1'-0"
140
0.5
141
12.0
290
     0
  0
SCALE
  5
63
102
{ACAD_REACTORS
330
47
102
}
330
47
100
AcDbScale
 70
     0
300
3/4" = 1'-0"
140
0.75
141
12.0
290
     0
  0
SCALE
  5
64
102
{ACAD_REACTORS
330
47
102
}
330
47
100
AcDbScale
 70
     0
300
1" = 1'-0"
140
1.0
141
12.0
290
     0
  0
SCALE
  5
65
102
{ACAD_REACTORS
330
47
102
}
330
47
100
AcDbScale
 70
     0
300
1-1/2" = 1'-0"
140
1.5
141
12.0
290
     0
  0
SCALE
  5
66
102
{ACAD_REACTORS
330
47
102
}
330
47
100
AcDbScale
 70
     0
300
3" = 1'-0"
140
3.0
141
12.0
290
     0
  0
SCALE
  5
67
102
{ACAD_REACTORS
330
47
102
}
330
47
100
AcDbScale
 70
     0
300
6" = 1'-0"
140
6.0
141
12.0
290
     0
  0
SCALE
  5
68
102
{ACAD_REACTORS
330
47
102
}
330
47
100
AcDbScale
 70
     0
300
1'-0" = 1'-0"
140
12.0
141
12.0
290
     0
  0
TABLESTYLE
  5
6A
102
{ACAD_REACTORS
330
69
102
}
330
69
100
AcDbTableStyle
  3
Standard
 70
     0
 71
     0
 40
0.06
 41
0.06
280
     0
281
     0
  7
Standard
140
4.5
170
     2
 62
     0
 63
   257
283
     0
274
    -2
284
     1
 64
     0
275
    -2
285
     1
 65
     0
276
    -2
286
     1
 66
     0
277
    -2
287
     1
 67
     0
278
    -2
288
     1
 68
     0
279
    -2
289
     1
 69
     0
  7
Standard
140
6.0
170
     5
 62
     0
 63
   257
283
     0
274
    -2
284
     1
 64
     0
275
    -2
285
     1
 65
     0
276
    -2
286
     1
 66
     0
277
    -2
287
     1
 67
     0
278
    -2
288
     1
 68
     0
279
    -2
289
     1
 69
     0
  7
Standard
140
4.5
170
     5
 62
     0
 63
   257
283
     0
274
    -2
284
     1
 64
     0
275
    -2
285
     1
 65
     0
276
    -2
286
     1
 66
     0
277
    -2
287
     1
 67
     0
278
    -2
288
     1
 68
     0
279
    -2
289
     1
 69
     0
  0
VISUALSTYLE
  5
2F
102
{ACAD_REACTORS
330
2A
102
}
102
{ACAD_XDICTIONARY
360
355
102
}
330
2A
100
AcDbVisualStyle
  2
2dWireframe
 70
     4
 71
     0
 72
     2
 73
     0
 90
        0
 40
0.6
 41
30.0
 62
     5
 63
     7
 74
     1
 91
        4
 64
     7
 65
   257
 75
     1
175
     1
 42
1.0
 92
        0
 66
   257
 43
1.0
 76
     1
 77
     6
 78
     2
 67
     7
 79
     5
170
     0
171
     0
290
     0
174
     0
 93
        1
 44
0.0
173
     0
291
     0
 45
0.0
1001
ACAD
1000
AcDbSavedByObjectVersion
1070
     0
  0
VISUALSTYLE
  5
32
102
{ACAD_REACTORS
330
2A
102
}
102
{ACAD_XDICTIONARY
360
35B
102
}
330
2A
100
AcDbVisualStyle
  2
Basic
 70
     7
 71
     1
 72
     0
 73
     1
 90
        0
 40
0.6
 41
30.0
 62
     5
 63
     7
 74
     0
 91
        4
 64
     7
 65
   257
 75
     1
175
     1
 42
1.0
 92
        8
 66
     7
 43
1.0
 76
     1
 77
     6
 78
     2
 67
     7
 79
     5
170
     0
171
     0
290
     0
174
     0
 93
        1
 44
0.0
173
     0
291
     1
 45
0.0
1001
ACAD
1000
AcDbSavedByObjectVersion
1070
     0
  0
VISUALSTYLE
  5
36
102
{ACAD_REACTORS
330
2A
102
}
102
{ACAD_XDICTIONARY
360
363
102
}
330
2A
100
AcDbVisualStyle
  2
Brighten
 70
    12
 71
     2
 72
     2
 73
     0
 90
        0
 40
0.6
 41
30.0
 62
     5
 63
     7
 74
     1
 91
        4
 64
     7
 65
   257
 75
     1
175
     1
 42
1.0
 92
        8
 66
     7
 43
1.0
 76
     1
 77
     6
 78
     2
 67
     7
 79
     5
170
     0
171
     0
290
     0
174
     0
 93
        1
 44
50.0
173
     0
291
     1
 45
0.0
1001
ACAD
1000
AcDbSavedByObjectVersion
1070
     0
  0
VISUALSTYLE
  5
3A
102
{ACAD_REACTORS
330
2A
102
}
102
{ACAD_XDICTIONARY
360
36B
102
}
330
2A
100
AcDbVisualStyle
  2
ColorChange
 70
    16
 71
     2
 72
     2
 73
     3
 90
        0
 40
0.6
 41
30.0
 62
     5
 63
     8
 74
     1
 91
        4
 64
     7
 65
   257
 75
     1
175
     1
 42
1.0
 92
        8
 66
     8
 43
1.0
 76
     1
 77
     6
 78
     2
 67
     7
 79
     5
170
     0
171
     0
290
     0
174
     0
 93
        1
 44
0.0
173
     0
291
     1
 45
0.0
1001
ACAD
1000
AcDbSavedByObjectVersion
1070
     0
  0
VISUALSTYLE
  5
34
102
{ACAD_REACTORS
330
2A
102
}
102
{ACAD_XDICTIONARY
360
35F
102
}
330
2A
100
AcDbVisualStyle
  2
Conceptual
 70
     9
 71
     3
 72
     2
 73
     0
 90
        0
 40
0.6
 41
30.0
 62
     5
 63
     7
 74
     2
 91
        2
 64
     7
 65
   257
 75
     1
175
     1
 42
179.0
 92
        8
 66
     7
 43
1.0
 76
     1
 77
     6
 78
     2
 67
     7
 79
     3
170
     0
171
     0
290
     0
174
     0
 93
        1
 44
0.0
173
     0
291
     0
 45
0.0
1001
ACAD
1000
AcDbSavedByObjectVersion
1070
     0
  0
VISUALSTYLE
  5
35
102
{ACAD_REACTORS
330
2A
102
}
102
{ACAD_XDICTIONARY
360
361
102
}
330
2A
100
AcDbVisualStyle
  2
Dim
 70
    11
 71
     2
 72
     2
 73
     0
 90
        0
 40
0.6
 41
30.0
 62
     5
 63
     7
 74
     1
 91
        4
 64
     7
 65
   257
 75
     1
175
     1
 42
1.0
 92
        8
 66
     7
 43
1.0
 76
     1
 77
     6
 78
     2
 67
     7
 79
     5
170
     0
171
     0
290
     0
174
     0
 93
        1
 44
-50.0
173
     0
291
     1
 45
0.0
1001
ACAD
1000
AcDbSavedByObjectVersion
1070
     0
  0
VISUALSTYLE
  5
3D
102
{ACAD_REACTORS
330
2A
102
}
102
{ACAD_XDICTIONARY
360
371
102
}
330
2A
100
AcDbVisualStyle
  2
EdgeColorOff
 70
    22
 71
     2
 72
     2
 73
     0
 90
        0
 40
0.6
 41
30.0
 62
     5
 63
     7
 74
     1
 91
        4
 64
     7
 65
   257
 75
     1
175
     1
 42
1.0
 92
        8
 66
     7
 43
1.0
 76
     1
 77
     6
 78
     2
 67
     7
 79
     5
170
     0
171
     0
290
     0
174
     0
 93
        1
 44
0.0
173
     0
291
     1
 45
0.0
1001
ACAD
1000
AcDbSavedByObjectVersion
1070
     0
  0
VISUALSTYLE
  5
39
102
{ACAD_REACTORS
330
2A
102
}
102
{ACAD_XDICTIONARY
360
369
102
}
330
2A
100
AcDbVisualStyle
  2
Facepattern
 70
    15
 71
     2
 72
     2
 73
     0
 90
        0
 40
0.6
 41
30.0
 62
     5
 63
     7
 74
     1
 91
        4
 64
     7
 65
   257
 75
     1
175
     1
 42
1.0
 92
        8
 66
     7
 43
1.0
 76
     1
 77
     6
 78
     2
 67
     7
 79
     5
170
     0
171
     0
290
     0
174
     0
 93
        1
 44
0.0
173
     0
291
     1
 45
0.0
1001
ACAD
1000
AcDbSavedByObjectVersion
1070
     0
  0
VISUALSTYLE
  5
2B
102
{ACAD_REACTORS
330
2A
102
}
102
{ACAD_XDICTIONARY
360
34D
102
}
330
2A
100
AcDbVisualStyle
  2
Flat
 70
     0
 71
     2
 72
     1
 73
     1
 90
        2
 40
0.6
 41
30.0
 62
     5
 63
     7
 74
     0
 91
        0
 64
     7
 65
   257
 75
     1
175
     1
 42
1.0
 92
        8
 66
     7
 43
1.0
 76
     1
 77
     6
 78
     2
 67
     7
 79
     5
170
     0
171
     0
290
     0
174
     0
 93
       13
 44
0.0
173
     0
291
     1
 45
0.0
1001
ACAD
1000
AcDbSavedByObjectVersion
1070
     0
  0
VISUALSTYLE
  5
2C
102
{ACAD_REACTORS
330
2A
102
}
102
{ACAD_XDICTIONARY
360
34F
102
}
330
2A
100
AcDbVisualStyle
  2
FlatWithEdges
 70
     1
 71
     2
 72
     1
 73
     1
 90
        2
 40
0.6
 41
30.0
 62
     5
 63
     7
 74
     1
 91
        0
 64
     7
 65
   257
 75
     1
175
     1
 42
1.0
 92
        0
 66
   257
 43
1.0
 76
     1
 77
     6
 78
     2
 67
     7
 79
     5
170
     0
171
     0
290
     0
174
     0
 93
       13
 44
0.0
173
     0
291
     1
 45
0.0
1001
ACAD
1000
AcDbSavedByObjectVersion
1070
     0
  0
VISUALSTYLE
  5
2D
102
{ACAD_REACTORS
330
2A
102
}
102
{ACAD_XDICTIONARY
360
351
102
}
330
2A
100
AcDbVisualStyle
  2
Gouraud
 70
     2
 71
     2
 72
     2
 73
     1
 90
        2
 40
0.6
 41
30.0
 62
     5
 63
     7
 74
     0
 91
        0
 64
     7
 65
   257
 75
     1
175
     1
 42
1.0
 92
        0
 66
     7
 43
1.0
 76
     1
 77
     6
 78
     2
 67
     7
 79
     5
170
     0
171
     0
290
     0
174
     0
 93
       13
 44
0.0
173
     0
291
     1
 45
0.0
1001
ACAD
1000
AcDbSavedByObjectVersion
1070
     0
  0
VISUALSTYLE
  5
2E
102
{ACAD_REACTORS
330
2A
102
}
102
{ACAD_XDICTIONARY
360
353
102
}
330
2A
100
AcDbVisualStyle
  2
GouraudWithEdges
 70
     3
 71
     2
 72
     2
 73
     1
 90
        2
 40
0.6
 41
30.0
 62
     5
 63
     7
 74
     1
 91
        0
 64
     7
 65
   257
 75
     1
175
     1
 42
1.0
 92
        0
 66
   257
 43
1.0
 76
     1
 77
     6
 78
     2
 67
     7
 79
     5
170
     0
171
     0
290
     0
174
     0
 93
       13
 44
0.0
173
     0
291
     1
 45
0.0
1001
ACAD
1000
AcDbSavedByObjectVersion
1070
     0
  0
VISUALSTYLE
  5
31
102
{ACAD_REACTORS
330
2A
102
}
102
{ACAD_XDICTIONARY
360
359
102
}
330
2A
100
AcDbVisualStyle
  2
Hidden
 70
     6
 71
     1
 72
     2
 73
     2
 90
        0
 40
0.6
 41
30.0
 62
     5
 63
     7
 74
     2
 91
        2
 64
     7
 65
   257
 75
     2
175
     1
 42
40.0
 92
        0
 66
   257
 43
1.0
 76
     1
 77
     6
 78
     2
 67
     7
 79
     3
170
     0
171
     0
290
     0
174
     0
 93
        1
 44
0.0
173
     0
291
     0
 45
0.0
1001
ACAD
1000
AcDbSavedByObjectVersion
1070
     0
  0
VISUALSTYLE
  5
3B
102
{ACAD_REACTORS
330
2A
102
}
102
{ACAD_XDICTIONARY
360
36D
102
}
330
2A
100
AcDbVisualStyle
  2
JitterOff
 70
    20
 71
     2
 72
     2
 73
     0
 90
        0
 40
0.6
 41
30.0
 62
     5
 63
     7
 74
     1
 91
        4
 64
     7
 65
   257
 75
     1
175
     1
 42
1.0
 92
       10
 66
     7
 43
1.0
 76
     1
 77
     6
 78
     2
 67
     7
 79
     5
170
     0
171
     0
290
     0
174
     0
 93
        1
 44
0.0
173
     0
291
     1
 45
0.0
1001
ACAD
1000
AcDbSavedByObjectVersion
1070
     0
  0
VISUALSTYLE
  5
38
102
{ACAD_REACTORS
330
2A
102
}
102
{ACAD_XDICTIONARY
360
367
102
}
330
2A
100
AcDbVisualStyle
  2
Linepattern
 70
    14
 71
     2
 72
     2
 73
     0
 90
        0
 40
0.6
 41
30.0
 62
     5
 63
     7
 74
     1
 91
        4
 64
     7
 65
   257
 75
     7
175
     7
 42
1.0
 92
        8
 66
     7
 43
1.0
 76
     1
 77
     6
 78
     2
 67
     7
 79
     5
170
     0
171
     0
290
     0
174
     0
 93
        1
 44
0.0
173
     0
291
     1
 45
0.0
1001
ACAD
1000
AcDbSavedByObjectVersion
1070
     0
  0
VISUALSTYLE
  5
3C
102
{ACAD_REACTORS
330
2A
102
}
102
{ACAD_XDICTIONARY
360
36F
102
}
330
2A
100
AcDbVisualStyle
  2
OverhangOff
 70
    21
 71
     2
 72
     2
 73
     0
 90
        0
 40
0.6
 41
30.0
 62
     5
 63
     7
 74
     1
 91
        4
 64
     7
 65
   257
 75
     1
175
     1
 42
1.0
 92
        9
 66
     7
 43
1.0
 76
     1
 77
     6
 78
     2
 67
     7
 79
     5
170
     0
171
     0
290
     0
174
     0
 93
        1
 44
0.0
173
     0
291
     1
 45
0.0
1001
ACAD
1000
AcDbSavedByObjectVersion
1070
     0
  0
VISUALSTYLE
  5
33
102
{ACAD_REACTORS
330
2A
102
}
102
{ACAD_XDICTIONARY
360
35D
102
}
330
2A
100
AcDbVisualStyle
  2
Realistic
 70
     8
 71
     2
 72
     3
 73
     0
 90
        2
 40
0.6
 41
30.0
 62
     5
 63
     7
 74
     0
 91
        0
 64
     7
 65
   257
 75
     1
175
     1
 42
1.0
 92
        8
 66
   257
 43
1.0
 76
     1
 77
     6
 78
     2
 67
     7
 79
     3
170
     0
171
     0
290
     0
174
     0
 93
       13
 44
0.0
173
     0
291
     0
 45
0.0
1001
ACAD
1000
AcDbSavedByObjectVersion
1070
     0
  0
VISUALSTYLE
  5
42
102
{ACAD_REACTORS
330
2A
102
}
102
{ACAD_XDICTIONARY
360
37B
102
}
330
2A
100
AcDbVisualStyle
  2
Shaded
 70
    27
 71
     2
 72
     2
 73
     1
 90
        2
 40
0.6
 41
30.0
 62
     5
 63
     7
 74
     0
 91
        4
 64
     7
 65
   257
 75
     1
175
     1
 42
1.0
 92
        8
 66
   257
 43
1.0
 76
     1
 77
     6
 78
     2
 67
     8
 79
     3
170
     0
171
     0
290
     0
174
     0
 93
        5
 44
0.0
173
     0
291
     0
 45
0.0
1001
ACAD
1000
AcDbSavedByObjectVersion
1070
     0
  0
VISUALSTYLE
  5
41
102
{ACAD_REACTORS
330
2A
102
}
102
{ACAD_XDICTIONARY
360
379
102
}
330
2A
100
AcDbVisualStyle
  2
Shaded with edges
 70
    26
 71
     2
 72
     2
 73
     1
 90
        2
 40
0.6
 41
30.0
 62
     5
 63
     7
 74
     1
 91
       10
 64
     7
 65
   257
 75
     2
175
     1
 42
1.0
 92
        8
 66
   257
 43
1.0
 76
     1
 77
     6
 78
     2
 67
     7
 79
     3
170
     0
171
     0
290
     0
174
     0
 93
        5
 44
0.0
173
     0
291
     0
 45
0.0
1001
ACAD
1000
AcDbSavedByObjectVersion
1070
     0
  0
VISUALSTYLE
  5
3E
102
{ACAD_REACTORS
330
2A
102
}
102
{ACAD_XDICTIONARY
360
373
102
}
330
2A
100
AcDbVisualStyle
  2
Shades of Gray
 70
    23
 71
     2
 72
     2
 73
     3
 90
        0
 40
0.6
 41
30.0
 62
     5
 63
     7
 74
     2
 91
        2
 64
     7
 65
     7
 75
     1
175
     1
 42
40.0
 92
        8
 66
     7
 43
1.0
 76
     1
 77
     6
 78
     2
 67
     7
 79
     3
170
     0
171
     0
290
     0
174
     0
 93
        1
 44
0.0
173
     0
291
     0
 45
0.0
1001
ACAD
1000
AcDbSavedByObjectVersion
1070
     0
  0
VISUALSTYLE
  5
3F
102
{ACAD_REACTORS
330
2A
102
}
102
{ACAD_XDICTIONARY
360
375
102
}
330
2A
100
AcDbVisualStyle
  2
Sketchy
 70
    24
 71
     1
 72
     2
 73
     2
 90
        0
 40
0.6
 41
30.0
 62
     5
 63
     7
 74
     2
 91
        2
 64
     7
 65
     7
 75
     1
175
     1
 42
40.0
 92
       11
 66
     7
 43
1.0
 76
     1
 77
     6
 78
     2
 67
     7
 79
     6
170
     0
171
     0
290
     0
174
     0
 93
        1
 44
0.0
173
     0
291
     0
 45
0.0
1001
ACAD
1000
AcDbSavedByObjectVersion
1070
     0
  0
VISUALSTYLE
  5
37
102
{ACAD_REACTORS
330
2A
102
}
102
{ACAD_XDICTIONARY
360
365
102
}
330
2A
100
AcDbVisualStyle
  2
Thicken
 70
    13
 71
     2
 72
     2
 73
     0
 90
        0
 40
0.6
 41
30.0
 62
     5
 63
     7
 74
     1
 91
        4
 64
     7
 65
   257
 75
     1
175
     1
 42
1.0
 92
       12
 66
     7
 43
1.0
 76
     1
 77
     6
 78
     2
 67
     7
 79
     5
170
     0
171
     0
290
     0
174
     0
 93
        1
 44
0.0
173
     0
291
     1
 45
0.0
1001
ACAD
1000
AcDbSavedByObjectVersion
1070
     0
  0
VISUALSTYLE
  5
30
102
{ACAD_REACTORS
330
2A
102
}
102
{ACAD_XDICTIONARY
360
357
102
}
330
2A
100
AcDbVisualStyle
  2
Wireframe
 70
     5
 71
     0
 72
     2
 73
     0
 90
        0
 40
0.6
 41
30.0
 62
     5
 63
     7
 74
     1
 91
        4
 64
     7
 65
   257
 75
     1
175
     1
 42
1.0
 92
        0
 66
   257
 43
1.0
 76
     1
 77
     6
 78
     2
 67
     7
 79
     3
170
     0
171
     0
290
     0
174
     0
 93
        1
 44
0.0
173
     0
291
     0
 45
0.0
1001
ACAD
1000
AcDbSavedByObjectVersion
1070
     0
  0
VISUALSTYLE
  5
40
102
{ACAD_REACTORS
330
2A
102
}
102
{ACAD_XDICTIONARY
360
377
102
}
330
2A
100
AcDbVisualStyle
  2
X-Ray
 70
    25
 71
     2
 72
     2
 73
     1
 90
        1
 40
0.5
 41
30.0
 62
     5
 63
     7
 74
     1
 91
        0
 64
     7
 65
   257
 75
     1
175
     1
 42
1.0
 92
        8
 66
     7
 43
1.0
 76
     1
 77
     6
 78
     2
 67
     7
 79
     3
170
     0
171
     0
290
     0
174
     0
 93
       13
 44
0.0
173
     0
291
     0
 45
0.0
1001
ACAD
1000
AcDbSavedByObjectVersion
1070
     0
  0
DICTIONARYVAR
  5
304
102
{ACAD_REACTORS
330
303
102
}
330
303
100
DictionaryVariables
280
     0
  1
1:1
  0
DICTIONARYVAR
  5
33D
102
{ACAD_REACTORS
330
303
102
}
330
303
100
DictionaryVariables
280
     0
  1
Standard
  0
DICTIONARYVAR
  5
33C
102
{ACAD_REACTORS
330
303
102
}
330
303
100
DictionaryVariables
280
     0
  1
Standard
  0
DICTIONARYVAR
  5
345
102
{ACAD_REACTORS
330
303
102
}
330
303
100
DictionaryVariables
280
     0
  1
2
  0
DICTIONARYVAR
  5
346
102
{ACAD_REACTORS
330
303
102
}
330
303
100
DictionaryVariables
280
     0
  1
1
  0
DICTIONARYVAR
  5
34C
102
{ACAD_REACTORS
330
303
102
}
330
303
100
DictionaryVariables
280
     0
  1
1
  0
DICTIONARYVAR
  5
344
102
{ACAD_REACTORS
330
303
102
}
330
303
100
DictionaryVariables
280
     0
  1
80.000000
  0
DICTIONARYVAR
  5
343
102
{ACAD_REACTORS
330
303
102
}
330
303
100
DictionaryVariables
280
     0
  1
5.000000
  0
DICTIONARYVAR
  5
340
102
{ACAD_REACTORS
330
303
102
}
330
303
100
DictionaryVariables
280
     0
  1
6.000000
  0
DICTIONARYVAR
  5
305
102
{ACAD_REACTORS
330
303
102
}
330
303
100
DictionaryVariables
280
     0
  1
2
  0
DICTIONARY
  5
37F
330
45
100
AcDbDictionary
280
     1
281
     1
  3
ACAD_XREC_ROUNDTRIP
360
380
  0
DICTIONARY
  5
37D
330
44
100
AcDbDictionary
280
     1
281
     1
  3
ACAD_XREC_ROUNDTRIP
360
37E
  0
DICTIONARY
  5
381
330
46
100
AcDbDictionary
280
     1
281
     1
  3
ACAD_XREC_ROUNDTRIP
360
382
  0
DICTIONARY
  5
383
330
6C
100
AcDbDictionary
280
     1
281
     1
  3
ACAD_XREC_ROUNDTRIP
360
384
  0
DICTIONARY
  5
355
330
2F
100
AcDbDictionary
280
     1
281
     1
  3
ACAD_XREC_ROUNDTRIP
360
356
  0
DICTIONARY
  5
35B
330
32
100
AcDbDictionary
280
     1
281
     1
  3
ACAD_XREC_ROUNDTRIP
360
35C
  0
DICTIONARY
  5
363
330
36
100
AcDbDictionary
280
     1
281
     1
  3
ACAD_XREC_ROUNDTRIP
360
364
  0
DICTIONARY
  5
36B
330
3A
100
AcDbDictionary
280
     1
281
     1
  3
ACAD_XREC_ROUNDTRIP
360
36C
  0
DICTIONARY
  5
35F
330
34
100
AcDbDictionary
280
     1
281
     1
  3
ACAD_XREC_ROUNDTRIP
360
360
  0
DICTIONARY
  5
361
330
35
100
AcDbDictionary
280
     1
281
     1
  3
ACAD_XREC_ROUNDTRIP
360
362
  0
DICTIONARY
  5
371
330
3D
100
AcDbDictionary
280
     1
281
     1
  3
ACAD_XREC_ROUNDTRIP
360
372
  0
DICTIONARY
  5
369
330
39
100
AcDbDictionary
280
     1
281
     1
  3
ACAD_XREC_ROUNDTRIP
360
36A
  0
DICTIONARY
  5
34D
330
2B
100
AcDbDictionary
280
     1
281
     1
  3
ACAD_XREC_ROUNDTRIP
360
34E
  0
DICTIONARY
  5
34F
330
2C
100
AcDbDictionary
280
     1
281
     1
  3
ACAD_XREC_ROUNDTRIP
360
350
  0
DICTIONARY
  5
351
330
2D
100
AcDbDictionary
280
     1
281
     1
  3
ACAD_XREC_ROUNDTRIP
360
352
  0
DICTIONARY
  5
353
330
2E
100
AcDbDictionary
280
     1
281
     1
  3
ACAD_XREC_ROUNDTRIP
360
354
  0
DICTIONARY
  5
359
330
31
100
AcDbDictionary
280
     1
281
     1
  3
ACAD_XREC_ROUNDTRIP
360
35A
  0
DICTIONARY
  5
36D
330
3B
100
AcDbDictionary
280
     1
281
     1
  3
ACAD_XREC_ROUNDTRIP
360
36E
  0
DICTIONARY
  5
367
330
38
100
AcDbDictionary
280
     1
281
     1
  3
ACAD_XREC_ROUNDTRIP
360
368
  0
DICTIONARY
  5
36F
330
3C
100
AcDbDictionary
280
     1
281
     1
  3
ACAD_XREC_ROUNDTRIP
360
370
  0
DICTIONARY
  5
35D
330
33
100
AcDbDictionary
280
     1
281
     1
  3
ACAD_XREC_ROUNDTRIP
360
35E
  0
DICTIONARY
  5
37B
330
42
100
AcDbDictionary
280
     1
281
     1
  3
ACAD_XREC_ROUNDTRIP
360
37C
  0
DICTIONARY
  5
379
330
41
100
AcDbDictionary
280
     1
281
     1
  3
ACAD_XREC_ROUNDTRIP
360
37A
  0
DICTIONARY
  5
373
330
3E
100
AcDbDictionary
280
     1
281
     1
  3
ACAD_XREC_ROUNDTRIP
360
374
  0
DICTIONARY
  5
375
330
3F
100
AcDbDictionary
280
     1
281
     1
  3
ACAD_XREC_ROUNDTRIP
360
376
  0
DICTIONARY
  5
365
330
37
100
AcDbDictionary
280
     1
281
     1
  3
ACAD_XREC_ROUNDTRIP
360
366
  0
DICTIONARY
  5
357
330
30
100
AcDbDictionary
280
     1
281
     1
  3
ACAD_XREC_ROUNDTRIP
360
358
  0
DICTIONARY
  5
377
330
40
100
AcDbDictionary
280
     1
281
     1
  3
ACAD_XREC_ROUNDTRIP
360
378
  0
XRECORD
  5
380
102
{ACAD_REACTORS
330
37F
102
}
330
37F
100
AcDbXrecord
280
     1
102
MATERIAL
148
0.0
149
0.0
149
0.0
 93
        0
 94
      127
282
     0
 72
     1
 77
     1
171
     1
175
     1
179
     1
273
     0
  0
XRECORD
  5
37E
102
{ACAD_REACTORS
330
37D
102
}
330
37D
100
AcDbXrecord
280
     1
102
MATERIAL
148
0.0
149
0.0
149
0.0
 93
        0
 94
      127
282
     0
 72
     1
 77
     1
171
     1
175
     1
179
     1
273
     0
  0
XRECORD
  5
382
102
{ACAD_REACTORS
330
381
102
}
330
381
100
AcDbXrecord
280
     1
102
MATERIAL
148
0.0
149
0.0
149
0.0
 93
        0
 94
      127
282
     0
 72
     1
 77
     1
171
     1
175
     1
179
     1
273
     0
  0
XRECORD
  5
384
102
{ACAD_REACTORS
330
383
102
}
330
383
100
AcDbXrecord
280
     1
102
ACAD_ROUNDTRIP_2010_MLEADER_STYLE
  0
XRECORD
  5
356
102
{ACAD_REACTORS
330
355
102
}
330
355
100
AcDbXrecord
280
     1
102
RTVSPropertyOp0
 70
     1
102
RTVSPropertyOp1
 70
     1
102
RTVSPropertyOp2
 70
     1
102
RTVSPropertyOp3
 70
     1
102
RTVSPropertyOp4
 70
     1
102
RTVSPropertyOp5
 70
     1
102
RTVSPropertyOp6
 70
     1
102
RTVSPropertyOp7
 70
     1
102
RTVSPropertyOp8
 70
     1
102
RTVSPropertyOp9
 70
     1
102
RTVSPropertyOp10
 70
     1
102
RTVSPropertyOp11
 70
     1
102
RTVSPropertyOp12
 70
     1
102
RTVSPropertyOp13
 70
     1
102
RTVSPropertyOp14
 70
     1
102
RTVSPropertyOp15
 70
     1
102
RTVSPropertyOp16
 70
     1
102
RTVSPropertyOp17
 70
     1
102
RTVSPropertyOp18
 70
     1
102
RTVSPropertyOp19
 70
     1
102
RTVSPropertyOp20
 70
     1
102
RTVSPropertyOp21
 70
     1
102
RTVSPropertyOp22
 70
     1
102
RTVSPropertyOp23
 70
     1
102
RTVSPropertyOp24
 70
     1
102
RTVSPropertyOp25
 70
     1
102
RTVSPropertyOp26
 70
     1
102
RTVSPropertyOp27
 70
     1
102
RTVSPropertyOp28
 70
     1
102
RTVSPropertyOp29
 70
     1
102
RTVSPropertyOp30
 70
     1
102
RTVSPropertyOp31
 70
     1
102
RTVSPropertyOp32
 70
     1
102
RTVSPropertyOp33
 70
     1
102
RTVSPropertyOp34
 70
     1
102
RTVSPropertyOp35
 70
     1
102
RTVSPropertyOp36
 70
     1
102
RTVSPropertyOp37
 70
     1
102
RTVSPropertyOp38
 70
     1
102
RTVSPropertyOp39
 70
     1
102
RTVSPropertyOp40
 70
     1
102
RTVSPropertyOp41
 70
     1
102
RTVSPropertyOp42
 70
     1
102
RTVSPropertyOp43
 70
     1
102
RTVSPropertyOp44
 70
     1
102
RTVSPropertyOp45
 70
     1
102
RTVSPropertyOp46
 70
     1
102
RTVSPropertyOp47
 70
     1
102
RTVSPropertyOp48
 70
     1
102
RTVSPropertyOp49
 70
     1
102
RTVSPropertyOp50
 70
     1
102
RTVSPropertyOp51
 70
     0
102
RTVSPropertyOp52
 70
     0
102
RTVSPropertyOp53
 70
     1
102
RTVSPropertyOp54
 70
     1
102
RTVSPropertyOp55
 70
     1
102
RTVSPropertyOp56
 70
     1
102
RTVSPropertyOp57
 70
     1
102
RTVSPost2010Prop28
280
     1
102
RTVSPost2010PropOp28
 70
     1
102
RTVSPost2010Prop29
280
     1
102
RTVSPost2010PropOp29
 70
     1
102
RTVSPost2010Prop30
280
     0
102
RTVSPost2010PropOp30
 70
     1
102
RTVSPost2010Prop31
280
     0
102
RTVSPost2010PropOp31
 70
     1
102
RTVSPost2010Prop32
280
     0
102
RTVSPost2010PropOp32
 70
     1
102
RTVSPost2010Prop33
280
     0
102
RTVSPost2010PropOp33
 70
     1
102
RTVSPost2010Prop34
280
     0
102
RTVSPost2010PropOp34
 70
     1
102
RTVSPost2010Prop35
280
     0
102
RTVSPost2010PropOp35
 70
     1
102
RTVSPost2010Prop36
280
     0
102
RTVSPost2010PropOp36
 70
     1
102
RTVSPost2010Prop37
 90
       50
102
RTVSPost2010PropOp37
 70
     1
102
RTVSPost2010Prop38
140
0.0
102
RTVSPost2010PropOp38
 70
     1
102
RTVSPost2010Prop39
140
1.0
102
RTVSPost2010PropOp39
 70
     1
102
RTVSPost2010Prop40
 90
        0
102
RTVSPost2010PropOp40
 70
     1
102
RTVSPost2010Prop41ColorIndex
 90
       18
102
RTVSPost2010Prop41ColorRGB
 90
        0
102
RTVSPost2010PropOp41
 70
     1
102
RTVSPost2010Prop42
 90
       50
102
RTVSPost2010PropOp42
 70
     1
102
RTVSPost2010Prop43
 90
        3
102
RTVSPost2010PropOp43
 70
     1
102
RTVSPost2010Prop44ColorIndex
 90
        5
102
RTVSPost2010Prop44ColorRGB
 90
      255
102
RTVSPost2010PropOp44
 70
     1
102
RTVSPost2010Prop45
280
     0
102
RTVSPost2010PropOp45
 70
     1
102
RTVSPost2010Prop46
 90
       50
102
RTVSPost2010PropOp46
 70
     1
102
RTVSPost2010Prop47
 90
       50
102
RTVSPost2010PropOp47
 70
     1
102
RTVSPost2010Prop48
 90
       50
102
RTVSPost2010PropOp48
 70
     1
102
RTVSPost2010Prop49
280
     0
102
RTVSPost2010PropOp49
 70
     1
102
RTVSPost2010Prop50
 90
       50
102
RTVSPost2010PropOp50
 70
     1
102
RTVSPost2010Prop51ColorIndex
 90
      256
102
RTVSPost2010Prop51ColorRGB
 90
-16777216
102
RTVSPost2010PropOp51
 70
     0
102
RTVSPost2010Prop52
140
1.0
102
RTVSPost2010PropOp52
 70
     0
102
RTVSPost2010Prop53
 90
        2
102
RTVSPost2010PropOp53
 70
     1
102
RTVSPost2010Prop54
  1
strokes_ogs.tif
102
RTVSPost2010PropOp54
 70
     1
102
RTVSPost2010Prop55
280
     0
102
RTVSPost2010PropOp55
 70
     1
102
RTVSPost2010Prop56
140
1.0
102
RTVSPost2010PropOp56
 70
     1
102
RTVSPost2010Prop57
140
1.0
102
RTVSPost2010PropOp57
 70
     1
  0
XRECORD
  5
35C
102
{ACAD_REACTORS
330
35B
102
}
330
35B
100
AcDbXrecord
280
     1
102
RTVSPropertyOp0
 70
     1
102
RTVSPropertyOp1
 70
     1
102
RTVSPropertyOp2
 70
     1
102
RTVSPropertyOp3
 70
     1
102
RTVSPropertyOp4
 70
     1
102
RTVSPropertyOp5
 70
     1
102
RTVSPropertyOp6
 70
     1
102
RTVSPropertyOp7
 70
     1
102
RTVSPropertyOp8
 70
     1
102
RTVSPropertyOp9
 70
     1
102
RTVSPropertyOp10
 70
     1
102
RTVSPropertyOp11
 70
     1
102
RTVSPropertyOp12
 70
     1
102
RTVSPropertyOp13
 70
     1
102
RTVSPropertyOp14
 70
     1
102
RTVSPropertyOp15
 70
     1
102
RTVSPropertyOp16
 70
     1
102
RTVSPropertyOp17
 70
     1
102
RTVSPropertyOp18
 70
     1
102
RTVSPropertyOp19
 70
     1
102
RTVSPropertyOp20
 70
     1
102
RTVSPropertyOp21
 70
     1
102
RTVSPropertyOp22
 70
     1
102
RTVSPropertyOp23
 70
     1
102
RTVSPropertyOp24
 70
     1
102
RTVSPropertyOp25
 70
     1
102
RTVSPropertyOp26
 70
     1
102
RTVSPropertyOp27
 70
     1
102
RTVSPropertyOp28
 70
     1
102
RTVSPropertyOp29
 70
     1
102
RTVSPropertyOp30
 70
     1
102
RTVSPropertyOp31
 70
     1
102
RTVSPropertyOp32
 70
     1
102
RTVSPropertyOp33
 70
     1
102
RTVSPropertyOp34
 70
     1
102
RTVSPropertyOp35
 70
     1
102
RTVSPropertyOp36
 70
     1
102
RTVSPropertyOp37
 70
     1
102
RTVSPropertyOp38
 70
     1
102
RTVSPropertyOp39
 70
     1
102
RTVSPropertyOp40
 70
     1
102
RTVSPropertyOp41
 70
     1
102
RTVSPropertyOp42
 70
     1
102
RTVSPropertyOp43
 70
     1
102
RTVSPropertyOp44
 70
     1
102
RTVSPropertyOp45
 70
     1
102
RTVSPropertyOp46
 70
     1
102
RTVSPropertyOp47
 70
     1
102
RTVSPropertyOp48
 70
     1
102
RTVSPropertyOp49
 70
     1
102
RTVSPropertyOp50
 70
     1
102
RTVSPropertyOp51
 70
     0
102
RTVSPropertyOp52
 70
     0
102
RTVSPropertyOp53
 70
     1
102
RTVSPropertyOp54
 70
     1
102
RTVSPropertyOp55
 70
     1
102
RTVSPropertyOp56
 70
     1
102
RTVSPropertyOp57
 70
     1
102
RTVSPost2010Prop28
280
     0
102
RTVSPost2010PropOp28
 70
     1
102
RTVSPost2010Prop29
280
     1
102
RTVSPost2010PropOp29
 70
     1
102
RTVSPost2010Prop30
280
     1
102
RTVSPost2010PropOp30
 70
     1
102
RTVSPost2010Prop31
280
     0
102
RTVSPost2010PropOp31
 70
     1
102
RTVSPost2010Prop32
280
     0
102
RTVSPost2010PropOp32
 70
     1
102
RTVSPost2010Prop33
280
     0
102
RTVSPost2010PropOp33
 70
     1
102
RTVSPost2010Prop34
280
     0
102
RTVSPost2010PropOp34
 70
     1
102
RTVSPost2010Prop35
280
     0
102
RTVSPost2010PropOp35
 70
     1
102
RTVSPost2010Prop36
280
     0
102
RTVSPost2010PropOp36
 70
     1
102
RTVSPost2010Prop37
 90
       50
102
RTVSPost2010PropOp37
 70
     1
102
RTVSPost2010Prop38
140
0.0
102
RTVSPost2010PropOp38
 70
     1
102
RTVSPost2010Prop39
140
1.0
102
RTVSPost2010PropOp39
 70
     1
102
RTVSPost2010Prop40
 90
        0
102
RTVSPost2010PropOp40
 70
     1
102
RTVSPost2010Prop41ColorIndex
 90
       18
102
RTVSPost2010Prop41ColorRGB
 90
        0
102
RTVSPost2010PropOp41
 70
     1
102
RTVSPost2010Prop42
 90
       50
102
RTVSPost2010PropOp42
 70
     1
102
RTVSPost2010Prop43
 90
        3
102
RTVSPost2010PropOp43
 70
     1
102
RTVSPost2010Prop44ColorIndex
 90
        5
102
RTVSPost2010Prop44ColorRGB
 90
      255
102
RTVSPost2010PropOp44
 70
     1
102
RTVSPost2010Prop45
280
     0
102
RTVSPost2010PropOp45
 70
     1
102
RTVSPost2010Prop46
 90
       50
102
RTVSPost2010PropOp46
 70
     1
102
RTVSPost2010Prop47
 90
       50
102
RTVSPost2010PropOp47
 70
     1
102
RTVSPost2010Prop48
 90
       50
102
RTVSPost2010PropOp48
 70
     1
102
RTVSPost2010Prop49
280
     0
102
RTVSPost2010PropOp49
 70
     1
102
RTVSPost2010Prop50
 90
       50
102
RTVSPost2010PropOp50
 70
     1
102
RTVSPost2010Prop51ColorIndex
 90
      256
102
RTVSPost2010Prop51ColorRGB
 90
-16777216
102
RTVSPost2010PropOp51
 70
     0
102
RTVSPost2010Prop52
140
1.0
102
RTVSPost2010PropOp52
 70
     0
102
RTVSPost2010Prop53
 90
        2
102
RTVSPost2010PropOp53
 70
     1
102
RTVSPost2010Prop54
  1
strokes_ogs.tif
102
RTVSPost2010PropOp54
 70
     1
102
RTVSPost2010Prop55
280
     0
102
RTVSPost2010PropOp55
 70
     1
102
RTVSPost2010Prop56
140
1.0
102
RTVSPost2010PropOp56
 70
     1
102
RTVSPost2010Prop57
140
1.0
102
RTVSPost2010PropOp57
 70
     1
  0
XRECORD
  5
364
102
{ACAD_REACTORS
330
363
102
}
330
363
100
AcDbXrecord
280
     1
102
RTVSPropertyOp0
 70
     1
102
RTVSPropertyOp1
 70
     1
102
RTVSPropertyOp2
 70
     1
102
RTVSPropertyOp3
 70
     1
102
RTVSPropertyOp4
 70
     1
102
RTVSPropertyOp5
 70
     1
102
RTVSPropertyOp6
 70
     1
102
RTVSPropertyOp7
 70
     1
102
RTVSPropertyOp8
 70
     1
102
RTVSPropertyOp9
 70
     1
102
RTVSPropertyOp10
 70
     1
102
RTVSPropertyOp11
 70
     1
102
RTVSPropertyOp12
 70
     1
102
RTVSPropertyOp13
 70
     1
102
RTVSPropertyOp14
 70
     1
102
RTVSPropertyOp15
 70
     1
102
RTVSPropertyOp16
 70
     1
102
RTVSPropertyOp17
 70
     1
102
RTVSPropertyOp18
 70
     1
102
RTVSPropertyOp19
 70
     1
102
RTVSPropertyOp20
 70
     1
102
RTVSPropertyOp21
 70
     1
102
RTVSPropertyOp22
 70
     1
102
RTVSPropertyOp23
 70
     1
102
RTVSPropertyOp24
 70
     1
102
RTVSPropertyOp25
 70
     1
102
RTVSPropertyOp26
 70
     1
102
RTVSPropertyOp27
 70
     1
102
RTVSPropertyOp28
 70
     1
102
RTVSPropertyOp29
 70
     1
102
RTVSPropertyOp30
 70
     1
102
RTVSPropertyOp31
 70
     1
102
RTVSPropertyOp32
 70
     1
102
RTVSPropertyOp33
 70
     1
102
RTVSPropertyOp34
 70
     1
102
RTVSPropertyOp35
 70
     1
102
RTVSPropertyOp36
 70
     1
102
RTVSPropertyOp37
 70
     1
102
RTVSPropertyOp38
 70
     1
102
RTVSPropertyOp39
 70
     1
102
RTVSPropertyOp40
 70
     1
102
RTVSPropertyOp41
 70
     1
102
RTVSPropertyOp42
 70
     1
102
RTVSPropertyOp43
 70
     1
102
RTVSPropertyOp44
 70
     1
102
RTVSPropertyOp45
 70
     1
102
RTVSPropertyOp46
 70
     1
102
RTVSPropertyOp47
 70
     1
102
RTVSPropertyOp48
 70
     1
102
RTVSPropertyOp49
 70
     1
102
RTVSPropertyOp50
 70
     1
102
RTVSPropertyOp51
 70
     0
102
RTVSPropertyOp52
 70
     0
102
RTVSPropertyOp53
 70
     1
102
RTVSPropertyOp54
 70
     1
102
RTVSPropertyOp55
 70
     1
102
RTVSPropertyOp56
 70
     1
102
RTVSPropertyOp57
 70
     1
102
RTVSPost2010Prop28
280
     0
102
RTVSPost2010PropOp28
 70
     1
102
RTVSPost2010Prop29
280
     1
102
RTVSPost2010PropOp29
 70
     1
102
RTVSPost2010Prop30
280
     1
102
RTVSPost2010PropOp30
 70
     1
102
RTVSPost2010Prop31
280
     0
102
RTVSPost2010PropOp31
 70
     1
102
RTVSPost2010Prop32
280
     0
102
RTVSPost2010PropOp32
 70
     1
102
RTVSPost2010Prop33
280
     0
102
RTVSPost2010PropOp33
 70
     1
102
RTVSPost2010Prop34
280
     0
102
RTVSPost2010PropOp34
 70
     1
102
RTVSPost2010Prop35
280
     0
102
RTVSPost2010PropOp35
 70
     1
102
RTVSPost2010Prop36
280
     0
102
RTVSPost2010PropOp36
 70
     1
102
RTVSPost2010Prop37
 90
       50
102
RTVSPost2010PropOp37
 70
     1
102
RTVSPost2010Prop38
140
0.0
102
RTVSPost2010PropOp38
 70
     1
102
RTVSPost2010Prop39
140
1.0
102
RTVSPost2010PropOp39
 70
     1
102
RTVSPost2010Prop40
 90
        0
102
RTVSPost2010PropOp40
 70
     1
102
RTVSPost2010Prop41ColorIndex
 90
       18
102
RTVSPost2010Prop41ColorRGB
 90
        0
102
RTVSPost2010PropOp41
 70
     1
102
RTVSPost2010Prop42
 90
       50
102
RTVSPost2010PropOp42
 70
     1
102
RTVSPost2010Prop43
 90
        3
102
RTVSPost2010PropOp43
 70
     1
102
RTVSPost2010Prop44ColorIndex
 90
        5
102
RTVSPost2010Prop44ColorRGB
 90
      255
102
RTVSPost2010PropOp44
 70
     1
102
RTVSPost2010Prop45
280
     0
102
RTVSPost2010PropOp45
 70
     1
102
RTVSPost2010Prop46
 90
       50
102
RTVSPost2010PropOp46
 70
     1
102
RTVSPost2010Prop47
 90
       50
102
RTVSPost2010PropOp47
 70
     1
102
RTVSPost2010Prop48
 90
       50
102
RTVSPost2010PropOp48
 70
     1
102
RTVSPost2010Prop49
280
     0
102
RTVSPost2010PropOp49
 70
     1
102
RTVSPost2010Prop50
 90
       50
102
RTVSPost2010PropOp50
 70
     1
102
RTVSPost2010Prop51ColorIndex
 90
      256
102
RTVSPost2010Prop51ColorRGB
 90
-16777216
102
RTVSPost2010PropOp51
 70
     0
102
RTVSPost2010Prop52
140
1.0
102
RTVSPost2010PropOp52
 70
     0
102
RTVSPost2010Prop53
 90
        2
102
RTVSPost2010PropOp53
 70
     1
102
RTVSPost2010Prop54
  1
strokes_ogs.tif
102
RTVSPost2010PropOp54
 70
     1
102
RTVSPost2010Prop55
280
     0
102
RTVSPost2010PropOp55
 70
     1
102
RTVSPost2010Prop56
140
1.0
102
RTVSPost2010PropOp56
 70
     1
102
RTVSPost2010Prop57
140
1.0
102
RTVSPost2010PropOp57
 70
     1
  0
XRECORD
  5
36C
102
{ACAD_REACTORS
330
36B
102
}
330
36B
100
AcDbXrecord
280
     1
102
RTVSPropertyOp0
 70
     1
102
RTVSPropertyOp1
 70
     1
102
RTVSPropertyOp2
 70
     1
102
RTVSPropertyOp3
 70
     1
102
RTVSPropertyOp4
 70
     1
102
RTVSPropertyOp5
 70
     1
102
RTVSPropertyOp6
 70
     1
102
RTVSPropertyOp7
 70
     1
102
RTVSPropertyOp8
 70
     1
102
RTVSPropertyOp9
 70
     1
102
RTVSPropertyOp10
 70
     1
102
RTVSPropertyOp11
 70
     1
102
RTVSPropertyOp12
 70
     1
102
RTVSPropertyOp13
 70
     1
102
RTVSPropertyOp14
 70
     1
102
RTVSPropertyOp15
 70
     1
102
RTVSPropertyOp16
 70
     1
102
RTVSPropertyOp17
 70
     1
102
RTVSPropertyOp18
 70
     1
102
RTVSPropertyOp19
 70
     1
102
RTVSPropertyOp20
 70
     1
102
RTVSPropertyOp21
 70
     1
102
RTVSPropertyOp22
 70
     1
102
RTVSPropertyOp23
 70
     1
102
RTVSPropertyOp24
 70
     1
102
RTVSPropertyOp25
 70
     1
102
RTVSPropertyOp26
 70
     1
102
RTVSPropertyOp27
 70
     1
102
RTVSPropertyOp28
 70
     1
102
RTVSPropertyOp29
 70
     1
102
RTVSPropertyOp30
 70
     1
102
RTVSPropertyOp31
 70
     1
102
RTVSPropertyOp32
 70
     1
102
RTVSPropertyOp33
 70
     1
102
RTVSPropertyOp34
 70
     1
102
RTVSPropertyOp35
 70
     1
102
RTVSPropertyOp36
 70
     1
102
RTVSPropertyOp37
 70
     1
102
RTVSPropertyOp38
 70
     1
102
RTVSPropertyOp39
 70
     1
102
RTVSPropertyOp40
 70
     1
102
RTVSPropertyOp41
 70
     1
102
RTVSPropertyOp42
 70
     1
102
RTVSPropertyOp43
 70
     1
102
RTVSPropertyOp44
 70
     1
102
RTVSPropertyOp45
 70
     1
102
RTVSPropertyOp46
 70
     1
102
RTVSPropertyOp47
 70
     1
102
RTVSPropertyOp48
 70
     1
102
RTVSPropertyOp49
 70
     1
102
RTVSPropertyOp50
 70
     1
102
RTVSPropertyOp51
 70
     0
102
RTVSPropertyOp52
 70
     0
102
RTVSPropertyOp53
 70
     1
102
RTVSPropertyOp54
 70
     1
102
RTVSPropertyOp55
 70
     1
102
RTVSPropertyOp56
 70
     1
102
RTVSPropertyOp57
 70
     1
102
RTVSPost2010Prop28
280
     0
102
RTVSPost2010PropOp28
 70
     1
102
RTVSPost2010Prop29
280
     1
102
RTVSPost2010PropOp29
 70
     1
102
RTVSPost2010Prop30
280
     1
102
RTVSPost2010PropOp30
 70
     1
102
RTVSPost2010Prop31
280
     0
102
RTVSPost2010PropOp31
 70
     1
102
RTVSPost2010Prop32
280
     0
102
RTVSPost2010PropOp32
 70
     1
102
RTVSPost2010Prop33
280
     0
102
RTVSPost2010PropOp33
 70
     1
102
RTVSPost2010Prop34
280
     0
102
RTVSPost2010PropOp34
 70
     1
102
RTVSPost2010Prop35
280
     0
102
RTVSPost2010PropOp35
 70
     1
102
RTVSPost2010Prop36
280
     0
102
RTVSPost2010PropOp36
 70
     1
102
RTVSPost2010Prop37
 90
       50
102
RTVSPost2010PropOp37
 70
     1
102
RTVSPost2010Prop38
140
0.0
102
RTVSPost2010PropOp38
 70
     1
102
RTVSPost2010Prop39
140
1.0
102
RTVSPost2010PropOp39
 70
     1
102
RTVSPost2010Prop40
 90
        0
102
RTVSPost2010PropOp40
 70
     1
102
RTVSPost2010Prop41ColorIndex
 90
       18
102
RTVSPost2010Prop41ColorRGB
 90
        0
102
RTVSPost2010PropOp41
 70
     1
102
RTVSPost2010Prop42
 90
       50
102
RTVSPost2010PropOp42
 70
     1
102
RTVSPost2010Prop43
 90
        3
102
RTVSPost2010PropOp43
 70
     1
102
RTVSPost2010Prop44ColorIndex
 90
        5
102
RTVSPost2010Prop44ColorRGB
 90
      255
102
RTVSPost2010PropOp44
 70
     1
102
RTVSPost2010Prop45
280
     0
102
RTVSPost2010PropOp45
 70
     1
102
RTVSPost2010Prop46
 90
       50
102
RTVSPost2010PropOp46
 70
     1
102
RTVSPost2010Prop47
 90
       50
102
RTVSPost2010PropOp47
 70
     1
102
RTVSPost2010Prop48
 90
       50
102
RTVSPost2010PropOp48
 70
     1
102
RTVSPost2010Prop49
280
     0
102
RTVSPost2010PropOp49
 70
     1
102
RTVSPost2010Prop50
 90
       50
102
RTVSPost2010PropOp50
 70
     1
102
RTVSPost2010Prop51ColorIndex
 90
      256
102
RTVSPost2010Prop51ColorRGB
 90
-16777216
102
RTVSPost2010PropOp51
 70
     0
102
RTVSPost2010Prop52
140
1.0
102
RTVSPost2010PropOp52
 70
     0
102
RTVSPost2010Prop53
 90
        2
102
RTVSPost2010PropOp53
 70
     1
102
RTVSPost2010Prop54
  1
strokes_ogs.tif
102
RTVSPost2010PropOp54
 70
     1
102
RTVSPost2010Prop55
280
     0
102
RTVSPost2010PropOp55
 70
     1
102
RTVSPost2010Prop56
140
1.0
102
RTVSPost2010PropOp56
 70
     1
102
RTVSPost2010Prop57
140
1.0
102
RTVSPost2010PropOp57
 70
     1
  0
XRECORD
  5
360
102
{ACAD_REACTORS
330
35F
102
}
330
35F
100
AcDbXrecord
280
     1
102
RTVSPropertyOp0
 70
     1
102
RTVSPropertyOp1
 70
     1
102
RTVSPropertyOp2
 70
     1
102
RTVSPropertyOp3
 70
     1
102
RTVSPropertyOp4
 70
     1
102
RTVSPropertyOp5
 70
     1
102
RTVSPropertyOp6
 70
     1
102
RTVSPropertyOp7
 70
     1
102
RTVSPropertyOp8
 70
     1
102
RTVSPropertyOp9
 70
     1
102
RTVSPropertyOp10
 70
     1
102
RTVSPropertyOp11
 70
     1
102
RTVSPropertyOp12
 70
     1
102
RTVSPropertyOp13
 70
     1
102
RTVSPropertyOp14
 70
     1
102
RTVSPropertyOp15
 70
     1
102
RTVSPropertyOp16
 70
     1
102
RTVSPropertyOp17
 70
     1
102
RTVSPropertyOp18
 70
     1
102
RTVSPropertyOp19
 70
     1
102
RTVSPropertyOp20
 70
     1
102
RTVSPropertyOp21
 70
     1
102
RTVSPropertyOp22
 70
     1
102
RTVSPropertyOp23
 70
     1
102
RTVSPropertyOp24
 70
     1
102
RTVSPropertyOp25
 70
     1
102
RTVSPropertyOp26
 70
     1
102
RTVSPropertyOp27
 70
     1
102
RTVSPropertyOp28
 70
     1
102
RTVSPropertyOp29
 70
     1
102
RTVSPropertyOp30
 70
     1
102
RTVSPropertyOp31
 70
     1
102
RTVSPropertyOp32
 70
     1
102
RTVSPropertyOp33
 70
     1
102
RTVSPropertyOp34
 70
     1
102
RTVSPropertyOp35
 70
     1
102
RTVSPropertyOp36
 70
     1
102
RTVSPropertyOp37
 70
     1
102
RTVSPropertyOp38
 70
     1
102
RTVSPropertyOp39
 70
     1
102
RTVSPropertyOp40
 70
     1
102
RTVSPropertyOp41
 70
     1
102
RTVSPropertyOp42
 70
     1
102
RTVSPropertyOp43
 70
     1
102
RTVSPropertyOp44
 70
     1
102
RTVSPropertyOp45
 70
     1
102
RTVSPropertyOp46
 70
     1
102
RTVSPropertyOp47
 70
     1
102
RTVSPropertyOp48
 70
     1
102
RTVSPropertyOp49
 70
     1
102
RTVSPropertyOp50
 70
     1
102
RTVSPropertyOp51
 70
     0
102
RTVSPropertyOp52
 70
     0
102
RTVSPropertyOp53
 70
     1
102
RTVSPropertyOp54
 70
     1
102
RTVSPropertyOp55
 70
     1
102
RTVSPropertyOp56
 70
     1
102
RTVSPropertyOp57
 70
     1
102
RTVSPost2010Prop28
280
     0
102
RTVSPost2010PropOp28
 70
     1
102
RTVSPost2010Prop29
280
     1
102
RTVSPost2010PropOp29
 70
     1
102
RTVSPost2010Prop30
280
     1
102
RTVSPost2010PropOp30
 70
     1
102
RTVSPost2010Prop31
280
     0
102
RTVSPost2010PropOp31
 70
     1
102
RTVSPost2010Prop32
280
     0
102
RTVSPost2010PropOp32
 70
     1
102
RTVSPost2010Prop33
280
     0
102
RTVSPost2010PropOp33
 70
     1
102
RTVSPost2010Prop34
280
     0
102
RTVSPost2010PropOp34
 70
     1
102
RTVSPost2010Prop35
280
     0
102
RTVSPost2010PropOp35
 70
     1
102
RTVSPost2010Prop36
280
     0
102
RTVSPost2010PropOp36
 70
     1
102
RTVSPost2010Prop37
 90
       50
102
RTVSPost2010PropOp37
 70
     1
102
RTVSPost2010Prop38
140
0.0
102
RTVSPost2010PropOp38
 70
     1
102
RTVSPost2010Prop39
140
1.0
102
RTVSPost2010PropOp39
 70
     1
102
RTVSPost2010Prop40
 90
        0
102
RTVSPost2010PropOp40
 70
     1
102
RTVSPost2010Prop41ColorIndex
 90
       18
102
RTVSPost2010Prop41ColorRGB
 90
        0
102
RTVSPost2010PropOp41
 70
     1
102
RTVSPost2010Prop42
 90
       50
102
RTVSPost2010PropOp42
 70
     1
102
RTVSPost2010Prop43
 90
        3
102
RTVSPost2010PropOp43
 70
     1
102
RTVSPost2010Prop44ColorIndex
 90
        5
102
RTVSPost2010Prop44ColorRGB
 90
      255
102
RTVSPost2010PropOp44
 70
     1
102
RTVSPost2010Prop45
280
     0
102
RTVSPost2010PropOp45
 70
     1
102
RTVSPost2010Prop46
 90
       50
102
RTVSPost2010PropOp46
 70
     1
102
RTVSPost2010Prop47
 90
       50
102
RTVSPost2010PropOp47
 70
     1
102
RTVSPost2010Prop48
 90
       50
102
RTVSPost2010PropOp48
 70
     1
102
RTVSPost2010Prop49
280
     0
102
RTVSPost2010PropOp49
 70
     1
102
RTVSPost2010Prop50
 90
       50
102
RTVSPost2010PropOp50
 70
     1
102
RTVSPost2010Prop51ColorIndex
 90
      256
102
RTVSPost2010Prop51ColorRGB
 90
-16777216
102
RTVSPost2010PropOp51
 70
     0
102
RTVSPost2010Prop52
140
1.0
102
RTVSPost2010PropOp52
 70
     0
102
RTVSPost2010Prop53
 90
        2
102
RTVSPost2010PropOp53
 70
     1
102
RTVSPost2010Prop54
  1
strokes_ogs.tif
102
RTVSPost2010PropOp54
 70
     1
102
RTVSPost2010Prop55
280
     0
102
RTVSPost2010PropOp55
 70
     1
102
RTVSPost2010Prop56
140
1.0
102
RTVSPost2010PropOp56
 70
     1
102
RTVSPost2010Prop57
140
1.0
102
RTVSPost2010PropOp57
 70
     1
  0
XRECORD
  5
362
102
{ACAD_REACTORS
330
361
102
}
330
361
100
AcDbXrecord
280
     1
102
RTVSPropertyOp0
 70
     1
102
RTVSPropertyOp1
 70
     1
102
RTVSPropertyOp2
 70
     1
102
RTVSPropertyOp3
 70
     1
102
RTVSPropertyOp4
 70
     1
102
RTVSPropertyOp5
 70
     1
102
RTVSPropertyOp6
 70
     1
102
RTVSPropertyOp7
 70
     1
102
RTVSPropertyOp8
 70
     1
102
RTVSPropertyOp9
 70
     1
102
RTVSPropertyOp10
 70
     1
102
RTVSPropertyOp11
 70
     1
102
RTVSPropertyOp12
 70
     1
102
RTVSPropertyOp13
 70
     1
102
RTVSPropertyOp14
 70
     1
102
RTVSPropertyOp15
 70
     1
102
RTVSPropertyOp16
 70
     1
102
RTVSPropertyOp17
 70
     1
102
RTVSPropertyOp18
 70
     1
102
RTVSPropertyOp19
 70
     1
102
RTVSPropertyOp20
 70
     1
102
RTVSPropertyOp21
 70
     1
102
RTVSPropertyOp22
 70
     1
102
RTVSPropertyOp23
 70
     1
102
RTVSPropertyOp24
 70
     1
102
RTVSPropertyOp25
 70
     1
102
RTVSPropertyOp26
 70
     1
102
RTVSPropertyOp27
 70
     1
102
RTVSPropertyOp28
 70
     1
102
RTVSPropertyOp29
 70
     1
102
RTVSPropertyOp30
 70
     1
102
RTVSPropertyOp31
 70
     1
102
RTVSPropertyOp32
 70
     1
102
RTVSPropertyOp33
 70
     1
102
RTVSPropertyOp34
 70
     1
102
RTVSPropertyOp35
 70
     1
102
RTVSPropertyOp36
 70
     1
102
RTVSPropertyOp37
 70
     1
102
RTVSPropertyOp38
 70
     1
102
RTVSPropertyOp39
 70
     1
102
RTVSPropertyOp40
 70
     1
102
RTVSPropertyOp41
 70
     1
102
RTVSPropertyOp42
 70
     1
102
RTVSPropertyOp43
 70
     1
102
RTVSPropertyOp44
 70
     1
102
RTVSPropertyOp45
 70
     1
102
RTVSPropertyOp46
 70
     1
102
RTVSPropertyOp47
 70
     1
102
RTVSPropertyOp48
 70
     1
102
RTVSPropertyOp49
 70
     1
102
RTVSPropertyOp50
 70
     1
102
RTVSPropertyOp51
 70
     0
102
RTVSPropertyOp52
 70
     0
102
RTVSPropertyOp53
 70
     1
102
RTVSPropertyOp54
 70
     1
102
RTVSPropertyOp55
 70
     1
102
RTVSPropertyOp56
 70
     1
102
RTVSPropertyOp57
 70
     1
102
RTVSPost2010Prop28
280
     0
102
RTVSPost2010PropOp28
 70
     1
102
RTVSPost2010Prop29
280
     1
102
RTVSPost2010PropOp29
 70
     1
102
RTVSPost2010Prop30
280
     1
102
RTVSPost2010PropOp30
 70
     1
102
RTVSPost2010Prop31
280
     0
102
RTVSPost2010PropOp31
 70
     1
102
RTVSPost2010Prop32
280
     0
102
RTVSPost2010PropOp32
 70
     1
102
RTVSPost2010Prop33
280
     0
102
RTVSPost2010PropOp33
 70
     1
102
RTVSPost2010Prop34
280
     0
102
RTVSPost2010PropOp34
 70
     1
102
RTVSPost2010Prop35
280
     0
102
RTVSPost2010PropOp35
 70
     1
102
RTVSPost2010Prop36
280
     0
102
RTVSPost2010PropOp36
 70
     1
102
RTVSPost2010Prop37
 90
       50
102
RTVSPost2010PropOp37
 70
     1
102
RTVSPost2010Prop38
140
0.0
102
RTVSPost2010PropOp38
 70
     1
102
RTVSPost2010Prop39
140
1.0
102
RTVSPost2010PropOp39
 70
     1
102
RTVSPost2010Prop40
 90
        0
102
RTVSPost2010PropOp40
 70
     1
102
RTVSPost2010Prop41ColorIndex
 90
       18
102
RTVSPost2010Prop41ColorRGB
 90
        0
102
RTVSPost2010PropOp41
 70
     1
102
RTVSPost2010Prop42
 90
       50
102
RTVSPost2010PropOp42
 70
     1
102
RTVSPost2010Prop43
 90
        3
102
RTVSPost2010PropOp43
 70
     1
102
RTVSPost2010Prop44ColorIndex
 90
        5
102
RTVSPost2010Prop44ColorRGB
 90
      255
102
RTVSPost2010PropOp44
 70
     1
102
RTVSPost2010Prop45
280
     0
102
RTVSPost2010PropOp45
 70
     1
102
RTVSPost2010Prop46
 90
       50
102
RTVSPost2010PropOp46
 70
     1
102
RTVSPost2010Prop47
 90
       50
102
RTVSPost2010PropOp47
 70
     1
102
RTVSPost2010Prop48
 90
       50
102
RTVSPost2010PropOp48
 70
     1
102
RTVSPost2010Prop49
280
     0
102
RTVSPost2010PropOp49
 70
     1
102
RTVSPost2010Prop50
 90
       50
102
RTVSPost2010PropOp50
 70
     1
102
RTVSPost2010Prop51ColorIndex
 90
      256
102
RTVSPost2010Prop51ColorRGB
 90
-16777216
102
RTVSPost2010PropOp51
 70
     0
102
RTVSPost2010Prop52
140
1.0
102
RTVSPost2010PropOp52
 70
     0
102
RTVSPost2010Prop53
 90
        2
102
RTVSPost2010PropOp53
 70
     1
102
RTVSPost2010Prop54
  1
strokes_ogs.tif
102
RTVSPost2010PropOp54
 70
     1
102
RTVSPost2010Prop55
280
     0
102
RTVSPost2010PropOp55
 70
     1
102
RTVSPost2010Prop56
140
1.0
102
RTVSPost2010PropOp56
 70
     1
102
RTVSPost2010Prop57
140
1.0
102
RTVSPost2010PropOp57
 70
     1
  0
XRECORD
  5
372
102
{ACAD_REACTORS
330
371
102
}
330
371
100
AcDbXrecord
280
     1
102
RTVSPropertyOp0
 70
     0
102
RTVSPropertyOp1
 70
     0
102
RTVSPropertyOp2
 70
     0
102
RTVSPropertyOp3
 70
     0
102
RTVSPropertyOp4
 70
     0
102
RTVSPropertyOp5
 70
     0
102
RTVSPropertyOp6
 70
     0
102
RTVSPropertyOp7
 70
     0
102
RTVSPropertyOp8
 70
     0
102
RTVSPropertyOp9
 70
     0
102
RTVSPropertyOp10
 70
     0
102
RTVSPropertyOp11
 70
     0
102
RTVSPropertyOp12
 70
     0
102
RTVSPropertyOp13
 70
     0
102
RTVSPropertyOp14
 70
     2
102
RTVSPropertyOp15
 70
     0
102
RTVSPropertyOp16
 70
     0
102
RTVSPropertyOp17
 70
     0
102
RTVSPropertyOp18
 70
     0
102
RTVSPropertyOp19
 70
     0
102
RTVSPropertyOp20
 70
     0
102
RTVSPropertyOp21
 70
     0
102
RTVSPropertyOp22
 70
     0
102
RTVSPropertyOp23
 70
     0
102
RTVSPropertyOp24
 70
     0
102
RTVSPropertyOp25
 70
     0
102
RTVSPropertyOp26
 70
     0
102
RTVSPropertyOp27
 70
     0
102
RTVSPropertyOp28
 70
     0
102
RTVSPropertyOp29
 70
     0
102
RTVSPropertyOp30
 70
     0
102
RTVSPropertyOp31
 70
     0
102
RTVSPropertyOp32
 70
     0
102
RTVSPropertyOp33
 70
     0
102
RTVSPropertyOp34
 70
     0
102
RTVSPropertyOp35
 70
     0
102
RTVSPropertyOp36
 70
     0
102
RTVSPropertyOp37
 70
     0
102
RTVSPropertyOp38
 70
     0
102
RTVSPropertyOp39
 70
     0
102
RTVSPropertyOp40
 70
     0
102
RTVSPropertyOp41
 70
     0
102
RTVSPropertyOp42
 70
     0
102
RTVSPropertyOp43
 70
     0
102
RTVSPropertyOp44
 70
     0
102
RTVSPropertyOp45
 70
     0
102
RTVSPropertyOp46
 70
     0
102
RTVSPropertyOp47
 70
     0
102
RTVSPropertyOp48
 70
     0
102
RTVSPropertyOp49
 70
     0
102
RTVSPropertyOp50
 70
     0
102
RTVSPropertyOp51
 70
     0
102
RTVSPropertyOp52
 70
     0
102
RTVSPropertyOp53
 70
     0
102
RTVSPropertyOp54
 70
     0
102
RTVSPropertyOp55
 70
     0
102
RTVSPropertyOp56
 70
     0
102
RTVSPropertyOp57
 70
     0
102
RTVSPost2010Prop28
280
     0
102
RTVSPost2010PropOp28
 70
     0
102
RTVSPost2010Prop29
280
     1
102
RTVSPost2010PropOp29
 70
     0
102
RTVSPost2010Prop30
280
     1
102
RTVSPost2010PropOp30
 70
     0
102
RTVSPost2010Prop31
280
     0
102
RTVSPost2010PropOp31
 70
     0
102
RTVSPost2010Prop32
280
     0
102
RTVSPost2010PropOp32
 70
     0
102
RTVSPost2010Prop33
280
     0
102
RTVSPost2010PropOp33
 70
     0
102
RTVSPost2010Prop34
280
     0
102
RTVSPost2010PropOp34
 70
     0
102
RTVSPost2010Prop35
280
     0
102
RTVSPost2010PropOp35
 70
     0
102
RTVSPost2010Prop36
280
     0
102
RTVSPost2010PropOp36
 70
     0
102
RTVSPost2010Prop37
 90
       50
102
RTVSPost2010PropOp37
 70
     0
102
RTVSPost2010Prop38
140
0.0
102
RTVSPost2010PropOp38
 70
     0
102
RTVSPost2010Prop39
140
1.0
102
RTVSPost2010PropOp39
 70
     0
102
RTVSPost2010Prop40
 90
        0
102
RTVSPost2010PropOp40
 70
     0
102
RTVSPost2010Prop41ColorIndex
 90
       18
102
RTVSPost2010Prop41ColorRGB
 90
        0
102
RTVSPost2010PropOp41
 70
     0
102
RTVSPost2010Prop42
 90
       50
102
RTVSPost2010PropOp42
 70
     0
102
RTVSPost2010Prop43
 90
        3
102
RTVSPost2010PropOp43
 70
     0
102
RTVSPost2010Prop44ColorIndex
 90
        5
102
RTVSPost2010Prop44ColorRGB
 90
      255
102
RTVSPost2010PropOp44
 70
     0
102
RTVSPost2010Prop45
280
     0
102
RTVSPost2010PropOp45
 70
     0
102
RTVSPost2010Prop46
 90
       50
102
RTVSPost2010PropOp46
 70
     0
102
RTVSPost2010Prop47
 90
       50
102
RTVSPost2010PropOp47
 70
     0
102
RTVSPost2010Prop48
 90
       50
102
RTVSPost2010PropOp48
 70
     0
102
RTVSPost2010Prop49
280
     0
102
RTVSPost2010PropOp49
 70
     0
102
RTVSPost2010Prop50
 90
       50
102
RTVSPost2010PropOp50
 70
     0
102
RTVSPost2010Prop51ColorIndex
 90
      256
102
RTVSPost2010Prop51ColorRGB
 90
-16777216
102
RTVSPost2010PropOp51
 70
     0
102
RTVSPost2010Prop52
140
1.0
102
RTVSPost2010PropOp52
 70
     0
102
RTVSPost2010Prop53
 90
        2
102
RTVSPost2010PropOp53
 70
     0
102
RTVSPost2010Prop54
  1
strokes_ogs.tif
102
RTVSPost2010PropOp54
 70
     0
102
RTVSPost2010Prop55
280
     0
102
RTVSPost2010PropOp55
 70
     0
102
RTVSPost2010Prop56
140
1.0
102
RTVSPost2010PropOp56
 70
     0
102
RTVSPost2010Prop57
140
1.0
102
RTVSPost2010PropOp57
 70
     0
  0
XRECORD
  5
36A
102
{ACAD_REACTORS
330
369
102
}
330
369
100
AcDbXrecord
280
     1
102
RTVSPropertyOp0
 70
     1
102
RTVSPropertyOp1
 70
     1
102
RTVSPropertyOp2
 70
     1
102
RTVSPropertyOp3
 70
     1
102
RTVSPropertyOp4
 70
     1
102
RTVSPropertyOp5
 70
     1
102
RTVSPropertyOp6
 70
     1
102
RTVSPropertyOp7
 70
     1
102
RTVSPropertyOp8
 70
     1
102
RTVSPropertyOp9
 70
     1
102
RTVSPropertyOp10
 70
     1
102
RTVSPropertyOp11
 70
     1
102
RTVSPropertyOp12
 70
     1
102
RTVSPropertyOp13
 70
     1
102
RTVSPropertyOp14
 70
     1
102
RTVSPropertyOp15
 70
     1
102
RTVSPropertyOp16
 70
     1
102
RTVSPropertyOp17
 70
     1
102
RTVSPropertyOp18
 70
     1
102
RTVSPropertyOp19
 70
     1
102
RTVSPropertyOp20
 70
     1
102
RTVSPropertyOp21
 70
     1
102
RTVSPropertyOp22
 70
     1
102
RTVSPropertyOp23
 70
     1
102
RTVSPropertyOp24
 70
     1
102
RTVSPropertyOp25
 70
     1
102
RTVSPropertyOp26
 70
     1
102
RTVSPropertyOp27
 70
     1
102
RTVSPropertyOp28
 70
     1
102
RTVSPropertyOp29
 70
     1
102
RTVSPropertyOp30
 70
     1
102
RTVSPropertyOp31
 70
     1
102
RTVSPropertyOp32
 70
     1
102
RTVSPropertyOp33
 70
     1
102
RTVSPropertyOp34
 70
     1
102
RTVSPropertyOp35
 70
     1
102
RTVSPropertyOp36
 70
     1
102
RTVSPropertyOp37
 70
     1
102
RTVSPropertyOp38
 70
     1
102
RTVSPropertyOp39
 70
     1
102
RTVSPropertyOp40
 70
     1
102
RTVSPropertyOp41
 70
     1
102
RTVSPropertyOp42
 70
     1
102
RTVSPropertyOp43
 70
     1
102
RTVSPropertyOp44
 70
     1
102
RTVSPropertyOp45
 70
     1
102
RTVSPropertyOp46
 70
     1
102
RTVSPropertyOp47
 70
     1
102
RTVSPropertyOp48
 70
     1
102
RTVSPropertyOp49
 70
     1
102
RTVSPropertyOp50
 70
     1
102
RTVSPropertyOp51
 70
     0
102
RTVSPropertyOp52
 70
     0
102
RTVSPropertyOp53
 70
     1
102
RTVSPropertyOp54
 70
     1
102
RTVSPropertyOp55
 70
     1
102
RTVSPropertyOp56
 70
     1
102
RTVSPropertyOp57
 70
     1
102
RTVSPost2010Prop28
280
     0
102
RTVSPost2010PropOp28
 70
     1
102
RTVSPost2010Prop29
280
     1
102
RTVSPost2010PropOp29
 70
     1
102
RTVSPost2010Prop30
280
     1
102
RTVSPost2010PropOp30
 70
     1
102
RTVSPost2010Prop31
280
     0
102
RTVSPost2010PropOp31
 70
     1
102
RTVSPost2010Prop32
280
     0
102
RTVSPost2010PropOp32
 70
     1
102
RTVSPost2010Prop33
280
     0
102
RTVSPost2010PropOp33
 70
     1
102
RTVSPost2010Prop34
280
     0
102
RTVSPost2010PropOp34
 70
     1
102
RTVSPost2010Prop35
280
     0
102
RTVSPost2010PropOp35
 70
     1
102
RTVSPost2010Prop36
280
     0
102
RTVSPost2010PropOp36
 70
     1
102
RTVSPost2010Prop37
 90
       50
102
RTVSPost2010PropOp37
 70
     1
102
RTVSPost2010Prop38
140
0.0
102
RTVSPost2010PropOp38
 70
     1
102
RTVSPost2010Prop39
140
1.0
102
RTVSPost2010PropOp39
 70
     1
102
RTVSPost2010Prop40
 90
        0
102
RTVSPost2010PropOp40
 70
     1
102
RTVSPost2010Prop41ColorIndex
 90
       18
102
RTVSPost2010Prop41ColorRGB
 90
        0
102
RTVSPost2010PropOp41
 70
     1
102
RTVSPost2010Prop42
 90
       50
102
RTVSPost2010PropOp42
 70
     1
102
RTVSPost2010Prop43
 90
        3
102
RTVSPost2010PropOp43
 70
     1
102
RTVSPost2010Prop44ColorIndex
 90
        5
102
RTVSPost2010Prop44ColorRGB
 90
      255
102
RTVSPost2010PropOp44
 70
     1
102
RTVSPost2010Prop45
280
     0
102
RTVSPost2010PropOp45
 70
     1
102
RTVSPost2010Prop46
 90
       50
102
RTVSPost2010PropOp46
 70
     1
102
RTVSPost2010Prop47
 90
       50
102
RTVSPost2010PropOp47
 70
     1
102
RTVSPost2010Prop48
 90
       50
102
RTVSPost2010PropOp48
 70
     1
102
RTVSPost2010Prop49
280
     0
102
RTVSPost2010PropOp49
 70
     1
102
RTVSPost2010Prop50
 90
       50
102
RTVSPost2010PropOp50
 70
     1
102
RTVSPost2010Prop51ColorIndex
 90
      256
102
RTVSPost2010Prop51ColorRGB
 90
-16777216
102
RTVSPost2010PropOp51
 70
     0
102
RTVSPost2010Prop52
140
1.0
102
RTVSPost2010PropOp52
 70
     0
102
RTVSPost2010Prop53
 90
        2
102
RTVSPost2010PropOp53
 70
     1
102
RTVSPost2010Prop54
  1
strokes_ogs.tif
102
RTVSPost2010PropOp54
 70
     1
102
RTVSPost2010Prop55
280
     0
102
RTVSPost2010PropOp55
 70
     1
102
RTVSPost2010Prop56
140
1.0
102
RTVSPost2010PropOp56
 70
     1
102
RTVSPost2010Prop57
140
1.0
102
RTVSPost2010PropOp57
 70
     1
  0
XRECORD
  5
34E
102
{ACAD_REACTORS
330
34D
102
}
330
34D
100
AcDbXrecord
280
     1
102
RTVSPropertyOp0
 70
     1
102
RTVSPropertyOp1
 70
     1
102
RTVSPropertyOp2
 70
     1
102
RTVSPropertyOp3
 70
     1
102
RTVSPropertyOp4
 70
     1
102
RTVSPropertyOp5
 70
     1
102
RTVSPropertyOp6
 70
     1
102
RTVSPropertyOp7
 70
     1
102
RTVSPropertyOp8
 70
     1
102
RTVSPropertyOp9
 70
     1
102
RTVSPropertyOp10
 70
     1
102
RTVSPropertyOp11
 70
     1
102
RTVSPropertyOp12
 70
     1
102
RTVSPropertyOp13
 70
     1
102
RTVSPropertyOp14
 70
     1
102
RTVSPropertyOp15
 70
     1
102
RTVSPropertyOp16
 70
     1
102
RTVSPropertyOp17
 70
     1
102
RTVSPropertyOp18
 70
     1
102
RTVSPropertyOp19
 70
     1
102
RTVSPropertyOp20
 70
     1
102
RTVSPropertyOp21
 70
     1
102
RTVSPropertyOp22
 70
     1
102
RTVSPropertyOp23
 70
     1
102
RTVSPropertyOp24
 70
     1
102
RTVSPropertyOp25
 70
     1
102
RTVSPropertyOp26
 70
     1
102
RTVSPropertyOp27
 70
     1
102
RTVSPropertyOp28
 70
     1
102
RTVSPropertyOp29
 70
     1
102
RTVSPropertyOp30
 70
     1
102
RTVSPropertyOp31
 70
     1
102
RTVSPropertyOp32
 70
     1
102
RTVSPropertyOp33
 70
     1
102
RTVSPropertyOp34
 70
     1
102
RTVSPropertyOp35
 70
     1
102
RTVSPropertyOp36
 70
     1
102
RTVSPropertyOp37
 70
     1
102
RTVSPropertyOp38
 70
     1
102
RTVSPropertyOp39
 70
     1
102
RTVSPropertyOp40
 70
     1
102
RTVSPropertyOp41
 70
     1
102
RTVSPropertyOp42
 70
     1
102
RTVSPropertyOp43
 70
     1
102
RTVSPropertyOp44
 70
     1
102
RTVSPropertyOp45
 70
     1
102
RTVSPropertyOp46
 70
     1
102
RTVSPropertyOp47
 70
     1
102
RTVSPropertyOp48
 70
     1
102
RTVSPropertyOp49
 70
     1
102
RTVSPropertyOp50
 70
     1
102
RTVSPropertyOp51
 70
     0
102
RTVSPropertyOp52
 70
     0
102
RTVSPropertyOp53
 70
     1
102
RTVSPropertyOp54
 70
     1
102
RTVSPropertyOp55
 70
     1
102
RTVSPropertyOp56
 70
     1
102
RTVSPropertyOp57
 70
     1
102
RTVSPost2010Prop28
280
     0
102
RTVSPost2010PropOp28
 70
     1
102
RTVSPost2010Prop29
280
     1
102
RTVSPost2010PropOp29
 70
     1
102
RTVSPost2010Prop30
280
     1
102
RTVSPost2010PropOp30
 70
     1
102
RTVSPost2010Prop31
280
     0
102
RTVSPost2010PropOp31
 70
     1
102
RTVSPost2010Prop32
280
     0
102
RTVSPost2010PropOp32
 70
     1
102
RTVSPost2010Prop33
280
     0
102
RTVSPost2010PropOp33
 70
     1
102
RTVSPost2010Prop34
280
     0
102
RTVSPost2010PropOp34
 70
     1
102
RTVSPost2010Prop35
280
     0
102
RTVSPost2010PropOp35
 70
     1
102
RTVSPost2010Prop36
280
     0
102
RTVSPost2010PropOp36
 70
     1
102
RTVSPost2010Prop37
 90
       50
102
RTVSPost2010PropOp37
 70
     1
102
RTVSPost2010Prop38
140
0.0
102
RTVSPost2010PropOp38
 70
     1
102
RTVSPost2010Prop39
140
1.0
102
RTVSPost2010PropOp39
 70
     1
102
RTVSPost2010Prop40
 90
        0
102
RTVSPost2010PropOp40
 70
     1
102
RTVSPost2010Prop41ColorIndex
 90
       18
102
RTVSPost2010Prop41ColorRGB
 90
        0
102
RTVSPost2010PropOp41
 70
     1
102
RTVSPost2010Prop42
 90
       50
102
RTVSPost2010PropOp42
 70
     1
102
RTVSPost2010Prop43
 90
        3
102
RTVSPost2010PropOp43
 70
     1
102
RTVSPost2010Prop44ColorIndex
 90
        5
102
RTVSPost2010Prop44ColorRGB
 90
      255
102
RTVSPost2010PropOp44
 70
     1
102
RTVSPost2010Prop45
280
     0
102
RTVSPost2010PropOp45
 70
     1
102
RTVSPost2010Prop46
 90
       50
102
RTVSPost2010PropOp46
 70
     1
102
RTVSPost2010Prop47
 90
       50
102
RTVSPost2010PropOp47
 70
     1
102
RTVSPost2010Prop48
 90
       50
102
RTVSPost2010PropOp48
 70
     1
102
RTVSPost2010Prop49
280
     0
102
RTVSPost2010PropOp49
 70
     1
102
RTVSPost2010Prop50
 90
       50
102
RTVSPost2010PropOp50
 70
     1
102
RTVSPost2010Prop51ColorIndex
 90
      256
102
RTVSPost2010Prop51ColorRGB
 90
-16777216
102
RTVSPost2010PropOp51
 70
     0
102
RTVSPost2010Prop52
140
1.0
102
RTVSPost2010PropOp52
 70
     0
102
RTVSPost2010Prop53
 90
        2
102
RTVSPost2010PropOp53
 70
     1
102
RTVSPost2010Prop54
  1
strokes_ogs.tif
102
RTVSPost2010PropOp54
 70
     1
102
RTVSPost2010Prop55
280
     0
102
RTVSPost2010PropOp55
 70
     1
102
RTVSPost2010Prop56
140
1.0
102
RTVSPost2010PropOp56
 70
     1
102
RTVSPost2010Prop57
140
1.0
102
RTVSPost2010PropOp57
 70
     1
  0
XRECORD
  5
350
102
{ACAD_REACTORS
330
34F
102
}
330
34F
100
AcDbXrecord
280
     1
102
RTVSPropertyOp0
 70
     1
102
RTVSPropertyOp1
 70
     1
102
RTVSPropertyOp2
 70
     1
102
RTVSPropertyOp3
 70
     1
102
RTVSPropertyOp4
 70
     1
102
RTVSPropertyOp5
 70
     1
102
RTVSPropertyOp6
 70
     1
102
RTVSPropertyOp7
 70
     1
102
RTVSPropertyOp8
 70
     1
102
RTVSPropertyOp9
 70
     1
102
RTVSPropertyOp10
 70
     1
102
RTVSPropertyOp11
 70
     1
102
RTVSPropertyOp12
 70
     1
102
RTVSPropertyOp13
 70
     1
102
RTVSPropertyOp14
 70
     1
102
RTVSPropertyOp15
 70
     1
102
RTVSPropertyOp16
 70
     1
102
RTVSPropertyOp17
 70
     1
102
RTVSPropertyOp18
 70
     1
102
RTVSPropertyOp19
 70
     1
102
RTVSPropertyOp20
 70
     1
102
RTVSPropertyOp21
 70
     1
102
RTVSPropertyOp22
 70
     1
102
RTVSPropertyOp23
 70
     1
102
RTVSPropertyOp24
 70
     1
102
RTVSPropertyOp25
 70
     1
102
RTVSPropertyOp26
 70
     1
102
RTVSPropertyOp27
 70
     1
102
RTVSPropertyOp28
 70
     1
102
RTVSPropertyOp29
 70
     1
102
RTVSPropertyOp30
 70
     1
102
RTVSPropertyOp31
 70
     1
102
RTVSPropertyOp32
 70
     1
102
RTVSPropertyOp33
 70
     1
102
RTVSPropertyOp34
 70
     1
102
RTVSPropertyOp35
 70
     1
102
RTVSPropertyOp36
 70
     1
102
RTVSPropertyOp37
 70
     1
102
RTVSPropertyOp38
 70
     1
102
RTVSPropertyOp39
 70
     1
102
RTVSPropertyOp40
 70
     1
102
RTVSPropertyOp41
 70
     1
102
RTVSPropertyOp42
 70
     1
102
RTVSPropertyOp43
 70
     1
102
RTVSPropertyOp44
 70
     1
102
RTVSPropertyOp45
 70
     1
102
RTVSPropertyOp46
 70
     1
102
RTVSPropertyOp47
 70
     1
102
RTVSPropertyOp48
 70
     1
102
RTVSPropertyOp49
 70
     1
102
RTVSPropertyOp50
 70
     1
102
RTVSPropertyOp51
 70
     0
102
RTVSPropertyOp52
 70
     0
102
RTVSPropertyOp53
 70
     1
102
RTVSPropertyOp54
 70
     1
102
RTVSPropertyOp55
 70
     1
102
RTVSPropertyOp56
 70
     1
102
RTVSPropertyOp57
 70
     1
102
RTVSPost2010Prop28
280
     0
102
RTVSPost2010PropOp28
 70
     1
102
RTVSPost2010Prop29
280
     1
102
RTVSPost2010PropOp29
 70
     1
102
RTVSPost2010Prop30
280
     1
102
RTVSPost2010PropOp30
 70
     1
102
RTVSPost2010Prop31
280
     0
102
RTVSPost2010PropOp31
 70
     1
102
RTVSPost2010Prop32
280
     0
102
RTVSPost2010PropOp32
 70
     1
102
RTVSPost2010Prop33
280
     0
102
RTVSPost2010PropOp33
 70
     1
102
RTVSPost2010Prop34
280
     0
102
RTVSPost2010PropOp34
 70
     1
102
RTVSPost2010Prop35
280
     0
102
RTVSPost2010PropOp35
 70
     1
102
RTVSPost2010Prop36
280
     0
102
RTVSPost2010PropOp36
 70
     1
102
RTVSPost2010Prop37
 90
       50
102
RTVSPost2010PropOp37
 70
     1
102
RTVSPost2010Prop38
140
0.0
102
RTVSPost2010PropOp38
 70
     1
102
RTVSPost2010Prop39
140
1.0
102
RTVSPost2010PropOp39
 70
     1
102
RTVSPost2010Prop40
 90
        0
102
RTVSPost2010PropOp40
 70
     1
102
RTVSPost2010Prop41ColorIndex
 90
       18
102
RTVSPost2010Prop41ColorRGB
 90
        0
102
RTVSPost2010PropOp41
 70
     1
102
RTVSPost2010Prop42
 90
       50
102
RTVSPost2010PropOp42
 70
     1
102
RTVSPost2010Prop43
 90
        3
102
RTVSPost2010PropOp43
 70
     1
102
RTVSPost2010Prop44ColorIndex
 90
        5
102
RTVSPost2010Prop44ColorRGB
 90
      255
102
RTVSPost2010PropOp44
 70
     1
102
RTVSPost2010Prop45
280
     0
102
RTVSPost2010PropOp45
 70
     1
102
RTVSPost2010Prop46
 90
       50
102
RTVSPost2010PropOp46
 70
     1
102
RTVSPost2010Prop47
 90
       50
102
RTVSPost2010PropOp47
 70
     1
102
RTVSPost2010Prop48
 90
       50
102
RTVSPost2010PropOp48
 70
     1
102
RTVSPost2010Prop49
280
     0
102
RTVSPost2010PropOp49
 70
     1
102
RTVSPost2010Prop50
 90
       50
102
RTVSPost2010PropOp50
 70
     1
102
RTVSPost2010Prop51ColorIndex
 90
      256
102
RTVSPost2010Prop51ColorRGB
 90
-16777216
102
RTVSPost2010PropOp51
 70
     0
102
RTVSPost2010Prop52
140
1.0
102
RTVSPost2010PropOp52
 70
     0
102
RTVSPost2010Prop53
 90
        2
102
RTVSPost2010PropOp53
 70
     1
102
RTVSPost2010Prop54
  1
strokes_ogs.tif
102
RTVSPost2010PropOp54
 70
     1
102
RTVSPost2010Prop55
280
     0
102
RTVSPost2010PropOp55
 70
     1
102
RTVSPost2010Prop56
140
1.0
102
RTVSPost2010PropOp56
 70
     1
102
RTVSPost2010Prop57
140
1.0
102
RTVSPost2010PropOp57
 70
     1
  0
XRECORD
  5
352
102
{ACAD_REACTORS
330
351
102
}
330
351
100
AcDbXrecord
280
     1
102
RTVSPropertyOp0
 70
     1
102
RTVSPropertyOp1
 70
     1
102
RTVSPropertyOp2
 70
     1
102
RTVSPropertyOp3
 70
     1
102
RTVSPropertyOp4
 70
     1
102
RTVSPropertyOp5
 70
     1
102
RTVSPropertyOp6
 70
     1
102
RTVSPropertyOp7
 70
     1
102
RTVSPropertyOp8
 70
     1
102
RTVSPropertyOp9
 70
     1
102
RTVSPropertyOp10
 70
     1
102
RTVSPropertyOp11
 70
     1
102
RTVSPropertyOp12
 70
     1
102
RTVSPropertyOp13
 70
     1
102
RTVSPropertyOp14
 70
     1
102
RTVSPropertyOp15
 70
     1
102
RTVSPropertyOp16
 70
     1
102
RTVSPropertyOp17
 70
     1
102
RTVSPropertyOp18
 70
     1
102
RTVSPropertyOp19
 70
     1
102
RTVSPropertyOp20
 70
     1
102
RTVSPropertyOp21
 70
     1
102
RTVSPropertyOp22
 70
     1
102
RTVSPropertyOp23
 70
     1
102
RTVSPropertyOp24
 70
     1
102
RTVSPropertyOp25
 70
     1
102
RTVSPropertyOp26
 70
     1
102
RTVSPropertyOp27
 70
     1
102
RTVSPropertyOp28
 70
     1
102
RTVSPropertyOp29
 70
     1
102
RTVSPropertyOp30
 70
     1
102
RTVSPropertyOp31
 70
     1
102
RTVSPropertyOp32
 70
     1
102
RTVSPropertyOp33
 70
     1
102
RTVSPropertyOp34
 70
     1
102
RTVSPropertyOp35
 70
     1
102
RTVSPropertyOp36
 70
     1
102
RTVSPropertyOp37
 70
     1
102
RTVSPropertyOp38
 70
     1
102
RTVSPropertyOp39
 70
     1
102
RTVSPropertyOp40
 70
     1
102
RTVSPropertyOp41
 70
     1
102
RTVSPropertyOp42
 70
     1
102
RTVSPropertyOp43
 70
     1
102
RTVSPropertyOp44
 70
     1
102
RTVSPropertyOp45
 70
     1
102
RTVSPropertyOp46
 70
     1
102
RTVSPropertyOp47
 70
     1
102
RTVSPropertyOp48
 70
     1
102
RTVSPropertyOp49
 70
     1
102
RTVSPropertyOp50
 70
     1
102
RTVSPropertyOp51
 70
     0
102
RTVSPropertyOp52
 70
     0
102
RTVSPropertyOp53
 70
     1
102
RTVSPropertyOp54
 70
     1
102
RTVSPropertyOp55
 70
     1
102
RTVSPropertyOp56
 70
     1
102
RTVSPropertyOp57
 70
     1
102
RTVSPost2010Prop28
280
     0
102
RTVSPost2010PropOp28
 70
     1
102
RTVSPost2010Prop29
280
     1
102
RTVSPost2010PropOp29
 70
     1
102
RTVSPost2010Prop30
280
     1
102
RTVSPost2010PropOp30
 70
     1
102
RTVSPost2010Prop31
280
     0
102
RTVSPost2010PropOp31
 70
     1
102
RTVSPost2010Prop32
280
     0
102
RTVSPost2010PropOp32
 70
     1
102
RTVSPost2010Prop33
280
     0
102
RTVSPost2010PropOp33
 70
     1
102
RTVSPost2010Prop34
280
     0
102
RTVSPost2010PropOp34
 70
     1
102
RTVSPost2010Prop35
280
     0
102
RTVSPost2010PropOp35
 70
     1
102
RTVSPost2010Prop36
280
     0
102
RTVSPost2010PropOp36
 70
     1
102
RTVSPost2010Prop37
 90
       50
102
RTVSPost2010PropOp37
 70
     1
102
RTVSPost2010Prop38
140
0.0
102
RTVSPost2010PropOp38
 70
     1
102
RTVSPost2010Prop39
140
1.0
102
RTVSPost2010PropOp39
 70
     1
102
RTVSPost2010Prop40
 90
        0
102
RTVSPost2010PropOp40
 70
     1
102
RTVSPost2010Prop41ColorIndex
 90
       18
102
RTVSPost2010Prop41ColorRGB
 90
        0
102
RTVSPost2010PropOp41
 70
     1
102
RTVSPost2010Prop42
 90
       50
102
RTVSPost2010PropOp42
 70
     1
102
RTVSPost2010Prop43
 90
        3
102
RTVSPost2010PropOp43
 70
     1
102
RTVSPost2010Prop44ColorIndex
 90
        5
102
RTVSPost2010Prop44ColorRGB
 90
      255
102
RTVSPost2010PropOp44
 70
     1
102
RTVSPost2010Prop45
280
     0
102
RTVSPost2010PropOp45
 70
     1
102
RTVSPost2010Prop46
 90
       50
102
RTVSPost2010PropOp46
 70
     1
102
RTVSPost2010Prop47
 90
       50
102
RTVSPost2010PropOp47
 70
     1
102
RTVSPost2010Prop48
 90
       50
102
RTVSPost2010PropOp48
 70
     1
102
RTVSPost2010Prop49
280
     0
102
RTVSPost2010PropOp49
 70
     1
102
RTVSPost2010Prop50
 90
       50
102
RTVSPost2010PropOp50
 70
     1
102
RTVSPost2010Prop51ColorIndex
 90
      256
102
RTVSPost2010Prop51ColorRGB
 90
-16777216
102
RTVSPost2010PropOp51
 70
     0
102
RTVSPost2010Prop52
140
1.0
102
RTVSPost2010PropOp52
 70
     0
102
RTVSPost2010Prop53
 90
        2
102
RTVSPost2010PropOp53
 70
     1
102
RTVSPost2010Prop54
  1
strokes_ogs.tif
102
RTVSPost2010PropOp54
 70
     1
102
RTVSPost2010Prop55
280
     0
102
RTVSPost2010PropOp55
 70
     1
102
RTVSPost2010Prop56
140
1.0
102
RTVSPost2010PropOp56
 70
     1
102
RTVSPost2010Prop57
140
1.0
102
RTVSPost2010PropOp57
 70
     1
  0
XRECORD
  5
354
102
{ACAD_REACTORS
330
353
102
}
330
353
100
AcDbXrecord
280
     1
102
RTVSPropertyOp0
 70
     1
102
RTVSPropertyOp1
 70
     1
102
RTVSPropertyOp2
 70
     1
102
RTVSPropertyOp3
 70
     1
102
RTVSPropertyOp4
 70
     1
102
RTVSPropertyOp5
 70
     1
102
RTVSPropertyOp6
 70
     1
102
RTVSPropertyOp7
 70
     1
102
RTVSPropertyOp8
 70
     1
102
RTVSPropertyOp9
 70
     1
102
RTVSPropertyOp10
 70
     1
102
RTVSPropertyOp11
 70
     1
102
RTVSPropertyOp12
 70
     1
102
RTVSPropertyOp13
 70
     1
102
RTVSPropertyOp14
 70
     1
102
RTVSPropertyOp15
 70
     1
102
RTVSPropertyOp16
 70
     1
102
RTVSPropertyOp17
 70
     1
102
RTVSPropertyOp18
 70
     1
102
RTVSPropertyOp19
 70
     1
102
RTVSPropertyOp20
 70
     1
102
RTVSPropertyOp21
 70
     1
102
RTVSPropertyOp22
 70
     1
102
RTVSPropertyOp23
 70
     1
102
RTVSPropertyOp24
 70
     1
102
RTVSPropertyOp25
 70
     1
102
RTVSPropertyOp26
 70
     1
102
RTVSPropertyOp27
 70
     1
102
RTVSPropertyOp28
 70
     1
102
RTVSPropertyOp29
 70
     1
102
RTVSPropertyOp30
 70
     1
102
RTVSPropertyOp31
 70
     1
102
RTVSPropertyOp32
 70
     1
102
RTVSPropertyOp33
 70
     1
102
RTVSPropertyOp34
 70
     1
102
RTVSPropertyOp35
 70
     1
102
RTVSPropertyOp36
 70
     1
102
RTVSPropertyOp37
 70
     1
102
RTVSPropertyOp38
 70
     1
102
RTVSPropertyOp39
 70
     1
102
RTVSPropertyOp40
 70
     1
102
RTVSPropertyOp41
 70
     1
102
RTVSPropertyOp42
 70
     1
102
RTVSPropertyOp43
 70
     1
102
RTVSPropertyOp44
 70
     1
102
RTVSPropertyOp45
 70
     1
102
RTVSPropertyOp46
 70
     1
102
RTVSPropertyOp47
 70
     1
102
RTVSPropertyOp48
 70
     1
102
RTVSPropertyOp49
 70
     1
102
RTVSPropertyOp50
 70
     1
102
RTVSPropertyOp51
 70
     0
102
RTVSPropertyOp52
 70
     0
102
RTVSPropertyOp53
 70
     1
102
RTVSPropertyOp54
 70
     1
102
RTVSPropertyOp55
 70
     1
102
RTVSPropertyOp56
 70
     1
102
RTVSPropertyOp57
 70
     1
102
RTVSPost2010Prop28
280
     0
102
RTVSPost2010PropOp28
 70
     1
102
RTVSPost2010Prop29
280
     1
102
RTVSPost2010PropOp29
 70
     1
102
RTVSPost2010Prop30
280
     1
102
RTVSPost2010PropOp30
 70
     1
102
RTVSPost2010Prop31
280
     0
102
RTVSPost2010PropOp31
 70
     1
102
RTVSPost2010Prop32
280
     0
102
RTVSPost2010PropOp32
 70
     1
102
RTVSPost2010Prop33
280
     0
102
RTVSPost2010PropOp33
 70
     1
102
RTVSPost2010Prop34
280
     0
102
RTVSPost2010PropOp34
 70
     1
102
RTVSPost2010Prop35
280
     0
102
RTVSPost2010PropOp35
 70
     1
102
RTVSPost2010Prop36
280
     0
102
RTVSPost2010PropOp36
 70
     1
102
RTVSPost2010Prop37
 90
       50
102
RTVSPost2010PropOp37
 70
     1
102
RTVSPost2010Prop38
140
0.0
102
RTVSPost2010PropOp38
 70
     1
102
RTVSPost2010Prop39
140
1.0
102
RTVSPost2010PropOp39
 70
     1
102
RTVSPost2010Prop40
 90
        0
102
RTVSPost2010PropOp40
 70
     1
102
RTVSPost2010Prop41ColorIndex
 90
       18
102
RTVSPost2010Prop41ColorRGB
 90
        0
102
RTVSPost2010PropOp41
 70
     1
102
RTVSPost2010Prop42
 90
       50
102
RTVSPost2010PropOp42
 70
     1
102
RTVSPost2010Prop43
 90
        3
102
RTVSPost2010PropOp43
 70
     1
102
RTVSPost2010Prop44ColorIndex
 90
        5
102
RTVSPost2010Prop44ColorRGB
 90
      255
102
RTVSPost2010PropOp44
 70
     1
102
RTVSPost2010Prop45
280
     0
102
RTVSPost2010PropOp45
 70
     1
102
RTVSPost2010Prop46
 90
       50
102
RTVSPost2010PropOp46
 70
     1
102
RTVSPost2010Prop47
 90
       50
102
RTVSPost2010PropOp47
 70
     1
102
RTVSPost2010Prop48
 90
       50
102
RTVSPost2010PropOp48
 70
     1
102
RTVSPost2010Prop49
280
     0
102
RTVSPost2010PropOp49
 70
     1
102
RTVSPost2010Prop50
 90
       50
102
RTVSPost2010PropOp50
 70
     1
102
RTVSPost2010Prop51ColorIndex
 90
      256
102
RTVSPost2010Prop51ColorRGB
 90
-16777216
102
RTVSPost2010PropOp51
 70
     0
102
RTVSPost2010Prop52
140
1.0
102
RTVSPost2010PropOp52
 70
     0
102
RTVSPost2010Prop53
 90
        2
102
RTVSPost2010PropOp53
 70
     1
102
RTVSPost2010Prop54
  1
strokes_ogs.tif
102
RTVSPost2010PropOp54
 70
     1
102
RTVSPost2010Prop55
280
     0
102
RTVSPost2010PropOp55
 70
     1
102
RTVSPost2010Prop56
140
1.0
102
RTVSPost2010PropOp56
 70
     1
102
RTVSPost2010Prop57
140
1.0
102
RTVSPost2010PropOp57
 70
     1
  0
XRECORD
  5
35A
102
{ACAD_REACTORS
330
359
102
}
330
359
100
AcDbXrecord
280
     1
102
RTVSPropertyOp0
 70
     1
102
RTVSPropertyOp1
 70
     1
102
RTVSPropertyOp2
 70
     1
102
RTVSPropertyOp3
 70
     1
102
RTVSPropertyOp4
 70
     1
102
RTVSPropertyOp5
 70
     1
102
RTVSPropertyOp6
 70
     1
102
RTVSPropertyOp7
 70
     1
102
RTVSPropertyOp8
 70
     1
102
RTVSPropertyOp9
 70
     1
102
RTVSPropertyOp10
 70
     1
102
RTVSPropertyOp11
 70
     1
102
RTVSPropertyOp12
 70
     1
102
RTVSPropertyOp13
 70
     1
102
RTVSPropertyOp14
 70
     1
102
RTVSPropertyOp15
 70
     1
102
RTVSPropertyOp16
 70
     1
102
RTVSPropertyOp17
 70
     1
102
RTVSPropertyOp18
 70
     1
102
RTVSPropertyOp19
 70
     1
102
RTVSPropertyOp20
 70
     1
102
RTVSPropertyOp21
 70
     1
102
RTVSPropertyOp22
 70
     1
102
RTVSPropertyOp23
 70
     1
102
RTVSPropertyOp24
 70
     1
102
RTVSPropertyOp25
 70
     1
102
RTVSPropertyOp26
 70
     1
102
RTVSPropertyOp27
 70
     1
102
RTVSPropertyOp28
 70
     1
102
RTVSPropertyOp29
 70
     1
102
RTVSPropertyOp30
 70
     1
102
RTVSPropertyOp31
 70
     1
102
RTVSPropertyOp32
 70
     1
102
RTVSPropertyOp33
 70
     1
102
RTVSPropertyOp34
 70
     1
102
RTVSPropertyOp35
 70
     1
102
RTVSPropertyOp36
 70
     1
102
RTVSPropertyOp37
 70
     1
102
RTVSPropertyOp38
 70
     1
102
RTVSPropertyOp39
 70
     1
102
RTVSPropertyOp40
 70
     1
102
RTVSPropertyOp41
 70
     1
102
RTVSPropertyOp42
 70
     1
102
RTVSPropertyOp43
 70
     1
102
RTVSPropertyOp44
 70
     1
102
RTVSPropertyOp45
 70
     1
102
RTVSPropertyOp46
 70
     1
102
RTVSPropertyOp47
 70
     1
102
RTVSPropertyOp48
 70
     1
102
RTVSPropertyOp49
 70
     1
102
RTVSPropertyOp50
 70
     1
102
RTVSPropertyOp51
 70
     0
102
RTVSPropertyOp52
 70
     0
102
RTVSPropertyOp53
 70
     1
102
RTVSPropertyOp54
 70
     1
102
RTVSPropertyOp55
 70
     1
102
RTVSPropertyOp56
 70
     1
102
RTVSPropertyOp57
 70
     1
102
RTVSPost2010Prop28
280
     0
102
RTVSPost2010PropOp28
 70
     1
102
RTVSPost2010Prop29
280
     1
102
RTVSPost2010PropOp29
 70
     1
102
RTVSPost2010Prop30
280
     1
102
RTVSPost2010PropOp30
 70
     1
102
RTVSPost2010Prop31
280
     0
102
RTVSPost2010PropOp31
 70
     1
102
RTVSPost2010Prop32
280
     0
102
RTVSPost2010PropOp32
 70
     1
102
RTVSPost2010Prop33
280
     0
102
RTVSPost2010PropOp33
 70
     1
102
RTVSPost2010Prop34
280
     0
102
RTVSPost2010PropOp34
 70
     1
102
RTVSPost2010Prop35
280
     0
102
RTVSPost2010PropOp35
 70
     1
102
RTVSPost2010Prop36
280
     0
102
RTVSPost2010PropOp36
 70
     1
102
RTVSPost2010Prop37
 90
       50
102
RTVSPost2010PropOp37
 70
     1
102
RTVSPost2010Prop38
140
0.0
102
RTVSPost2010PropOp38
 70
     1
102
RTVSPost2010Prop39
140
1.0
102
RTVSPost2010PropOp39
 70
     1
102
RTVSPost2010Prop40
 90
        0
102
RTVSPost2010PropOp40
 70
     1
102
RTVSPost2010Prop41ColorIndex
 90
       18
102
RTVSPost2010Prop41ColorRGB
 90
        0
102
RTVSPost2010PropOp41
 70
     1
102
RTVSPost2010Prop42
 90
       50
102
RTVSPost2010PropOp42
 70
     1
102
RTVSPost2010Prop43
 90
        3
102
RTVSPost2010PropOp43
 70
     1
102
RTVSPost2010Prop44ColorIndex
 90
        5
102
RTVSPost2010Prop44ColorRGB
 90
      255
102
RTVSPost2010PropOp44
 70
     1
102
RTVSPost2010Prop45
280
     0
102
RTVSPost2010PropOp45
 70
     1
102
RTVSPost2010Prop46
 90
       50
102
RTVSPost2010PropOp46
 70
     1
102
RTVSPost2010Prop47
 90
       50
102
RTVSPost2010PropOp47
 70
     1
102
RTVSPost2010Prop48
 90
       50
102
RTVSPost2010PropOp48
 70
     1
102
RTVSPost2010Prop49
280
     0
102
RTVSPost2010PropOp49
 70
     1
102
RTVSPost2010Prop50
 90
       50
102
RTVSPost2010PropOp50
 70
     1
102
RTVSPost2010Prop51ColorIndex
 90
      256
102
RTVSPost2010Prop51ColorRGB
 90
-16777216
102
RTVSPost2010PropOp51
 70
     0
102
RTVSPost2010Prop52
140
1.0
102
RTVSPost2010PropOp52
 70
     0
102
RTVSPost2010Prop53
 90
        2
102
RTVSPost2010PropOp53
 70
     1
102
RTVSPost2010Prop54
  1
strokes_ogs.tif
102
RTVSPost2010PropOp54
 70
     1
102
RTVSPost2010Prop55
280
     0
102
RTVSPost2010PropOp55
 70
     1
102
RTVSPost2010Prop56
140
1.0
102
RTVSPost2010PropOp56
 70
     1
102
RTVSPost2010Prop57
140
1.0
102
RTVSPost2010PropOp57
 70
     1
  0
XRECORD
  5
36E
102
{ACAD_REACTORS
330
36D
102
}
330
36D
100
AcDbXrecord
280
     1
102
RTVSPropertyOp0
 70
     0
102
RTVSPropertyOp1
 70
     0
102
RTVSPropertyOp2
 70
     0
102
RTVSPropertyOp3
 70
     0
102
RTVSPropertyOp4
 70
     0
102
RTVSPropertyOp5
 70
     0
102
RTVSPropertyOp6
 70
     0
102
RTVSPropertyOp7
 70
     0
102
RTVSPropertyOp8
 70
     0
102
RTVSPropertyOp9
 70
     0
102
RTVSPropertyOp10
 70
     0
102
RTVSPropertyOp11
 70
     0
102
RTVSPropertyOp12
 70
     0
102
RTVSPropertyOp13
 70
     0
102
RTVSPropertyOp14
 70
     2
102
RTVSPropertyOp15
 70
     0
102
RTVSPropertyOp16
 70
     0
102
RTVSPropertyOp17
 70
     0
102
RTVSPropertyOp18
 70
     0
102
RTVSPropertyOp19
 70
     0
102
RTVSPropertyOp20
 70
     0
102
RTVSPropertyOp21
 70
     0
102
RTVSPropertyOp22
 70
     0
102
RTVSPropertyOp23
 70
     0
102
RTVSPropertyOp24
 70
     0
102
RTVSPropertyOp25
 70
     0
102
RTVSPropertyOp26
 70
     0
102
RTVSPropertyOp27
 70
     0
102
RTVSPropertyOp28
 70
     0
102
RTVSPropertyOp29
 70
     0
102
RTVSPropertyOp30
 70
     0
102
RTVSPropertyOp31
 70
     0
102
RTVSPropertyOp32
 70
     0
102
RTVSPropertyOp33
 70
     0
102
RTVSPropertyOp34
 70
     0
102
RTVSPropertyOp35
 70
     0
102
RTVSPropertyOp36
 70
     0
102
RTVSPropertyOp37
 70
     0
102
RTVSPropertyOp38
 70
     0
102
RTVSPropertyOp39
 70
     0
102
RTVSPropertyOp40
 70
     0
102
RTVSPropertyOp41
 70
     0
102
RTVSPropertyOp42
 70
     0
102
RTVSPropertyOp43
 70
     0
102
RTVSPropertyOp44
 70
     0
102
RTVSPropertyOp45
 70
     0
102
RTVSPropertyOp46
 70
     0
102
RTVSPropertyOp47
 70
     0
102
RTVSPropertyOp48
 70
     0
102
RTVSPropertyOp49
 70
     0
102
RTVSPropertyOp50
 70
     0
102
RTVSPropertyOp51
 70
     0
102
RTVSPropertyOp52
 70
     0
102
RTVSPropertyOp53
 70
     0
102
RTVSPropertyOp54
 70
     0
102
RTVSPropertyOp55
 70
     0
102
RTVSPropertyOp56
 70
     0
102
RTVSPropertyOp57
 70
     0
102
RTVSPost2010Prop28
280
     0
102
RTVSPost2010PropOp28
 70
     0
102
RTVSPost2010Prop29
280
     1
102
RTVSPost2010PropOp29
 70
     0
102
RTVSPost2010Prop30
280
     1
102
RTVSPost2010PropOp30
 70
     0
102
RTVSPost2010Prop31
280
     0
102
RTVSPost2010PropOp31
 70
     0
102
RTVSPost2010Prop32
280
     0
102
RTVSPost2010PropOp32
 70
     0
102
RTVSPost2010Prop33
280
     0
102
RTVSPost2010PropOp33
 70
     0
102
RTVSPost2010Prop34
280
     0
102
RTVSPost2010PropOp34
 70
     0
102
RTVSPost2010Prop35
280
     0
102
RTVSPost2010PropOp35
 70
     0
102
RTVSPost2010Prop36
280
     0
102
RTVSPost2010PropOp36
 70
     0
102
RTVSPost2010Prop37
 90
       50
102
RTVSPost2010PropOp37
 70
     0
102
RTVSPost2010Prop38
140
0.0
102
RTVSPost2010PropOp38
 70
     0
102
RTVSPost2010Prop39
140
1.0
102
RTVSPost2010PropOp39
 70
     0
102
RTVSPost2010Prop40
 90
        0
102
RTVSPost2010PropOp40
 70
     0
102
RTVSPost2010Prop41ColorIndex
 90
       18
102
RTVSPost2010Prop41ColorRGB
 90
        0
102
RTVSPost2010PropOp41
 70
     0
102
RTVSPost2010Prop42
 90
       50
102
RTVSPost2010PropOp42
 70
     0
102
RTVSPost2010Prop43
 90
        3
102
RTVSPost2010PropOp43
 70
     0
102
RTVSPost2010Prop44ColorIndex
 90
        5
102
RTVSPost2010Prop44ColorRGB
 90
      255
102
RTVSPost2010PropOp44
 70
     0
102
RTVSPost2010Prop45
280
     0
102
RTVSPost2010PropOp45
 70
     0
102
RTVSPost2010Prop46
 90
       50
102
RTVSPost2010PropOp46
 70
     0
102
RTVSPost2010Prop47
 90
       50
102
RTVSPost2010PropOp47
 70
     0
102
RTVSPost2010Prop48
 90
       50
102
RTVSPost2010PropOp48
 70
     0
102
RTVSPost2010Prop49
280
     0
102
RTVSPost2010PropOp49
 70
     0
102
RTVSPost2010Prop50
 90
       50
102
RTVSPost2010PropOp50
 70
     0
102
RTVSPost2010Prop51ColorIndex
 90
      256
102
RTVSPost2010Prop51ColorRGB
 90
-16777216
102
RTVSPost2010PropOp51
 70
     0
102
RTVSPost2010Prop52
140
1.0
102
RTVSPost2010PropOp52
 70
     0
102
RTVSPost2010Prop53
 90
        2
102
RTVSPost2010PropOp53
 70
     0
102
RTVSPost2010Prop54
  1
strokes_ogs.tif
102
RTVSPost2010PropOp54
 70
     0
102
RTVSPost2010Prop55
280
     0
102
RTVSPost2010PropOp55
 70
     0
102
RTVSPost2010Prop56
140
1.0
102
RTVSPost2010PropOp56
 70
     0
102
RTVSPost2010Prop57
140
1.0
102
RTVSPost2010PropOp57
 70
     0
  0
XRECORD
  5
368
102
{ACAD_REACTORS
330
367
102
}
330
367
100
AcDbXrecord
280
     1
102
RTVSPropertyOp0
 70
     1
102
RTVSPropertyOp1
 70
     1
102
RTVSPropertyOp2
 70
     1
102
RTVSPropertyOp3
 70
     1
102
RTVSPropertyOp4
 70
     1
102
RTVSPropertyOp5
 70
     1
102
RTVSPropertyOp6
 70
     1
102
RTVSPropertyOp7
 70
     1
102
RTVSPropertyOp8
 70
     1
102
RTVSPropertyOp9
 70
     1
102
RTVSPropertyOp10
 70
     1
102
RTVSPropertyOp11
 70
     1
102
RTVSPropertyOp12
 70
     1
102
RTVSPropertyOp13
 70
     1
102
RTVSPropertyOp14
 70
     1
102
RTVSPropertyOp15
 70
     1
102
RTVSPropertyOp16
 70
     1
102
RTVSPropertyOp17
 70
     1
102
RTVSPropertyOp18
 70
     1
102
RTVSPropertyOp19
 70
     1
102
RTVSPropertyOp20
 70
     1
102
RTVSPropertyOp21
 70
     1
102
RTVSPropertyOp22
 70
     1
102
RTVSPropertyOp23
 70
     1
102
RTVSPropertyOp24
 70
     1
102
RTVSPropertyOp25
 70
     1
102
RTVSPropertyOp26
 70
     1
102
RTVSPropertyOp27
 70
     1
102
RTVSPropertyOp28
 70
     1
102
RTVSPropertyOp29
 70
     1
102
RTVSPropertyOp30
 70
     1
102
RTVSPropertyOp31
 70
     1
102
RTVSPropertyOp32
 70
     1
102
RTVSPropertyOp33
 70
     1
102
RTVSPropertyOp34
 70
     1
102
RTVSPropertyOp35
 70
     1
102
RTVSPropertyOp36
 70
     1
102
RTVSPropertyOp37
 70
     1
102
RTVSPropertyOp38
 70
     1
102
RTVSPropertyOp39
 70
     1
102
RTVSPropertyOp40
 70
     1
102
RTVSPropertyOp41
 70
     1
102
RTVSPropertyOp42
 70
     1
102
RTVSPropertyOp43
 70
     1
102
RTVSPropertyOp44
 70
     1
102
RTVSPropertyOp45
 70
     1
102
RTVSPropertyOp46
 70
     1
102
RTVSPropertyOp47
 70
     1
102
RTVSPropertyOp48
 70
     1
102
RTVSPropertyOp49
 70
     1
102
RTVSPropertyOp50
 70
     1
102
RTVSPropertyOp51
 70
     0
102
RTVSPropertyOp52
 70
     0
102
RTVSPropertyOp53
 70
     1
102
RTVSPropertyOp54
 70
     1
102
RTVSPropertyOp55
 70
     1
102
RTVSPropertyOp56
 70
     1
102
RTVSPropertyOp57
 70
     1
102
RTVSPost2010Prop28
280
     0
102
RTVSPost2010PropOp28
 70
     1
102
RTVSPost2010Prop29
280
     1
102
RTVSPost2010PropOp29
 70
     1
102
RTVSPost2010Prop30
280
     1
102
RTVSPost2010PropOp30
 70
     1
102
RTVSPost2010Prop31
280
     0
102
RTVSPost2010PropOp31
 70
     1
102
RTVSPost2010Prop32
280
     0
102
RTVSPost2010PropOp32
 70
     1
102
RTVSPost2010Prop33
280
     0
102
RTVSPost2010PropOp33
 70
     1
102
RTVSPost2010Prop34
280
     0
102
RTVSPost2010PropOp34
 70
     1
102
RTVSPost2010Prop35
280
     0
102
RTVSPost2010PropOp35
 70
     1
102
RTVSPost2010Prop36
280
     0
102
RTVSPost2010PropOp36
 70
     1
102
RTVSPost2010Prop37
 90
       50
102
RTVSPost2010PropOp37
 70
     1
102
RTVSPost2010Prop38
140
0.0
102
RTVSPost2010PropOp38
 70
     1
102
RTVSPost2010Prop39
140
1.0
102
RTVSPost2010PropOp39
 70
     1
102
RTVSPost2010Prop40
 90
        0
102
RTVSPost2010PropOp40
 70
     1
102
RTVSPost2010Prop41ColorIndex
 90
       18
102
RTVSPost2010Prop41ColorRGB
 90
        0
102
RTVSPost2010PropOp41
 70
     1
102
RTVSPost2010Prop42
 90
       50
102
RTVSPost2010PropOp42
 70
     1
102
RTVSPost2010Prop43
 90
        3
102
RTVSPost2010PropOp43
 70
     1
102
RTVSPost2010Prop44ColorIndex
 90
        5
102
RTVSPost2010Prop44ColorRGB
 90
      255
102
RTVSPost2010PropOp44
 70
     1
102
RTVSPost2010Prop45
280
     0
102
RTVSPost2010PropOp45
 70
     1
102
RTVSPost2010Prop46
 90
       50
102
RTVSPost2010PropOp46
 70
     1
102
RTVSPost2010Prop47
 90
       50
102
RTVSPost2010PropOp47
 70
     1
102
RTVSPost2010Prop48
 90
       50
102
RTVSPost2010PropOp48
 70
     1
102
RTVSPost2010Prop49
280
     0
102
RTVSPost2010PropOp49
 70
     1
102
RTVSPost2010Prop50
 90
       50
102
RTVSPost2010PropOp50
 70
     1
102
RTVSPost2010Prop51ColorIndex
 90
      256
102
RTVSPost2010Prop51ColorRGB
 90
-16777216
102
RTVSPost2010PropOp51
 70
     0
102
RTVSPost2010Prop52
140
1.0
102
RTVSPost2010PropOp52
 70
     0
102
RTVSPost2010Prop53
 90
        2
102
RTVSPost2010PropOp53
 70
     1
102
RTVSPost2010Prop54
  1
strokes_ogs.tif
102
RTVSPost2010PropOp54
 70
     1
102
RTVSPost2010Prop55
280
     0
102
RTVSPost2010PropOp55
 70
     1
102
RTVSPost2010Prop56
140
1.0
102
RTVSPost2010PropOp56
 70
     1
102
RTVSPost2010Prop57
140
1.0
102
RTVSPost2010PropOp57
 70
     1
  0
XRECORD
  5
370
102
{ACAD_REACTORS
330
36F
102
}
330
36F
100
AcDbXrecord
280
     1
102
RTVSPropertyOp0
 70
     0
102
RTVSPropertyOp1
 70
     0
102
RTVSPropertyOp2
 70
     0
102
RTVSPropertyOp3
 70
     0
102
RTVSPropertyOp4
 70
     0
102
RTVSPropertyOp5
 70
     0
102
RTVSPropertyOp6
 70
     0
102
RTVSPropertyOp7
 70
     0
102
RTVSPropertyOp8
 70
     0
102
RTVSPropertyOp9
 70
     0
102
RTVSPropertyOp10
 70
     0
102
RTVSPropertyOp11
 70
     0
102
RTVSPropertyOp12
 70
     0
102
RTVSPropertyOp13
 70
     0
102
RTVSPropertyOp14
 70
     2
102
RTVSPropertyOp15
 70
     0
102
RTVSPropertyOp16
 70
     0
102
RTVSPropertyOp17
 70
     0
102
RTVSPropertyOp18
 70
     0
102
RTVSPropertyOp19
 70
     0
102
RTVSPropertyOp20
 70
     0
102
RTVSPropertyOp21
 70
     0
102
RTVSPropertyOp22
 70
     0
102
RTVSPropertyOp23
 70
     0
102
RTVSPropertyOp24
 70
     0
102
RTVSPropertyOp25
 70
     0
102
RTVSPropertyOp26
 70
     0
102
RTVSPropertyOp27
 70
     0
102
RTVSPropertyOp28
 70
     0
102
RTVSPropertyOp29
 70
     0
102
RTVSPropertyOp30
 70
     0
102
RTVSPropertyOp31
 70
     0
102
RTVSPropertyOp32
 70
     0
102
RTVSPropertyOp33
 70
     0
102
RTVSPropertyOp34
 70
     0
102
RTVSPropertyOp35
 70
     0
102
RTVSPropertyOp36
 70
     0
102
RTVSPropertyOp37
 70
     0
102
RTVSPropertyOp38
 70
     0
102
RTVSPropertyOp39
 70
     0
102
RTVSPropertyOp40
 70
     0
102
RTVSPropertyOp41
 70
     0
102
RTVSPropertyOp42
 70
     0
102
RTVSPropertyOp43
 70
     0
102
RTVSPropertyOp44
 70
     0
102
RTVSPropertyOp45
 70
     0
102
RTVSPropertyOp46
 70
     0
102
RTVSPropertyOp47
 70
     0
102
RTVSPropertyOp48
 70
     0
102
RTVSPropertyOp49
 70
     0
102
RTVSPropertyOp50
 70
     0
102
RTVSPropertyOp51
 70
     0
102
RTVSPropertyOp52
 70
     0
102
RTVSPropertyOp53
 70
     0
102
RTVSPropertyOp54
 70
     0
102
RTVSPropertyOp55
 70
     0
102
RTVSPropertyOp56
 70
     0
102
RTVSPropertyOp57
 70
     0
102
RTVSPost2010Prop28
280
     0
102
RTVSPost2010PropOp28
 70
     0
102
RTVSPost2010Prop29
280
     1
102
RTVSPost2010PropOp29
 70
     0
102
RTVSPost2010Prop30
280
     1
102
RTVSPost2010PropOp30
 70
     0
102
RTVSPost2010Prop31
280
     0
102
RTVSPost2010PropOp31
 70
     0
102
RTVSPost2010Prop32
280
     0
102
RTVSPost2010PropOp32
 70
     0
102
RTVSPost2010Prop33
280
     0
102
RTVSPost2010PropOp33
 70
     0
102
RTVSPost2010Prop34
280
     0
102
RTVSPost2010PropOp34
 70
     0
102
RTVSPost2010Prop35
280
     0
102
RTVSPost2010PropOp35
 70
     0
102
RTVSPost2010Prop36
280
     0
102
RTVSPost2010PropOp36
 70
     0
102
RTVSPost2010Prop37
 90
       50
102
RTVSPost2010PropOp37
 70
     0
102
RTVSPost2010Prop38
140
0.0
102
RTVSPost2010PropOp38
 70
     0
102
RTVSPost2010Prop39
140
1.0
102
RTVSPost2010PropOp39
 70
     0
102
RTVSPost2010Prop40
 90
        0
102
RTVSPost2010PropOp40
 70
     0
102
RTVSPost2010Prop41ColorIndex
 90
       18
102
RTVSPost2010Prop41ColorRGB
 90
        0
102
RTVSPost2010PropOp41
 70
     0
102
RTVSPost2010Prop42
 90
       50
102
RTVSPost2010PropOp42
 70
     0
102
RTVSPost2010Prop43
 90
        3
102
RTVSPost2010PropOp43
 70
     0
102
RTVSPost2010Prop44ColorIndex
 90
        5
102
RTVSPost2010Prop44ColorRGB
 90
      255
102
RTVSPost2010PropOp44
 70
     0
102
RTVSPost2010Prop45
280
     0
102
RTVSPost2010PropOp45
 70
     0
102
RTVSPost2010Prop46
 90
       50
102
RTVSPost2010PropOp46
 70
     0
102
RTVSPost2010Prop47
 90
       50
102
RTVSPost2010PropOp47
 70
     0
102
RTVSPost2010Prop48
 90
       50
102
RTVSPost2010PropOp48
 70
     0
102
RTVSPost2010Prop49
280
     0
102
RTVSPost2010PropOp49
 70
     0
102
RTVSPost2010Prop50
 90
       50
102
RTVSPost2010PropOp50
 70
     0
102
RTVSPost2010Prop51ColorIndex
 90
      256
102
RTVSPost2010Prop51ColorRGB
 90
-16777216
102
RTVSPost2010PropOp51
 70
     0
102
RTVSPost2010Prop52
140
1.0
102
RTVSPost2010PropOp52
 70
     0
102
RTVSPost2010Prop53
 90
        2
102
RTVSPost2010PropOp53
 70
     0
102
RTVSPost2010Prop54
  1
strokes_ogs.tif
102
RTVSPost2010PropOp54
 70
     0
102
RTVSPost2010Prop55
280
     0
102
RTVSPost2010PropOp55
 70
     0
102
RTVSPost2010Prop56
140
1.0
102
RTVSPost2010PropOp56
 70
     0
102
RTVSPost2010Prop57
140
1.0
102
RTVSPost2010PropOp57
 70
     0
  0
XRECORD
  5
35E
102
{ACAD_REACTORS
330
35D
102
}
330
35D
100
AcDbXrecord
280
     1
102
RTVSPropertyOp0
 70
     1
102
RTVSPropertyOp1
 70
     1
102
RTVSPropertyOp2
 70
     1
102
RTVSPropertyOp3
 70
     1
102
RTVSPropertyOp4
 70
     1
102
RTVSPropertyOp5
 70
     1
102
RTVSPropertyOp6
 70
     1
102
RTVSPropertyOp7
 70
     1
102
RTVSPropertyOp8
 70
     1
102
RTVSPropertyOp9
 70
     1
102
RTVSPropertyOp10
 70
     1
102
RTVSPropertyOp11
 70
     1
102
RTVSPropertyOp12
 70
     1
102
RTVSPropertyOp13
 70
     1
102
RTVSPropertyOp14
 70
     1
102
RTVSPropertyOp15
 70
     1
102
RTVSPropertyOp16
 70
     1
102
RTVSPropertyOp17
 70
     1
102
RTVSPropertyOp18
 70
     1
102
RTVSPropertyOp19
 70
     1
102
RTVSPropertyOp20
 70
     1
102
RTVSPropertyOp21
 70
     1
102
RTVSPropertyOp22
 70
     1
102
RTVSPropertyOp23
 70
     1
102
RTVSPropertyOp24
 70
     1
102
RTVSPropertyOp25
 70
     1
102
RTVSPropertyOp26
 70
     1
102
RTVSPropertyOp27
 70
     1
102
RTVSPropertyOp28
 70
     1
102
RTVSPropertyOp29
 70
     1
102
RTVSPropertyOp30
 70
     1
102
RTVSPropertyOp31
 70
     1
102
RTVSPropertyOp32
 70
     1
102
RTVSPropertyOp33
 70
     1
102
RTVSPropertyOp34
 70
     1
102
RTVSPropertyOp35
 70
     1
102
RTVSPropertyOp36
 70
     1
102
RTVSPropertyOp37
 70
     1
102
RTVSPropertyOp38
 70
     1
102
RTVSPropertyOp39
 70
     1
102
RTVSPropertyOp40
 70
     1
102
RTVSPropertyOp41
 70
     1
102
RTVSPropertyOp42
 70
     1
102
RTVSPropertyOp43
 70
     1
102
RTVSPropertyOp44
 70
     1
102
RTVSPropertyOp45
 70
     1
102
RTVSPropertyOp46
 70
     1
102
RTVSPropertyOp47
 70
     1
102
RTVSPropertyOp48
 70
     1
102
RTVSPropertyOp49
 70
     1
102
RTVSPropertyOp50
 70
     1
102
RTVSPropertyOp51
 70
     0
102
RTVSPropertyOp52
 70
     0
102
RTVSPropertyOp53
 70
     1
102
RTVSPropertyOp54
 70
     1
102
RTVSPropertyOp55
 70
     1
102
RTVSPropertyOp56
 70
     1
102
RTVSPropertyOp57
 70
     1
102
RTVSPost2010Prop28
280
     0
102
RTVSPost2010PropOp28
 70
     1
102
RTVSPost2010Prop29
280
     1
102
RTVSPost2010PropOp29
 70
     1
102
RTVSPost2010Prop30
280
     1
102
RTVSPost2010PropOp30
 70
     1
102
RTVSPost2010Prop31
280
     0
102
RTVSPost2010PropOp31
 70
     1
102
RTVSPost2010Prop32
280
     0
102
RTVSPost2010PropOp32
 70
     1
102
RTVSPost2010Prop33
280
     0
102
RTVSPost2010PropOp33
 70
     1
102
RTVSPost2010Prop34
280
     0
102
RTVSPost2010PropOp34
 70
     1
102
RTVSPost2010Prop35
280
     0
102
RTVSPost2010PropOp35
 70
     1
102
RTVSPost2010Prop36
280
     0
102
RTVSPost2010PropOp36
 70
     1
102
RTVSPost2010Prop37
 90
       50
102
RTVSPost2010PropOp37
 70
     1
102
RTVSPost2010Prop38
140
0.0
102
RTVSPost2010PropOp38
 70
     1
102
RTVSPost2010Prop39
140
1.0
102
RTVSPost2010PropOp39
 70
     1
102
RTVSPost2010Prop40
 90
        0
102
RTVSPost2010PropOp40
 70
     1
102
RTVSPost2010Prop41ColorIndex
 90
       18
102
RTVSPost2010Prop41ColorRGB
 90
        0
102
RTVSPost2010PropOp41
 70
     1
102
RTVSPost2010Prop42
 90
       50
102
RTVSPost2010PropOp42
 70
     1
102
RTVSPost2010Prop43
 90
        3
102
RTVSPost2010PropOp43
 70
     1
102
RTVSPost2010Prop44ColorIndex
 90
        5
102
RTVSPost2010Prop44ColorRGB
 90
      255
102
RTVSPost2010PropOp44
 70
     1
102
RTVSPost2010Prop45
280
     0
102
RTVSPost2010PropOp45
 70
     1
102
RTVSPost2010Prop46
 90
       50
102
RTVSPost2010PropOp46
 70
     1
102
RTVSPost2010Prop47
 90
       50
102
RTVSPost2010PropOp47
 70
     1
102
RTVSPost2010Prop48
 90
       50
102
RTVSPost2010PropOp48
 70
     1
102
RTVSPost2010Prop49
280
     0
102
RTVSPost2010PropOp49
 70
     1
102
RTVSPost2010Prop50
 90
       50
102
RTVSPost2010PropOp50
 70
     1
102
RTVSPost2010Prop51ColorIndex
 90
      256
102
RTVSPost2010Prop51ColorRGB
 90
-16777216
102
RTVSPost2010PropOp51
 70
     0
102
RTVSPost2010Prop52
140
1.0
102
RTVSPost2010PropOp52
 70
     0
102
RTVSPost2010Prop53
 90
        2
102
RTVSPost2010PropOp53
 70
     1
102
RTVSPost2010Prop54
  1
strokes_ogs.tif
102
RTVSPost2010PropOp54
 70
     1
102
RTVSPost2010Prop55
280
     0
102
RTVSPost2010PropOp55
 70
     1
102
RTVSPost2010Prop56
140
1.0
102
RTVSPost2010PropOp56
 70
     1
102
RTVSPost2010Prop57
140
1.0
102
RTVSPost2010PropOp57
 70
     1
  0
XRECORD
  5
37C
102
{ACAD_REACTORS
330
37B
102
}
330
37B
100
AcDbXrecord
280
     1
102
RTVSPropertyOp0
 70
     1
102
RTVSPropertyOp1
 70
     1
102
RTVSPropertyOp2
 70
     1
102
RTVSPropertyOp3
 70
     1
102
RTVSPropertyOp4
 70
     1
102
RTVSPropertyOp5
 70
     1
102
RTVSPropertyOp6
 70
     1
102
RTVSPropertyOp7
 70
     1
102
RTVSPropertyOp8
 70
     1
102
RTVSPropertyOp9
 70
     1
102
RTVSPropertyOp10
 70
     1
102
RTVSPropertyOp11
 70
     1
102
RTVSPropertyOp12
 70
     1
102
RTVSPropertyOp13
 70
     1
102
RTVSPropertyOp14
 70
     1
102
RTVSPropertyOp15
 70
     1
102
RTVSPropertyOp16
 70
     1
102
RTVSPropertyOp17
 70
     1
102
RTVSPropertyOp18
 70
     1
102
RTVSPropertyOp19
 70
     1
102
RTVSPropertyOp20
 70
     1
102
RTVSPropertyOp21
 70
     1
102
RTVSPropertyOp22
 70
     1
102
RTVSPropertyOp23
 70
     1
102
RTVSPropertyOp24
 70
     1
102
RTVSPropertyOp25
 70
     1
102
RTVSPropertyOp26
 70
     1
102
RTVSPropertyOp27
 70
     1
102
RTVSPropertyOp28
 70
     1
102
RTVSPropertyOp29
 70
     1
102
RTVSPropertyOp30
 70
     1
102
RTVSPropertyOp31
 70
     1
102
RTVSPropertyOp32
 70
     1
102
RTVSPropertyOp33
 70
     1
102
RTVSPropertyOp34
 70
     1
102
RTVSPropertyOp35
 70
     1
102
RTVSPropertyOp36
 70
     1
102
RTVSPropertyOp37
 70
     1
102
RTVSPropertyOp38
 70
     1
102
RTVSPropertyOp39
 70
     1
102
RTVSPropertyOp40
 70
     1
102
RTVSPropertyOp41
 70
     1
102
RTVSPropertyOp42
 70
     1
102
RTVSPropertyOp43
 70
     1
102
RTVSPropertyOp44
 70
     1
102
RTVSPropertyOp45
 70
     1
102
RTVSPropertyOp46
 70
     1
102
RTVSPropertyOp47
 70
     1
102
RTVSPropertyOp48
 70
     1
102
RTVSPropertyOp49
 70
     1
102
RTVSPropertyOp50
 70
     1
102
RTVSPropertyOp51
 70
     0
102
RTVSPropertyOp52
 70
     0
102
RTVSPropertyOp53
 70
     1
102
RTVSPropertyOp54
 70
     1
102
RTVSPropertyOp55
 70
     1
102
RTVSPropertyOp56
 70
     1
102
RTVSPropertyOp57
 70
     1
102
RTVSPost2010Prop28
280
     0
102
RTVSPost2010PropOp28
 70
     1
102
RTVSPost2010Prop29
280
     1
102
RTVSPost2010PropOp29
 70
     1
102
RTVSPost2010Prop30
280
     1
102
RTVSPost2010PropOp30
 70
     1
102
RTVSPost2010Prop31
280
     0
102
RTVSPost2010PropOp31
 70
     1
102
RTVSPost2010Prop32
280
     0
102
RTVSPost2010PropOp32
 70
     1
102
RTVSPost2010Prop33
280
     0
102
RTVSPost2010PropOp33
 70
     1
102
RTVSPost2010Prop34
280
     0
102
RTVSPost2010PropOp34
 70
     1
102
RTVSPost2010Prop35
280
     0
102
RTVSPost2010PropOp35
 70
     1
102
RTVSPost2010Prop36
280
     0
102
RTVSPost2010PropOp36
 70
     1
102
RTVSPost2010Prop37
 90
       50
102
RTVSPost2010PropOp37
 70
     1
102
RTVSPost2010Prop38
140
0.0
102
RTVSPost2010PropOp38
 70
     1
102
RTVSPost2010Prop39
140
1.0
102
RTVSPost2010PropOp39
 70
     1
102
RTVSPost2010Prop40
 90
        0
102
RTVSPost2010PropOp40
 70
     1
102
RTVSPost2010Prop41ColorIndex
 90
       18
102
RTVSPost2010Prop41ColorRGB
 90
        0
102
RTVSPost2010PropOp41
 70
     1
102
RTVSPost2010Prop42
 90
       50
102
RTVSPost2010PropOp42
 70
     1
102
RTVSPost2010Prop43
 90
        3
102
RTVSPost2010PropOp43
 70
     1
102
RTVSPost2010Prop44ColorIndex
 90
        5
102
RTVSPost2010Prop44ColorRGB
 90
      255
102
RTVSPost2010PropOp44
 70
     1
102
RTVSPost2010Prop45
280
     0
102
RTVSPost2010PropOp45
 70
     1
102
RTVSPost2010Prop46
 90
       50
102
RTVSPost2010PropOp46
 70
     1
102
RTVSPost2010Prop47
 90
       50
102
RTVSPost2010PropOp47
 70
     1
102
RTVSPost2010Prop48
 90
       50
102
RTVSPost2010PropOp48
 70
     1
102
RTVSPost2010Prop49
280
     0
102
RTVSPost2010PropOp49
 70
     1
102
RTVSPost2010Prop50
 90
       50
102
RTVSPost2010PropOp50
 70
     1
102
RTVSPost2010Prop51ColorIndex
 90
      256
102
RTVSPost2010Prop51ColorRGB
 90
-16777216
102
RTVSPost2010PropOp51
 70
     0
102
RTVSPost2010Prop52
140
1.0
102
RTVSPost2010PropOp52
 70
     0
102
RTVSPost2010Prop53
 90
        2
102
RTVSPost2010PropOp53
 70
     1
102
RTVSPost2010Prop54
  1
strokes_ogs.tif
102
RTVSPost2010PropOp54
 70
     1
102
RTVSPost2010Prop55
280
     0
102
RTVSPost2010PropOp55
 70
     1
102
RTVSPost2010Prop56
140
1.0
102
RTVSPost2010PropOp56
 70
     1
102
RTVSPost2010Prop57
140
1.0
102
RTVSPost2010PropOp57
 70
     1
  0
XRECORD
  5
37A
102
{ACAD_REACTORS
330
379
102
}
330
379
100
AcDbXrecord
280
     1
102
RTVSPropertyOp0
 70
     1
102
RTVSPropertyOp1
 70
     1
102
RTVSPropertyOp2
 70
     1
102
RTVSPropertyOp3
 70
     1
102
RTVSPropertyOp4
 70
     1
102
RTVSPropertyOp5
 70
     1
102
RTVSPropertyOp6
 70
     1
102
RTVSPropertyOp7
 70
     1
102
RTVSPropertyOp8
 70
     1
102
RTVSPropertyOp9
 70
     1
102
RTVSPropertyOp10
 70
     1
102
RTVSPropertyOp11
 70
     1
102
RTVSPropertyOp12
 70
     1
102
RTVSPropertyOp13
 70
     1
102
RTVSPropertyOp14
 70
     1
102
RTVSPropertyOp15
 70
     1
102
RTVSPropertyOp16
 70
     1
102
RTVSPropertyOp17
 70
     1
102
RTVSPropertyOp18
 70
     1
102
RTVSPropertyOp19
 70
     1
102
RTVSPropertyOp20
 70
     1
102
RTVSPropertyOp21
 70
     1
102
RTVSPropertyOp22
 70
     1
102
RTVSPropertyOp23
 70
     1
102
RTVSPropertyOp24
 70
     1
102
RTVSPropertyOp25
 70
     1
102
RTVSPropertyOp26
 70
     1
102
RTVSPropertyOp27
 70
     1
102
RTVSPropertyOp28
 70
     1
102
RTVSPropertyOp29
 70
     1
102
RTVSPropertyOp30
 70
     1
102
RTVSPropertyOp31
 70
     1
102
RTVSPropertyOp32
 70
     1
102
RTVSPropertyOp33
 70
     1
102
RTVSPropertyOp34
 70
     1
102
RTVSPropertyOp35
 70
     1
102
RTVSPropertyOp36
 70
     1
102
RTVSPropertyOp37
 70
     1
102
RTVSPropertyOp38
 70
     1
102
RTVSPropertyOp39
 70
     1
102
RTVSPropertyOp40
 70
     1
102
RTVSPropertyOp41
 70
     1
102
RTVSPropertyOp42
 70
     1
102
RTVSPropertyOp43
 70
     1
102
RTVSPropertyOp44
 70
     1
102
RTVSPropertyOp45
 70
     1
102
RTVSPropertyOp46
 70
     1
102
RTVSPropertyOp47
 70
     1
102
RTVSPropertyOp48
 70
     1
102
RTVSPropertyOp49
 70
     1
102
RTVSPropertyOp50
 70
     1
102
RTVSPropertyOp51
 70
     0
102
RTVSPropertyOp52
 70
     0
102
RTVSPropertyOp53
 70
     1
102
RTVSPropertyOp54
 70
     1
102
RTVSPropertyOp55
 70
     1
102
RTVSPropertyOp56
 70
     1
102
RTVSPropertyOp57
 70
     1
102
RTVSPost2010Prop28
280
     0
102
RTVSPost2010PropOp28
 70
     1
102
RTVSPost2010Prop29
280
     1
102
RTVSPost2010PropOp29
 70
     1
102
RTVSPost2010Prop30
280
     1
102
RTVSPost2010PropOp30
 70
     1
102
RTVSPost2010Prop31
280
     0
102
RTVSPost2010PropOp31
 70
     1
102
RTVSPost2010Prop32
280
     0
102
RTVSPost2010PropOp32
 70
     1
102
RTVSPost2010Prop33
280
     0
102
RTVSPost2010PropOp33
 70
     1
102
RTVSPost2010Prop34
280
     0
102
RTVSPost2010PropOp34
 70
     1
102
RTVSPost2010Prop35
280
     0
102
RTVSPost2010PropOp35
 70
     1
102
RTVSPost2010Prop36
280
     0
102
RTVSPost2010PropOp36
 70
     1
102
RTVSPost2010Prop37
 90
       50
102
RTVSPost2010PropOp37
 70
     1
102
RTVSPost2010Prop38
140
0.0
102
RTVSPost2010PropOp38
 70
     1
102
RTVSPost2010Prop39
140
1.0
102
RTVSPost2010PropOp39
 70
     1
102
RTVSPost2010Prop40
 90
        0
102
RTVSPost2010PropOp40
 70
     1
102
RTVSPost2010Prop41ColorIndex
 90
       18
102
RTVSPost2010Prop41ColorRGB
 90
        0
102
RTVSPost2010PropOp41
 70
     1
102
RTVSPost2010Prop42
 90
       50
102
RTVSPost2010PropOp42
 70
     1
102
RTVSPost2010Prop43
 90
        3
102
RTVSPost2010PropOp43
 70
     1
102
RTVSPost2010Prop44ColorIndex
 90
        5
102
RTVSPost2010Prop44ColorRGB
 90
      255
102
RTVSPost2010PropOp44
 70
     1
102
RTVSPost2010Prop45
280
     0
102
RTVSPost2010PropOp45
 70
     1
102
RTVSPost2010Prop46
 90
       50
102
RTVSPost2010PropOp46
 70
     1
102
RTVSPost2010Prop47
 90
       50
102
RTVSPost2010PropOp47
 70
     1
102
RTVSPost2010Prop48
 90
       50
102
RTVSPost2010PropOp48
 70
     1
102
RTVSPost2010Prop49
280
     0
102
RTVSPost2010PropOp49
 70
     1
102
RTVSPost2010Prop50
 90
       50
102
RTVSPost2010PropOp50
 70
     1
102
RTVSPost2010Prop51ColorIndex
 90
      256
102
RTVSPost2010Prop51ColorRGB
 90
-16777216
102
RTVSPost2010PropOp51
 70
     0
102
RTVSPost2010Prop52
140
1.0
102
RTVSPost2010PropOp52
 70
     0
102
RTVSPost2010Prop53
 90
        2
102
RTVSPost2010PropOp53
 70
     1
102
RTVSPost2010Prop54
  1
strokes_ogs.tif
102
RTVSPost2010PropOp54
 70
     1
102
RTVSPost2010Prop55
280
     0
102
RTVSPost2010PropOp55
 70
     1
102
RTVSPost2010Prop56
140
1.0
102
RTVSPost2010PropOp56
 70
     1
102
RTVSPost2010Prop57
140
1.0
102
RTVSPost2010PropOp57
 70
     1
  0
XRECORD
  5
374
102
{ACAD_REACTORS
330
373
102
}
330
373
100
AcDbXrecord
280
     1
102
RTVSPropertyOp0
 70
     1
102
RTVSPropertyOp1
 70
     1
102
RTVSPropertyOp2
 70
     1
102
RTVSPropertyOp3
 70
     1
102
RTVSPropertyOp4
 70
     1
102
RTVSPropertyOp5
 70
     1
102
RTVSPropertyOp6
 70
     1
102
RTVSPropertyOp7
 70
     1
102
RTVSPropertyOp8
 70
     1
102
RTVSPropertyOp9
 70
     1
102
RTVSPropertyOp10
 70
     1
102
RTVSPropertyOp11
 70
     1
102
RTVSPropertyOp12
 70
     1
102
RTVSPropertyOp13
 70
     1
102
RTVSPropertyOp14
 70
     1
102
RTVSPropertyOp15
 70
     1
102
RTVSPropertyOp16
 70
     1
102
RTVSPropertyOp17
 70
     1
102
RTVSPropertyOp18
 70
     1
102
RTVSPropertyOp19
 70
     1
102
RTVSPropertyOp20
 70
     1
102
RTVSPropertyOp21
 70
     1
102
RTVSPropertyOp22
 70
     1
102
RTVSPropertyOp23
 70
     1
102
RTVSPropertyOp24
 70
     1
102
RTVSPropertyOp25
 70
     1
102
RTVSPropertyOp26
 70
     1
102
RTVSPropertyOp27
 70
     1
102
RTVSPropertyOp28
 70
     1
102
RTVSPropertyOp29
 70
     1
102
RTVSPropertyOp30
 70
     1
102
RTVSPropertyOp31
 70
     1
102
RTVSPropertyOp32
 70
     1
102
RTVSPropertyOp33
 70
     1
102
RTVSPropertyOp34
 70
     1
102
RTVSPropertyOp35
 70
     1
102
RTVSPropertyOp36
 70
     1
102
RTVSPropertyOp37
 70
     1
102
RTVSPropertyOp38
 70
     1
102
RTVSPropertyOp39
 70
     1
102
RTVSPropertyOp40
 70
     1
102
RTVSPropertyOp41
 70
     1
102
RTVSPropertyOp42
 70
     1
102
RTVSPropertyOp43
 70
     1
102
RTVSPropertyOp44
 70
     1
102
RTVSPropertyOp45
 70
     1
102
RTVSPropertyOp46
 70
     1
102
RTVSPropertyOp47
 70
     1
102
RTVSPropertyOp48
 70
     1
102
RTVSPropertyOp49
 70
     1
102
RTVSPropertyOp50
 70
     1
102
RTVSPropertyOp51
 70
     0
102
RTVSPropertyOp52
 70
     0
102
RTVSPropertyOp53
 70
     1
102
RTVSPropertyOp54
 70
     1
102
RTVSPropertyOp55
 70
     1
102
RTVSPropertyOp56
 70
     1
102
RTVSPropertyOp57
 70
     1
102
RTVSPost2010Prop28
280
     0
102
RTVSPost2010PropOp28
 70
     1
102
RTVSPost2010Prop29
280
     1
102
RTVSPost2010PropOp29
 70
     1
102
RTVSPost2010Prop30
280
     1
102
RTVSPost2010PropOp30
 70
     1
102
RTVSPost2010Prop31
280
     0
102
RTVSPost2010PropOp31
 70
     1
102
RTVSPost2010Prop32
280
     0
102
RTVSPost2010PropOp32
 70
     1
102
RTVSPost2010Prop33
280
     0
102
RTVSPost2010PropOp33
 70
     1
102
RTVSPost2010Prop34
280
     0
102
RTVSPost2010PropOp34
 70
     1
102
RTVSPost2010Prop35
280
     0
102
RTVSPost2010PropOp35
 70
     1
102
RTVSPost2010Prop36
280
     0
102
RTVSPost2010PropOp36
 70
     1
102
RTVSPost2010Prop37
 90
       50
102
RTVSPost2010PropOp37
 70
     1
102
RTVSPost2010Prop38
140
0.0
102
RTVSPost2010PropOp38
 70
     1
102
RTVSPost2010Prop39
140
1.0
102
RTVSPost2010PropOp39
 70
     1
102
RTVSPost2010Prop40
 90
        0
102
RTVSPost2010PropOp40
 70
     1
102
RTVSPost2010Prop41ColorIndex
 90
       18
102
RTVSPost2010Prop41ColorRGB
 90
        0
102
RTVSPost2010PropOp41
 70
     1
102
RTVSPost2010Prop42
 90
       50
102
RTVSPost2010PropOp42
 70
     1
102
RTVSPost2010Prop43
 90
        3
102
RTVSPost2010PropOp43
 70
     1
102
RTVSPost2010Prop44ColorIndex
 90
        5
102
RTVSPost2010Prop44ColorRGB
 90
      255
102
RTVSPost2010PropOp44
 70
     1
102
RTVSPost2010Prop45
280
     0
102
RTVSPost2010PropOp45
 70
     1
102
RTVSPost2010Prop46
 90
       50
102
RTVSPost2010PropOp46
 70
     1
102
RTVSPost2010Prop47
 90
       50
102
RTVSPost2010PropOp47
 70
     1
102
RTVSPost2010Prop48
 90
       50
102
RTVSPost2010PropOp48
 70
     1
102
RTVSPost2010Prop49
280
     0
102
RTVSPost2010PropOp49
 70
     1
102
RTVSPost2010Prop50
 90
       50
102
RTVSPost2010PropOp50
 70
     1
102
RTVSPost2010Prop51ColorIndex
 90
      256
102
RTVSPost2010Prop51ColorRGB
 90
-16777216
102
RTVSPost2010PropOp51
 70
     0
102
RTVSPost2010Prop52
140
1.0
102
RTVSPost2010PropOp52
 70
     0
102
RTVSPost2010Prop53
 90
        2
102
RTVSPost2010PropOp53
 70
     1
102
RTVSPost2010Prop54
  1
strokes_ogs.tif
102
RTVSPost2010PropOp54
 70
     1
102
RTVSPost2010Prop55
280
     0
102
RTVSPost2010PropOp55
 70
     1
102
RTVSPost2010Prop56
140
1.0
102
RTVSPost2010PropOp56
 70
     1
102
RTVSPost2010Prop57
140
1.0
102
RTVSPost2010PropOp57
 70
     1
  0
XRECORD
  5
376
102
{ACAD_REACTORS
330
375
102
}
330
375
100
AcDbXrecord
280
     1
102
RTVSPropertyOp0
 70
     1
102
RTVSPropertyOp1
 70
     1
102
RTVSPropertyOp2
 70
     1
102
RTVSPropertyOp3
 70
     1
102
RTVSPropertyOp4
 70
     1
102
RTVSPropertyOp5
 70
     1
102
RTVSPropertyOp6
 70
     1
102
RTVSPropertyOp7
 70
     1
102
RTVSPropertyOp8
 70
     1
102
RTVSPropertyOp9
 70
     1
102
RTVSPropertyOp10
 70
     1
102
RTVSPropertyOp11
 70
     1
102
RTVSPropertyOp12
 70
     1
102
RTVSPropertyOp13
 70
     1
102
RTVSPropertyOp14
 70
     1
102
RTVSPropertyOp15
 70
     1
102
RTVSPropertyOp16
 70
     1
102
RTVSPropertyOp17
 70
     1
102
RTVSPropertyOp18
 70
     1
102
RTVSPropertyOp19
 70
     1
102
RTVSPropertyOp20
 70
     1
102
RTVSPropertyOp21
 70
     1
102
RTVSPropertyOp22
 70
     1
102
RTVSPropertyOp23
 70
     1
102
RTVSPropertyOp24
 70
     1
102
RTVSPropertyOp25
 70
     1
102
RTVSPropertyOp26
 70
     1
102
RTVSPropertyOp27
 70
     1
102
RTVSPropertyOp28
 70
     1
102
RTVSPropertyOp29
 70
     1
102
RTVSPropertyOp30
 70
     1
102
RTVSPropertyOp31
 70
     1
102
RTVSPropertyOp32
 70
     1
102
RTVSPropertyOp33
 70
     1
102
RTVSPropertyOp34
 70
     1
102
RTVSPropertyOp35
 70
     1
102
RTVSPropertyOp36
 70
     1
102
RTVSPropertyOp37
 70
     1
102
RTVSPropertyOp38
 70
     1
102
RTVSPropertyOp39
 70
     1
102
RTVSPropertyOp40
 70
     1
102
RTVSPropertyOp41
 70
     1
102
RTVSPropertyOp42
 70
     1
102
RTVSPropertyOp43
 70
     1
102
RTVSPropertyOp44
 70
     1
102
RTVSPropertyOp45
 70
     1
102
RTVSPropertyOp46
 70
     1
102
RTVSPropertyOp47
 70
     1
102
RTVSPropertyOp48
 70
     1
102
RTVSPropertyOp49
 70
     1
102
RTVSPropertyOp50
 70
     1
102
RTVSPropertyOp51
 70
     0
102
RTVSPropertyOp52
 70
     0
102
RTVSPropertyOp53
 70
     1
102
RTVSPropertyOp54
 70
     1
102
RTVSPropertyOp55
 70
     1
102
RTVSPropertyOp56
 70
     1
102
RTVSPropertyOp57
 70
     1
102
RTVSPost2010Prop28
280
     0
102
RTVSPost2010PropOp28
 70
     1
102
RTVSPost2010Prop29
280
     1
102
RTVSPost2010PropOp29
 70
     1
102
RTVSPost2010Prop30
280
     1
102
RTVSPost2010PropOp30
 70
     1
102
RTVSPost2010Prop31
280
     0
102
RTVSPost2010PropOp31
 70
     1
102
RTVSPost2010Prop32
280
     0
102
RTVSPost2010PropOp32
 70
     1
102
RTVSPost2010Prop33
280
     0
102
RTVSPost2010PropOp33
 70
     1
102
RTVSPost2010Prop34
280
     0
102
RTVSPost2010PropOp34
 70
     1
102
RTVSPost2010Prop35
280
     0
102
RTVSPost2010PropOp35
 70
     1
102
RTVSPost2010Prop36
280
     0
102
RTVSPost2010PropOp36
 70
     1
102
RTVSPost2010Prop37
 90
       50
102
RTVSPost2010PropOp37
 70
     1
102
RTVSPost2010Prop38
140
0.0
102
RTVSPost2010PropOp38
 70
     1
102
RTVSPost2010Prop39
140
1.0
102
RTVSPost2010PropOp39
 70
     1
102
RTVSPost2010Prop40
 90
        0
102
RTVSPost2010PropOp40
 70
     1
102
RTVSPost2010Prop41ColorIndex
 90
       18
102
RTVSPost2010Prop41ColorRGB
 90
        0
102
RTVSPost2010PropOp41
 70
     1
102
RTVSPost2010Prop42
 90
       50
102
RTVSPost2010PropOp42
 70
     1
102
RTVSPost2010Prop43
 90
        3
102
RTVSPost2010PropOp43
 70
     1
102
RTVSPost2010Prop44ColorIndex
 90
        5
102
RTVSPost2010Prop44ColorRGB
 90
      255
102
RTVSPost2010PropOp44
 70
     1
102
RTVSPost2010Prop45
280
     0
102
RTVSPost2010PropOp45
 70
     1
102
RTVSPost2010Prop46
 90
       50
102
RTVSPost2010PropOp46
 70
     1
102
RTVSPost2010Prop47
 90
       50
102
RTVSPost2010PropOp47
 70
     1
102
RTVSPost2010Prop48
 90
       50
102
RTVSPost2010PropOp48
 70
     1
102
RTVSPost2010Prop49
280
     0
102
RTVSPost2010PropOp49
 70
     1
102
RTVSPost2010Prop50
 90
       50
102
RTVSPost2010PropOp50
 70
     1
102
RTVSPost2010Prop51ColorIndex
 90
      256
102
RTVSPost2010Prop51ColorRGB
 90
-16777216
102
RTVSPost2010PropOp51
 70
     0
102
RTVSPost2010Prop52
140
1.0
102
RTVSPost2010PropOp52
 70
     0
102
RTVSPost2010Prop53
 90
        2
102
RTVSPost2010PropOp53
 70
     1
102
RTVSPost2010Prop54
  1
strokes_ogs.tif
102
RTVSPost2010PropOp54
 70
     1
102
RTVSPost2010Prop55
280
     0
102
RTVSPost2010PropOp55
 70
     1
102
RTVSPost2010Prop56
140
1.0
102
RTVSPost2010PropOp56
 70
     1
102
RTVSPost2010Prop57
140
1.0
102
RTVSPost2010PropOp57
 70
     1
  0
XRECORD
  5
366
102
{ACAD_REACTORS
330
365
102
}
330
365
100
AcDbXrecord
280
     1
102
RTVSPropertyOp0
 70
     1
102
RTVSPropertyOp1
 70
     1
102
RTVSPropertyOp2
 70
     1
102
RTVSPropertyOp3
 70
     1
102
RTVSPropertyOp4
 70
     1
102
RTVSPropertyOp5
 70
     1
102
RTVSPropertyOp6
 70
     1
102
RTVSPropertyOp7
 70
     1
102
RTVSPropertyOp8
 70
     1
102
RTVSPropertyOp9
 70
     1
102
RTVSPropertyOp10
 70
     1
102
RTVSPropertyOp11
 70
     1
102
RTVSPropertyOp12
 70
     1
102
RTVSPropertyOp13
 70
     1
102
RTVSPropertyOp14
 70
     1
102
RTVSPropertyOp15
 70
     1
102
RTVSPropertyOp16
 70
     1
102
RTVSPropertyOp17
 70
     1
102
RTVSPropertyOp18
 70
     1
102
RTVSPropertyOp19
 70
     1
102
RTVSPropertyOp20
 70
     1
102
RTVSPropertyOp21
 70
     1
102
RTVSPropertyOp22
 70
     1
102
RTVSPropertyOp23
 70
     1
102
RTVSPropertyOp24
 70
     1
102
RTVSPropertyOp25
 70
     1
102
RTVSPropertyOp26
 70
     1
102
RTVSPropertyOp27
 70
     1
102
RTVSPropertyOp28
 70
     1
102
RTVSPropertyOp29
 70
     1
102
RTVSPropertyOp30
 70
     1
102
RTVSPropertyOp31
 70
     1
102
RTVSPropertyOp32
 70
     1
102
RTVSPropertyOp33
 70
     1
102
RTVSPropertyOp34
 70
     1
102
RTVSPropertyOp35
 70
     1
102
RTVSPropertyOp36
 70
     1
102
RTVSPropertyOp37
 70
     1
102
RTVSPropertyOp38
 70
     1
102
RTVSPropertyOp39
 70
     1
102
RTVSPropertyOp40
 70
     1
102
RTVSPropertyOp41
 70
     1
102
RTVSPropertyOp42
 70
     1
102
RTVSPropertyOp43
 70
     1
102
RTVSPropertyOp44
 70
     1
102
RTVSPropertyOp45
 70
     1
102
RTVSPropertyOp46
 70
     1
102
RTVSPropertyOp47
 70
     1
102
RTVSPropertyOp48
 70
     1
102
RTVSPropertyOp49
 70
     1
102
RTVSPropertyOp50
 70
     1
102
RTVSPropertyOp51
 70
     0
102
RTVSPropertyOp52
 70
     0
102
RTVSPropertyOp53
 70
     1
102
RTVSPropertyOp54
 70
     1
102
RTVSPropertyOp55
 70
     1
102
RTVSPropertyOp56
 70
     1
102
RTVSPropertyOp57
 70
     1
102
RTVSPost2010Prop28
280
     0
102
RTVSPost2010PropOp28
 70
     1
102
RTVSPost2010Prop29
280
     1
102
RTVSPost2010PropOp29
 70
     1
102
RTVSPost2010Prop30
280
     1
102
RTVSPost2010PropOp30
 70
     1
102
RTVSPost2010Prop31
280
     0
102
RTVSPost2010PropOp31
 70
     1
102
RTVSPost2010Prop32
280
     0
102
RTVSPost2010PropOp32
 70
     1
102
RTVSPost2010Prop33
280
     0
102
RTVSPost2010PropOp33
 70
     1
102
RTVSPost2010Prop34
280
     0
102
RTVSPost2010PropOp34
 70
     1
102
RTVSPost2010Prop35
280
     0
102
RTVSPost2010PropOp35
 70
     1
102
RTVSPost2010Prop36
280
     0
102
RTVSPost2010PropOp36
 70
     1
102
RTVSPost2010Prop37
 90
       50
102
RTVSPost2010PropOp37
 70
     1
102
RTVSPost2010Prop38
140
0.0
102
RTVSPost2010PropOp38
 70
     1
102
RTVSPost2010Prop39
140
1.0
102
RTVSPost2010PropOp39
 70
     1
102
RTVSPost2010Prop40
 90
        0
102
RTVSPost2010PropOp40
 70
     1
102
RTVSPost2010Prop41ColorIndex
 90
       18
102
RTVSPost2010Prop41ColorRGB
 90
        0
102
RTVSPost2010PropOp41
 70
     1
102
RTVSPost2010Prop42
 90
       50
102
RTVSPost2010PropOp42
 70
     1
102
RTVSPost2010Prop43
 90
        3
102
RTVSPost2010PropOp43
 70
     1
102
RTVSPost2010Prop44ColorIndex
 90
        5
102
RTVSPost2010Prop44ColorRGB
 90
      255
102
RTVSPost2010PropOp44
 70
     1
102
RTVSPost2010Prop45
280
     0
102
RTVSPost2010PropOp45
 70
     1
102
RTVSPost2010Prop46
 90
       50
102
RTVSPost2010PropOp46
 70
     1
102
RTVSPost2010Prop47
 90
       50
102
RTVSPost2010PropOp47
 70
     1
102
RTVSPost2010Prop48
 90
       50
102
RTVSPost2010PropOp48
 70
     1
102
RTVSPost2010Prop49
280
     0
102
RTVSPost2010PropOp49
 70
     1
102
RTVSPost2010Prop50
 90
       50
102
RTVSPost2010PropOp50
 70
     1
102
RTVSPost2010Prop51ColorIndex
 90
      256
102
RTVSPost2010Prop51ColorRGB
 90
-16777216
102
RTVSPost2010PropOp51
 70
     0
102
RTVSPost2010Prop52
140
1.0
102
RTVSPost2010PropOp52
 70
     0
102
RTVSPost2010Prop53
 90
        2
102
RTVSPost2010PropOp53
 70
     1
102
RTVSPost2010Prop54
  1
strokes_ogs.tif
102
RTVSPost2010PropOp54
 70
     1
102
RTVSPost2010Prop55
280
     0
102
RTVSPost2010PropOp55
 70
     1
102
RTVSPost2010Prop56
140
1.0
102
RTVSPost2010PropOp56
 70
     1
102
RTVSPost2010Prop57
140
1.0
102
RTVSPost2010PropOp57
 70
     1
  0
XRECORD
  5
358
102
{ACAD_REACTORS
330
357
102
}
330
357
100
AcDbXrecord
280
     1
102
RTVSPropertyOp0
 70
     1
102
RTVSPropertyOp1
 70
     1
102
RTVSPropertyOp2
 70
     1
102
RTVSPropertyOp3
 70
     1
102
RTVSPropertyOp4
 70
     1
102
RTVSPropertyOp5
 70
     1
102
RTVSPropertyOp6
 70
     1
102
RTVSPropertyOp7
 70
     1
102
RTVSPropertyOp8
 70
     1
102
RTVSPropertyOp9
 70
     1
102
RTVSPropertyOp10
 70
     1
102
RTVSPropertyOp11
 70
     1
102
RTVSPropertyOp12
 70
     1
102
RTVSPropertyOp13
 70
     1
102
RTVSPropertyOp14
 70
     1
102
RTVSPropertyOp15
 70
     1
102
RTVSPropertyOp16
 70
     1
102
RTVSPropertyOp17
 70
     1
102
RTVSPropertyOp18
 70
     1
102
RTVSPropertyOp19
 70
     1
102
RTVSPropertyOp20
 70
     1
102
RTVSPropertyOp21
 70
     1
102
RTVSPropertyOp22
 70
     1
102
RTVSPropertyOp23
 70
     1
102
RTVSPropertyOp24
 70
     1
102
RTVSPropertyOp25
 70
     1
102
RTVSPropertyOp26
 70
     1
102
RTVSPropertyOp27
 70
     1
102
RTVSPropertyOp28
 70
     1
102
RTVSPropertyOp29
 70
     1
102
RTVSPropertyOp30
 70
     1
102
RTVSPropertyOp31
 70
     1
102
RTVSPropertyOp32
 70
     1
102
RTVSPropertyOp33
 70
     1
102
RTVSPropertyOp34
 70
     1
102
RTVSPropertyOp35
 70
     1
102
RTVSPropertyOp36
 70
     1
102
RTVSPropertyOp37
 70
     1
102
RTVSPropertyOp38
 70
     1
102
RTVSPropertyOp39
 70
     1
102
RTVSPropertyOp40
 70
     1
102
RTVSPropertyOp41
 70
     1
102
RTVSPropertyOp42
 70
     1
102
RTVSPropertyOp43
 70
     1
102
RTVSPropertyOp44
 70
     1
102
RTVSPropertyOp45
 70
     1
102
RTVSPropertyOp46
 70
     1
102
RTVSPropertyOp47
 70
     1
102
RTVSPropertyOp48
 70
     1
102
RTVSPropertyOp49
 70
     1
102
RTVSPropertyOp50
 70
     1
102
RTVSPropertyOp51
 70
     0
102
RTVSPropertyOp52
 70
     0
102
RTVSPropertyOp53
 70
     1
102
RTVSPropertyOp54
 70
     1
102
RTVSPropertyOp55
 70
     1
102
RTVSPropertyOp56
 70
     1
102
RTVSPropertyOp57
 70
     1
102
RTVSPost2010Prop28
280
     0
102
RTVSPost2010PropOp28
 70
     1
102
RTVSPost2010Prop29
280
     1
102
RTVSPost2010PropOp29
 70
     1
102
RTVSPost2010Prop30
280
     1
102
RTVSPost2010PropOp30
 70
     1
102
RTVSPost2010Prop31
280
     0
102
RTVSPost2010PropOp31
 70
     1
102
RTVSPost2010Prop32
280
     0
102
RTVSPost2010PropOp32
 70
     1
102
RTVSPost2010Prop33
280
     0
102
RTVSPost2010PropOp33
 70
     1
102
RTVSPost2010Prop34
280
     0
102
RTVSPost2010PropOp34
 70
     1
102
RTVSPost2010Prop35
280
     0
102
RTVSPost2010PropOp35
 70
     1
102
RTVSPost2010Prop36
280
     0
102
RTVSPost2010PropOp36
 70
     1
102
RTVSPost2010Prop37
 90
       50
102
RTVSPost2010PropOp37
 70
     1
102
RTVSPost2010Prop38
140
0.0
102
RTVSPost2010PropOp38
 70
     1
102
RTVSPost2010Prop39
140
1.0
102
RTVSPost2010PropOp39
 70
     1
102
RTVSPost2010Prop40
 90
        0
102
RTVSPost2010PropOp40
 70
     1
102
RTVSPost2010Prop41ColorIndex
 90
       18
102
RTVSPost2010Prop41ColorRGB
 90
        0
102
RTVSPost2010PropOp41
 70
     1
102
RTVSPost2010Prop42
 90
       50
102
RTVSPost2010PropOp42
 70
     1
102
RTVSPost2010Prop43
 90
        3
102
RTVSPost2010PropOp43
 70
     1
102
RTVSPost2010Prop44ColorIndex
 90
        5
102
RTVSPost2010Prop44ColorRGB
 90
      255
102
RTVSPost2010PropOp44
 70
     1
102
RTVSPost2010Prop45
280
     0
102
RTVSPost2010PropOp45
 70
     1
102
RTVSPost2010Prop46
 90
       50
102
RTVSPost2010PropOp46
 70
     1
102
RTVSPost2010Prop47
 90
       50
102
RTVSPost2010PropOp47
 70
     1
102
RTVSPost2010Prop48
 90
       50
102
RTVSPost2010PropOp48
 70
     1
102
RTVSPost2010Prop49
280
     0
102
RTVSPost2010PropOp49
 70
     1
102
RTVSPost2010Prop50
 90
       50
102
RTVSPost2010PropOp50
 70
     1
102
RTVSPost2010Prop51ColorIndex
 90
      256
102
RTVSPost2010Prop51ColorRGB
 90
-16777216
102
RTVSPost2010PropOp51
 70
     0
102
RTVSPost2010Prop52
140
1.0
102
RTVSPost2010PropOp52
 70
     0
102
RTVSPost2010Prop53
 90
        2
102
RTVSPost2010PropOp53
 70
     1
102
RTVSPost2010Prop54
  1
strokes_ogs.tif
102
RTVSPost2010PropOp54
 70
     1
102
RTVSPost2010Prop55
280
     0
102
RTVSPost2010PropOp55
 70
     1
102
RTVSPost2010Prop56
140
1.0
102
RTVSPost2010PropOp56
 70
     1
102
RTVSPost2010Prop57
140
1.0
102
RTVSPost2010PropOp57
 70
     1
  0
XRECORD
  5
378
102
{ACAD_REACTORS
330
377
102
}
330
377
100
AcDbXrecord
280
     1
102
RTVSPropertyOp0
 70
     1
102
RTVSPropertyOp1
 70
     1
102
RTVSPropertyOp2
 70
     1
102
RTVSPropertyOp3
 70
     1
102
RTVSPropertyOp4
 70
     1
102
RTVSPropertyOp5
 70
     1
102
RTVSPropertyOp6
 70
     1
102
RTVSPropertyOp7
 70
     1
102
RTVSPropertyOp8
 70
     1
102
RTVSPropertyOp9
 70
     1
102
RTVSPropertyOp10
 70
     1
102
RTVSPropertyOp11
 70
     1
102
RTVSPropertyOp12
 70
     1
102
RTVSPropertyOp13
 70
     1
102
RTVSPropertyOp14
 70
     1
102
RTVSPropertyOp15
 70
     1
102
RTVSPropertyOp16
 70
     1
102
RTVSPropertyOp17
 70
     1
102
RTVSPropertyOp18
 70
     1
102
RTVSPropertyOp19
 70
     1
102
RTVSPropertyOp20
 70
     1
102
RTVSPropertyOp21
 70
     1
102
RTVSPropertyOp22
 70
     1
102
RTVSPropertyOp23
 70
     1
102
RTVSPropertyOp24
 70
     1
102
RTVSPropertyOp25
 70
     1
102
RTVSPropertyOp26
 70
     1
102
RTVSPropertyOp27
 70
     1
102
RTVSPropertyOp28
 70
     1
102
RTVSPropertyOp29
 70
     1
102
RTVSPropertyOp30
 70
     1
102
RTVSPropertyOp31
 70
     1
102
RTVSPropertyOp32
 70
     1
102
RTVSPropertyOp33
 70
     1
102
RTVSPropertyOp34
 70
     1
102
RTVSPropertyOp35
 70
     1
102
RTVSPropertyOp36
 70
     1
102
RTVSPropertyOp37
 70
     1
102
RTVSPropertyOp38
 70
     1
102
RTVSPropertyOp39
 70
     1
102
RTVSPropertyOp40
 70
     1
102
RTVSPropertyOp41
 70
     1
102
RTVSPropertyOp42
 70
     1
102
RTVSPropertyOp43
 70
     1
102
RTVSPropertyOp44
 70
     1
102
RTVSPropertyOp45
 70
     1
102
RTVSPropertyOp46
 70
     1
102
RTVSPropertyOp47
 70
     1
102
RTVSPropertyOp48
 70
     1
102
RTVSPropertyOp49
 70
     1
102
RTVSPropertyOp50
 70
     1
102
RTVSPropertyOp51
 70
     0
102
RTVSPropertyOp52
 70
     0
102
RTVSPropertyOp53
 70
     1
102
RTVSPropertyOp54
 70
     1
102
RTVSPropertyOp55
 70
     1
102
RTVSPropertyOp56
 70
     1
102
RTVSPropertyOp57
 70
     1
102
RTVSPost2010Prop28
280
     0
102
RTVSPost2010PropOp28
 70
     1
102
RTVSPost2010Prop29
280
     1
102
RTVSPost2010PropOp29
 70
     1
102
RTVSPost2010Prop30
280
     1
102
RTVSPost2010PropOp30
 70
     1
102
RTVSPost2010Prop31
280
     0
102
RTVSPost2010PropOp31
 70
     1
102
RTVSPost2010Prop32
280
     0
102
RTVSPost2010PropOp32
 70
     1
102
RTVSPost2010Prop33
280
     0
102
RTVSPost2010PropOp33
 70
     1
102
RTVSPost2010Prop34
280
     0
102
RTVSPost2010PropOp34
 70
     1
102
RTVSPost2010Prop35
280
     0
102
RTVSPost2010PropOp35
 70
     1
102
RTVSPost2010Prop36
280
     0
102
RTVSPost2010PropOp36
 70
     1
102
RTVSPost2010Prop37
 90
       50
102
RTVSPost2010PropOp37
 70
     1
102
RTVSPost2010Prop38
140
0.0
102
RTVSPost2010PropOp38
 70
     1
102
RTVSPost2010Prop39
140
1.0
102
RTVSPost2010PropOp39
 70
     1
102
RTVSPost2010Prop40
 90
        0
102
RTVSPost2010PropOp40
 70
     1
102
RTVSPost2010Prop41ColorIndex
 90
       18
102
RTVSPost2010Prop41ColorRGB
 90
        0
102
RTVSPost2010PropOp41
 70
     1
102
RTVSPost2010Prop42
 90
       50
102
RTVSPost2010PropOp42
 70
     1
102
RTVSPost2010Prop43
 90
        3
102
RTVSPost2010PropOp43
 70
     1
102
RTVSPost2010Prop44ColorIndex
 90
        5
102
RTVSPost2010Prop44ColorRGB
 90
      255
102
RTVSPost2010PropOp44
 70
     1
102
RTVSPost2010Prop45
280
     0
102
RTVSPost2010PropOp45
 70
     1
102
RTVSPost2010Prop46
 90
       50
102
RTVSPost2010PropOp46
 70
     1
102
RTVSPost2010Prop47
 90
       50
102
RTVSPost2010PropOp47
 70
     1
102
RTVSPost2010Prop48
 90
       50
102
RTVSPost2010PropOp48
 70
     1
102
RTVSPost2010Prop49
280
     0
102
RTVSPost2010PropOp49
 70
     1
102
RTVSPost2010Prop50
 90
       50
102
RTVSPost2010PropOp50
 70
     1
102
RTVSPost2010Prop51ColorIndex
 90
      256
102
RTVSPost2010Prop51ColorRGB
 90
-16777216
102
RTVSPost2010PropOp51
 70
     0
102
RTVSPost2010Prop52
140
1.0
102
RTVSPost2010PropOp52
 70
     0
102
RTVSPost2010Prop53
 90
        2
102
RTVSPost2010PropOp53
 70
     1
102
RTVSPost2010Prop54
  1
strokes_ogs.tif
102
RTVSPost2010PropOp54
 70
     1
102
RTVSPost2010Prop55
280
     0
102
RTVSPost2010PropOp55
 70
     1
102
RTVSPost2010Prop56
140
1.0
102
RTVSPost2010PropOp56
 70
     1
102
RTVSPost2010Prop57
140
1.0
102
RTVSPost2010PropOp57
 70
     1
  0
ENDSEC
  0
EOF
