  0
SECTION
  2
HEADER
  9
$ACADVER
  1
AC1015
  9
$ACADMAINTVER
 70
     6
  9
$DWGCODEPAGE
  3
ANSI_1252
  9
$INSBASE
 10
0.0
 20
0.0
 30
0.0
  9
$EXTMIN
 10
-1.636266439559563
 20
-0.7525336596197576
 30
0.0
  9
$EXTMAX
 10
208.3637335604405
 20
296.2474663403803
 30
0.0
  9
$LIMMIN
 10
0.0
 20
0.0
  9
$LIMMAX
 10
210.0
 20
297.0
  9
$ORTHOMODE
 70
     1
  9
$REGENMODE
 70
     1
  9
$FILLMODE
 70
     1
  9
$QTEXTMODE
 70
     0
  9
$MIRRTEXT
 70
     1
  9
$LTSCALE
 40
1.0
  9
$ATTMODE
 70
     1
  9
$TEXTSIZE
 40
3.0
  9
$TRACEWID
 40
1.0
  9
$TEXTSTYLE
  7
Standard
  9
$CLAYER
  8
0
  9
$CELTYPE
  6
ByLayer
  9
$CECOLOR
 62
   256
  9
$CELTSCALE
 40
1.0
  9
$DISPSILH
 70
     0
  9
$DIMSCALE
 40
1.0
  9
$DIMASZ
 40
2.5
  9
$DIMEXO
 40
0.625
  9
$DIMDLI
 40
3.75
  9
$DIMRND
 40
0.0
  9
$DIMDLE
 40
0.0
  9
$DIMEXE
 40
1.25
  9
$DIMTP
 40
0.0
  9
$DIMTM
 40
0.0
  9
$DIMTXT
 40
2.5
  9
$DIMCEN
 40
2.5
  9
$DIMTSZ
 40
0.0
  9
$DIMTOL
 70
     0
  9
$DIMLIM
 70
     0
  9
$DIMTIH
 70
     0
  9
$DIMTOH
 70
     0
  9
$DIMSE1
 70
     0
  9
$DIMSE2
 70
     0
  9
$DIMTAD
 70
     1
  9
$DIMZIN
 70
     8
  9
$DIMBLK
  1

  9
$DIMASO
 70
     1
  9
$DIMSHO
 70
     1
  9
$DIMPOST
  1

  9
$DIMAPOST
  1

  9
$DIMALT
 70
     0
  9
$DIMALTD
 70
     3
  9
$DIMALTF
 40
0.03937007874016
  9
$DIMLFAC
 40
1.0
  9
$DIMTOFL
 70
     1
  9
$DIMTVP
 40
0.0
  9
$DIMTIX
 70
     0
  9
$DIMSOXD
 70
     0
  9
$DIMSAH
 70
     0
  9
$DIMBLK1
  1

  9
$DIMBLK2
  1

  9
$DIMSTYLE
  2
ISO-25
  9
$DIMCLRD
 70
     0
  9
$DIMCLRE
 70
     0
  9
$DIMCLRT
 70
     0
  9
$DIMTFAC
 40
1.0
  9
$DIMGAP
 40
0.625
  9
$DIMJUST
 70
     0
  9
$DIMSD1
 70
     0
  9
$DIMSD2
 70
     0
  9
$DIMTOLJ
 70
     0
  9
$DIMTZIN
 70
     8
  9
$DIMALTZ
 70
     0
  9
$DIMALTTZ
 70
     0
  9
$DIMUPT
 70
     0
  9
$DIMDEC
 70
     2
  9
$DIMTDEC
 70
     2
  9
$DIMALTU
 70
     2
  9
$DIMALTTD
 70
     3
  9
$DIMTXSTY
  7
Standard
  9
$DIMAUNIT
 70
     0
  9
$DIMADEC
 70
     0
  9
$DIMALTRND
 40
0.0
  9
$DIMAZIN
 70
     0
  9
$DIMDSEP
 70
    44
  9
$DIMATFIT
 70
     3
  9
$DIMFRAC
 70
     0
  9
$DIMLDRBLK
  1

  9
$DIMLUNIT
 70
     2
  9
$DIMLWD
 70
    -2
  9
$DIMLWE
 70
    -2
  9
$DIMTMOVE
 70
     0
  9
$LUNITS
 70
     2
  9
$LUPREC
 70
     4
  9
$SKETCHINC
 40
1.0
  9
$FILLETRAD
 40
10.0
  9
$AUNITS
 70
     0
  9
$AUPREC
 70
     0
  9
$MENU
  1
.
  9
$ELEVATION
 40
0.0
  9
$PELEVATION
 40
0.0
  9
$THICKNESS
 40
0.0
  9
$LIMCHECK
 70
     0
  9
$CHAMFERA
 40
0.0
  9
$CHAMFERB
 40
0.0
  9
$CHAMFERC
 40
0.0
  9
$CHAMFERD
 40
0.0
  9
$SKPOLY
 70
     0
  9
$TDCREATE
 40
2457445.564261898
  9
$TDUCREATE
 40
2457445.522595231
  9
$TDUPDATE
 40
2460396.619849873
  9
$TDUUPDATE
 40
2460396.578183206
  9
$TDINDWG
 40
0.0506753125
  9
$TDUSRTIMER
 40
2457448.608319421
  9
$USRTIMER
 70
     1
  9
$ANGBASE
 50
0.0
  9
$ANGDIR
 70
     0
  9
$PDMODE
 70
     0
  9
$PDSIZE
 40
0.0
  9
$PLINEWID
 40
0.0
  9
$SPLFRAME
 70
     0
  9
$SPLINETYPE
 70
     6
  9
$SPLINESEGS
 70
     8
  9
$HANDSEED
  5
838
  9
$SURFTAB1
 70
     6
  9
$SURFTAB2
 70
     6
  9
$SURFTYPE
 70
     6
  9
$SURFU
 70
     6
  9
$SURFV
 70
     6
  9
$UCSBASE
  2

  9
$UCSNAME
  2

  9
$UCSORG
 10
0.0
 20
0.0
 30
0.0
  9
$UCSXDIR
 10
1.0
 20
0.0
 30
0.0
  9
$UCSYDIR
 10
0.0
 20
1.0
 30
0.0
  9
$UCSORTHOREF
  2

  9
$UCSORTHOVIEW
 70
     0
  9
$UCSORGTOP
 10
0.0
 20
0.0
 30
0.0
  9
$UCSORGBOTTOM
 10
0.0
 20
0.0
 30
0.0
  9
$UCSORGLEFT
 10
0.0
 20
0.0
 30
0.0
  9
$UCSORGRIGHT
 10
0.0
 20
0.0
 30
0.0
  9
$UCSORGFRONT
 10
0.0
 20
0.0
 30
0.0
  9
$UCSORGBACK
 10
0.0
 20
0.0
 30
0.0
  9
$PUCSBASE
  2

  9
$PUCSNAME
  2

  9
$PUCSORG
 10
0.0
 20
0.0
 30
0.0
  9
$PUCSXDIR
 10
1.0
 20
0.0
 30
0.0
  9
$PUCSYDIR
 10
0.0
 20
1.0
 30
0.0
  9
$PUCSORTHOREF
  2

  9
$PUCSORTHOVIEW
 70
     0
  9
$PUCSORGTOP
 10
0.0
 20
0.0
 30
0.0
  9
$PUCSORGBOTTOM
 10
0.0
 20
0.0
 30
0.0
  9
$PUCSORGLEFT
 10
0.0
 20
0.0
 30
0.0
  9
$PUCSORGRIGHT
 10
0.0
 20
0.0
 30
0.0
  9
$PUCSORGFRONT
 10
0.0
 20
0.0
 30
0.0
  9
$PUCSORGBACK
 10
0.0
 20
0.0
 30
0.0
  9
$USERI1
 70
     0
  9
$USERI2
 70
     0
  9
$USERI3
 70
     0
  9
$USERI4
 70
     0
  9
$USERI5
 70
     0
  9
$USERR1
 40
0.0
  9
$USERR2
 40
0.0
  9
$USERR3
 40
0.0
  9
$USERR4
 40
0.0
  9
$USERR5
 40
0.0
  9
$WORLDVIEW
 70
     1
  9
$SHADEDGE
 70
     3
  9
$SHADEDIF
 70
    70
  9
$TILEMODE
 70
     1
  9
$MAXACTVP
 70
    64
  9
$PINSBASE
 10
0.0
 20
0.0
 30
0.0
  9
$PLIMCHECK
 70
     0
  9
$PEXTMIN
 10
0.0
 20
0.0
 30
0.0
  9
$PEXTMAX
 10
210.0
 20
297.0
 30
0.0
  9
$PLIMMIN
 10
0.0
 20
0.0
  9
$PLIMMAX
 10
210.0
 20
297.0
  9
$UNITMODE
 70
     0
  9
$VISRETAIN
 70
     1
  9
$PLINEGEN
 70
     0
  9
$PSLTSCALE
 70
     1
  9
$TREEDEPTH
 70
  3020
  9
$CMLSTYLE
  2
Standard
  9
$CMLJUST
 70
     0
  9
$CMLSCALE
 40
20.0
  9
$PROXYGRAPHICS
 70
     1
  9
$MEASUREMENT
 70
     1
  9
$CELWEIGHT
370
    -1
  9
$ENDCAPS
280
     0
  9
$JOINSTYLE
280
     0
  9
$LWDISPLAY
290
     0
  9
$INSUNITS
 70
     4
  9
$HYPERLINKBASE
  1

  9
$STYLESHEET
  1

  9
$XEDIT
290
     1
  9
$CEPSNTYPE
380
     0
  9
$PSTYLEMODE
290
     1
  9
$FINGERPRINTGUID
  2
{818E5EE5-E9C3-4470-B39C-ACE078656A80}
  9
$VERSIONGUID
  2
{FAEB1C32-E019-11D5-929B-00C0DF256EC4}
  9
$EXTNAMES
290
     1
  9
$PSVPSCALE
 40
0.0
  9
$OLESTARTUP
290
     0
  0
ENDSEC
  0
SECTION
  2
CLASSES
  0
CLASS
  1
ACDBDICTIONARYWDFLT
  2
AcDbDictionaryWithDefault
  3
ObjectDBX Classes
 90
        0
280
     0
281
     0
  0
CLASS
  1
VISUALSTYLE
  2
AcDbVisualStyle
  3
ObjectDBX Classes
 90
     4095
280
     0
281
     0
  0
CLASS
  1
MATERIAL
  2
AcDbMaterial
  3
ObjectDBX Classes
 90
     1153
280
     0
281
     0
  0
CLASS
  1
SCALE
  2
AcDbScale
  3
ObjectDBX Classes
 90
     1153
280
     0
281
     0
  0
CLASS
  1
TABLESTYLE
  2
AcDbTableStyle
  3
ObjectDBX Classes
 90
     4095
280
     0
281
     0
  0
CLASS
  1
MLEADERSTYLE
  2
AcDbMLeaderStyle
  3
ACDB_MLEADERSTYLE_CLASS
 90
     4095
280
     0
281
     0
  0
CLASS
  1
SUN
  2
AcDbSun
  3
SCENEOE
 90
     1153
280
     0
281
     0
  0
CLASS
  1
DICTIONARYVAR
  2
AcDbDictionaryVar
  3
ObjectDBX Classes
 90
        0
280
     0
281
     0
  0
CLASS
  1
CELLSTYLEMAP
  2
AcDbCellStyleMap
  3
ObjectDBX Classes
 90
     1152
280
     0
281
     0
  0
CLASS
  1
RASTERVARIABLES
  2
AcDbRasterVariables
  3
ISM
 90
        0
280
     0
281
     0
  0
CLASS
  1
ACDBPLACEHOLDER
  2
AcDbPlaceHolder
  3
ObjectDBX Classes
 90
        0
280
     0
281
     0
  0
CLASS
  1
LAYOUT
  2
AcDbLayout
  3
ObjectDBX Classes
 90
        0
280
     0
281
     0
  0
ENDSEC
  0
SECTION
  2
TABLES
  0
TABLE
  2
VPORT
  5
8
102
{ACAD_XDICTIONARY
360
7FC
102
}
330
0
100
AcDbSymbolTable
 70
     1
  0
VPORT
  5
29
330
8
100
AcDbSymbolTableRecord
100
AcDbViewportTableRecord
  2
*Active
 70
     0
 10
0.0
 20
0.0
 11
1.0
 21
1.0
 12
190.9634651333687
 22
143.2109815469101
 13
0.0
 23
0.0
 14
10.0
 24
10.0
 15
10.0
 25
10.0
 16
0.0
 26
0.0
 36
1.0
 17
0.0
 27
0.0
 37
0.0
 40
313.3915899936586
 41
1.86977886977887
 42
50.0
 43
0.0
 44
0.0
 50
0.0
 51
0.0
 71
    16
 72
   100
 73
     1
 74
     3
 75
     0
 76
     0
 77
     0
 78
     0
281
     0
 65
     1
110
0.0
120
0.0
130
0.0
111
1.0
121
0.0
131
0.0
112
0.0
122
1.0
132
0.0
 79
     0
146
0.0
  0
ENDTAB
  0
TABLE
  2
LTYPE
  5
5
330
0
100
AcDbSymbolTable
 70
     2
  0
LTYPE
  5
14
330
5
100
AcDbSymbolTableRecord
100
AcDbLinetypeTableRecord
  2
ByBlock
 70
     0
  3

 72
    65
 73
     0
 40
0.0
  0
LTYPE
  5
15
330
5
100
AcDbSymbolTableRecord
100
AcDbLinetypeTableRecord
  2
ByLayer
 70
     0
  3

 72
    65
 73
     0
 40
0.0
  0
LTYPE
  5
16
330
5
100
AcDbSymbolTableRecord
100
AcDbLinetypeTableRecord
  2
Continuous
 70
     0
  3
Solid line
 72
    65
 73
     0
 40
0.0
  0
LTYPE
  5
79C
330
5
100
AcDbSymbolTableRecord
100
AcDbLinetypeTableRecord
  2
CENTER
 70
     0
  3
 Center _____  _  _____  _  _____  _  _____  _ 
 72
    65
 73
     4
 40
50.8
 49
31.75
 74
     0
 49
-6.35
 74
     0
 49
6.35
 74
     0
 49
-6.35
 74
     0
  0
ENDTAB
  0
TABLE
  2
LAYER
  5
2
330
0
100
AcDbSymbolTable
 70
    13
  0
LAYER
  5
10
330
2
100
AcDbSymbolTableRecord
100
AcDbLayerTableRecord
  2
0
 70
     0
 62
     7
  6
Continuous
370
    -3
390
F
  0
LAYER
  5
6E
330
2
100
AcDbSymbolTableRecord
100
AcDbLayerTableRecord
  2
Predeterminado
 70
     0
 62
     7
  6
Continuous
370
    -3
390
F
  0
LAYER
  5
87
330
2
100
AcDbSymbolTableRecord
100
AcDbLayerTableRecord
  2
D
 70
     0
 62
     7
  6
Continuous
370
    -3
390
F
  0
LAYER
  5
8A
330
2
100
AcDbSymbolTableRecord
100
AcDbLayerTableRecord
  2
Default
 70
     0
 62
     7
  6
Continuous
370
    -3
390
F
  0
LAYER
  5
9C
330
2
100
AcDbSymbolTableRecord
100
AcDbLayerTableRecord
  2
ILBGT_CÚPULA_ESS
 70
     0
 62
     7
  6
Continuous
370
    -3
390
F
  0
LAYER
  5
9E
330
2
100
AcDbSymbolTableRecord
100
AcDbLayerTableRecord
  2
ESTRUCTURA_CLASS
 70
     0
 62
     7
  6
Continuous
370
    -3
390
F
  0
LAYER
  5
AF
330
2
100
AcDbSymbolTableRecord
100
AcDbLayerTableRecord
  2
PILAR_TORNILLO
 70
     0
 62
     7
  6
Continuous
370
    -3
390
F
  0
LAYER
  5
EA
330
2
100
AcDbSymbolTableRecord
100
AcDbLayerTableRecord
  2
BASE_CLASSIC
 70
     0
 62
     7
  6
Continuous
370
    -3
390
F
  0
LAYER
  5
130
330
2
100
AcDbSymbolTableRecord
100
AcDbLayerTableRecord
  2
PILAR_PASACABLES
 70
     0
 62
     7
  6
Continuous
370
    -3
390
F
  0
LAYER
  5
1A7
330
2
100
AcDbSymbolTableRecord
100
AcDbLayerTableRecord
  2
DIN912M6X10
 70
     0
 62
     7
  6
Continuous
370
    -3
390
F
  0
LAYER
  5
1E6
330
2
100
AcDbSymbolTableRecord
100
AcDbLayerTableRecord
  2
ILBSC_CUERPO_ESS
 70
     0
 62
     7
  6
Continuous
370
    -3
390
F
  0
LAYER
  5
262
330
2
100
AcDbSymbolTableRecord
100
AcDbLayerTableRecord
  2
Marco
 70
     0
 62
     7
  6
Continuous
370
    -3
390
F
  0
LAYER
  5
782
330
2
100
AcDbSymbolTableRecord
100
AcDbLayerTableRecord
  2
Defpoints
 70
     0
 62
     7
  6
Continuous
290
     0
370
    -3
390
F
  0
ENDTAB
  0
TABLE
  2
STYLE
  5
3
330
0
100
AcDbSymbolTable
 70
     8
  0
STYLE
  5
11
330
3
100
AcDbSymbolTableRecord
100
AcDbTextStyleTableRecord
  2
Standard
 70
     0
 40
0.0
 41
1.0
 50
0.0
 71
     0
 42
3.0
  3
txt
  4

  0
STYLE
  5
78
330
3
100
AcDbSymbolTableRecord
100
AcDbTextStyleTableRecord
  2
SEACAD_Arial
 70
     0
 40
0.0
 41
1.0
 50
0.0
 71
     0
 42
2.5
  3
arial.ttf
  4

1001
ACAD
1000
Arial
1071
        0
  0
STYLE
  5
7E
330
3
100
AcDbSymbolTableRecord
100
AcDbTextStyleTableRecord
  2
SEACAD_ArialB
 70
     0
 40
0.0
 41
1.0
 50
0.0
 71
     0
 42
2.5
  3
arialbd.ttf
  4

1001
ACAD
1000
Arial
1071
 33554432
  0
STYLE
  5
200
330
3
100
AcDbSymbolTableRecord
100
AcDbTextStyleTableRecord
  2
SEACAD_Solid_Edge_ANSI1_Symbols
 70
     0
 40
0.0
 41
1.0
 50
0.0
 71
     0
 42
3.0
  3
semeca1.ttf
  4

1001
ACAD
1000
Solid Edge ANSI1 Symbols
1071
        0
  0
STYLE
  5
265
330
3
100
AcDbSymbolTableRecord
100
AcDbTextStyleTableRecord
  2
SIMPLEX
 70
     0
 40
5.0
 41
1.0
 50
15.0
 71
     0
 42
3.0
  3
C:\RV13\COM\FONTS\SIMPLEX.SHX
  4

  0
STYLE
  5
267
330
3
100
AcDbSymbolTableRecord
100
AcDbTextStyleTableRecord
  2
arial_ttf
 70
     0
 40
0.0
 41
1.0
 50
0.0
 71
     0
 42
3.0
  3
ARIAL.TTF
  4

1001
ACAD
1000
Arial
1071
        2
  0
STYLE
  5
7F0
330
3
100
AcDbSymbolTableRecord
100
AcDbTextStyleTableRecord
  2
MtXpl_Arial
 70
     0
 40
0.2
 41
1.0
 50
0.0
 71
     0
 42
3.0
  3
arialbd.ttf
  4

1001
ACAD
1000
Arial
1071
 33554466
  0
STYLE
  5
7F1
330
3
100
AcDbSymbolTableRecord
100
AcDbTextStyleTableRecord
  2
MtXpl_Arial1
 70
     0
 40
0.2
 41
1.0
 50
0.0
 71
     0
 42
3.0
  3

  4

1001
ACAD
1000
Arial
1071
       34
  0
ENDTAB
  0
TABLE
  2
VIEW
  5
6
330
0
100
AcDbSymbolTable
 70
     0
  0
ENDTAB
  0
TABLE
  2
UCS
  5
7
330
0
100
AcDbSymbolTable
 70
     0
  0
ENDTAB
  0
TABLE
  2
APPID
  5
9
330
0
100
AcDbSymbolTable
 70
     2
  0
APPID
  5
12
330
9
100
AcDbSymbolTableRecord
100
AcDbRegAppTableRecord
  2
ACAD
 70
     0
  0
APPID
  5
253
330
9
100
AcDbSymbolTableRecord
100
AcDbRegAppTableRecord
  2
ACAD_MLEADERVER
 70
     0
  0
ENDTAB
  0
TABLE
  2
DIMSTYLE
  5
A
330
0
100
AcDbSymbolTable
 70
     4
100
AcDbDimStyleTable
  0
DIMSTYLE
105
27
330
A
100
AcDbSymbolTableRecord
100
AcDbDimStyleTableRecord
  2
ISO-25
 70
     0
 41
2.5
 42
0.625
 43
3.75
 44
1.25
 73
     0
 74
     0
 77
     1
 78
     8
140
2.5
141
2.5
143
0.03937007874016
147
0.625
171
     3
172
     1
178
     0
271
     2
272
     2
274
     3
278
    44
283
     0
284
     8
340
11
  0
DIMSTYLE
105
1EC
330
A
100
AcDbSymbolTableRecord
100
AcDbDimStyleTableRecord
  2
Standard
 70
     0
178
     0
340
11
  0
DIMSTYLE
105
1FE
330
A
100
AcDbSymbolTableRecord
100
AcDbDimStyleTableRecord
  2
UNE
 70
     0
 41
3.0
 42
0.0
 44
1.5
 45
10.0
 73
     0
 74
     0
 77
     1
 78
     8
140
3.0
141
1.5
144
10.0
147
1.5
172
     1
173
     1
178
     0
179
     1
271
     0
272
     0
278
    44
279
     1
284
     8
340
78
343
1F9
344
1F9
  0
DIMSTYLE
105
264
330
A
100
AcDbSymbolTableRecord
100
AcDbDimStyleTableRecord
  2
FUNDICIO15_1
 70
     0
 40
8.0
 41
9.0
 42
0.0
 43
10.0
 44
1.0
 73
     0
 74
     0
 77
     1
140
5.0
141
1.0
143
0.2
147
0.0
178
     0
271
     0
272
     0
279
     2
340
265
  0
ENDTAB
  0
TABLE
  2
BLOCK_RECORD
  5
1
330
0
100
AcDbSymbolTable
 70
    13
  0
BLOCK_RECORD
  5
1F
330
1
100
AcDbSymbolTableRecord
100
AcDbBlockTableRecord
  2
*Model_Space
340
22
  0
BLOCK_RECORD
  5
1B
330
1
100
AcDbSymbolTableRecord
100
AcDbBlockTableRecord
  2
*Paper_Space
340
1E
  0
BLOCK_RECORD
  5
76
330
1
100
AcDbSymbolTableRecord
100
AcDbBlockTableRecord
  2
SEANNOT_GROUP
340
0
102
{BLKREFS
331
77
102
}
  0
BLOCK_RECORD
  5
7C
330
1
100
AcDbSymbolTableRecord
100
AcDbBlockTableRecord
  2
SEANNOT_GROUP1
340
0
  0
BLOCK_RECORD
  5
82
330
1
100
AcDbSymbolTableRecord
100
AcDbBlockTableRecord
  2
SEANNOT_GROUP2
340
0
  0
BLOCK_RECORD
  5
92
330
1
100
AcDbSymbolTableRecord
100
AcDbBlockTableRecord
  2
SEANNOT_GROUP3
340
0
  0
BLOCK_RECORD
  5
9A
330
1
100
AcDbSymbolTableRecord
100
AcDbBlockTableRecord
  2
SE
340
0
  0
BLOCK_RECORD
  5
1AB
330
1
100
AcDbSymbolTableRecord
100
AcDbBlockTableRecord
  2
SE1
340
0
  0
BLOCK_RECORD
  5
1ED
330
1
100
AcDbSymbolTableRecord
100
AcDbBlockTableRecord
  2
_OBLIQUE
340
0
  0
BLOCK_RECORD
  5
1F1
330
1
100
AcDbSymbolTableRecord
100
AcDbBlockTableRecord
  2
_DOT
340
0
  0
BLOCK_RECORD
  5
1F9
330
1
100
AcDbSymbolTableRecord
100
AcDbBlockTableRecord
  2
_SE_FILLED
340
0
102
{BLKREFS
331
206
331
207
331
20F
331
210
331
219
331
21A
102
}
  0
BLOCK_RECORD
  5
201
330
1
100
AcDbSymbolTableRecord
100
AcDbBlockTableRecord
  2
DMBLK1
340
0
  0
BLOCK_RECORD
  5
20B
330
1
100
AcDbSymbolTableRecord
100
AcDbBlockTableRecord
  2
DMBLK2
340
0
  0
BLOCK_RECORD
  5
215
330
1
100
AcDbSymbolTableRecord
100
AcDbBlockTableRecord
  2
DMBLK3
340
0
  0
BLOCK_RECORD
  5
288
330
1
100
AcDbSymbolTableRecord
100
AcDbBlockTableRecord
  2
FRAME_2D_$a4v_0
340
0
  0
ENDTAB
  0
ENDSEC
  0
SECTION
  2
BLOCKS
  0
BLOCK
  5
20
330
1F
100
AcDbEntity
  8
0
100
AcDbBlockBegin
  2
*Model_Space
 70
     0
 10
0.0
 20
0.0
 30
0.0
  3
*Model_Space
  1

  0
ENDBLK
  5
21
330
1F
100
AcDbEntity
  8
0
100
AcDbBlockEnd
  0
BLOCK
  5
1C
330
1B
100
AcDbEntity
 67
     1
  8
0
100
AcDbBlockBegin
  2
*Paper_Space
 70
     0
 10
0.0
 20
0.0
 30
0.0
  3
*Paper_Space
  1

  0
ENDBLK
  5
1D
330
1B
100
AcDbEntity
 67
     1
  8
0
100
AcDbBlockEnd
  0
BLOCK
  5
7A
330
76
100
AcDbEntity
  8
0
100
AcDbBlockBegin
  2
SEANNOT_GROUP
 70
     0
 10
0.0
 20
0.0
 30
0.0
  3
SEANNOT_GROUP
  1

  0
TEXT
  5
79
330
76
100
AcDbEntity
  8
Predeterminado
  6
Continuous
 62
     7
100
AcDbText
 10
202.5201921067479
 20
12.7403379754914
 30
0.0
 40
1.5
  1
V 23/02/2016
 50
90.0
  7
SEACAD_Arial
 11
201.0201921067479
 21
12.7403379754914
 31
0.0
100
AcDbText
 73
     3
  0
ENDBLK
  5
7B
330
76
100
AcDbEntity
  8
0
100
AcDbBlockEnd
  0
BLOCK
  5
80
330
7C
100
AcDbEntity
  8
0
100
AcDbBlockBegin
  2
SEANNOT_GROUP1
 70
     0
 10
0.0
 20
0.0
 30
0.0
  3
SEANNOT_GROUP1
  1

  0
TEXT
  5
7F
330
7C
100
AcDbEntity
  8
Predeterminado
  6
Continuous
 62
     7
100
AcDbText
 10
99.1423329808565
 20
275.956987846381
 30
0.0
 40
6.0
  1
Classic
  7
SEACAD_ArialB
 11
99.1423329808565
 21
281.956987846381
 31
0.0
100
AcDbText
 73
     3
  0
ENDBLK
  5
81
330
7C
100
AcDbEntity
  8
0
100
AcDbBlockEnd
  0
BLOCK
  5
85
330
82
100
AcDbEntity
  8
0
100
AcDbBlockBegin
  2
SEANNOT_GROUP2
 70
     0
 10
0.0
 20
0.0
 30
0.0
  3
SEANNOT_GROUP2
  1

  0
TEXT
  5
84
330
82
100
AcDbEntity
  8
Predeterminado
  6
Continuous
 62
     7
100
AcDbText
 10
109.2161926488748
 20
271.5157094542311
 30
0.0
 40
3.0
  1
ILCL
  7
SEACAD_Arial
 11
109.2161926488748
 21
274.5157094542311
 31
0.0
100
AcDbText
 73
     3
  0
ENDBLK
  5
86
330
82
100
AcDbEntity
  8
0
100
AcDbBlockEnd
  0
BLOCK
  5
95
330
92
100
AcDbEntity
  8
0
100
AcDbBlockBegin
  2
SEANNOT_GROUP3
 70
     0
 10
0.0
 20
0.0
 30
0.0
  3
SEANNOT_GROUP3
  1

  0
TEXT
  5
94
330
92
100
AcDbEntity
  8
Predeterminado
  6
Continuous
 62
     7
100
AcDbText
 10
20.63183382684602
 20
11.1833293834742
 30
0.0
 40
1.5
  1
11 kg
  7
SEACAD_Arial
 11
20.63183382684602
 21
12.6833293834742
 31
0.0
100
AcDbText
 73
     3
  0
ENDBLK
  5
96
330
92
100
AcDbEntity
  8
0
100
AcDbBlockEnd
  0
BLOCK
  5
1A9
330
9A
100
AcDbEntity
  8
0
100
AcDbBlockBegin
  2
SE
 70
     0
 10
0.0
 20
0.0
 30
0.0
  3
SE
  1

  0
ARC
  5
9D
330
9A
100
AcDbEntity
  8
ILBGT_CÚPULA_ESS
  6
Continuous
 62
     7
100
AcDbCircle
 10
110.2189764260956
 20
194.3684768909336
 30
0.0
 40
22.5
100
AcDbArc
 50
23.02365366006396
 51
156.976346339936
  0
LINE
  5
9F
330
9A
100
AcDbEntity
  8
ESTRUCTURA_CLASS
  6
Continuous
 62
     7
100
AcDbLine
 10
135.1085701044555
 20
202.8163824376336
 30
0.0
 11
85.32938274773569
 21
202.8163824376336
 31
0.0
  0
LINE
  5
A0
330
9A
100
AcDbEntity
  8
ESTRUCTURA_CLASS
  6
Continuous
 62
     7
100
AcDbLine
 10
133.6626888626461
 20
194.6163824376335
 30
0.0
 11
111.4387716928298
 21
194.6163824376335
 31
0.0
  0
LINE
  5
A1
330
9A
100
AcDbEntity
  8
ESTRUCTURA_CLASS
  6
Continuous
 62
     7
100
AcDbLine
 10
108.9996187222922
 20
194.6163824376335
 30
0.0
 11
86.77526398954512
 21
194.6163824376335
 31
0.0
  0
SPLINE
  5
A2
330
9A
100
AcDbEntity
  8
ESTRUCTURA_CLASS
  6
Continuous
 62
     7
100
AcDbSpline
210
0.0
220
0.0
230
1.0
 70
     8
 71
     3
 72
    10
 73
     6
 74
     0
 42
0.000000001
 43
0.0000000001
 40
0.0
 40
0.0
 40
0.0
 40
0.0
 40
0.125
 40
0.125
 40
0.1413987062050771
 40
0.1413987062050771
 40
0.1413987062050771
 40
0.1413987062050771
 10
86.54254880836524
 20
195.9450085147323
 30
0.0
 10
86.55436238130085
 20
195.8742196861654
 30
0.0
 10
86.56168948079332
 20
195.8285594342972
 30
0.0
 10
86.56337739015991
 20
195.8181028456193
 30
0.0
 10
86.56347096520754
 20
195.8175298159035
 30
0.0
 10
86.56346467988753
 20
195.8175777319373
 30
0.0
  0
SPLINE
  5
A3
330
9A
100
AcDbEntity
  8
ESTRUCTURA_CLASS
  6
Continuous
 62
     7
100
AcDbSpline
210
0.0
220
0.0
230
1.0
 70
     8
 71
     3
 72
    12
 73
     8
 74
     0
 42
0.000000001
 43
0.0000000001
 40
0.6415805791994628
 40
0.6415805791994628
 40
0.6415805791994628
 40
0.6415805791994628
 40
0.75
 40
0.75
 40
0.8750000000000001
 40
0.8750000000000001
 40
1.0
 40
1.0
 40
1.0
 40
1.0
 10
86.44193590961072
 20
196.506800444395
 30
0.0
 10
86.44198876242099
 20
196.5065761089674
 30
0.0
 10
86.447173835607
 20
196.4796022025766
 30
0.0
 10
86.46723881611554
 20
196.3728578299402
 30
0.0
 10
86.4829695831843
 20
196.2877572252832
 30
0.0
 10
86.51481440221852
 20
196.1087487087667
 30
0.0
 10
86.53073523542962
 20
196.0157973432993
 30
0.0
 10
86.54254880836524
 20
195.9450085147323
 30
0.0
  0
ARC
  5
A4
330
9A
100
AcDbEntity
  8
ESTRUCTURA_CLASS
  6
Continuous
 62
     7
100
AcDbCircle
 10
157.6488827198791
 20
191.9808251643154
 30
0.0
 40
24.08199299715818
100
AcDbArc
 50
169.1672561487401
 51
170.8327430666591
  0
ARC
  5
A5
330
9A
100
AcDbEntity
  8
ESTRUCTURA_CLASS
  6
Continuous
 62
     7
100
AcDbCircle
 10
85.62482507363937
 20
202.8684768909336
 30
0.0
 40
0.3000000000000003
100
AcDbArc
 50
90.0
 51
189.9999999999985
  0
ARC
  5
A6
330
9A
100
AcDbEntity
  8
ESTRUCTURA_CLASS
  6
Continuous
 62
     7
100
AcDbCircle
 10
134.8131277785518
 20
202.8684768909336
 30
0.0
 40
0.300000000000001
100
AcDbArc
 50
350.0000000000019
 51
90.0
  0
LINE
  5
A7
330
9A
100
AcDbEntity
  8
ESTRUCTURA_CLASS
  6
Continuous
 62
     7
100
AcDbLine
 10
134.8131277785518
 20
203.1684768909336
 30
0.0
 11
85.62482507363936
 21
203.1684768909336
 31
0.0
  0
LINE
  5
A8
330
9A
100
AcDbEntity
  8
ESTRUCTURA_CLASS
  6
Continuous
 62
     7
100
AcDbLine
 10
85.32938274773572
 20
202.8163824376336
 30
0.0
 11
86.41342437046615
 21
196.6684768909336
 31
0.0
  0
LINE
  5
A9
330
9A
100
AcDbEntity
  8
ESTRUCTURA_CLASS
  6
Continuous
 62
     7
100
AcDbLine
 10
133.9958093716437
 20
196.5056027240537
 30
0.0
 11
135.1085701044555
 21
202.8163824376336
 31
0.0
  0
LINE
  5
AA
330
9A
100
AcDbEntity
  8
ESTRUCTURA_CLASS
  6
Continuous
 62
     7
100
AcDbLine
 10
133.6626888626461
 20
194.6163824376335
 30
0.0
 11
133.8751158650838
 21
195.8211158345541
 31
0.0
  0
ARC
  5
AB
330
9A
100
AcDbEntity
  8
ESTRUCTURA_CLASS
  6
Continuous
 62
     7
100
AcDbCircle
 10
87.07070631544877
 20
194.6684768909336
 30
0.0
 40
0.3000000000000014
100
AcDbArc
 50
190.0000000000097
 51
270.0
  0
ARC
  5
AC
330
9A
100
AcDbEntity
  8
ESTRUCTURA_CLASS
  6
Continuous
 62
     7
100
AcDbCircle
 10
133.3672465367424
 20
194.6684768909336
 30
0.0
 40
0.3
100
AcDbArc
 50
270.0
 51
349.9999999999903
  0
LINE
  5
AD
330
9A
100
AcDbEntity
  8
ESTRUCTURA_CLASS
  6
Continuous
 62
     7
100
AcDbLine
 10
87.07070631544877
 20
194.3684768909336
 30
0.0
 11
108.9934369047594
 21
194.3684768909336
 31
0.0
  0
LINE
  5
AE
330
9A
100
AcDbEntity
  8
ESTRUCTURA_CLASS
  6
Continuous
 62
     7
100
AcDbLine
 10
111.446118645499
 20
194.3684768909336
 30
0.0
 11
133.3672465367424
 21
194.3684768909336
 31
0.0
  0
LINE
  5
B0
330
9A
100
AcDbEntity
  8
PILAR_TORNILLO
  6
Continuous
 62
     7
100
AcDbLine
 10
124.8868898178481
 20
149.8691896147153
 30
0.0
 11
124.8750534829425
 21
149.8696029486382
 31
0.0
  0
LINE
  5
B1
330
9A
100
AcDbEntity
  8
PILAR_TORNILLO
  6
Continuous
 62
     7
100
AcDbLine
 10
124.5189764260956
 20
151.5684768909336
 30
0.0
 11
124.5183620993713
 21
151.591937082039
 31
0.0
  0
LINE
  5
B2
330
9A
100
AcDbEntity
  8
PILAR_TORNILLO
  6
Continuous
 62
     7
100
AcDbLine
 10
124.8920115325562
 20
149.9663321494614
 30
0.0
 11
124.9039358347395
 21
149.9659157436535
 31
0.0
  0
LINE
  5
B3
330
9A
100
AcDbEntity
  8
PILAR_TORNILLO
  6
Continuous
 62
     7
100
AcDbLine
 10
133.4077662912715
 20
194.3238390003459
 30
0.0
 11
132.446259801406
 21
194.3227152332509
 31
0.0
  0
LINE
  5
B4
330
9A
100
AcDbEntity
  8
PILAR_TORNILLO
  6
Continuous
 62
     7
100
AcDbLine
 10
133.6451879109647
 20
194.517129608537
 30
0.0
 11
133.6626888626461
 21
194.6163824376335
 31
0.0
  0
LINE
  5
B5
330
9A
100
AcDbEntity
  8
PILAR_TORNILLO
  6
Continuous
 62
     7
100
AcDbLine
 10
133.8751158650837
 20
195.8211158345541
 30
0.0
 11
133.882491156659
 21
195.8629431915791
 31
0.0
  0
LINE
  5
B6
330
9A
100
AcDbEntity
  8
PILAR_TORNILLO
  6
Continuous
 62
     7
100
AcDbLine
 10
133.5052807578146
 20
194.3240837632065
 30
0.0
 11
133.4077662912715
 21
194.323839000346
 31
0.0
  0
LINE
  5
B7
330
9A
100
AcDbEntity
  8
PILAR_TORNILLO
  6
Continuous
 62
     7
100
AcDbLine
 10
133.5052807578146
 20
194.3240837632065
 30
0.0
 11
133.468030500712
 21
194.3684768909336
 31
0.0
  0
LINE
  5
B8
330
9A
100
AcDbEntity
  8
PILAR_TORNILLO
  6
Continuous
 62
     7
100
AcDbLine
 10
133.6451879109647
 20
194.517129608537
 30
0.0
 11
133.6817258598155
 21
194.4735853767282
 31
0.0
  0
ARC
  5
B9
330
9A
100
AcDbEntity
  8
PILAR_TORNILLO
  6
Continuous
 62
     7
100
AcDbCircle
 10
133.5039460719035
 20
194.5045319964334
 30
0.0
 40
0.1804531691636549
100
AcDbArc
 50
270.423780681108
 51
350.1253104468208
  0
ELLIPSE
  5
BA
330
9A
100
AcDbEntity
  8
PILAR_TORNILLO
  6
Continuous
 62
     7
100
AcDbEllipse
 10
133.4678464281724
 20
194.5485866089074
 30
0.0
 11
-0.1158219254041359
 21
0.1380311957015576
 31
0.0
210
0.0
220
0.0
230
1.0
 40
0.9989625827740335
 41
2.443972000064438
 42
3.839213307115041
  0
LINE
  5
BB
330
9A
100
AcDbEntity
  8
PILAR_TORNILLO
  6
Continuous
 62
     7
100
AcDbLine
 10
133.3672465367424
 20
194.3684768909336
 30
0.0
 11
133.468030500712
 21
194.3684768909336
 31
0.0
  0
LINE
  5
BC
330
9A
100
AcDbEntity
  8
PILAR_TORNILLO
  6
Continuous
 62
     7
100
AcDbLine
 10
132.489685993061
 20
194.3684768909336
 30
0.0
 11
132.446259801406
 21
194.3227152332509
 31
0.0
  0
ELLIPSE
  5
BD
330
9A
100
AcDbEntity
  8
PILAR_TORNILLO
  6
Continuous
 62
     7
100
AcDbEllipse
 10
132.4463893072563
 20
194.5027420528056
 30
0.0
 11
0.1625444438710572
 21
0.07820757497467026
 31
0.0
210
0.0
220
0.0
230
0.9999999999999999
 40
0.9975857022579594
 41
3.533940579451381
 42
4.264163592889611
  0
LINE
  5
BE
330
9A
100
AcDbEntity
  8
PILAR_TORNILLO
  6
Continuous
 62
     7
100
AcDbLine
 10
130.0921068815028
 20
194.3199638013928
 30
0.0
 11
129.9671766661782
 21
194.319817788374
 31
0.0
  0
LINE
  5
BF
330
9A
100
AcDbEntity
  8
PILAR_TORNILLO
  6
Continuous
 62
     7
100
AcDbLine
 10
130.0921068815028
 20
194.3199638013928
 30
0.0
 11
130.045258335502
 21
194.3684768909336
 31
0.0
  0
ELLIPSE
  5
C0
330
9A
100
AcDbEntity
  8
PILAR_TORNILLO
  6
Continuous
 62
     7
100
AcDbEllipse
 10
130.0919753878667
 20
194.4999903159026
 30
0.0
 11
0.04914066329840816
 21
0.1732016189691972
 31
0.0
210
0.0
220
0.0
230
0.9999999999999998
 40
0.9991682270635435
 41
3.418996541550095
 42
4.169538853854172
  0
LINE
  5
C1
330
9A
100
AcDbEntity
  8
PILAR_TORNILLO
  6
Continuous
 62
     7
100
AcDbLine
 10
134.0656958288797
 20
196.6684768909336
 30
0.0
 11
134.0245284817251
 21
196.6684768909336
 31
0.0
  0
LINE
  5
C2
330
9A
100
AcDbEntity
  8
PILAR_TORNILLO
  6
Continuous
 62
     7
100
AcDbLine
 10
134.0656958288797
 20
196.6684768909336
 30
0.0
 11
134.9529792860729
 21
196.6684768909336
 31
0.0
  0
LINE
  5
C3
330
9A
100
AcDbEntity
  8
PILAR_TORNILLO
  6
Continuous
 62
     7
100
AcDbLine
 10
135.0511420044176
 20
196.549395991396
 30
0.0
 11
125.9347055058586
 21
149.6493959913959
 31
0.0
  0
LINE
  5
C4
330
9A
100
AcDbEntity
  8
PILAR_TORNILLO
  6
Continuous
 62
     7
100
AcDbLine
 10
134.0510100097664
 20
196.5639212742842
 30
0.0
 11
133.6817258598155
 21
194.4735853767282
 31
0.0
  0
LINE
  5
C5
330
9A
100
AcDbEntity
  8
PILAR_TORNILLO
  6
Continuous
 62
     7
100
AcDbLine
 10
135.0511420044176
 20
196.549395991396
 30
0.0
 11
134.0510100097664
 21
196.5639212742842
 31
0.0
  0
ARC
  5
C6
330
9A
100
AcDbEntity
  8
PILAR_TORNILLO
  6
Continuous
 62
     7
100
AcDbCircle
 10
133.3134622400621
 20
196.7208259799993
 30
0.0
 40
0.7540529154318747
100
AcDbArc
 50
347.9900341531414
 51
356.0191170044135
  0
ARC
  5
C7
330
9A
100
AcDbEntity
  8
PILAR_TORNILLO
  6
Continuous
 62
     7
100
AcDbCircle
 10
134.9529792860729
 20
196.5684768909336
 30
0.0
 40
0.1000000000000001
100
AcDbArc
 50
349.0000000000059
 51
90.0
  0
LINE
  5
C8
330
9A
100
AcDbEntity
  8
PILAR_TORNILLO
  6
Continuous
 62
     7
100
AcDbLine
 10
129.9671766661782
 20
194.3198177883741
 30
0.0
 11
124.3557070980074
 21
151.6964747375091
 31
0.0
  0
LINE
  5
C9
330
9A
100
AcDbEntity
  8
PILAR_TORNILLO
  6
Continuous
 62
     7
100
AcDbLine
 10
133.9866800632591
 20
196.4538278433864
 30
0.0
 11
133.9958093716437
 21
196.5056027240536
 31
0.0
  0
LINE
  5
CA
330
9A
100
AcDbEntity
  8
PILAR_TORNILLO
  6
Continuous
 62
     7
100
AcDbLine
 10
124.8512856175129
 20
149.6671567002638
 30
0.0
 11
125.1699732476223
 21
151.4755217275502
 31
0.0
  0
LINE
  5
CB
330
9A
100
AcDbEntity
  8
PILAR_TORNILLO
  6
Continuous
 62
     7
100
AcDbLine
 10
125.0334087163986
 20
149.6671567002634
 30
0.0
 11
133.4077662912715
 21
194.323839000346
 31
0.0
  0
LINE
  5
CC
330
9A
100
AcDbEntity
  8
PILAR_TORNILLO
  6
Continuous
 62
     7
100
AcDbLine
 10
124.8512856175128
 20
149.6671567002635
 30
0.0
 11
125.0334087163986
 21
149.6671567002634
 31
0.0
  0
LINE
  5
CD
330
9A
100
AcDbEntity
  8
PILAR_TORNILLO
  6
Continuous
 62
     7
100
AcDbLine
 10
125.8365427875138
 20
149.5684768909336
 30
0.0
 11
125.0300624584892
 21
149.5684768909336
 31
0.0
  0
LINE
  5
CE
330
9A
100
AcDbEntity
  8
PILAR_TORNILLO
  6
Continuous
 62
     7
100
AcDbLine
 10
125.0300624584892
 20
149.5684768909336
 30
0.0
 11
124.8401542788412
 21
149.5684768909336
 31
0.0
  0
SPLINE
  5
CF
330
9A
100
AcDbEntity
  8
PILAR_TORNILLO
  6
Continuous
 62
     7
100
AcDbSpline
210
0.0
220
0.0
230
1.0
 70
     8
 71
     3
 72
    14
 73
    10
 74
     0
 42
0.000000001
 43
0.0000000001
 40
0.0
 40
0.0
 40
0.0
 40
0.0
 40
0.25
 40
0.25
 40
0.5
 40
0.5
 40
0.75
 40
0.75
 40
1.0
 40
1.0
 40
1.0
 40
1.0
 10
124.8401542788412
 20
149.5684768909336
 30
0.0
 10
124.8393684238642
 20
149.5684768909336
 30
0.0
 10
124.839029282172
 20
149.5710387033506
 30
0.0
 10
124.8392759734965
 20
149.5809651309812
 30
0.0
 10
124.8398709142109
 20
149.5883309020571
 30
0.0
 10
124.8419094350446
 20
149.606586440442
 30
0.0
 10
124.8433705691096
 20
149.6176112967194
 30
0.0
 10
124.8469028670618
 20
149.6413164396215
 30
0.0
 10
124.849003452773
 20
149.6542068435297
 30
0.0
 10
124.8512856175128
 20
149.6671567002635
 30
0.0
  0
LINE
  5
D0
330
9A
100
AcDbEntity
  8
PILAR_TORNILLO
  6
Continuous
 62
     7
100
AcDbLine
 10
125.0334087163986
 20
149.6671567002634
 30
0.0
 11
125.9347055058586
 21
149.6493959913959
 31
0.0
  0
ARC
  5
D1
330
9A
100
AcDbEntity
  8
PILAR_TORNILLO
  6
Continuous
 62
     7
100
AcDbCircle
 10
125.8365427875138
 20
149.6684768909336
 30
0.0
 40
0.1000000000000001
100
AcDbArc
 50
270.0
 51
349.0000000000074
  0
ELLIPSE
  5
D2
330
9A
100
AcDbEntity
  8
PILAR_TORNILLO
  6
Continuous
 62
     7
100
AcDbEllipse
 10
125.0300624584892
 20
149.6684768909336
 30
0.0
 11
0.0
 21
-0.1000000000000001
 31
0.0
210
0.0
220
0.0
230
1.0
 40
0.0334654955769778
 41
0.0
 42
1.557594036569112
  0
ELLIPSE
  5
D3
330
9A
100
AcDbEntity
  8
PILAR_TORNILLO
  6
Continuous
 62
     7
100
AcDbEllipse
 10
129.9625856027019
 20
194.3250515135119
 30
0.0
 11
-0.1512951228284682
 21
-1.786792064961511E-5
 31
0.0
210
0.0
220
0.0
230
1.0
 40
0.0346123398190946
 41
1.43541590363141
 42
1.601141983850743
  0
LINE
  5
D4
330
9A
100
AcDbEntity
  8
PILAR_TORNILLO
  6
Continuous
 62
     7
100
AcDbLine
 10
129.9485668173315
 20
194.3684768909336
 30
0.0
 11
129.9421663268485
 21
194.3198603390239
 31
0.0
  0
ELLIPSE
  5
D5
330
9A
100
AcDbEntity
  8
PILAR_TORNILLO
  6
Continuous
 62
     7
100
AcDbEllipse
 10
129.942831762767
 20
194.1750062025855
 30
0.0
 11
0.1487167292060721
 21
-0.01957892883300591
 31
0.0
210
0.0
220
0.0
230
1.0
 40
0.9651000141467365
 41
1.701615821973416
 42
3.141592653589793
  0
LINE
  5
D6
330
9A
100
AcDbEntity
  8
PILAR_TORNILLO
  6
Continuous
 62
     7
100
AcDbLine
 10
129.7941150335609
 20
194.1945851314185
 30
0.0
 11
129.7998260210494
 21
194.2379643881218
 31
0.0
  0
ELLIPSE
  5
D7
330
9A
100
AcDbEntity
  8
PILAR_TORNILLO
  6
Continuous
 62
     7
100
AcDbEllipse
 10
129.9485427502554
 20
194.2183854592888
 30
0.0
 11
-0.01959106984187488
 21
-0.1488089493241071
 31
0.0
210
0.0
220
0.0
230
1.0
 40
0.9993802784143399
 41
3.272412148768236
 42
4.712388980384171
  0
LINE
  5
D8
330
9A
100
AcDbEntity
  8
PILAR_TORNILLO
  6
Continuous
 62
     7
100
AcDbLine
 10
124.3488708904279
 20
151.5978558454773
 30
0.0
 11
124.2969182576175
 21
151.5996700713922
 31
0.0
  0
LINE
  5
D9
330
9A
100
AcDbEntity
  8
PILAR_TORNILLO
  6
Continuous
 62
     7
100
AcDbLine
 10
124.3557070980075
 20
151.6964747375091
 30
0.0
 11
125.2036929160811
 21
151.6668624202239
 31
0.0
  0
LINE
  5
DA
330
9A
100
AcDbEntity
  8
PILAR_TORNILLO
  6
Continuous
 62
     7
100
AcDbLine
 10
124.2012637211504
 20
151.7126617733161
 30
0.0
 11
129.7941150335609
 21
194.1945851314185
 31
0.0
  0
ELLIPSE
  5
DB
330
9A
100
AcDbEntity
  8
PILAR_TORNILLO
  6
Continuous
 62
     7
100
AcDbEllipse
 10
124.3506088624972
 20
151.6978561085852
 30
0.0
 11
0.1493451599961061
 21
-0.01480550308050056
 31
0.0
210
0.0
220
0.0
230
1.0
 40
0.0058117030548405
 41
3.14140611250933
 42
4.747109024668476
  0
ARC
  5
DC
330
9A
100
AcDbEntity
  8
PILAR_TORNILLO
  6
Continuous
 62
     7
100
AcDbCircle
 10
124.3004082072878
 20
151.6996091540941
 30
0.0
 40
0.0999999999999987
100
AcDbArc
 50
172.5000000000148
 51
268.0000000000064
  0
ELLIPSE
  5
DD
330
9A
100
AcDbEntity
  8
PILAR_TORNILLO
  6
Continuous
 62
     7
100
AcDbEllipse
 10
124.3523608400981
 20
151.6977949281792
 30
0.0
 11
0.00348994967024896
 21
0.09993908270191088
 31
0.0
210
0.0
220
0.0
230
0.9999999999999999
 40
0.0339053863755874
 41
3.14159265358854
 42
4.700362653199096
  0
LINE
  5
DE
330
9A
100
AcDbEntity
  8
PILAR_TORNILLO
  6
Continuous
 62
     7
100
AcDbLine
 10
125.1699732476223
 20
151.4755217275502
 30
0.0
 11
125.181654766041
 21
151.541807931877
 31
0.0
  0
LINE
  5
DF
330
9A
100
AcDbEntity
  8
PILAR_TORNILLO
  6
Continuous
 62
     7
100
AcDbLine
 10
125.0771454769749
 20
151.5724239365138
 30
0.0
 11
124.3488708904279
 21
151.5978558454773
 31
0.0
  0
SPLINE
  5
E0
330
9A
100
AcDbEntity
  8
PILAR_TORNILLO
  6
Continuous
 62
     7
100
AcDbSpline
210
0.0
220
0.0
230
1.0
 70
     8
 71
     3
 72
    17
 73
    13
 74
     0
 42
0.000000001
 43
0.0000000001
 40
0.0
 40
0.0
 40
0.0
 40
0.0
 40
0.0743744119252762
 40
0.1517864070122652
 40
0.233825427713918
 40
0.3218305671599357
 40
0.4168891151407351
 40
0.519865177608816
 40
0.6406158576448
 40
0.7687520105997308
 40
0.8781598041011244
 40
1.0
 40
1.0
 40
1.0
 40
1.0
 10
125.0733539833571
 20
151.5827231589845
 30
0.0
 10
125.073410450412
 20
151.5833965789799
 30
0.0
 10
125.0735256907369
 20
151.5847709226398
 30
0.0
 10
125.074615710746
 20
151.5870645025102
 30
0.0
 10
125.0763619996696
 20
151.5895609396968
 30
0.0
 10
125.0788324380956
 20
151.5922845911898
 30
0.0
 10
125.082000695285
 20
151.5952382557309
 30
0.0
 10
125.0859906555795
 20
151.5985219418778
 30
0.0
 10
125.0907930420305
 20
151.6021327339107
 30
0.0
 10
125.0960229264694
 20
151.6057791946566
 30
0.0
 10
125.1015182452965
 20
151.6093840443542
 30
0.0
 10
125.1051867325438
 20
151.6116857902213
 30
0.0
 10
125.1071195891538
 20
151.6128985366243
 30
0.0
  0
SPLINE
  5
E1
330
9A
100
AcDbEntity
  8
PILAR_TORNILLO
  6
Continuous
 62
     7
100
AcDbSpline
210
0.0
220
0.0
230
1.0
 70
     8
 71
     3
 72
    10
 73
     6
 74
     0
 42
0.000000001
 43
0.0000000001
 40
0.0
 40
0.0
 40
0.0
 40
0.0
 40
0.5
 40
0.5
 40
1.0
 40
1.0
 40
1.0
 40
1.0
 10
125.0771454769749
 20
151.5724239365138
 30
0.0
 10
125.0759798586438
 20
151.5724646408029
 30
0.0
 10
125.0750774645196
 20
151.573347595909
 30
0.0
 10
125.0737978621815
 20
151.5767815392792
 30
0.0
 10
125.0734259633568
 20
151.579382749433
 30
0.0
 10
125.0733539833571
 20
151.5827231589845
 30
0.0
  0
SPLINE
  5
E2
330
9A
100
AcDbEntity
  8
PILAR_TORNILLO
  6
Continuous
 62
     7
100
AcDbSpline
210
0.0
220
0.0
230
1.0
 70
     8
 71
     3
 72
    14
 73
    10
 74
     0
 42
0.000000001
 43
0.0000000001
 40
0.0
 40
0.0
 40
0.0
 40
0.0
 40
0.25
 40
0.25
 40
0.5
 40
0.5
 40
0.75
 40
0.75
 40
1.0
 40
1.0
 40
1.0
 40
1.0
 10
125.1699732476223
 20
151.4755217275502
 30
0.0
 10
125.1726484394942
 20
151.4883060450831
 30
0.0
 10
125.1721753174055
 20
151.501638867279
 30
0.0
 10
125.1650194934309
 20
151.5269484603929
 30
0.0
 10
125.1583410228101
 20
151.5389102656556
 30
0.0
 10
125.1400117133936
 20
151.5592470817305
 30
0.0
 10
125.128371712786
 20
151.5676100673086
 30
0.0
 10
125.1022826238903
 20
151.5791865162765
 30
0.0
 10
125.0878489621761
 20
151.5823931344695
 30
0.0
 10
125.0733539833571
 20
151.5827231589845
 30
0.0
  0
ELLIPSE
  5
E3
330
9A
100
AcDbEntity
  8
PILAR_TORNILLO
  6
Continuous
 62
     7
100
AcDbEllipse
 10
125.0736555273047
 20
151.4724848538119
 30
0.0
 11
-0.003489949667542791
 21
-0.09993908270199971
 31
0.0
210
0.0
220
0.0
230
1.0
 40
0.9982154291833687
 41
2.627831361548338
 42
3.141592653562626
  0
LINE
  5
E4
330
9A
100
AcDbEntity
  8
PILAR_TORNILLO
  6
Continuous
 62
     7
100
AcDbLine
 10
125.181654766041
 20
151.541807931877
 30
0.0
 11
125.2036929160811
 21
151.6668624202239
 31
0.0
  0
ARC
  5
E5
330
9A
100
AcDbEntity
  8
PILAR_TORNILLO
  6
Continuous
 62
     7
100
AcDbCircle
 10
126.1878748451307
 20
149.7921830875761
 30
0.0
 40
2.11731827312857
100
AcDbArc
 50
117.698880518851
 51
120.6928691101559
  0
ELLIPSE
  5
E6
330
9A
100
AcDbEntity
  8
PILAR_TORNILLO
  6
Continuous
 62
     7
100
AcDbEllipse
 10
125.1078258973251
 20
151.5543342365436
 30
0.0
 11
0.07763322498442195
 21
-0.06303239150182716
 31
0.0
210
0.0
220
0.0
230
1.0
 40
0.4855625275184201
 41
0.8604272616966497
 42
1.954791944126228
  0
LINE
  5
E7
330
9A
100
AcDbEntity
  8
PILAR_TORNILLO
  6
Continuous
 62
     7
100
AcDbLine
 10
125.1714693838813
 20
151.4980637479941
 30
0.0
 11
125.1726794488847
 21
151.4908779312031
 31
0.0
  0
ARC
  5
E8
330
9A
100
AcDbEntity
  8
PILAR_TORNILLO
  6
Continuous
 62
     7
100
AcDbCircle
 10
125.0818398287521
 20
151.4782223170202
 30
0.0
 40
0.0898960510716978
100
AcDbArc
 50
14.33019680700684
 51
61.37790169351496
  0
ARC
  5
E9
330
9A
100
AcDbEntity
  8
PILAR_TORNILLO
  6
Continuous
 62
     7
100
AcDbCircle
 10
125.0818398287521
 20
151.4782223170202
 30
0.0
 40
0.0898960510716978
100
AcDbArc
 50
6.748289213645073
 51
7.090110933373078
  0
LINE
  5
EB
330
9A
100
AcDbEntity
  8
BASE_CLASSIC
  6
Continuous
 62
     7
100
AcDbLine
 10
95.4082330162401
 20
151.5684768909336
 30
0.0
 11
109.2601876784483
 21
151.5684768909336
 31
0.0
  0
LINE
  5
EC
330
9A
100
AcDbEntity
  8
BASE_CLASSIC
  6
Continuous
 62
     7
100
AcDbLine
 10
124.7182844703543
 20
149.4684768909336
 30
0.0
 11
95.71966838183685
 21
149.4684768909336
 31
0.0
  0
LINE
  5
ED
330
9A
100
AcDbEntity
  8
BASE_CLASSIC
  6
Continuous
 62
     7
100
AcDbLine
 10
124.8364614007158
 20
149.5676391096136
 30
0.0
 11
111.0990977264651
 21
149.5676391096136
 31
0.0
  0
LINE
  5
EE
330
9A
100
AcDbEntity
  8
BASE_CLASSIC
  6
Continuous
 62
     7
100
AcDbLine
 10
109.3560661410722
 20
149.5676391096136
 30
0.0
 11
95.60149145147541
 21
149.5676391096136
 31
0.0
  0
LINE
  5
EF
330
9A
100
AcDbEntity
  8
BASE_CLASSIC
  6
Continuous
 62
     7
100
AcDbLine
 10
115.9189764260956
 20
131.3684768909336
 30
0.0
 11
104.5189764260956
 21
131.3684768909336
 31
0.0
  0
LINE
  5
F0
330
9A
100
AcDbEntity
  8
BASE_CLASSIC
  6
Continuous
 62
     7
100
AcDbLine
 10
111.179065741598
 20
151.5684768909336
 30
0.0
 11
125.0297198359511
 21
151.5684768909336
 31
0.0
  0
LINE
  5
F1
330
9A
100
AcDbEntity
  8
BASE_CLASSIC
  6
Continuous
 62
     7
100
AcDbLine
 10
125.1482001056063
 20
151.4276391096136
 30
0.0
 11
111.1771708619877
 21
151.4276391096136
 31
0.0
  0
LINE
  5
F2
330
9A
100
AcDbEntity
  8
BASE_CLASSIC
  6
Continuous
 62
     7
100
AcDbLine
 10
109.2602970737372
 20
151.4276391096136
 30
0.0
 11
95.28975274658492
 21
151.4276391096136
 31
0.0
  0
ARC
  5
F3
330
9A
100
AcDbEntity
  8
BASE_CLASSIC
  6
Continuous
 62
     7
100
AcDbCircle
 10
95.40818460854564
 20
151.448262755515
 30
0.0
 40
0.1202141451649939
100
AcDbArc
 50
89.97692820042168
 51
189.878391473079
  0
ARC
  5
F4
330
9A
100
AcDbEntity
  8
BASE_CLASSIC
  6
Continuous
 62
     7
100
AcDbCircle
 10
125.0297823516329
 20
151.4482746239081
 30
0.0
 40
0.1202022832823329
100
AcDbArc
 50
350.1148815174578
 51
90.02979880903172
  0
LINE
  5
F5
330
9A
100
AcDbEntity
  8
BASE_CLASSIC
  6
Continuous
 62
     7
100
AcDbLine
 10
95.56529563460981
 20
149.8559345823687
 30
0.0
 11
95.55074676549368
 21
149.8554265246639
 31
0.0
  0
LINE
  5
F6
330
9A
100
AcDbEntity
  8
BASE_CLASSIC
  6
Continuous
 62
     7
100
AcDbLine
 10
95.28975274658492
 20
151.4276391096136
 30
0.0
 11
95.56529563460983
 21
149.8559345823687
 31
0.0
  0
LINE
  5
F7
330
9A
100
AcDbEntity
  8
BASE_CLASSIC
  6
Continuous
 62
     7
100
AcDbLine
 10
124.8726572175814
 20
149.8559345823687
 30
0.0
 11
125.1482001056063
 21
151.4276391096136
 31
0.0
  0
LINE
  5
F8
330
9A
100
AcDbEntity
  8
BASE_CLASSIC
  6
Continuous
 62
     7
100
AcDbLine
 10
111.4689764260956
 20
141.0684768909336
 30
0.0
 11
115.6263787599339
 21
141.0684768909336
 31
0.0
  0
LINE
  5
F9
330
9A
100
AcDbEntity
  8
BASE_CLASSIC
  6
Continuous
 62
     7
100
AcDbLine
 10
115.8016428149743
 20
140.9184768909336
 30
0.0
 11
111.3695571448999
 21
140.9184768909336
 31
0.0
  0
LINE
  5
FA
330
9A
100
AcDbEntity
  8
BASE_CLASSIC
  6
Continuous
 62
     7
100
AcDbLine
 10
115.6263787599339
 20
141.0684768909336
 30
0.0
 11
115.6588884196425
 21
141.0650892037112
 31
0.0
  0
LINE
  5
FB
330
9A
100
AcDbEntity
  8
BASE_CLASSIC
  6
Continuous
 62
     7
100
AcDbLine
 10
104.8115740922573
 20
141.0684768909336
 30
0.0
 11
108.9689764260956
 21
141.0684768909336
 31
0.0
  0
LINE
  5
FC
330
9A
100
AcDbEntity
  8
BASE_CLASSIC
  6
Continuous
 62
     7
100
AcDbLine
 10
109.0683957072914
 20
140.9184768909336
 30
0.0
 11
104.6363100372169
 21
140.9184768909336
 31
0.0
  0
ARC
  5
FD
330
9A
100
AcDbEntity
  8
BASE_CLASSIC
  6
Continuous
 62
     7
100
AcDbCircle
 10
123.6964115906868
 20
141.569223842035
 30
0.0
 40
8.053317978239228
100
AcDbArc
 50
100.8038010418844
 51
183.5890406538824
  0
ARC
  5
FE
330
9A
100
AcDbEntity
  8
BASE_CLASSIC
  6
Continuous
 62
     7
100
AcDbCircle
 10
123.6997669556699
 20
141.560462661051
 30
0.0
 40
7.909178957995517
100
AcDbArc
 50
89.01669207833073
 51
183.5663523263339
  0
ARC
  5
FF
330
9A
100
AcDbEntity
  8
BASE_CLASSIC
  6
Continuous
 62
     7
100
AcDbCircle
 10
118.2259626461063
 20
140.9246567778779
 30
0.0
 40
2.424327707761707
100
AcDbArc
 50
176.5990049636092
 51
180.146053614005
  0
SPLINE
  5
100
330
9A
100
AcDbEntity
  8
BASE_CLASSIC
  6
Continuous
 62
     7
100
AcDbSpline
210
0.0
220
0.0
230
1.0
 70
     8
 71
     3
 72
    20
 73
    16
 74
     0
 42
0.000000001
 43
0.0000000001
 40
0.0
 40
0.0
 40
0.0
 40
0.0
 40
0.0624999999999322
 40
0.0624999999999322
 40
0.1249999999998643
 40
0.1249999999998643
 40
0.2499999999998345
 40
0.2499999999998345
 40
0.4999999999998698
 40
0.4999999999998698
 40
0.749999999999905
 40
0.749999999999905
 40
0.8749999999999525
 40
0.8749999999999525
 40
1.0
 40
1.0
 40
1.0
 40
1.0
 10
115.8016428149746
 20
140.9184768909335
 30
0.0
 10
115.8017307585256
 20
140.9236541631575
 30
0.0
 10
115.8010352089393
 20
140.9285665640245
 30
0.0
 10
115.7991345051869
 20
140.9373561845576
 30
0.0
 10
115.7979371601447
 20
140.9413621511912
 30
0.0
 10
115.7939081167967
 20
140.9530655266135
 30
0.0
 10
115.7905938684313
 20
140.9604498336317
 30
0.0
 10
115.7790363466908
 20
140.9821569940378
 30
0.0
 10
115.7693352428313
 20
140.9956907236969
 30
0.0
 10
115.7453233775037
 20
141.0212139645737
 30
0.0
 10
115.730912673806
 20
141.0331583380234
 30
0.0
 10
115.7060321251885
 20
141.0480272988484
 30
0.0
 10
115.6970751224038
 20
141.0525257541697
 30
0.0
 10
115.6785845914354
 20
141.0599604875185
 30
0.0
 10
115.6689655801537
 20
141.062963070544
 30
0.0
 10
115.6588884196425
 20
141.0650892037112
 30
0.0
  0
LINE
  5
101
330
9A
100
AcDbEntity
  8
BASE_CLASSIC
  6
Continuous
 62
     7
100
AcDbLine
 10
111.3486706269899
 20
141.0684768909336
 30
0.0
 11
109.0892822252013
 21
141.0684768909336
 31
0.0
  0
SPLINE
  5
102
330
9A
100
AcDbEntity
  8
BASE_CLASSIC
  6
Continuous
 62
     7
100
AcDbSpline
210
0.0
220
0.0
230
1.0
 70
     8
 71
     3
 72
    30
 73
    26
 74
     0
 42
0.000000001
 43
0.0000000001
 40
0.0
 40
0.0
 40
0.0
 40
0.0
 40
0.0624999999999996
 40
0.0624999999999996
 40
0.1249999999999993
 40
0.1249999999999993
 40
0.2499999999999986
 40
0.2499999999999986
 40
0.3124999999999982
 40
0.3124999999999982
 40
0.3749999999999978
 40
0.3749999999999978
 40
0.499999999999998
 40
0.499999999999998
 40
0.6249999999999981
 40
0.6249999999999981
 40
0.6874999999999984
 40
0.6874999999999984
 40
0.7499999999999988
 40
0.7499999999999988
 40
0.8749999999999997
 40
0.8749999999999997
 40
0.9375000000000002
 40
0.9375000000000002
 40
0.9568851929734056
 40
0.9568851929734056
 40
0.9568851929734056
 40
0.9568851929734056
 10
111.3486701960406
 20
141.0684768909336
 30
0.0
 10
111.3410670150696
 20
141.3419457241357
 30
0.0
 10
111.3334509986755
 20
141.6155403178556
 30
0.0
 10
111.3179024818265
 20
142.1618655385774
 30
0.0
 10
111.3100583634264
 20
142.4355358612467
 30
0.0
 10
111.2867530697648
 20
143.2432398265004
 30
0.0
 10
111.2714316409097
 20
143.7671524215913
 30
0.0
 10
111.248825705506
 20
144.5314811650336
 30
0.0
 10
111.2413155098597
 20
144.7838411616693
 30
0.0
 10
111.226621124599
 20
145.2750508319172
 30
0.0
 10
111.2194732925009
 20
145.5126622540334
 30
0.0
 10
111.1986213251711
 20
146.2021512892153
 30
0.0
 10
111.1855071761839
 20
146.6310395604954
 30
0.0
 10
111.1610297684859
 20
147.4239848071746
 30
0.0
 10
111.1500982069552
 20
147.7743147918571
 30
0.0
 10
111.1356288084283
 20
148.2336195699351
 30
0.0
 10
111.1311325729694
 20
148.3755523421354
 30
0.0
 10
111.1228196400327
 20
148.6365898350803
 30
0.0
 10
111.1190036603711
 20
148.7556272099713
 30
0.0
 10
111.1088601030445
 20
149.0696811254989
 30
0.0
 10
111.1037287097836
 20
149.2255504630944
 30
0.0
 10
111.0985043236886
 20
149.3789525951224
 30
0.0
 10
111.0971789668616
 20
149.4166123258151
 30
0.0
 10
111.0960283696646
 20
149.4471254713812
 30
0.0
 10
111.0957985355784
 20
149.4529810116938
 30
0.0
 10
111.0956113078714
 20
149.4574673561505
 30
0.0
  0
SPLINE
  5
103
330
9A
100
AcDbEntity
  8
BASE_CLASSIC
  6
Continuous
 62
     7
100
AcDbSpline
210
0.0
220
0.0
230
1.0
 70
     8
 71
     3
 72
    15
 73
    11
 74
     0
 42
0.000000001
 43
0.0000000001
 40
0.0
 40
0.0
 40
0.0
 40
0.0
 40
0.2708075827632253
 40
0.499431535567318
 40
0.6354718151761425
 40
0.7496240302254804
 40
0.8184739894522483
 40
0.8751058516978636
 40
0.9376113829974075
 40
1.0
 40
1.0
 40
1.0
 40
1.0
 10
111.3695571448986
 20
140.9184768909335
 30
0.0
 10
111.3683997880985
 20
140.9321509189818
 30
0.0
 10
111.3662653556798
 20
140.9573689751227
 30
0.0
 10
111.3631283417927
 20
140.9894173625497
 30
0.0
 10
111.3604259170461
 20
141.0135278362777
 30
0.0
 10
111.3583893030939
 20
141.0295638822461
 30
0.0
 10
111.3565732879129
 20
141.0415691378759
 30
0.0
 10
111.3549838536403
 20
141.0509532325381
 30
0.0
 10
111.3527061908928
 20
141.0599022737981
 30
0.0
 10
111.3500149750228
 20
141.0656204695029
 30
0.0
 10
111.3486701960406
 20
141.0684768909336
 30
0.0
  0
SPLINE
  5
104
330
9A
100
AcDbEntity
  8
BASE_CLASSIC
  6
Continuous
 62
     7
100
AcDbSpline
210
0.0
220
0.0
230
1.0
 70
     8
 71
     3
 72
    20
 73
    16
 74
     0
 42
0.000000001
 43
0.0000000001
 40
0.0
 40
0.0
 40
0.0
 40
0.0
 40
0.125
 40
0.125
 40
0.25
 40
0.25
 40
0.5
 40
0.5
 40
0.75
 40
0.75
 40
0.875
 40
0.875
 40
0.9375
 40
0.9375
 40
1.0
 40
1.0
 40
1.0
 40
1.0
 10
111.4690651358075
 20
141.0650892037111
 30
0.0
 10
111.4691206718763
 20
141.0629683668094
 30
0.0
 10
111.4682035365837
 20
141.0599733991621
 30
0.0
 10
111.4647735240696
 20
141.0525506855124
 30
0.0
 10
111.4622167062811
 20
141.0480637886908
 30
0.0
 10
111.4527470393358
 20
141.0332261186992
 30
0.0
 10
111.4439185753187
 20
141.0212859137146
 30
0.0
 10
111.4238191377685
 20
140.9958350796708
 30
0.0
 10
111.4123305970931
 20
140.9821219185567
 30
0.0
 10
111.3941891910293
 20
140.960427737701
 30
0.0
 10
111.3879549313563
 20
140.9530403834567
 30
0.0
 10
111.3790198013577
 20
140.9413065775641
 30
0.0
 10
111.3760874373213
 20
140.93728903987
 30
0.0
 10
111.3711907712522
 20
140.9286456479251
 30
0.0
 10
111.369126448962
 20
140.9237025755144
 30
0.0
 10
111.3695571448986
 20
140.9184768909335
 30
0.0
  0
LINE
  5
105
330
9A
100
AcDbEntity
  8
BASE_CLASSIC
  6
Continuous
 62
     7
100
AcDbLine
 10
108.9688877163837
 20
141.0650892037112
 30
0.0
 11
109.1892678284998
 21
149.4810661451307
 31
0.0
  0
ARC
  5
106
330
9A
100
AcDbEntity
  8
BASE_CLASSIC
  6
Continuous
 62
     7
100
AcDbCircle
 10
1895.0533921392
 20
91.34612916712082
 30
0.0
 40
1786.65612590245
100
AcDbArc
 50
178.1361109857148
 51
178.405261929315
  0
SPLINE
  5
107
330
9A
100
AcDbEntity
  8
BASE_CLASSIC
  6
Continuous
 62
     7
100
AcDbSpline
210
0.0
220
0.0
230
1.0
 70
     8
 71
     3
 72
    16
 73
    12
 74
     0
 42
0.000000001
 43
0.0000000001
 40
0.0
 40
0.0
 40
0.0
 40
0.0
 40
0.0416165099418621
 40
0.0831380715619641
 40
0.1249449663251319
 40
0.1813350681168163
 40
0.2504195734490974
 40
0.3643947219287196
 40
0.5005975155319106
 40
0.7290890989635136
 40
1.0
 40
1.0
 40
1.0
 40
1.0
 10
109.0892826561506
 20
141.0684768909336
 30
0.0
 10
109.0883652990839
 20
141.0665848051668
 30
0.0
 10
109.0865335382844
 20
141.0628049504384
 30
0.0
 10
109.0844582891697
 20
141.0568195933643
 30
0.0
 10
109.0827940553547
 20
141.0499377241534
 30
0.0
 10
109.0813817652766
 20
141.0415790445508
 30
0.0
 10
109.0795662174523
 20
141.0295854330999
 30
0.0
 10
109.0775278827686
 20
141.0135360374343
 30
0.0
 10
109.0748260871854
 20
140.9894321411149
 30
0.0
 10
109.0716877251355
 20
140.9573749455444
 30
0.0
 10
109.0695534744258
 20
140.9321569167795
 30
0.0
 10
109.0683957072925
 20
140.9184768909335
 30
0.0
  0
SPLINE
  5
108
330
9A
100
AcDbEntity
  8
BASE_CLASSIC
  6
Continuous
 62
     7
100
AcDbSpline
210
0.0
220
0.0
230
1.0
 70
     8
 71
     3
 72
    20
 73
    16
 74
     0
 42
0.000000001
 43
0.0000000001
 40
0.0
 40
0.0
 40
0.0
 40
0.0
 40
0.0624999999999503
 40
0.0624999999999503
 40
0.1249999999999006
 40
0.1249999999999006
 40
0.2499999999999035
 40
0.2499999999999035
 40
0.4999999999999114
 40
0.4999999999999114
 40
0.7499999999999193
 40
0.7499999999999193
 40
0.8749999999999597
 40
0.8749999999999597
 40
1.0
 40
1.0
 40
1.0
 40
1.0
 10
109.0683957072925
 20
140.9184768909335
 30
0.0
 10
109.0688224131278
 20
140.9236541631575
 30
0.0
 10
109.0668061834145
 20
140.9285665640245
 30
0.0
 10
109.0618280752631
 20
140.9373561845576
 30
0.0
 10
109.0588922146719
 20
140.9413621511912
 30
0.0
 10
109.0499757838408
 20
140.9530655266135
 30
0.0
 10
109.0437452841011
 20
140.9604498336317
 30
0.0
 10
109.025592722642
 20
140.9821569940378
 30
0.0
 10
109.0142510615162
 20
140.995690723697
 30
0.0
 10
108.9940877819293
 20
141.0212139645738
 30
0.0
 10
108.9852528763359
 20
141.0331583380234
 30
0.0
 10
108.9757575455428
 20
141.0480272988485
 30
0.0
 10
108.9731924641228
 20
141.0525257541698
 30
0.0
 10
108.9697536749348
 20
141.0599604875185
 30
0.0
 10
108.9688320416273
 20
141.062963070544
 30
0.0
 10
108.9688877163837
 20
141.0650892037112
 30
0.0
  0
LINE
  5
109
330
9A
100
AcDbEntity
  8
BASE_CLASSIC
  6
Continuous
 62
     7
100
AcDbLine
 10
104.6320460513311
 20
141.0684768909336
 30
0.0
 11
104.5189764260956
 21
141.0684768909336
 31
0.0
  0
ARC
  5
10A
330
9A
100
AcDbEntity
  8
BASE_CLASSIC
  6
Continuous
 62
     7
100
AcDbCircle
 10
96.7381934290459
 20
141.5604698614205
 30
0.0
 40
7.90917188795656
100
AcDbArc
 50
356.4335922192959
 51
90.98336337603979
  0
LINE
  5
10B
330
9A
100
AcDbEntity
  8
BASE_CLASSIC
  6
Continuous
 62
     7
100
AcDbLine
 10
104.7790644325486
 20
141.0650892037111
 30
0.0
 11
104.8115740922573
 21
141.0684768909336
 31
0.0
  0
ARC
  5
10C
330
9A
100
AcDbEntity
  8
BASE_CLASSIC
  6
Continuous
 62
     7
100
AcDbCircle
 10
102.2265183704195
 20
140.925069557373
 30
0.0
 40
2.409800684831829
100
AcDbArc
 50
359.8432515866216
 51
3.41168983575004
  0
SPLINE
  5
10D
330
9A
100
AcDbEntity
  8
BASE_CLASSIC
  6
Continuous
 62
     7
100
AcDbSpline
210
0.0
220
0.0
230
1.0
 70
     8
 71
     3
 72
    20
 73
    16
 74
     0
 42
0.000000001
 43
0.0000000001
 40
0.0
 40
0.0
 40
0.0
 40
0.0
 40
0.1250000000000118
 40
0.1250000000000118
 40
0.2500000000000236
 40
0.2500000000000236
 40
0.5000000000000472
 40
0.5000000000000472
 40
0.7500000000000708
 40
0.7500000000000708
 40
0.8750000000000349
 40
0.8750000000000349
 40
0.9375000000000174
 40
0.9375000000000174
 40
1.0
 40
1.0
 40
1.0
 40
1.0
 10
104.7790644325486
 20
141.0650892037111
 30
0.0
 10
104.7690123745654
 20
141.0629683668094
 30
0.0
 10
104.7594078047824
 20
141.0599733991621
 30
0.0
 10
104.7409323408257
 20
141.0525506855124
 30
0.0
 10
104.731990639838
 20
141.0480637886908
 30
0.0
 10
104.7071360153619
 20
141.0332261186992
 30
0.0
 10
104.6927151028655
 20
141.0212859137146
 30
0.0
 10
104.6687356294191
 20
140.9958350796708
 30
0.0
 10
104.6588946423471
 20
140.9821219185567
 30
0.0
 10
104.6473488175924
 20
140.960427737701
 30
0.0
 10
104.644032882479
 20
140.9530403834567
 30
0.0
 10
104.6399981725712
 20
140.9413065775641
 30
0.0
 10
104.6388041497244
 20
140.93728903987
 30
0.0
 10
104.6369344227615
 20
140.9286456479252
 30
0.0
 10
104.6362212713106
 20
140.9237025755144
 30
0.0
 10
104.6363100372167
 20
140.9184768909335
 30
0.0
  0
LINE
  5
10E
330
9A
100
AcDbEntity
  8
BASE_CLASSIC
  6
Continuous
 62
     7
100
AcDbLine
 10
115.8059068008601
 20
141.0684768909336
 30
0.0
 11
115.9189764260956
 21
141.0684768909336
 31
0.0
  0
LINE
  5
10F
330
9A
100
AcDbEntity
  8
BASE_CLASSIC
  6
Continuous
 62
     7
100
AcDbLine
 10
111.2486850233248
 20
149.4810661591308
 30
0.0
 11
111.4690651358075
 21
141.0650892037112
 31
0.0
  0
ARC
  5
110
330
9A
100
AcDbEntity
  8
BASE_CLASSIC
  6
Continuous
 62
     7
100
AcDbCircle
 10
96.74153161473093
 20
141.5692147280066
 30
0.0
 40
8.05332703556382
100
AcDbArc
 50
356.4110283574974
 51
79.19614390652039
  0
LINE
  5
111
330
9A
100
AcDbEntity
  8
BASE_CLASSIC
  6
Continuous
 62
     7
100
AcDbLine
 10
113.9388897945309
 20
141.8302463740124
 30
0.0
 11
113.9189421585932
 21
141.0684768909337
 31
0.0
  0
ARC
  5
112
330
9A
100
AcDbEntity
  8
BASE_CLASSIC
  6
Continuous
 62
     7
100
AcDbCircle
 10
123.8354973117889
 20
141.5710945857644
 30
0.0
 40
9.900000000000004
100
AcDbArc
 50
127.0875118813927
 51
178.4999999999998
  0
ARC
  5
113
330
9A
100
AcDbEntity
  8
BASE_CLASSIC
  6
Continuous
 62
     7
100
AcDbCircle
 10
123.8354973117889
 20
141.5684768909336
 30
0.0
 40
10.0
100
AcDbArc
 50
127.814488506014
 51
178.4999999999997
  0
LINE
  5
114
330
9A
100
AcDbEntity
  8
BASE_CLASSIC
  6
Continuous
 62
     7
100
AcDbLine
 10
113.8189764260956
 20
141.0684768909336
 30
0.0
 11
113.8389240620333
 21
141.8302463740123
 31
0.0
  0
ELLIPSE
  5
115
330
9A
100
AcDbEntity
  8
BASE_CLASSIC
  6
Continuous
 62
     7
100
AcDbEllipse
 10
113.9388897945309
 20
141.8276286791815
 30
0.0
 11
-0.09996573249755338
 21
0.002617694830786554
 31
0.0
210
0.0
220
0.0
230
1.0
 40
0.0261679842649715
 41
4.713074213061031
 42
6.283185307162406
  0
LINE
  5
116
330
9A
100
AcDbEntity
  8
BASE_CLASSIC
  6
Continuous
 62
     7
100
AcDbLine
 10
106.5990287901579
 20
141.8302463740124
 30
0.0
 11
106.6189764260956
 21
141.0684768909337
 31
0.0
  0
ARC
  5
117
330
9A
100
AcDbEntity
  8
BASE_CLASSIC
  6
Continuous
 62
     7
100
AcDbCircle
 10
96.60245554040232
 20
141.5710945857644
 30
0.0
 40
9.899999999999999
100
AcDbArc
 50
1.500000000000186
 51
52.91248811860731
  0
LINE
  5
118
330
9A
100
AcDbEntity
  8
BASE_CLASSIC
  6
Continuous
 62
     7
100
AcDbLine
 10
106.519010693598
 20
141.0684768909336
 30
0.0
 11
106.4990630576603
 21
141.8302463740123
 31
0.0
  0
ARC
  5
119
330
9A
100
AcDbEntity
  8
BASE_CLASSIC
  6
Continuous
 62
     7
100
AcDbCircle
 10
96.60245554040232
 20
141.5684768909336
 30
0.0
 40
9.999999999999998
100
AcDbArc
 50
1.500000000000112
 51
52.18551149398606
  0
ELLIPSE
  5
11A
330
9A
100
AcDbEntity
  8
BASE_CLASSIC
  6
Continuous
 62
     7
100
AcDbEllipse
 10
106.4990630576604
 20
141.8276286791815
 30
0.0
 11
0.09996573249755338
 21
0.002617694830786554
 31
0.0
210
0.0
220
0.0
230
1.0
 40
0.0261679842649716
 41
0.0000000000063224
 42
1.570111094118555
  0
SPLINE
  5
11B
330
9A
100
AcDbEntity
  8
BASE_CLASSIC
  6
Continuous
 62
     7
100
AcDbSpline
210
0.0
220
0.0
230
1.0
 70
     8
 71
     3
 72
    23
 73
    19
 74
     0
 42
0.000000001
 43
0.0000000001
 40
0.0
 40
0.0
 40
0.0
 40
0.0
 40
0.0679709745904439
 40
0.131381941750402
 40
0.1902619065463411
 40
0.2446236084895326
 40
0.2944779576225908
 40
0.339835191321134
 40
0.388335830507869
 40
0.4303870878637917
 40
0.4668485630851296
 40
0.5030774041041373
 40
0.5400097594722164
 40
0.5871604471602415
 40
0.6354106791593375
 40
0.6847613485323923
 40
0.7364090747182015
 40
0.7938917361256611
 40
0.7938917361256611
 40
0.7938917361256611
 40
0.7938917361256611
 10
115.9189764260956
 20
141.0684768909336
 30
0.0
 10
115.911779117244
 20
141.3916403298219
 30
0.0
 10
115.9045097759956
 20
141.9180372204428
 30
0.0
 10
115.9782871315426
 20
142.7546974961229
 30
0.0
 10
116.1241721121285
 20
143.5017871460831
 30
0.0
 10
116.322675990749
 20
144.1802602891564
 30
0.0
 10
116.5574866451626
 20
144.7833550389938
 30
0.0
 10
116.8280370140709
 20
145.3433423085985
 30
0.0
 10
117.1242286177037
 20
145.8515452336308
 30
0.0
 10
117.43589371426
 20
146.3041850486746
 30
0.0
 10
117.7434122099996
 20
146.6938026156986
 30
0.0
 10
118.0591121345757
 20
147.047665339686
 30
0.0
 10
118.428620375221
 20
147.4141877193888
 30
0.0
 10
118.8624527214989
 20
147.788082930286
 30
0.0
 10
119.3679313574197
 20
148.1581717668052
 30
0.0
 10
119.9185002273125
 20
148.4960085795224
 30
0.0
 10
120.5313439057705
 20
148.8044293014931
 30
0.0
 10
120.970830180371
 20
148.9774429289176
 30
0.0
 10
121.2064286991467
 20
149.057327263022
 30
0.0
  0
SPLINE
  5
11C
330
9A
100
AcDbEntity
  8
BASE_CLASSIC
  6
Continuous
 62
     7
100
AcDbSpline
210
0.0
220
0.0
230
1.0
 70
     8
 71
     3
 72
     8
 73
     4
 74
     0
 42
0.000000001
 43
0.0000000001
 40
0.9618006497611206
 40
0.9618006497611206
 40
0.9618006497611206
 40
0.9618006497611206
 40
1.0
 40
1.0
 40
1.0
 40
1.0
 10
123.3370099322605
 20
149.4595476768279
 30
0.0
 10
123.4960115454842
 20
149.4659288267156
 30
0.0
 10
123.6538698624796
 20
149.4666944916593
 30
0.0
 10
123.8355311427888
 20
149.4667350590745
 30
0.0
  0
SPLINE
  5
11D
330
9A
100
AcDbEntity
  8
BASE_CLASSIC
  6
Continuous
 62
     7
100
AcDbSpline
210
0.0
220
0.0
230
1.0
 70
     8
 71
     3
 72
     8
 73
     4
 74
     0
 42
0.000000001
 43
0.0000000001
 40
0.0
 40
0.0
 40
0.0
 40
0.0
 40
0.0584540130687815
 40
0.0584540130687815
 40
0.0584540130687815
 40
0.0584540130687815
 10
96.6023466706702
 20
149.4653535411809
 30
0.0
 10
96.88030242508873
 20
149.4634250853969
 30
0.0
 10
97.11977276765259
 20
149.4600577605283
 30
0.0
 10
97.36305894465988
 20
149.4426649443656
 30
0.0
  0
SPLINE
  5
11E
330
9A
100
AcDbEntity
  8
BASE_CLASSIC
  6
Continuous
 62
     7
100
AcDbSpline
210
0.0
220
0.0
230
1.0
 70
     8
 71
     3
 72
    22
 73
    18
 74
     0
 42
0.000000001
 43
0.0000000001
 40
0.2053005546583702
 40
0.2053005546583702
 40
0.2053005546583702
 40
0.2053005546583702
 40
0.2693344328597992
 40
0.3302031297125179
 40
0.3870888447333565
 40
0.4197512302234113
 40
0.4572716050663669
 40
0.5014932557672238
 40
0.5524258823749932
 40
0.6100815024944695
 40
0.6632820991748521
 40
0.7211747251957766
 40
0.7837719447239476
 40
0.8338265836827882
 40
0.8865435230662091
 40
0.9419296761216805
 40
1.0
 40
1.0
 40
1.0
 40
1.0
 10
99.2218963749611
 20
149.0605841227108
 30
0.0
 10
99.48379476560751
 20
148.9721284068765
 30
0.0
 10
99.98711243403754
 20
148.7716497279219
 30
0.0
 10
100.6837570802026
 20
148.4057415635736
 30
0.0
 10
101.2279788206472
 20
148.0478566848303
 30
0.0
 10
101.6632684914044
 20
147.7124338390974
 30
0.0
 10
102.0370148854408
 20
147.3880366960617
 30
0.0
 10
102.4439411720765
 20
146.9831171208283
 30
0.0
 10
102.8743518437268
 20
146.4809678200568
 30
0.0
 10
103.2805590198201
 20
145.9102534233281
 30
0.0
 10
103.6475084863932
 20
145.2787264686697
 30
0.0
 10
103.9640863250154
 20
144.5965422738074
 30
0.0
 10
104.2066785225601
 20
143.8991606829637
 30
0.0
 10
104.3778791803076
 20
143.2034104708686
 30
0.0
 10
104.4853296050303
 20
142.5307112329924
 30
0.0
 10
104.5320230000103
 20
141.7990007269524
 30
0.0
 10
104.5251897550958
 20
141.3445448922879
 30
0.0
 10
104.5189764260956
 20
141.0684768909336
 30
0.0
  0
LINE
  5
11F
330
9A
100
AcDbEntity
  8
BASE_CLASSIC
  6
Continuous
 62
     7
100
AcDbLine
 10
95.5507467654937
 20
149.8554265246639
 30
0.0
 11
95.60149145147541
 21
149.5676391096136
 31
0.0
  0
LINE
  5
120
330
9A
100
AcDbEntity
  8
BASE_CLASSIC
  6
Continuous
 62
     7
100
AcDbLine
 10
124.8364614007158
 20
149.5676391096136
 30
0.0
 11
124.8399470770407
 21
149.5874073623839
 31
0.0
  0
ARC
  5
121
330
9A
100
AcDbEntity
  8
BASE_CLASSIC
  6
Continuous
 62
     7
100
AcDbCircle
 10
95.71966838183687
 20
149.5884768909336
 30
0.0
 40
0.1200000000000029
100
AcDbArc
 50
190.0000000000045
 51
270.0
  0
ARC
  5
122
330
9A
100
AcDbEntity
  8
BASE_CLASSIC
  6
Continuous
 62
     7
100
AcDbCircle
 10
124.7182844703543
 20
149.5884768909336
 30
0.0
 40
0.1199999999999979
100
AcDbArc
 50
270.0
 51
349.9999999999966
  0
LINE
  5
123
330
9A
100
AcDbEntity
  8
BASE_CLASSIC
  6
Continuous
 62
     7
100
AcDbLine
 10
104.5189764260956
 20
141.0689877629518
 30
0.0
 11
104.5189764260956
 21
131.3684768909336
 31
0.0
  0
LINE
  5
124
330
9A
100
AcDbEntity
  8
BASE_CLASSIC
  6
Continuous
 62
     7
100
AcDbLine
 10
115.9189764260956
 20
131.3684768909336
 30
0.0
 11
115.9189764260956
 21
141.0689877629517
 31
0.0
  0
ELLIPSE
  5
125
330
9A
100
AcDbEntity
  8
PILAR_TORNILLO
  6
Continuous
 62
     7
100
AcDbEllipse
 10
111.5855921811928
 20
194.4999903159026
 30
0.0
 11
-0.002378263759113264
 21
-0.1800266197112144
 31
0.0
210
0.0
220
0.0
230
1.0
 40
0.0334547128675295
 41
-0.7512682839932223
 42
-0.1468953373208342
  0
LINE
  5
126
330
9A
100
AcDbEntity
  8
PILAR_TORNILLO
  6
Continuous
 62
     7
100
AcDbLine
 10
108.859954684445
 20
194.3218918251964
 30
0.0
 11
108.8612586133151
 21
194.3219373593959
 31
0.0
  0
LINE
  5
127
330
9A
100
AcDbEntity
  8
PILAR_TORNILLO
  6
Continuous
 62
     7
100
AcDbLine
 10
111.5861723203245
 20
194.3198603390239
 30
0.0
 11
111.5874762491946
 21
194.3198148048244
 31
0.0
  0
LINE
  5
128
330
9A
100
AcDbEntity
  8
PILAR_TORNILLO
  6
Continuous
 62
     7
100
AcDbLine
 10
111.5829812671178
 20
194.3199717730573
 30
0.0
 11
111.5861723203245
 21
194.3198603390239
 31
0.0
  0
ELLIPSE
  5
129
330
9A
100
AcDbEntity
  8
PILAR_TORNILLO
  6
Continuous
 62
     7
100
AcDbEllipse
 10
111.0623046445404
 20
151.6978561085852
 30
0.0
 11
-0.1499980770833706
 21
0.0008778873468062721
 31
0.0
210
0.0
220
0.0
230
0.9999999999999997
 40
0.0987007129944944
 41
3.107543834085649
 42
3.386762551535086
  0
ELLIPSE
  5
12A
330
9A
100
AcDbEntity
  8
PILAR_TORNILLO
  6
Continuous
 62
     7
100
AcDbEllipse
 10
111.1122775549563
 20
151.6977949281792
 30
0.0
 11
-0.07170480550448138
 21
0.06970237347153629
 31
0.0
210
0.0
220
0.0
230
0.9999999999999999
 40
0.9988162243667447
 41
3.141592653589643
 42
3.900212693052186
  0
ELLIPSE
  5
12B
330
9A
100
AcDbEntity
  8
PILAR_TORNILLO
  6
Continuous
 62
     7
100
AcDbEllipse
 10
111.1122775549563
 20
151.6977949281792
 30
0.0
 11
-0.07170480550448138
 21
0.06970237347153629
 31
0.0
210
0.0
220
0.0
230
0.9999999999999999
 40
0.9988162243667447
 41
3.069715804654316
 42
3.141592653589643
  0
LINE
  5
12C
330
9A
100
AcDbEntity
  8
PILAR_TORNILLO
  6
Continuous
 62
     7
100
AcDbLine
 10
111.1827083130248
 20
151.5684768909332
 30
0.0
 11
111.1831377272955
 21
151.6272236563819
 31
0.0
  0
LINE
  5
12D
330
9A
100
AcDbEntity
  8
PILAR_TORNILLO
  6
Continuous
 62
     7
100
AcDbLine
 10
111.2123026900446
 20
151.6969739115027
 30
0.0
 11
111.5874762491946
 21
194.3198148048244
 31
0.0
  0
LINE
  5
12E
330
9A
100
AcDbEntity
  8
PILAR_TORNILLO
  6
Continuous
 62
     7
100
AcDbLine
 10
108.859954684445
 20
194.3218918251964
 30
0.0
 11
108.8599704398168
 21
194.3201018837397
 31
0.0
  0
LINE
  5
12F
330
9A
100
AcDbEntity
  8
PILAR_TORNILLO
  6
Continuous
 62
     7
100
AcDbLine
 10
111.1784784641355
 20
151.6224305406923
 30
0.0
 11
111.1839823604591
 21
151.6280925547059
 31
0.0
  0
LINE
  5
131
330
9A
100
AcDbEntity
  8
PILAR_PASACABLES
  6
Continuous
 62
     7
100
AcDbLine
 10
87.02979703696663
 20
194.3259161563862
 30
0.0
 11
95.40454413579266
 21
149.6671567002634
 31
0.0
  0
LINE
  5
132
330
9A
100
AcDbEntity
  8
PILAR_PASACABLES
  6
Continuous
 62
     7
100
AcDbLine
 10
95.23046536783266
 20
151.6667299109797
 30
0.0
 11
95.25257617775839
 21
151.5412518191448
 31
0.0
  0
LINE
  5
133
330
9A
100
AcDbEntity
  8
PILAR_PASACABLES
  6
Continuous
 62
     7
100
AcDbLine
 10
95.56289936924874
 20
149.8696029486382
 30
0.0
 11
95.54723948099672
 21
149.8690560932903
 31
0.0
  0
LINE
  5
134
330
9A
100
AcDbEntity
  8
PILAR_PASACABLES
  6
Continuous
 62
     7
100
AcDbLine
 10
95.91897642609561
 20
151.5684768909336
 30
0.0
 11
95.91959075281989
 21
151.5919370820389
 31
0.0
  0
LINE
  5
135
330
9A
100
AcDbEntity
  8
PILAR_PASACABLES
  6
Continuous
 62
     7
100
AcDbLine
 10
95.53019502761491
 20
149.9657822768274
 30
0.0
 11
95.54594131963498
 21
149.9663321494614
 31
0.0
  0
LINE
  5
136
330
9A
100
AcDbEntity
  8
PILAR_PASACABLES
  6
Continuous
 62
     7
100
AcDbLine
 10
87.02979703696663
 20
194.3259161563862
 30
0.0
 11
87.98972014716344
 21
194.3247942398767
 31
0.0
  0
LINE
  5
137
330
9A
100
AcDbEntity
  8
PILAR_PASACABLES
  6
Continuous
 62
     7
100
AcDbLine
 10
86.79276494122648
 20
194.517129608537
 30
0.0
 11
86.56284101966551
 21
195.8210929647809
 31
0.0
  0
LINE
  5
138
330
9A
100
AcDbEntity
  8
PILAR_PASACABLES
  6
Continuous
 62
     7
100
AcDbLine
 10
86.75795558514399
 20
194.4756454333698
 30
0.0
 11
86.79276494122647
 21
194.517129608537
 31
0.0
  0
LINE
  5
139
330
9A
100
AcDbEntity
  8
PILAR_PASACABLES
  6
Continuous
 62
     7
100
AcDbLine
 10
86.9344082050873
 20
194.3261527793831
 30
0.0
 11
87.02979703696664
 21
194.3259161563862
 31
0.0
  0
LINE
  5
13A
330
9A
100
AcDbEntity
  8
PILAR_PASACABLES
  6
Continuous
 62
     7
100
AcDbLine
 10
86.96992235147927
 20
194.3684768909336
 30
0.0
 11
86.93440820508731
 21
194.3261527793831
 31
0.0
  0
ARC
  5
13B
330
9A
100
AcDbEntity
  8
PILAR_PASACABLES
  6
Continuous
 62
     7
100
AcDbCircle
 10
86.93572689413628
 20
194.5065929264983
 30
0.0
 40
0.1804449656592511
100
AcDbArc
 50
189.875424485871
 51
269.5812795925723
  0
ELLIPSE
  5
13C
330
9A
100
AcDbEntity
  8
PILAR_PASACABLES
  6
Continuous
 62
     7
100
AcDbEllipse
 10
86.97010642401884
 20
194.5485866089074
 30
0.0
 11
0.1158219254041359
 21
0.1380311957015576
 31
0.0
210
0.0
220
0.0
230
1.0
 40
0.9989625827740335
 41
2.443972000064467
 42
3.839213307115148
  0
LINE
  5
13D
330
9A
100
AcDbEntity
  8
PILAR_PASACABLES
  6
Continuous
 62
     7
100
AcDbLine
 10
87.83987419413073
 20
194.3684768909336
 30
0.0
 11
86.96992235147927
 21
194.3684768909336
 31
0.0
  0
LINE
  5
13E
330
9A
100
AcDbEntity
  8
PILAR_PASACABLES
  6
Continuous
 62
     7
100
AcDbLine
 10
87.98972014716344
 20
194.3247942398767
 30
0.0
 11
87.96028671537216
 21
194.3558106053171
 31
0.0
  0
ELLIPSE
  5
13F
330
9A
100
AcDbEntity
  8
PILAR_PASACABLES
  6
Continuous
 62
     7
100
AcDbEllipse
 10
87.98959064131309
 20
194.5048210594313
 30
0.0
 11
-0.1625444438710211
 21
0.07820757497474705
 31
0.0
210
0.0
220
0.0
230
0.9999999999999998
 40
0.9975857022579597
 41
2.019021714290597
 42
2.731736696396631
  0
LINE
  5
140
330
9A
100
AcDbEntity
  8
PILAR_PASACABLES
  6
Continuous
 62
     7
100
AcDbLine
 10
90.34784915641579
 20
194.3220381609377
 30
0.0
 11
90.47050274109348
 21
194.3218948087461
 31
0.0
  0
LINE
  5
141
330
9A
100
AcDbEntity
  8
PILAR_PASACABLES
  6
Continuous
 62
     7
100
AcDbLine
 10
90.39269451668916
 20
194.3684768909336
 30
0.0
 11
90.34784915641579
 21
194.3220381609377
 31
0.0
  0
ELLIPSE
  5
142
330
9A
100
AcDbEntity
  8
PILAR_PASACABLES
  6
Continuous
 62
     7
100
AcDbEllipse
 10
90.34798065005197
 20
194.5020646754475
 30
0.0
 11
0.04914066328848835
 21
-0.1732016189720433
 31
0.0
210
0.0
220
0.0
230
0.9999999999999998
 40
0.9991682270631984
 41
5.272268220265789
 42
6.005781419276436
  0
LINE
  5
143
330
9A
100
AcDbEntity
  8
PILAR_PASACABLES
  6
Continuous
 62
     7
100
AcDbLine
 10
86.37434877232376
 20
196.6684768909336
 30
0.0
 11
86.41342437046613
 21
196.6684768909336
 31
0.0
  0
LINE
  5
144
330
9A
100
AcDbEntity
  8
PILAR_PASACABLES
  6
Continuous
 62
     7
100
AcDbLine
 10
85.48497356611836
 20
196.6684768909336
 30
0.0
 11
86.37434877232376
 21
196.6684768909336
 31
0.0
  0
LINE
  5
145
330
9A
100
AcDbEntity
  8
PILAR_PASACABLES
  6
Continuous
 62
     7
100
AcDbLine
 10
86.3890315873587
 20
196.5639516329863
 30
0.0
 11
86.757955585144
 21
194.4756454333699
 31
0.0
  0
ARC
  5
146
330
9A
100
AcDbEntity
  8
PILAR_PASACABLES
  6
Continuous
 62
     7
100
AcDbCircle
 10
87.01052482428975
 20
196.7045475792205
 30
0.0
 40
0.6371978214405064
100
AcDbArc
 50
183.2451516895339
 51
192.7470518631241
  0
LINE
  5
147
330
9A
100
AcDbEntity
  8
PILAR_PASACABLES
  6
Continuous
 62
     7
100
AcDbLine
 10
86.3890315873587
 20
196.5639516329863
 30
0.0
 11
85.3868108477736
 21
196.549395991396
 31
0.0
  0
ARC
  5
148
330
9A
100
AcDbEntity
  8
PILAR_PASACABLES
  6
Continuous
 62
     7
100
AcDbCircle
 10
85.48497356611836
 20
196.5684768909336
 30
0.0
 40
0.1000000000000001
100
AcDbArc
 50
90.0
 51
190.999999999991
  0
ELLIPSE
  5
149
330
9A
100
AcDbEntity
  8
PILAR_PASACABLES
  6
Continuous
 62
     7
100
AcDbEllipse
 10
90.47509380456988
 20
194.3271285338841
 30
0.0
 11
-0.1512951228296478
 21
1.786792064676366E-5
 31
0.0
210
0.0
220
0.0
230
1.0
 40
0.0346123398192557
 41
1.540450669738629
 42
1.706176749955424
  0
LINE
  5
14A
330
9A
100
AcDbEntity
  8
PILAR_PASACABLES
  6
Continuous
 62
     7
100
AcDbLine
 10
86.46063353733999
 20
196.4007404011226
 30
0.0
 11
86.41342437046612
 21
196.6684768909336
 31
0.0
  0
ELLIPSE
  5
14B
330
9A
100
AcDbEntity
  8
PILAR_PASACABLES
  6
Continuous
 62
     7
100
AcDbEllipse
 10
86.50404558175671
 20
196.1545384628695
 30
0.0
 11
0.04341204441673518
 21
-0.2462019382530526
 31
0.0
210
0.0
220
0.0
230
1.0
 40
0.0349207694917637
 41
3.141592653589793
 42
6.283185307179586
  0
ELLIPSE
  5
14C
330
9A
100
AcDbEntity
  8
PILAR_PASACABLES
  6
Continuous
 62
     7
100
AcDbEllipse
 10
88.59042954407721
 20
194.3684768909336
 30
0.0
 11
0.7506697501739185
 21
0.0003966266787651456
 31
0.0
210
0.0
220
0.0
230
0.9999999999999998
 40
0.0302330480653202
 41
3.124118068826264
 42
3.716119550658694
  0
ARC
  5
14D
330
9A
100
AcDbEntity
  8
PILAR_PASACABLES
  6
Continuous
 62
     7
100
AcDbCircle
 10
87.97001866181053
 20
194.5285726279264
 30
0.0
 40
0.1730359131438659
100
AcDbArc
 50
266.775849399818
 51
291.1420848624278
  0
LINE
  5
14E
330
9A
100
AcDbEntity
  8
PILAR_PASACABLES
  6
Continuous
 62
     7
100
AcDbLine
 10
95.40789039370202
 20
149.5684768909336
 30
0.0
 11
94.60141006467735
 21
149.5684768909336
 31
0.0
  0
LINE
  5
14F
330
9A
100
AcDbEntity
  8
PILAR_PASACABLES
  6
Continuous
 62
     7
100
AcDbLine
 10
95.59435240251418
 20
149.5684768909336
 30
0.0
 11
95.407890393702
 21
149.5684768909336
 31
0.0
  0
ARC
  5
150
330
9A
100
AcDbEntity
  8
PILAR_PASACABLES
  6
Continuous
 62
     7
100
AcDbCircle
 10
95.15518593594925
 20
149.5671530781671
 30
0.0
 40
0.4391684617949748
100
AcDbArc
 50
0.1727104877726068
 51
13.16236386070305
  0
LINE
  5
151
330
9A
100
AcDbEntity
  8
PILAR_PASACABLES
  6
Continuous
 62
     7
100
AcDbLine
 10
94.5032473463326
 20
149.6493959913959
 30
0.0
 11
85.3868108477736
 21
196.549395991396
 31
0.0
  0
LINE
  5
152
330
9A
100
AcDbEntity
  8
PILAR_PASACABLES
  6
Continuous
 62
     7
100
AcDbLine
 10
95.40454413579266
 20
149.6671567002634
 30
0.0
 11
95.58281686724747
 21
149.6671567002635
 31
0.0
  0
LINE
  5
153
330
9A
100
AcDbEntity
  8
PILAR_PASACABLES
  6
Continuous
 62
     7
100
AcDbLine
 10
94.5032473463326
 20
149.6493959913959
 30
0.0
 11
95.40454413579268
 21
149.6671567002634
 31
0.0
  0
ELLIPSE
  5
154
330
9A
100
AcDbEntity
  8
PILAR_PASACABLES
  6
Continuous
 62
     7
100
AcDbEllipse
 10
95.40789039370202
 20
149.6684768909336
 30
0.0
 11
0.0
 21
-0.1000000000000001
 31
0.0
210
0.0
220
0.0
230
1.0
 40
0.0334654955770153
 41
4.725591270610758
 42
6.283185307179586
  0
ARC
  5
155
330
9A
100
AcDbEntity
  8
PILAR_PASACABLES
  6
Continuous
 62
     7
100
AcDbCircle
 10
94.60141006467734
 20
149.6684768909336
 30
0.0
 40
0.1000000000000001
100
AcDbArc
 50
191.0000000000101
 51
270.0
  0
LINE
  5
156
330
9A
100
AcDbEntity
  8
PILAR_PASACABLES
  6
Continuous
 62
     7
100
AcDbLine
 10
90.64356437371077
 20
194.1966621517906
 30
0.0
 11
96.2366891310408
 21
151.7126617733161
 31
0.0
  0
LINE
  5
157
330
9A
100
AcDbEntity
  8
PILAR_PASACABLES
  6
Continuous
 62
     7
100
AcDbLine
 10
90.63812683114183
 20
194.2379643881218
 30
0.0
 11
90.64356437371077
 21
194.1966621517906
 31
0.0
  0
ELLIPSE
  5
158
330
9A
100
AcDbEntity
  8
PILAR_PASACABLES
  6
Continuous
 62
     7
100
AcDbEllipse
 10
90.49484764450472
 20
194.1770832229576
 30
0.0
 11
0.1487167292060721
 21
0.01957892883300543
 31
0.0
210
0.0
220
0.0
230
1.0
 40
0.9651000141467361
 41
0.0
 42
1.439976831616475
  0
LINE
  5
159
330
9A
100
AcDbEntity
  8
PILAR_PASACABLES
  6
Continuous
 62
     7
100
AcDbLine
 10
90.49551308042318
 20
194.3219373593959
 30
0.0
 11
90.4893860348597
 21
194.3684768909336
 31
0.0
  0
ELLIPSE
  5
15A
330
9A
100
AcDbEntity
  8
PILAR_PASACABLES
  6
Continuous
 62
     7
100
AcDbEllipse
 10
90.48941010193576
 20
194.2183854592888
 30
0.0
 11
0.0195910698418749
 21
-0.1488089493241071
 31
0.0
210
0.0
220
0.0
230
1.0
 40
0.9993802784143399
 41
1.570796326795402
 42
3.010773158411256
  0
LINE
  5
15B
330
9A
100
AcDbEntity
  8
PILAR_PASACABLES
  6
Continuous
 62
     7
100
AcDbLine
 10
96.14103459457367
 20
151.5996700713922
 30
0.0
 11
96.08908196176336
 21
151.5978558454773
 31
0.0
  0
LINE
  5
15C
330
9A
100
AcDbEntity
  8
PILAR_PASACABLES
  6
Continuous
 62
     7
100
AcDbLine
 10
96.08908196176336
 20
151.5978558454773
 30
0.0
 11
95.3573626182569
 21
151.5723036429501
 31
0.0
  0
LINE
  5
15D
330
9A
100
AcDbEntity
  8
PILAR_PASACABLES
  6
Continuous
 62
     7
100
AcDbLine
 10
96.08224575418375
 20
151.6964747375091
 30
0.0
 11
90.47050274109348
 21
194.3218948087461
 31
0.0
  0
LINE
  5
15E
330
9A
100
AcDbEntity
  8
PILAR_PASACABLES
  6
Continuous
 62
     7
100
AcDbLine
 10
95.23046536783266
 20
151.6667299109797
 30
0.0
 11
96.08224575418375
 21
151.6964747375091
 31
0.0
  0
ELLIPSE
  5
15F
330
9A
100
AcDbEntity
  8
PILAR_PASACABLES
  6
Continuous
 62
     7
100
AcDbEllipse
 10
96.08734398969405
 20
151.6978561085852
 30
0.0
 11
-0.149345159996106
 21
-0.0148055030805061
 31
0.0
210
0.0
220
0.0
230
0.9999999999999999
 40
0.0058117030548032
 41
1.536076282511204
 42
3.141779194603598
  0
ELLIPSE
  5
160
330
9A
100
AcDbEntity
  8
PILAR_PASACABLES
  6
Continuous
 62
     7
100
AcDbEllipse
 10
96.08559201209312
 20
151.6977949281792
 30
0.0
 11
-0.00348994967024896
 21
0.09993908270190534
 31
0.0
210
0.0
220
0.0
230
1.0
 40
0.0339053863755873
 41
1.582822653980491
 42
3.141592653589793
  0
ARC
  5
161
330
9A
100
AcDbEntity
  8
PILAR_PASACABLES
  6
Continuous
 62
     7
100
AcDbCircle
 10
96.13754464490343
 20
151.6996091540941
 30
0.0
 40
0.1000000000000001
100
AcDbArc
 50
272.0000000000018
 51
7.500000000002434
  0
LINE
  5
162
330
9A
100
AcDbEntity
  8
PILAR_PASACABLES
  6
Continuous
 62
     7
100
AcDbLine
 10
95.26414808942069
 20
151.4755816465591
 30
0.0
 11
95.58281686724747
 21
149.6671567002635
 31
0.0
  0
SPLINE
  5
163
330
9A
100
AcDbEntity
  8
PILAR_PASACABLES
  6
Continuous
 62
     7
100
AcDbSpline
210
0.0
220
0.0
230
1.0
 70
     8
 71
     3
 72
    10
 73
     6
 74
     0
 42
0.000000001
 43
0.0000000001
 40
0.0
 40
0.0
 40
0.0
 40
0.0
 40
0.5
 40
0.5
 40
1.0
 40
1.0
 40
1.0
 40
1.0
 10
95.36080249094573
 20
151.5826870072877
 30
0.0
 10
95.36079049572658
 20
151.5793197047799
 30
0.0
 10
95.36048016146427
 20
151.5766959259556
 30
0.0
 10
95.35931844185558
 20
151.5732323842436
 30
0.0
 10
95.3584731965291
 20
151.5723424251979
 30
0.0
 10
95.3573626182569
 20
151.5723036429501
 30
0.0
  0
ARC
  5
164
330
9A
100
AcDbEntity
  8
PILAR_PASACABLES
  6
Continuous
 62
     7
100
AcDbCircle
 10
94.2045563059364
 20
149.7177454353027
 30
0.0
 40
2.202505366556643
100
AcDbArc
 50
59.35127642100408
 51
62.23851836532795
  0
SPLINE
  5
165
330
9A
100
AcDbEntity
  8
PILAR_PASACABLES
  6
Continuous
 62
     7
100
AcDbSpline
210
0.0
220
0.0
230
1.0
 70
     8
 71
     3
 72
    14
 73
    10
 74
     0
 42
0.000000001
 43
0.0000000001
 40
0.0
 40
0.0
 40
0.0
 40
0.0
 40
0.25
 40
0.25
 40
0.5
 40
0.5
 40
0.75
 40
0.75
 40
1.0
 40
1.0
 40
1.0
 40
1.0
 10
95.36080249094573
 20
151.5826870072877
 30
0.0
 10
95.34632278077177
 20
151.5823329721873
 30
0.0
 10
95.33190392077628
 20
151.5791111185678
 30
0.0
 10
95.30583574923375
 20
151.5675234284822
 30
0.0
 10
95.29420179212624
 20
151.559164417293
 30
0.0
 10
95.27587056982058
 20
151.5388510932574
 30
0.0
 10
95.26918410191382
 20
151.5269087451821
 30
0.0
 10
95.26199734101716
 20
151.5016457437451
 30
0.0
 10
95.2615012811084
 20
151.4883399705688
 30
0.0
 10
95.26414808942069
 20
151.4755816465591
 30
0.0
  0
SPLINE
  5
166
330
9A
100
AcDbEntity
  8
PILAR_PASACABLES
  6
Continuous
 62
     7
100
AcDbSpline
210
0.0
220
0.0
230
1.0
 70
     8
 71
     3
 72
    14
 73
    10
 74
     0
 42
0.000000001
 43
0.0000000001
 40
0.0
 40
0.0
 40
0.0
 40
0.0
 40
0.1220531686477082
 40
0.2318503848474163
 40
0.3600832379640371
 40
0.4810300716293476
 40
0.6786444080399766
 40
0.8484764745952494
 40
1.0
 40
1.0
 40
1.0
 40
1.0
 10
95.32733450437222
 20
151.6125802584016
 30
0.0
 10
95.32924704203322
 20
151.6113780524862
 30
0.0
 10
95.33288007014424
 20
151.60909436
 30
0.0
 10
95.33831816291443
 20
151.6055202248266
 30
0.0
 10
95.34349085978285
 20
151.6019057089301
 30
0.0
 10
95.3495210171991
 20
151.5973701533422
 30
0.0
 10
95.35528234272809
 20
151.5923853270825
 30
0.0
 10
95.35989733209445
 20
151.5870578589618
 30
0.0
 10
95.36051245305832
 20
151.5840875488433
 30
0.0
 10
95.36080249094573
 20
151.5826870072877
 30
0.0
  0
LINE
  5
167
330
9A
100
AcDbEntity
  8
PILAR_PASACABLES
  6
Continuous
 62
     7
100
AcDbLine
 10
95.2525761777584
 20
151.5412518191448
 30
0.0
 11
95.26414808942069
 21
151.4755816465591
 31
0.0
  0
ARC
  5
168
330
9A
100
AcDbEntity
  8
PILAR_PASACABLES
  6
Continuous
 62
     7
100
AcDbCircle
 10
95.41442893092031
 20
151.4464570327703
 30
0.0
 40
0.1875696276849539
100
AcDbArc
 50
117.6669457507272
 51
149.6431189738871
  0
SPLINE
  5
169
330
9A
100
AcDbEntity
  8
PILAR_PASACABLES
  6
Continuous
 62
     7
100
AcDbSpline
210
0.0
220
0.0
230
1.0
 70
     8
 71
     3
 72
    13
 73
     9
 74
     0
 42
0.000000001
 43
0.0000000001
 40
0.2559997754139017
 40
0.2559997754139017
 40
0.2559997754139017
 40
0.2559997754139017
 40
0.324908392266422
 40
0.4298682453514625
 40
0.5854100385363668
 40
0.7591303099889737
 40
0.9465151172574938
 40
1.0
 40
1.0
 40
1.0
 40
1.0
 10
95.2632632704576
 20
151.4893181358532
 30
0.0
 10
95.26358399361939
 20
151.4916430852163
 30
0.0
 10
95.26490894390433
 20
151.4993609005129
 30
0.0
 10
95.27116035135728
 20
151.5179924650656
 30
0.0
 10
95.28640167931378
 20
151.5414278520804
 30
0.0
 10
95.31242042485547
 20
151.5616760187341
 30
0.0
 10
95.33895877723388
 20
151.5724067557454
 30
0.0
 10
95.35350667562341
 20
151.5712471479443
 30
0.0
 10
95.35725630603669
 20
151.5709200891388
 30
0.0
  0
LINE
  5
16A
330
9A
100
AcDbEntity
  8
PILAR_PASACABLES
  6
Continuous
 62
     7
100
AcDbLine
 10
95.26149495361892
 20
151.4906380925579
 30
0.0
 11
95.26267432534884
 21
151.4977930402396
 31
0.0
  0
LINE
  5
16B
330
9A
100
AcDbEntity
  8
PILAR_TORNILLO
  6
Continuous
 62
     7
100
AcDbLine
 10
111.4677564005032
 20
194.3259161563862
 30
0.0
 11
111.1582159190648
 21
149.6671567002634
 31
0.0
  0
LINE
  5
16C
330
9A
100
AcDbEntity
  8
PILAR_TORNILLO
  6
Continuous
 62
     7
100
AcDbLine
 10
111.1788022975487
 20
151.6667299109797
 30
0.0
 11
111.1778850385386
 21
151.5412518191448
 31
0.0
  0
LINE
  5
16D
330
9A
100
AcDbEntity
  8
PILAR_TORNILLO
  6
Continuous
 62
     7
100
AcDbLine
 10
108.9508020017171
 20
194.3231436410998
 30
0.0
 11
108.9385340060486
 21
194.3227152332509
 31
0.0
  0
LINE
  5
16E
330
9A
100
AcDbEntity
  8
PILAR_TORNILLO
  6
Continuous
 62
     7
100
AcDbLine
 10
111.4876688839985
 20
194.32522079714
 30
0.0
 11
111.4998838858318
 21
194.3247942398767
 31
0.0
  0
LINE
  5
16F
330
9A
100
AcDbEntity
  8
PILAR_TORNILLO
  6
Continuous
 62
     7
100
AcDbLine
 10
111.4609804044311
 20
194.3261527793831
 30
0.0
 11
111.4677564005032
 21
194.3259161563862
 31
0.0
  0
LINE
  5
170
330
9A
100
AcDbEntity
  8
PILAR_TORNILLO
  6
Continuous
 62
     7
100
AcDbLine
 10
108.9777235764799
 20
194.3240837632065
 30
0.0
 11
108.9707144852124
 21
194.323839000346
 31
0.0
  0
SPLINE
  5
171
330
9A
100
AcDbEntity
  8
PILAR_TORNILLO
  6
Continuous
 62
     7
100
AcDbSpline
210
0.0
220
0.0
230
1.0
 70
     8
 71
     3
 72
    14
 73
    10
 74
     0
 42
0.000000001
 43
0.0000000001
 40
0.0
 40
0.0
 40
0.0
 40
0.0
 40
0.25
 40
0.25
 40
0.5
 40
0.5
 40
0.75
 40
0.75
 40
1.0
 40
1.0
 40
1.0
 40
1.0
 10
111.4609804044311
 20
194.3261527793831
 30
0.0
 10
111.4586840017906
 20
194.3262329715303
 30
0.0
 10
111.4560212249762
 20
194.3299722579371
 30
0.0
 10
111.4503820327654
 20
194.3445614785326
 30
0.0
 10
111.4475358514866
 20
194.3551083486246
 30
0.0
 10
111.4424436174069
 20
194.3822570620933
 30
0.0
 10
111.4402968924544
 20
194.3983924618115
 30
0.0
 10
111.4374128122099
 20
194.434948414305
 30
0.0
 10
111.4367275924623
 20
194.4547341590556
 30
0.0
 10
111.4369277734162
 20
194.4756454333698
 30
0.0
  0
SPLINE
  5
172
330
9A
100
AcDbEntity
  8
PILAR_TORNILLO
  6
Continuous
 62
     7
100
AcDbSpline
210
0.0
220
0.0
230
1.0
 70
     8
 71
     3
 72
    14
 73
    10
 74
     0
 42
0.000000001
 43
0.0000000001
 40
0.0
 40
0.0
 40
0.0
 40
0.0
 40
0.2499999999999999
 40
0.2499999999999999
 40
0.4999999999999999
 40
0.4999999999999999
 40
0.7499999999999999
 40
0.7499999999999999
 40
1.0
 40
1.0
 40
1.0
 40
1.0
 10
109.0020327750064
 20
194.4735853767282
 30
0.0
 10
109.0022333863311
 20
194.4526768733325
 30
0.0
 10
109.0015447199475
 20
194.432922327938
 30
0.0
 10
108.9986299259335
 20
194.3962951940948
 30
0.0
 10
108.9964608021445
 20
194.3801556503604
 30
0.0
 10
108.9913299149967
 20
194.3530565709718
 30
0.0
 10
108.9884393501682
 20
194.3424586487338
 30
0.0
 10
108.9827665808963
 20
194.3279428326099
 30
0.0
 10
108.9800549698281
 20
194.3241651772561
 30
0.0
 10
108.9777235764799
 20
194.3240837632065
 30
0.0
  0
ELLIPSE
  5
173
330
9A
100
AcDbEntity
  8
PILAR_TORNILLO
  6
Continuous
 62
     7
100
AcDbEllipse
 10
108.9361601059212
 20
194.5027420528056
 30
0.0
 11
-0.00236949912928823
 21
0.1800269253536848
 31
0.0
210
0.0
220
0.0
230
0.9999999999999999
 40
0.0335289358437544
 41
2.412098856085665
 42
3.142321869654013
  0
ELLIPSE
  5
174
330
9A
100
AcDbEntity
  8
PILAR_TORNILLO
  6
Continuous
 62
     7
100
AcDbEllipse
 10
111.5022577859592
 20
194.5048210594313
 30
0.0
 11
0.00236949912928823
 21
0.1800269253536845
 31
0.0
210
0.0
220
0.0
230
0.9999999999999999
 40
0.0335289358437548
 41
3.140863437742528
 42
3.853578419761135
  0
LINE
  5
175
330
9A
100
AcDbEntity
  8
PILAR_TORNILLO
  6
Continuous
 62
     7
100
AcDbLine
 10
108.8597433064684
 20
194.3199638013928
 30
0.0
 11
108.8555620406802
 21
194.319817788374
 31
0.0
  0
LINE
  5
176
330
9A
100
AcDbEntity
  8
PILAR_TORNILLO
  6
Continuous
 62
     7
100
AcDbLine
 10
111.5788076603957
 20
194.3220381609377
 30
0.0
 11
111.5829127300627
 21
194.3218948087461
 31
0.0
  0
ELLIPSE
  5
177
330
9A
100
AcDbEntity
  8
PILAR_TORNILLO
  6
Continuous
 62
     7
100
AcDbEllipse
 10
108.8573606709985
 20
194.4999903159026
 30
0.0
 11
0.002378263759113264
 21
-0.1800266197112144
 31
0.0
210
0.0
220
0.0
230
1.0
 40
0.0334547128675295
 41
0.0007259714622805
 42
0.7512682839932203
  0
ELLIPSE
  5
178
330
9A
100
AcDbEntity
  8
PILAR_TORNILLO
  6
Continuous
 62
     7
100
AcDbEllipse
 10
111.5811902958657
 20
194.5020646754475
 30
0.0
 11
-0.00237826375911309
 21
-0.1800266197112144
 31
0.0
210
0.0
220
0.0
230
1.0
 40
0.0334547128675293
 41
5.548946136479774
 42
6.282459335498158
  0
LINE
  5
179
330
9A
100
AcDbEntity
  8
PILAR_TORNILLO
  6
Continuous
 62
     7
100
AcDbLine
 10
109.0880076605485
 20
196.6684768909336
 30
0.0
 11
110.2021109121806
 21
196.6684768909336
 31
0.0
  0
LINE
  5
17A
330
9A
100
AcDbEntity
  8
PILAR_TORNILLO
  6
Continuous
 62
     7
100
AcDbLine
 10
110.2021109121806
 20
196.6684768909336
 30
0.0
 11
110.2363455762725
 21
196.6684768909336
 31
0.0
  0
LINE
  5
17B
330
9A
100
AcDbEntity
  8
PILAR_TORNILLO
  6
Continuous
 62
     7
100
AcDbLine
 10
110.2363455762725
 20
196.6684768909336
 30
0.0
 11
111.3509553505088
 21
196.6684768909336
 31
0.0
  0
SPLINE
  5
17C
330
9A
100
AcDbEntity
  8
PILAR_TORNILLO
  6
Continuous
 62
     7
100
AcDbSpline
210
0.0
220
0.0
230
1.0
 70
     8
 71
     3
 72
    11
 73
     7
 74
     0
 42
0.000000001
 43
0.0000000001
 40
0.0
 40
0.0
 40
0.0
 40
0.0
 40
0.5421810531643906
 40
0.5421810531643906
 40
0.5421810531643906
 40
1.0
 40
1.0
 40
1.0
 40
1.0
 10
111.4566480524159
 20
196.5639516329863
 30
0.0
 10
111.4531322429799
 20
196.1865375501032
 30
0.0
 10
111.4495907166617
 20
195.8091238548836
 30
0.0
 10
111.4460228191687
 20
195.4317105624925
 30
0.0
 10
111.4430100781918
 20
195.1130218968534
 30
0.0
 10
111.4399785336758
 20
194.7943335172758
 30
0.0
 10
111.4369277734162
 20
194.4756454333698
 30
0.0
  0
ARC
  5
17D
330
9A
100
AcDbEntity
  8
PILAR_TORNILLO
  6
Continuous
 62
     7
100
AcDbCircle
 10
111.3511535570251
 20
196.5629780897156
 30
0.0
 40
0.1054989874086985
100
AcDbArc
 50
0.5287322053842597
 51
90.10764466860451
  0
ARC
  5
17E
330
9A
100
AcDbEntity
  8
PILAR_TORNILLO
  6
Continuous
 62
     7
100
AcDbCircle
 10
110.4646205744929
 20
228.572062359561
 30
0.0
 40
32.02347999205624
100
AcDbArc
 50
269.5915714113863
 51
271.7752000237929
  0
LINE
  5
17F
330
9A
100
AcDbEntity
  8
PILAR_TORNILLO
  6
Continuous
 62
     7
100
AcDbLine
 10
110.2021109121806
 20
196.549395991396
 30
0.0
 11
110.2003383280065
 21
149.6493959913959
 31
0.0
  0
LINE
  5
180
330
9A
100
AcDbEntity
  8
PILAR_TORNILLO
  6
Continuous
 62
     7
100
AcDbLine
 10
110.2363455762725
 20
196.549395991396
 30
0.0
 11
110.2021109121806
 21
196.549395991396
 31
0.0
  0
SPLINE
  5
181
330
9A
100
AcDbEntity
  8
PILAR_TORNILLO
  6
Continuous
 62
     7
100
AcDbSpline
210
0.0
220
0.0
230
1.0
 70
     8
 71
     3
 72
    11
 73
     7
 74
     0
 42
0.000000001
 43
0.0000000001
 40
0.0
 40
0.0
 40
0.0
 40
0.0
 40
0.5290620815385441
 40
0.5290620815385441
 40
0.5290620815385441
 40
1.0
 40
1.0
 40
1.0
 40
1.0
 10
108.982248714577
 20
196.5639212742842
 30
0.0
 10
108.9856904736209
 20
196.1952814024806
 30
0.0
 10
108.9891568373771
 20
195.8266419020919
 30
0.0
 10
108.9926484185687
 20
195.458002787332
 30
0.0
 10
108.9957564053977
 20
195.1298633426394
 30
0.0
 10
108.998884373458
 20
194.8017242022535
 30
0.0
 10
109.0020327750064
 20
194.4735853767282
 30
0.0
  0
ARC
  5
182
330
9A
100
AcDbEntity
  8
PILAR_TORNILLO
  6
Continuous
 62
     7
100
AcDbCircle
 10
109.9569104131759
 20
227.1874611050747
 30
0.0
 40
30.6390462840267
100
AcDbArc
 50
268.1770508104241
 51
270.4585359336854
  0
ARC
  5
183
330
9A
100
AcDbEntity
  8
PILAR_TORNILLO
  6
Continuous
 62
     7
100
AcDbCircle
 10
109.0876023549044
 20
196.5631209907128
 30
0.0
 40
0.1053566798262694
100
AcDbArc
 50
89.77958340999066
 51
179.5647802105968
  0
LINE
  5
184
330
9A
100
AcDbEntity
  8
PILAR_TORNILLO
  6
Continuous
 62
     7
100
AcDbLine
 10
110.2021109121806
 20
196.6684768909336
 30
0.0
 11
110.2021109121806
 21
196.549395991396
 31
0.0
  0
LINE
  5
185
330
9A
100
AcDbEntity
  8
PILAR_TORNILLO
  6
Continuous
 62
     7
100
AcDbLine
 10
110.2363455762725
 20
196.6684768909336
 30
0.0
 11
110.2363455762725
 21
196.549395991396
 31
0.0
  0
LINE
  5
186
330
9A
100
AcDbEntity
  8
PILAR_TORNILLO
  6
Continuous
 62
     7
100
AcDbLine
 10
108.8555620406802
 20
194.3198177883741
 30
0.0
 11
109.230740019907
 21
151.6964747375091
 31
0.0
  0
LINE
  5
187
330
9A
100
AcDbEntity
  8
PILAR_TORNILLO
  6
Continuous
 62
     7
100
AcDbLine
 10
109.2741423138332
 20
149.6671567002638
 30
0.0
 11
109.2609240022446
 21
151.4755217275502
 31
0.0
  0
LINE
  5
188
330
9A
100
AcDbEntity
  8
PILAR_TORNILLO
  6
Continuous
 62
     7
100
AcDbLine
 10
109.2802405693884
 20
149.6671567002634
 30
0.0
 11
108.9707144852124
 21
194.323839000346
 31
0.0
  0
LINE
  5
189
330
9A
100
AcDbEntity
  8
PILAR_TORNILLO
  6
Continuous
 62
     7
100
AcDbLine
 10
109.2741423138332
 20
149.6671567002635
 30
0.0
 11
109.2802405693884
 21
149.6671567002634
 31
0.0
  0
LINE
  5
18A
330
9A
100
AcDbEntity
  8
PILAR_TORNILLO
  6
Continuous
 62
     7
100
AcDbLine
 10
111.0582806417369
 20
149.5684768909336
 30
0.0
 11
110.2381181604467
 21
149.5684768909336
 31
0.0
  0
LINE
  5
18B
330
9A
100
AcDbEntity
  8
PILAR_TORNILLO
  6
Continuous
 62
     7
100
AcDbLine
 10
110.2381181604467
 20
149.5684768909336
 30
0.0
 11
110.2003383280065
 21
149.5684768909336
 31
0.0
  0
LINE
  5
18C
330
9A
100
AcDbEntity
  8
PILAR_TORNILLO
  6
Continuous
 62
     7
100
AcDbLine
 10
110.2003383280065
 20
149.5684768909336
 30
0.0
 11
109.3801758467162
 21
149.5684768909336
 31
0.0
  0
ARC
  5
18D
330
9A
100
AcDbEntity
  8
PILAR_TORNILLO
  6
Continuous
 62
     7
100
AcDbCircle
 10
111.0647555242247
 20
149.6679091929608
 30
0.0
 40
0.0994325711497035
100
AcDbArc
 50
269.8666943876644
 51
359.5663888931937
  0
ARC
  5
18E
330
9A
100
AcDbEntity
  8
PILAR_TORNILLO
  6
Continuous
 62
     7
100
AcDbCircle
 10
109.3735787449217
 20
149.6679159352831
 30
0.0
 40
0.0994393295705297
100
AcDbArc
 50
180.4374665953017
 51
270.1372301186335
  0
ARC
  5
18F
330
9A
100
AcDbEntity
  8
PILAR_TORNILLO
  6
Continuous
 62
     7
100
AcDbCircle
 10
109.9835651107261
 20
162.2612300358552
 30
0.0
 40
12.61369686462736
100
AcDbArc
 50
266.8035986060369
 51
270.9847075005284
  0
LINE
  5
190
330
9A
100
AcDbEntity
  8
PILAR_TORNILLO
  6
Continuous
 62
     7
100
AcDbLine
 10
110.2381181604467
 20
149.6493959913959
 30
0.0
 11
110.2363455762726
 21
196.549395991396
 31
0.0
  0
LINE
  5
191
330
9A
100
AcDbEntity
  8
PILAR_TORNILLO
  6
Continuous
 62
     7
100
AcDbLine
 10
110.2003383280065
 20
149.6493959913959
 30
0.0
 11
110.2381181604467
 21
149.6493959913959
 31
0.0
  0
LINE
  5
192
330
9A
100
AcDbEntity
  8
PILAR_TORNILLO
  6
Continuous
 62
     7
100
AcDbLine
 10
111.1582159190648
 20
149.6671567002634
 30
0.0
 11
111.1641852479505
 21
149.6671567002635
 31
0.0
  0
ARC
  5
193
330
9A
100
AcDbEntity
  8
PILAR_TORNILLO
  6
Continuous
 62
     7
100
AcDbCircle
 10
110.4675542695066
 20
161.6052259072525
 30
0.0
 40
11.95803118849554
100
AcDbArc
 50
268.9006110450249
 51
273.3110828484098
  0
ELLIPSE
  5
194
330
9A
100
AcDbEntity
  8
PILAR_TORNILLO
  6
Continuous
 62
     7
100
AcDbEllipse
 10
111.0582806417369
 20
149.6684768909336
 30
0.0
 11
-4.895389649206550E-13
 21
-0.1000000000000001
 31
0.0
210
0.0
220
0.0
230
1.0
 40
0.9994398734320378
 41
0.0
 42
1.557594036573721
  0
LINE
  5
195
330
9A
100
AcDbEntity
  8
PILAR_TORNILLO
  6
Continuous
 62
     7
100
AcDbLine
 10
110.2381181604467
 20
149.5684768909336
 30
0.0
 11
110.2381181604467
 21
149.6493959913959
 31
0.0
  0
LINE
  5
196
330
9A
100
AcDbEntity
  8
PILAR_TORNILLO
  6
Continuous
 62
     7
100
AcDbLine
 10
110.2003383280065
 20
149.5684768909336
 30
0.0
 11
110.2003383280065
 21
149.6493959913959
 31
0.0
  0
ELLIPSE
  5
197
330
9A
100
AcDbEntity
  8
PILAR_TORNILLO
  6
Continuous
 62
     7
100
AcDbEllipse
 10
109.3801758467163
 20
149.6684768909336
 30
0.0
 11
9.471590178833368E-14
 21
-0.09999999999998899
 31
0.0
210
0.0
220
0.0
230
1.0
 40
0.9994398734322335
 41
4.725591270609529
 42
6.283185307179586
  0
LINE
  5
198
330
9A
100
AcDbEntity
  8
PILAR_TORNILLO
  6
Continuous
 62
     7
100
AcDbLine
 10
109.2307400199071
 20
151.6964747375091
 30
0.0
 11
109.2595253821202
 21
151.6668624202239
 31
0.0
  0
LINE
  5
199
330
9A
100
AcDbEntity
  8
PILAR_TORNILLO
  6
Continuous
 62
     7
100
AcDbLine
 10
111.2077164685461
 20
151.6964747375091
 30
0.0
 11
111.5829127300627
 21
194.3218948087461
 31
0.0
  0
LINE
  5
19A
330
9A
100
AcDbEntity
  8
PILAR_TORNILLO
  6
Continuous
 62
     7
100
AcDbLine
 10
111.1788022975487
 20
151.6667299109797
 30
0.0
 11
111.2077164685461
 21
151.6964747375091
 31
0.0
  0
ELLIPSE
  5
19B
330
9A
100
AcDbEntity
  8
PILAR_TORNILLO
  6
Continuous
 62
     7
100
AcDbEllipse
 10
111.1077811912183
 20
151.6977949281792
 30
0.0
 11
-0.07170480550531995
 21
0.06970237347065922
 31
0.0
210
0.0
220
0.0
230
1.0
 40
0.9988162243668365
 41
3.141592653589793
 42
3.900212693040257
  0
ELLIPSE
  5
19C
330
9A
100
AcDbEntity
  8
PILAR_TORNILLO
  6
Continuous
 62
     7
100
AcDbEllipse
 10
109.3306752972349
 20
151.6977949281792
 30
0.0
 11
0.07170480550715339
 21
0.06970237346879404
 31
0.0
210
0.0
220
0.0
230
1.0
 40
0.9988162243666527
 41
2.382972614165447
 42
3.141592653589841
  0
LINE
  5
19D
330
9A
100
AcDbEntity
  8
PILAR_TORNILLO
  6
Continuous
 62
     7
100
AcDbLine
 10
111.1774049823511
 20
151.4755816465591
 30
0.0
 11
111.1641852479505
 21
149.6671567002635
 31
0.0
  0
LINE
  5
19E
330
9A
100
AcDbEntity
  8
PILAR_TORNILLO
  6
Continuous
 62
     7
100
AcDbLine
 10
111.1778850385386
 20
151.5412518191448
 30
0.0
 11
111.1774049823511
 21
151.4755816465591
 31
0.0
  0
LINE
  5
19F
330
9A
100
AcDbEntity
  8
PILAR_TORNILLO
  6
Continuous
 62
     7
100
AcDbLine
 10
109.2609240022447
 20
151.4755217275502
 30
0.0
 11
109.2604394780966
 21
151.541807931877
 31
0.0
  0
LINE
  5
1A0
330
9A
100
AcDbEntity
  8
PILAR_TORNILLO
  6
Continuous
 62
     7
100
AcDbLine
 10
109.2604394780966
 20
151.541807931877
 30
0.0
 11
109.2595253821202
 21
151.6668624202239
 31
0.0
  0
LINE
  5
1A1
330
9A
100
AcDbEntity
  8
PILAR_TORNILLO
  6
Continuous
 62
     7
100
AcDbLine
 10
108.8554766029966
 20
194.3198148048244
 30
0.0
 11
109.2306501621466
 21
151.6969739115027
 31
0.0
  0
LINE
  5
1A2
330
9A
100
AcDbEntity
  8
PILAR_TORNILLO
  6
Continuous
 62
     7
100
AcDbLine
 10
111.2078063263066
 20
151.6969739115027
 30
0.0
 11
111.5829981677462
 21
194.3218918251964
 31
0.0
  0
LINE
  5
1A3
330
9A
100
AcDbEntity
  8
PILAR_TORNILLO
  6
Continuous
 62
     7
100
AcDbLine
 10
111.1785125335386
 20
151.6270911255626
 30
0.0
 11
111.179485996721
 21
151.628092554706
 31
0.0
  0
ARC
  5
1A4
330
9A
100
AcDbEntity
  8
PILAR_TORNILLO
  6
Continuous
 62
     7
100
AcDbCircle
 10
110.8368606558039
 20
151.8847714753199
 30
0.0
 40
0.4281076880015776
100
AcDbArc
 50
323.1611611773685
 51
327.5848200859404
  0
ARC
  5
1A5
330
9A
100
AcDbEntity
  8
PILAR_TORNILLO
  6
Continuous
 62
     7
100
AcDbCircle
 10
109.3190420484641
 20
151.6875806611471
 30
0.0
 40
0.0845424552290265
100
AcDbArc
 50
199.7891554683754
 51
224.7203992302696
  0
LINE
  5
1A6
330
9A
100
AcDbEntity
  8
PILAR_TORNILLO
  6
Continuous
 62
     7
100
AcDbLine
 10
109.2589704917321
 20
151.6280925547059
 30
0.0
 11
109.259815124916
 21
151.6272236566304
 31
0.0
  0
LINE
  5
1A8
330
9A
100
AcDbEntity
  8
DIN912M6X10
  6
Continuous
 62
     7
100
AcDbLine
 10
86.45212661408154
 20
196.4530967608936
 30
0.0
 11
86.4514235573801
 21
196.4529727930282
 31
0.0
  0
ENDBLK
  5
1AA
330
9A
100
AcDbEntity
  8
0
100
AcDbBlockEnd
  0
BLOCK
  5
1EA
330
1AB
100
AcDbEntity
  8
0
100
AcDbBlockBegin
  2
SE1
 70
     0
 10
0.0
 20
0.0
 30
0.0
  3
SE1
  1

  0
CIRCLE
  5
1AD
330
1AB
100
AcDbEntity
  8
ILBGT_CÚPULA_ESS
  6
Continuous
 62
     7
100
AcDbCircle
 10
110.2189764260956
 20
84.4119293349508
 30
0.0
 40
20.90885993226102
  0
CIRCLE
  5
1AE
330
1AB
100
AcDbEntity
  8
ILBGT_CÚPULA_ESS
  6
Continuous
 62
     7
100
AcDbCircle
 10
110.2189764260956
 20
84.4119293349508
 30
0.0
 40
20.93007513316421
  0
ARC
  5
1AF
330
1AB
100
AcDbEntity
  8
ESTRUCTURA_CLASS
  6
Continuous
 62
     7
100
AcDbCircle
 10
110.2189764260956
 20
84.4119293349508
 30
0.0
 40
22.99827011064681
100
AcDbArc
 50
1.230651208584494
 51
88.76357681518681
  0
ARC
  5
1B0
330
1AB
100
AcDbEntity
  8
ESTRUCTURA_CLASS
  6
Continuous
 62
     7
100
AcDbCircle
 10
110.2189764260956
 20
84.4119293349508
 30
0.0
 40
22.99827011064681
100
AcDbArc
 50
91.23469488984065
 51
178.7649423012274
  0
ARC
  5
1B1
330
1AB
100
AcDbEntity
  8
ESTRUCTURA_CLASS
  6
Continuous
 62
     7
100
AcDbCircle
 10
110.2189764260956
 20
84.4119293349508
 30
0.0
 40
22.99827011064681
100
AcDbArc
 50
181.2445142429792
 51
268.7653301494676
  0
ARC
  5
1B2
330
1AB
100
AcDbEntity
  8
ESTRUCTURA_CLASS
  6
Continuous
 62
     7
100
AcDbCircle
 10
110.2189764260956
 20
84.4119293349508
 30
0.0
 40
22.99827011064681
100
AcDbArc
 50
271.2341020129598
 51
358.7636667540929
  0
ARC
  5
1B3
330
1AB
100
AcDbEntity
  8
ESTRUCTURA_CLASS
  6
Continuous
 62
     7
100
AcDbCircle
 10
110.2189764260956
 20
84.4119293349508
 30
0.0
 40
23.08827011064682
100
AcDbArc
 50
1.240895455633463
 51
88.75910454436654
  0
ARC
  5
1B4
330
1AB
100
AcDbEntity
  8
ESTRUCTURA_CLASS
  6
Continuous
 62
     7
100
AcDbCircle
 10
110.2189764260956
 20
84.4119293349508
 30
0.0
 40
23.08827011064682
100
AcDbArc
 50
91.2842912680317
 51
178.7591045443665
  0
ARC
  5
1B5
330
1AB
100
AcDbEntity
  8
ESTRUCTURA_CLASS
  6
Continuous
 62
     7
100
AcDbCircle
 10
110.2189764260956
 20
84.4119293349508
 30
0.0
 40
23.08827011064682
100
AcDbArc
 50
181.2408954556334
 51
268.7591045443666
  0
ARC
  5
1B6
330
1AB
100
AcDbEntity
  8
ESTRUCTURA_CLASS
  6
Continuous
 62
     7
100
AcDbCircle
 10
110.2189764260956
 20
84.4119293349508
 30
0.0
 40
23.08827011064682
100
AcDbArc
 50
271.2408954556334
 51
358.7591045443665
  0
ARC
  5
1B7
330
1AB
100
AcDbEntity
  8
ESTRUCTURA_CLASS
  6
Continuous
 62
     7
100
AcDbCircle
 10
110.2189764260956
 20
84.4119293349508
 30
0.0
 40
23.26644704100828
100
AcDbArc
 50
1.231391076975908
 51
88.76860892302409
  0
ARC
  5
1B8
330
1AB
100
AcDbEntity
  8
ESTRUCTURA_CLASS
  6
Continuous
 62
     7
100
AcDbCircle
 10
110.2189764260956
 20
84.4119293349508
 30
0.0
 40
23.26644704100828
100
AcDbArc
 50
91.23139107697591
 51
178.7686089230241
  0
ARC
  5
1B9
330
1AB
100
AcDbEntity
  8
ESTRUCTURA_CLASS
  6
Continuous
 62
     7
100
AcDbCircle
 10
110.2189764260956
 20
84.4119293349508
 30
0.0
 40
23.26644704100828
100
AcDbArc
 50
181.2313910769758
 51
268.768608923024
  0
ARC
  5
1BA
330
1AB
100
AcDbEntity
  8
ESTRUCTURA_CLASS
  6
Continuous
 62
     7
100
AcDbCircle
 10
110.2189764260956
 20
84.4119293349508
 30
0.0
 40
23.26644704100828
100
AcDbArc
 50
271.2313910769759
 51
358.7686089230241
  0
CIRCLE
  5
1BB
330
1AB
100
AcDbEntity
  8
ESTRUCTURA_CLASS
  6
Continuous
 62
     7
100
AcDbCircle
 10
110.2189764260956
 20
84.4119293349508
 30
0.0
 40
24.29415135245623
  0
CIRCLE
  5
1BC
330
1AB
100
AcDbEntity
  8
ESTRUCTURA_CLASS
  6
Continuous
 62
     7
100
AcDbCircle
 10
110.2189764260956
 20
84.4119293349508
 30
0.0
 40
24.89415135245623
  0
CIRCLE
  5
1BD
330
1AB
100
AcDbEntity
  8
ESTRUCTURA_CLASS
  6
Continuous
 62
     7
100
AcDbCircle
 10
110.2189764260956
 20
84.4119293349508
 30
0.0
 40
22.84827011064682
  0
LINE
  5
1BE
330
1AB
100
AcDbEntity
  8
PILAR_TORNILLO
  6
Continuous
 62
     7
100
AcDbLine
 10
133.0324323257508
 20
83.15110541244377
 30
0.0
 11
132.6824578612813
 21
83.13939218317236
 31
0.0
  0
LINE
  5
1BF
330
1AB
100
AcDbEntity
  8
PILAR_TORNILLO
  6
Continuous
 62
     7
100
AcDbLine
 10
133.0324029146271
 20
85.67328531224122
 30
0.0
 11
132.6824277131103
 21
85.68499856618071
 31
0.0
  0
LINE
  5
1C0
330
1AB
100
AcDbEntity
  8
PILAR_TORNILLO
  6
Continuous
 62
     7
100
AcDbLine
 10
132.7184530642663
 20
84.4419293349508
 30
0.0
 11
133.0672268415886
 21
84.4419293349508
 31
0.0
  0
ELLIPSE
  5
1C1
330
1AB
100
AcDbEntity
  8
DIN912M6X10
  6
Continuous
 62
     7
100
AcDbEllipse
 10
133.7526019227893
 20
84.4119293349508
 30
0.0
 11
0.0
 21
0.5
 31
0.0
210
0.0
220
0.0
230
1.0
 40
0.1736481776669295
 41
3.14159265359012
 42
6.283185307179586
  0
ELLIPSE
  5
1C2
330
1AB
100
AcDbEntity
  8
DIN912M6X10
  6
Continuous
 62
     7
100
AcDbEllipse
 10
133.2208057361627
 20
84.4119293349508
 30
0.0
 11
0.0
 21
0.5000000000000004
 31
0.0
210
0.0
220
0.0
230
1.0
 40
0.1736481776669295
 41
3.141251233019003
 42
6.273795648971288
  0
ELLIPSE
  5
1C3
330
1AB
100
AcDbEntity
  8
DIN912M6X10
  6
Continuous
 62
     7
100
AcDbEllipse
 10
133.161717270982
 20
84.4119293349508
 30
0.0
 11
0.0
 21
0.4400000000000001
 31
0.0
210
0.0
220
0.0
230
1.0
 40
0.173648177666931
 41
0.0
 42
6.283185307179586
  0
LINE
  5
1C4
330
1AB
100
AcDbEntity
  8
DIN912M6X10
  6
Continuous
 62
     7
100
AcDbLine
 10
133.7526019227893
 20
84.9119293349508
 30
0.0
 11
133.2208057361627
 21
84.9119293349508
 31
0.0
  0
LINE
  5
1C5
330
1AB
100
AcDbEntity
  8
DIN912M6X10
  6
Continuous
 62
     7
100
AcDbLine
 10
133.2208057361627
 20
83.9119293349508
 30
0.0
 11
133.7526019227893
 21
83.9119293349508
 31
0.0
  0
SPLINE
  5
1C6
330
1AB
100
AcDbEntity
  8
DIN912M6X10
  6
Continuous
 62
     7
100
AcDbSpline
210
0.0
220
0.0
230
1.0
 70
     8
 71
     3
 72
    14
 73
    10
 74
     0
 42
0.000000001
 43
0.0000000001
 40
0.0
 40
0.0
 40
0.0
 40
0.0
 40
0.1350894541247508
 40
0.3147201495765882
 40
0.4957294043190874
 40
0.6809940142120976
 40
0.8361815618060779
 40
0.9462410459467347
 40
1.0
 40
1.0
 40
1.0
 40
1.0
 10
133.0850585667894
 20
84.39413749327151
 30
0.0
 10
133.0853740921168
 20
84.35860909081771
 30
0.0
 10
133.086202720918
 20
84.2879749653714
 30
0.0
 10
133.0949525094956
 20
84.17445734830257
 30
0.0
 10
133.1093856445749
 20
84.07128070779487
 30
0.0
 10
133.12927168372
 20
83.99506824381274
 30
0.0
 10
133.149581078976
 20
83.95039280097399
 30
0.0
 10
133.1844784230194
 20
83.91492514155388
 30
0.0
 10
133.210676214193
 20
83.91480168600563
 30
0.0
 10
133.2207057016696
 20
83.91476640382565
 30
0.0
  0
SPLINE
  5
1C7
330
1AB
100
AcDbEntity
  8
DIN912M6X10
  6
Continuous
 62
     7
100
AcDbSpline
210
0.0
220
0.0
230
1.0
 70
     8
 71
     3
 72
    16
 73
    12
 74
     0
 42
0.000000001
 43
0.0000000001
 40
0.0
 40
0.0
 40
0.0
 40
0.0
 40
0.0127788595449217
 40
0.0925358846460987
 40
0.1658123794579549
 40
0.2757040032882329
 40
0.450832882021902
 40
0.6153977660505373
 40
0.7881784983997658
 40
0.9582213713837948
 40
1.0
 40
1.0
 40
1.0
 40
1.0
 10
133.2240923546325
 20
84.91027159120517
 30
0.0
 10
133.2217837988237
 20
84.9109449243278
 30
0.0
 10
133.2074608448378
 20
84.915141437868
 30
0.0
 10
133.1770839530646
 20
84.90037123207537
 30
0.0
 10
133.1521413553832
 20
84.87496597983905
 30
0.0
 10
133.1315543890333
 20
84.83521697011447
 30
0.0
 10
133.113429506215
 20
84.77147068237507
 30
0.0
 10
133.0974140857845
 20
84.67261333917676
 30
0.0
 10
133.0876322343808
 20
84.55666965956628
 30
0.0
 10
133.0835823886986
 20
84.45596184363353
 30
0.0
 10
133.0847741596834
 20
84.40567578775689
 30
0.0
 10
133.0850585667894
 20
84.39413749327151
 30
0.0
  0
LINE
  5
1C8
330
1AB
100
AcDbEntity
  8
PILAR_TORNILLO
  6
Continuous
 62
     7
100
AcDbLine
 10
111.4848096327887
 20
107.2251078364641
 30
0.0
 11
111.4965230945714
 21
106.87512642489
 31
0.0
  0
LINE
  5
1C9
330
1AB
100
AcDbEntity
  8
PILAR_TORNILLO
  6
Continuous
 62
     7
100
AcDbLine
 10
108.9626296999268
 20
107.2256322337071
 30
0.0
 11
108.9509166779737
 21
106.8756639636091
 31
0.0
  0
LINE
  5
1CA
330
1AB
100
AcDbEntity
  8
PILAR_TORNILLO
  6
Continuous
 62
     7
100
AcDbLine
 10
110.1939764260956
 20
106.9114120843739
 30
0.0
 11
110.1939764260956
 21
107.2601857684093
 31
0.0
  0
LINE
  5
1CB
330
1AB
100
AcDbEntity
  8
PILAR_PASACABLES
  6
Continuous
 62
     7
100
AcDbLine
 10
87.40552052644044
 20
85.67275325745784
 30
0.0
 11
87.75549499090991
 21
85.68446648672925
 31
0.0
  0
LINE
  5
1CC
330
1AB
100
AcDbEntity
  8
PILAR_PASACABLES
  6
Continuous
 62
     7
100
AcDbLine
 10
87.4055499375641
 20
83.15057335766039
 30
0.0
 11
87.75552513908087
 21
83.1388601037209
 31
0.0
  0
LINE
  5
1CD
330
1AB
100
AcDbEntity
  8
PILAR_PASACABLES
  6
Continuous
 62
     7
100
AcDbLine
 10
87.71949978792493
 20
84.38192933495081
 30
0.0
 11
87.3707260106026
 21
84.38192933495081
 31
0.0
  0
LINE
  5
1CE
330
1AB
100
AcDbEntity
  8
PILAR_TORNILLO
  6
Continuous
 62
     7
100
AcDbLine
 10
108.9581525035886
 20
61.59847343529564
 30
0.0
 11
108.9464392743172
 21
61.94844789976511
 31
0.0
  0
LINE
  5
1CF
330
1AB
100
AcDbEntity
  8
PILAR_TORNILLO
  6
Continuous
 62
     7
100
AcDbLine
 10
111.480332403386
 20
61.59850284641931
 30
0.0
 11
111.4920456573255
 21
61.94847804793607
 31
0.0
  0
LINE
  5
1D0
330
1AB
100
AcDbEntity
  8
PILAR_TORNILLO
  6
Continuous
 62
     7
100
AcDbLine
 10
110.2489764260956
 20
61.91245269678013
 30
0.0
 11
110.2489764260956
 21
61.56367891945779
 31
0.0
  0
ELLIPSE
  5
1D1
330
1AB
100
AcDbEntity
  8
DIN912M6X10
  6
Continuous
 62
     7
100
AcDbEllipse
 10
110.2189764260956
 20
107.9455548316445
 30
0.0
 11
-0.5
 21
0.0
 31
0.0
210
0.0
220
0.0
230
1.0
 40
0.1736481776669299
 41
3.141592653589793
 42
6.283185307179586
  0
ELLIPSE
  5
1D2
330
1AB
100
AcDbEntity
  8
DIN912M6X10
  6
Continuous
 62
     7
100
AcDbEllipse
 10
110.2189764260956
 20
107.4137586450179
 30
0.0
 11
0.5000000000000002
 21
0.0
 31
0.0
210
0.0
220
0.0
230
1.0
 40
0.1736481776669295
 41
0.0
 42
3.132202995381542
  0
ELLIPSE
  5
1D3
330
1AB
100
AcDbEntity
  8
DIN912M6X10
  6
Continuous
 62
     7
100
AcDbEllipse
 10
110.2189764260956
 20
107.3546701798372
 30
0.0
 11
0.4400000000000001
 21
0.0
 31
0.0
210
0.0
220
0.0
230
1.0
 40
0.173648177666931
 41
0.0
 42
6.283185307179586
  0
LINE
  5
1D4
330
1AB
100
AcDbEntity
  8
DIN912M6X10
  6
Continuous
 62
     7
100
AcDbLine
 10
109.7189764260956
 20
107.9455548316445
 30
0.0
 11
109.7189764260956
 21
107.4137586450179
 31
0.0
  0
LINE
  5
1D5
330
1AB
100
AcDbEntity
  8
DIN912M6X10
  6
Continuous
 62
     7
100
AcDbLine
 10
110.7189764260956
 20
107.4137586450179
 30
0.0
 11
110.7189764260956
 21
107.9455548316445
 31
0.0
  0
SPLINE
  5
1D6
330
1AB
100
AcDbEntity
  8
DIN912M6X10
  6
Continuous
 62
     7
100
AcDbSpline
210
0.0
220
0.0
230
1.0
 70
     8
 71
     3
 72
    14
 73
    10
 74
     0
 42
0.000000001
 43
0.0000000001
 40
0.0
 40
0.0
 40
0.0
 40
0.0
 40
0.1350894541247508
 40
0.3147201495765883
 40
0.4957294043190875
 40
0.6809940142120976
 40
0.8361815618060779
 40
0.9462410459467347
 40
1.0
 40
1.0
 40
1.0
 40
1.0
 10
110.2367682677749
 20
107.2780114756446
 30
0.0
 10
110.2722966702287
 20
107.278327000972
 30
0.0
 10
110.342930795675
 20
107.2791556297732
 30
0.0
 10
110.4564484127438
 20
107.2879054183507
 30
0.0
 10
110.5596250532515
 20
107.3023385534301
 30
0.0
 10
110.6358375172337
 20
107.3222245925752
 30
0.0
 10
110.6805129600724
 20
107.3425339878312
 30
0.0
 10
110.7159806194925
 20
107.3774313318746
 30
0.0
 10
110.7161040750408
 20
107.4036291230482
 30
0.0
 10
110.7161393572207
 20
107.4136586105248
 30
0.0
  0
SPLINE
  5
1D7
330
1AB
100
AcDbEntity
  8
DIN912M6X10
  6
Continuous
 62
     7
100
AcDbSpline
210
0.0
220
0.0
230
1.0
 70
     8
 71
     3
 72
    16
 73
    12
 74
     0
 42
0.000000001
 43
0.0000000001
 40
0.0
 40
0.0
 40
0.0
 40
0.0
 40
0.0127788595449213
 40
0.0925358846460984
 40
0.1658123794579545
 40
0.2757040032882326
 40
0.4508328820219019
 40
0.6153977660505372
 40
0.7881784983997657
 40
0.9582213713837947
 40
1.0
 40
1.0
 40
1.0
 40
1.0
 10
109.7206341698412
 20
107.4170452634876
 30
0.0
 10
109.7199608367186
 20
107.4147367076789
 30
0.0
 10
109.7157643231784
 20
107.400413753693
 30
0.0
 10
109.730534528971
 20
107.3700368619198
 30
0.0
 10
109.7559397812073
 20
107.3450942642384
 30
0.0
 10
109.7956887909319
 20
107.3245072978885
 30
0.0
 10
109.8594350786713
 20
107.3063824150702
 30
0.0
 10
109.9582924218696
 20
107.2903669946398
 30
0.0
 10
110.0742361014801
 20
107.280585143236
 30
0.0
 10
110.1749439174129
 20
107.2765352975538
 30
0.0
 10
110.2252299732895
 20
107.2777270685386
 30
0.0
 10
110.2367682677749
 20
107.2780114756446
 30
0.0
  0
ELLIPSE
  5
1D8
330
1AB
100
AcDbEntity
  8
DIN912M6X10
  6
Continuous
 62
     7
100
AcDbEllipse
 10
86.6903509294019
 20
84.41192933495081
 30
0.0
 11
0.0
 21
0.5000000000000001
 31
0.0
210
0.0
220
0.0
230
1.0
 40
0.1736481776669294
 41
0.0
 42
3.141592653589793
  0
ELLIPSE
  5
1D9
330
1AB
100
AcDbEntity
  8
DIN912M6X10
  6
Continuous
 62
     7
100
AcDbEllipse
 10
87.2221471160285
 20
84.41192933495081
 30
0.0
 11
0.0
 21
0.5000000000000002
 31
0.0
210
0.0
220
0.0
230
1.0
 40
0.1736481776669295
 41
0.0
 42
3.132202995384569
  0
ELLIPSE
  5
1DA
330
1AB
100
AcDbEntity
  8
DIN912M6X10
  6
Continuous
 62
     7
100
AcDbEllipse
 10
87.28123558120922
 20
84.41192933495081
 30
0.0
 11
0.0
 21
-0.4400000000000001
 31
0.0
210
0.0
220
0.0
230
1.0
 40
0.1736481776669309
 41
0.0
 42
6.283185307179586
  0
LINE
  5
1DB
330
1AB
100
AcDbEntity
  8
DIN912M6X10
  6
Continuous
 62
     7
100
AcDbLine
 10
86.6903509294019
 20
83.91192933495081
 30
0.0
 11
87.2221471160285
 21
83.91192933495081
 31
0.0
  0
LINE
  5
1DC
330
1AB
100
AcDbEntity
  8
DIN912M6X10
  6
Continuous
 62
     7
100
AcDbLine
 10
87.2221471160285
 20
84.91192933495081
 30
0.0
 11
86.6903509294019
 21
84.91192933495081
 31
0.0
  0
SPLINE
  5
1DD
330
1AB
100
AcDbEntity
  8
DIN912M6X10
  6
Continuous
 62
     7
100
AcDbSpline
210
0.0
220
0.0
230
1.0
 70
     8
 71
     3
 72
    14
 73
    10
 74
     0
 42
0.000000001
 43
0.0000000001
 40
0.0
 40
0.0
 40
0.0
 40
0.0
 40
0.1350894541247509
 40
0.3147201495765884
 40
0.4957294043190875
 40
0.680994014212098
 40
0.8361815618060779
 40
0.9462410459467347
 40
1.0
 40
1.0
 40
1.0
 40
1.0
 10
87.35789428540181
 20
84.4297211766301
 30
0.0
 10
87.35757876007442
 20
84.4652495790839
 30
0.0
 10
87.35675013127327
 20
84.53588370453019
 30
0.0
 10
87.34800034269563
 20
84.64940132159904
 30
0.0
 10
87.33356720761634
 20
84.75257796210673
 30
0.0
 10
87.31368116847123
 20
84.82879042608886
 30
0.0
 10
87.29337177321517
 20
84.87346586892762
 30
0.0
 10
87.2584744291718
 20
84.90893352834773
 30
0.0
 10
87.23227663799824
 20
84.90905698389598
 30
0.0
 10
87.22224715052158
 20
84.90909226607594
 30
0.0
  0
SPLINE
  5
1DE
330
1AB
100
AcDbEntity
  8
DIN912M6X10
  6
Continuous
 62
     7
100
AcDbSpline
210
0.0
220
0.0
230
1.0
 70
     8
 71
     3
 72
    16
 73
    12
 74
     0
 42
0.000000001
 43
0.0000000001
 40
0.0
 40
0.0
 40
0.0
 40
0.0
 40
0.0127788595449217
 40
0.0925358846460987
 40
0.1658123794579549
 40
0.2757040032882329
 40
0.4508328820219021
 40
0.6153977660505373
 40
0.788178498399766
 40
0.9582213713837949
 40
1.0
 40
1.0
 40
1.0
 40
1.0
 10
87.21886049755877
 20
83.91358707869644
 30
0.0
 10
87.22116905336748
 20
83.9129137455738
 30
0.0
 10
87.23549200735336
 20
83.90871723203361
 30
0.0
 10
87.26586889912662
 20
83.92348743782622
 30
0.0
 10
87.29081149680799
 20
83.94889269006255
 30
0.0
 10
87.3113984631579
 20
83.98864169978714
 30
0.0
 10
87.32952334597621
 20
84.05238798752654
 30
0.0
 10
87.34553876640666
 20
84.15124533072483
 30
0.0
 10
87.35532061781039
 20
84.26718901033533
 30
0.0
 10
87.35937046349258
 20
84.36789682626808
 30
0.0
 10
87.35817869250782
 20
84.41818288214472
 30
0.0
 10
87.35789428540181
 20
84.4297211766301
 30
0.0
  0
ELLIPSE
  5
1DF
330
1AB
100
AcDbEntity
  8
DIN912M6X10
  6
Continuous
 62
     7
100
AcDbEllipse
 10
110.2189764260956
 20
60.8783038382571
 30
0.0
 11
0.5000000000000003
 21
0.0
 31
0.0
210
0.0
220
0.0
230
1.0
 40
0.1736481776669295
 41
3.141592653589793
 42
6.283185307179586
  0
ELLIPSE
  5
1E0
330
1AB
100
AcDbEntity
  8
DIN912M6X10
  6
Continuous
 62
     7
100
AcDbEllipse
 10
110.2189764260956
 20
61.41010002488369
 30
0.0
 11
0.5000000000000002
 21
0.0
 31
0.0
210
0.0
220
0.0
230
1.0
 40
0.1736481776669295
 41
3.141251233020304
 42
6.273795648974362
  0
ELLIPSE
  5
1E1
330
1AB
100
AcDbEntity
  8
DIN912M6X10
  6
Continuous
 62
     7
100
AcDbEllipse
 10
110.2189764260956
 20
61.46918849006443
 30
0.0
 11
-0.4400000000000001
 21
0.0
 31
0.0
210
0.0
220
0.0
230
1.0
 40
0.1736481776669309
 41
0.0
 42
6.283185307179586
  0
LINE
  5
1E2
330
1AB
100
AcDbEntity
  8
DIN912M6X10
  6
Continuous
 62
     7
100
AcDbLine
 10
110.7189764260956
 20
60.8783038382571
 30
0.0
 11
110.7189764260956
 21
61.41010002488369
 31
0.0
  0
LINE
  5
1E3
330
1AB
100
AcDbEntity
  8
DIN912M6X10
  6
Continuous
 62
     7
100
AcDbLine
 10
109.7189764260956
 20
61.4101000248837
 30
0.0
 11
109.7189764260956
 21
60.8783038382571
 31
0.0
  0
SPLINE
  5
1E4
330
1AB
100
AcDbEntity
  8
DIN912M6X10
  6
Continuous
 62
     7
100
AcDbSpline
210
0.0
220
0.0
230
1.0
 70
     8
 71
     3
 72
    14
 73
    10
 74
     0
 42
0.000000001
 43
0.0000000001
 40
0.0
 40
0.0
 40
0.0
 40
0.0
 40
0.1350894541247508
 40
0.3147201495765883
 40
0.4957294043190875
 40
0.6809940142120976
 40
0.8361815618060779
 40
0.9462410459467347
 40
1.0
 40
1.0
 40
1.0
 40
1.0
 10
110.2011845844163
 20
61.54584719425701
 30
0.0
 10
110.1656561819625
 20
61.54553166892961
 30
0.0
 10
110.0950220565162
 20
61.54470304012846
 30
0.0
 10
109.9815044394474
 20
61.53595325155083
 30
0.0
 10
109.8783277989397
 20
61.52152011647154
 30
0.0
 10
109.8021153349575
 20
61.50163407732641
 30
0.0
 10
109.7574398921188
 20
61.48132468207038
 30
0.0
 10
109.7219722326987
 20
61.446427338027
 30
0.0
 10
109.7218487771504
 20
61.42022954685343
 30
0.0
 10
109.7218134949705
 20
61.41020005937678
 30
0.0
  0
SPLINE
  5
1E5
330
1AB
100
AcDbEntity
  8
DIN912M6X10
  6
Continuous
 62
     7
100
AcDbSpline
210
0.0
220
0.0
230
1.0
 70
     8
 71
     3
 72
    16
 73
    12
 74
     0
 42
0.000000001
 43
0.0000000001
 40
0.0
 40
0.0
 40
0.0
 40
0.0
 40
0.0127788595449217
 40
0.0925358846460987
 40
0.1658123794579549
 40
0.2757040032882329
 40
0.4508328820219021
 40
0.6153977660505373
 40
0.788178498399766
 40
0.9582213713837949
 40
1.0
 40
1.0
 40
1.0
 40
1.0
 10
110.71731868235
 20
61.40681340641396
 30
0.0
 10
110.7179920154726
 20
61.40912196222267
 30
0.0
 10
110.7221885290128
 20
61.42344491620855
 30
0.0
 10
110.7074183232202
 20
61.45382180798181
 30
0.0
 10
110.6820130709839
 20
61.47876440566318
 30
0.0
 10
110.6422640612593
 20
61.49935137201309
 30
0.0
 10
110.5785177735198
 20
61.51747625483142
 30
0.0
 10
110.4796604303216
 20
61.53349167526181
 30
0.0
 10
110.3637167507111
 20
61.54327352666561
 30
0.0
 10
110.2630089347783
 20
61.54732337234778
 30
0.0
 10
110.2127228789017
 20
61.54613160136302
 30
0.0
 10
110.2011845844163
 20
61.54584719425701
 30
0.0
  0
CIRCLE
  5
1E7
330
1AB
100
AcDbEntity
  8
ILBSC_CUERPO_ESS
  6
Continuous
 62
     7
100
AcDbCircle
 10
110.2189764260956
 20
84.4119293349508
 30
0.0
 40
22.49949326036276
  0
CIRCLE
  5
1E8
330
1AB
100
AcDbEntity
  8
ILBSC_CUERPO_ESS
  6
Continuous
 62
     7
100
AcDbCircle
 10
110.2189764260956
 20
84.4119293349508
 30
0.0
 40
21.08441485727709
  0
CIRCLE
  5
1E9
330
1AB
100
AcDbEntity
  8
ILBSC_CUERPO_ESS
  6
Continuous
 62
     7
100
AcDbCircle
 10
110.2189764260956
 20
84.4119293349508
 30
0.0
 40
22.49949663862701
  0
ENDBLK
  5
1EB
330
1AB
100
AcDbEntity
  8
0
100
AcDbBlockEnd
  0
BLOCK
  5
1EE
330
1ED
100
AcDbEntity
  8
0
100
AcDbBlockBegin
  2
_OBLIQUE
 70
     0
 10
0.0
 20
0.0
 30
0.0
  3
_OBLIQUE
  1

  0
LINE
  5
1F0
330
1ED
100
AcDbEntity
  8
0
  6
ByBlock
 62
     0
370
    -2
100
AcDbLine
 10
-0.5
 20
-0.5
 30
0.0
 11
0.5
 21
0.5
 31
0.0
  0
ENDBLK
  5
1EF
330
1ED
100
AcDbEntity
  8
0
100
AcDbBlockEnd
  0
BLOCK
  5
1F2
330
1F1
100
AcDbEntity
  8
0
100
AcDbBlockBegin
  2
_DOT
 70
     0
 10
0.0
 20
0.0
 30
0.0
  3
_DOT
  1

  0
POLYLINE
  5
1F4
330
1F1
100
AcDbEntity
  8
0
  6
ByBlock
 62
     0
100
AcDb2dPolyline
 66
     1
 10
0.0
 20
0.0
 30
0.0
 70
     1
 40
0.5
 41
0.5
  0
VERTEX
  5
1F6
330
1F4
100
AcDbEntity
  8
0
  6
ByBlock
 62
     0
100
AcDbVertex
100
AcDb2dVertex
 10
-0.25
 20
0.0
 30
0.0
 42
1.0
  0
VERTEX
  5
1F7
330
1F4
100
AcDbEntity
  8
0
  6
ByBlock
 62
     0
100
AcDbVertex
100
AcDb2dVertex
 10
0.25
 20
0.0
 30
0.0
 42
1.0
  0
SEQEND
  5
1F8
330
1F4
100
AcDbEntity
  8
0
  6
ByBlock
 62
     0
  0
LINE
  5
1F5
330
1F1
100
AcDbEntity
  8
0
  6
ByBlock
 62
     0
370
    -2
100
AcDbLine
 10
-0.5
 20
0.0
 30
0.0
 11
-1.0
 21
0.0
 31
0.0
  0
ENDBLK
  5
1F3
330
1F1
100
AcDbEntity
  8
0
100
AcDbBlockEnd
  0
BLOCK
  5
1FC
330
1F9
100
AcDbEntity
  8
0
100
AcDbBlockBegin
  2
_SE_FILLED
 70
     0
 10
0.0
 20
0.0
 30
0.0
  3
_SE_FILLED
  1

  0
SOLID
  5
1FA
330
1F9
100
AcDbEntity
  8
0
 62
     0
100
AcDbTrace
 10
0.0
 20
0.0
 30
0.0
 11
-1.0
 21
-0.1665
 31
0.0
 12
-1.0
 22
0.1665
 32
0.0
 13
0.0
 23
0.0
 33
0.0
  0
LINE
  5
1FB
330
1F9
100
AcDbEntity
  8
0
 62
     0
100
AcDbLine
 10
0.0
 20
0.0
 30
0.0
 11
-1.0
 21
0.0
 31
0.0
  0
ENDBLK
  5
1FD
330
1F9
100
AcDbEntity
  8
0
100
AcDbBlockEnd
  0
BLOCK
  5
208
330
201
100
AcDbEntity
  8
0
100
AcDbBlockBegin
  2
DMBLK1
 70
     0
 10
0.0
 20
0.0
 30
0.0
  3
DMBLK1
  1

  0
LINE
  5
202
330
201
100
AcDbEntity
  8
Predeterminado
  6
Continuous
 62
     0
370
    -2
100
AcDbLine
 10
-133.9579642773814
 20
72.96732124977952
 30
0.0
 11
-123.9109418561283
 21
84.21024900312021
 31
0.0
  0
LINE
  5
203
330
201
100
AcDbEntity
  8
Predeterminado
  6
Continuous
 62
     0
370
    -2
100
AcDbLine
 10
-171.1317491374362
 20
31.36871024083711
 30
0.0
 11
-173.1307587715892
 21
29.1317568478127
 31
0.0
  0
MTEXT
  5
204
330
201
100
AcDbEntity
  8
Predeterminado
 62
     0
100
AcDbMText
 10
-130.2356548144039
 20
81.76324323168843
 30
0.0
 40
3.0
 41
0.0
 71
     5
 72
     1
  1
\A1;\A1;%%c500
  7
SEACAD_Arial
 11
0.6663365447176701
 21
0.7456511310081388
 31
0.0
 73
     1
 44
1.0
  0
LINE
  5
205
330
201
100
AcDbEntity
  8
Predeterminado
  6
Continuous
 62
     0
370
    -2
100
AcDbLine
 10
-169.1327395032832
 20
33.60566363386152
 30
0.0
 11
-135.9569739115344
 21
70.7303678567551
 31
0.0
  0
INSERT
  5
206
330
201
100
AcDbEntity
  8
Predeterminado
 62
     0
370
    -2
100
AcDbBlockReference
  2
_SE_FILLED
 10
-169.1327395032832
 20
33.60566363386152
 30
0.0
 41
3.0
 42
3.0
 43
3.0
 50
48.21505667192869
  0
INSERT
  5
207
330
201
100
AcDbEntity
  8
Predeterminado
 62
     0
370
    -2
100
AcDbBlockReference
  2
_SE_FILLED
 10
-135.9569739115344
 20
70.7303678567551
 30
0.0
 41
3.0
 42
3.0
 43
3.0
 50
228.2150566719287
  0
POINT
  5
783
330
201
100
AcDbEntity
  8
Defpoints
 62
     0
100
AcDbPoint
 10
-135.9569739115344
 20
70.7303678567551
 30
0.0
  0
POINT
  5
784
330
201
100
AcDbEntity
  8
Defpoints
 62
     0
100
AcDbPoint
 10
-169.1327395032832
 20
33.60566363386152
 30
0.0
  0
ENDBLK
  5
209
330
201
100
AcDbEntity
  8
0
100
AcDbBlockEnd
  0
BLOCK
  5
212
330
20B
100
AcDbEntity
  8
0
100
AcDbBlockBegin
  2
DMBLK2
 70
     0
 10
0.0
 20
0.0
 30
0.0
  3
DMBLK2
  1

  0
LINE
  5
20C
330
20B
100
AcDbEntity
  8
Predeterminado
  6
Continuous
 62
     0
370
    -2
100
AcDbLine
 10
-129.5458965211269
 20
184.6245633012911
 30
0.0
 11
-99.4646870403644
 21
184.6245633012911
 31
0.0
  0
LINE
  5
20D
330
20B
100
AcDbEntity
  8
Predeterminado
  6
Continuous
 62
     0
370
    -2
100
AcDbLine
 10
-146.8448567074088
 20
99.12456330129112
 30
0.0
 11
-99.4646870403644
 21
99.12456330129112
 31
0.0
  0
LINE
  5
20E
330
20B
100
AcDbEntity
  8
Predeterminado
  6
Continuous
 62
     0
370
    -2
100
AcDbLine
 10
-100.9646870403644
 20
181.6245633012911
 30
0.0
 11
-100.9646870403644
 21
102.1245633012911
 31
0.0
  0
INSERT
  5
20F
330
20B
100
AcDbEntity
  8
Predeterminado
 62
     0
370
    -2
100
AcDbBlockReference
  2
_SE_FILLED
 10
-100.9646870403644
 20
184.6245633012911
 30
0.0
 41
3.0
 42
3.0
 43
3.0
 50
90.0
  0
INSERT
  5
210
330
20B
100
AcDbEntity
  8
Predeterminado
 62
     0
370
    -2
100
AcDbBlockReference
  2
_SE_FILLED
 10
-100.9646870403644
 20
99.12456330129112
 30
0.0
 41
3.0
 42
3.0
 43
3.0
 50
270.0
  0
MTEXT
  5
211
330
20B
100
AcDbEntity
  8
Predeterminado
 62
     0
100
AcDbMText
 10
-103.9961870403644
 20
141.8745623476168
 30
0.0
 40
3.0
 41
0.0
 71
     5
 72
     1
  1
\A1;\A1;86
  7
SEACAD_Arial
 11
0.0
 21
1.0
 31
0.0
 73
     1
 44
1.0
  0
POINT
  5
785
330
20B
100
AcDbEntity
  8
Defpoints
 62
     0
100
AcDbPoint
 10
-129.5458965211269
 20
184.6245633012911
 30
0.0
  0
POINT
  5
786
330
20B
100
AcDbEntity
  8
Defpoints
 62
     0
100
AcDbPoint
 10
-146.8448567074088
 20
99.12456330129112
 30
0.0
  0
POINT
  5
787
330
20B
100
AcDbEntity
  8
Defpoints
 62
     0
100
AcDbPoint
 10
-100.9646870403644
 20
99.12456330129112
 30
0.0
  0
ENDBLK
  5
213
330
20B
100
AcDbEntity
  8
0
100
AcDbBlockEnd
  0
BLOCK
  5
21C
330
215
100
AcDbEntity
  8
0
100
AcDbBlockBegin
  2
DMBLK3
 70
     0
 10
0.0
 20
0.0
 30
0.0
  3
DMBLK3
  1

  0
LINE
  5
216
330
215
100
AcDbEntity
  8
Predeterminado
  6
Continuous
 62
     0
370
    -2
100
AcDbLine
 10
-146.8448567074088
 20
99.12456330129112
 30
0.0
 11
-110.3472221177367
 21
99.12456330129112
 31
0.0
  0
LINE
  5
217
330
215
100
AcDbEntity
  8
Predeterminado
  6
Continuous
 62
     0
370
    -2
100
AcDbLine
 10
-129.3965865967619
 20
162.1245633012911
 30
0.0
 11
-110.3472221177367
 21
162.1245633012911
 31
0.0
  0
LINE
  5
218
330
215
100
AcDbEntity
  8
Predeterminado
  6
Continuous
 62
     0
370
    -2
100
AcDbLine
 10
-111.8472221177367
 20
102.1245633012911
 30
0.0
 11
-111.8472221177367
 21
159.1245633012911
 31
0.0
  0
INSERT
  5
219
330
215
100
AcDbEntity
  8
Predeterminado
 62
     0
370
    -2
100
AcDbBlockReference
  2
_SE_FILLED
 10
-111.8472221177367
 20
99.12456330129112
 30
0.0
 41
3.0
 42
3.0
 43
3.0
 50
270.0
  0
INSERT
  5
21A
330
215
100
AcDbEntity
  8
Predeterminado
 62
     0
370
    -2
100
AcDbBlockReference
  2
_SE_FILLED
 10
-111.8472221177367
 20
162.1245633012911
 30
0.0
 41
3.0
 42
3.0
 43
3.0
 50
90.0
  0
MTEXT
  5
21B
330
215
100
AcDbEntity
  8
Predeterminado
 62
     0
100
AcDbMText
 10
-114.8787221177367
 20
130.6245638079306
 30
0.0
 40
3.0
 41
0.0
 71
     5
 72
     1
  1
\A1;\A1;630
  7
SEACAD_Arial
 11
0.0
 21
1.0
 31
0.0
 73
     1
 44
1.0
  0
POINT
  5
788
330
215
100
AcDbEntity
  8
Defpoints
 62
     0
100
AcDbPoint
 10
-146.8448567074088
 20
99.12456330129112
 30
0.0
  0
POINT
  5
789
330
215
100
AcDbEntity
  8
Defpoints
 62
     0
100
AcDbPoint
 10
-129.3965865967619
 20
162.1245633012911
 30
0.0
  0
POINT
  5
78A
330
215
100
AcDbEntity
  8
Defpoints
 62
     0
100
AcDbPoint
 10
-111.8472221177367
 20
162.1245633012911
 30
0.0
  0
ENDBLK
  5
21D
330
215
100
AcDbEntity
  8
0
100
AcDbBlockEnd
  0
BLOCK
  5
289
330
288
100
AcDbEntity
  8
0
100
AcDbBlockBegin
  2
FRAME_2D_$a4v_0
 70
     2
 10
0.0
 20
0.0
 30
0.0
  3
FRAME_2D_$a4v_0
  1

  0
LINE
  5
28A
330
288
100
AcDbEntity
  8
Marco
  6
Continuous
370
     0
100
AcDbLine
 10
-0.0729797615313501
 20
297.0323632768146
 30
0.0
 11
9.92702023846865
 21
297.0323632768146
 31
0.0
  0
LINE
  5
28B
330
288
100
AcDbEntity
  8
Marco
  6
Continuous
370
     0
100
AcDbLine
 10
-0.0729797615313501
 20
297.0323632768146
 30
0.0
 11
-0.0729797615313501
 21
287.0323632768146
 31
0.0
  0
LINE
  5
28C
330
288
100
AcDbEntity
  8
Marco
  6
Continuous
370
     0
100
AcDbLine
 10
209.9270202384687
 20
0.0323632768146354
 30
0.0
 11
209.9270202384687
 21
10.03236327681464
 31
0.0
  0
LINE
  5
28D
330
288
100
AcDbEntity
  8
Marco
  6
Continuous
370
     0
100
AcDbLine
 10
209.9270202384687
 20
0.0323632768146354
 30
0.0
 11
199.9270202384687
 21
0.0323632768146354
 31
0.0
  0
LINE
  5
28E
330
288
100
AcDbEntity
  8
D
 48
0.5
100
AcDbLine
 10
24.92702023846876
 20
5.032363276814635
 30
0.0
 11
204.9270202384687
 21
5.032363276814635
 31
0.0
  0
LINE
  5
28F
330
288
100
AcDbEntity
  8
D
 48
0.5
100
AcDbLine
 10
204.9270202384687
 20
5.032363276814635
 30
0.0
 11
204.9270202384687
 21
292.0323632768146
 31
0.0
  0
LINE
  5
290
330
288
100
AcDbEntity
  8
D
 48
0.5
100
AcDbLine
 10
204.9270202384687
 20
292.0323632768146
 30
0.0
 11
24.92702023846877
 21
292.0323632768146
 31
0.0
  0
LINE
  5
291
330
288
100
AcDbEntity
  8
0
  6
Continuous
370
     0
100
AcDbLine
 10
220.3991527058663
 20
0.0323632768146354
 30
0.0
 11
209.9270202384687
 21
0.0323632768146354
 31
0.0
  0
LINE
  5
292
330
288
100
AcDbEntity
  8
Predeterminado
  6
Continuous
 62
     7
370
    30
100
AcDbLine
 10
204.9270202384687
 20
5.032363276814635
 30
0.0
 11
24.92702023846874
 21
5.032363276814612
 31
0.0
  0
ATTDEF
  5
293
330
288
100
AcDbEntity
  8
0
  6
Continuous
370
     0
100
AcDbText
 10
121.527239770703
 20
8.949184316100537
 30
0.0
 40
3.75
  1

  7
arial_ttf
100
AcDbAttributeDefinition
  3

  2
DESCRIPTION
 70
     0
  0
ATTDEF
  5
294
330
288
100
AcDbEntity
  8
0
  6
Continuous
370
     0
100
AcDbText
 10
45.70721818046755
 20
16.50437699488512
 30
0.0
 40
2.6
  1

  7
arial_ttf
100
AcDbAttributeDefinition
  3

  2
VERSION
 70
     0
  0
ATTDEF
  5
295
330
288
100
AcDbEntity
  8
0
  6
Continuous
370
     0
100
AcDbText
 10
33.96965059312146
 20
24.94669990769854
 30
0.0
 40
2.6
  1

 41
2.156338913000957
  7
arial_ttf
 72
     5
 11
56.59826526255484
 21
24.94669990769854
 31
0.0
100
AcDbAttributeDefinition
  3

  2
NAME
 70
     0
  0
TEXT
  5
296
330
288
100
AcDbEntity
  8
Predeterminado
  6
Continuous
 62
     7
370
    30
100
AcDbText
 10
26.22584277145549
 20
6.168984458094394
 30
0.0
 40
2.5
  1
Cotas:   
  7
arial_ttf
 11
26.22584277145549
 21
8.668984458094394
 31
0.0
100
AcDbText
 73
     3
  0
TEXT
  5
297
330
288
100
AcDbEntity
  8
Predeterminado
  6
Continuous
 62
     7
370
    30
100
AcDbText
 10
121.5882496610969
 20
17.34812465614842
 30
0.0
 40
2.600000000000001
  1
Denominación:
  7
arial_ttf
 11
121.5882496610969
 21
19.94812465614842
 31
0.0
100
AcDbText
 73
     3
  0
TEXT
  5
298
330
288
100
AcDbEntity
  8
Predeterminado
  6
Continuous
 62
     7
370
    30
100
AcDbText
 10
59.57225545506827
 20
24.15069874516147
 30
0.0
 40
2.5
  1
Dibujado:
  7
arial_ttf
 11
59.57225545506827
 21
26.65069874516147
 31
0.0
100
AcDbText
 73
     3
  0
TEXT
  5
299
330
288
100
AcDbEntity
  8
Predeterminado
  6
Continuous
 62
     7
370
    30
100
AcDbText
 10
26.19322193782585
 20
10.17526976272876
 30
0.0
 40
2.5
  1
Escala:   
  7
arial_ttf
 11
26.19322193782585
 21
12.67526976272876
 31
0.0
100
AcDbText
 73
     3
  0
TEXT
  5
29A
330
288
100
AcDbEntity
  8
Predeterminado
  6
Continuous
 62
     7
370
    30
100
AcDbText
 10
25.85548515098571
 20
24.87267645091361
 30
0.0
 40
2.600000000000001
  1
Ref.:
  7
arial_ttf
 11
25.85548515098571
 21
27.47267645091361
 31
0.0
100
AcDbText
 73
     3
  0
LINE
  5
29B
330
288
100
AcDbEntity
  8
Predeterminado
  6
Continuous
 62
     7
370
    30
100
AcDbLine
 10
204.9270202384687
 20
30.03236327681466
 30
0.0
 11
24.92702023846866
 21
30.03236327681466
 31
0.0
  0
LINE
  5
29C
330
288
100
AcDbEntity
  8
Predeterminado
  6
Continuous
 62
     7
370
    30
100
AcDbLine
 10
56.9270202384686
 20
5.032363276814644
 30
0.0
 11
56.9270202384686
 21
30.03236327681465
 31
0.0
  0
LINE
  5
29D
330
288
100
AcDbEntity
  8
D
  6
Continuous
 62
     7
370
    30
100
AcDbLine
 10
98.18879552657847
 20
5.032363276814644
 30
0.0
 11
98.18879552657847
 21
30.03236327681465
 31
0.0
  0
LINE
  5
29E
330
288
100
AcDbEntity
  8
D
  6
Continuous
 62
     7
370
    30
100
AcDbLine
 10
118.2987069022291
 20
5.032363276814644
 30
0.0
 11
118.2987069022291
 21
30.03236327681465
 31
0.0
  0
LINE
  5
29F
330
288
100
AcDbEntity
  8
Predeterminado
  6
Continuous
 62
     7
370
    30
100
AcDbLine
 10
204.9270202384687
 20
22.03236327681466
 30
0.0
 11
24.92702023846866
 21
22.03236327681466
 31
0.0
  0
LINE
  5
2A0
330
288
100
AcDbEntity
  8
Predeterminado
  6
Continuous
 62
     7
370
    30
100
AcDbLine
 10
118.2987069022291
 20
13.53236327681465
 30
0.0
 11
24.92702023846863
 21
13.53236327681465
 31
0.0
  0
TEXT
  5
2A1
330
288
100
AcDbEntity
  8
Predeterminado
  6
Continuous
 62
     7
370
    30
100
AcDbText
 10
25.85548515098571
 20
16.84443106510924
 30
0.0
 40
2.600000000000001
  1
Nº revisión:
  7
arial_ttf
 11
25.85548515098571
 21
19.44443106510924
 31
0.0
100
AcDbText
 73
     3
  0
LINE
  5
2A2
330
288
100
AcDbEntity
  8
Predeterminado
  6
Continuous
 62
     7
370
    30
100
AcDbLine
 10
204.9270202384687
 20
5.032363276814666
 30
0.0
 11
24.92702023846874
 21
5.032363276814637
 31
0.0
  0
TEXT
  5
2A3
330
288
100
AcDbEntity
  8
Predeterminado
  6
Continuous
 62
     7
370
    30
100
AcDbText
 10
34.39544807889612
 20
6.235631271361244
 30
0.0
 40
2.5
  1
    mm
  7
arial_ttf
 11
34.39544807889612
 21
8.735631271361244
 31
0.0
100
AcDbText
 73
     3
  0
LINE
  5
2A4
330
288
100
AcDbEntity
  8
Predeterminado
  6
Continuous
 62
     7
370
    30
100
AcDbLine
 10
204.9270202384687
 20
5.032363276814666
 30
0.0
 11
204.9270202384687
 21
30.03236327681466
 31
0.0
  0
LINE
  5
2A5
330
288
100
AcDbEntity
  8
Predeterminado
  6
Continuous
 62
     7
370
    30
100
AcDbLine
 10
24.92702023846874
 20
30.03236327681466
 30
0.0
 11
24.92702023846874
 21
5.032363276814666
 31
0.0
  0
ATTDEF
  5
2A6
330
288
100
AcDbEntity
  8
0
  6
Continuous
370
     0
100
AcDbText
 10
121.527239770703
 20
8.949184316100537
 30
0.0
 40
3.75
  1

  7
arial_ttf
100
AcDbAttributeDefinition
  3

  2
DESCRIPTION
 70
     0
  0
ATTDEF
  5
2A7
330
288
100
AcDbEntity
  8
0
  6
Continuous
370
     0
100
AcDbText
 10
45.70721818046755
 20
16.50437699488512
 30
0.0
 40
2.6
  1

  7
arial_ttf
100
AcDbAttributeDefinition
  3

  2
VERSION
 70
     0
  0
ATTDEF
  5
2A8
330
288
100
AcDbEntity
  8
0
  6
Continuous
370
     0
100
AcDbText
 10
33.96965059312146
 20
24.94669990769854
 30
0.0
 40
2.6
  1

 41
2.156338913000957
  7
arial_ttf
 72
     5
 11
56.59826526255484
 21
24.94669990769854
 31
0.0
100
AcDbAttributeDefinition
  3

  2
NAME
 70
     0
  0
TEXT
  5
2A9
330
288
100
AcDbEntity
  8
Predeterminado
  6
Continuous
 62
     7
370
    30
100
AcDbText
 10
121.402208458825
 20
24.01225745518866
 30
0.0
 40
4.0
  1
  BENITO URBAN
  7
arial_ttf
 11
121.402208458825
 21
28.01225745518866
 31
0.0
100
AcDbText
 73
     3
  0
TEXT
  5
2AA
330
288
100
AcDbEntity
  8
Predeterminado
  6
Continuous
 62
     7
370
    30
100
AcDbText
 10
26.22584277145549
 20
6.168984458094394
 30
0.0
 40
2.5
  1
Cotas:   
  7
arial_ttf
 11
26.22584277145549
 21
8.668984458094394
 31
0.0
100
AcDbText
 73
     3
  0
TEXT
  5
2AB
330
288
100
AcDbEntity
  8
Predeterminado
  6
Continuous
 62
     7
370
    30
100
AcDbText
 10
121.5882496610969
 20
17.34812465614842
 30
0.0
 40
2.600000000000001
  1
Denominación:
  7
arial_ttf
 11
121.5882496610969
 21
19.94812465614842
 31
0.0
100
AcDbText
 73
     3
  0
TEXT
  5
2AC
330
288
100
AcDbEntity
  8
Predeterminado
  6
Continuous
 62
     7
370
    30
100
AcDbText
 10
59.57225545506827
 20
24.15069874516147
 30
0.0
 40
2.5
  1
Dibujado:
  7
arial_ttf
 11
59.57225545506827
 21
26.65069874516147
 31
0.0
100
AcDbText
 73
     3
  0
TEXT
  5
2AD
330
288
100
AcDbEntity
  8
Predeterminado
  6
Continuous
 62
     7
370
    30
100
AcDbText
 10
26.19322193782585
 20
10.17526976272876
 30
0.0
 40
2.5
  1
Escala:   
  7
arial_ttf
 11
26.19322193782585
 21
12.67526976272876
 31
0.0
100
AcDbText
 73
     3
  0
TEXT
  5
2AE
330
288
100
AcDbEntity
  8
Predeterminado
  6
Continuous
 62
     7
370
    30
100
AcDbText
 10
25.85548515098571
 20
24.87267645091361
 30
0.0
 40
2.600000000000001
  1
Ref.:
  7
arial_ttf
 11
25.85548515098571
 21
27.47267645091361
 31
0.0
100
AcDbText
 73
     3
  0
LINE
  5
2AF
330
288
100
AcDbEntity
  8
Predeterminado
  6
Continuous
 62
     7
370
    30
100
AcDbLine
 10
204.9270202384687
 20
30.03236327681466
 30
0.0
 11
24.92702023846866
 21
30.03236327681466
 31
0.0
  0
LINE
  5
2B0
330
288
100
AcDbEntity
  8
Predeterminado
  6
Continuous
 62
     7
370
    30
100
AcDbLine
 10
56.9270202384686
 20
5.032363276814644
 30
0.0
 11
56.9270202384686
 21
30.03236327681465
 31
0.0
  0
LINE
  5
2B1
330
288
100
AcDbEntity
  8
D
  6
Continuous
 62
     7
370
    30
100
AcDbLine
 10
98.18879552657847
 20
5.032363276814644
 30
0.0
 11
98.18879552657847
 21
30.03236327681465
 31
0.0
  0
LINE
  5
2B2
330
288
100
AcDbEntity
  8
D
  6
Continuous
 62
     7
370
    30
100
AcDbLine
 10
118.2987069022291
 20
5.032363276814644
 30
0.0
 11
118.2987069022291
 21
30.03236327681465
 31
0.0
  0
LINE
  5
2B3
330
288
100
AcDbEntity
  8
Predeterminado
  6
Continuous
 62
     7
370
    30
100
AcDbLine
 10
204.9270202384687
 20
22.03236327681466
 30
0.0
 11
24.92702023846866
 21
22.03236327681466
 31
0.0
  0
LINE
  5
2B4
330
288
100
AcDbEntity
  8
Predeterminado
  6
Continuous
 62
     7
370
    30
100
AcDbLine
 10
118.2987069022291
 20
13.53236327681465
 30
0.0
 11
24.92702023846863
 21
13.53236327681465
 31
0.0
  0
TEXT
  5
2B5
330
288
100
AcDbEntity
  8
Predeterminado
  6
Continuous
 62
     7
370
    30
100
AcDbText
 10
25.85548515098571
 20
16.84443106510924
 30
0.0
 40
2.600000000000001
  1
Nº revisión:
  7
arial_ttf
 11
25.85548515098571
 21
19.44443106510924
 31
0.0
100
AcDbText
 73
     3
  0
TEXT
  5
2B6
330
288
100
AcDbEntity
  8
Predeterminado
  6
Continuous
 62
     7
370
    30
100
AcDbText
 10
59.53552173813765
 20
7.382221907336849
 30
0.0
 40
2.5
  1
Validado:
  7
arial_ttf
 11
59.53552173813765
 21
9.882221907336849
 31
0.0
100
AcDbText
 73
     3
  0
LINE
  5
2B7
330
288
100
AcDbEntity
  8
Predeterminado
  6
Continuous
 62
     7
370
    30
100
AcDbLine
 10
204.9270202384687
 20
5.032363276814666
 30
0.0
 11
24.92702023846874
 21
5.032363276814637
 31
0.0
  0
TEXT
  5
2B8
330
288
100
AcDbEntity
  8
Predeterminado
  6
Continuous
 62
     7
370
    30
100
AcDbText
 10
34.39544807889612
 20
6.235631271361244
 30
0.0
 40
2.5
  1
    mm
  7
arial_ttf
 11
34.39544807889612
 21
8.735631271361244
 31
0.0
100
AcDbText
 73
     3
  0
LINE
  5
2B9
330
288
100
AcDbEntity
  8
Predeterminado
  6
Continuous
 62
     7
370
    30
100
AcDbLine
 10
204.9270202384687
 20
5.032363276814666
 30
0.0
 11
204.9270202384687
 21
30.03236327681466
 31
0.0
  0
LINE
  5
2BA
330
288
100
AcDbEntity
  8
Predeterminado
  6
Continuous
 62
     7
370
    30
100
AcDbLine
 10
24.92702023846874
 20
30.03236327681466
 30
0.0
 11
24.92702023846874
 21
5.032363276814666
 31
0.0
  0
ATTDEF
  5
2BB
330
288
100
AcDbEntity
  8
0
  6
Continuous
370
     0
100
AcDbText
 10
121.527239770703
 20
8.949184316100537
 30
0.0
 40
3.75
  1

  7
arial_ttf
100
AcDbAttributeDefinition
  3

  2
DESCRIPTION
 70
     0
  0
ATTDEF
  5
2BC
330
288
100
AcDbEntity
  8
D
  6
Continuous
 62
     7
370
     0
100
AcDbText
 10
98.85101512794438
 20
7.682279435355698
 30
0.0
 40
2.0
  1

 41
0.9225090628618003
  7
arial_ttf
 72
     5
 11
117.330142781423
 21
7.682279435355698
 31
0.0
100
AcDbAttributeDefinition
  3

  2
RELEASED_AT
 70
     0
  0
ATTDEF
  5
2BD
330
288
100
AcDbEntity
  8
D
  6
Continuous
 62
     7
370
     0
100
AcDbText
 10
98.85101512794438
 20
16.41357094703793
 30
0.0
 40
2.0
  1

 41
0.8948404948140195
  7
arial_ttf
 72
     5
 11
117.330142781423
 21
16.41357094703793
 31
0.0
100
AcDbAttributeDefinition
  3

  2
APPROVED_AT
 70
     0
  0
ATTDEF
  5
2BE
330
288
100
AcDbEntity
  8
D
  6
Continuous
 62
     7
370
     0
100
AcDbText
 10
98.50776896778927
 20
24.21907846122303
 30
0.0
 40
2.0
  1

 41
1.036162626326561
  7
arial_ttf
 72
     5
 11
117.6506261106464
 21
24.21907846122303
 31
0.0
100
AcDbAttributeDefinition
  3

  2
CREATED_AT
 70
     0
  0
ATTDEF
  5
2BF
330
288
100
AcDbEntity
  8
D
  6
Continuous
 62
     7
370
     0
100
AcDbText
 10
78.8157087221827
 20
7.511215355013213
 30
0.0
 40
2.0
  1

 41
0.8957335491041181
  7
arial_ttf
 72
     5
 11
96.89901712551523
 21
7.511215355013213
 31
0.0
100
AcDbAttributeDefinition
  3

  2
RELEASED_BY
 70
     0
  0
ATTDEF
  5
2C0
330
288
100
AcDbEntity
  8
D
  6
Continuous
 62
     7
370
     0
100
AcDbText
 10
78.8157087221827
 20
16.15472801116733
 30
0.0
 40
2.0
  1

 50
0.4142129899603654
 41
0.8515700125690177
  7
arial_ttf
 72
     5
 11
96.53440780448818
 21
16.28282546006588
 31
0.0
100
AcDbAttributeDefinition
  3

  2
APPROVED_BY
 70
     0
  0
ATTDEF
  5
2C1
330
288
100
AcDbEntity
  8
D
  6
Continuous
 62
     7
370
     0
100
AcDbText
 10
78.8157087221827
 20
24.19165474604588
 30
0.0
 40
2.0
  1

 41
0.946651200890503
  7
arial_ttf
 72
     5
 11
96.45338327956551
 21
24.19165474604588
 31
0.0
100
AcDbAttributeDefinition
  3

  2
CREATED_BY
 70
     0
  0
ATTDEF
  5
2C2
330
288
100
AcDbEntity
  8
0
  6
Continuous
370
     0
100
AcDbText
 10
39.20649067481065
 20
9.811965832147765
 30
0.0
 40
2.6
  1

  7
arial_ttf
100
AcDbAttributeDefinition
  3

  2
1:1
 70
     0
  0
ATTDEF
  5
2C3
330
288
100
AcDbEntity
  8
0
  6
Continuous
370
     0
100
AcDbText
 10
45.70721818046754
 20
16.50437699488518
 30
0.0
 40
2.6
  1

  7
arial_ttf
100
AcDbAttributeDefinition
  3

  2
VERSION
 70
     0
  0
TEXT
  5
2C4
330
288
100
AcDbEntity
  8
Predeterminado
  6
Continuous
 62
     7
370
    30
100
AcDbText
 10
26.22584277145549
 20
6.168984458094394
 30
0.0
 40
2.5
  1
Cotas:   
  7
arial_ttf
 11
26.22584277145549
 21
8.668984458094394
 31
0.0
100
AcDbText
 73
     3
  0
TEXT
  5
2C5
330
288
100
AcDbEntity
  8
Predeterminado
  6
Continuous
 62
     7
370
    30
100
AcDbText
 10
121.5882496610969
 20
17.34812465614842
 30
0.0
 40
2.600000000000001
  1
Denominación:
  7
arial_ttf
 11
121.5882496610969
 21
19.94812465614842
 31
0.0
100
AcDbText
 73
     3
  0
TEXT
  5
2C6
330
288
100
AcDbEntity
  8
Predeterminado
  6
Continuous
 62
     7
370
    30
100
AcDbText
 10
59.57225545506827
 20
24.15069874516147
 30
0.0
 40
2.5
  1
Dibujado:
  7
arial_ttf
 11
59.57225545506827
 21
26.65069874516147
 31
0.0
100
AcDbText
 73
     3
  0
TEXT
  5
2C7
330
288
100
AcDbEntity
  8
Predeterminado
  6
Continuous
 62
     7
370
    30
100
AcDbText
 10
26.19322193782585
 20
10.17526976272876
 30
0.0
 40
2.5
  1
Escala:   
  7
arial_ttf
 11
26.19322193782585
 21
12.67526976272876
 31
0.0
100
AcDbText
 73
     3
  0
TEXT
  5
2C8
330
288
100
AcDbEntity
  8
Predeterminado
  6
Continuous
 62
     7
370
    30
100
AcDbText
 10
25.85548515098571
 20
24.87267645091361
 30
0.0
 40
2.600000000000001
  1
Ref.:
  7
arial_ttf
 11
25.85548515098571
 21
27.47267645091361
 31
0.0
100
AcDbText
 73
     3
  0
LINE
  5
2C9
330
288
100
AcDbEntity
  8
Predeterminado
  6
Continuous
 62
     7
370
    30
100
AcDbLine
 10
204.9270202384687
 20
30.03236327681466
 30
0.0
 11
24.92702023846866
 21
30.03236327681466
 31
0.0
  0
LINE
  5
2CA
330
288
100
AcDbEntity
  8
Predeterminado
  6
Continuous
 62
     7
370
    30
100
AcDbLine
 10
56.9270202384686
 20
5.032363276814644
 30
0.0
 11
56.9270202384686
 21
30.03236327681465
 31
0.0
  0
LINE
  5
2CB
330
288
100
AcDbEntity
  8
D
  6
Continuous
 62
     7
370
    30
100
AcDbLine
 10
98.18879552657847
 20
5.032363276814644
 30
0.0
 11
98.18879552657847
 21
30.03236327681465
 31
0.0
  0
LINE
  5
2CC
330
288
100
AcDbEntity
  8
D
  6
Continuous
 62
     7
370
    30
100
AcDbLine
 10
118.2987069022291
 20
5.032363276814644
 30
0.0
 11
118.2987069022291
 21
30.03236327681465
 31
0.0
  0
LINE
  5
2CD
330
288
100
AcDbEntity
  8
Predeterminado
  6
Continuous
 62
     7
370
    30
100
AcDbLine
 10
204.9270202384687
 20
22.03236327681466
 30
0.0
 11
24.92702023846866
 21
22.03236327681466
 31
0.0
  0
LINE
  5
2CE
330
288
100
AcDbEntity
  8
Predeterminado
  6
Continuous
 62
     7
370
    30
100
AcDbLine
 10
118.2987069022291
 20
13.53236327681465
 30
0.0
 11
24.92702023846863
 21
13.53236327681465
 31
0.0
  0
TEXT
  5
2CF
330
288
100
AcDbEntity
  8
Predeterminado
  6
Continuous
 62
     7
370
    30
100
AcDbText
 10
25.85548515098571
 20
16.84443106510924
 30
0.0
 40
2.600000000000001
  1
Nº revisión:
  7
arial_ttf
 11
25.85548515098571
 21
19.44443106510924
 31
0.0
100
AcDbText
 73
     3
  0
TEXT
  5
2D0
330
288
100
AcDbEntity
  8
Predeterminado
  6
Continuous
 62
     7
370
    30
100
AcDbText
 10
59.04313223684836
 20
15.79131240598838
 30
0.0
 40
2.5
  1
Aprobado:
  7
arial_ttf
 11
59.04313223684836
 21
18.29131240598838
 31
0.0
100
AcDbText
 73
     3
  0
LINE
  5
2D1
330
288
100
AcDbEntity
  8
Predeterminado
  6
Continuous
 62
     7
370
    30
100
AcDbLine
 10
204.9270202384687
 20
5.032363276814666
 30
0.0
 11
24.92702023846874
 21
5.032363276814637
 31
0.0
  0
TEXT
  5
2D2
330
288
100
AcDbEntity
  8
Predeterminado
  6
Continuous
 62
     7
370
    30
100
AcDbText
 10
34.39544807889612
 20
6.235631271361244
 30
0.0
 40
2.5
  1
    mm
  7
arial_ttf
 11
34.39544807889612
 21
8.735631271361244
 31
0.0
100
AcDbText
 73
     3
  0
LINE
  5
2D3
330
288
100
AcDbEntity
  8
Predeterminado
  6
Continuous
 62
     7
370
    30
100
AcDbLine
 10
204.9270202384687
 20
5.032363276814666
 30
0.0
 11
204.9270202384687
 21
30.03236327681466
 31
0.0
  0
LINE
  5
2D4
330
288
100
AcDbEntity
  8
Predeterminado
  6
Continuous
 62
     7
370
    30
100
AcDbLine
 10
24.92702023846877
 20
292.0323632768146
 30
0.0
 11
24.92702023846874
 21
5.032363276814666
 31
0.0
  0
LINE
  5
2D5
330
288
100
AcDbEntity
  8
0
  6
Continuous
370
     0
100
AcDbLine
 10
-10.5451122289289
 20
297.0323632768146
 30
0.0
 11
-0.0729797615312293
 21
297.0323632768146
 31
0.0
  0
LINE
  5
2D6
330
288
100
AcDbEntity
  8
D
  6
Continuous
 62
     7
370
    30
100
AcDbLine
 10
78.07888415092782
 20
5.032363276814642
 30
0.0
 11
78.07888415092782
 21
30.03236327681465
 31
0.0
  0
ENDBLK
  5
2D7
330
288
100
AcDbEntity
  8
0
100
AcDbBlockEnd
  0
ENDSEC
  0
SECTION
  2
ENTITIES
  0
LINE
  5
6F
330
1F
100
AcDbEntity
  8
Predeterminado
  6
Continuous
 62
     7
100
AcDbLine
 10
199.9270202384685
 20
10.03236327681463
 30
0.0
 11
19.92702023846866
 21
10.03236327681461
 31
0.0
  0
LINE
  5
70
330
1F
100
AcDbEntity
  8
Predeterminado
  6
Continuous
 62
     7
100
AcDbLine
 10
199.9270202384685
 20
10.03236327681463
 30
0.0
 11
199.9270202384685
 21
287.0323632768146
 31
0.0
  0
LINE
  5
71
330
1F
100
AcDbEntity
  8
Predeterminado
  6
Continuous
 62
     7
100
AcDbLine
 10
199.9270202384685
 20
287.0323632768146
 30
0.0
 11
19.92702023846866
 21
287.0323632768146
 31
0.0
  0
LINE
  5
72
330
1F
100
AcDbEntity
  8
Predeterminado
  6
Continuous
 62
     7
100
AcDbLine
 10
19.92702023846865
 20
287.0323632768146
 30
0.0
 11
19.92702023846865
 21
10.03236327681464
 31
0.0
  0
LINE
  5
73
330
1F
100
AcDbEntity
  8
Predeterminado
  6
Continuous
 62
     7
100
AcDbLine
 10
19.92702023846865
 20
267.0323632768146
 30
0.0
 11
199.9270202384685
 21
267.0323632768146
 31
0.0
  0
LINE
  5
74
330
1F
100
AcDbEntity
  8
Predeterminado
  6
Continuous
 62
     7
100
AcDbLine
 10
64.9270202384685
 20
271.0323632768146
 30
0.0
 11
64.9270202384685
 21
283.0323632768146
 31
0.0
  0
LINE
  5
75
330
1F
100
AcDbEntity
  8
Predeterminado
  6
Continuous
 62
     7
100
AcDbLine
 10
154.9270202384685
 20
271.0323632768146
 30
0.0
 11
154.9270202384685
 21
283.0323632768146
 31
0.0
  0
INSERT
  5
77
330
1F
100
AcDbEntity
  8
Predeterminado
100
AcDbBlockReference
  2
SEANNOT_GROUP
 10
0.0
 20
0.0
 30
0.0
  0
MTEXT
  5
88
102
{ACAD_XDICTIONARY
360
7FA
102
}
330
1F
100
AcDbEntity
  8
D
100
AcDbMText
 10
26.00429443831315
 20
282.691347141335
 30
0.0
 40
6.0
 41
46.75465178080735
 71
     1
 72
     1
  1
{\C7;BENITO}\P{\fArial|b1|i0|c0|p34;\C7;–}{\C7;Light}\P
 73
     1
 44
1.0
1001
ACAD
1000
ACAD_MTEXT_DEFINED_HEIGHT_BEGIN
1070
    46
1040
24.79999999999999
1000
ACAD_MTEXT_DEFINED_HEIGHT_END
  0
MTEXT
  5
89
330
1F
100
AcDbEntity
  8
Predeterminado
100
AcDbMText
 10
163.8089186942272
 20
280.5317927893309
 30
0.0
 40
2.5
 41
32.53049880487805
 71
     1
 72
     1
  1
{\fCircular Std Book|b1||i0||c0|p34;\C7;\H2.5;\W1.;T +34 938 521 000\P}{\fCircular Std Book|b1||i0||c0|p34;\C7;\H2.5;\W1.;www.benito.com\P}
 73
     1
 44
1.0
1001
ACAD
1000
ACAD_MTEXT_DEFINED_HEIGHT_BEGIN
1070
    46
1040
8.780497804878056
1000
ACAD_MTEXT_DEFINED_HEIGHT_END
  0
MTEXT
  5
97
330
1F
100
AcDbEntity
  8
Predeterminado
100
AcDbMText
 10
150.6598696583449
 20
8.07143559968931
 30
0.0
 40
2.0
 41
54.23001100000002
 71
     1
 72
     1
  1
{\fCircular Std Book|b0||i0||c0|p34;\C7;\H2.;\W1.;BENITO –Urban –Light –Play –Covers}
 73
     1
 44
1.0
1001
ACAD
1000
ACAD_MTEXT_DEFINED_HEIGHT_BEGIN
1070
    46
1040
3.60001
1000
ACAD_MTEXT_DEFINED_HEIGHT_END
  0
TEXT
  5
25D
330
1F
100
AcDbEntity
  8
Predeterminado
  6
Continuous
 62
     7
100
AcDbText
 10
71.9396349678442
 20
276.5483508466639
 30
0.0
 40
6.0
  1
Columna Essentials
  7
SEACAD_ArialB
 11
71.9396349678442
 21
282.5483508466639
 31
0.0
100
AcDbText
 73
     3
  0
TEXT
  5
25E
330
1F
100
AcDbEntity
  8
Predeterminado
  6
Continuous
 62
     7
100
AcDbText
 10
105.3094936147253
 20
271.5316076741286
 30
0.0
 40
3.0
  1
ILCLXXES1
  7
SEACAD_Arial
 11
105.3094936147253
 21
274.5316076741286
 31
0.0
100
AcDbText
 73
     3
  0
LINE
  5
6AF
330
1F
100
AcDbEntity
  8
0
100
AcDbLine
 10
54.68811789717745
 20
50.77407344927065
 30
0.0
 11
74.68811789717745
 21
50.77407344927065
 31
0.0
  0
LINE
  5
6B0
330
1F
100
AcDbEntity
  8
0
100
AcDbLine
 10
60.88811789717727
 20
231.0363479500681
 30
0.0
 11
68.48811789717718
 21
231.0363479500681
 31
0.0
  0
LINE
  5
6B1
330
1F
100
AcDbEntity
  8
0
100
AcDbLine
 10
60.88811789717727
 20
231.0363479500681
 30
0.0
 11
60.88811789717727
 21
208.4423352631411
 31
0.0
  0
LINE
  5
6B2
330
1F
100
AcDbEntity
  8
0
100
AcDbLine
 10
68.48811789717718
 20
231.0363479500681
 30
0.0
 11
68.48811789717718
 21
207.8274580751693
 31
0.0
  0
LINE
  5
6B3
330
1F
100
AcDbEntity
  8
0
100
AcDbLine
 10
54.68811789717745
 20
50.24074011593711
 30
0.0
 11
74.68811789717745
 21
50.24074011593711
 31
0.0
  0
LINE
  5
6B4
330
1F
100
AcDbEntity
  8
0
100
AcDbLine
 10
54.68811789717745
 20
50.77407344927065
 30
0.0
 11
54.68811789717745
 21
50.24074011593711
 31
0.0
  0
LINE
  5
6B5
330
1F
100
AcDbEntity
  8
0
100
AcDbLine
 10
74.68811789717745
 20
50.77407344927065
 30
0.0
 11
74.68811789717745
 21
50.24074011593711
 31
0.0
  0
LINE
  5
6B6
330
1F
100
AcDbEntity
  8
0
100
AcDbLine
 10
60.55478456384378
 20
60.77407344927065
 30
0.0
 11
68.82145123051066
 21
60.77407344927065
 31
0.0
  0
LINE
  5
6B7
330
1F
100
AcDbEntity
  8
0
100
AcDbLine
 10
68.82145123051066
 20
60.77407344927065
 30
0.0
 11
68.82145123051066
 21
50.77407344927065
 31
0.0
  0
LINE
  5
6B8
330
1F
100
AcDbEntity
  8
0
100
AcDbLine
 10
60.55478456384378
 20
60.77407344927065
 30
0.0
 11
60.55478456384378
 21
50.77407344927065
 31
0.0
  0
LINE
  5
6B9
330
1F
100
AcDbEntity
  8
0
100
AcDbLine
 10
59.88811789717727
 20
55.77407344927065
 30
0.0
 11
56.02145123051048
 21
51.44074011593716
 31
0.0
  0
LINE
  5
6BA
330
1F
100
AcDbEntity
  8
0
100
AcDbLine
 10
56.02145123051048
 20
50.77407344927065
 30
0.0
 11
56.02145123051048
 21
51.44074011593716
 31
0.0
  0
LINE
  5
6BB
330
1F
100
AcDbEntity
  8
0
100
AcDbLine
 10
66.68811789717745
 20
231.0363479500681
 30
0.0
 11
66.68811789717745
 21
235.7030146167349
 31
0.0
  0
LINE
  5
6BC
330
1F
100
AcDbEntity
  8
0
100
AcDbLine
 10
62.68811789717745
 20
231.0363479500681
 30
0.0
 11
62.68811789717745
 21
235.7030146167349
 31
0.0
  0
LINE
  5
6BD
330
1F
100
AcDbEntity
  8
0
100
AcDbLine
 10
62.68811789717745
 20
235.7030146167349
 30
0.0
 11
66.68811789717745
 21
235.7030146167349
 31
0.0
  0
LINE
  5
6BE
330
1F
100
AcDbEntity
  8
0
100
AcDbLine
 10
62.68811789717745
 20
84.1074067826039
 30
0.0
 11
66.68811789717745
 21
84.1074067826039
 31
0.0
  0
LINE
  5
6BF
330
1F
100
AcDbEntity
  8
0
100
AcDbLine
 10
62.68811789717745
 20
107.4407401159372
 30
0.0
 11
66.68811789717745
 21
107.4407401159372
 31
0.0
  0
LINE
  5
6C0
330
1F
100
AcDbEntity
  8
0
100
AcDbLine
 10
67.68811789717745
 20
106.4407401159372
 30
0.0
 11
67.68811789717745
 21
85.1074067826039
 31
0.0
  0
LINE
  5
6C1
330
1F
100
AcDbEntity
  8
0
100
AcDbLine
 10
61.68811789717745
 20
106.4407401159372
 30
0.0
 11
61.68811789717745
 21
85.1074067826039
 31
0.0
  0
ARC
  5
6C2
330
1F
100
AcDbEntity
  8
0
100
AcDbCircle
 10
62.68811789717745
 20
106.4407401159372
 30
0.0
 40
0.9999999999999992
100
AcDbArc
 50
90.0
 51
180.0
  0
ARC
  5
6C3
330
1F
100
AcDbEntity
  8
0
100
AcDbCircle
 10
66.68811789717745
 20
106.4407401159372
 30
0.0
 40
0.9999999999999992
100
AcDbArc
 50
0.0
 51
90.0
  0
ARC
  5
6C4
330
1F
100
AcDbEntity
  8
0
100
AcDbCircle
 10
62.68811789717745
 20
85.1074067826039
 30
0.0
 40
0.9999999999999992
100
AcDbArc
 50
180.0
 51
270.0
  0
ARC
  5
6C5
330
1F
100
AcDbEntity
  8
0
100
AcDbCircle
 10
66.68811789717745
 20
85.1074067826039
 30
0.0
 40
0.9999999999999992
100
AcDbArc
 50
270.0
 51
0.0
  0
LINE
  5
6C6
330
1F
100
AcDbEntity
  8
0
100
AcDbLine
 10
98.53661653492088
 20
50.77407344927065
 30
0.0
 11
118.5366165349209
 21
50.77407344927065
 31
0.0
  0
LINE
  5
6C7
330
1F
100
AcDbEntity
  8
0
100
AcDbLine
 10
104.7366165349207
 20
231.0363479500681
 30
0.0
 11
112.3366165349206
 21
231.0363479500681
 31
0.0
  0
LINE
  5
6C8
330
1F
100
AcDbEntity
  8
0
100
AcDbLine
 10
98.53661653492088
 20
50.24074011593711
 30
0.0
 11
118.5366165349209
 21
50.24074011593711
 31
0.0
  0
LINE
  5
6C9
330
1F
100
AcDbEntity
  8
0
100
AcDbLine
 10
98.53661653492088
 20
50.77407344927065
 30
0.0
 11
98.53661653492088
 21
50.24074011593711
 31
0.0
  0
LINE
  5
6CA
330
1F
100
AcDbEntity
  8
0
100
AcDbLine
 10
118.5366165349209
 20
50.77407344927065
 30
0.0
 11
118.5366165349209
 21
50.24074011593711
 31
0.0
  0
LINE
  5
6CB
330
1F
100
AcDbEntity
  8
0
100
AcDbLine
 10
104.7366165349207
 20
231.0363479500681
 30
0.0
 11
104.7366165349207
 21
208.4423352631411
 31
0.0
  0
LINE
  5
6CC
330
1F
100
AcDbEntity
  8
0
100
AcDbLine
 10
112.3366165349206
 20
231.0363479500681
 30
0.0
 11
112.3366165349206
 21
207.8274580751693
 31
0.0
  0
LINE
  5
6CD
330
1F
100
AcDbEntity
  8
0
100
AcDbLine
 10
112.6699498682541
 20
60.77407344927065
 30
0.0
 11
112.6699498682541
 21
50.77407344927065
 31
0.0
  0
LINE
  5
6CE
330
1F
100
AcDbEntity
  8
0
100
AcDbLine
 10
104.4032832015872
 20
60.77407344927065
 30
0.0
 11
104.4032832015872
 21
50.77407344927065
 31
0.0
  0
LINE
  5
6CF
330
1F
100
AcDbEntity
  8
0
100
AcDbLine
 10
104.4032832015872
 20
60.77407344927065
 30
0.0
 11
112.6699498682541
 21
60.77407344927065
 31
0.0
  0
LINE
  5
6D0
330
1F
100
AcDbEntity
  8
0
100
AcDbLine
 10
106.5366165349209
 20
235.7030146167349
 30
0.0
 11
110.5366165349209
 21
235.7030146167349
 31
0.0
  0
LINE
  5
6D1
330
1F
100
AcDbEntity
  8
0
100
AcDbLine
 10
106.5366165349209
 20
231.0363479500681
 30
0.0
 11
106.5366165349209
 21
235.7030146167349
 31
0.0
  0
LINE
  5
6D2
330
1F
100
AcDbEntity
  8
0
100
AcDbLine
 10
110.5366165349209
 20
231.0363479500681
 30
0.0
 11
110.5366165349209
 21
235.7030146167349
 31
0.0
  0
LINE
  5
6D3
330
1F
100
AcDbEntity
  8
0
100
AcDbLine
 10
110.3366165349206
 20
84.1074067826039
 30
0.0
 11
112.3366165349206
 21
84.1074067826039
 31
0.0
  0
LINE
  5
6D4
330
1F
100
AcDbEntity
  8
0
100
AcDbLine
 10
110.3366165349206
 20
107.4407401159372
 30
0.0
 11
112.3366165349206
 21
107.4407401159372
 31
0.0
  0
LINE
  5
6D5
330
1F
100
AcDbEntity
  8
0
100
AcDbLine
 10
109.3366165349206
 20
106.4407401159372
 30
0.0
 11
109.3366165349206
 21
85.1074067826039
 31
0.0
  0
ARC
  5
6D6
330
1F
100
AcDbEntity
  8
0
100
AcDbCircle
 10
110.3366165349206
 20
106.4407401159372
 30
0.0
 40
0.9999999999999992
100
AcDbArc
 50
90.0
 51
180.0
  0
ARC
  5
6D7
330
1F
100
AcDbEntity
  8
0
100
AcDbCircle
 10
110.3366165349206
 20
85.1074067826039
 30
0.0
 40
0.9999999999999992
100
AcDbArc
 50
180.0
 51
270.0
  0
LINE
  5
6D8
330
1F
100
AcDbEntity
  8
0
100
AcDbLine
 10
131.1582591533237
 20
110.0841302516153
 30
0.0
 11
131.1582591533237
 21
70.0841302516153
 31
0.0
  0
LINE
  5
6D9
330
1F
100
AcDbEntity
  8
0
100
AcDbLine
 10
131.1582591533237
 20
70.0841302516153
 30
0.0
 11
171.1582591533237
 21
70.0841302516153
 31
0.0
  0
LINE
  5
6DA
330
1F
100
AcDbEntity
  8
0
100
AcDbLine
 10
131.1582591533237
 20
110.0841302516153
 30
0.0
 11
171.1582591533237
 21
110.0841302516153
 31
0.0
  0
LINE
  5
6DB
330
1F
100
AcDbEntity
  8
0
100
AcDbLine
 10
171.1582591533237
 20
110.0841302516153
 30
0.0
 11
171.1582591533237
 21
70.0841302516153
 31
0.0
  0
CIRCLE
  5
6DC
330
1F
100
AcDbEntity
  8
0
100
AcDbCircle
 10
151.1582591533237
 20
90.0841302516153
 30
0.0
 40
7.599999999999993
  0
LINE
  5
6DD
330
1F
100
AcDbEntity
  8
0
100
AcDbLine
 10
150.6249258199904
 20
107.4174635849486
 30
0.0
 11
151.691592486657
 21
107.4174635849486
 31
0.0
  0
LINE
  5
6DE
330
1F
100
AcDbEntity
  8
0
100
AcDbLine
 10
150.6249258199904
 20
107.4174635849486
 30
0.0
 11
150.6249258199904
 21
97.66539370539112
 31
0.0
  0
LINE
  5
6DF
330
1F
100
AcDbEntity
  8
0
100
AcDbLine
 10
151.691592486657
 20
107.4174635849486
 30
0.0
 11
151.691592486657
 21
97.66539370539112
 31
0.0
  0
LINE
  5
6E0
330
1F
100
AcDbEntity
  8
0
100
AcDbLine
 10
164.3973115824987
 20
105.5859243805874
 30
0.0
 11
166.6600532822953
 21
103.3231826807905
 31
0.0
  0
LINE
  5
6E1
330
1F
100
AcDbEntity
  8
0
100
AcDbLine
 10
162.3231316910181
 20
103.5117444891068
 30
0.0
 11
164.5858733908152
 21
101.24900278931
 31
0.0
  0
ARC
  5
6E2
330
1F
100
AcDbEntity
  8
0
100
AcDbCircle
 10
163.3602216367584
 20
104.5488344348471
 30
0.0
 40
1.466666666666656
100
AcDbArc
 50
45.0
 51
225.0
  0
ARC
  5
6E3
330
1F
100
AcDbEntity
  8
0
100
AcDbCircle
 10
165.6229633365555
 20
102.28609273505
 30
0.0
 40
1.466666666666656
100
AcDbArc
 50
225.0
 51
45.00000000001884
  0
LINE
  5
6E4
330
1F
100
AcDbEntity
  8
0
100
AcDbLine
 10
133.8249258199902
 20
89.550796918282
 30
0.0
 11
133.8249258199902
 21
90.61746358494861
 31
0.0
  0
LINE
  5
6E5
330
1F
100
AcDbEntity
  8
0
100
AcDbLine
 10
133.8249258199902
 20
90.61746358494861
 30
0.0
 11
143.5769956995481
 21
90.61746358494861
 31
0.0
  0
LINE
  5
6E6
330
1F
100
AcDbEntity
  8
0
100
AcDbLine
 10
133.8249258199902
 20
89.550796918282
 30
0.0
 11
143.5769956995481
 21
89.550796918282
 31
0.0
  0
ARC
  5
6E7
330
1F
100
AcDbEntity
  8
0
100
AcDbCircle
 10
136.6935549700919
 20
102.2860927350503
 30
0.0
 40
1.466666666666656
100
AcDbArc
 50
135.0
 51
315.0
  0
LINE
  5
6E8
330
1F
100
AcDbEntity
  8
0
100
AcDbLine
 10
137.7306449158322
 20
101.24900278931
 30
0.0
 11
139.9933866156292
 21
103.5117444891071
 31
0.0
  0
LINE
  5
6E9
330
1F
100
AcDbEntity
  8
0
100
AcDbLine
 10
135.6564650243516
 20
103.3231826807905
 30
0.0
 11
137.9192067241487
 21
105.5859243805876
 31
0.0
  0
ARC
  5
6EA
330
1F
100
AcDbEntity
  8
0
100
AcDbCircle
 10
138.956296669889
 20
104.5488344348473
 30
0.0
 40
1.466666666666656
100
AcDbArc
 50
315.0
 51
135.0
  0
LINE
  5
6EB
330
1F
100
AcDbEntity
  8
0
100
AcDbLine
 10
151.691592486657
 20
72.75079691828205
 30
0.0
 11
150.6249258199904
 21
72.75079691828205
 31
0.0
  0
LINE
  5
6EC
330
1F
100
AcDbEntity
  8
0
100
AcDbLine
 10
150.6249258199904
 20
72.75079691828205
 30
0.0
 11
150.6249258199904
 21
82.50286679783972
 31
0.0
  0
LINE
  5
6ED
330
1F
100
AcDbEntity
  8
0
100
AcDbLine
 10
151.691592486657
 20
72.75079691828205
 30
0.0
 11
151.691592486657
 21
82.50286679783972
 31
0.0
  0
ARC
  5
6EE
330
1F
100
AcDbEntity
  8
0
100
AcDbCircle
 10
138.956296669889
 20
75.61942606838352
 30
0.0
 40
1.466666666666656
100
AcDbArc
 50
225.0
 51
45.0
  0
LINE
  5
6EF
330
1F
100
AcDbEntity
  8
0
100
AcDbLine
 10
139.9933866156292
 20
76.65651601412378
 30
0.0
 11
137.7306449158322
 21
78.91925771392084
 31
0.0
  0
LINE
  5
6F0
330
1F
100
AcDbEntity
  8
0
100
AcDbLine
 10
137.9192067241487
 20
74.58233612264326
 30
0.0
 11
135.6564650243516
 21
76.84507782244032
 31
0.0
  0
ARC
  5
6F1
330
1F
100
AcDbEntity
  8
0
100
AcDbCircle
 10
136.6935549700919
 20
77.88216776818058
 30
0.0
 40
1.466666666666656
100
AcDbArc
 50
45.0
 51
225.0
  0
LINE
  5
6F2
330
1F
100
AcDbEntity
  8
0
100
AcDbLine
 10
168.4915924866567
 20
90.61746358494861
 30
0.0
 11
168.4915924866567
 21
89.550796918282
 31
0.0
  0
LINE
  5
6F3
330
1F
100
AcDbEntity
  8
0
100
AcDbLine
 10
168.4915924866567
 20
89.550796918282
 30
0.0
 11
158.7395226070993
 21
89.550796918282
 31
0.0
  0
LINE
  5
6F4
330
1F
100
AcDbEntity
  8
0
100
AcDbLine
 10
168.4915924866567
 20
90.61746358494861
 30
0.0
 11
158.7395226070993
 21
90.61746358494861
 31
0.0
  0
ARC
  5
6F5
330
1F
100
AcDbEntity
  8
0
100
AcDbCircle
 10
165.6229633365555
 20
77.88216776818058
 30
0.0
 40
1.466666666666656
100
AcDbArc
 50
314.9999999999812
 51
135.0000000000063
  0
LINE
  5
6F6
330
1F
100
AcDbEntity
  8
0
100
AcDbLine
 10
164.5858733908152
 20
78.91925771392084
 30
0.0
 11
162.3231316910181
 21
76.65651601412378
 31
0.0
  0
LINE
  5
6F7
330
1F
100
AcDbEntity
  8
0
100
AcDbLine
 10
166.6600532822953
 20
76.84507782244032
 30
0.0
 11
164.3973115824987
 21
74.58233612264326
 31
0.0
  0
ARC
  5
6F8
330
1F
100
AcDbEntity
  8
0
100
AcDbCircle
 10
163.3602216367584
 20
75.61942606838352
 30
0.0
 40
1.466666666666656
100
AcDbArc
 50
135.0
 51
315.0
  0
SPLINE
  5
705
330
1F
100
AcDbEntity
  8
0
  6
CENTER
 48
0.1
100
AcDbSpline
210
0.0
220
0.0
230
1.0
 70
  1064
 71
     3
 72
    10
 73
     6
 74
     4
 42
0.0000000001
 43
0.0000000001
 44
0.0
 12
0.8775496025638062
 22
0.4794858653183695
 32
0.0
 13
0.7931502138847065
 23
0.6090260570900429
 33
0.0
 40
0.0
 40
0.0
 40
0.0
 40
0.0
 40
7.378564054895979
 40
10.32437908129578
 40
15.25504322311423
 40
15.25504322311423
 40
15.25504322311423
 40
15.25504322311423
 10
58.75237397850776
 20
207.0003503791461
 30
0.0
 10
60.91072596312961
 20
208.1796561027024
 30
0.0
 10
64.72474168204812
 20
212.3460317207632
 30
0.0
 10
67.91282065320812
 20
206.3920756394839
 30
0.0
 10
70.88987132923367
 20
208.9477493527683
 30
0.0
 10
72.19345710212599
 20
209.9487169998106
 30
0.0
 11
58.75237397850776
 21
207.0003503791461
 31
0.0
 11
65.51627387297356
 21
209.9487169998106
 31
0.0
 11
67.68419050581531
 21
207.9542336975965
 31
0.0
 11
72.19345710212599
 21
209.9487169998106
 31
0.0
  0
SPLINE
  5
706
330
1F
100
AcDbEntity
  8
0
  6
CENTER
 48
0.1
100
AcDbSpline
210
0.0
220
0.0
230
1.0
 70
  1064
 71
     3
 72
    10
 73
     6
 74
     4
 42
0.0000000001
 43
0.0000000001
 44
0.0
 12
0.8775496025638062
 22
0.4794858653183695
 32
0.0
 13
0.7931502138847065
 23
0.6090260570900429
 33
0.0
 40
0.0
 40
0.0
 40
0.0
 40
0.0
 40
7.378564054895979
 40
10.32437908129593
 40
15.25504322311448
 40
15.25504322311448
 40
15.25504322311448
 40
15.25504322311448
 10
58.75237397850776
 20
201.9764307056766
 30
0.0
 10
60.91072596312961
 20
203.1557364292329
 30
0.0
 10
64.72474168204829
 20
207.322112047294
 30
0.0
 10
67.91282065320803
 20
201.368155966014
 30
0.0
 10
70.88987132923364
 20
203.9238296792988
 30
0.0
 10
72.19345710212599
 20
204.9247973263411
 30
0.0
 11
58.75237397850776
 21
201.9764307056766
 31
0.0
 11
65.51627387297356
 21
204.9247973263411
 31
0.0
 11
67.68419050581531
 21
202.9303140241268
 31
0.0
 11
72.19345710212599
 21
204.9247973263411
 31
0.0
  0
SPLINE
  5
707
330
1F
100
AcDbEntity
  8
0
  6
CENTER
 48
0.1
100
AcDbSpline
210
0.0
220
0.0
230
1.0
 70
  1064
 71
     3
 72
    10
 73
     6
 74
     4
 42
0.0000000001
 43
0.0000000001
 44
0.0
 12
0.8775496025638062
 22
0.4794858653183695
 32
0.0
 13
0.7931502138847065
 23
0.6090260570900429
 33
0.0
 40
0.0
 40
0.0
 40
0.0
 40
0.0
 40
7.378564054895979
 40
10.32437908129578
 40
15.25504322311423
 40
15.25504322311423
 40
15.25504322311423
 40
15.25504322311423
 10
102.6008726162512
 20
207.0003503791461
 30
0.0
 10
104.759224600873
 20
208.1796561027024
 30
0.0
 10
108.5732403197916
 20
212.3460317207632
 30
0.0
 10
111.7613192909515
 20
206.3920756394839
 30
0.0
 10
114.7383699669771
 20
208.9477493527683
 30
0.0
 10
116.0419557398694
 20
209.9487169998106
 30
0.0
 11
102.6008726162512
 21
207.0003503791461
 31
0.0
 11
109.364772510717
 21
209.9487169998106
 31
0.0
 11
111.5326891435587
 21
207.9542336975965
 31
0.0
 11
116.0419557398694
 21
209.9487169998106
 31
0.0
  0
SPLINE
  5
708
330
1F
100
AcDbEntity
  8
0
  6
CENTER
 48
0.1
100
AcDbSpline
210
0.0
220
0.0
230
1.0
 70
  1064
 71
     3
 72
    10
 73
     6
 74
     4
 42
0.0000000001
 43
0.0000000001
 44
0.0
 12
0.8775496025638062
 22
0.4794858653183695
 32
0.0
 13
0.7931502138847065
 23
0.6090260570900429
 33
0.0
 40
0.0
 40
0.0
 40
0.0
 40
0.0
 40
7.378564054895979
 40
10.32437908129593
 40
15.25504322311448
 40
15.25504322311448
 40
15.25504322311448
 40
15.25504322311448
 10
102.6008726162512
 20
201.9764307056766
 30
0.0
 10
104.759224600873
 20
203.1557364292329
 30
0.0
 10
108.5732403197917
 20
207.322112047294
 30
0.0
 10
111.7613192909514
 20
201.368155966014
 30
0.0
 10
114.7383699669771
 20
203.9238296792988
 30
0.0
 10
116.0419557398694
 20
204.9247973263411
 30
0.0
 11
102.6008726162512
 21
201.9764307056766
 31
0.0
 11
109.364772510717
 21
204.9247973263411
 31
0.0
 11
111.5326891435587
 21
202.9303140241268
 31
0.0
 11
116.0419557398694
 21
204.9247973263411
 31
0.0
  0
LINE
  5
709
330
1F
100
AcDbEntity
  8
0
100
AcDbLine
 10
112.3366165349206
 20
202.8035384016996
 30
0.0
 11
112.3366165349206
 21
60.77407344927065
 31
0.0
  0
LINE
  5
70A
330
1F
100
AcDbEntity
  8
0
100
AcDbLine
 10
104.7366165349207
 20
203.4184155896717
 30
0.0
 11
104.7366165349207
 21
60.77407344927065
 31
0.0
  0
LINE
  5
70B
330
1F
100
AcDbEntity
  8
0
100
AcDbLine
 10
68.48811789717718
 20
202.8035384016996
 30
0.0
 11
68.48811789717718
 21
60.77407344927065
 31
0.0
  0
LINE
  5
70C
330
1F
100
AcDbEntity
  8
0
100
AcDbLine
 10
60.88811789717727
 20
203.4184155896717
 30
0.0
 11
60.88811789717727
 21
60.77407344927065
 31
0.0
  0
LINE
  5
70D
330
1F
100
AcDbEntity
  8
0
100
AcDbLine
 10
137.8249258199902
 20
76.75079691828205
 30
0.0
 11
137.8249258199902
 21
60.74408413969604
 31
0.0
  0
LINE
  5
70E
330
1F
100
AcDbEntity
  8
0
100
AcDbLine
 10
164.4915924866567
 20
76.75079691828205
 30
0.0
 11
164.4915924866567
 21
60.74408413969604
 31
0.0
  0
LINE
  5
70F
330
1F
100
AcDbEntity
  8
0
100
AcDbLine
 10
142.6249258199904
 20
62.41075080636278
 30
0.0
 11
159.691592486657
 21
62.41075080636278
 31
0.0
  0
SOLID
  5
710
330
1F
100
AcDbEntity
  8
0
100
AcDbTrace
 10
142.6249258199904
 20
63.21075080636274
 30
0.0
 11
142.6249258199904
 21
61.61075080636283
 31
0.0
 12
137.8249258199902
 22
62.41075080636278
 32
0.0
 13
137.8249258199902
 23
62.41075080636278
 33
0.0
  0
SOLID
  5
711
330
1F
100
AcDbEntity
  8
0
100
AcDbTrace
 10
159.691592486657
 20
61.61075080636283
 30
0.0
 11
159.691592486657
 21
63.21075080636274
 31
0.0
 12
164.4915924866567
 22
62.41075080636278
 32
0.0
 13
164.4915924866567
 23
62.41075080636278
 33
0.0
  0
MTEXT
  5
712
330
1F
100
AcDbEntity
  8
0
100
AcDbMText
 10
151.2368457091969
 20
64.4296786845581
 30
0.0
 40
3.0
 41
0.0
 71
     5
 72
     1
  1
{200}
  7
SEACAD_Arial
 73
     1
 44
1.0
1001
ACAD
1000
ACAD_MTEXT_DEFINED_HEIGHT_BEGIN
1070
    46
1040
5.0
1000
ACAD_MTEXT_DEFINED_HEIGHT_END
  0
LINE
  5
713
330
1F
100
AcDbEntity
  8
0
100
AcDbLine
 10
131.1582591533237
 20
68.71831693127092
 30
0.0
 11
131.1582591533237
 21
49.74267848595809
 31
0.0
  0
LINE
  5
714
330
1F
100
AcDbEntity
  8
0
100
AcDbLine
 10
171.1582591533237
 20
68.71831693127092
 30
0.0
 11
171.1582591533237
 21
49.74267848595809
 31
0.0
  0
LINE
  5
715
330
1F
100
AcDbEntity
  8
0
100
AcDbLine
 10
135.9582591533234
 20
51.40934515262461
 30
0.0
 11
166.3582591533235
 21
51.40934515262461
 31
0.0
  0
SOLID
  5
716
330
1F
100
AcDbEntity
  8
0
100
AcDbTrace
 10
135.9582591533234
 20
52.20934515262479
 30
0.0
 11
135.9582591533234
 21
50.60934515262466
 31
0.0
 12
131.1582591533237
 22
51.40934515262461
 32
0.0
 13
131.1582591533237
 23
51.40934515262461
 33
0.0
  0
SOLID
  5
717
330
1F
100
AcDbEntity
  8
0
100
AcDbTrace
 10
166.3582591533235
 20
50.60934515262466
 30
0.0
 11
166.3582591533235
 21
52.20934515262479
 31
0.0
 12
171.1582591533237
 22
51.40934515262461
 32
0.0
 13
171.1582591533237
 23
51.40934515262461
 33
0.0
  0
MTEXT
  5
718
330
1F
100
AcDbEntity
  8
0
100
AcDbMText
 10
151.1402336317707
 20
53.42827303081926
 30
0.0
 40
3.0
 41
0.0
 71
     5
 72
     1
  1
{300}
  7
SEACAD_Arial
 73
     1
 44
1.0
1001
ACAD
1000
ACAD_MTEXT_DEFINED_HEIGHT_BEGIN
1070
    46
1040
40.0
1000
ACAD_MTEXT_DEFINED_HEIGHT_END
  0
MTEXT
  5
719
330
1F
100
AcDbEntity
  8
0
100
AcDbMText
 10
176.7754634344666
 20
90.0841302516153
 30
0.0
 40
3.0
 41
0.0
 71
     5
 72
     1
  1
{200}
  7
SEACAD_Arial
 11
6.123233995736766E-17
 21
1.0
 31
0.0
 73
     1
 44
1.0
1001
ACAD
1000
ACAD_MTEXT_DEFINED_HEIGHT_BEGIN
1070
    46
1040
5.0
1000
ACAD_MTEXT_DEFINED_HEIGHT_END
  0
SOLID
  5
71A
330
1F
100
AcDbEntity
  8
0
100
AcDbTrace
 10
179.6316385985759
 20
98.61746358494861
 30
0.0
 11
178.0316385985765
 21
98.61746358494861
 31
0.0
 12
178.8316385985758
 22
103.4174635849488
 32
0.0
 13
178.8316385985758
 23
103.4174635849488
 33
0.0
  0
SOLID
  5
71B
330
1F
100
AcDbEntity
  8
0
100
AcDbTrace
 10
178.0316385985765
 20
81.550796918282
 30
0.0
 11
179.6316385985759
 21
81.550796918282
 31
0.0
 12
178.8316385985758
 22
76.75079691828205
 32
0.0
 13
178.8316385985758
 23
76.75079691828205
 33
0.0
  0
LINE
  5
71C
330
1F
100
AcDbEntity
  8
0
100
AcDbLine
 10
178.8316385985758
 20
81.550796918282
 30
0.0
 11
178.8316385985758
 21
98.61746358494861
 31
0.0
  0
LINE
  5
71D
330
1F
100
AcDbEntity
  8
0
100
AcDbLine
 10
164.4915924866567
 20
103.4174635849488
 30
0.0
 11
180.4983052652427
 21
103.4174635849488
 31
0.0
  0
LINE
  5
71E
330
1F
100
AcDbEntity
  8
0
100
AcDbLine
 10
164.4915924866567
 20
76.75079691828205
 30
0.0
 11
180.4983052652427
 21
76.75079691828205
 31
0.0
  0
MTEXT
  5
71F
330
1F
100
AcDbEntity
  8
0
100
AcDbMText
 10
187.8734811656315
 20
90.08413025161553
 30
0.0
 40
3.0
 41
0.0
 71
     5
 72
     1
  1
{300}
  7
SEACAD_Arial
 11
6.123233995736766E-17
 21
1.0
 31
0.0
 73
     1
 44
1.0
1001
ACAD
1000
ACAD_MTEXT_DEFINED_HEIGHT_BEGIN
1070
    46
1040
40.0
1000
ACAD_MTEXT_DEFINED_HEIGHT_END
  0
SOLID
  5
720
330
1F
100
AcDbEntity
  8
0
100
AcDbTrace
 10
190.6330442523143
 20
105.2841302516154
 30
0.0
 11
189.033044252314
 21
105.2841302516154
 31
0.0
 12
189.8330442523142
 22
110.0841302516153
 32
0.0
 13
189.8330442523142
 23
110.0841302516153
 33
0.0
  0
SOLID
  5
721
330
1F
100
AcDbEntity
  8
0
100
AcDbTrace
 10
189.033044252314
 20
74.88413025161526
 30
0.0
 11
190.6330442523143
 21
74.88413025161526
 31
0.0
 12
189.8330442523142
 22
70.0841302516153
 32
0.0
 13
189.8330442523142
 23
70.0841302516153
 33
0.0
  0
LINE
  5
722
330
1F
100
AcDbEntity
  8
0
100
AcDbLine
 10
189.8330442523142
 20
74.88413025161526
 30
0.0
 11
189.8330442523142
 21
105.2841302516154
 31
0.0
  0
LINE
  5
723
330
1F
100
AcDbEntity
  8
0
100
AcDbLine
 10
172.5240724736681
 20
110.0841302516153
 30
0.0
 11
191.4997109189811
 21
110.0841302516153
 31
0.0
  0
LINE
  5
724
330
1F
100
AcDbEntity
  8
0
100
AcDbLine
 10
172.5240724736681
 20
70.0841302516153
 30
0.0
 11
191.4997109189811
 21
70.0841302516153
 31
0.0
  0
LINE
  5
725
330
1F
100
AcDbEntity
  8
0
100
AcDbLine
 10
161.1446203890404
 20
104.6902557910846
 30
0.0
 11
147.4451907200427
 21
118.3896854600825
 31
0.0
  0
LINE
  5
726
330
1F
100
AcDbEntity
  8
0
100
AcDbLine
 10
163.2188002805209
 20
106.7644356825651
 30
0.0
 11
149.5193706115232
 21
120.4638653515631
 31
0.0
  0
LINE
  5
727
330
1F
100
AcDbEntity
  8
0
100
AcDbLine
 10
145.2295894723246
 20
113.8170616084094
 30
0.0
 11
141.8354769226293
 21
110.422949058714
 31
0.0
  0
LINE
  5
728
330
1F
100
AcDbEntity
  8
0
100
AcDbLine
 10
154.0919944631963
 20
122.6794665992809
 30
0.0
 11
160.8802195625871
 21
129.4676916986716
 31
0.0
  0
SOLID
  5
729
330
1F
100
AcDbEntity
  8
0
100
AcDbTrace
 10
145.7952748972742
 20
113.2513761834603
 30
0.0
 11
144.6639040473755
 21
114.3827470333588
 31
0.0
 12
148.62370202202
 22
117.211174158105
 32
0.0
 13
148.62370202202
 23
117.211174158105
 33
0.0
  0
SOLID
  5
72A
330
1F
100
AcDbEntity
  8
0
100
AcDbTrace
 10
153.5263090382467
 20
123.24515202423
 30
0.0
 11
154.6576798881455
 21
122.1137811743315
 31
0.0
 12
150.6978819135005
 22
119.2853540495855
 32
0.0
 13
150.6978819135005
 23
119.2853540495855
 33
0.0
  0
MTEXT
  5
72B
330
1F
100
AcDbEntity
  8
0
100
AcDbMText
 10
157.1543891226713
 20
129.1152202539704
 30
0.0
 40
3.0
 41
0.0
 71
     5
 72
     1
  1
{22}
  7
SEACAD_Arial
 11
0.7071067811865477
 21
0.7071067811865474
 31
0.0
 73
     1
 44
1.0
1001
ACAD
1000
ACAD_MTEXT_DEFINED_HEIGHT_BEGIN
1070
    46
1040
40.0
1000
ACAD_MTEXT_DEFINED_HEIGHT_END
  0
LINE
  5
72C
330
1F
100
AcDbEntity
  8
0
100
AcDbLine
 10
148.62370202202
 20
117.211174158105
 30
0.0
 11
150.6978819135005
 21
119.2853540495855
 31
0.0
  0
LINE
  5
72D
330
1F
100
AcDbEntity
  8
0
100
AcDbLine
 10
167.8385645842731
 20
102.4275140912875
 30
0.0
 11
186.4307070420967
 21
121.019656549111
 31
0.0
  0
LINE
  5
72E
330
1F
100
AcDbEntity
  8
0
100
AcDbLine
 10
163.5016429929955
 20
106.7644356825651
 30
0.0
 11
182.0937854508187
 21
125.3565781403886
 31
0.0
  0
LINE
  5
72F
330
1F
100
AcDbEntity
  8
0
100
AcDbLine
 10
188.6463082898148
 20
116.4470326974379
 30
0.0
 11
192.0404208395097
 21
113.0529201477425
 31
0.0
  0
LINE
  5
730
330
1F
100
AcDbEntity
  8
0
100
AcDbLine
 10
177.521161599146
 20
127.5721793881064
 30
0.0
 11
170.7329364997553
 21
134.3604044874971
 31
0.0
  0
SOLID
  5
731
330
1F
100
AcDbEntity
  8
0
100
AcDbTrace
 10
189.2119937147639
 20
117.012718122387
 30
0.0
 11
188.0806228648656
 21
115.8813472724887
 31
0.0
 12
185.252195740119
 22
119.8411452471332
 32
0.0
 13
185.252195740119
 23
119.8411452471332
 33
0.0
  0
SOLID
  5
732
330
1F
100
AcDbEntity
  8
0
100
AcDbTrace
 10
176.9554761741969
 20
127.006493963157
 30
0.0
 11
178.0868470240952
 21
128.1378648130556
 31
0.0
 12
180.9152741488418
 22
124.1780668384108
 32
0.0
 13
180.9152741488418
 23
124.1780668384108
 33
0.0
  0
MTEXT
  5
733
330
1F
100
AcDbEntity
  8
0
100
AcDbMText
 10
174.6084761551666
 20
133.8624140257428
 30
0.0
 40
3.0
 41
0.0
 71
     5
 72
     1
  1
{46}
  7
SEACAD_Arial
 11
0.7071067811865472
 21
-0.7071067811865478
 31
0.0
 73
     1
 44
1.0
1001
ACAD
1000
ACAD_MTEXT_DEFINED_HEIGHT_BEGIN
1070
    46
1040
40.0
1000
ACAD_MTEXT_DEFINED_HEIGHT_END
  0
LINE
  5
734
330
1F
100
AcDbEntity
  8
0
100
AcDbLine
 10
180.9152741488418
 20
124.1780668384108
 30
0.0
 11
185.252195740119
 21
119.8411452471332
 31
0.0
  0
LINE
  5
735
330
1F
100
AcDbEntity
  8
0
100
AcDbLine
 10
66.68811789717745
 20
237.3696812834016
 30
0.0
 11
66.68811789717745
 21
248.942492091835
 31
0.0
  0
LINE
  5
736
330
1F
100
AcDbEntity
  8
0
100
AcDbLine
 10
62.68811789717745
 20
237.3696812834016
 30
0.0
 11
62.68811789717745
 21
248.942492091835
 31
0.0
  0
LINE
  5
737
330
1F
100
AcDbEntity
  8
0
100
AcDbLine
 10
57.88811789717727
 20
247.2758254251685
 30
0.0
 11
48.28811789717736
 21
247.2758254251685
 31
0.0
  0
LINE
  5
738
330
1F
100
AcDbEntity
  8
0
100
AcDbLine
 10
71.48811789717718
 20
247.2758254251685
 30
0.0
 11
76.28811789717736
 21
247.2758254251685
 31
0.0
  0
SOLID
  5
739
330
1F
100
AcDbEntity
  8
0
100
AcDbTrace
 10
57.88811789717727
 20
248.0758254251684
 30
0.0
 11
57.88811789717727
 21
246.4758254251685
 31
0.0
 12
62.68811789717745
 22
247.2758254251685
 32
0.0
 13
62.68811789717745
 23
247.2758254251685
 33
0.0
  0
SOLID
  5
73A
330
1F
100
AcDbEntity
  8
0
100
AcDbTrace
 10
71.48811789717718
 20
246.4758254251685
 30
0.0
 11
71.48811789717718
 21
248.0758254251684
 31
0.0
 12
66.68811789717745
 22
247.2758254251685
 32
0.0
 13
66.68811789717745
 23
247.2758254251685
 33
0.0
  0
MTEXT
  5
73B
330
1F
100
AcDbEntity
  8
0
100
AcDbMText
 10
52.35881590577259
 20
249.6882042624531
 30
0.0
 40
3.0
 41
0.0
 71
     5
 72
     1
  1
{%%c60}
  7
SEACAD_Arial
 73
     1
 44
1.0
1001
ACAD
1000
ACAD_MTEXT_DEFINED_HEIGHT_BEGIN
1070
    46
1040
40.0
1000
ACAD_MTEXT_DEFINED_HEIGHT_END
  0
LINE
  5
73C
330
1F
100
AcDbEntity
  8
0
100
AcDbLine
 10
66.68811789717745
 20
247.2758254251685
 30
0.0
 11
62.68811789717745
 21
247.2758254251685
 31
0.0
  0
LINE
  5
73D
330
1F
100
AcDbEntity
  8
0
100
AcDbLine
 10
70.15478456384369
 20
231.0363479500681
 30
0.0
 11
87.78537708399642
 21
231.0363479500681
 31
0.0
  0
LINE
  5
73E
330
1F
100
AcDbEntity
  8
0
100
AcDbLine
 10
68.35478456384396
 20
235.7030146167349
 30
0.0
 11
87.78537708399642
 21
235.7030146167349
 31
0.0
  0
LINE
  5
73F
330
1F
100
AcDbEntity
  8
0
100
AcDbLine
 10
86.11871041732945
 20
226.2363479500682
 30
0.0
 11
86.11871041732945
 21
221.4363479500682
 31
0.0
  0
LINE
  5
740
330
1F
100
AcDbEntity
  8
0
100
AcDbLine
 10
86.11871041732945
 20
240.5030146167348
 30
0.0
 11
86.11871041732945
 21
250.103014616735
 31
0.0
  0
SOLID
  5
741
330
1F
100
AcDbEntity
  8
0
100
AcDbTrace
 10
86.91871041732963
 20
226.2363479500682
 30
0.0
 11
85.31871041732973
 21
226.2363479500682
 31
0.0
 12
86.11871041732945
 22
231.0363479500681
 32
0.0
 13
86.11871041732945
 23
231.0363479500681
 33
0.0
  0
SOLID
  5
742
330
1F
100
AcDbEntity
  8
0
100
AcDbTrace
 10
85.31871041732973
 20
240.5030146167348
 30
0.0
 11
86.91871041732963
 21
240.5030146167348
 31
0.0
 12
86.11871041732945
 22
235.7030146167349
 32
0.0
 13
86.11871041732945
 23
235.7030146167349
 33
0.0
  0
MTEXT
  5
743
330
1F
100
AcDbEntity
  8
0
100
AcDbMText
 10
83.82445744934046
 20
246.7267260806782
 30
0.0
 40
3.0
 41
0.0
 71
     5
 72
     1
  1
\A1;70
  7
SEACAD_Arial
 11
6.123233995736766E-17
 21
1.0
 31
0.0
 73
     1
 44
1.0
  0
LINE
  5
744
330
1F
100
AcDbEntity
  8
0
100
AcDbLine
 10
86.11871041732945
 20
235.7030146167349
 30
0.0
 11
86.11871041732945
 21
231.0363479500681
 31
0.0
  0
LINE
  5
745
330
1F
100
AcDbEntity
  8
0
100
AcDbLine
 10
56.08811789717709
 20
178.7527121458606
 30
0.0
 11
51.28811789717736
 21
178.7527121458606
 31
0.0
  0
LINE
  5
746
330
1F
100
AcDbEntity
  8
0
100
AcDbLine
 10
73.28811789717736
 20
178.7527121458606
 30
0.0
 11
90.71581597135616
 21
178.7527121458606
 31
0.0
  0
SOLID
  5
747
330
1F
100
AcDbEntity
  8
0
100
AcDbTrace
 10
56.08811789717709
 20
177.9527121458607
 30
0.0
 11
56.08811789717709
 21
179.5527121458608
 31
0.0
 12
60.88811789717727
 22
178.7527121458606
 32
0.0
 13
60.88811789717727
 23
178.7527121458606
 33
0.0
  0
SOLID
  5
748
330
1F
100
AcDbEntity
  8
0
100
AcDbTrace
 10
73.28811789717736
 20
179.5527121458608
 30
0.0
 11
73.28811789717736
 21
177.9527121458607
 31
0.0
 12
68.48811789717718
 22
178.7527121458606
 32
0.0
 13
68.48811789717718
 23
178.7527121458606
 33
0.0
  0
MTEXT
  5
749
330
1F
100
AcDbEntity
  8
0
100
AcDbMText
 10
84.73379658624992
 20
181.0522852222049
 30
0.0
 40
3.0
 41
0.0
 71
     5
 72
     1
  1
{Ø114}
  7
SEACAD_Arial
 73
     1
 44
1.0
1001
ACAD
1000
ACAD_MTEXT_DEFINED_HEIGHT_BEGIN
1070
    46
1040
2.666666666666664
1000
ACAD_MTEXT_DEFINED_HEIGHT_END
  0
LINE
  5
74A
330
1F
100
AcDbEntity
  8
0
100
AcDbLine
 10
60.88811789717727
 20
178.7527121458606
 30
0.0
 11
68.48811789717718
 21
178.7527121458606
 31
0.0
  0
LINE
  5
74B
330
1F
100
AcDbEntity
  8
0
100
AcDbLine
 10
53.83382162439409
 20
50.77407344927065
 30
0.0
 11
46.69329566164458
 21
50.77407344927065
 31
0.0
  0
LINE
  5
74C
330
1F
100
AcDbEntity
  8
0
100
AcDbLine
 10
61.83382162439409
 20
84.1074067826039
 30
0.0
 11
46.69329566164458
 21
84.1074067826039
 31
0.0
  0
LINE
  5
74D
330
1F
100
AcDbEntity
  8
0
100
AcDbLine
 10
48.3599623283111
 20
55.5740734492706
 30
0.0
 11
48.3599623283111
 21
79.30740678260395
 31
0.0
  0
SOLID
  5
74E
330
1F
100
AcDbEntity
  8
0
100
AcDbTrace
 10
47.55996232831137
 20
55.5740734492706
 30
0.0
 11
49.15996232831128
 21
55.5740734492706
 31
0.0
 12
48.3599623283111
 22
50.77407344927065
 32
0.0
 13
48.3599623283111
 23
50.77407344927065
 33
0.0
  0
SOLID
  5
74F
330
1F
100
AcDbEntity
  8
0
100
AcDbTrace
 10
49.15996232831128
 20
79.30740678260395
 30
0.0
 11
47.55996232831137
 21
79.30740678260395
 31
0.0
 12
48.3599623283111
 22
84.1074067826039
 32
0.0
 13
48.3599623283111
 23
84.1074067826039
 33
0.0
  0
MTEXT
  5
750
330
1F
100
AcDbEntity
  8
0
100
AcDbMText
 10
46.04925167122644
 20
67.44074011593716
 30
0.0
 40
3.0
 41
0.0
 71
     5
 72
     1
  1
\A1;500
  7
SEACAD_Arial
 11
6.123233995736766E-17
 21
1.0
 31
0.0
 73
     1
 44
1.0
  0
LINE
  5
751
330
1F
100
AcDbEntity
  8
0
100
AcDbLine
 10
61.83382162439409
 20
107.4407401159372
 30
0.0
 11
46.69329566164458
 21
107.4407401159372
 31
0.0
  0
LINE
  5
752
330
1F
100
AcDbEntity
  8
0
100
AcDbLine
 10
48.3599623283111
 20
88.90740678260386
 30
0.0
 11
48.3599623283111
 21
102.6407401159372
 31
0.0
  0
SOLID
  5
753
330
1F
100
AcDbEntity
  8
0
100
AcDbTrace
 10
47.55996232831137
 20
88.90740678260386
 30
0.0
 11
49.15996232831128
 21
88.90740678260386
 31
0.0
 12
48.3599623283111
 22
84.1074067826039
 32
0.0
 13
48.3599623283111
 23
84.1074067826039
 33
0.0
  0
SOLID
  5
754
330
1F
100
AcDbEntity
  8
0
100
AcDbTrace
 10
49.15996232831128
 20
102.6407401159372
 30
0.0
 11
47.55996232831137
 21
102.6407401159372
 31
0.0
 12
48.3599623283111
 22
107.4407401159372
 32
0.0
 13
48.3599623283111
 23
107.4407401159372
 33
0.0
  0
MTEXT
  5
755
330
1F
100
AcDbEntity
  8
0
100
AcDbMText
 10
46.19363700017345
 20
95.77407344927065
 30
0.0
 40
3.0
 41
0.0
 71
     5
 72
     1
  1
{350}
  7
SEACAD_Arial
 11
6.123233995736766E-17
 21
1.0
 31
0.0
 73
     1
 44
1.0
1001
ACAD
1000
ACAD_MTEXT_DEFINED_HEIGHT_BEGIN
1070
    46
1040
40.0
1000
ACAD_MTEXT_DEFINED_HEIGHT_END
  0
LINE
  5
756
330
1F
100
AcDbEntity
  8
0
100
AcDbLine
 10
61.68811789717745
 20
107.3135051446006
 30
0.0
 11
61.68811789717745
 21
118.1305195263571
 31
0.0
  0
LINE
  5
757
330
1F
100
AcDbEntity
  8
0
100
AcDbLine
 10
67.68811789717745
 20
107.3135051446006
 30
0.0
 11
67.68811789717745
 21
118.1305195263571
 31
0.0
  0
LINE
  5
758
330
1F
100
AcDbEntity
  8
0
100
AcDbLine
 10
56.88811789717727
 20
116.4638528596906
 30
0.0
 11
52.08811789717709
 21
116.4638528596906
 31
0.0
  0
LINE
  5
759
330
1F
100
AcDbEntity
  8
0
100
AcDbLine
 10
72.48811789717718
 20
116.4638528596906
 30
0.0
 11
82.08811789717709
 21
116.4638528596906
 31
0.0
  0
SOLID
  5
75A
330
1F
100
AcDbEntity
  8
0
100
AcDbTrace
 10
56.88811789717727
 20
115.6638528596905
 30
0.0
 11
56.88811789717727
 21
117.2638528596906
 31
0.0
 12
61.68811789717745
 22
116.4638528596906
 32
0.0
 13
61.68811789717745
 23
116.4638528596906
 33
0.0
  0
SOLID
  5
75B
330
1F
100
AcDbEntity
  8
0
100
AcDbTrace
 10
72.48811789717718
 20
117.2638528596906
 30
0.0
 11
72.48811789717718
 21
115.6638528596905
 31
0.0
 12
67.68811789717745
 22
116.4638528596906
 32
0.0
 13
67.68811789717745
 23
116.4638528596906
 33
0.0
  0
MTEXT
  5
75C
330
1F
100
AcDbEntity
  8
0
100
AcDbMText
 10
79.23231632008478
 20
118.6358458376736
 30
0.0
 40
3.0
 41
0.0
 71
     5
 72
     1
  1
\A1;90
  7
SEACAD_Arial
 73
     1
 44
1.0
  0
LINE
  5
75D
330
1F
100
AcDbEntity
  8
0
100
AcDbLine
 10
61.68811789717745
 20
116.4638528596906
 30
0.0
 11
67.68811789717745
 21
116.4638528596906
 31
0.0
  0
LINE
  5
76E
330
1F
100
AcDbEntity
  8
0
100
AcDbLine
 10
54.68811789717745
 20
50.24074011593711
 30
0.0
 11
37.02816102926124
 21
50.24074011593711
 31
0.0
  0
LINE
  5
76F
330
1F
100
AcDbEntity
  8
0
100
AcDbLine
 10
60.88811789717727
 20
231.0363479500681
 30
0.0
 11
37.02816102926124
 21
231.0363479500681
 31
0.0
  0
LINE
  5
770
330
1F
100
AcDbEntity
  8
0
100
AcDbLine
 10
38.69482769592821
 20
55.0407401159373
 30
0.0
 11
38.69482769592821
 21
226.2363479500682
 31
0.0
  0
SOLID
  5
771
330
1F
100
AcDbEntity
  8
0
100
AcDbTrace
 10
37.89482769592803
 20
55.0407401159373
 30
0.0
 11
39.49482769592794
 21
55.0407401159373
 31
0.0
 12
38.69482769592821
 22
50.24074011593711
 32
0.0
 13
38.69482769592821
 23
50.24074011593711
 33
0.0
  0
SOLID
  5
772
330
1F
100
AcDbEntity
  8
0
100
AcDbTrace
 10
39.49482769592794
 20
226.2363479500682
 30
0.0
 11
37.89482769592803
 21
226.2363479500682
 31
0.0
 12
38.69482769592821
 22
231.0363479500681
 32
0.0
 13
38.69482769592821
 23
231.0363479500681
 33
0.0
  0
MTEXT
  5
773
330
1F
100
AcDbEntity
  8
0
100
AcDbMText
 10
36.47952675723506
 20
140.6385440330027
 30
0.0
 40
3.0
 41
0.0
 71
     5
 72
     1
  1
{H}
  7
SEACAD_Arial
 11
6.123233995736766E-17
 21
1.0
 31
0.0
 73
     1
 44
1.0
1001
ACAD
1000
ACAD_MTEXT_DEFINED_HEIGHT_BEGIN
1070
    46
1040
3.0
1000
ACAD_MTEXT_DEFINED_HEIGHT_END
  0
LINE
  5
774
330
1F
100
AcDbEntity
  8
0
100
AcDbLine
 10
60.55478456384378
 20
55.77407344927065
 30
0.0
 11
59.88811789717727
 21
55.77407344927065
 31
0.0
  0
LINE
  5
775
330
1F
100
AcDbEntity
  8
0
100
AcDbLine
 10
69.48811789717718
 20
55.77407344927065
 30
0.0
 11
73.35478456384396
 21
51.44074011593716
 31
0.0
  0
LINE
  5
776
330
1F
100
AcDbEntity
  8
0
100
AcDbLine
 10
73.35478456384396
 20
50.77407344927065
 30
0.0
 11
73.35478456384396
 21
51.44074011593716
 31
0.0
  0
LINE
  5
777
330
1F
100
AcDbEntity
  8
0
100
AcDbLine
 10
68.82145123051066
 20
55.77407344927065
 30
0.0
 11
69.48811789717718
 21
55.77407344927065
 31
0.0
  0
LINE
  5
778
330
1F
100
AcDbEntity
  8
0
100
AcDbLine
 10
103.7366165349207
 20
55.77407344927065
 30
0.0
 11
99.86994986825391
 21
51.44074011593716
 31
0.0
  0
LINE
  5
779
330
1F
100
AcDbEntity
  8
0
100
AcDbLine
 10
99.86994986825391
 20
50.77407344927065
 30
0.0
 11
99.86994986825391
 21
51.44074011593716
 31
0.0
  0
LINE
  5
77A
330
1F
100
AcDbEntity
  8
0
100
AcDbLine
 10
104.4032832015872
 20
55.77407344927065
 30
0.0
 11
103.7366165349207
 21
55.77407344927065
 31
0.0
  0
LINE
  5
77B
330
1F
100
AcDbEntity
  8
0
100
AcDbLine
 10
113.3366165349206
 20
55.77407344927065
 30
0.0
 11
117.2032832015874
 21
51.44074011593716
 31
0.0
  0
LINE
  5
77C
330
1F
100
AcDbEntity
  8
0
100
AcDbLine
 10
117.2032832015874
 20
50.77407344927065
 30
0.0
 11
117.2032832015874
 21
51.44074011593716
 31
0.0
  0
LINE
  5
77D
330
1F
100
AcDbEntity
  8
0
100
AcDbLine
 10
112.6699498682541
 20
55.77407344927065
 30
0.0
 11
113.3366165349206
 21
55.77407344927065
 31
0.0
  0
CIRCLE
  5
797
330
1F
100
AcDbEntity
  8
0
100
AcDbCircle
 10
151.1582591533237
 20
90.0841302516153
 30
0.0
 40
3.99999999999
  0
CIRCLE
  5
798
330
1F
100
AcDbEntity
  8
0
100
AcDbCircle
 10
151.1582591533237
 20
90.0841302516153
 30
0.0
 40
3.599999999991001
  0
MTEXT
  5
7C5
330
1F
100
AcDbEntity
  8
Predeterminado
100
AcDbMText
 10
49.33596103080413
 20
40.42322552691537
 30
0.0
 40
2.5
 41
34.86519010712762
 71
     1
 72
     1
  1
{\fCircular Std Book|b1|i0|c0|p34;\C7;ILCL40ES1  H=4000\PILCL50ES1  H=5000\PILCL60ES1  H=6000\PILCL70ES1  H=7000\PILCL80ES1  H=8000}
 73
     1
 44
1.0
1001
ACAD
1000
ACAD_MTEXT_DEFINED_HEIGHT_BEGIN
1070
    46
1040
19.21916666666667
1000
ACAD_MTEXT_DEFINED_HEIGHT_END
  0
LWPOLYLINE
  5
7EF
330
1F
100
AcDbEntity
  8
0
100
AcDbPolyline
 90
        4
 70
     1
 43
0.0
 10
-1.636266439559563
 20
-0.7525336596197576
 10
-1.636266439559563
 20
296.2474663403803
 10
208.3637335604405
 20
296.2474663403803
 10
208.3637335604405
 20
-0.7525336596197576
  0
ENDSEC
  0
SECTION
  2
OBJECTS
  0
DICTIONARY
  5
C
330
0
100
AcDbDictionary
281
     1
  3
ACAD_COLOR
350
269
  3
ACAD_GROUP
350
D
  3
ACAD_IMAGE_VARS
350
25C
  3
ACAD_LAYOUT
350
1A
  3
ACAD_MATERIAL
350
43
  3
ACAD_MLEADERSTYLE
350
6B
  3
ACAD_MLINESTYLE
350
17
  3
ACAD_PLOTSETTINGS
350
19
  3
ACAD_PLOTSTYLENAME
350
E
  3
ACAD_SCALELIST
350
47
  3
ACAD_TABLESTYLE
350
69
  3
ACAD_VISUALSTYLE
350
2A
  3
ACDB_RECOMPOSE_DATA
350
837
  3
ACDBHEADERROUNDTRIPXREC
350
7F6
  3
AcDbVariableDictionary
350
21E
  3
APPDATA
350
25B
  3
DWGPROPS
350
7F9
  0
DICTIONARY
  5
7FC
330
8
100
AcDbDictionary
280
     1
281
     1
  3
ACAD_XREC_ROUNDTRIP
360
7FD
  0
DICTIONARY
  5
7FA
330
88
100
AcDbDictionary
280
     1
281
     1
  3
ACAD_MTEXT_RT
360
7FB
  0
DICTIONARY
  5
269
102
{ACAD_REACTORS
330
C
102
}
330
C
100
AcDbDictionary
281
     1
  0
DICTIONARY
  5
D
102
{ACAD_REACTORS
330
C
102
}
330
C
100
AcDbDictionary
281
     1
  0
RASTERVARIABLES
  5
25C
102
{ACAD_REACTORS
330
C
102
}
330
C
100
AcDbRasterVariables
 90
        0
 70
     1
 71
     1
 72
     1
  0
DICTIONARY
  5
1A
102
{ACAD_REACTORS
330
C
102
}
330
C
100
AcDbDictionary
281
     1
  3
Layout1
350
1E
  3
Model
350
22
  0
DICTIONARY
  5
43
102
{ACAD_REACTORS
330
C
102
}
330
C
100
AcDbDictionary
281
     1
  3
ByBlock
350
45
  3
ByLayer
350
44
  3
Global
350
46
  0
DICTIONARY
  5
6B
102
{ACAD_REACTORS
330
C
102
}
330
C
100
AcDbDictionary
281
     1
  3
Standard
350
6C
  0
DICTIONARY
  5
17
102
{ACAD_REACTORS
330
C
102
}
330
C
100
AcDbDictionary
281
     1
  3
Standard
350
18
  0
DICTIONARY
  5
19
102
{ACAD_REACTORS
330
C
102
}
330
C
100
AcDbDictionary
281
     1
  0
ACDBDICTIONARYWDFLT
  5
E
102
{ACAD_REACTORS
330
C
102
}
330
C
100
AcDbDictionary
281
     1
  3
Normal
350
F
100
AcDbDictionaryWithDefault
340
F
  0
DICTIONARY
  5
47
102
{ACAD_REACTORS
330
C
102
}
330
C
100
AcDbDictionary
281
     1
  3
A0
350
48
  3
A1
350
49
  3
A2
350
4A
  3
A3
350
4B
  3
A4
350
4C
  3
A5
350
4D
  3
A6
350
4E
  3
A7
350
4F
  3
A8
350
50
  3
A9
350
51
  3
B0
350
52
  3
B1
350
53
  3
B2
350
54
  3
B3
350
55
  3
B4
350
56
  3
B5
350
57
  3
B6
350
58
  3
B7
350
59
  3
B8
350
5A
  3
B9
350
5B
  3
C0
350
5C
  3
C1
350
5D
  3
C2
350
5E
  3
C3
350
5F
  3
C4
350
60
  3
C5
350
61
  3
C6
350
62
  3
C7
350
63
  3
C8
350
64
  3
C9
350
65
  3
D0
350
66
  3
D1
350
67
  3
D2
350
68
  0
DICTIONARY
  5
69
102
{ACAD_REACTORS
330
C
102
}
330
C
100
AcDbDictionary
281
     1
  3
Standard
350
6A
  0
DICTIONARY
  5
2A
102
{ACAD_REACTORS
330
C
102
}
330
C
100
AcDbDictionary
281
     1
  3
2dWireframe
350
2F
  3
Basic
350
32
  3
Brighten
350
36
  3
ColorChange
350
3A
  3
Conceptual
350
34
  3
Dim
350
35
  3
EdgeColorOff
350
3D
  3
Facepattern
350
39
  3
Flat
350
2B
  3
FlatWithEdges
350
2C
  3
Gouraud
350
2D
  3
GouraudWithEdges
350
2E
  3
Hidden
350
31
  3
JitterOff
350
3B
  3
Linepattern
350
38
  3
OverhangOff
350
3C
  3
Realistic
350
33
  3
Shaded
350
42
  3
Shaded with edges
350
41
  3
Shades of Gray
350
3E
  3
Sketchy
350
3F
  3
Thicken
350
37
  3
Wireframe
350
30
  3
X-Ray
350
40
  0
XRECORD
  5
837
102
{ACAD_REACTORS
330
C
102
}
330
C
100
AcDbXrecord
280
     1
 90
        1
330
88
  0
DICTIONARY
  5
7F6
102
{ACAD_REACTORS
330
C
102
}
330
C
100
AcDbDictionary
281
     1
  3
COLORDICT
350
7F7
  3
MATERIALDICT
350
7F8
  0
DICTIONARY
  5
21E
102
{ACAD_REACTORS
330
C
102
}
330
C
100
AcDbDictionary
281
     1
  3
CANNOSCALE
350
21F
  3
CMLEADERSTYLE
350
258
  3
CTABLESTYLE
350
257
  3
DIMASSOC
350
7F4
  3
HIDETEXT
350
7F5
  3
MSLTSCALE
350
7FE
  3
PSOLHEIGHT
350
7F3
  3
PSOLWIDTH
350
7F2
  3
XCLIPFRAME
350
220
  0
DICTIONARY
  5
25B
102
{ACAD_REACTORS
330
C
102
}
330
C
100
AcDbDictionary
281
     1
  0
XRECORD
  5
7F9
102
{ACAD_REACTORS
330
C
102
}
330
C
100
AcDbXrecord
280
     1
  1
DWGPROPS COOKIE
  2

  3

  4

  6

  7

  8
acae2
  9

300
=
301
=
302
=
303
=
304
=
305
=
306
=
307
=
308
=
309
=
 40
0.0
 41
2457445.522595231
 42
2460396.578183206
  1

 90
        0
  0
XRECORD
  5
7FD
102
{ACAD_REACTORS
330
7FC
102
}
330
7FC
100
AcDbXrecord
280
     1
102
VTR_0.000_0.000_1.000_1.000_VISUALSTYLE
340
2F
102
VTR_0.000_0.000_1.000_1.000_GRIDDISPLAY
 70
     3
102
VTR_0.000_0.000_1.000_1.000_GRIDMAJOR
 70
     5
102
VTR_0.000_0.000_1.000_1.000_DEFAULTLIGHTING
280
     1
102
VTR_0.000_0.000_1.000_1.000_DEFAULTLIGHTINGTYPE
 70
     1
102
VTR_0.000_0.000_1.000_1.000_BRIGHTNESS
141
0.0
102
VTR_0.000_0.000_1.000_1.000_CONTRAST
142
0.0
  0
XRECORD
  5
7FB
102
{ACAD_REACTORS
330
7FA
102
}
330
7FA
100
AcDbXrecord
280
     1
 40
129122.0
  1
{\fCircular Std Bold|b1||i0||c0|p34;\C7;\H6.;\W1.;\pxsa0.8;BENITO\P}{\fCircular Std Bold|b1||i0||c0|p34;\C7;\H6.;\W1.;\pxse0.8333333333;–Light\P}
  0
LAYOUT
  5
1E
102
{ACAD_REACTORS
330
1A
102
}
330
1A
100
AcDbPlotSettings
  1

  2
none_device
  4

  6

 40
0.0
 41
0.0
 42
0.0
 43
0.0
 44
0.0
 45
0.0
 46
0.0
 47
0.0
 48
0.0
 49
0.0
140
0.0
141
0.0
142
1.0
143
1.0
 70
   688
 72
     1
 73
     0
 74
     5
  7

 75
    16
147
1.0
148
0.0
149
0.0
100
AcDbLayout
  1
Layout1
 70
     1
 71
     1
 10
0.0
 20
0.0
 11
210.0
 21
297.0
 12
0.0
 22
0.0
 32
0.0
 14
0.0
 24
0.0
 34
0.0
 15
210.0
 25
297.0
 35
0.0
146
0.0
 13
0.0
 23
0.0
 33
0.0
 16
1.0
 26
0.0
 36
0.0
 17
0.0
 27
1.0
 37
0.0
 76
     0
330
1B
  0
LAYOUT
  5
22
102
{ACAD_REACTORS
330
1A
102
}
330
1A
100
AcDbPlotSettings
  1

  2
none_device
  4
Letter_(8.50_x_11.00_Inches)
  6

 40
6.35
 41
6.35
 42
6.35000508
 43
6.35000508
 44
215.9
 45
279.4
 46
0.0
 47
0.0
 48
0.0
 49
0.0
140
0.0
141
0.0
142
1.0
143
1.0
 70
  1712
 72
     1
 73
     0
 74
     0
  7

 75
     0
147
1.0
148
0.0
149
0.0
100
AcDbLayout
  1
Model
 70
     1
 71
     0
 10
0.0
 20
0.0
 11
210.0
 21
297.0
 12
0.0
 22
0.0
 32
0.0
 14
-1.636266439559563
 24
-0.7525336596197576
 34
0.0
 15
208.3637335604405
 25
296.2474663403803
 35
0.0
146
0.0
 13
0.0
 23
0.0
 33
0.0
 16
1.0
 26
0.0
 36
0.0
 17
0.0
 27
1.0
 37
0.0
 76
     0
330
1F
331
29
  0
MATERIAL
  5
45
102
{ACAD_REACTORS
330
43
102
}
102
{ACAD_XDICTIONARY
360
831
102
}
330
43
100
AcDbMaterial
  1
ByBlock
  0
MATERIAL
  5
44
102
{ACAD_REACTORS
330
43
102
}
102
{ACAD_XDICTIONARY
360
82F
102
}
330
43
100
AcDbMaterial
  1
ByLayer
  0
MATERIAL
  5
46
102
{ACAD_REACTORS
330
43
102
}
102
{ACAD_XDICTIONARY
360
833
102
}
330
43
100
AcDbMaterial
  1
Global
  0
MLEADERSTYLE
  5
6C
102
{ACAD_REACTORS
330
6B
102
}
102
{ACAD_XDICTIONARY
360
835
102
}
330
6B
100
AcDbMLeaderStyle
170
     2
171
     1
172
     0
 90
        2
 40
0.0
 41
0.0
173
     1
 91
-1056964608
340
14
 92
       -2
290
     1
 42
2.0
291
     1
 43
8.0
  3
Standard
341
0
 44
4.0
300

342
11
174
     1
178
     6
175
     1
176
     0
 93
-1056964608
 45
4.0
292
     0
297
     0
 46
4.0
343
0
 94
-1056964608
 47
1.0
 49
1.0
140
1.0
293
     1
141
0.0
294
     1
177
     0
142
1.0
295
     0
296
     0
143
3.75
1001
ACAD_MLEADERVER
1070
     2
  0
MLINESTYLE
  5
18
102
{ACAD_REACTORS
330
17
102
}
330
17
100
AcDbMlineStyle
  2
Standard
 70
     0
  3

 62
   256
 51
90.0
 52
90.0
 71
     2
 49
0.5
 62
   256
  6
BYLAYER
 49
-0.5
 62
   256
  6
BYLAYER
  0
ACDBPLACEHOLDER
  5
F
102
{ACAD_REACTORS
330
E
102
}
330
E
  0
SCALE
  5
48
102
{ACAD_REACTORS
330
47
102
}
330
47
100
AcDbScale
 70
     0
300
1:1
140
1.0
141
1.0
290
     1
  0
SCALE
  5
49
102
{ACAD_REACTORS
330
47
102
}
330
47
100
AcDbScale
 70
     0
300
1:2
140
1.0
141
2.0
290
     0
  0
SCALE
  5
4A
102
{ACAD_REACTORS
330
47
102
}
330
47
100
AcDbScale
 70
     0
300
1:4
140
1.0
141
4.0
290
     0
  0
SCALE
  5
4B
102
{ACAD_REACTORS
330
47
102
}
330
47
100
AcDbScale
 70
     0
300
1:5
140
1.0
141
5.0
290
     0
  0
SCALE
  5
4C
102
{ACAD_REACTORS
330
47
102
}
330
47
100
AcDbScale
 70
     0
300
1:8
140
1.0
141
8.0
290
     0
  0
SCALE
  5
4D
102
{ACAD_REACTORS
330
47
102
}
330
47
100
AcDbScale
 70
     0
300
1:10
140
1.0
141
10.0
290
     0
  0
SCALE
  5
4E
102
{ACAD_REACTORS
330
47
102
}
330
47
100
AcDbScale
 70
     0
300
1:16
140
1.0
141
16.0
290
     0
  0
SCALE
  5
4F
102
{ACAD_REACTORS
330
47
102
}
330
47
100
AcDbScale
 70
     0
300
1:20
140
1.0
141
20.0
290
     0
  0
SCALE
  5
50
102
{ACAD_REACTORS
330
47
102
}
330
47
100
AcDbScale
 70
     0
300
1:30
140
1.0
141
30.0
290
     0
  0
SCALE
  5
51
102
{ACAD_REACTORS
330
47
102
}
330
47
100
AcDbScale
 70
     0
300
1:40
140
1.0
141
40.0
290
     0
  0
SCALE
  5
52
102
{ACAD_REACTORS
330
47
102
}
330
47
100
AcDbScale
 70
     0
300
1:50
140
1.0
141
50.0
290
     0
  0
SCALE
  5
53
102
{ACAD_REACTORS
330
47
102
}
330
47
100
AcDbScale
 70
     0
300
1:100
140
1.0
141
100.0
290
     0
  0
SCALE
  5
54
102
{ACAD_REACTORS
330
47
102
}
330
47
100
AcDbScale
 70
     0
300
2:1
140
2.0
141
1.0
290
     0
  0
SCALE
  5
55
102
{ACAD_REACTORS
330
47
102
}
330
47
100
AcDbScale
 70
     0
300
4:1
140
4.0
141
1.0
290
     0
  0
SCALE
  5
56
102
{ACAD_REACTORS
330
47
102
}
330
47
100
AcDbScale
 70
     0
300
8:1
140
8.0
141
1.0
290
     0
  0
SCALE
  5
57
102
{ACAD_REACTORS
330
47
102
}
330
47
100
AcDbScale
 70
     0
300
10:1
140
10.0
141
1.0
290
     0
  0
SCALE
  5
58
102
{ACAD_REACTORS
330
47
102
}
330
47
100
AcDbScale
 70
     0
300
100:1
140
100.0
141
1.0
290
     0
  0
SCALE
  5
59
102
{ACAD_REACTORS
330
47
102
}
330
47
100
AcDbScale
 70
     0
300
1/128" = 1'-0"
140
0.0078125
141
12.0
290
     0
  0
SCALE
  5
5A
102
{ACAD_REACTORS
330
47
102
}
330
47
100
AcDbScale
 70
     0
300
1/64" = 1'-0"
140
0.015625
141
12.0
290
     0
  0
SCALE
  5
5B
102
{ACAD_REACTORS
330
47
102
}
330
47
100
AcDbScale
 70
     0
300
1/32" = 1'-0"
140
0.03125
141
12.0
290
     0
  0
SCALE
  5
5C
102
{ACAD_REACTORS
330
47
102
}
330
47
100
AcDbScale
 70
     0
300
1/16" = 1'-0"
140
0.0625
141
12.0
290
     0
  0
SCALE
  5
5D
102
{ACAD_REACTORS
330
47
102
}
330
47
100
AcDbScale
 70
     0
300
3/32" = 1'-0"
140
0.09375
141
12.0
290
     0
  0
SCALE
  5
5E
102
{ACAD_REACTORS
330
47
102
}
330
47
100
AcDbScale
 70
     0
300
1/8" = 1'-0"
140
0.125
141
12.0
290
     0
  0
SCALE
  5
5F
102
{ACAD_REACTORS
330
47
102
}
330
47
100
AcDbScale
 70
     0
300
3/16" = 1'-0"
140
0.1875
141
12.0
290
     0
  0
SCALE
  5
60
102
{ACAD_REACTORS
330
47
102
}
330
47
100
AcDbScale
 70
     0
300
1/4" = 1'-0"
140
0.25
141
12.0
290
     0
  0
SCALE
  5
61
102
{ACAD_REACTORS
330
47
102
}
330
47
100
AcDbScale
 70
     0
300
3/8" = 1'-0"
140
0.375
141
12.0
290
     0
  0
SCALE
  5
62
102
{ACAD_REACTORS
330
47
102
}
330
47
100
AcDbScale
 70
     0
300
1/2" = 1'-0"
140
0.5
141
12.0
290
     0
  0
SCALE
  5
63
102
{ACAD_REACTORS
330
47
102
}
330
47
100
AcDbScale
 70
     0
300
3/4" = 1'-0"
140
0.75
141
12.0
290
     0
  0
SCALE
  5
64
102
{ACAD_REACTORS
330
47
102
}
330
47
100
AcDbScale
 70
     0
300
1" = 1'-0"
140
1.0
141
12.0
290
     0
  0
SCALE
  5
65
102
{ACAD_REACTORS
330
47
102
}
330
47
100
AcDbScale
 70
     0
300
1-1/2" = 1'-0"
140
1.5
141
12.0
290
     0
  0
SCALE
  5
66
102
{ACAD_REACTORS
330
47
102
}
330
47
100
AcDbScale
 70
     0
300
3" = 1'-0"
140
3.0
141
12.0
290
     0
  0
SCALE
  5
67
102
{ACAD_REACTORS
330
47
102
}
330
47
100
AcDbScale
 70
     0
300
6" = 1'-0"
140
6.0
141
12.0
290
     0
  0
SCALE
  5
68
102
{ACAD_REACTORS
330
47
102
}
330
47
100
AcDbScale
 70
     0
300
1'-0" = 1'-0"
140
12.0
141
12.0
290
     0
  0
TABLESTYLE
  5
6A
102
{ACAD_REACTORS
330
69
102
}
330
69
100
AcDbTableStyle
  3
Standard
 70
     0
 71
     0
 40
1.5
 41
1.5
280
     0
281
     0
  7
Standard
140
4.5
170
     2
 62
     0
 63
   257
283
     0
274
    -2
284
     1
 64
     0
275
    -2
285
     1
 65
     0
276
    -2
286
     1
 66
     0
277
    -2
287
     1
 67
     0
278
    -2
288
     1
 68
     0
279
    -2
289
     1
 69
     0
  7
Standard
140
6.0
170
     5
 62
     0
 63
   257
283
     0
274
    -2
284
     1
 64
     0
275
    -2
285
     1
 65
     0
276
    -2
286
     1
 66
     0
277
    -2
287
     1
 67
     0
278
    -2
288
     1
 68
     0
279
    -2
289
     1
 69
     0
  7
Standard
140
4.5
170
     5
 62
     0
 63
   257
283
     0
274
    -2
284
     1
 64
     0
275
    -2
285
     1
 65
     0
276
    -2
286
     1
 66
     0
277
    -2
287
     1
 67
     0
278
    -2
288
     1
 68
     0
279
    -2
289
     1
 69
     0
  0
VISUALSTYLE
  5
2F
102
{ACAD_REACTORS
330
2A
102
}
102
{ACAD_XDICTIONARY
360
807
102
}
330
2A
100
AcDbVisualStyle
  2
2dWireframe
 70
     4
 71
     0
 72
     2
 73
     0
 90
        0
 40
0.6
 41
30.0
 62
     5
 63
     7
 74
     1
 91
        4
 64
     7
 65
   257
 75
     1
175
     1
 42
1.0
 92
        0
 66
   257
 43
1.0
 76
     1
 77
     6
 78
     2
 67
     7
 79
     5
170
     0
171
     0
290
     0
174
     0
 93
        1
 44
0.0
173
     0
291
     0
 45
0.0
1001
ACAD
1000
AcDbSavedByObjectVersion
1070
     0
  0
VISUALSTYLE
  5
32
102
{ACAD_REACTORS
330
2A
102
}
102
{ACAD_XDICTIONARY
360
80D
102
}
330
2A
100
AcDbVisualStyle
  2
Basic
 70
     7
 71
     1
 72
     0
 73
     1
 90
        0
 40
0.6
 41
30.0
 62
     5
 63
     7
 74
     0
 91
        4
 64
     7
 65
   257
 75
     1
175
     1
 42
1.0
 92
        8
 66
     7
 43
1.0
 76
     1
 77
     6
 78
     2
 67
     7
 79
     5
170
     0
171
     0
290
     0
174
     0
 93
        1
 44
0.0
173
     0
291
     1
 45
0.0
1001
ACAD
1000
AcDbSavedByObjectVersion
1070
     0
  0
VISUALSTYLE
  5
36
102
{ACAD_REACTORS
330
2A
102
}
102
{ACAD_XDICTIONARY
360
815
102
}
330
2A
100
AcDbVisualStyle
  2
Brighten
 70
    12
 71
     2
 72
     2
 73
     0
 90
        0
 40
0.6
 41
30.0
 62
     5
 63
     7
 74
     1
 91
        4
 64
     7
 65
   257
 75
     1
175
     1
 42
1.0
 92
        8
 66
     7
 43
1.0
 76
     1
 77
     6
 78
     2
 67
     7
 79
     5
170
     0
171
     0
290
     0
174
     0
 93
        1
 44
50.0
173
     0
291
     1
 45
0.0
1001
ACAD
1000
AcDbSavedByObjectVersion
1070
     0
  0
VISUALSTYLE
  5
3A
102
{ACAD_REACTORS
330
2A
102
}
102
{ACAD_XDICTIONARY
360
81D
102
}
330
2A
100
AcDbVisualStyle
  2
ColorChange
 70
    16
 71
     2
 72
     2
 73
     3
 90
        0
 40
0.6
 41
30.0
 62
     5
 63
     8
 74
     1
 91
        4
 64
     7
 65
   257
 75
     1
175
     1
 42
1.0
 92
        8
 66
     8
 43
1.0
 76
     1
 77
     6
 78
     2
 67
     7
 79
     5
170
     0
171
     0
290
     0
174
     0
 93
        1
 44
0.0
173
     0
291
     1
 45
0.0
1001
ACAD
1000
AcDbSavedByObjectVersion
1070
     0
  0
VISUALSTYLE
  5
34
102
{ACAD_REACTORS
330
2A
102
}
102
{ACAD_XDICTIONARY
360
811
102
}
330
2A
100
AcDbVisualStyle
  2
Conceptual
 70
     9
 71
     3
 72
     2
 73
     0
 90
        0
 40
0.6
 41
30.0
 62
     5
 63
     7
 74
     2
 91
        2
 64
     7
 65
   257
 75
     1
175
     1
 42
179.0
 92
        8
 66
     7
 43
1.0
 76
     1
 77
     6
 78
     2
 67
     7
 79
     3
170
     0
171
     0
290
     0
174
     0
 93
        1
 44
0.0
173
     0
291
     0
 45
0.0
1001
ACAD
1000
AcDbSavedByObjectVersion
1070
     0
  0
VISUALSTYLE
  5
35
102
{ACAD_REACTORS
330
2A
102
}
102
{ACAD_XDICTIONARY
360
813
102
}
330
2A
100
AcDbVisualStyle
  2
Dim
 70
    11
 71
     2
 72
     2
 73
     0
 90
        0
 40
0.6
 41
30.0
 62
     5
 63
     7
 74
     1
 91
        4
 64
     7
 65
   257
 75
     1
175
     1
 42
1.0
 92
        8
 66
     7
 43
1.0
 76
     1
 77
     6
 78
     2
 67
     7
 79
     5
170
     0
171
     0
290
     0
174
     0
 93
        1
 44
-50.0
173
     0
291
     1
 45
0.0
1001
ACAD
1000
AcDbSavedByObjectVersion
1070
     0
  0
VISUALSTYLE
  5
3D
102
{ACAD_REACTORS
330
2A
102
}
102
{ACAD_XDICTIONARY
360
823
102
}
330
2A
100
AcDbVisualStyle
  2
EdgeColorOff
 70
    22
 71
     2
 72
     2
 73
     0
 90
        0
 40
0.6
 41
30.0
 62
     5
 63
     7
 74
     1
 91
        4
 64
     7
 65
   257
 75
     1
175
     1
 42
1.0
 92
        8
 66
     7
 43
1.0
 76
     1
 77
     6
 78
     2
 67
     7
 79
     5
170
     0
171
     0
290
     0
174
     0
 93
        1
 44
0.0
173
     0
291
     1
 45
0.0
1001
ACAD
1000
AcDbSavedByObjectVersion
1070
     0
  0
VISUALSTYLE
  5
39
102
{ACAD_REACTORS
330
2A
102
}
102
{ACAD_XDICTIONARY
360
81B
102
}
330
2A
100
AcDbVisualStyle
  2
Facepattern
 70
    15
 71
     2
 72
     2
 73
     0
 90
        0
 40
0.6
 41
30.0
 62
     5
 63
     7
 74
     1
 91
        4
 64
     7
 65
   257
 75
     1
175
     1
 42
1.0
 92
        8
 66
     7
 43
1.0
 76
     1
 77
     6
 78
     2
 67
     7
 79
     5
170
     0
171
     0
290
     0
174
     0
 93
        1
 44
0.0
173
     0
291
     1
 45
0.0
1001
ACAD
1000
AcDbSavedByObjectVersion
1070
     0
  0
VISUALSTYLE
  5
2B
102
{ACAD_REACTORS
330
2A
102
}
102
{ACAD_XDICTIONARY
360
7FF
102
}
330
2A
100
AcDbVisualStyle
  2
Flat
 70
     0
 71
     2
 72
     1
 73
     1
 90
        2
 40
0.6
 41
30.0
 62
     5
 63
     7
 74
     0
 91
        0
 64
     7
 65
   257
 75
     1
175
     1
 42
1.0
 92
        8
 66
     7
 43
1.0
 76
     1
 77
     6
 78
     2
 67
     7
 79
     5
170
     0
171
     0
290
     0
174
     0
 93
       13
 44
0.0
173
     0
291
     1
 45
0.0
1001
ACAD
1000
AcDbSavedByObjectVersion
1070
     0
  0
VISUALSTYLE
  5
2C
102
{ACAD_REACTORS
330
2A
102
}
102
{ACAD_XDICTIONARY
360
801
102
}
330
2A
100
AcDbVisualStyle
  2
FlatWithEdges
 70
     1
 71
     2
 72
     1
 73
     1
 90
        2
 40
0.6
 41
30.0
 62
     5
 63
     7
 74
     1
 91
        0
 64
     7
 65
   257
 75
     1
175
     1
 42
1.0
 92
        0
 66
   257
 43
1.0
 76
     1
 77
     6
 78
     2
 67
     7
 79
     5
170
     0
171
     0
290
     0
174
     0
 93
       13
 44
0.0
173
     0
291
     1
 45
0.0
1001
ACAD
1000
AcDbSavedByObjectVersion
1070
     0
  0
VISUALSTYLE
  5
2D
102
{ACAD_REACTORS
330
2A
102
}
102
{ACAD_XDICTIONARY
360
803
102
}
330
2A
100
AcDbVisualStyle
  2
Gouraud
 70
     2
 71
     2
 72
     2
 73
     1
 90
        2
 40
0.6
 41
30.0
 62
     5
 63
     7
 74
     0
 91
        0
 64
     7
 65
   257
 75
     1
175
     1
 42
1.0
 92
        0
 66
     7
 43
1.0
 76
     1
 77
     6
 78
     2
 67
     7
 79
     5
170
     0
171
     0
290
     0
174
     0
 93
       13
 44
0.0
173
     0
291
     1
 45
0.0
1001
ACAD
1000
AcDbSavedByObjectVersion
1070
     0
  0
VISUALSTYLE
  5
2E
102
{ACAD_REACTORS
330
2A
102
}
102
{ACAD_XDICTIONARY
360
805
102
}
330
2A
100
AcDbVisualStyle
  2
GouraudWithEdges
 70
     3
 71
     2
 72
     2
 73
     1
 90
        2
 40
0.6
 41
30.0
 62
     5
 63
     7
 74
     1
 91
        0
 64
     7
 65
   257
 75
     1
175
     1
 42
1.0
 92
        0
 66
   257
 43
1.0
 76
     1
 77
     6
 78
     2
 67
     7
 79
     5
170
     0
171
     0
290
     0
174
     0
 93
       13
 44
0.0
173
     0
291
     1
 45
0.0
1001
ACAD
1000
AcDbSavedByObjectVersion
1070
     0
  0
VISUALSTYLE
  5
31
102
{ACAD_REACTORS
330
2A
102
}
102
{ACAD_XDICTIONARY
360
80B
102
}
330
2A
100
AcDbVisualStyle
  2
Hidden
 70
     6
 71
     1
 72
     2
 73
     2
 90
        0
 40
0.6
 41
30.0
 62
     5
 63
     7
 74
     2
 91
        2
 64
     7
 65
   257
 75
     2
175
     1
 42
40.0
 92
        0
 66
   257
 43
1.0
 76
     1
 77
     6
 78
     2
 67
     7
 79
     3
170
     0
171
     0
290
     0
174
     0
 93
        1
 44
0.0
173
     0
291
     0
 45
0.0
1001
ACAD
1000
AcDbSavedByObjectVersion
1070
     0
  0
VISUALSTYLE
  5
3B
102
{ACAD_REACTORS
330
2A
102
}
102
{ACAD_XDICTIONARY
360
81F
102
}
330
2A
100
AcDbVisualStyle
  2
JitterOff
 70
    20
 71
     2
 72
     2
 73
     0
 90
        0
 40
0.6
 41
30.0
 62
     5
 63
     7
 74
     1
 91
        4
 64
     7
 65
   257
 75
     1
175
     1
 42
1.0
 92
       10
 66
     7
 43
1.0
 76
     1
 77
     6
 78
     2
 67
     7
 79
     5
170
     0
171
     0
290
     0
174
     0
 93
        1
 44
0.0
173
     0
291
     1
 45
0.0
1001
ACAD
1000
AcDbSavedByObjectVersion
1070
     0
  0
VISUALSTYLE
  5
38
102
{ACAD_REACTORS
330
2A
102
}
102
{ACAD_XDICTIONARY
360
819
102
}
330
2A
100
AcDbVisualStyle
  2
Linepattern
 70
    14
 71
     2
 72
     2
 73
     0
 90
        0
 40
0.6
 41
30.0
 62
     5
 63
     7
 74
     1
 91
        4
 64
     7
 65
   257
 75
     7
175
     7
 42
1.0
 92
        8
 66
     7
 43
1.0
 76
     1
 77
     6
 78
     2
 67
     7
 79
     5
170
     0
171
     0
290
     0
174
     0
 93
        1
 44
0.0
173
     0
291
     1
 45
0.0
1001
ACAD
1000
AcDbSavedByObjectVersion
1070
     0
  0
VISUALSTYLE
  5
3C
102
{ACAD_REACTORS
330
2A
102
}
102
{ACAD_XDICTIONARY
360
821
102
}
330
2A
100
AcDbVisualStyle
  2
OverhangOff
 70
    21
 71
     2
 72
     2
 73
     0
 90
        0
 40
0.6
 41
30.0
 62
     5
 63
     7
 74
     1
 91
        4
 64
     7
 65
   257
 75
     1
175
     1
 42
1.0
 92
        9
 66
     7
 43
1.0
 76
     1
 77
     6
 78
     2
 67
     7
 79
     5
170
     0
171
     0
290
     0
174
     0
 93
        1
 44
0.0
173
     0
291
     1
 45
0.0
1001
ACAD
1000
AcDbSavedByObjectVersion
1070
     0
  0
VISUALSTYLE
  5
33
102
{ACAD_REACTORS
330
2A
102
}
102
{ACAD_XDICTIONARY
360
80F
102
}
330
2A
100
AcDbVisualStyle
  2
Realistic
 70
     8
 71
     2
 72
     3
 73
     0
 90
        2
 40
0.6
 41
30.0
 62
     5
 63
     7
 74
     0
 91
        0
 64
     7
 65
   257
 75
     1
175
     1
 42
1.0
 92
        8
 66
   257
 43
1.0
 76
     1
 77
     6
 78
     2
 67
     7
 79
     3
170
     0
171
     0
290
     0
174
     0
 93
       13
 44
0.0
173
     0
291
     0
 45
0.0
1001
ACAD
1000
AcDbSavedByObjectVersion
1070
     0
  0
VISUALSTYLE
  5
42
102
{ACAD_REACTORS
330
2A
102
}
102
{ACAD_XDICTIONARY
360
82D
102
}
330
2A
100
AcDbVisualStyle
  2
Shaded
 70
    27
 71
     2
 72
     2
 73
     1
 90
        2
 40
0.6
 41
30.0
 62
     5
 63
     7
 74
     0
 91
        4
 64
     7
 65
   257
 75
     1
175
     1
 42
1.0
 92
        8
 66
   257
 43
1.0
 76
     1
 77
     6
 78
     2
 67
     8
 79
     3
170
     0
171
     0
290
     0
174
     0
 93
        5
 44
0.0
173
     0
291
     0
 45
0.0
1001
ACAD
1000
AcDbSavedByObjectVersion
1070
     0
  0
VISUALSTYLE
  5
41
102
{ACAD_REACTORS
330
2A
102
}
102
{ACAD_XDICTIONARY
360
82B
102
}
330
2A
100
AcDbVisualStyle
  2
Shaded with edges
 70
    26
 71
     2
 72
     2
 73
     1
 90
        2
 40
0.6
 41
30.0
 62
     5
 63
     7
 74
     1
 91
       10
 64
     7
 65
   257
 75
     2
175
     1
 42
1.0
 92
        8
 66
   257
 43
1.0
 76
     1
 77
     6
 78
     2
 67
     7
 79
     3
170
     0
171
     0
290
     0
174
     0
 93
        5
 44
0.0
173
     0
291
     0
 45
0.0
1001
ACAD
1000
AcDbSavedByObjectVersion
1070
     0
  0
VISUALSTYLE
  5
3E
102
{ACAD_REACTORS
330
2A
102
}
102
{ACAD_XDICTIONARY
360
825
102
}
330
2A
100
AcDbVisualStyle
  2
Shades of Gray
 70
    23
 71
     2
 72
     2
 73
     3
 90
        0
 40
0.6
 41
30.0
 62
     5
 63
     7
 74
     2
 91
        2
 64
     7
 65
     7
 75
     1
175
     1
 42
40.0
 92
        8
 66
     7
 43
1.0
 76
     1
 77
     6
 78
     2
 67
     7
 79
     3
170
     0
171
     0
290
     0
174
     0
 93
        1
 44
0.0
173
     0
291
     0
 45
0.0
1001
ACAD
1000
AcDbSavedByObjectVersion
1070
     0
  0
VISUALSTYLE
  5
3F
102
{ACAD_REACTORS
330
2A
102
}
102
{ACAD_XDICTIONARY
360
827
102
}
330
2A
100
AcDbVisualStyle
  2
Sketchy
 70
    24
 71
     1
 72
     2
 73
     2
 90
        0
 40
0.6
 41
30.0
 62
     5
 63
     7
 74
     2
 91
        2
 64
     7
 65
     7
 75
     1
175
     1
 42
40.0
 92
       11
 66
     7
 43
1.0
 76
     1
 77
     6
 78
     2
 67
     7
 79
     6
170
     0
171
     0
290
     0
174
     0
 93
        1
 44
0.0
173
     0
291
     0
 45
0.0
1001
ACAD
1000
AcDbSavedByObjectVersion
1070
     0
  0
VISUALSTYLE
  5
37
102
{ACAD_REACTORS
330
2A
102
}
102
{ACAD_XDICTIONARY
360
817
102
}
330
2A
100
AcDbVisualStyle
  2
Thicken
 70
    13
 71
     2
 72
     2
 73
     0
 90
        0
 40
0.6
 41
30.0
 62
     5
 63
     7
 74
     1
 91
        4
 64
     7
 65
   257
 75
     1
175
     1
 42
1.0
 92
       12
 66
     7
 43
1.0
 76
     1
 77
     6
 78
     2
 67
     7
 79
     5
170
     0
171
     0
290
     0
174
     0
 93
        1
 44
0.0
173
     0
291
     1
 45
0.0
1001
ACAD
1000
AcDbSavedByObjectVersion
1070
     0
  0
VISUALSTYLE
  5
30
102
{ACAD_REACTORS
330
2A
102
}
102
{ACAD_XDICTIONARY
360
809
102
}
330
2A
100
AcDbVisualStyle
  2
Wireframe
 70
     5
 71
     0
 72
     2
 73
     0
 90
        0
 40
0.6
 41
30.0
 62
     5
 63
     7
 74
     1
 91
        4
 64
     7
 65
   257
 75
     1
175
     1
 42
1.0
 92
        0
 66
   257
 43
1.0
 76
     1
 77
     6
 78
     2
 67
     7
 79
     3
170
     0
171
     0
290
     0
174
     0
 93
        1
 44
0.0
173
     0
291
     0
 45
0.0
1001
ACAD
1000
AcDbSavedByObjectVersion
1070
     0
  0
VISUALSTYLE
  5
40
102
{ACAD_REACTORS
330
2A
102
}
102
{ACAD_XDICTIONARY
360
829
102
}
330
2A
100
AcDbVisualStyle
  2
X-Ray
 70
    25
 71
     2
 72
     2
 73
     1
 90
        1
 40
0.5
 41
30.0
 62
     5
 63
     7
 74
     1
 91
        0
 64
     7
 65
   257
 75
     1
175
     1
 42
1.0
 92
        8
 66
     7
 43
1.0
 76
     1
 77
     6
 78
     2
 67
     7
 79
     3
170
     0
171
     0
290
     0
174
     0
 93
       13
 44
0.0
173
     0
291
     0
 45
0.0
1001
ACAD
1000
AcDbSavedByObjectVersion
1070
     0
  0
XRECORD
  5
7F7
102
{ACAD_REACTORS
330
7F6
102
}
330
7F6
100
AcDbXrecord
280
     1
340
269
  0
XRECORD
  5
7F8
102
{ACAD_REACTORS
330
7F6
102
}
330
7F6
100
AcDbXrecord
280
     1
340
43
  0
DICTIONARYVAR
  5
21F
102
{ACAD_REACTORS
330
21E
102
}
330
21E
100
DictionaryVariables
280
     0
  1
1:1
  0
DICTIONARYVAR
  5
258
102
{ACAD_REACTORS
330
21E
102
}
330
21E
100
DictionaryVariables
280
     0
  1
Standard
  0
DICTIONARYVAR
  5
257
102
{ACAD_REACTORS
330
21E
102
}
330
21E
100
DictionaryVariables
280
     0
  1
Standard
  0
DICTIONARYVAR
  5
7F4
102
{ACAD_REACTORS
330
21E
102
}
330
21E
100
DictionaryVariables
280
     0
  1
2
  0
DICTIONARYVAR
  5
7F5
102
{ACAD_REACTORS
330
21E
102
}
330
21E
100
DictionaryVariables
280
     0
  1
1
  0
DICTIONARYVAR
  5
7FE
102
{ACAD_REACTORS
330
21E
102
}
330
21E
100
DictionaryVariables
280
     0
  1
1
  0
DICTIONARYVAR
  5
7F3
102
{ACAD_REACTORS
330
21E
102
}
330
21E
100
DictionaryVariables
280
     0
  1
80.000000
  0
DICTIONARYVAR
  5
7F2
102
{ACAD_REACTORS
330
21E
102
}
330
21E
100
DictionaryVariables
280
     0
  1
5.000000
  0
DICTIONARYVAR
  5
220
102
{ACAD_REACTORS
330
21E
102
}
330
21E
100
DictionaryVariables
280
     0
  1
2
  0
DICTIONARY
  5
831
330
45
100
AcDbDictionary
280
     1
281
     1
  3
ACAD_XREC_ROUNDTRIP
360
832
  0
DICTIONARY
  5
82F
330
44
100
AcDbDictionary
280
     1
281
     1
  3
ACAD_XREC_ROUNDTRIP
360
830
  0
DICTIONARY
  5
833
330
46
100
AcDbDictionary
280
     1
281
     1
  3
ACAD_XREC_ROUNDTRIP
360
834
  0
DICTIONARY
  5
835
330
6C
100
AcDbDictionary
280
     1
281
     1
  3
ACAD_XREC_ROUNDTRIP
360
836
  0
DICTIONARY
  5
807
330
2F
100
AcDbDictionary
280
     1
281
     1
  3
ACAD_XREC_ROUNDTRIP
360
808
  0
DICTIONARY
  5
80D
330
32
100
AcDbDictionary
280
     1
281
     1
  3
ACAD_XREC_ROUNDTRIP
360
80E
  0
DICTIONARY
  5
815
330
36
100
AcDbDictionary
280
     1
281
     1
  3
ACAD_XREC_ROUNDTRIP
360
816
  0
DICTIONARY
  5
81D
330
3A
100
AcDbDictionary
280
     1
281
     1
  3
ACAD_XREC_ROUNDTRIP
360
81E
  0
DICTIONARY
  5
811
330
34
100
AcDbDictionary
280
     1
281
     1
  3
ACAD_XREC_ROUNDTRIP
360
812
  0
DICTIONARY
  5
813
330
35
100
AcDbDictionary
280
     1
281
     1
  3
ACAD_XREC_ROUNDTRIP
360
814
  0
DICTIONARY
  5
823
330
3D
100
AcDbDictionary
280
     1
281
     1
  3
ACAD_XREC_ROUNDTRIP
360
824
  0
DICTIONARY
  5
81B
330
39
100
AcDbDictionary
280
     1
281
     1
  3
ACAD_XREC_ROUNDTRIP
360
81C
  0
DICTIONARY
  5
7FF
330
2B
100
AcDbDictionary
280
     1
281
     1
  3
ACAD_XREC_ROUNDTRIP
360
800
  0
DICTIONARY
  5
801
330
2C
100
AcDbDictionary
280
     1
281
     1
  3
ACAD_XREC_ROUNDTRIP
360
802
  0
DICTIONARY
  5
803
330
2D
100
AcDbDictionary
280
     1
281
     1
  3
ACAD_XREC_ROUNDTRIP
360
804
  0
DICTIONARY
  5
805
330
2E
100
AcDbDictionary
280
     1
281
     1
  3
ACAD_XREC_ROUNDTRIP
360
806
  0
DICTIONARY
  5
80B
330
31
100
AcDbDictionary
280
     1
281
     1
  3
ACAD_XREC_ROUNDTRIP
360
80C
  0
DICTIONARY
  5
81F
330
3B
100
AcDbDictionary
280
     1
281
     1
  3
ACAD_XREC_ROUNDTRIP
360
820
  0
DICTIONARY
  5
819
330
38
100
AcDbDictionary
280
     1
281
     1
  3
ACAD_XREC_ROUNDTRIP
360
81A
  0
DICTIONARY
  5
821
330
3C
100
AcDbDictionary
280
     1
281
     1
  3
ACAD_XREC_ROUNDTRIP
360
822
  0
DICTIONARY
  5
80F
330
33
100
AcDbDictionary
280
     1
281
     1
  3
ACAD_XREC_ROUNDTRIP
360
810
  0
DICTIONARY
  5
82D
330
42
100
AcDbDictionary
280
     1
281
     1
  3
ACAD_XREC_ROUNDTRIP
360
82E
  0
DICTIONARY
  5
82B
330
41
100
AcDbDictionary
280
     1
281
     1
  3
ACAD_XREC_ROUNDTRIP
360
82C
  0
DICTIONARY
  5
825
330
3E
100
AcDbDictionary
280
     1
281
     1
  3
ACAD_XREC_ROUNDTRIP
360
826
  0
DICTIONARY
  5
827
330
3F
100
AcDbDictionary
280
     1
281
     1
  3
ACAD_XREC_ROUNDTRIP
360
828
  0
DICTIONARY
  5
817
330
37
100
AcDbDictionary
280
     1
281
     1
  3
ACAD_XREC_ROUNDTRIP
360
818
  0
DICTIONARY
  5
809
330
30
100
AcDbDictionary
280
     1
281
     1
  3
ACAD_XREC_ROUNDTRIP
360
80A
  0
DICTIONARY
  5
829
330
40
100
AcDbDictionary
280
     1
281
     1
  3
ACAD_XREC_ROUNDTRIP
360
82A
  0
XRECORD
  5
832
102
{ACAD_REACTORS
330
831
102
}
330
831
100
AcDbXrecord
280
     1
102
MATERIAL
148
0.0
149
0.0
149
0.0
 93
        0
 94
      127
282
     0
 72
     1
 77
     1
171
     1
175
     1
179
     1
273
     0
  0
XRECORD
  5
830
102
{ACAD_REACTORS
330
82F
102
}
330
82F
100
AcDbXrecord
280
     1
102
MATERIAL
148
0.0
149
0.0
149
0.0
 93
        0
 94
      127
282
     0
 72
     1
 77
     1
171
     1
175
     1
179
     1
273
     0
  0
XRECORD
  5
834
102
{ACAD_REACTORS
330
833
102
}
330
833
100
AcDbXrecord
280
     1
102
MATERIAL
148
0.0
149
0.0
149
0.0
 93
        0
 94
      127
282
     0
 72
     1
 77
     1
171
     1
175
     1
179
     1
273
     0
  0
XRECORD
  5
836
102
{ACAD_REACTORS
330
835
102
}
330
835
100
AcDbXrecord
280
     1
102
ACAD_ROUNDTRIP_2010_MLEADER_STYLE
  0
XRECORD
  5
808
102
{ACAD_REACTORS
330
807
102
}
330
807
100
AcDbXrecord
280
     1
102
RTVSPropertyOp0
 70
     1
102
RTVSPropertyOp1
 70
     1
102
RTVSPropertyOp2
 70
     1
102
RTVSPropertyOp3
 70
     1
102
RTVSPropertyOp4
 70
     1
102
RTVSPropertyOp5
 70
     1
102
RTVSPropertyOp6
 70
     1
102
RTVSPropertyOp7
 70
     1
102
RTVSPropertyOp8
 70
     1
102
RTVSPropertyOp9
 70
     1
102
RTVSPropertyOp10
 70
     1
102
RTVSPropertyOp11
 70
     1
102
RTVSPropertyOp12
 70
     1
102
RTVSPropertyOp13
 70
     1
102
RTVSPropertyOp14
 70
     1
102
RTVSPropertyOp15
 70
     1
102
RTVSPropertyOp16
 70
     1
102
RTVSPropertyOp17
 70
     1
102
RTVSPropertyOp18
 70
     1
102
RTVSPropertyOp19
 70
     1
102
RTVSPropertyOp20
 70
     1
102
RTVSPropertyOp21
 70
     1
102
RTVSPropertyOp22
 70
     1
102
RTVSPropertyOp23
 70
     1
102
RTVSPropertyOp24
 70
     1
102
RTVSPropertyOp25
 70
     1
102
RTVSPropertyOp26
 70
     1
102
RTVSPropertyOp27
 70
     1
102
RTVSPropertyOp28
 70
     1
102
RTVSPropertyOp29
 70
     1
102
RTVSPropertyOp30
 70
     1
102
RTVSPropertyOp31
 70
     1
102
RTVSPropertyOp32
 70
     1
102
RTVSPropertyOp33
 70
     1
102
RTVSPropertyOp34
 70
     1
102
RTVSPropertyOp35
 70
     1
102
RTVSPropertyOp36
 70
     1
102
RTVSPropertyOp37
 70
     1
102
RTVSPropertyOp38
 70
     1
102
RTVSPropertyOp39
 70
     1
102
RTVSPropertyOp40
 70
     1
102
RTVSPropertyOp41
 70
     1
102
RTVSPropertyOp42
 70
     1
102
RTVSPropertyOp43
 70
     1
102
RTVSPropertyOp44
 70
     1
102
RTVSPropertyOp45
 70
     1
102
RTVSPropertyOp46
 70
     1
102
RTVSPropertyOp47
 70
     1
102
RTVSPropertyOp48
 70
     1
102
RTVSPropertyOp49
 70
     1
102
RTVSPropertyOp50
 70
     1
102
RTVSPropertyOp51
 70
     0
102
RTVSPropertyOp52
 70
     0
102
RTVSPropertyOp53
 70
     1
102
RTVSPropertyOp54
 70
     1
102
RTVSPropertyOp55
 70
     1
102
RTVSPropertyOp56
 70
     1
102
RTVSPropertyOp57
 70
     1
102
RTVSPost2010Prop28
280
     1
102
RTVSPost2010PropOp28
 70
     1
102
RTVSPost2010Prop29
280
     1
102
RTVSPost2010PropOp29
 70
     1
102
RTVSPost2010Prop30
280
     0
102
RTVSPost2010PropOp30
 70
     1
102
RTVSPost2010Prop31
280
     0
102
RTVSPost2010PropOp31
 70
     1
102
RTVSPost2010Prop32
280
     0
102
RTVSPost2010PropOp32
 70
     1
102
RTVSPost2010Prop33
280
     0
102
RTVSPost2010PropOp33
 70
     1
102
RTVSPost2010Prop34
280
     0
102
RTVSPost2010PropOp34
 70
     1
102
RTVSPost2010Prop35
280
     0
102
RTVSPost2010PropOp35
 70
     1
102
RTVSPost2010Prop36
280
     0
102
RTVSPost2010PropOp36
 70
     1
102
RTVSPost2010Prop37
 90
       50
102
RTVSPost2010PropOp37
 70
     1
102
RTVSPost2010Prop38
140
0.0
102
RTVSPost2010PropOp38
 70
     1
102
RTVSPost2010Prop39
140
1.0
102
RTVSPost2010PropOp39
 70
     1
102
RTVSPost2010Prop40
 90
        0
102
RTVSPost2010PropOp40
 70
     1
102
RTVSPost2010Prop41ColorIndex
 90
       18
102
RTVSPost2010Prop41ColorRGB
 90
        0
102
RTVSPost2010PropOp41
 70
     1
102
RTVSPost2010Prop42
 90
       50
102
RTVSPost2010PropOp42
 70
     1
102
RTVSPost2010Prop43
 90
        3
102
RTVSPost2010PropOp43
 70
     1
102
RTVSPost2010Prop44ColorIndex
 90
        5
102
RTVSPost2010Prop44ColorRGB
 90
      255
102
RTVSPost2010PropOp44
 70
     1
102
RTVSPost2010Prop45
280
     0
102
RTVSPost2010PropOp45
 70
     1
102
RTVSPost2010Prop46
 90
       50
102
RTVSPost2010PropOp46
 70
     1
102
RTVSPost2010Prop47
 90
       50
102
RTVSPost2010PropOp47
 70
     1
102
RTVSPost2010Prop48
 90
       50
102
RTVSPost2010PropOp48
 70
     1
102
RTVSPost2010Prop49
280
     0
102
RTVSPost2010PropOp49
 70
     1
102
RTVSPost2010Prop50
 90
       50
102
RTVSPost2010PropOp50
 70
     1
102
RTVSPost2010Prop51ColorIndex
 90
      256
102
RTVSPost2010Prop51ColorRGB
 90
-16777216
102
RTVSPost2010PropOp51
 70
     0
102
RTVSPost2010Prop52
140
1.0
102
RTVSPost2010PropOp52
 70
     0
102
RTVSPost2010Prop53
 90
        2
102
RTVSPost2010PropOp53
 70
     1
102
RTVSPost2010Prop54
  1
strokes_ogs.tif
102
RTVSPost2010PropOp54
 70
     1
102
RTVSPost2010Prop55
280
     0
102
RTVSPost2010PropOp55
 70
     1
102
RTVSPost2010Prop56
140
1.0
102
RTVSPost2010PropOp56
 70
     1
102
RTVSPost2010Prop57
140
1.0
102
RTVSPost2010PropOp57
 70
     1
  0
XRECORD
  5
80E
102
{ACAD_REACTORS
330
80D
102
}
330
80D
100
AcDbXrecord
280
     1
102
RTVSPropertyOp0
 70
     1
102
RTVSPropertyOp1
 70
     1
102
RTVSPropertyOp2
 70
     1
102
RTVSPropertyOp3
 70
     1
102
RTVSPropertyOp4
 70
     1
102
RTVSPropertyOp5
 70
     1
102
RTVSPropertyOp6
 70
     1
102
RTVSPropertyOp7
 70
     1
102
RTVSPropertyOp8
 70
     1
102
RTVSPropertyOp9
 70
     1
102
RTVSPropertyOp10
 70
     1
102
RTVSPropertyOp11
 70
     1
102
RTVSPropertyOp12
 70
     1
102
RTVSPropertyOp13
 70
     1
102
RTVSPropertyOp14
 70
     1
102
RTVSPropertyOp15
 70
     1
102
RTVSPropertyOp16
 70
     1
102
RTVSPropertyOp17
 70
     1
102
RTVSPropertyOp18
 70
     1
102
RTVSPropertyOp19
 70
     1
102
RTVSPropertyOp20
 70
     1
102
RTVSPropertyOp21
 70
     1
102
RTVSPropertyOp22
 70
     1
102
RTVSPropertyOp23
 70
     1
102
RTVSPropertyOp24
 70
     1
102
RTVSPropertyOp25
 70
     1
102
RTVSPropertyOp26
 70
     1
102
RTVSPropertyOp27
 70
     1
102
RTVSPropertyOp28
 70
     1
102
RTVSPropertyOp29
 70
     1
102
RTVSPropertyOp30
 70
     1
102
RTVSPropertyOp31
 70
     1
102
RTVSPropertyOp32
 70
     1
102
RTVSPropertyOp33
 70
     1
102
RTVSPropertyOp34
 70
     1
102
RTVSPropertyOp35
 70
     1
102
RTVSPropertyOp36
 70
     1
102
RTVSPropertyOp37
 70
     1
102
RTVSPropertyOp38
 70
     1
102
RTVSPropertyOp39
 70
     1
102
RTVSPropertyOp40
 70
     1
102
RTVSPropertyOp41
 70
     1
102
RTVSPropertyOp42
 70
     1
102
RTVSPropertyOp43
 70
     1
102
RTVSPropertyOp44
 70
     1
102
RTVSPropertyOp45
 70
     1
102
RTVSPropertyOp46
 70
     1
102
RTVSPropertyOp47
 70
     1
102
RTVSPropertyOp48
 70
     1
102
RTVSPropertyOp49
 70
     1
102
RTVSPropertyOp50
 70
     1
102
RTVSPropertyOp51
 70
     0
102
RTVSPropertyOp52
 70
     0
102
RTVSPropertyOp53
 70
     1
102
RTVSPropertyOp54
 70
     1
102
RTVSPropertyOp55
 70
     1
102
RTVSPropertyOp56
 70
     1
102
RTVSPropertyOp57
 70
     1
102
RTVSPost2010Prop28
280
     0
102
RTVSPost2010PropOp28
 70
     1
102
RTVSPost2010Prop29
280
     1
102
RTVSPost2010PropOp29
 70
     1
102
RTVSPost2010Prop30
280
     1
102
RTVSPost2010PropOp30
 70
     1
102
RTVSPost2010Prop31
280
     0
102
RTVSPost2010PropOp31
 70
     1
102
RTVSPost2010Prop32
280
     0
102
RTVSPost2010PropOp32
 70
     1
102
RTVSPost2010Prop33
280
     0
102
RTVSPost2010PropOp33
 70
     1
102
RTVSPost2010Prop34
280
     0
102
RTVSPost2010PropOp34
 70
     1
102
RTVSPost2010Prop35
280
     0
102
RTVSPost2010PropOp35
 70
     1
102
RTVSPost2010Prop36
280
     0
102
RTVSPost2010PropOp36
 70
     1
102
RTVSPost2010Prop37
 90
       50
102
RTVSPost2010PropOp37
 70
     1
102
RTVSPost2010Prop38
140
0.0
102
RTVSPost2010PropOp38
 70
     1
102
RTVSPost2010Prop39
140
1.0
102
RTVSPost2010PropOp39
 70
     1
102
RTVSPost2010Prop40
 90
        0
102
RTVSPost2010PropOp40
 70
     1
102
RTVSPost2010Prop41ColorIndex
 90
       18
102
RTVSPost2010Prop41ColorRGB
 90
        0
102
RTVSPost2010PropOp41
 70
     1
102
RTVSPost2010Prop42
 90
       50
102
RTVSPost2010PropOp42
 70
     1
102
RTVSPost2010Prop43
 90
        3
102
RTVSPost2010PropOp43
 70
     1
102
RTVSPost2010Prop44ColorIndex
 90
        5
102
RTVSPost2010Prop44ColorRGB
 90
      255
102
RTVSPost2010PropOp44
 70
     1
102
RTVSPost2010Prop45
280
     0
102
RTVSPost2010PropOp45
 70
     1
102
RTVSPost2010Prop46
 90
       50
102
RTVSPost2010PropOp46
 70
     1
102
RTVSPost2010Prop47
 90
       50
102
RTVSPost2010PropOp47
 70
     1
102
RTVSPost2010Prop48
 90
       50
102
RTVSPost2010PropOp48
 70
     1
102
RTVSPost2010Prop49
280
     0
102
RTVSPost2010PropOp49
 70
     1
102
RTVSPost2010Prop50
 90
       50
102
RTVSPost2010PropOp50
 70
     1
102
RTVSPost2010Prop51ColorIndex
 90
      256
102
RTVSPost2010Prop51ColorRGB
 90
-16777216
102
RTVSPost2010PropOp51
 70
     0
102
RTVSPost2010Prop52
140
1.0
102
RTVSPost2010PropOp52
 70
     0
102
RTVSPost2010Prop53
 90
        2
102
RTVSPost2010PropOp53
 70
     1
102
RTVSPost2010Prop54
  1
strokes_ogs.tif
102
RTVSPost2010PropOp54
 70
     1
102
RTVSPost2010Prop55
280
     0
102
RTVSPost2010PropOp55
 70
     1
102
RTVSPost2010Prop56
140
1.0
102
RTVSPost2010PropOp56
 70
     1
102
RTVSPost2010Prop57
140
1.0
102
RTVSPost2010PropOp57
 70
     1
  0
XRECORD
  5
816
102
{ACAD_REACTORS
330
815
102
}
330
815
100
AcDbXrecord
280
     1
102
RTVSPropertyOp0
 70
     1
102
RTVSPropertyOp1
 70
     1
102
RTVSPropertyOp2
 70
     1
102
RTVSPropertyOp3
 70
     1
102
RTVSPropertyOp4
 70
     1
102
RTVSPropertyOp5
 70
     1
102
RTVSPropertyOp6
 70
     1
102
RTVSPropertyOp7
 70
     1
102
RTVSPropertyOp8
 70
     1
102
RTVSPropertyOp9
 70
     1
102
RTVSPropertyOp10
 70
     1
102
RTVSPropertyOp11
 70
     1
102
RTVSPropertyOp12
 70
     1
102
RTVSPropertyOp13
 70
     1
102
RTVSPropertyOp14
 70
     1
102
RTVSPropertyOp15
 70
     1
102
RTVSPropertyOp16
 70
     1
102
RTVSPropertyOp17
 70
     1
102
RTVSPropertyOp18
 70
     1
102
RTVSPropertyOp19
 70
     1
102
RTVSPropertyOp20
 70
     1
102
RTVSPropertyOp21
 70
     1
102
RTVSPropertyOp22
 70
     1
102
RTVSPropertyOp23
 70
     1
102
RTVSPropertyOp24
 70
     1
102
RTVSPropertyOp25
 70
     1
102
RTVSPropertyOp26
 70
     1
102
RTVSPropertyOp27
 70
     1
102
RTVSPropertyOp28
 70
     1
102
RTVSPropertyOp29
 70
     1
102
RTVSPropertyOp30
 70
     1
102
RTVSPropertyOp31
 70
     1
102
RTVSPropertyOp32
 70
     1
102
RTVSPropertyOp33
 70
     1
102
RTVSPropertyOp34
 70
     1
102
RTVSPropertyOp35
 70
     1
102
RTVSPropertyOp36
 70
     1
102
RTVSPropertyOp37
 70
     1
102
RTVSPropertyOp38
 70
     1
102
RTVSPropertyOp39
 70
     1
102
RTVSPropertyOp40
 70
     1
102
RTVSPropertyOp41
 70
     1
102
RTVSPropertyOp42
 70
     1
102
RTVSPropertyOp43
 70
     1
102
RTVSPropertyOp44
 70
     1
102
RTVSPropertyOp45
 70
     1
102
RTVSPropertyOp46
 70
     1
102
RTVSPropertyOp47
 70
     1
102
RTVSPropertyOp48
 70
     1
102
RTVSPropertyOp49
 70
     1
102
RTVSPropertyOp50
 70
     1
102
RTVSPropertyOp51
 70
     0
102
RTVSPropertyOp52
 70
     0
102
RTVSPropertyOp53
 70
     1
102
RTVSPropertyOp54
 70
     1
102
RTVSPropertyOp55
 70
     1
102
RTVSPropertyOp56
 70
     1
102
RTVSPropertyOp57
 70
     1
102
RTVSPost2010Prop28
280
     0
102
RTVSPost2010PropOp28
 70
     1
102
RTVSPost2010Prop29
280
     1
102
RTVSPost2010PropOp29
 70
     1
102
RTVSPost2010Prop30
280
     1
102
RTVSPost2010PropOp30
 70
     1
102
RTVSPost2010Prop31
280
     0
102
RTVSPost2010PropOp31
 70
     1
102
RTVSPost2010Prop32
280
     0
102
RTVSPost2010PropOp32
 70
     1
102
RTVSPost2010Prop33
280
     0
102
RTVSPost2010PropOp33
 70
     1
102
RTVSPost2010Prop34
280
     0
102
RTVSPost2010PropOp34
 70
     1
102
RTVSPost2010Prop35
280
     0
102
RTVSPost2010PropOp35
 70
     1
102
RTVSPost2010Prop36
280
     0
102
RTVSPost2010PropOp36
 70
     1
102
RTVSPost2010Prop37
 90
       50
102
RTVSPost2010PropOp37
 70
     1
102
RTVSPost2010Prop38
140
0.0
102
RTVSPost2010PropOp38
 70
     1
102
RTVSPost2010Prop39
140
1.0
102
RTVSPost2010PropOp39
 70
     1
102
RTVSPost2010Prop40
 90
        0
102
RTVSPost2010PropOp40
 70
     1
102
RTVSPost2010Prop41ColorIndex
 90
       18
102
RTVSPost2010Prop41ColorRGB
 90
        0
102
RTVSPost2010PropOp41
 70
     1
102
RTVSPost2010Prop42
 90
       50
102
RTVSPost2010PropOp42
 70
     1
102
RTVSPost2010Prop43
 90
        3
102
RTVSPost2010PropOp43
 70
     1
102
RTVSPost2010Prop44ColorIndex
 90
        5
102
RTVSPost2010Prop44ColorRGB
 90
      255
102
RTVSPost2010PropOp44
 70
     1
102
RTVSPost2010Prop45
280
     0
102
RTVSPost2010PropOp45
 70
     1
102
RTVSPost2010Prop46
 90
       50
102
RTVSPost2010PropOp46
 70
     1
102
RTVSPost2010Prop47
 90
       50
102
RTVSPost2010PropOp47
 70
     1
102
RTVSPost2010Prop48
 90
       50
102
RTVSPost2010PropOp48
 70
     1
102
RTVSPost2010Prop49
280
     0
102
RTVSPost2010PropOp49
 70
     1
102
RTVSPost2010Prop50
 90
       50
102
RTVSPost2010PropOp50
 70
     1
102
RTVSPost2010Prop51ColorIndex
 90
      256
102
RTVSPost2010Prop51ColorRGB
 90
-16777216
102
RTVSPost2010PropOp51
 70
     0
102
RTVSPost2010Prop52
140
1.0
102
RTVSPost2010PropOp52
 70
     0
102
RTVSPost2010Prop53
 90
        2
102
RTVSPost2010PropOp53
 70
     1
102
RTVSPost2010Prop54
  1
strokes_ogs.tif
102
RTVSPost2010PropOp54
 70
     1
102
RTVSPost2010Prop55
280
     0
102
RTVSPost2010PropOp55
 70
     1
102
RTVSPost2010Prop56
140
1.0
102
RTVSPost2010PropOp56
 70
     1
102
RTVSPost2010Prop57
140
1.0
102
RTVSPost2010PropOp57
 70
     1
  0
XRECORD
  5
81E
102
{ACAD_REACTORS
330
81D
102
}
330
81D
100
AcDbXrecord
280
     1
102
RTVSPropertyOp0
 70
     1
102
RTVSPropertyOp1
 70
     1
102
RTVSPropertyOp2
 70
     1
102
RTVSPropertyOp3
 70
     1
102
RTVSPropertyOp4
 70
     1
102
RTVSPropertyOp5
 70
     1
102
RTVSPropertyOp6
 70
     1
102
RTVSPropertyOp7
 70
     1
102
RTVSPropertyOp8
 70
     1
102
RTVSPropertyOp9
 70
     1
102
RTVSPropertyOp10
 70
     1
102
RTVSPropertyOp11
 70
     1
102
RTVSPropertyOp12
 70
     1
102
RTVSPropertyOp13
 70
     1
102
RTVSPropertyOp14
 70
     1
102
RTVSPropertyOp15
 70
     1
102
RTVSPropertyOp16
 70
     1
102
RTVSPropertyOp17
 70
     1
102
RTVSPropertyOp18
 70
     1
102
RTVSPropertyOp19
 70
     1
102
RTVSPropertyOp20
 70
     1
102
RTVSPropertyOp21
 70
     1
102
RTVSPropertyOp22
 70
     1
102
RTVSPropertyOp23
 70
     1
102
RTVSPropertyOp24
 70
     1
102
RTVSPropertyOp25
 70
     1
102
RTVSPropertyOp26
 70
     1
102
RTVSPropertyOp27
 70
     1
102
RTVSPropertyOp28
 70
     1
102
RTVSPropertyOp29
 70
     1
102
RTVSPropertyOp30
 70
     1
102
RTVSPropertyOp31
 70
     1
102
RTVSPropertyOp32
 70
     1
102
RTVSPropertyOp33
 70
     1
102
RTVSPropertyOp34
 70
     1
102
RTVSPropertyOp35
 70
     1
102
RTVSPropertyOp36
 70
     1
102
RTVSPropertyOp37
 70
     1
102
RTVSPropertyOp38
 70
     1
102
RTVSPropertyOp39
 70
     1
102
RTVSPropertyOp40
 70
     1
102
RTVSPropertyOp41
 70
     1
102
RTVSPropertyOp42
 70
     1
102
RTVSPropertyOp43
 70
     1
102
RTVSPropertyOp44
 70
     1
102
RTVSPropertyOp45
 70
     1
102
RTVSPropertyOp46
 70
     1
102
RTVSPropertyOp47
 70
     1
102
RTVSPropertyOp48
 70
     1
102
RTVSPropertyOp49
 70
     1
102
RTVSPropertyOp50
 70
     1
102
RTVSPropertyOp51
 70
     0
102
RTVSPropertyOp52
 70
     0
102
RTVSPropertyOp53
 70
     1
102
RTVSPropertyOp54
 70
     1
102
RTVSPropertyOp55
 70
     1
102
RTVSPropertyOp56
 70
     1
102
RTVSPropertyOp57
 70
     1
102
RTVSPost2010Prop28
280
     0
102
RTVSPost2010PropOp28
 70
     1
102
RTVSPost2010Prop29
280
     1
102
RTVSPost2010PropOp29
 70
     1
102
RTVSPost2010Prop30
280
     1
102
RTVSPost2010PropOp30
 70
     1
102
RTVSPost2010Prop31
280
     0
102
RTVSPost2010PropOp31
 70
     1
102
RTVSPost2010Prop32
280
     0
102
RTVSPost2010PropOp32
 70
     1
102
RTVSPost2010Prop33
280
     0
102
RTVSPost2010PropOp33
 70
     1
102
RTVSPost2010Prop34
280
     0
102
RTVSPost2010PropOp34
 70
     1
102
RTVSPost2010Prop35
280
     0
102
RTVSPost2010PropOp35
 70
     1
102
RTVSPost2010Prop36
280
     0
102
RTVSPost2010PropOp36
 70
     1
102
RTVSPost2010Prop37
 90
       50
102
RTVSPost2010PropOp37
 70
     1
102
RTVSPost2010Prop38
140
0.0
102
RTVSPost2010PropOp38
 70
     1
102
RTVSPost2010Prop39
140
1.0
102
RTVSPost2010PropOp39
 70
     1
102
RTVSPost2010Prop40
 90
        0
102
RTVSPost2010PropOp40
 70
     1
102
RTVSPost2010Prop41ColorIndex
 90
       18
102
RTVSPost2010Prop41ColorRGB
 90
        0
102
RTVSPost2010PropOp41
 70
     1
102
RTVSPost2010Prop42
 90
       50
102
RTVSPost2010PropOp42
 70
     1
102
RTVSPost2010Prop43
 90
        3
102
RTVSPost2010PropOp43
 70
     1
102
RTVSPost2010Prop44ColorIndex
 90
        5
102
RTVSPost2010Prop44ColorRGB
 90
      255
102
RTVSPost2010PropOp44
 70
     1
102
RTVSPost2010Prop45
280
     0
102
RTVSPost2010PropOp45
 70
     1
102
RTVSPost2010Prop46
 90
       50
102
RTVSPost2010PropOp46
 70
     1
102
RTVSPost2010Prop47
 90
       50
102
RTVSPost2010PropOp47
 70
     1
102
RTVSPost2010Prop48
 90
       50
102
RTVSPost2010PropOp48
 70
     1
102
RTVSPost2010Prop49
280
     0
102
RTVSPost2010PropOp49
 70
     1
102
RTVSPost2010Prop50
 90
       50
102
RTVSPost2010PropOp50
 70
     1
102
RTVSPost2010Prop51ColorIndex
 90
      256
102
RTVSPost2010Prop51ColorRGB
 90
-16777216
102
RTVSPost2010PropOp51
 70
     0
102
RTVSPost2010Prop52
140
1.0
102
RTVSPost2010PropOp52
 70
     0
102
RTVSPost2010Prop53
 90
        2
102
RTVSPost2010PropOp53
 70
     1
102
RTVSPost2010Prop54
  1
strokes_ogs.tif
102
RTVSPost2010PropOp54
 70
     1
102
RTVSPost2010Prop55
280
     0
102
RTVSPost2010PropOp55
 70
     1
102
RTVSPost2010Prop56
140
1.0
102
RTVSPost2010PropOp56
 70
     1
102
RTVSPost2010Prop57
140
1.0
102
RTVSPost2010PropOp57
 70
     1
  0
XRECORD
  5
812
102
{ACAD_REACTORS
330
811
102
}
330
811
100
AcDbXrecord
280
     1
102
RTVSPropertyOp0
 70
     1
102
RTVSPropertyOp1
 70
     1
102
RTVSPropertyOp2
 70
     1
102
RTVSPropertyOp3
 70
     1
102
RTVSPropertyOp4
 70
     1
102
RTVSPropertyOp5
 70
     1
102
RTVSPropertyOp6
 70
     1
102
RTVSPropertyOp7
 70
     1
102
RTVSPropertyOp8
 70
     1
102
RTVSPropertyOp9
 70
     1
102
RTVSPropertyOp10
 70
     1
102
RTVSPropertyOp11
 70
     1
102
RTVSPropertyOp12
 70
     1
102
RTVSPropertyOp13
 70
     1
102
RTVSPropertyOp14
 70
     1
102
RTVSPropertyOp15
 70
     1
102
RTVSPropertyOp16
 70
     1
102
RTVSPropertyOp17
 70
     1
102
RTVSPropertyOp18
 70
     1
102
RTVSPropertyOp19
 70
     1
102
RTVSPropertyOp20
 70
     1
102
RTVSPropertyOp21
 70
     1
102
RTVSPropertyOp22
 70
     1
102
RTVSPropertyOp23
 70
     1
102
RTVSPropertyOp24
 70
     1
102
RTVSPropertyOp25
 70
     1
102
RTVSPropertyOp26
 70
     1
102
RTVSPropertyOp27
 70
     1
102
RTVSPropertyOp28
 70
     1
102
RTVSPropertyOp29
 70
     1
102
RTVSPropertyOp30
 70
     1
102
RTVSPropertyOp31
 70
     1
102
RTVSPropertyOp32
 70
     1
102
RTVSPropertyOp33
 70
     1
102
RTVSPropertyOp34
 70
     1
102
RTVSPropertyOp35
 70
     1
102
RTVSPropertyOp36
 70
     1
102
RTVSPropertyOp37
 70
     1
102
RTVSPropertyOp38
 70
     1
102
RTVSPropertyOp39
 70
     1
102
RTVSPropertyOp40
 70
     1
102
RTVSPropertyOp41
 70
     1
102
RTVSPropertyOp42
 70
     1
102
RTVSPropertyOp43
 70
     1
102
RTVSPropertyOp44
 70
     1
102
RTVSPropertyOp45
 70
     1
102
RTVSPropertyOp46
 70
     1
102
RTVSPropertyOp47
 70
     1
102
RTVSPropertyOp48
 70
     1
102
RTVSPropertyOp49
 70
     1
102
RTVSPropertyOp50
 70
     1
102
RTVSPropertyOp51
 70
     0
102
RTVSPropertyOp52
 70
     0
102
RTVSPropertyOp53
 70
     1
102
RTVSPropertyOp54
 70
     1
102
RTVSPropertyOp55
 70
     1
102
RTVSPropertyOp56
 70
     1
102
RTVSPropertyOp57
 70
     1
102
RTVSPost2010Prop28
280
     0
102
RTVSPost2010PropOp28
 70
     1
102
RTVSPost2010Prop29
280
     1
102
RTVSPost2010PropOp29
 70
     1
102
RTVSPost2010Prop30
280
     1
102
RTVSPost2010PropOp30
 70
     1
102
RTVSPost2010Prop31
280
     0
102
RTVSPost2010PropOp31
 70
     1
102
RTVSPost2010Prop32
280
     0
102
RTVSPost2010PropOp32
 70
     1
102
RTVSPost2010Prop33
280
     0
102
RTVSPost2010PropOp33
 70
     1
102
RTVSPost2010Prop34
280
     0
102
RTVSPost2010PropOp34
 70
     1
102
RTVSPost2010Prop35
280
     0
102
RTVSPost2010PropOp35
 70
     1
102
RTVSPost2010Prop36
280
     0
102
RTVSPost2010PropOp36
 70
     1
102
RTVSPost2010Prop37
 90
       50
102
RTVSPost2010PropOp37
 70
     1
102
RTVSPost2010Prop38
140
0.0
102
RTVSPost2010PropOp38
 70
     1
102
RTVSPost2010Prop39
140
1.0
102
RTVSPost2010PropOp39
 70
     1
102
RTVSPost2010Prop40
 90
        0
102
RTVSPost2010PropOp40
 70
     1
102
RTVSPost2010Prop41ColorIndex
 90
       18
102
RTVSPost2010Prop41ColorRGB
 90
        0
102
RTVSPost2010PropOp41
 70
     1
102
RTVSPost2010Prop42
 90
       50
102
RTVSPost2010PropOp42
 70
     1
102
RTVSPost2010Prop43
 90
        3
102
RTVSPost2010PropOp43
 70
     1
102
RTVSPost2010Prop44ColorIndex
 90
        5
102
RTVSPost2010Prop44ColorRGB
 90
      255
102
RTVSPost2010PropOp44
 70
     1
102
RTVSPost2010Prop45
280
     0
102
RTVSPost2010PropOp45
 70
     1
102
RTVSPost2010Prop46
 90
       50
102
RTVSPost2010PropOp46
 70
     1
102
RTVSPost2010Prop47
 90
       50
102
RTVSPost2010PropOp47
 70
     1
102
RTVSPost2010Prop48
 90
       50
102
RTVSPost2010PropOp48
 70
     1
102
RTVSPost2010Prop49
280
     0
102
RTVSPost2010PropOp49
 70
     1
102
RTVSPost2010Prop50
 90
       50
102
RTVSPost2010PropOp50
 70
     1
102
RTVSPost2010Prop51ColorIndex
 90
      256
102
RTVSPost2010Prop51ColorRGB
 90
-16777216
102
RTVSPost2010PropOp51
 70
     0
102
RTVSPost2010Prop52
140
1.0
102
RTVSPost2010PropOp52
 70
     0
102
RTVSPost2010Prop53
 90
        2
102
RTVSPost2010PropOp53
 70
     1
102
RTVSPost2010Prop54
  1
strokes_ogs.tif
102
RTVSPost2010PropOp54
 70
     1
102
RTVSPost2010Prop55
280
     0
102
RTVSPost2010PropOp55
 70
     1
102
RTVSPost2010Prop56
140
1.0
102
RTVSPost2010PropOp56
 70
     1
102
RTVSPost2010Prop57
140
1.0
102
RTVSPost2010PropOp57
 70
     1
  0
XRECORD
  5
814
102
{ACAD_REACTORS
330
813
102
}
330
813
100
AcDbXrecord
280
     1
102
RTVSPropertyOp0
 70
     1
102
RTVSPropertyOp1
 70
     1
102
RTVSPropertyOp2
 70
     1
102
RTVSPropertyOp3
 70
     1
102
RTVSPropertyOp4
 70
     1
102
RTVSPropertyOp5
 70
     1
102
RTVSPropertyOp6
 70
     1
102
RTVSPropertyOp7
 70
     1
102
RTVSPropertyOp8
 70
     1
102
RTVSPropertyOp9
 70
     1
102
RTVSPropertyOp10
 70
     1
102
RTVSPropertyOp11
 70
     1
102
RTVSPropertyOp12
 70
     1
102
RTVSPropertyOp13
 70
     1
102
RTVSPropertyOp14
 70
     1
102
RTVSPropertyOp15
 70
     1
102
RTVSPropertyOp16
 70
     1
102
RTVSPropertyOp17
 70
     1
102
RTVSPropertyOp18
 70
     1
102
RTVSPropertyOp19
 70
     1
102
RTVSPropertyOp20
 70
     1
102
RTVSPropertyOp21
 70
     1
102
RTVSPropertyOp22
 70
     1
102
RTVSPropertyOp23
 70
     1
102
RTVSPropertyOp24
 70
     1
102
RTVSPropertyOp25
 70
     1
102
RTVSPropertyOp26
 70
     1
102
RTVSPropertyOp27
 70
     1
102
RTVSPropertyOp28
 70
     1
102
RTVSPropertyOp29
 70
     1
102
RTVSPropertyOp30
 70
     1
102
RTVSPropertyOp31
 70
     1
102
RTVSPropertyOp32
 70
     1
102
RTVSPropertyOp33
 70
     1
102
RTVSPropertyOp34
 70
     1
102
RTVSPropertyOp35
 70
     1
102
RTVSPropertyOp36
 70
     1
102
RTVSPropertyOp37
 70
     1
102
RTVSPropertyOp38
 70
     1
102
RTVSPropertyOp39
 70
     1
102
RTVSPropertyOp40
 70
     1
102
RTVSPropertyOp41
 70
     1
102
RTVSPropertyOp42
 70
     1
102
RTVSPropertyOp43
 70
     1
102
RTVSPropertyOp44
 70
     1
102
RTVSPropertyOp45
 70
     1
102
RTVSPropertyOp46
 70
     1
102
RTVSPropertyOp47
 70
     1
102
RTVSPropertyOp48
 70
     1
102
RTVSPropertyOp49
 70
     1
102
RTVSPropertyOp50
 70
     1
102
RTVSPropertyOp51
 70
     0
102
RTVSPropertyOp52
 70
     0
102
RTVSPropertyOp53
 70
     1
102
RTVSPropertyOp54
 70
     1
102
RTVSPropertyOp55
 70
     1
102
RTVSPropertyOp56
 70
     1
102
RTVSPropertyOp57
 70
     1
102
RTVSPost2010Prop28
280
     0
102
RTVSPost2010PropOp28
 70
     1
102
RTVSPost2010Prop29
280
     1
102
RTVSPost2010PropOp29
 70
     1
102
RTVSPost2010Prop30
280
     1
102
RTVSPost2010PropOp30
 70
     1
102
RTVSPost2010Prop31
280
     0
102
RTVSPost2010PropOp31
 70
     1
102
RTVSPost2010Prop32
280
     0
102
RTVSPost2010PropOp32
 70
     1
102
RTVSPost2010Prop33
280
     0
102
RTVSPost2010PropOp33
 70
     1
102
RTVSPost2010Prop34
280
     0
102
RTVSPost2010PropOp34
 70
     1
102
RTVSPost2010Prop35
280
     0
102
RTVSPost2010PropOp35
 70
     1
102
RTVSPost2010Prop36
280
     0
102
RTVSPost2010PropOp36
 70
     1
102
RTVSPost2010Prop37
 90
       50
102
RTVSPost2010PropOp37
 70
     1
102
RTVSPost2010Prop38
140
0.0
102
RTVSPost2010PropOp38
 70
     1
102
RTVSPost2010Prop39
140
1.0
102
RTVSPost2010PropOp39
 70
     1
102
RTVSPost2010Prop40
 90
        0
102
RTVSPost2010PropOp40
 70
     1
102
RTVSPost2010Prop41ColorIndex
 90
       18
102
RTVSPost2010Prop41ColorRGB
 90
        0
102
RTVSPost2010PropOp41
 70
     1
102
RTVSPost2010Prop42
 90
       50
102
RTVSPost2010PropOp42
 70
     1
102
RTVSPost2010Prop43
 90
        3
102
RTVSPost2010PropOp43
 70
     1
102
RTVSPost2010Prop44ColorIndex
 90
        5
102
RTVSPost2010Prop44ColorRGB
 90
      255
102
RTVSPost2010PropOp44
 70
     1
102
RTVSPost2010Prop45
280
     0
102
RTVSPost2010PropOp45
 70
     1
102
RTVSPost2010Prop46
 90
       50
102
RTVSPost2010PropOp46
 70
     1
102
RTVSPost2010Prop47
 90
       50
102
RTVSPost2010PropOp47
 70
     1
102
RTVSPost2010Prop48
 90
       50
102
RTVSPost2010PropOp48
 70
     1
102
RTVSPost2010Prop49
280
     0
102
RTVSPost2010PropOp49
 70
     1
102
RTVSPost2010Prop50
 90
       50
102
RTVSPost2010PropOp50
 70
     1
102
RTVSPost2010Prop51ColorIndex
 90
      256
102
RTVSPost2010Prop51ColorRGB
 90
-16777216
102
RTVSPost2010PropOp51
 70
     0
102
RTVSPost2010Prop52
140
1.0
102
RTVSPost2010PropOp52
 70
     0
102
RTVSPost2010Prop53
 90
        2
102
RTVSPost2010PropOp53
 70
     1
102
RTVSPost2010Prop54
  1
strokes_ogs.tif
102
RTVSPost2010PropOp54
 70
     1
102
RTVSPost2010Prop55
280
     0
102
RTVSPost2010PropOp55
 70
     1
102
RTVSPost2010Prop56
140
1.0
102
RTVSPost2010PropOp56
 70
     1
102
RTVSPost2010Prop57
140
1.0
102
RTVSPost2010PropOp57
 70
     1
  0
XRECORD
  5
824
102
{ACAD_REACTORS
330
823
102
}
330
823
100
AcDbXrecord
280
     1
102
RTVSPropertyOp0
 70
     0
102
RTVSPropertyOp1
 70
     0
102
RTVSPropertyOp2
 70
     0
102
RTVSPropertyOp3
 70
     0
102
RTVSPropertyOp4
 70
     0
102
RTVSPropertyOp5
 70
     0
102
RTVSPropertyOp6
 70
     0
102
RTVSPropertyOp7
 70
     0
102
RTVSPropertyOp8
 70
     0
102
RTVSPropertyOp9
 70
     0
102
RTVSPropertyOp10
 70
     0
102
RTVSPropertyOp11
 70
     0
102
RTVSPropertyOp12
 70
     0
102
RTVSPropertyOp13
 70
     0
102
RTVSPropertyOp14
 70
     2
102
RTVSPropertyOp15
 70
     0
102
RTVSPropertyOp16
 70
     0
102
RTVSPropertyOp17
 70
     0
102
RTVSPropertyOp18
 70
     0
102
RTVSPropertyOp19
 70
     0
102
RTVSPropertyOp20
 70
     0
102
RTVSPropertyOp21
 70
     0
102
RTVSPropertyOp22
 70
     0
102
RTVSPropertyOp23
 70
     0
102
RTVSPropertyOp24
 70
     0
102
RTVSPropertyOp25
 70
     0
102
RTVSPropertyOp26
 70
     0
102
RTVSPropertyOp27
 70
     0
102
RTVSPropertyOp28
 70
     0
102
RTVSPropertyOp29
 70
     0
102
RTVSPropertyOp30
 70
     0
102
RTVSPropertyOp31
 70
     0
102
RTVSPropertyOp32
 70
     0
102
RTVSPropertyOp33
 70
     0
102
RTVSPropertyOp34
 70
     0
102
RTVSPropertyOp35
 70
     0
102
RTVSPropertyOp36
 70
     0
102
RTVSPropertyOp37
 70
     0
102
RTVSPropertyOp38
 70
     0
102
RTVSPropertyOp39
 70
     0
102
RTVSPropertyOp40
 70
     0
102
RTVSPropertyOp41
 70
     0
102
RTVSPropertyOp42
 70
     0
102
RTVSPropertyOp43
 70
     0
102
RTVSPropertyOp44
 70
     0
102
RTVSPropertyOp45
 70
     0
102
RTVSPropertyOp46
 70
     0
102
RTVSPropertyOp47
 70
     0
102
RTVSPropertyOp48
 70
     0
102
RTVSPropertyOp49
 70
     0
102
RTVSPropertyOp50
 70
     0
102
RTVSPropertyOp51
 70
     0
102
RTVSPropertyOp52
 70
     0
102
RTVSPropertyOp53
 70
     0
102
RTVSPropertyOp54
 70
     0
102
RTVSPropertyOp55
 70
     0
102
RTVSPropertyOp56
 70
     0
102
RTVSPropertyOp57
 70
     0
102
RTVSPost2010Prop28
280
     0
102
RTVSPost2010PropOp28
 70
     0
102
RTVSPost2010Prop29
280
     1
102
RTVSPost2010PropOp29
 70
     0
102
RTVSPost2010Prop30
280
     1
102
RTVSPost2010PropOp30
 70
     0
102
RTVSPost2010Prop31
280
     0
102
RTVSPost2010PropOp31
 70
     0
102
RTVSPost2010Prop32
280
     0
102
RTVSPost2010PropOp32
 70
     0
102
RTVSPost2010Prop33
280
     0
102
RTVSPost2010PropOp33
 70
     0
102
RTVSPost2010Prop34
280
     0
102
RTVSPost2010PropOp34
 70
     0
102
RTVSPost2010Prop35
280
     0
102
RTVSPost2010PropOp35
 70
     0
102
RTVSPost2010Prop36
280
     0
102
RTVSPost2010PropOp36
 70
     0
102
RTVSPost2010Prop37
 90
       50
102
RTVSPost2010PropOp37
 70
     0
102
RTVSPost2010Prop38
140
0.0
102
RTVSPost2010PropOp38
 70
     0
102
RTVSPost2010Prop39
140
1.0
102
RTVSPost2010PropOp39
 70
     0
102
RTVSPost2010Prop40
 90
        0
102
RTVSPost2010PropOp40
 70
     0
102
RTVSPost2010Prop41ColorIndex
 90
       18
102
RTVSPost2010Prop41ColorRGB
 90
        0
102
RTVSPost2010PropOp41
 70
     0
102
RTVSPost2010Prop42
 90
       50
102
RTVSPost2010PropOp42
 70
     0
102
RTVSPost2010Prop43
 90
        3
102
RTVSPost2010PropOp43
 70
     0
102
RTVSPost2010Prop44ColorIndex
 90
        5
102
RTVSPost2010Prop44ColorRGB
 90
      255
102
RTVSPost2010PropOp44
 70
     0
102
RTVSPost2010Prop45
280
     0
102
RTVSPost2010PropOp45
 70
     0
102
RTVSPost2010Prop46
 90
       50
102
RTVSPost2010PropOp46
 70
     0
102
RTVSPost2010Prop47
 90
       50
102
RTVSPost2010PropOp47
 70
     0
102
RTVSPost2010Prop48
 90
       50
102
RTVSPost2010PropOp48
 70
     0
102
RTVSPost2010Prop49
280
     0
102
RTVSPost2010PropOp49
 70
     0
102
RTVSPost2010Prop50
 90
       50
102
RTVSPost2010PropOp50
 70
     0
102
RTVSPost2010Prop51ColorIndex
 90
      256
102
RTVSPost2010Prop51ColorRGB
 90
-16777216
102
RTVSPost2010PropOp51
 70
     0
102
RTVSPost2010Prop52
140
1.0
102
RTVSPost2010PropOp52
 70
     0
102
RTVSPost2010Prop53
 90
        2
102
RTVSPost2010PropOp53
 70
     0
102
RTVSPost2010Prop54
  1
strokes_ogs.tif
102
RTVSPost2010PropOp54
 70
     0
102
RTVSPost2010Prop55
280
     0
102
RTVSPost2010PropOp55
 70
     0
102
RTVSPost2010Prop56
140
1.0
102
RTVSPost2010PropOp56
 70
     0
102
RTVSPost2010Prop57
140
1.0
102
RTVSPost2010PropOp57
 70
     0
  0
XRECORD
  5
81C
102
{ACAD_REACTORS
330
81B
102
}
330
81B
100
AcDbXrecord
280
     1
102
RTVSPropertyOp0
 70
     1
102
RTVSPropertyOp1
 70
     1
102
RTVSPropertyOp2
 70
     1
102
RTVSPropertyOp3
 70
     1
102
RTVSPropertyOp4
 70
     1
102
RTVSPropertyOp5
 70
     1
102
RTVSPropertyOp6
 70
     1
102
RTVSPropertyOp7
 70
     1
102
RTVSPropertyOp8
 70
     1
102
RTVSPropertyOp9
 70
     1
102
RTVSPropertyOp10
 70
     1
102
RTVSPropertyOp11
 70
     1
102
RTVSPropertyOp12
 70
     1
102
RTVSPropertyOp13
 70
     1
102
RTVSPropertyOp14
 70
     1
102
RTVSPropertyOp15
 70
     1
102
RTVSPropertyOp16
 70
     1
102
RTVSPropertyOp17
 70
     1
102
RTVSPropertyOp18
 70
     1
102
RTVSPropertyOp19
 70
     1
102
RTVSPropertyOp20
 70
     1
102
RTVSPropertyOp21
 70
     1
102
RTVSPropertyOp22
 70
     1
102
RTVSPropertyOp23
 70
     1
102
RTVSPropertyOp24
 70
     1
102
RTVSPropertyOp25
 70
     1
102
RTVSPropertyOp26
 70
     1
102
RTVSPropertyOp27
 70
     1
102
RTVSPropertyOp28
 70
     1
102
RTVSPropertyOp29
 70
     1
102
RTVSPropertyOp30
 70
     1
102
RTVSPropertyOp31
 70
     1
102
RTVSPropertyOp32
 70
     1
102
RTVSPropertyOp33
 70
     1
102
RTVSPropertyOp34
 70
     1
102
RTVSPropertyOp35
 70
     1
102
RTVSPropertyOp36
 70
     1
102
RTVSPropertyOp37
 70
     1
102
RTVSPropertyOp38
 70
     1
102
RTVSPropertyOp39
 70
     1
102
RTVSPropertyOp40
 70
     1
102
RTVSPropertyOp41
 70
     1
102
RTVSPropertyOp42
 70
     1
102
RTVSPropertyOp43
 70
     1
102
RTVSPropertyOp44
 70
     1
102
RTVSPropertyOp45
 70
     1
102
RTVSPropertyOp46
 70
     1
102
RTVSPropertyOp47
 70
     1
102
RTVSPropertyOp48
 70
     1
102
RTVSPropertyOp49
 70
     1
102
RTVSPropertyOp50
 70
     1
102
RTVSPropertyOp51
 70
     0
102
RTVSPropertyOp52
 70
     0
102
RTVSPropertyOp53
 70
     1
102
RTVSPropertyOp54
 70
     1
102
RTVSPropertyOp55
 70
     1
102
RTVSPropertyOp56
 70
     1
102
RTVSPropertyOp57
 70
     1
102
RTVSPost2010Prop28
280
     0
102
RTVSPost2010PropOp28
 70
     1
102
RTVSPost2010Prop29
280
     1
102
RTVSPost2010PropOp29
 70
     1
102
RTVSPost2010Prop30
280
     1
102
RTVSPost2010PropOp30
 70
     1
102
RTVSPost2010Prop31
280
     0
102
RTVSPost2010PropOp31
 70
     1
102
RTVSPost2010Prop32
280
     0
102
RTVSPost2010PropOp32
 70
     1
102
RTVSPost2010Prop33
280
     0
102
RTVSPost2010PropOp33
 70
     1
102
RTVSPost2010Prop34
280
     0
102
RTVSPost2010PropOp34
 70
     1
102
RTVSPost2010Prop35
280
     0
102
RTVSPost2010PropOp35
 70
     1
102
RTVSPost2010Prop36
280
     0
102
RTVSPost2010PropOp36
 70
     1
102
RTVSPost2010Prop37
 90
       50
102
RTVSPost2010PropOp37
 70
     1
102
RTVSPost2010Prop38
140
0.0
102
RTVSPost2010PropOp38
 70
     1
102
RTVSPost2010Prop39
140
1.0
102
RTVSPost2010PropOp39
 70
     1
102
RTVSPost2010Prop40
 90
        0
102
RTVSPost2010PropOp40
 70
     1
102
RTVSPost2010Prop41ColorIndex
 90
       18
102
RTVSPost2010Prop41ColorRGB
 90
        0
102
RTVSPost2010PropOp41
 70
     1
102
RTVSPost2010Prop42
 90
       50
102
RTVSPost2010PropOp42
 70
     1
102
RTVSPost2010Prop43
 90
        3
102
RTVSPost2010PropOp43
 70
     1
102
RTVSPost2010Prop44ColorIndex
 90
        5
102
RTVSPost2010Prop44ColorRGB
 90
      255
102
RTVSPost2010PropOp44
 70
     1
102
RTVSPost2010Prop45
280
     0
102
RTVSPost2010PropOp45
 70
     1
102
RTVSPost2010Prop46
 90
       50
102
RTVSPost2010PropOp46
 70
     1
102
RTVSPost2010Prop47
 90
       50
102
RTVSPost2010PropOp47
 70
     1
102
RTVSPost2010Prop48
 90
       50
102
RTVSPost2010PropOp48
 70
     1
102
RTVSPost2010Prop49
280
     0
102
RTVSPost2010PropOp49
 70
     1
102
RTVSPost2010Prop50
 90
       50
102
RTVSPost2010PropOp50
 70
     1
102
RTVSPost2010Prop51ColorIndex
 90
      256
102
RTVSPost2010Prop51ColorRGB
 90
-16777216
102
RTVSPost2010PropOp51
 70
     0
102
RTVSPost2010Prop52
140
1.0
102
RTVSPost2010PropOp52
 70
     0
102
RTVSPost2010Prop53
 90
        2
102
RTVSPost2010PropOp53
 70
     1
102
RTVSPost2010Prop54
  1
strokes_ogs.tif
102
RTVSPost2010PropOp54
 70
     1
102
RTVSPost2010Prop55
280
     0
102
RTVSPost2010PropOp55
 70
     1
102
RTVSPost2010Prop56
140
1.0
102
RTVSPost2010PropOp56
 70
     1
102
RTVSPost2010Prop57
140
1.0
102
RTVSPost2010PropOp57
 70
     1
  0
XRECORD
  5
800
102
{ACAD_REACTORS
330
7FF
102
}
330
7FF
100
AcDbXrecord
280
     1
102
RTVSPropertyOp0
 70
     1
102
RTVSPropertyOp1
 70
     1
102
RTVSPropertyOp2
 70
     1
102
RTVSPropertyOp3
 70
     1
102
RTVSPropertyOp4
 70
     1
102
RTVSPropertyOp5
 70
     1
102
RTVSPropertyOp6
 70
     1
102
RTVSPropertyOp7
 70
     1
102
RTVSPropertyOp8
 70
     1
102
RTVSPropertyOp9
 70
     1
102
RTVSPropertyOp10
 70
     1
102
RTVSPropertyOp11
 70
     1
102
RTVSPropertyOp12
 70
     1
102
RTVSPropertyOp13
 70
     1
102
RTVSPropertyOp14
 70
     1
102
RTVSPropertyOp15
 70
     1
102
RTVSPropertyOp16
 70
     1
102
RTVSPropertyOp17
 70
     1
102
RTVSPropertyOp18
 70
     1
102
RTVSPropertyOp19
 70
     1
102
RTVSPropertyOp20
 70
     1
102
RTVSPropertyOp21
 70
     1
102
RTVSPropertyOp22
 70
     1
102
RTVSPropertyOp23
 70
     1
102
RTVSPropertyOp24
 70
     1
102
RTVSPropertyOp25
 70
     1
102
RTVSPropertyOp26
 70
     1
102
RTVSPropertyOp27
 70
     1
102
RTVSPropertyOp28
 70
     1
102
RTVSPropertyOp29
 70
     1
102
RTVSPropertyOp30
 70
     1
102
RTVSPropertyOp31
 70
     1
102
RTVSPropertyOp32
 70
     1
102
RTVSPropertyOp33
 70
     1
102
RTVSPropertyOp34
 70
     1
102
RTVSPropertyOp35
 70
     1
102
RTVSPropertyOp36
 70
     1
102
RTVSPropertyOp37
 70
     1
102
RTVSPropertyOp38
 70
     1
102
RTVSPropertyOp39
 70
     1
102
RTVSPropertyOp40
 70
     1
102
RTVSPropertyOp41
 70
     1
102
RTVSPropertyOp42
 70
     1
102
RTVSPropertyOp43
 70
     1
102
RTVSPropertyOp44
 70
     1
102
RTVSPropertyOp45
 70
     1
102
RTVSPropertyOp46
 70
     1
102
RTVSPropertyOp47
 70
     1
102
RTVSPropertyOp48
 70
     1
102
RTVSPropertyOp49
 70
     1
102
RTVSPropertyOp50
 70
     1
102
RTVSPropertyOp51
 70
     0
102
RTVSPropertyOp52
 70
     0
102
RTVSPropertyOp53
 70
     1
102
RTVSPropertyOp54
 70
     1
102
RTVSPropertyOp55
 70
     1
102
RTVSPropertyOp56
 70
     1
102
RTVSPropertyOp57
 70
     1
102
RTVSPost2010Prop28
280
     0
102
RTVSPost2010PropOp28
 70
     1
102
RTVSPost2010Prop29
280
     1
102
RTVSPost2010PropOp29
 70
     1
102
RTVSPost2010Prop30
280
     1
102
RTVSPost2010PropOp30
 70
     1
102
RTVSPost2010Prop31
280
     0
102
RTVSPost2010PropOp31
 70
     1
102
RTVSPost2010Prop32
280
     0
102
RTVSPost2010PropOp32
 70
     1
102
RTVSPost2010Prop33
280
     0
102
RTVSPost2010PropOp33
 70
     1
102
RTVSPost2010Prop34
280
     0
102
RTVSPost2010PropOp34
 70
     1
102
RTVSPost2010Prop35
280
     0
102
RTVSPost2010PropOp35
 70
     1
102
RTVSPost2010Prop36
280
     0
102
RTVSPost2010PropOp36
 70
     1
102
RTVSPost2010Prop37
 90
       50
102
RTVSPost2010PropOp37
 70
     1
102
RTVSPost2010Prop38
140
0.0
102
RTVSPost2010PropOp38
 70
     1
102
RTVSPost2010Prop39
140
1.0
102
RTVSPost2010PropOp39
 70
     1
102
RTVSPost2010Prop40
 90
        0
102
RTVSPost2010PropOp40
 70
     1
102
RTVSPost2010Prop41ColorIndex
 90
       18
102
RTVSPost2010Prop41ColorRGB
 90
        0
102
RTVSPost2010PropOp41
 70
     1
102
RTVSPost2010Prop42
 90
       50
102
RTVSPost2010PropOp42
 70
     1
102
RTVSPost2010Prop43
 90
        3
102
RTVSPost2010PropOp43
 70
     1
102
RTVSPost2010Prop44ColorIndex
 90
        5
102
RTVSPost2010Prop44ColorRGB
 90
      255
102
RTVSPost2010PropOp44
 70
     1
102
RTVSPost2010Prop45
280
     0
102
RTVSPost2010PropOp45
 70
     1
102
RTVSPost2010Prop46
 90
       50
102
RTVSPost2010PropOp46
 70
     1
102
RTVSPost2010Prop47
 90
       50
102
RTVSPost2010PropOp47
 70
     1
102
RTVSPost2010Prop48
 90
       50
102
RTVSPost2010PropOp48
 70
     1
102
RTVSPost2010Prop49
280
     0
102
RTVSPost2010PropOp49
 70
     1
102
RTVSPost2010Prop50
 90
       50
102
RTVSPost2010PropOp50
 70
     1
102
RTVSPost2010Prop51ColorIndex
 90
      256
102
RTVSPost2010Prop51ColorRGB
 90
-16777216
102
RTVSPost2010PropOp51
 70
     0
102
RTVSPost2010Prop52
140
1.0
102
RTVSPost2010PropOp52
 70
     0
102
RTVSPost2010Prop53
 90
        2
102
RTVSPost2010PropOp53
 70
     1
102
RTVSPost2010Prop54
  1
strokes_ogs.tif
102
RTVSPost2010PropOp54
 70
     1
102
RTVSPost2010Prop55
280
     0
102
RTVSPost2010PropOp55
 70
     1
102
RTVSPost2010Prop56
140
1.0
102
RTVSPost2010PropOp56
 70
     1
102
RTVSPost2010Prop57
140
1.0
102
RTVSPost2010PropOp57
 70
     1
  0
XRECORD
  5
802
102
{ACAD_REACTORS
330
801
102
}
330
801
100
AcDbXrecord
280
     1
102
RTVSPropertyOp0
 70
     1
102
RTVSPropertyOp1
 70
     1
102
RTVSPropertyOp2
 70
     1
102
RTVSPropertyOp3
 70
     1
102
RTVSPropertyOp4
 70
     1
102
RTVSPropertyOp5
 70
     1
102
RTVSPropertyOp6
 70
     1
102
RTVSPropertyOp7
 70
     1
102
RTVSPropertyOp8
 70
     1
102
RTVSPropertyOp9
 70
     1
102
RTVSPropertyOp10
 70
     1
102
RTVSPropertyOp11
 70
     1
102
RTVSPropertyOp12
 70
     1
102
RTVSPropertyOp13
 70
     1
102
RTVSPropertyOp14
 70
     1
102
RTVSPropertyOp15
 70
     1
102
RTVSPropertyOp16
 70
     1
102
RTVSPropertyOp17
 70
     1
102
RTVSPropertyOp18
 70
     1
102
RTVSPropertyOp19
 70
     1
102
RTVSPropertyOp20
 70
     1
102
RTVSPropertyOp21
 70
     1
102
RTVSPropertyOp22
 70
     1
102
RTVSPropertyOp23
 70
     1
102
RTVSPropertyOp24
 70
     1
102
RTVSPropertyOp25
 70
     1
102
RTVSPropertyOp26
 70
     1
102
RTVSPropertyOp27
 70
     1
102
RTVSPropertyOp28
 70
     1
102
RTVSPropertyOp29
 70
     1
102
RTVSPropertyOp30
 70
     1
102
RTVSPropertyOp31
 70
     1
102
RTVSPropertyOp32
 70
     1
102
RTVSPropertyOp33
 70
     1
102
RTVSPropertyOp34
 70
     1
102
RTVSPropertyOp35
 70
     1
102
RTVSPropertyOp36
 70
     1
102
RTVSPropertyOp37
 70
     1
102
RTVSPropertyOp38
 70
     1
102
RTVSPropertyOp39
 70
     1
102
RTVSPropertyOp40
 70
     1
102
RTVSPropertyOp41
 70
     1
102
RTVSPropertyOp42
 70
     1
102
RTVSPropertyOp43
 70
     1
102
RTVSPropertyOp44
 70
     1
102
RTVSPropertyOp45
 70
     1
102
RTVSPropertyOp46
 70
     1
102
RTVSPropertyOp47
 70
     1
102
RTVSPropertyOp48
 70
     1
102
RTVSPropertyOp49
 70
     1
102
RTVSPropertyOp50
 70
     1
102
RTVSPropertyOp51
 70
     0
102
RTVSPropertyOp52
 70
     0
102
RTVSPropertyOp53
 70
     1
102
RTVSPropertyOp54
 70
     1
102
RTVSPropertyOp55
 70
     1
102
RTVSPropertyOp56
 70
     1
102
RTVSPropertyOp57
 70
     1
102
RTVSPost2010Prop28
280
     0
102
RTVSPost2010PropOp28
 70
     1
102
RTVSPost2010Prop29
280
     1
102
RTVSPost2010PropOp29
 70
     1
102
RTVSPost2010Prop30
280
     1
102
RTVSPost2010PropOp30
 70
     1
102
RTVSPost2010Prop31
280
     0
102
RTVSPost2010PropOp31
 70
     1
102
RTVSPost2010Prop32
280
     0
102
RTVSPost2010PropOp32
 70
     1
102
RTVSPost2010Prop33
280
     0
102
RTVSPost2010PropOp33
 70
     1
102
RTVSPost2010Prop34
280
     0
102
RTVSPost2010PropOp34
 70
     1
102
RTVSPost2010Prop35
280
     0
102
RTVSPost2010PropOp35
 70
     1
102
RTVSPost2010Prop36
280
     0
102
RTVSPost2010PropOp36
 70
     1
102
RTVSPost2010Prop37
 90
       50
102
RTVSPost2010PropOp37
 70
     1
102
RTVSPost2010Prop38
140
0.0
102
RTVSPost2010PropOp38
 70
     1
102
RTVSPost2010Prop39
140
1.0
102
RTVSPost2010PropOp39
 70
     1
102
RTVSPost2010Prop40
 90
        0
102
RTVSPost2010PropOp40
 70
     1
102
RTVSPost2010Prop41ColorIndex
 90
       18
102
RTVSPost2010Prop41ColorRGB
 90
        0
102
RTVSPost2010PropOp41
 70
     1
102
RTVSPost2010Prop42
 90
       50
102
RTVSPost2010PropOp42
 70
     1
102
RTVSPost2010Prop43
 90
        3
102
RTVSPost2010PropOp43
 70
     1
102
RTVSPost2010Prop44ColorIndex
 90
        5
102
RTVSPost2010Prop44ColorRGB
 90
      255
102
RTVSPost2010PropOp44
 70
     1
102
RTVSPost2010Prop45
280
     0
102
RTVSPost2010PropOp45
 70
     1
102
RTVSPost2010Prop46
 90
       50
102
RTVSPost2010PropOp46
 70
     1
102
RTVSPost2010Prop47
 90
       50
102
RTVSPost2010PropOp47
 70
     1
102
RTVSPost2010Prop48
 90
       50
102
RTVSPost2010PropOp48
 70
     1
102
RTVSPost2010Prop49
280
     0
102
RTVSPost2010PropOp49
 70
     1
102
RTVSPost2010Prop50
 90
       50
102
RTVSPost2010PropOp50
 70
     1
102
RTVSPost2010Prop51ColorIndex
 90
      256
102
RTVSPost2010Prop51ColorRGB
 90
-16777216
102
RTVSPost2010PropOp51
 70
     0
102
RTVSPost2010Prop52
140
1.0
102
RTVSPost2010PropOp52
 70
     0
102
RTVSPost2010Prop53
 90
        2
102
RTVSPost2010PropOp53
 70
     1
102
RTVSPost2010Prop54
  1
strokes_ogs.tif
102
RTVSPost2010PropOp54
 70
     1
102
RTVSPost2010Prop55
280
     0
102
RTVSPost2010PropOp55
 70
     1
102
RTVSPost2010Prop56
140
1.0
102
RTVSPost2010PropOp56
 70
     1
102
RTVSPost2010Prop57
140
1.0
102
RTVSPost2010PropOp57
 70
     1
  0
XRECORD
  5
804
102
{ACAD_REACTORS
330
803
102
}
330
803
100
AcDbXrecord
280
     1
102
RTVSPropertyOp0
 70
     1
102
RTVSPropertyOp1
 70
     1
102
RTVSPropertyOp2
 70
     1
102
RTVSPropertyOp3
 70
     1
102
RTVSPropertyOp4
 70
     1
102
RTVSPropertyOp5
 70
     1
102
RTVSPropertyOp6
 70
     1
102
RTVSPropertyOp7
 70
     1
102
RTVSPropertyOp8
 70
     1
102
RTVSPropertyOp9
 70
     1
102
RTVSPropertyOp10
 70
     1
102
RTVSPropertyOp11
 70
     1
102
RTVSPropertyOp12
 70
     1
102
RTVSPropertyOp13
 70
     1
102
RTVSPropertyOp14
 70
     1
102
RTVSPropertyOp15
 70
     1
102
RTVSPropertyOp16
 70
     1
102
RTVSPropertyOp17
 70
     1
102
RTVSPropertyOp18
 70
     1
102
RTVSPropertyOp19
 70
     1
102
RTVSPropertyOp20
 70
     1
102
RTVSPropertyOp21
 70
     1
102
RTVSPropertyOp22
 70
     1
102
RTVSPropertyOp23
 70
     1
102
RTVSPropertyOp24
 70
     1
102
RTVSPropertyOp25
 70
     1
102
RTVSPropertyOp26
 70
     1
102
RTVSPropertyOp27
 70
     1
102
RTVSPropertyOp28
 70
     1
102
RTVSPropertyOp29
 70
     1
102
RTVSPropertyOp30
 70
     1
102
RTVSPropertyOp31
 70
     1
102
RTVSPropertyOp32
 70
     1
102
RTVSPropertyOp33
 70
     1
102
RTVSPropertyOp34
 70
     1
102
RTVSPropertyOp35
 70
     1
102
RTVSPropertyOp36
 70
     1
102
RTVSPropertyOp37
 70
     1
102
RTVSPropertyOp38
 70
     1
102
RTVSPropertyOp39
 70
     1
102
RTVSPropertyOp40
 70
     1
102
RTVSPropertyOp41
 70
     1
102
RTVSPropertyOp42
 70
     1
102
RTVSPropertyOp43
 70
     1
102
RTVSPropertyOp44
 70
     1
102
RTVSPropertyOp45
 70
     1
102
RTVSPropertyOp46
 70
     1
102
RTVSPropertyOp47
 70
     1
102
RTVSPropertyOp48
 70
     1
102
RTVSPropertyOp49
 70
     1
102
RTVSPropertyOp50
 70
     1
102
RTVSPropertyOp51
 70
     0
102
RTVSPropertyOp52
 70
     0
102
RTVSPropertyOp53
 70
     1
102
RTVSPropertyOp54
 70
     1
102
RTVSPropertyOp55
 70
     1
102
RTVSPropertyOp56
 70
     1
102
RTVSPropertyOp57
 70
     1
102
RTVSPost2010Prop28
280
     0
102
RTVSPost2010PropOp28
 70
     1
102
RTVSPost2010Prop29
280
     1
102
RTVSPost2010PropOp29
 70
     1
102
RTVSPost2010Prop30
280
     1
102
RTVSPost2010PropOp30
 70
     1
102
RTVSPost2010Prop31
280
     0
102
RTVSPost2010PropOp31
 70
     1
102
RTVSPost2010Prop32
280
     0
102
RTVSPost2010PropOp32
 70
     1
102
RTVSPost2010Prop33
280
     0
102
RTVSPost2010PropOp33
 70
     1
102
RTVSPost2010Prop34
280
     0
102
RTVSPost2010PropOp34
 70
     1
102
RTVSPost2010Prop35
280
     0
102
RTVSPost2010PropOp35
 70
     1
102
RTVSPost2010Prop36
280
     0
102
RTVSPost2010PropOp36
 70
     1
102
RTVSPost2010Prop37
 90
       50
102
RTVSPost2010PropOp37
 70
     1
102
RTVSPost2010Prop38
140
0.0
102
RTVSPost2010PropOp38
 70
     1
102
RTVSPost2010Prop39
140
1.0
102
RTVSPost2010PropOp39
 70
     1
102
RTVSPost2010Prop40
 90
        0
102
RTVSPost2010PropOp40
 70
     1
102
RTVSPost2010Prop41ColorIndex
 90
       18
102
RTVSPost2010Prop41ColorRGB
 90
        0
102
RTVSPost2010PropOp41
 70
     1
102
RTVSPost2010Prop42
 90
       50
102
RTVSPost2010PropOp42
 70
     1
102
RTVSPost2010Prop43
 90
        3
102
RTVSPost2010PropOp43
 70
     1
102
RTVSPost2010Prop44ColorIndex
 90
        5
102
RTVSPost2010Prop44ColorRGB
 90
      255
102
RTVSPost2010PropOp44
 70
     1
102
RTVSPost2010Prop45
280
     0
102
RTVSPost2010PropOp45
 70
     1
102
RTVSPost2010Prop46
 90
       50
102
RTVSPost2010PropOp46
 70
     1
102
RTVSPost2010Prop47
 90
       50
102
RTVSPost2010PropOp47
 70
     1
102
RTVSPost2010Prop48
 90
       50
102
RTVSPost2010PropOp48
 70
     1
102
RTVSPost2010Prop49
280
     0
102
RTVSPost2010PropOp49
 70
     1
102
RTVSPost2010Prop50
 90
       50
102
RTVSPost2010PropOp50
 70
     1
102
RTVSPost2010Prop51ColorIndex
 90
      256
102
RTVSPost2010Prop51ColorRGB
 90
-16777216
102
RTVSPost2010PropOp51
 70
     0
102
RTVSPost2010Prop52
140
1.0
102
RTVSPost2010PropOp52
 70
     0
102
RTVSPost2010Prop53
 90
        2
102
RTVSPost2010PropOp53
 70
     1
102
RTVSPost2010Prop54
  1
strokes_ogs.tif
102
RTVSPost2010PropOp54
 70
     1
102
RTVSPost2010Prop55
280
     0
102
RTVSPost2010PropOp55
 70
     1
102
RTVSPost2010Prop56
140
1.0
102
RTVSPost2010PropOp56
 70
     1
102
RTVSPost2010Prop57
140
1.0
102
RTVSPost2010PropOp57
 70
     1
  0
XRECORD
  5
806
102
{ACAD_REACTORS
330
805
102
}
330
805
100
AcDbXrecord
280
     1
102
RTVSPropertyOp0
 70
     1
102
RTVSPropertyOp1
 70
     1
102
RTVSPropertyOp2
 70
     1
102
RTVSPropertyOp3
 70
     1
102
RTVSPropertyOp4
 70
     1
102
RTVSPropertyOp5
 70
     1
102
RTVSPropertyOp6
 70
     1
102
RTVSPropertyOp7
 70
     1
102
RTVSPropertyOp8
 70
     1
102
RTVSPropertyOp9
 70
     1
102
RTVSPropertyOp10
 70
     1
102
RTVSPropertyOp11
 70
     1
102
RTVSPropertyOp12
 70
     1
102
RTVSPropertyOp13
 70
     1
102
RTVSPropertyOp14
 70
     1
102
RTVSPropertyOp15
 70
     1
102
RTVSPropertyOp16
 70
     1
102
RTVSPropertyOp17
 70
     1
102
RTVSPropertyOp18
 70
     1
102
RTVSPropertyOp19
 70
     1
102
RTVSPropertyOp20
 70
     1
102
RTVSPropertyOp21
 70
     1
102
RTVSPropertyOp22
 70
     1
102
RTVSPropertyOp23
 70
     1
102
RTVSPropertyOp24
 70
     1
102
RTVSPropertyOp25
 70
     1
102
RTVSPropertyOp26
 70
     1
102
RTVSPropertyOp27
 70
     1
102
RTVSPropertyOp28
 70
     1
102
RTVSPropertyOp29
 70
     1
102
RTVSPropertyOp30
 70
     1
102
RTVSPropertyOp31
 70
     1
102
RTVSPropertyOp32
 70
     1
102
RTVSPropertyOp33
 70
     1
102
RTVSPropertyOp34
 70
     1
102
RTVSPropertyOp35
 70
     1
102
RTVSPropertyOp36
 70
     1
102
RTVSPropertyOp37
 70
     1
102
RTVSPropertyOp38
 70
     1
102
RTVSPropertyOp39
 70
     1
102
RTVSPropertyOp40
 70
     1
102
RTVSPropertyOp41
 70
     1
102
RTVSPropertyOp42
 70
     1
102
RTVSPropertyOp43
 70
     1
102
RTVSPropertyOp44
 70
     1
102
RTVSPropertyOp45
 70
     1
102
RTVSPropertyOp46
 70
     1
102
RTVSPropertyOp47
 70
     1
102
RTVSPropertyOp48
 70
     1
102
RTVSPropertyOp49
 70
     1
102
RTVSPropertyOp50
 70
     1
102
RTVSPropertyOp51
 70
     0
102
RTVSPropertyOp52
 70
     0
102
RTVSPropertyOp53
 70
     1
102
RTVSPropertyOp54
 70
     1
102
RTVSPropertyOp55
 70
     1
102
RTVSPropertyOp56
 70
     1
102
RTVSPropertyOp57
 70
     1
102
RTVSPost2010Prop28
280
     0
102
RTVSPost2010PropOp28
 70
     1
102
RTVSPost2010Prop29
280
     1
102
RTVSPost2010PropOp29
 70
     1
102
RTVSPost2010Prop30
280
     1
102
RTVSPost2010PropOp30
 70
     1
102
RTVSPost2010Prop31
280
     0
102
RTVSPost2010PropOp31
 70
     1
102
RTVSPost2010Prop32
280
     0
102
RTVSPost2010PropOp32
 70
     1
102
RTVSPost2010Prop33
280
     0
102
RTVSPost2010PropOp33
 70
     1
102
RTVSPost2010Prop34
280
     0
102
RTVSPost2010PropOp34
 70
     1
102
RTVSPost2010Prop35
280
     0
102
RTVSPost2010PropOp35
 70
     1
102
RTVSPost2010Prop36
280
     0
102
RTVSPost2010PropOp36
 70
     1
102
RTVSPost2010Prop37
 90
       50
102
RTVSPost2010PropOp37
 70
     1
102
RTVSPost2010Prop38
140
0.0
102
RTVSPost2010PropOp38
 70
     1
102
RTVSPost2010Prop39
140
1.0
102
RTVSPost2010PropOp39
 70
     1
102
RTVSPost2010Prop40
 90
        0
102
RTVSPost2010PropOp40
 70
     1
102
RTVSPost2010Prop41ColorIndex
 90
       18
102
RTVSPost2010Prop41ColorRGB
 90
        0
102
RTVSPost2010PropOp41
 70
     1
102
RTVSPost2010Prop42
 90
       50
102
RTVSPost2010PropOp42
 70
     1
102
RTVSPost2010Prop43
 90
        3
102
RTVSPost2010PropOp43
 70
     1
102
RTVSPost2010Prop44ColorIndex
 90
        5
102
RTVSPost2010Prop44ColorRGB
 90
      255
102
RTVSPost2010PropOp44
 70
     1
102
RTVSPost2010Prop45
280
     0
102
RTVSPost2010PropOp45
 70
     1
102
RTVSPost2010Prop46
 90
       50
102
RTVSPost2010PropOp46
 70
     1
102
RTVSPost2010Prop47
 90
       50
102
RTVSPost2010PropOp47
 70
     1
102
RTVSPost2010Prop48
 90
       50
102
RTVSPost2010PropOp48
 70
     1
102
RTVSPost2010Prop49
280
     0
102
RTVSPost2010PropOp49
 70
     1
102
RTVSPost2010Prop50
 90
       50
102
RTVSPost2010PropOp50
 70
     1
102
RTVSPost2010Prop51ColorIndex
 90
      256
102
RTVSPost2010Prop51ColorRGB
 90
-16777216
102
RTVSPost2010PropOp51
 70
     0
102
RTVSPost2010Prop52
140
1.0
102
RTVSPost2010PropOp52
 70
     0
102
RTVSPost2010Prop53
 90
        2
102
RTVSPost2010PropOp53
 70
     1
102
RTVSPost2010Prop54
  1
strokes_ogs.tif
102
RTVSPost2010PropOp54
 70
     1
102
RTVSPost2010Prop55
280
     0
102
RTVSPost2010PropOp55
 70
     1
102
RTVSPost2010Prop56
140
1.0
102
RTVSPost2010PropOp56
 70
     1
102
RTVSPost2010Prop57
140
1.0
102
RTVSPost2010PropOp57
 70
     1
  0
XRECORD
  5
80C
102
{ACAD_REACTORS
330
80B
102
}
330
80B
100
AcDbXrecord
280
     1
102
RTVSPropertyOp0
 70
     1
102
RTVSPropertyOp1
 70
     1
102
RTVSPropertyOp2
 70
     1
102
RTVSPropertyOp3
 70
     1
102
RTVSPropertyOp4
 70
     1
102
RTVSPropertyOp5
 70
     1
102
RTVSPropertyOp6
 70
     1
102
RTVSPropertyOp7
 70
     1
102
RTVSPropertyOp8
 70
     1
102
RTVSPropertyOp9
 70
     1
102
RTVSPropertyOp10
 70
     1
102
RTVSPropertyOp11
 70
     1
102
RTVSPropertyOp12
 70
     1
102
RTVSPropertyOp13
 70
     1
102
RTVSPropertyOp14
 70
     1
102
RTVSPropertyOp15
 70
     1
102
RTVSPropertyOp16
 70
     1
102
RTVSPropertyOp17
 70
     1
102
RTVSPropertyOp18
 70
     1
102
RTVSPropertyOp19
 70
     1
102
RTVSPropertyOp20
 70
     1
102
RTVSPropertyOp21
 70
     1
102
RTVSPropertyOp22
 70
     1
102
RTVSPropertyOp23
 70
     1
102
RTVSPropertyOp24
 70
     1
102
RTVSPropertyOp25
 70
     1
102
RTVSPropertyOp26
 70
     1
102
RTVSPropertyOp27
 70
     1
102
RTVSPropertyOp28
 70
     1
102
RTVSPropertyOp29
 70
     1
102
RTVSPropertyOp30
 70
     1
102
RTVSPropertyOp31
 70
     1
102
RTVSPropertyOp32
 70
     1
102
RTVSPropertyOp33
 70
     1
102
RTVSPropertyOp34
 70
     1
102
RTVSPropertyOp35
 70
     1
102
RTVSPropertyOp36
 70
     1
102
RTVSPropertyOp37
 70
     1
102
RTVSPropertyOp38
 70
     1
102
RTVSPropertyOp39
 70
     1
102
RTVSPropertyOp40
 70
     1
102
RTVSPropertyOp41
 70
     1
102
RTVSPropertyOp42
 70
     1
102
RTVSPropertyOp43
 70
     1
102
RTVSPropertyOp44
 70
     1
102
RTVSPropertyOp45
 70
     1
102
RTVSPropertyOp46
 70
     1
102
RTVSPropertyOp47
 70
     1
102
RTVSPropertyOp48
 70
     1
102
RTVSPropertyOp49
 70
     1
102
RTVSPropertyOp50
 70
     1
102
RTVSPropertyOp51
 70
     0
102
RTVSPropertyOp52
 70
     0
102
RTVSPropertyOp53
 70
     1
102
RTVSPropertyOp54
 70
     1
102
RTVSPropertyOp55
 70
     1
102
RTVSPropertyOp56
 70
     1
102
RTVSPropertyOp57
 70
     1
102
RTVSPost2010Prop28
280
     0
102
RTVSPost2010PropOp28
 70
     1
102
RTVSPost2010Prop29
280
     1
102
RTVSPost2010PropOp29
 70
     1
102
RTVSPost2010Prop30
280
     1
102
RTVSPost2010PropOp30
 70
     1
102
RTVSPost2010Prop31
280
     0
102
RTVSPost2010PropOp31
 70
     1
102
RTVSPost2010Prop32
280
     0
102
RTVSPost2010PropOp32
 70
     1
102
RTVSPost2010Prop33
280
     0
102
RTVSPost2010PropOp33
 70
     1
102
RTVSPost2010Prop34
280
     0
102
RTVSPost2010PropOp34
 70
     1
102
RTVSPost2010Prop35
280
     0
102
RTVSPost2010PropOp35
 70
     1
102
RTVSPost2010Prop36
280
     0
102
RTVSPost2010PropOp36
 70
     1
102
RTVSPost2010Prop37
 90
       50
102
RTVSPost2010PropOp37
 70
     1
102
RTVSPost2010Prop38
140
0.0
102
RTVSPost2010PropOp38
 70
     1
102
RTVSPost2010Prop39
140
1.0
102
RTVSPost2010PropOp39
 70
     1
102
RTVSPost2010Prop40
 90
        0
102
RTVSPost2010PropOp40
 70
     1
102
RTVSPost2010Prop41ColorIndex
 90
       18
102
RTVSPost2010Prop41ColorRGB
 90
        0
102
RTVSPost2010PropOp41
 70
     1
102
RTVSPost2010Prop42
 90
       50
102
RTVSPost2010PropOp42
 70
     1
102
RTVSPost2010Prop43
 90
        3
102
RTVSPost2010PropOp43
 70
     1
102
RTVSPost2010Prop44ColorIndex
 90
        5
102
RTVSPost2010Prop44ColorRGB
 90
      255
102
RTVSPost2010PropOp44
 70
     1
102
RTVSPost2010Prop45
280
     0
102
RTVSPost2010PropOp45
 70
     1
102
RTVSPost2010Prop46
 90
       50
102
RTVSPost2010PropOp46
 70
     1
102
RTVSPost2010Prop47
 90
       50
102
RTVSPost2010PropOp47
 70
     1
102
RTVSPost2010Prop48
 90
       50
102
RTVSPost2010PropOp48
 70
     1
102
RTVSPost2010Prop49
280
     0
102
RTVSPost2010PropOp49
 70
     1
102
RTVSPost2010Prop50
 90
       50
102
RTVSPost2010PropOp50
 70
     1
102
RTVSPost2010Prop51ColorIndex
 90
      256
102
RTVSPost2010Prop51ColorRGB
 90
-16777216
102
RTVSPost2010PropOp51
 70
     0
102
RTVSPost2010Prop52
140
1.0
102
RTVSPost2010PropOp52
 70
     0
102
RTVSPost2010Prop53
 90
        2
102
RTVSPost2010PropOp53
 70
     1
102
RTVSPost2010Prop54
  1
strokes_ogs.tif
102
RTVSPost2010PropOp54
 70
     1
102
RTVSPost2010Prop55
280
     0
102
RTVSPost2010PropOp55
 70
     1
102
RTVSPost2010Prop56
140
1.0
102
RTVSPost2010PropOp56
 70
     1
102
RTVSPost2010Prop57
140
1.0
102
RTVSPost2010PropOp57
 70
     1
  0
XRECORD
  5
820
102
{ACAD_REACTORS
330
81F
102
}
330
81F
100
AcDbXrecord
280
     1
102
RTVSPropertyOp0
 70
     0
102
RTVSPropertyOp1
 70
     0
102
RTVSPropertyOp2
 70
     0
102
RTVSPropertyOp3
 70
     0
102
RTVSPropertyOp4
 70
     0
102
RTVSPropertyOp5
 70
     0
102
RTVSPropertyOp6
 70
     0
102
RTVSPropertyOp7
 70
     0
102
RTVSPropertyOp8
 70
     0
102
RTVSPropertyOp9
 70
     0
102
RTVSPropertyOp10
 70
     0
102
RTVSPropertyOp11
 70
     0
102
RTVSPropertyOp12
 70
     0
102
RTVSPropertyOp13
 70
     0
102
RTVSPropertyOp14
 70
     2
102
RTVSPropertyOp15
 70
     0
102
RTVSPropertyOp16
 70
     0
102
RTVSPropertyOp17
 70
     0
102
RTVSPropertyOp18
 70
     0
102
RTVSPropertyOp19
 70
     0
102
RTVSPropertyOp20
 70
     0
102
RTVSPropertyOp21
 70
     0
102
RTVSPropertyOp22
 70
     0
102
RTVSPropertyOp23
 70
     0
102
RTVSPropertyOp24
 70
     0
102
RTVSPropertyOp25
 70
     0
102
RTVSPropertyOp26
 70
     0
102
RTVSPropertyOp27
 70
     0
102
RTVSPropertyOp28
 70
     0
102
RTVSPropertyOp29
 70
     0
102
RTVSPropertyOp30
 70
     0
102
RTVSPropertyOp31
 70
     0
102
RTVSPropertyOp32
 70
     0
102
RTVSPropertyOp33
 70
     0
102
RTVSPropertyOp34
 70
     0
102
RTVSPropertyOp35
 70
     0
102
RTVSPropertyOp36
 70
     0
102
RTVSPropertyOp37
 70
     0
102
RTVSPropertyOp38
 70
     0
102
RTVSPropertyOp39
 70
     0
102
RTVSPropertyOp40
 70
     0
102
RTVSPropertyOp41
 70
     0
102
RTVSPropertyOp42
 70
     0
102
RTVSPropertyOp43
 70
     0
102
RTVSPropertyOp44
 70
     0
102
RTVSPropertyOp45
 70
     0
102
RTVSPropertyOp46
 70
     0
102
RTVSPropertyOp47
 70
     0
102
RTVSPropertyOp48
 70
     0
102
RTVSPropertyOp49
 70
     0
102
RTVSPropertyOp50
 70
     0
102
RTVSPropertyOp51
 70
     0
102
RTVSPropertyOp52
 70
     0
102
RTVSPropertyOp53
 70
     0
102
RTVSPropertyOp54
 70
     0
102
RTVSPropertyOp55
 70
     0
102
RTVSPropertyOp56
 70
     0
102
RTVSPropertyOp57
 70
     0
102
RTVSPost2010Prop28
280
     0
102
RTVSPost2010PropOp28
 70
     0
102
RTVSPost2010Prop29
280
     1
102
RTVSPost2010PropOp29
 70
     0
102
RTVSPost2010Prop30
280
     1
102
RTVSPost2010PropOp30
 70
     0
102
RTVSPost2010Prop31
280
     0
102
RTVSPost2010PropOp31
 70
     0
102
RTVSPost2010Prop32
280
     0
102
RTVSPost2010PropOp32
 70
     0
102
RTVSPost2010Prop33
280
     0
102
RTVSPost2010PropOp33
 70
     0
102
RTVSPost2010Prop34
280
     0
102
RTVSPost2010PropOp34
 70
     0
102
RTVSPost2010Prop35
280
     0
102
RTVSPost2010PropOp35
 70
     0
102
RTVSPost2010Prop36
280
     0
102
RTVSPost2010PropOp36
 70
     0
102
RTVSPost2010Prop37
 90
       50
102
RTVSPost2010PropOp37
 70
     0
102
RTVSPost2010Prop38
140
0.0
102
RTVSPost2010PropOp38
 70
     0
102
RTVSPost2010Prop39
140
1.0
102
RTVSPost2010PropOp39
 70
     0
102
RTVSPost2010Prop40
 90
        0
102
RTVSPost2010PropOp40
 70
     0
102
RTVSPost2010Prop41ColorIndex
 90
       18
102
RTVSPost2010Prop41ColorRGB
 90
        0
102
RTVSPost2010PropOp41
 70
     0
102
RTVSPost2010Prop42
 90
       50
102
RTVSPost2010PropOp42
 70
     0
102
RTVSPost2010Prop43
 90
        3
102
RTVSPost2010PropOp43
 70
     0
102
RTVSPost2010Prop44ColorIndex
 90
        5
102
RTVSPost2010Prop44ColorRGB
 90
      255
102
RTVSPost2010PropOp44
 70
     0
102
RTVSPost2010Prop45
280
     0
102
RTVSPost2010PropOp45
 70
     0
102
RTVSPost2010Prop46
 90
       50
102
RTVSPost2010PropOp46
 70
     0
102
RTVSPost2010Prop47
 90
       50
102
RTVSPost2010PropOp47
 70
     0
102
RTVSPost2010Prop48
 90
       50
102
RTVSPost2010PropOp48
 70
     0
102
RTVSPost2010Prop49
280
     0
102
RTVSPost2010PropOp49
 70
     0
102
RTVSPost2010Prop50
 90
       50
102
RTVSPost2010PropOp50
 70
     0
102
RTVSPost2010Prop51ColorIndex
 90
      256
102
RTVSPost2010Prop51ColorRGB
 90
-16777216
102
RTVSPost2010PropOp51
 70
     0
102
RTVSPost2010Prop52
140
1.0
102
RTVSPost2010PropOp52
 70
     0
102
RTVSPost2010Prop53
 90
        2
102
RTVSPost2010PropOp53
 70
     0
102
RTVSPost2010Prop54
  1
strokes_ogs.tif
102
RTVSPost2010PropOp54
 70
     0
102
RTVSPost2010Prop55
280
     0
102
RTVSPost2010PropOp55
 70
     0
102
RTVSPost2010Prop56
140
1.0
102
RTVSPost2010PropOp56
 70
     0
102
RTVSPost2010Prop57
140
1.0
102
RTVSPost2010PropOp57
 70
     0
  0
XRECORD
  5
81A
102
{ACAD_REACTORS
330
819
102
}
330
819
100
AcDbXrecord
280
     1
102
RTVSPropertyOp0
 70
     1
102
RTVSPropertyOp1
 70
     1
102
RTVSPropertyOp2
 70
     1
102
RTVSPropertyOp3
 70
     1
102
RTVSPropertyOp4
 70
     1
102
RTVSPropertyOp5
 70
     1
102
RTVSPropertyOp6
 70
     1
102
RTVSPropertyOp7
 70
     1
102
RTVSPropertyOp8
 70
     1
102
RTVSPropertyOp9
 70
     1
102
RTVSPropertyOp10
 70
     1
102
RTVSPropertyOp11
 70
     1
102
RTVSPropertyOp12
 70
     1
102
RTVSPropertyOp13
 70
     1
102
RTVSPropertyOp14
 70
     1
102
RTVSPropertyOp15
 70
     1
102
RTVSPropertyOp16
 70
     1
102
RTVSPropertyOp17
 70
     1
102
RTVSPropertyOp18
 70
     1
102
RTVSPropertyOp19
 70
     1
102
RTVSPropertyOp20
 70
     1
102
RTVSPropertyOp21
 70
     1
102
RTVSPropertyOp22
 70
     1
102
RTVSPropertyOp23
 70
     1
102
RTVSPropertyOp24
 70
     1
102
RTVSPropertyOp25
 70
     1
102
RTVSPropertyOp26
 70
     1
102
RTVSPropertyOp27
 70
     1
102
RTVSPropertyOp28
 70
     1
102
RTVSPropertyOp29
 70
     1
102
RTVSPropertyOp30
 70
     1
102
RTVSPropertyOp31
 70
     1
102
RTVSPropertyOp32
 70
     1
102
RTVSPropertyOp33
 70
     1
102
RTVSPropertyOp34
 70
     1
102
RTVSPropertyOp35
 70
     1
102
RTVSPropertyOp36
 70
     1
102
RTVSPropertyOp37
 70
     1
102
RTVSPropertyOp38
 70
     1
102
RTVSPropertyOp39
 70
     1
102
RTVSPropertyOp40
 70
     1
102
RTVSPropertyOp41
 70
     1
102
RTVSPropertyOp42
 70
     1
102
RTVSPropertyOp43
 70
     1
102
RTVSPropertyOp44
 70
     1
102
RTVSPropertyOp45
 70
     1
102
RTVSPropertyOp46
 70
     1
102
RTVSPropertyOp47
 70
     1
102
RTVSPropertyOp48
 70
     1
102
RTVSPropertyOp49
 70
     1
102
RTVSPropertyOp50
 70
     1
102
RTVSPropertyOp51
 70
     0
102
RTVSPropertyOp52
 70
     0
102
RTVSPropertyOp53
 70
     1
102
RTVSPropertyOp54
 70
     1
102
RTVSPropertyOp55
 70
     1
102
RTVSPropertyOp56
 70
     1
102
RTVSPropertyOp57
 70
     1
102
RTVSPost2010Prop28
280
     0
102
RTVSPost2010PropOp28
 70
     1
102
RTVSPost2010Prop29
280
     1
102
RTVSPost2010PropOp29
 70
     1
102
RTVSPost2010Prop30
280
     1
102
RTVSPost2010PropOp30
 70
     1
102
RTVSPost2010Prop31
280
     0
102
RTVSPost2010PropOp31
 70
     1
102
RTVSPost2010Prop32
280
     0
102
RTVSPost2010PropOp32
 70
     1
102
RTVSPost2010Prop33
280
     0
102
RTVSPost2010PropOp33
 70
     1
102
RTVSPost2010Prop34
280
     0
102
RTVSPost2010PropOp34
 70
     1
102
RTVSPost2010Prop35
280
     0
102
RTVSPost2010PropOp35
 70
     1
102
RTVSPost2010Prop36
280
     0
102
RTVSPost2010PropOp36
 70
     1
102
RTVSPost2010Prop37
 90
       50
102
RTVSPost2010PropOp37
 70
     1
102
RTVSPost2010Prop38
140
0.0
102
RTVSPost2010PropOp38
 70
     1
102
RTVSPost2010Prop39
140
1.0
102
RTVSPost2010PropOp39
 70
     1
102
RTVSPost2010Prop40
 90
        0
102
RTVSPost2010PropOp40
 70
     1
102
RTVSPost2010Prop41ColorIndex
 90
       18
102
RTVSPost2010Prop41ColorRGB
 90
        0
102
RTVSPost2010PropOp41
 70
     1
102
RTVSPost2010Prop42
 90
       50
102
RTVSPost2010PropOp42
 70
     1
102
RTVSPost2010Prop43
 90
        3
102
RTVSPost2010PropOp43
 70
     1
102
RTVSPost2010Prop44ColorIndex
 90
        5
102
RTVSPost2010Prop44ColorRGB
 90
      255
102
RTVSPost2010PropOp44
 70
     1
102
RTVSPost2010Prop45
280
     0
102
RTVSPost2010PropOp45
 70
     1
102
RTVSPost2010Prop46
 90
       50
102
RTVSPost2010PropOp46
 70
     1
102
RTVSPost2010Prop47
 90
       50
102
RTVSPost2010PropOp47
 70
     1
102
RTVSPost2010Prop48
 90
       50
102
RTVSPost2010PropOp48
 70
     1
102
RTVSPost2010Prop49
280
     0
102
RTVSPost2010PropOp49
 70
     1
102
RTVSPost2010Prop50
 90
       50
102
RTVSPost2010PropOp50
 70
     1
102
RTVSPost2010Prop51ColorIndex
 90
      256
102
RTVSPost2010Prop51ColorRGB
 90
-16777216
102
RTVSPost2010PropOp51
 70
     0
102
RTVSPost2010Prop52
140
1.0
102
RTVSPost2010PropOp52
 70
     0
102
RTVSPost2010Prop53
 90
        2
102
RTVSPost2010PropOp53
 70
     1
102
RTVSPost2010Prop54
  1
strokes_ogs.tif
102
RTVSPost2010PropOp54
 70
     1
102
RTVSPost2010Prop55
280
     0
102
RTVSPost2010PropOp55
 70
     1
102
RTVSPost2010Prop56
140
1.0
102
RTVSPost2010PropOp56
 70
     1
102
RTVSPost2010Prop57
140
1.0
102
RTVSPost2010PropOp57
 70
     1
  0
XRECORD
  5
822
102
{ACAD_REACTORS
330
821
102
}
330
821
100
AcDbXrecord
280
     1
102
RTVSPropertyOp0
 70
     0
102
RTVSPropertyOp1
 70
     0
102
RTVSPropertyOp2
 70
     0
102
RTVSPropertyOp3
 70
     0
102
RTVSPropertyOp4
 70
     0
102
RTVSPropertyOp5
 70
     0
102
RTVSPropertyOp6
 70
     0
102
RTVSPropertyOp7
 70
     0
102
RTVSPropertyOp8
 70
     0
102
RTVSPropertyOp9
 70
     0
102
RTVSPropertyOp10
 70
     0
102
RTVSPropertyOp11
 70
     0
102
RTVSPropertyOp12
 70
     0
102
RTVSPropertyOp13
 70
     0
102
RTVSPropertyOp14
 70
     2
102
RTVSPropertyOp15
 70
     0
102
RTVSPropertyOp16
 70
     0
102
RTVSPropertyOp17
 70
     0
102
RTVSPropertyOp18
 70
     0
102
RTVSPropertyOp19
 70
     0
102
RTVSPropertyOp20
 70
     0
102
RTVSPropertyOp21
 70
     0
102
RTVSPropertyOp22
 70
     0
102
RTVSPropertyOp23
 70
     0
102
RTVSPropertyOp24
 70
     0
102
RTVSPropertyOp25
 70
     0
102
RTVSPropertyOp26
 70
     0
102
RTVSPropertyOp27
 70
     0
102
RTVSPropertyOp28
 70
     0
102
RTVSPropertyOp29
 70
     0
102
RTVSPropertyOp30
 70
     0
102
RTVSPropertyOp31
 70
     0
102
RTVSPropertyOp32
 70
     0
102
RTVSPropertyOp33
 70
     0
102
RTVSPropertyOp34
 70
     0
102
RTVSPropertyOp35
 70
     0
102
RTVSPropertyOp36
 70
     0
102
RTVSPropertyOp37
 70
     0
102
RTVSPropertyOp38
 70
     0
102
RTVSPropertyOp39
 70
     0
102
RTVSPropertyOp40
 70
     0
102
RTVSPropertyOp41
 70
     0
102
RTVSPropertyOp42
 70
     0
102
RTVSPropertyOp43
 70
     0
102
RTVSPropertyOp44
 70
     0
102
RTVSPropertyOp45
 70
     0
102
RTVSPropertyOp46
 70
     0
102
RTVSPropertyOp47
 70
     0
102
RTVSPropertyOp48
 70
     0
102
RTVSPropertyOp49
 70
     0
102
RTVSPropertyOp50
 70
     0
102
RTVSPropertyOp51
 70
     0
102
RTVSPropertyOp52
 70
     0
102
RTVSPropertyOp53
 70
     0
102
RTVSPropertyOp54
 70
     0
102
RTVSPropertyOp55
 70
     0
102
RTVSPropertyOp56
 70
     0
102
RTVSPropertyOp57
 70
     0
102
RTVSPost2010Prop28
280
     0
102
RTVSPost2010PropOp28
 70
     0
102
RTVSPost2010Prop29
280
     1
102
RTVSPost2010PropOp29
 70
     0
102
RTVSPost2010Prop30
280
     1
102
RTVSPost2010PropOp30
 70
     0
102
RTVSPost2010Prop31
280
     0
102
RTVSPost2010PropOp31
 70
     0
102
RTVSPost2010Prop32
280
     0
102
RTVSPost2010PropOp32
 70
     0
102
RTVSPost2010Prop33
280
     0
102
RTVSPost2010PropOp33
 70
     0
102
RTVSPost2010Prop34
280
     0
102
RTVSPost2010PropOp34
 70
     0
102
RTVSPost2010Prop35
280
     0
102
RTVSPost2010PropOp35
 70
     0
102
RTVSPost2010Prop36
280
     0
102
RTVSPost2010PropOp36
 70
     0
102
RTVSPost2010Prop37
 90
       50
102
RTVSPost2010PropOp37
 70
     0
102
RTVSPost2010Prop38
140
0.0
102
RTVSPost2010PropOp38
 70
     0
102
RTVSPost2010Prop39
140
1.0
102
RTVSPost2010PropOp39
 70
     0
102
RTVSPost2010Prop40
 90
        0
102
RTVSPost2010PropOp40
 70
     0
102
RTVSPost2010Prop41ColorIndex
 90
       18
102
RTVSPost2010Prop41ColorRGB
 90
        0
102
RTVSPost2010PropOp41
 70
     0
102
RTVSPost2010Prop42
 90
       50
102
RTVSPost2010PropOp42
 70
     0
102
RTVSPost2010Prop43
 90
        3
102
RTVSPost2010PropOp43
 70
     0
102
RTVSPost2010Prop44ColorIndex
 90
        5
102
RTVSPost2010Prop44ColorRGB
 90
      255
102
RTVSPost2010PropOp44
 70
     0
102
RTVSPost2010Prop45
280
     0
102
RTVSPost2010PropOp45
 70
     0
102
RTVSPost2010Prop46
 90
       50
102
RTVSPost2010PropOp46
 70
     0
102
RTVSPost2010Prop47
 90
       50
102
RTVSPost2010PropOp47
 70
     0
102
RTVSPost2010Prop48
 90
       50
102
RTVSPost2010PropOp48
 70
     0
102
RTVSPost2010Prop49
280
     0
102
RTVSPost2010PropOp49
 70
     0
102
RTVSPost2010Prop50
 90
       50
102
RTVSPost2010PropOp50
 70
     0
102
RTVSPost2010Prop51ColorIndex
 90
      256
102
RTVSPost2010Prop51ColorRGB
 90
-16777216
102
RTVSPost2010PropOp51
 70
     0
102
RTVSPost2010Prop52
140
1.0
102
RTVSPost2010PropOp52
 70
     0
102
RTVSPost2010Prop53
 90
        2
102
RTVSPost2010PropOp53
 70
     0
102
RTVSPost2010Prop54
  1
strokes_ogs.tif
102
RTVSPost2010PropOp54
 70
     0
102
RTVSPost2010Prop55
280
     0
102
RTVSPost2010PropOp55
 70
     0
102
RTVSPost2010Prop56
140
1.0
102
RTVSPost2010PropOp56
 70
     0
102
RTVSPost2010Prop57
140
1.0
102
RTVSPost2010PropOp57
 70
     0
  0
XRECORD
  5
810
102
{ACAD_REACTORS
330
80F
102
}
330
80F
100
AcDbXrecord
280
     1
102
RTVSPropertyOp0
 70
     1
102
RTVSPropertyOp1
 70
     1
102
RTVSPropertyOp2
 70
     1
102
RTVSPropertyOp3
 70
     1
102
RTVSPropertyOp4
 70
     1
102
RTVSPropertyOp5
 70
     1
102
RTVSPropertyOp6
 70
     1
102
RTVSPropertyOp7
 70
     1
102
RTVSPropertyOp8
 70
     1
102
RTVSPropertyOp9
 70
     1
102
RTVSPropertyOp10
 70
     1
102
RTVSPropertyOp11
 70
     1
102
RTVSPropertyOp12
 70
     1
102
RTVSPropertyOp13
 70
     1
102
RTVSPropertyOp14
 70
     1
102
RTVSPropertyOp15
 70
     1
102
RTVSPropertyOp16
 70
     1
102
RTVSPropertyOp17
 70
     1
102
RTVSPropertyOp18
 70
     1
102
RTVSPropertyOp19
 70
     1
102
RTVSPropertyOp20
 70
     1
102
RTVSPropertyOp21
 70
     1
102
RTVSPropertyOp22
 70
     1
102
RTVSPropertyOp23
 70
     1
102
RTVSPropertyOp24
 70
     1
102
RTVSPropertyOp25
 70
     1
102
RTVSPropertyOp26
 70
     1
102
RTVSPropertyOp27
 70
     1
102
RTVSPropertyOp28
 70
     1
102
RTVSPropertyOp29
 70
     1
102
RTVSPropertyOp30
 70
     1
102
RTVSPropertyOp31
 70
     1
102
RTVSPropertyOp32
 70
     1
102
RTVSPropertyOp33
 70
     1
102
RTVSPropertyOp34
 70
     1
102
RTVSPropertyOp35
 70
     1
102
RTVSPropertyOp36
 70
     1
102
RTVSPropertyOp37
 70
     1
102
RTVSPropertyOp38
 70
     1
102
RTVSPropertyOp39
 70
     1
102
RTVSPropertyOp40
 70
     1
102
RTVSPropertyOp41
 70
     1
102
RTVSPropertyOp42
 70
     1
102
RTVSPropertyOp43
 70
     1
102
RTVSPropertyOp44
 70
     1
102
RTVSPropertyOp45
 70
     1
102
RTVSPropertyOp46
 70
     1
102
RTVSPropertyOp47
 70
     1
102
RTVSPropertyOp48
 70
     1
102
RTVSPropertyOp49
 70
     1
102
RTVSPropertyOp50
 70
     1
102
RTVSPropertyOp51
 70
     0
102
RTVSPropertyOp52
 70
     0
102
RTVSPropertyOp53
 70
     1
102
RTVSPropertyOp54
 70
     1
102
RTVSPropertyOp55
 70
     1
102
RTVSPropertyOp56
 70
     1
102
RTVSPropertyOp57
 70
     1
102
RTVSPost2010Prop28
280
     0
102
RTVSPost2010PropOp28
 70
     1
102
RTVSPost2010Prop29
280
     1
102
RTVSPost2010PropOp29
 70
     1
102
RTVSPost2010Prop30
280
     1
102
RTVSPost2010PropOp30
 70
     1
102
RTVSPost2010Prop31
280
     0
102
RTVSPost2010PropOp31
 70
     1
102
RTVSPost2010Prop32
280
     0
102
RTVSPost2010PropOp32
 70
     1
102
RTVSPost2010Prop33
280
     0
102
RTVSPost2010PropOp33
 70
     1
102
RTVSPost2010Prop34
280
     0
102
RTVSPost2010PropOp34
 70
     1
102
RTVSPost2010Prop35
280
     0
102
RTVSPost2010PropOp35
 70
     1
102
RTVSPost2010Prop36
280
     0
102
RTVSPost2010PropOp36
 70
     1
102
RTVSPost2010Prop37
 90
       50
102
RTVSPost2010PropOp37
 70
     1
102
RTVSPost2010Prop38
140
0.0
102
RTVSPost2010PropOp38
 70
     1
102
RTVSPost2010Prop39
140
1.0
102
RTVSPost2010PropOp39
 70
     1
102
RTVSPost2010Prop40
 90
        0
102
RTVSPost2010PropOp40
 70
     1
102
RTVSPost2010Prop41ColorIndex
 90
       18
102
RTVSPost2010Prop41ColorRGB
 90
        0
102
RTVSPost2010PropOp41
 70
     1
102
RTVSPost2010Prop42
 90
       50
102
RTVSPost2010PropOp42
 70
     1
102
RTVSPost2010Prop43
 90
        3
102
RTVSPost2010PropOp43
 70
     1
102
RTVSPost2010Prop44ColorIndex
 90
        5
102
RTVSPost2010Prop44ColorRGB
 90
      255
102
RTVSPost2010PropOp44
 70
     1
102
RTVSPost2010Prop45
280
     0
102
RTVSPost2010PropOp45
 70
     1
102
RTVSPost2010Prop46
 90
       50
102
RTVSPost2010PropOp46
 70
     1
102
RTVSPost2010Prop47
 90
       50
102
RTVSPost2010PropOp47
 70
     1
102
RTVSPost2010Prop48
 90
       50
102
RTVSPost2010PropOp48
 70
     1
102
RTVSPost2010Prop49
280
     0
102
RTVSPost2010PropOp49
 70
     1
102
RTVSPost2010Prop50
 90
       50
102
RTVSPost2010PropOp50
 70
     1
102
RTVSPost2010Prop51ColorIndex
 90
      256
102
RTVSPost2010Prop51ColorRGB
 90
-16777216
102
RTVSPost2010PropOp51
 70
     0
102
RTVSPost2010Prop52
140
1.0
102
RTVSPost2010PropOp52
 70
     0
102
RTVSPost2010Prop53
 90
        2
102
RTVSPost2010PropOp53
 70
     1
102
RTVSPost2010Prop54
  1
strokes_ogs.tif
102
RTVSPost2010PropOp54
 70
     1
102
RTVSPost2010Prop55
280
     0
102
RTVSPost2010PropOp55
 70
     1
102
RTVSPost2010Prop56
140
1.0
102
RTVSPost2010PropOp56
 70
     1
102
RTVSPost2010Prop57
140
1.0
102
RTVSPost2010PropOp57
 70
     1
  0
XRECORD
  5
82E
102
{ACAD_REACTORS
330
82D
102
}
330
82D
100
AcDbXrecord
280
     1
102
RTVSPropertyOp0
 70
     1
102
RTVSPropertyOp1
 70
     1
102
RTVSPropertyOp2
 70
     1
102
RTVSPropertyOp3
 70
     1
102
RTVSPropertyOp4
 70
     1
102
RTVSPropertyOp5
 70
     1
102
RTVSPropertyOp6
 70
     1
102
RTVSPropertyOp7
 70
     1
102
RTVSPropertyOp8
 70
     1
102
RTVSPropertyOp9
 70
     1
102
RTVSPropertyOp10
 70
     1
102
RTVSPropertyOp11
 70
     1
102
RTVSPropertyOp12
 70
     1
102
RTVSPropertyOp13
 70
     1
102
RTVSPropertyOp14
 70
     1
102
RTVSPropertyOp15
 70
     1
102
RTVSPropertyOp16
 70
     1
102
RTVSPropertyOp17
 70
     1
102
RTVSPropertyOp18
 70
     1
102
RTVSPropertyOp19
 70
     1
102
RTVSPropertyOp20
 70
     1
102
RTVSPropertyOp21
 70
     1
102
RTVSPropertyOp22
 70
     1
102
RTVSPropertyOp23
 70
     1
102
RTVSPropertyOp24
 70
     1
102
RTVSPropertyOp25
 70
     1
102
RTVSPropertyOp26
 70
     1
102
RTVSPropertyOp27
 70
     1
102
RTVSPropertyOp28
 70
     1
102
RTVSPropertyOp29
 70
     1
102
RTVSPropertyOp30
 70
     1
102
RTVSPropertyOp31
 70
     1
102
RTVSPropertyOp32
 70
     1
102
RTVSPropertyOp33
 70
     1
102
RTVSPropertyOp34
 70
     1
102
RTVSPropertyOp35
 70
     1
102
RTVSPropertyOp36
 70
     1
102
RTVSPropertyOp37
 70
     1
102
RTVSPropertyOp38
 70
     1
102
RTVSPropertyOp39
 70
     1
102
RTVSPropertyOp40
 70
     1
102
RTVSPropertyOp41
 70
     1
102
RTVSPropertyOp42
 70
     1
102
RTVSPropertyOp43
 70
     1
102
RTVSPropertyOp44
 70
     1
102
RTVSPropertyOp45
 70
     1
102
RTVSPropertyOp46
 70
     1
102
RTVSPropertyOp47
 70
     1
102
RTVSPropertyOp48
 70
     1
102
RTVSPropertyOp49
 70
     1
102
RTVSPropertyOp50
 70
     1
102
RTVSPropertyOp51
 70
     0
102
RTVSPropertyOp52
 70
     0
102
RTVSPropertyOp53
 70
     1
102
RTVSPropertyOp54
 70
     1
102
RTVSPropertyOp55
 70
     1
102
RTVSPropertyOp56
 70
     1
102
RTVSPropertyOp57
 70
     1
102
RTVSPost2010Prop28
280
     0
102
RTVSPost2010PropOp28
 70
     1
102
RTVSPost2010Prop29
280
     1
102
RTVSPost2010PropOp29
 70
     1
102
RTVSPost2010Prop30
280
     1
102
RTVSPost2010PropOp30
 70
     1
102
RTVSPost2010Prop31
280
     0
102
RTVSPost2010PropOp31
 70
     1
102
RTVSPost2010Prop32
280
     0
102
RTVSPost2010PropOp32
 70
     1
102
RTVSPost2010Prop33
280
     0
102
RTVSPost2010PropOp33
 70
     1
102
RTVSPost2010Prop34
280
     0
102
RTVSPost2010PropOp34
 70
     1
102
RTVSPost2010Prop35
280
     0
102
RTVSPost2010PropOp35
 70
     1
102
RTVSPost2010Prop36
280
     0
102
RTVSPost2010PropOp36
 70
     1
102
RTVSPost2010Prop37
 90
       50
102
RTVSPost2010PropOp37
 70
     1
102
RTVSPost2010Prop38
140
0.0
102
RTVSPost2010PropOp38
 70
     1
102
RTVSPost2010Prop39
140
1.0
102
RTVSPost2010PropOp39
 70
     1
102
RTVSPost2010Prop40
 90
        0
102
RTVSPost2010PropOp40
 70
     1
102
RTVSPost2010Prop41ColorIndex
 90
       18
102
RTVSPost2010Prop41ColorRGB
 90
        0
102
RTVSPost2010PropOp41
 70
     1
102
RTVSPost2010Prop42
 90
       50
102
RTVSPost2010PropOp42
 70
     1
102
RTVSPost2010Prop43
 90
        3
102
RTVSPost2010PropOp43
 70
     1
102
RTVSPost2010Prop44ColorIndex
 90
        5
102
RTVSPost2010Prop44ColorRGB
 90
      255
102
RTVSPost2010PropOp44
 70
     1
102
RTVSPost2010Prop45
280
     0
102
RTVSPost2010PropOp45
 70
     1
102
RTVSPost2010Prop46
 90
       50
102
RTVSPost2010PropOp46
 70
     1
102
RTVSPost2010Prop47
 90
       50
102
RTVSPost2010PropOp47
 70
     1
102
RTVSPost2010Prop48
 90
       50
102
RTVSPost2010PropOp48
 70
     1
102
RTVSPost2010Prop49
280
     0
102
RTVSPost2010PropOp49
 70
     1
102
RTVSPost2010Prop50
 90
       50
102
RTVSPost2010PropOp50
 70
     1
102
RTVSPost2010Prop51ColorIndex
 90
      256
102
RTVSPost2010Prop51ColorRGB
 90
-16777216
102
RTVSPost2010PropOp51
 70
     0
102
RTVSPost2010Prop52
140
1.0
102
RTVSPost2010PropOp52
 70
     0
102
RTVSPost2010Prop53
 90
        2
102
RTVSPost2010PropOp53
 70
     1
102
RTVSPost2010Prop54
  1
strokes_ogs.tif
102
RTVSPost2010PropOp54
 70
     1
102
RTVSPost2010Prop55
280
     0
102
RTVSPost2010PropOp55
 70
     1
102
RTVSPost2010Prop56
140
1.0
102
RTVSPost2010PropOp56
 70
     1
102
RTVSPost2010Prop57
140
1.0
102
RTVSPost2010PropOp57
 70
     1
  0
XRECORD
  5
82C
102
{ACAD_REACTORS
330
82B
102
}
330
82B
100
AcDbXrecord
280
     1
102
RTVSPropertyOp0
 70
     1
102
RTVSPropertyOp1
 70
     1
102
RTVSPropertyOp2
 70
     1
102
RTVSPropertyOp3
 70
     1
102
RTVSPropertyOp4
 70
     1
102
RTVSPropertyOp5
 70
     1
102
RTVSPropertyOp6
 70
     1
102
RTVSPropertyOp7
 70
     1
102
RTVSPropertyOp8
 70
     1
102
RTVSPropertyOp9
 70
     1
102
RTVSPropertyOp10
 70
     1
102
RTVSPropertyOp11
 70
     1
102
RTVSPropertyOp12
 70
     1
102
RTVSPropertyOp13
 70
     1
102
RTVSPropertyOp14
 70
     1
102
RTVSPropertyOp15
 70
     1
102
RTVSPropertyOp16
 70
     1
102
RTVSPropertyOp17
 70
     1
102
RTVSPropertyOp18
 70
     1
102
RTVSPropertyOp19
 70
     1
102
RTVSPropertyOp20
 70
     1
102
RTVSPropertyOp21
 70
     1
102
RTVSPropertyOp22
 70
     1
102
RTVSPropertyOp23
 70
     1
102
RTVSPropertyOp24
 70
     1
102
RTVSPropertyOp25
 70
     1
102
RTVSPropertyOp26
 70
     1
102
RTVSPropertyOp27
 70
     1
102
RTVSPropertyOp28
 70
     1
102
RTVSPropertyOp29
 70
     1
102
RTVSPropertyOp30
 70
     1
102
RTVSPropertyOp31
 70
     1
102
RTVSPropertyOp32
 70
     1
102
RTVSPropertyOp33
 70
     1
102
RTVSPropertyOp34
 70
     1
102
RTVSPropertyOp35
 70
     1
102
RTVSPropertyOp36
 70
     1
102
RTVSPropertyOp37
 70
     1
102
RTVSPropertyOp38
 70
     1
102
RTVSPropertyOp39
 70
     1
102
RTVSPropertyOp40
 70
     1
102
RTVSPropertyOp41
 70
     1
102
RTVSPropertyOp42
 70
     1
102
RTVSPropertyOp43
 70
     1
102
RTVSPropertyOp44
 70
     1
102
RTVSPropertyOp45
 70
     1
102
RTVSPropertyOp46
 70
     1
102
RTVSPropertyOp47
 70
     1
102
RTVSPropertyOp48
 70
     1
102
RTVSPropertyOp49
 70
     1
102
RTVSPropertyOp50
 70
     1
102
RTVSPropertyOp51
 70
     0
102
RTVSPropertyOp52
 70
     0
102
RTVSPropertyOp53
 70
     1
102
RTVSPropertyOp54
 70
     1
102
RTVSPropertyOp55
 70
     1
102
RTVSPropertyOp56
 70
     1
102
RTVSPropertyOp57
 70
     1
102
RTVSPost2010Prop28
280
     0
102
RTVSPost2010PropOp28
 70
     1
102
RTVSPost2010Prop29
280
     1
102
RTVSPost2010PropOp29
 70
     1
102
RTVSPost2010Prop30
280
     1
102
RTVSPost2010PropOp30
 70
     1
102
RTVSPost2010Prop31
280
     0
102
RTVSPost2010PropOp31
 70
     1
102
RTVSPost2010Prop32
280
     0
102
RTVSPost2010PropOp32
 70
     1
102
RTVSPost2010Prop33
280
     0
102
RTVSPost2010PropOp33
 70
     1
102
RTVSPost2010Prop34
280
     0
102
RTVSPost2010PropOp34
 70
     1
102
RTVSPost2010Prop35
280
     0
102
RTVSPost2010PropOp35
 70
     1
102
RTVSPost2010Prop36
280
     0
102
RTVSPost2010PropOp36
 70
     1
102
RTVSPost2010Prop37
 90
       50
102
RTVSPost2010PropOp37
 70
     1
102
RTVSPost2010Prop38
140
0.0
102
RTVSPost2010PropOp38
 70
     1
102
RTVSPost2010Prop39
140
1.0
102
RTVSPost2010PropOp39
 70
     1
102
RTVSPost2010Prop40
 90
        0
102
RTVSPost2010PropOp40
 70
     1
102
RTVSPost2010Prop41ColorIndex
 90
       18
102
RTVSPost2010Prop41ColorRGB
 90
        0
102
RTVSPost2010PropOp41
 70
     1
102
RTVSPost2010Prop42
 90
       50
102
RTVSPost2010PropOp42
 70
     1
102
RTVSPost2010Prop43
 90
        3
102
RTVSPost2010PropOp43
 70
     1
102
RTVSPost2010Prop44ColorIndex
 90
        5
102
RTVSPost2010Prop44ColorRGB
 90
      255
102
RTVSPost2010PropOp44
 70
     1
102
RTVSPost2010Prop45
280
     0
102
RTVSPost2010PropOp45
 70
     1
102
RTVSPost2010Prop46
 90
       50
102
RTVSPost2010PropOp46
 70
     1
102
RTVSPost2010Prop47
 90
       50
102
RTVSPost2010PropOp47
 70
     1
102
RTVSPost2010Prop48
 90
       50
102
RTVSPost2010PropOp48
 70
     1
102
RTVSPost2010Prop49
280
     0
102
RTVSPost2010PropOp49
 70
     1
102
RTVSPost2010Prop50
 90
       50
102
RTVSPost2010PropOp50
 70
     1
102
RTVSPost2010Prop51ColorIndex
 90
      256
102
RTVSPost2010Prop51ColorRGB
 90
-16777216
102
RTVSPost2010PropOp51
 70
     0
102
RTVSPost2010Prop52
140
1.0
102
RTVSPost2010PropOp52
 70
     0
102
RTVSPost2010Prop53
 90
        2
102
RTVSPost2010PropOp53
 70
     1
102
RTVSPost2010Prop54
  1
strokes_ogs.tif
102
RTVSPost2010PropOp54
 70
     1
102
RTVSPost2010Prop55
280
     0
102
RTVSPost2010PropOp55
 70
     1
102
RTVSPost2010Prop56
140
1.0
102
RTVSPost2010PropOp56
 70
     1
102
RTVSPost2010Prop57
140
1.0
102
RTVSPost2010PropOp57
 70
     1
  0
XRECORD
  5
826
102
{ACAD_REACTORS
330
825
102
}
330
825
100
AcDbXrecord
280
     1
102
RTVSPropertyOp0
 70
     1
102
RTVSPropertyOp1
 70
     1
102
RTVSPropertyOp2
 70
     1
102
RTVSPropertyOp3
 70
     1
102
RTVSPropertyOp4
 70
     1
102
RTVSPropertyOp5
 70
     1
102
RTVSPropertyOp6
 70
     1
102
RTVSPropertyOp7
 70
     1
102
RTVSPropertyOp8
 70
     1
102
RTVSPropertyOp9
 70
     1
102
RTVSPropertyOp10
 70
     1
102
RTVSPropertyOp11
 70
     1
102
RTVSPropertyOp12
 70
     1
102
RTVSPropertyOp13
 70
     1
102
RTVSPropertyOp14
 70
     1
102
RTVSPropertyOp15
 70
     1
102
RTVSPropertyOp16
 70
     1
102
RTVSPropertyOp17
 70
     1
102
RTVSPropertyOp18
 70
     1
102
RTVSPropertyOp19
 70
     1
102
RTVSPropertyOp20
 70
     1
102
RTVSPropertyOp21
 70
     1
102
RTVSPropertyOp22
 70
     1
102
RTVSPropertyOp23
 70
     1
102
RTVSPropertyOp24
 70
     1
102
RTVSPropertyOp25
 70
     1
102
RTVSPropertyOp26
 70
     1
102
RTVSPropertyOp27
 70
     1
102
RTVSPropertyOp28
 70
     1
102
RTVSPropertyOp29
 70
     1
102
RTVSPropertyOp30
 70
     1
102
RTVSPropertyOp31
 70
     1
102
RTVSPropertyOp32
 70
     1
102
RTVSPropertyOp33
 70
     1
102
RTVSPropertyOp34
 70
     1
102
RTVSPropertyOp35
 70
     1
102
RTVSPropertyOp36
 70
     1
102
RTVSPropertyOp37
 70
     1
102
RTVSPropertyOp38
 70
     1
102
RTVSPropertyOp39
 70
     1
102
RTVSPropertyOp40
 70
     1
102
RTVSPropertyOp41
 70
     1
102
RTVSPropertyOp42
 70
     1
102
RTVSPropertyOp43
 70
     1
102
RTVSPropertyOp44
 70
     1
102
RTVSPropertyOp45
 70
     1
102
RTVSPropertyOp46
 70
     1
102
RTVSPropertyOp47
 70
     1
102
RTVSPropertyOp48
 70
     1
102
RTVSPropertyOp49
 70
     1
102
RTVSPropertyOp50
 70
     1
102
RTVSPropertyOp51
 70
     0
102
RTVSPropertyOp52
 70
     0
102
RTVSPropertyOp53
 70
     1
102
RTVSPropertyOp54
 70
     1
102
RTVSPropertyOp55
 70
     1
102
RTVSPropertyOp56
 70
     1
102
RTVSPropertyOp57
 70
     1
102
RTVSPost2010Prop28
280
     0
102
RTVSPost2010PropOp28
 70
     1
102
RTVSPost2010Prop29
280
     1
102
RTVSPost2010PropOp29
 70
     1
102
RTVSPost2010Prop30
280
     1
102
RTVSPost2010PropOp30
 70
     1
102
RTVSPost2010Prop31
280
     0
102
RTVSPost2010PropOp31
 70
     1
102
RTVSPost2010Prop32
280
     0
102
RTVSPost2010PropOp32
 70
     1
102
RTVSPost2010Prop33
280
     0
102
RTVSPost2010PropOp33
 70
     1
102
RTVSPost2010Prop34
280
     0
102
RTVSPost2010PropOp34
 70
     1
102
RTVSPost2010Prop35
280
     0
102
RTVSPost2010PropOp35
 70
     1
102
RTVSPost2010Prop36
280
     0
102
RTVSPost2010PropOp36
 70
     1
102
RTVSPost2010Prop37
 90
       50
102
RTVSPost2010PropOp37
 70
     1
102
RTVSPost2010Prop38
140
0.0
102
RTVSPost2010PropOp38
 70
     1
102
RTVSPost2010Prop39
140
1.0
102
RTVSPost2010PropOp39
 70
     1
102
RTVSPost2010Prop40
 90
        0
102
RTVSPost2010PropOp40
 70
     1
102
RTVSPost2010Prop41ColorIndex
 90
       18
102
RTVSPost2010Prop41ColorRGB
 90
        0
102
RTVSPost2010PropOp41
 70
     1
102
RTVSPost2010Prop42
 90
       50
102
RTVSPost2010PropOp42
 70
     1
102
RTVSPost2010Prop43
 90
        3
102
RTVSPost2010PropOp43
 70
     1
102
RTVSPost2010Prop44ColorIndex
 90
        5
102
RTVSPost2010Prop44ColorRGB
 90
      255
102
RTVSPost2010PropOp44
 70
     1
102
RTVSPost2010Prop45
280
     0
102
RTVSPost2010PropOp45
 70
     1
102
RTVSPost2010Prop46
 90
       50
102
RTVSPost2010PropOp46
 70
     1
102
RTVSPost2010Prop47
 90
       50
102
RTVSPost2010PropOp47
 70
     1
102
RTVSPost2010Prop48
 90
       50
102
RTVSPost2010PropOp48
 70
     1
102
RTVSPost2010Prop49
280
     0
102
RTVSPost2010PropOp49
 70
     1
102
RTVSPost2010Prop50
 90
       50
102
RTVSPost2010PropOp50
 70
     1
102
RTVSPost2010Prop51ColorIndex
 90
      256
102
RTVSPost2010Prop51ColorRGB
 90
-16777216
102
RTVSPost2010PropOp51
 70
     0
102
RTVSPost2010Prop52
140
1.0
102
RTVSPost2010PropOp52
 70
     0
102
RTVSPost2010Prop53
 90
        2
102
RTVSPost2010PropOp53
 70
     1
102
RTVSPost2010Prop54
  1
strokes_ogs.tif
102
RTVSPost2010PropOp54
 70
     1
102
RTVSPost2010Prop55
280
     0
102
RTVSPost2010PropOp55
 70
     1
102
RTVSPost2010Prop56
140
1.0
102
RTVSPost2010PropOp56
 70
     1
102
RTVSPost2010Prop57
140
1.0
102
RTVSPost2010PropOp57
 70
     1
  0
XRECORD
  5
828
102
{ACAD_REACTORS
330
827
102
}
330
827
100
AcDbXrecord
280
     1
102
RTVSPropertyOp0
 70
     1
102
RTVSPropertyOp1
 70
     1
102
RTVSPropertyOp2
 70
     1
102
RTVSPropertyOp3
 70
     1
102
RTVSPropertyOp4
 70
     1
102
RTVSPropertyOp5
 70
     1
102
RTVSPropertyOp6
 70
     1
102
RTVSPropertyOp7
 70
     1
102
RTVSPropertyOp8
 70
     1
102
RTVSPropertyOp9
 70
     1
102
RTVSPropertyOp10
 70
     1
102
RTVSPropertyOp11
 70
     1
102
RTVSPropertyOp12
 70
     1
102
RTVSPropertyOp13
 70
     1
102
RTVSPropertyOp14
 70
     1
102
RTVSPropertyOp15
 70
     1
102
RTVSPropertyOp16
 70
     1
102
RTVSPropertyOp17
 70
     1
102
RTVSPropertyOp18
 70
     1
102
RTVSPropertyOp19
 70
     1
102
RTVSPropertyOp20
 70
     1
102
RTVSPropertyOp21
 70
     1
102
RTVSPropertyOp22
 70
     1
102
RTVSPropertyOp23
 70
     1
102
RTVSPropertyOp24
 70
     1
102
RTVSPropertyOp25
 70
     1
102
RTVSPropertyOp26
 70
     1
102
RTVSPropertyOp27
 70
     1
102
RTVSPropertyOp28
 70
     1
102
RTVSPropertyOp29
 70
     1
102
RTVSPropertyOp30
 70
     1
102
RTVSPropertyOp31
 70
     1
102
RTVSPropertyOp32
 70
     1
102
RTVSPropertyOp33
 70
     1
102
RTVSPropertyOp34
 70
     1
102
RTVSPropertyOp35
 70
     1
102
RTVSPropertyOp36
 70
     1
102
RTVSPropertyOp37
 70
     1
102
RTVSPropertyOp38
 70
     1
102
RTVSPropertyOp39
 70
     1
102
RTVSPropertyOp40
 70
     1
102
RTVSPropertyOp41
 70
     1
102
RTVSPropertyOp42
 70
     1
102
RTVSPropertyOp43
 70
     1
102
RTVSPropertyOp44
 70
     1
102
RTVSPropertyOp45
 70
     1
102
RTVSPropertyOp46
 70
     1
102
RTVSPropertyOp47
 70
     1
102
RTVSPropertyOp48
 70
     1
102
RTVSPropertyOp49
 70
     1
102
RTVSPropertyOp50
 70
     1
102
RTVSPropertyOp51
 70
     0
102
RTVSPropertyOp52
 70
     0
102
RTVSPropertyOp53
 70
     1
102
RTVSPropertyOp54
 70
     1
102
RTVSPropertyOp55
 70
     1
102
RTVSPropertyOp56
 70
     1
102
RTVSPropertyOp57
 70
     1
102
RTVSPost2010Prop28
280
     0
102
RTVSPost2010PropOp28
 70
     1
102
RTVSPost2010Prop29
280
     1
102
RTVSPost2010PropOp29
 70
     1
102
RTVSPost2010Prop30
280
     1
102
RTVSPost2010PropOp30
 70
     1
102
RTVSPost2010Prop31
280
     0
102
RTVSPost2010PropOp31
 70
     1
102
RTVSPost2010Prop32
280
     0
102
RTVSPost2010PropOp32
 70
     1
102
RTVSPost2010Prop33
280
     0
102
RTVSPost2010PropOp33
 70
     1
102
RTVSPost2010Prop34
280
     0
102
RTVSPost2010PropOp34
 70
     1
102
RTVSPost2010Prop35
280
     0
102
RTVSPost2010PropOp35
 70
     1
102
RTVSPost2010Prop36
280
     0
102
RTVSPost2010PropOp36
 70
     1
102
RTVSPost2010Prop37
 90
       50
102
RTVSPost2010PropOp37
 70
     1
102
RTVSPost2010Prop38
140
0.0
102
RTVSPost2010PropOp38
 70
     1
102
RTVSPost2010Prop39
140
1.0
102
RTVSPost2010PropOp39
 70
     1
102
RTVSPost2010Prop40
 90
        0
102
RTVSPost2010PropOp40
 70
     1
102
RTVSPost2010Prop41ColorIndex
 90
       18
102
RTVSPost2010Prop41ColorRGB
 90
        0
102
RTVSPost2010PropOp41
 70
     1
102
RTVSPost2010Prop42
 90
       50
102
RTVSPost2010PropOp42
 70
     1
102
RTVSPost2010Prop43
 90
        3
102
RTVSPost2010PropOp43
 70
     1
102
RTVSPost2010Prop44ColorIndex
 90
        5
102
RTVSPost2010Prop44ColorRGB
 90
      255
102
RTVSPost2010PropOp44
 70
     1
102
RTVSPost2010Prop45
280
     0
102
RTVSPost2010PropOp45
 70
     1
102
RTVSPost2010Prop46
 90
       50
102
RTVSPost2010PropOp46
 70
     1
102
RTVSPost2010Prop47
 90
       50
102
RTVSPost2010PropOp47
 70
     1
102
RTVSPost2010Prop48
 90
       50
102
RTVSPost2010PropOp48
 70
     1
102
RTVSPost2010Prop49
280
     0
102
RTVSPost2010PropOp49
 70
     1
102
RTVSPost2010Prop50
 90
       50
102
RTVSPost2010PropOp50
 70
     1
102
RTVSPost2010Prop51ColorIndex
 90
      256
102
RTVSPost2010Prop51ColorRGB
 90
-16777216
102
RTVSPost2010PropOp51
 70
     0
102
RTVSPost2010Prop52
140
1.0
102
RTVSPost2010PropOp52
 70
     0
102
RTVSPost2010Prop53
 90
        2
102
RTVSPost2010PropOp53
 70
     1
102
RTVSPost2010Prop54
  1
strokes_ogs.tif
102
RTVSPost2010PropOp54
 70
     1
102
RTVSPost2010Prop55
280
     0
102
RTVSPost2010PropOp55
 70
     1
102
RTVSPost2010Prop56
140
1.0
102
RTVSPost2010PropOp56
 70
     1
102
RTVSPost2010Prop57
140
1.0
102
RTVSPost2010PropOp57
 70
     1
  0
XRECORD
  5
818
102
{ACAD_REACTORS
330
817
102
}
330
817
100
AcDbXrecord
280
     1
102
RTVSPropertyOp0
 70
     1
102
RTVSPropertyOp1
 70
     1
102
RTVSPropertyOp2
 70
     1
102
RTVSPropertyOp3
 70
     1
102
RTVSPropertyOp4
 70
     1
102
RTVSPropertyOp5
 70
     1
102
RTVSPropertyOp6
 70
     1
102
RTVSPropertyOp7
 70
     1
102
RTVSPropertyOp8
 70
     1
102
RTVSPropertyOp9
 70
     1
102
RTVSPropertyOp10
 70
     1
102
RTVSPropertyOp11
 70
     1
102
RTVSPropertyOp12
 70
     1
102
RTVSPropertyOp13
 70
     1
102
RTVSPropertyOp14
 70
     1
102
RTVSPropertyOp15
 70
     1
102
RTVSPropertyOp16
 70
     1
102
RTVSPropertyOp17
 70
     1
102
RTVSPropertyOp18
 70
     1
102
RTVSPropertyOp19
 70
     1
102
RTVSPropertyOp20
 70
     1
102
RTVSPropertyOp21
 70
     1
102
RTVSPropertyOp22
 70
     1
102
RTVSPropertyOp23
 70
     1
102
RTVSPropertyOp24
 70
     1
102
RTVSPropertyOp25
 70
     1
102
RTVSPropertyOp26
 70
     1
102
RTVSPropertyOp27
 70
     1
102
RTVSPropertyOp28
 70
     1
102
RTVSPropertyOp29
 70
     1
102
RTVSPropertyOp30
 70
     1
102
RTVSPropertyOp31
 70
     1
102
RTVSPropertyOp32
 70
     1
102
RTVSPropertyOp33
 70
     1
102
RTVSPropertyOp34
 70
     1
102
RTVSPropertyOp35
 70
     1
102
RTVSPropertyOp36
 70
     1
102
RTVSPropertyOp37
 70
     1
102
RTVSPropertyOp38
 70
     1
102
RTVSPropertyOp39
 70
     1
102
RTVSPropertyOp40
 70
     1
102
RTVSPropertyOp41
 70
     1
102
RTVSPropertyOp42
 70
     1
102
RTVSPropertyOp43
 70
     1
102
RTVSPropertyOp44
 70
     1
102
RTVSPropertyOp45
 70
     1
102
RTVSPropertyOp46
 70
     1
102
RTVSPropertyOp47
 70
     1
102
RTVSPropertyOp48
 70
     1
102
RTVSPropertyOp49
 70
     1
102
RTVSPropertyOp50
 70
     1
102
RTVSPropertyOp51
 70
     0
102
RTVSPropertyOp52
 70
     0
102
RTVSPropertyOp53
 70
     1
102
RTVSPropertyOp54
 70
     1
102
RTVSPropertyOp55
 70
     1
102
RTVSPropertyOp56
 70
     1
102
RTVSPropertyOp57
 70
     1
102
RTVSPost2010Prop28
280
     0
102
RTVSPost2010PropOp28
 70
     1
102
RTVSPost2010Prop29
280
     1
102
RTVSPost2010PropOp29
 70
     1
102
RTVSPost2010Prop30
280
     1
102
RTVSPost2010PropOp30
 70
     1
102
RTVSPost2010Prop31
280
     0
102
RTVSPost2010PropOp31
 70
     1
102
RTVSPost2010Prop32
280
     0
102
RTVSPost2010PropOp32
 70
     1
102
RTVSPost2010Prop33
280
     0
102
RTVSPost2010PropOp33
 70
     1
102
RTVSPost2010Prop34
280
     0
102
RTVSPost2010PropOp34
 70
     1
102
RTVSPost2010Prop35
280
     0
102
RTVSPost2010PropOp35
 70
     1
102
RTVSPost2010Prop36
280
     0
102
RTVSPost2010PropOp36
 70
     1
102
RTVSPost2010Prop37
 90
       50
102
RTVSPost2010PropOp37
 70
     1
102
RTVSPost2010Prop38
140
0.0
102
RTVSPost2010PropOp38
 70
     1
102
RTVSPost2010Prop39
140
1.0
102
RTVSPost2010PropOp39
 70
     1
102
RTVSPost2010Prop40
 90
        0
102
RTVSPost2010PropOp40
 70
     1
102
RTVSPost2010Prop41ColorIndex
 90
       18
102
RTVSPost2010Prop41ColorRGB
 90
        0
102
RTVSPost2010PropOp41
 70
     1
102
RTVSPost2010Prop42
 90
       50
102
RTVSPost2010PropOp42
 70
     1
102
RTVSPost2010Prop43
 90
        3
102
RTVSPost2010PropOp43
 70
     1
102
RTVSPost2010Prop44ColorIndex
 90
        5
102
RTVSPost2010Prop44ColorRGB
 90
      255
102
RTVSPost2010PropOp44
 70
     1
102
RTVSPost2010Prop45
280
     0
102
RTVSPost2010PropOp45
 70
     1
102
RTVSPost2010Prop46
 90
       50
102
RTVSPost2010PropOp46
 70
     1
102
RTVSPost2010Prop47
 90
       50
102
RTVSPost2010PropOp47
 70
     1
102
RTVSPost2010Prop48
 90
       50
102
RTVSPost2010PropOp48
 70
     1
102
RTVSPost2010Prop49
280
     0
102
RTVSPost2010PropOp49
 70
     1
102
RTVSPost2010Prop50
 90
       50
102
RTVSPost2010PropOp50
 70
     1
102
RTVSPost2010Prop51ColorIndex
 90
      256
102
RTVSPost2010Prop51ColorRGB
 90
-16777216
102
RTVSPost2010PropOp51
 70
     0
102
RTVSPost2010Prop52
140
1.0
102
RTVSPost2010PropOp52
 70
     0
102
RTVSPost2010Prop53
 90
        2
102
RTVSPost2010PropOp53
 70
     1
102
RTVSPost2010Prop54
  1
strokes_ogs.tif
102
RTVSPost2010PropOp54
 70
     1
102
RTVSPost2010Prop55
280
     0
102
RTVSPost2010PropOp55
 70
     1
102
RTVSPost2010Prop56
140
1.0
102
RTVSPost2010PropOp56
 70
     1
102
RTVSPost2010Prop57
140
1.0
102
RTVSPost2010PropOp57
 70
     1
  0
XRECORD
  5
80A
102
{ACAD_REACTORS
330
809
102
}
330
809
100
AcDbXrecord
280
     1
102
RTVSPropertyOp0
 70
     1
102
RTVSPropertyOp1
 70
     1
102
RTVSPropertyOp2
 70
     1
102
RTVSPropertyOp3
 70
     1
102
RTVSPropertyOp4
 70
     1
102
RTVSPropertyOp5
 70
     1
102
RTVSPropertyOp6
 70
     1
102
RTVSPropertyOp7
 70
     1
102
RTVSPropertyOp8
 70
     1
102
RTVSPropertyOp9
 70
     1
102
RTVSPropertyOp10
 70
     1
102
RTVSPropertyOp11
 70
     1
102
RTVSPropertyOp12
 70
     1
102
RTVSPropertyOp13
 70
     1
102
RTVSPropertyOp14
 70
     1
102
RTVSPropertyOp15
 70
     1
102
RTVSPropertyOp16
 70
     1
102
RTVSPropertyOp17
 70
     1
102
RTVSPropertyOp18
 70
     1
102
RTVSPropertyOp19
 70
     1
102
RTVSPropertyOp20
 70
     1
102
RTVSPropertyOp21
 70
     1
102
RTVSPropertyOp22
 70
     1
102
RTVSPropertyOp23
 70
     1
102
RTVSPropertyOp24
 70
     1
102
RTVSPropertyOp25
 70
     1
102
RTVSPropertyOp26
 70
     1
102
RTVSPropertyOp27
 70
     1
102
RTVSPropertyOp28
 70
     1
102
RTVSPropertyOp29
 70
     1
102
RTVSPropertyOp30
 70
     1
102
RTVSPropertyOp31
 70
     1
102
RTVSPropertyOp32
 70
     1
102
RTVSPropertyOp33
 70
     1
102
RTVSPropertyOp34
 70
     1
102
RTVSPropertyOp35
 70
     1
102
RTVSPropertyOp36
 70
     1
102
RTVSPropertyOp37
 70
     1
102
RTVSPropertyOp38
 70
     1
102
RTVSPropertyOp39
 70
     1
102
RTVSPropertyOp40
 70
     1
102
RTVSPropertyOp41
 70
     1
102
RTVSPropertyOp42
 70
     1
102
RTVSPropertyOp43
 70
     1
102
RTVSPropertyOp44
 70
     1
102
RTVSPropertyOp45
 70
     1
102
RTVSPropertyOp46
 70
     1
102
RTVSPropertyOp47
 70
     1
102
RTVSPropertyOp48
 70
     1
102
RTVSPropertyOp49
 70
     1
102
RTVSPropertyOp50
 70
     1
102
RTVSPropertyOp51
 70
     0
102
RTVSPropertyOp52
 70
     0
102
RTVSPropertyOp53
 70
     1
102
RTVSPropertyOp54
 70
     1
102
RTVSPropertyOp55
 70
     1
102
RTVSPropertyOp56
 70
     1
102
RTVSPropertyOp57
 70
     1
102
RTVSPost2010Prop28
280
     0
102
RTVSPost2010PropOp28
 70
     1
102
RTVSPost2010Prop29
280
     1
102
RTVSPost2010PropOp29
 70
     1
102
RTVSPost2010Prop30
280
     1
102
RTVSPost2010PropOp30
 70
     1
102
RTVSPost2010Prop31
280
     0
102
RTVSPost2010PropOp31
 70
     1
102
RTVSPost2010Prop32
280
     0
102
RTVSPost2010PropOp32
 70
     1
102
RTVSPost2010Prop33
280
     0
102
RTVSPost2010PropOp33
 70
     1
102
RTVSPost2010Prop34
280
     0
102
RTVSPost2010PropOp34
 70
     1
102
RTVSPost2010Prop35
280
     0
102
RTVSPost2010PropOp35
 70
     1
102
RTVSPost2010Prop36
280
     0
102
RTVSPost2010PropOp36
 70
     1
102
RTVSPost2010Prop37
 90
       50
102
RTVSPost2010PropOp37
 70
     1
102
RTVSPost2010Prop38
140
0.0
102
RTVSPost2010PropOp38
 70
     1
102
RTVSPost2010Prop39
140
1.0
102
RTVSPost2010PropOp39
 70
     1
102
RTVSPost2010Prop40
 90
        0
102
RTVSPost2010PropOp40
 70
     1
102
RTVSPost2010Prop41ColorIndex
 90
       18
102
RTVSPost2010Prop41ColorRGB
 90
        0
102
RTVSPost2010PropOp41
 70
     1
102
RTVSPost2010Prop42
 90
       50
102
RTVSPost2010PropOp42
 70
     1
102
RTVSPost2010Prop43
 90
        3
102
RTVSPost2010PropOp43
 70
     1
102
RTVSPost2010Prop44ColorIndex
 90
        5
102
RTVSPost2010Prop44ColorRGB
 90
      255
102
RTVSPost2010PropOp44
 70
     1
102
RTVSPost2010Prop45
280
     0
102
RTVSPost2010PropOp45
 70
     1
102
RTVSPost2010Prop46
 90
       50
102
RTVSPost2010PropOp46
 70
     1
102
RTVSPost2010Prop47
 90
       50
102
RTVSPost2010PropOp47
 70
     1
102
RTVSPost2010Prop48
 90
       50
102
RTVSPost2010PropOp48
 70
     1
102
RTVSPost2010Prop49
280
     0
102
RTVSPost2010PropOp49
 70
     1
102
RTVSPost2010Prop50
 90
       50
102
RTVSPost2010PropOp50
 70
     1
102
RTVSPost2010Prop51ColorIndex
 90
      256
102
RTVSPost2010Prop51ColorRGB
 90
-16777216
102
RTVSPost2010PropOp51
 70
     0
102
RTVSPost2010Prop52
140
1.0
102
RTVSPost2010PropOp52
 70
     0
102
RTVSPost2010Prop53
 90
        2
102
RTVSPost2010PropOp53
 70
     1
102
RTVSPost2010Prop54
  1
strokes_ogs.tif
102
RTVSPost2010PropOp54
 70
     1
102
RTVSPost2010Prop55
280
     0
102
RTVSPost2010PropOp55
 70
     1
102
RTVSPost2010Prop56
140
1.0
102
RTVSPost2010PropOp56
 70
     1
102
RTVSPost2010Prop57
140
1.0
102
RTVSPost2010PropOp57
 70
     1
  0
XRECORD
  5
82A
102
{ACAD_REACTORS
330
829
102
}
330
829
100
AcDbXrecord
280
     1
102
RTVSPropertyOp0
 70
     1
102
RTVSPropertyOp1
 70
     1
102
RTVSPropertyOp2
 70
     1
102
RTVSPropertyOp3
 70
     1
102
RTVSPropertyOp4
 70
     1
102
RTVSPropertyOp5
 70
     1
102
RTVSPropertyOp6
 70
     1
102
RTVSPropertyOp7
 70
     1
102
RTVSPropertyOp8
 70
     1
102
RTVSPropertyOp9
 70
     1
102
RTVSPropertyOp10
 70
     1
102
RTVSPropertyOp11
 70
     1
102
RTVSPropertyOp12
 70
     1
102
RTVSPropertyOp13
 70
     1
102
RTVSPropertyOp14
 70
     1
102
RTVSPropertyOp15
 70
     1
102
RTVSPropertyOp16
 70
     1
102
RTVSPropertyOp17
 70
     1
102
RTVSPropertyOp18
 70
     1
102
RTVSPropertyOp19
 70
     1
102
RTVSPropertyOp20
 70
     1
102
RTVSPropertyOp21
 70
     1
102
RTVSPropertyOp22
 70
     1
102
RTVSPropertyOp23
 70
     1
102
RTVSPropertyOp24
 70
     1
102
RTVSPropertyOp25
 70
     1
102
RTVSPropertyOp26
 70
     1
102
RTVSPropertyOp27
 70
     1
102
RTVSPropertyOp28
 70
     1
102
RTVSPropertyOp29
 70
     1
102
RTVSPropertyOp30
 70
     1
102
RTVSPropertyOp31
 70
     1
102
RTVSPropertyOp32
 70
     1
102
RTVSPropertyOp33
 70
     1
102
RTVSPropertyOp34
 70
     1
102
RTVSPropertyOp35
 70
     1
102
RTVSPropertyOp36
 70
     1
102
RTVSPropertyOp37
 70
     1
102
RTVSPropertyOp38
 70
     1
102
RTVSPropertyOp39
 70
     1
102
RTVSPropertyOp40
 70
     1
102
RTVSPropertyOp41
 70
     1
102
RTVSPropertyOp42
 70
     1
102
RTVSPropertyOp43
 70
     1
102
RTVSPropertyOp44
 70
     1
102
RTVSPropertyOp45
 70
     1
102
RTVSPropertyOp46
 70
     1
102
RTVSPropertyOp47
 70
     1
102
RTVSPropertyOp48
 70
     1
102
RTVSPropertyOp49
 70
     1
102
RTVSPropertyOp50
 70
     1
102
RTVSPropertyOp51
 70
     0
102
RTVSPropertyOp52
 70
     0
102
RTVSPropertyOp53
 70
     1
102
RTVSPropertyOp54
 70
     1
102
RTVSPropertyOp55
 70
     1
102
RTVSPropertyOp56
 70
     1
102
RTVSPropertyOp57
 70
     1
102
RTVSPost2010Prop28
280
     0
102
RTVSPost2010PropOp28
 70
     1
102
RTVSPost2010Prop29
280
     1
102
RTVSPost2010PropOp29
 70
     1
102
RTVSPost2010Prop30
280
     1
102
RTVSPost2010PropOp30
 70
     1
102
RTVSPost2010Prop31
280
     0
102
RTVSPost2010PropOp31
 70
     1
102
RTVSPost2010Prop32
280
     0
102
RTVSPost2010PropOp32
 70
     1
102
RTVSPost2010Prop33
280
     0
102
RTVSPost2010PropOp33
 70
     1
102
RTVSPost2010Prop34
280
     0
102
RTVSPost2010PropOp34
 70
     1
102
RTVSPost2010Prop35
280
     0
102
RTVSPost2010PropOp35
 70
     1
102
RTVSPost2010Prop36
280
     0
102
RTVSPost2010PropOp36
 70
     1
102
RTVSPost2010Prop37
 90
       50
102
RTVSPost2010PropOp37
 70
     1
102
RTVSPost2010Prop38
140
0.0
102
RTVSPost2010PropOp38
 70
     1
102
RTVSPost2010Prop39
140
1.0
102
RTVSPost2010PropOp39
 70
     1
102
RTVSPost2010Prop40
 90
        0
102
RTVSPost2010PropOp40
 70
     1
102
RTVSPost2010Prop41ColorIndex
 90
       18
102
RTVSPost2010Prop41ColorRGB
 90
        0
102
RTVSPost2010PropOp41
 70
     1
102
RTVSPost2010Prop42
 90
       50
102
RTVSPost2010PropOp42
 70
     1
102
RTVSPost2010Prop43
 90
        3
102
RTVSPost2010PropOp43
 70
     1
102
RTVSPost2010Prop44ColorIndex
 90
        5
102
RTVSPost2010Prop44ColorRGB
 90
      255
102
RTVSPost2010PropOp44
 70
     1
102
RTVSPost2010Prop45
280
     0
102
RTVSPost2010PropOp45
 70
     1
102
RTVSPost2010Prop46
 90
       50
102
RTVSPost2010PropOp46
 70
     1
102
RTVSPost2010Prop47
 90
       50
102
RTVSPost2010PropOp47
 70
     1
102
RTVSPost2010Prop48
 90
       50
102
RTVSPost2010PropOp48
 70
     1
102
RTVSPost2010Prop49
280
     0
102
RTVSPost2010PropOp49
 70
     1
102
RTVSPost2010Prop50
 90
       50
102
RTVSPost2010PropOp50
 70
     1
102
RTVSPost2010Prop51ColorIndex
 90
      256
102
RTVSPost2010Prop51ColorRGB
 90
-16777216
102
RTVSPost2010PropOp51
 70
     0
102
RTVSPost2010Prop52
140
1.0
102
RTVSPost2010PropOp52
 70
     0
102
RTVSPost2010Prop53
 90
        2
102
RTVSPost2010PropOp53
 70
     1
102
RTVSPost2010Prop54
  1
strokes_ogs.tif
102
RTVSPost2010PropOp54
 70
     1
102
RTVSPost2010Prop55
280
     0
102
RTVSPost2010PropOp55
 70
     1
102
RTVSPost2010Prop56
140
1.0
102
RTVSPost2010PropOp56
 70
     1
102
RTVSPost2010Prop57
140
1.0
102
RTVSPost2010PropOp57
 70
     1
  0
ENDSEC
  0
EOF
