  0
SECTION
  2
HEADER
  9
$ACADVER
  1
AC1015
  9
$ACADMAINTVER
 70
     6
  9
$DWGCODEPAGE
  3
ANSI_932
  9
$INSBASE
 10
0.0
 20
0.0
 30
0.0
  9
$EXTMIN
 10
1.000000000000000E+20
 20
1.000000000000000E+20
 30
1.000000000000000E+20
  9
$EXTMAX
 10
-1.000000000000000E+20
 20
-1.000000000000000E+20
 30
-1.000000000000000E+20
  9
$LIMMIN
 10
0.0
 20
0.0
  9
$LIMMAX
 10
12.0
 20
9.0
  9
$ORTHOMODE
 70
     0
  9
$REGENMODE
 70
     1
  9
$FILLMODE
 70
     1
  9
$QTEXTMODE
 70
     0
  9
$MIRRTEXT
 70
     1
  9
$LTSCALE
 40
1.0
  9
$ATTMODE
 70
     1
  9
$TEXTSIZE
 40
0.2
  9
$TRACEWID
 40
0.05
  9
$TEXTSTYLE
  7
Standard
  9
$CLAYER
  8
0
  9
$CELTYPE
  6
ByLayer
  9
$CECOLOR
 62
   256
  9
$CELTSCALE
 40
1.0
  9
$DISPSILH
 70
     0
  9
$DIMSCALE
 40
1.0
  9
$DIMASZ
 40
0.18
  9
$DIMEXO
 40
0.0625
  9
$DIMDLI
 40
0.38
  9
$DIMRND
 40
0.0
  9
$DIMDLE
 40
0.0
  9
$DIMEXE
 40
0.18
  9
$DIMTP
 40
0.0
  9
$DIMTM
 40
0.0
  9
$DIMTXT
 40
0.18
  9
$DIMCEN
 40
0.09
  9
$DIMTSZ
 40
0.0
  9
$DIMTOL
 70
     0
  9
$DIMLIM
 70
     0
  9
$DIMTIH
 70
     1
  9
$DIMTOH
 70
     1
  9
$DIMSE1
 70
     0
  9
$DIMSE2
 70
     0
  9
$DIMTAD
 70
     0
  9
$DIMZIN
 70
     0
  9
$DIMBLK
  1

  9
$DIMASO
 70
     1
  9
$DIMSHO
 70
     1
  9
$DIMPOST
  1

  9
$DIMAPOST
  1

  9
$DIMALT
 70
     0
  9
$DIMALTD
 70
     2
  9
$DIMALTF
 40
25.4
  9
$DIMLFAC
 40
1.0
  9
$DIMTOFL
 70
     0
  9
$DIMTVP
 40
0.0
  9
$DIMTIX
 70
     0
  9
$DIMSOXD
 70
     0
  9
$DIMSAH
 70
     0
  9
$DIMBLK1
  1

  9
$DIMBLK2
  1

  9
$DIMSTYLE
  2
Standard
  9
$DIMCLRD
 70
     0
  9
$DIMCLRE
 70
     0
  9
$DIMCLRT
 70
     0
  9
$DIMTFAC
 40
1.0
  9
$DIMGAP
 40
0.09
  9
$DIMJUST
 70
     0
  9
$DIMSD1
 70
     0
  9
$DIMSD2
 70
     0
  9
$DIMTOLJ
 70
     1
  9
$DIMTZIN
 70
     0
  9
$DIMALTZ
 70
     0
  9
$DIMALTTZ
 70
     0
  9
$DIMUPT
 70
     0
  9
$DIMDEC
 70
     4
  9
$DIMTDEC
 70
     4
  9
$DIMALTU
 70
     2
  9
$DIMALTTD
 70
     2
  9
$DIMTXSTY
  7
Standard
  9
$DIMAUNIT
 70
     0
  9
$DIMADEC
 70
     0
  9
$DIMALTRND
 40
0.0
  9
$DIMAZIN
 70
     0
  9
$DIMDSEP
 70
    46
  9
$DIMATFIT
 70
     3
  9
$DIMFRAC
 70
     0
  9
$DIMLDRBLK
  1

  9
$DIMLUNIT
 70
     2
  9
$DIMLWD
 70
    -2
  9
$DIMLWE
 70
    -2
  9
$DIMTMOVE
 70
     0
  9
$LUNITS
 70
     2
  9
$LUPREC
 70
     4
  9
$SKETCHINC
 40
0.1
  9
$FILLETRAD
 40
0.5
  9
$AUNITS
 70
     0
  9
$AUPREC
 70
     0
  9
$MENU
  1
.
  9
$ELEVATION
 40
0.0
  9
$PELEVATION
 40
0.0
  9
$THICKNESS
 40
0.0
  9
$LIMCHECK
 70
     0
  9
$CHAMFERA
 40
0.5
  9
$CHAMFERB
 40
0.5
  9
$CHAMFERC
 40
1.0
  9
$CHAMFERD
 40
0.0
  9
$SKPOLY
 70
     0
  9
$TDCREATE
 40
2456751.661666667
  9
$TDUCREATE
 40
2456751.578333333
  9
$TDUPDATE
 40
2460427.593843461
  9
$TDUUPDATE
 40
2460427.510510128
  9
$TDINDWG
 40
0.0000000116
  9
$TDUSRTIMER
 40
0.0000000116
  9
$USRTIMER
 70
     1
  9
$ANGBASE
 50
0.0
  9
$ANGDIR
 70
     0
  9
$PDMODE
 70
     0
  9
$PDSIZE
 40
0.0
  9
$PLINEWID
 40
0.0
  9
$SPLFRAME
 70
     0
  9
$SPLINETYPE
 70
     6
  9
$SPLINESEGS
 70
     8
  9
$HANDSEED
  5
4F0
  9
$SURFTAB1
 70
     6
  9
$SURFTAB2
 70
     6
  9
$SURFTYPE
 70
     6
  9
$SURFU
 70
     6
  9
$SURFV
 70
     6
  9
$UCSBASE
  2

  9
$UCSNAME
  2

  9
$UCSORG
 10
0.0
 20
0.0
 30
0.0
  9
$UCSXDIR
 10
1.0
 20
0.0
 30
0.0
  9
$UCSYDIR
 10
0.0
 20
1.0
 30
0.0
  9
$UCSORTHOREF
  2

  9
$UCSORTHOVIEW
 70
     0
  9
$UCSORGTOP
 10
0.0
 20
0.0
 30
0.0
  9
$UCSORGBOTTOM
 10
0.0
 20
0.0
 30
0.0
  9
$UCSORGLEFT
 10
0.0
 20
0.0
 30
0.0
  9
$UCSORGRIGHT
 10
0.0
 20
0.0
 30
0.0
  9
$UCSORGFRONT
 10
0.0
 20
0.0
 30
0.0
  9
$UCSORGBACK
 10
0.0
 20
0.0
 30
0.0
  9
$PUCSBASE
  2

  9
$PUCSNAME
  2

  9
$PUCSORG
 10
0.0
 20
0.0
 30
0.0
  9
$PUCSXDIR
 10
1.0
 20
0.0
 30
0.0
  9
$PUCSYDIR
 10
0.0
 20
1.0
 30
0.0
  9
$PUCSORTHOREF
  2

  9
$PUCSORTHOVIEW
 70
     0
  9
$PUCSORGTOP
 10
0.0
 20
0.0
 30
0.0
  9
$PUCSORGBOTTOM
 10
0.0
 20
0.0
 30
0.0
  9
$PUCSORGLEFT
 10
0.0
 20
0.0
 30
0.0
  9
$PUCSORGRIGHT
 10
0.0
 20
0.0
 30
0.0
  9
$PUCSORGFRONT
 10
0.0
 20
0.0
 30
0.0
  9
$PUCSORGBACK
 10
0.0
 20
0.0
 30
0.0
  9
$USERI1
 70
     0
  9
$USERI2
 70
     0
  9
$USERI3
 70
     0
  9
$USERI4
 70
     0
  9
$USERI5
 70
     0
  9
$USERR1
 40
0.0
  9
$USERR2
 40
0.0
  9
$USERR3
 40
0.0
  9
$USERR4
 40
0.0
  9
$USERR5
 40
0.0
  9
$WORLDVIEW
 70
     1
  9
$SHADEDGE
 70
     3
  9
$SHADEDIF
 70
    70
  9
$TILEMODE
 70
     1
  9
$MAXACTVP
 70
    64
  9
$PINSBASE
 10
0.0
 20
0.0
 30
0.0
  9
$PLIMCHECK
 70
     0
  9
$PEXTMIN
 10
1.000000000000000E+20
 20
1.000000000000000E+20
 30
1.000000000000000E+20
  9
$PEXTMAX
 10
-1.000000000000000E+20
 20
-1.000000000000000E+20
 30
-1.000000000000000E+20
  9
$PLIMMIN
 10
0.0
 20
0.0
  9
$PLIMMAX
 10
12.0
 20
9.0
  9
$UNITMODE
 70
     0
  9
$VISRETAIN
 70
     1
  9
$PLINEGEN
 70
     0
  9
$PSLTSCALE
 70
     1
  9
$TREEDEPTH
 70
  3020
  9
$CMLSTYLE
  2
Standard
  9
$CMLJUST
 70
     0
  9
$CMLSCALE
 40
1.0
  9
$PROXYGRAPHICS
 70
     1
  9
$MEASUREMENT
 70
     0
  9
$CELWEIGHT
370
    -1
  9
$ENDCAPS
280
     0
  9
$JOINSTYLE
280
     0
  9
$LWDISPLAY
290
     1
  9
$INSUNITS
 70
     1
  9
$HYPERLINKBASE
  1

  9
$STYLESHEET
  1

  9
$XEDIT
290
     1
  9
$CEPSNTYPE
380
     0
  9
$PSTYLEMODE
290
     1
  9
$FINGERPRINTGUID
  2
{7284158F-9AD4-F8CD-55B1-ABFB6D0D1BF0}
  9
$VERSIONGUID
  2
{FAEB1C32-E019-11D5-929B-00C0DF256EC4}
  9
$EXTNAMES
290
     1
  9
$PSVPSCALE
 40
0.0
  9
$OLESTARTUP
290
     0
  0
ENDSEC
  0
SECTION
  2
CLASSES
  0
CLASS
  1
ACDBDICTIONARYWDFLT
  2
AcDbDictionaryWithDefault
  3
ObjectDBX Classes
 90
        0
280
     0
281
     0
  0
CLASS
  1
VISUALSTYLE
  2
AcDbVisualStyle
  3
ObjectDBX Classes
 90
     4095
280
     0
281
     0
  0
CLASS
  1
ACDBPLACEHOLDER
  2
AcDbPlaceHolder
  3
ObjectDBX Classes
 90
        0
280
     0
281
     0
  0
CLASS
  1
LAYOUT
  2
AcDbLayout
  3
ObjectDBX Classes
 90
        0
280
     0
281
     0
  0
CLASS
  1
SCALE
  2
AcDbScale
  3
ObjectDBX Classes
 90
     1153
280
     0
281
     0
  0
CLASS
  1
MATERIAL
  2
AcDbMaterial
  3
ObjectDBX Classes
 90
     1153
280
     0
281
     0
  0
CLASS
  1
MLEADERSTYLE
  2
AcDbMLeaderStyle
  3
ACDB_MLEADERSTYLE_CLASS
 90
     4095
280
     0
281
     0
  0
CLASS
  1
TABLESTYLE
  2
AcDbTableStyle
  3
ObjectDBX Classes
 90
     4095
280
     0
281
     0
  0
CLASS
  1
DICTIONARYVAR
  2
AcDbDictionaryVar
  3
ObjectDBX Classes
 90
        0
280
     0
281
     0
  0
ENDSEC
  0
SECTION
  2
TABLES
  0
TABLE
  2
VPORT
  5
8
102
{ACAD_XDICTIONARY
360
4AF
102
}
330
0
100
AcDbSymbolTable
 70
     1
  0
VPORT
  5
29
330
8
100
AcDbSymbolTableRecord
100
AcDbViewportTableRecord
  2
*Active
 70
     0
 10
0.0
 20
0.0
 11
1.0
 21
1.0
 12
0.0
 22
0.0
 13
0.0
 23
0.0
 14
0.5
 24
0.5
 15
0.5
 25
0.5
 16
0.0
 26
0.0
 36
1.0
 17
104.9514580985449
 27
148.5195423848316
 37
0.0
 40
209.9029161970898
 41
1.415126050420168
 42
50.0
 43
0.0
 44
0.0
 50
0.0
 51
0.0
 71
     0
 72
   100
 73
     1
 74
     3
 75
     0
 76
     0
 77
     0
 78
     0
281
     0
 65
     1
110
0.0
120
0.0
130
0.0
111
1.0
121
0.0
131
0.0
112
0.0
122
1.0
132
0.0
 79
     0
146
0.0
  0
ENDTAB
  0
TABLE
  2
LTYPE
  5
5
330
0
100
AcDbSymbolTable
 70
     1
  0
LTYPE
  5
14
330
5
100
AcDbSymbolTableRecord
100
AcDbLinetypeTableRecord
  2
ByBlock
 70
     0
  3

 72
    65
 73
     0
 40
0.0
  0
LTYPE
  5
15
330
5
100
AcDbSymbolTableRecord
100
AcDbLinetypeTableRecord
  2
ByLayer
 70
     0
  3

 72
    65
 73
     0
 40
0.0
  0
LTYPE
  5
16
330
5
100
AcDbSymbolTableRecord
100
AcDbLinetypeTableRecord
  2
Continuous
 70
     0
  3
Solid line
 72
    65
 73
     0
 40
0.0
  0
ENDTAB
  0
TABLE
  2
LAYER
  5
2
330
0
100
AcDbSymbolTable
 70
     2
  0
LAYER
  5
10
330
2
100
AcDbSymbolTableRecord
100
AcDbLayerTableRecord
  2
0
 70
     0
 62
     7
  6
Continuous
370
    -3
390
F
  0
LAYER
  5
3B
330
2
100
AcDbSymbolTableRecord
100
AcDbLayerTableRecord
  2
Capa 1
 70
     0
 62
     7
  6
Continuous
370
    -3
390
F
  0
ENDTAB
  0
TABLE
  2
STYLE
  5
3
330
0
100
AcDbSymbolTable
 70
     4
  0
STYLE
  5
11
330
3
100
AcDbSymbolTableRecord
100
AcDbTextStyleTableRecord
  2
Standard
 70
     0
 40
0.0
 41
1.0
 50
0.0
 71
     0
 42
0.2
  3
txt
  4

  0
STYLE
  5
4A4
330
3
100
AcDbSymbolTableRecord
100
AcDbTextStyleTableRecord
  2
MtXpl_Helvetica
 70
     0
 40
0.2
 41
1.0
 50
0.0
 71
     0
 42
0.2
  3

  4

1001
ACAD
1000
Helvetica
1071
       34
  0
STYLE
  5
4A5
330
3
100
AcDbSymbolTableRecord
100
AcDbTextStyleTableRecord
  2
MtXpl_Helvetica1
 70
     0
 40
0.2
 41
1.0
 50
0.0
 71
     0
 42
0.2
  3

  4

1001
ACAD
1000
Helvetica
1071
 33554466
  0
STYLE
  5
4A6
330
3
100
AcDbSymbolTableRecord
100
AcDbTextStyleTableRecord
  2
MtXpl_Arial
 70
     0
 40
0.2
 41
1.0
 50
0.0
 71
     0
 42
0.2
  3

  4

1001
ACAD
1000
Arial
1071
       34
  0
ENDTAB
  0
TABLE
  2
VIEW
  5
6
330
0
100
AcDbSymbolTable
 70
     0
  0
ENDTAB
  0
TABLE
  2
UCS
  5
7
330
0
100
AcDbSymbolTable
 70
     0
  0
ENDTAB
  0
TABLE
  2
APPID
  5
9
330
0
100
AcDbSymbolTable
 70
     2
  0
APPID
  5
12
330
9
100
AcDbSymbolTableRecord
100
AcDbRegAppTableRecord
  2
ACAD
 70
     0
  0
APPID
  5
4ED
330
9
100
AcDbSymbolTableRecord
100
AcDbRegAppTableRecord
  2
ACAD_MLEADERVER
 70
     0
  0
ENDTAB
  0
TABLE
  2
DIMSTYLE
  5
A
330
0
100
AcDbSymbolTable
 70
     1
100
AcDbDimStyleTable
  0
DIMSTYLE
105
27
330
A
100
AcDbSymbolTableRecord
100
AcDbDimStyleTableRecord
  2
Standard
 70
     0
178
     0
340
11
  0
ENDTAB
  0
TABLE
  2
BLOCK_RECORD
  5
1
330
0
100
AcDbSymbolTable
 70
     2
  0
BLOCK_RECORD
  5
1F
330
1
100
AcDbSymbolTableRecord
100
AcDbBlockTableRecord
  2
*Model_Space
340
22
  0
BLOCK_RECORD
  5
1B
330
1
100
AcDbSymbolTableRecord
100
AcDbBlockTableRecord
  2
*Paper_Space
340
1E
  0
BLOCK_RECORD
  5
23
330
1
100
AcDbSymbolTableRecord
100
AcDbBlockTableRecord
  2
*Paper_Space0
340
26
  0
BLOCK_RECORD
  5
2D1
330
1
100
AcDbSymbolTableRecord
100
AcDbBlockTableRecord
  2
block 2
340
0
102
{BLKREFS
331
2D2
102
}
  0
ENDTAB
  0
ENDSEC
  0
SECTION
  2
BLOCKS
  0
BLOCK
  5
20
330
1F
100
AcDbEntity
  8
0
100
AcDbBlockBegin
  2
*Model_Space
 70
     0
 10
0.0
 20
0.0
 30
0.0
  3
*Model_Space
  1

  0
ENDBLK
  5
21
330
1F
100
AcDbEntity
  8
0
100
AcDbBlockEnd
  0
BLOCK
  5
1C
330
1B
100
AcDbEntity
 67
     1
  8
0
100
AcDbBlockBegin
  2
*Paper_Space
 70
     0
 10
0.0
 20
0.0
 30
0.0
  3
*Paper_Space
  1

  0
ENDBLK
  5
1D
330
1B
100
AcDbEntity
 67
     1
  8
0
100
AcDbBlockEnd
  0
BLOCK
  5
24
330
23
100
AcDbEntity
  8
0
100
AcDbBlockBegin
  2
*Paper_Space0
 70
     0
 10
0.0
 20
0.0
 30
0.0
  3
*Paper_Space0
  1

  0
ENDBLK
  5
25
330
23
100
AcDbEntity
  8
0
100
AcDbBlockEnd
  0
BLOCK
  5
2D3
330
2D1
100
AcDbEntity
  8
0
100
AcDbBlockBegin
  2
block 2
 70
     0
 10
0.0
 20
0.0
 30
0.0
  3
block 2
  1

  0
POLYLINE
  5
2D5
330
2D1
100
AcDbEntity
  8
Capa 1
370
     0
100
AcDb2dPolyline
 66
     1
 10
0.0
 20
0.0
 30
0.0
  0
VERTEX
  5
2D6
330
2D5
100
AcDbEntity
  8
Capa 1
370
     0
100
AcDbVertex
100
AcDb2dVertex
 10
128.7143643938614
 20
73.5931447762502
 30
0.0
  0
VERTEX
  5
2D7
330
2D5
100
AcDbEntity
  8
Capa 1
370
     0
100
AcDbVertex
100
AcDb2dVertex
 10
229.6371251742459
 20
73.5931447762502
 30
0.0
  0
VERTEX
  5
2D8
330
2D5
100
AcDbEntity
  8
Capa 1
370
     0
100
AcDbVertex
100
AcDb2dVertex
 10
229.6371251742459
 20
133.8334351524167
 30
0.0
  0
VERTEX
  5
2D9
330
2D5
100
AcDbEntity
  8
Capa 1
370
     0
100
AcDbVertex
100
AcDb2dVertex
 10
128.7143643938614
 20
133.8334351524167
 30
0.0
  0
VERTEX
  5
2DA
330
2D5
100
AcDbEntity
  8
Capa 1
370
     0
100
AcDbVertex
100
AcDb2dVertex
 10
128.7143643938614
 20
73.5931447762502
 30
0.0
  0
SEQEND
  5
2DB
330
2D5
100
AcDbEntity
  8
Capa 1
370
     0
  0
ENDBLK
  5
2D4
330
2D1
100
AcDbEntity
  8
0
100
AcDbBlockEnd
  0
ENDSEC
  0
SECTION
  2
ENTITIES
  0
POLYLINE
  5
3C
330
1F
100
AcDbEntity
  8
Capa 1
 62
     7
370
    35
100
AcDb2dPolyline
 66
     1
 10
0.0
 20
0.0
 30
0.0
  0
VERTEX
  5
3D
330
3C
100
AcDbEntity
  8
Capa 1
 62
     7
370
    35
100
AcDbVertex
100
AcDb2dVertex
 10
-35.15791163955063
 20
54.37397791390933
 30
0.0
  0
VERTEX
  5
3E
330
3C
100
AcDbEntity
  8
Capa 1
 62
     7
370
    35
100
AcDbVertex
100
AcDb2dVertex
 10
-35.15791163955063
 20
247.7950296722467
 30
0.0
  0
SEQEND
  5
3F
330
3C
100
AcDbEntity
  8
Capa 1
370
    35
  0
POLYLINE
  5
40
330
1F
100
AcDbEntity
  8
Capa 1
 62
     7
370
    35
100
AcDb2dPolyline
 66
     1
 10
0.0
 20
0.0
 30
0.0
  0
VERTEX
  5
41
330
40
100
AcDbEntity
  8
Capa 1
 62
     7
370
    35
100
AcDbVertex
100
AcDb2dVertex
 10
-35.15791163955063
 20
54.37397791390933
 30
0.0
  0
VERTEX
  5
42
330
40
100
AcDbEntity
  8
Capa 1
 62
     7
370
    35
100
AcDbVertex
100
AcDb2dVertex
 10
241.8293261396723
 20
54.37397791390933
 30
0.0
  0
SEQEND
  5
43
330
40
100
AcDbEntity
  8
Capa 1
370
    35
  0
POLYLINE
  5
44
330
1F
100
AcDbEntity
  8
Capa 1
 62
     7
370
    35
100
AcDb2dPolyline
 66
     1
 10
0.0
 20
0.0
 30
0.0
  0
VERTEX
  5
45
330
44
100
AcDbEntity
  8
Capa 1
 62
     7
370
    35
100
AcDbVertex
100
AcDb2dVertex
 10
144.8436230770864
 20
247.7526549698237
 30
0.0
  0
VERTEX
  5
46
330
44
100
AcDbEntity
  8
Capa 1
 62
     7
370
    35
100
AcDbVertex
100
AcDb2dVertex
 10
-35.20028634197355
 20
247.7526549698237
 30
0.0
  0
SEQEND
  5
47
330
44
100
AcDbEntity
  8
Capa 1
370
    35
  0
POLYLINE
  5
48
330
1F
100
AcDbEntity
  8
Capa 1
 62
     7
370
    35
100
AcDb2dPolyline
 66
     1
 10
0.0
 20
0.0
 30
0.0
  0
VERTEX
  5
49
330
48
100
AcDbEntity
  8
Capa 1
 62
     7
370
    35
100
AcDbVertex
100
AcDb2dVertex
 10
241.8293261396723
 20
247.7526549698237
 30
0.0
  0
VERTEX
  5
4A
330
48
100
AcDbEntity
  8
Capa 1
 62
     7
370
    35
100
AcDbVertex
100
AcDb2dVertex
 10
-35.20028634197355
 20
247.7526549698237
 30
0.0
  0
SEQEND
  5
4B
330
48
100
AcDbEntity
  8
Capa 1
370
    35
  0
POLYLINE
  5
4C
330
1F
100
AcDbEntity
  8
Capa 1
 62
     7
370
    35
100
AcDb2dPolyline
 66
     1
 10
0.0
 20
0.0
 30
0.0
  0
VERTEX
  5
4D
330
4C
100
AcDbEntity
  8
Capa 1
 62
     7
370
    35
100
AcDbVertex
100
AcDb2dVertex
 10
-35.15791163955063
 20
227.7290577809988
 30
0.0
  0
VERTEX
  5
4E
330
4C
100
AcDbEntity
  8
Capa 1
 62
     7
370
    35
100
AcDbVertex
100
AcDb2dVertex
 10
241.8293261396723
 20
227.7290577809988
 30
0.0
  0
SEQEND
  5
4F
330
4C
100
AcDbEntity
  8
Capa 1
370
    35
  0
POLYLINE
  5
50
330
1F
100
AcDbEntity
  8
Capa 1
 62
     7
370
    35
100
AcDb2dPolyline
 66
     1
 10
0.0
 20
0.0
 30
0.0
  0
VERTEX
  5
51
330
50
100
AcDbEntity
  8
Capa 1
 62
     7
370
    35
100
AcDbVertex
100
AcDb2dVertex
 10
94.84801990377063
 20
243.7310201020672
 30
0.0
  0
VERTEX
  5
52
330
50
100
AcDbEntity
  8
Capa 1
 62
     7
370
    35
100
AcDbVertex
100
AcDb2dVertex
 10
11.78981354729649
 20
243.7310201020672
 30
0.0
  0
SEQEND
  5
53
330
50
100
AcDbEntity
  8
Capa 1
370
    35
  0
POLYLINE
  5
54
330
1F
100
AcDbEntity
  8
Capa 1
 62
     7
370
    35
100
AcDb2dPolyline
 66
     1
 10
0.0
 20
0.0
 30
0.0
  0
VERTEX
  5
55
330
54
100
AcDbEntity
  8
Capa 1
 62
     7
370
    35
100
AcDbVertex
100
AcDb2dVertex
 10
11.83218824971942
 20
231.7506926487554
 30
0.0
  0
VERTEX
  5
56
330
54
100
AcDbEntity
  8
Capa 1
 62
     7
370
    35
100
AcDbVertex
100
AcDb2dVertex
 10
94.84801990377063
 20
231.7506926487554
 30
0.0
  0
SEQEND
  5
57
330
54
100
AcDbEntity
  8
Capa 1
370
    35
  0
POLYLINE
  5
58
330
1F
100
AcDbEntity
  8
Capa 1
 62
     7
370
    35
100
AcDb2dPolyline
 66
     1
 10
0.0
 20
0.0
 30
0.0
  0
VERTEX
  5
59
330
58
100
AcDbEntity
  8
Capa 1
 62
     7
370
    35
100
AcDbVertex
100
AcDb2dVertex
 10
182.8165240946676
 20
231.7506926487554
 30
0.0
  0
VERTEX
  5
5A
330
58
100
AcDbEntity
  8
Capa 1
 62
     7
370
    35
100
AcDbVertex
100
AcDb2dVertex
 10
182.8165240946676
 20
243.7733948044901
 30
0.0
  0
SEQEND
  5
5B
330
58
100
AcDbEntity
  8
Capa 1
370
    35
  0
POLYLINE
  5
5C
330
1F
100
AcDbEntity
  8
Capa 1
 62
     7
370
    35
100
AcDb2dPolyline
 66
     1
 10
0.0
 20
0.0
 30
0.0
  0
VERTEX
  5
5D
330
5C
100
AcDbEntity
  8
Capa 1
 62
     7
370
    35
100
AcDbVertex
100
AcDb2dVertex
 10
179.8533955130447
 20
243.7310201020672
 30
0.0
  0
VERTEX
  5
5E
330
5C
100
AcDbEntity
  8
Capa 1
 62
     7
370
    35
100
AcDbVertex
100
AcDb2dVertex
 10
179.8533955130447
 20
231.7506926487554
 30
0.0
  0
SEQEND
  5
5F
330
5C
100
AcDbEntity
  8
Capa 1
370
    35
  0
POLYLINE
  5
60
330
1F
100
AcDbEntity
  8
Capa 1
 62
     7
370
    35
100
AcDb2dPolyline
 66
     1
 10
0.0
 20
0.0
 30
0.0
  0
VERTEX
  5
61
330
60
100
AcDbEntity
  8
Capa 1
 62
     7
370
    35
100
AcDbVertex
100
AcDb2dVertex
 10
11.83218824971942
 20
231.7506926487554
 30
0.0
  0
VERTEX
  5
62
330
60
100
AcDbEntity
  8
Capa 1
 62
     7
370
    35
100
AcDbVertex
100
AcDb2dVertex
 10
11.83218824971942
 20
243.7733948044901
 30
0.0
  0
SEQEND
  5
63
330
60
100
AcDbEntity
  8
Capa 1
370
    35
  0
POLYLINE
  5
64
330
1F
100
AcDbEntity
  8
Capa 1
 62
     7
370
    35
100
AcDb2dPolyline
 66
     1
 10
0.0
 20
0.0
 30
0.0
  0
VERTEX
  5
65
330
64
100
AcDbEntity
  8
Capa 1
 62
     7
370
    35
100
AcDbVertex
100
AcDb2dVertex
 10
238.8238228556265
 20
243.7310201020672
 30
0.0
  0
VERTEX
  5
66
330
64
100
AcDbEntity
  8
Capa 1
 62
     7
370
    35
100
AcDbVertex
100
AcDb2dVertex
 10
207.793138330114
 20
243.7310201020672
 30
0.0
  0
SEQEND
  5
67
330
64
100
AcDbEntity
  8
Capa 1
370
    35
  0
POLYLINE
  5
68
330
1F
100
AcDbEntity
  8
Capa 1
 62
     7
370
    35
100
AcDb2dPolyline
 66
     1
 10
0.0
 20
0.0
 30
0.0
  0
VERTEX
  5
69
330
68
100
AcDbEntity
  8
Capa 1
 62
     7
370
    35
100
AcDbVertex
100
AcDb2dVertex
 10
207.8355130325369
 20
231.7506926487554
 30
0.0
  0
VERTEX
  5
6A
330
68
100
AcDbEntity
  8
Capa 1
 62
     7
370
    35
100
AcDbVertex
100
AcDb2dVertex
 10
238.8238228556265
 20
231.7506926487554
 30
0.0
  0
SEQEND
  5
6B
330
68
100
AcDbEntity
  8
Capa 1
370
    35
  0
POLYLINE
  5
6C
330
1F
100
AcDbEntity
  8
Capa 1
 62
     7
370
    35
100
AcDb2dPolyline
 66
     1
 10
0.0
 20
0.0
 30
0.0
  0
VERTEX
  5
6D
330
6C
100
AcDbEntity
  8
Capa 1
 62
     7
370
    35
100
AcDbVertex
100
AcDb2dVertex
 10
207.8355130325369
 20
243.7310201020672
 30
0.0
  0
VERTEX
  5
6E
330
6C
100
AcDbEntity
  8
Capa 1
 62
     7
370
    35
100
AcDbVertex
100
AcDb2dVertex
 10
182.7741493922447
 20
243.7310201020672
 30
0.0
  0
SEQEND
  5
6F
330
6C
100
AcDbEntity
  8
Capa 1
370
    35
  0
POLYLINE
  5
70
330
1F
100
AcDbEntity
  8
Capa 1
 62
     7
370
    35
100
AcDb2dPolyline
 66
     1
 10
0.0
 20
0.0
 30
0.0
  0
VERTEX
  5
71
330
70
100
AcDbEntity
  8
Capa 1
 62
     7
370
    35
100
AcDbVertex
100
AcDb2dVertex
 10
182.8165240946676
 20
231.7506926487554
 30
0.0
  0
VERTEX
  5
72
330
70
100
AcDbEntity
  8
Capa 1
 62
     7
370
    35
100
AcDbVertex
100
AcDb2dVertex
 10
207.8355130325369
 20
231.7506926487554
 30
0.0
  0
SEQEND
  5
73
330
70
100
AcDbEntity
  8
Capa 1
370
    35
  0
POLYLINE
  5
74
330
1F
100
AcDbEntity
  8
Capa 1
 62
     7
370
    35
100
AcDb2dPolyline
 66
     1
 10
0.0
 20
0.0
 30
0.0
  0
VERTEX
  5
75
330
74
100
AcDbEntity
  8
Capa 1
 62
     7
370
    35
100
AcDbVertex
100
AcDb2dVertex
 10
179.8533955130447
 20
243.7310201020672
 30
0.0
  0
VERTEX
  5
76
330
74
100
AcDbEntity
  8
Capa 1
 62
     7
370
    35
100
AcDbVertex
100
AcDb2dVertex
 10
124.7773066760628
 20
243.7310201020672
 30
0.0
  0
SEQEND
  5
77
330
74
100
AcDbEntity
  8
Capa 1
370
    35
  0
POLYLINE
  5
78
330
1F
100
AcDbEntity
  8
Capa 1
 62
     7
370
    35
100
AcDb2dPolyline
 66
     1
 10
0.0
 20
0.0
 30
0.0
  0
VERTEX
  5
79
330
78
100
AcDbEntity
  8
Capa 1
 62
     7
370
    35
100
AcDbVertex
100
AcDb2dVertex
 10
124.8200258882615
 20
231.7506926487554
 30
0.0
  0
VERTEX
  5
7A
330
78
100
AcDbEntity
  8
Capa 1
 62
     7
370
    35
100
AcDbVertex
100
AcDb2dVertex
 10
179.8533955130447
 20
231.7506926487554
 30
0.0
  0
SEQEND
  5
7B
330
78
100
AcDbEntity
  8
Capa 1
370
    35
  0
MTEXT
  5
7C
330
1F
100
AcDbEntity
  8
Capa 1
 62
     7
100
AcDbMText
 10
-21.61006470636628
 20
232.807648640898
 30
0.0
 40
1.906657352415504
 41
0.0
 71
     7
 72
     1
  1
\fHelvetica|b0|i0|c0|p34;\W1.00059;www.benito.com
 73
     1
 44
1.0
  0
MTEXT
  5
7D
330
1F
100
AcDbEntity
  8
Capa 1
 62
     7
100
AcDbMText
 10
-25.546950169277
 20
229.7173959520064
 30
0.0
 40
1.906657352415504
 41
0.0
 71
     7
 72
     1
  1
\fHelvetica|b0|i0|c0|p34;\W1.00059;Tel.
 73
     1
 44
1.0
  0
MTEXT
  5
7E
330
1F
100
AcDbEntity
  8
Capa 1
 62
     7
100
AcDbMText
 10
-19.32372557929501
 20
229.7170514422306
 30
0.0
 40
1.417168516790898
 41
0.0
 71
     7
 72
     1
  1
\fHelvetica|b0|i0|c0|p34;\W1.00057;+34
 73
     1
 44
1.0
  0
MTEXT
  5
7F
330
1F
100
AcDbEntity
  8
Capa 1
 62
     7
100
AcDbMText
 10
-15.76769567352695
 20
229.7170514422306
 30
0.0
 40
1.906657352415504
 41
0.0
 71
     7
 72
     1
  1
\fHelvetica|b0|i0|c0|p34;\W1.00059;   93 852 10 00
 73
     1
 44
1.0
  0
POLYLINE
  5
80
330
1F
100
AcDbEntity
  8
Capa 1
 62
     7
370
    35
100
AcDb2dPolyline
 66
     1
 10
0.0
 20
0.0
 30
0.0
  0
VERTEX
  5
81
330
80
100
AcDbEntity
  8
Capa 1
 62
     7
370
    35
100
AcDbVertex
100
AcDb2dVertex
 10
124.8200258882615
 20
237.7196690241998
 30
0.0
  0
VERTEX
  5
82
330
80
100
AcDbEntity
  8
Capa 1
 62
     7
370
    35
100
AcDbVertex
100
AcDb2dVertex
 10
179.8533955130447
 20
237.7196690241998
 30
0.0
  0
SEQEND
  5
83
330
80
100
AcDbEntity
  8
Capa 1
370
    35
  0
POLYLINE
  5
84
330
1F
100
AcDbEntity
  8
Capa 1
 62
     7
370
    35
100
AcDb2dPolyline
 66
     1
 10
0.0
 20
0.0
 30
0.0
  0
VERTEX
  5
85
330
84
100
AcDbEntity
  8
Capa 1
 62
     7
370
    35
100
AcDbVertex
100
AcDb2dVertex
 10
238.8238228556265
 20
231.7506926487554
 30
0.0
  0
VERTEX
  5
86
330
84
100
AcDbEntity
  8
Capa 1
 62
     7
370
    35
100
AcDbVertex
100
AcDb2dVertex
 10
238.8238228556265
 20
243.7733948044901
 30
0.0
  0
SEQEND
  5
87
330
84
100
AcDbEntity
  8
Capa 1
370
    35
  0
POLYLINE
  5
88
330
1F
100
AcDbEntity
  8
Capa 1
 62
     7
370
    35
100
AcDb2dPolyline
 66
     1
 10
0.0
 20
0.0
 30
0.0
  0
VERTEX
  5
89
330
88
100
AcDbEntity
  8
Capa 1
 62
     7
370
    35
100
AcDbVertex
100
AcDb2dVertex
 10
241.8293261396723
 20
247.7526549698237
 30
0.0
  0
VERTEX
  5
8A
330
88
100
AcDbEntity
  8
Capa 1
 62
     7
370
    35
100
AcDbVertex
100
AcDb2dVertex
 10
241.8293261396723
 20
54.37397791390933
 30
0.0
  0
SEQEND
  5
8B
330
88
100
AcDbEntity
  8
Capa 1
370
    35
  0
MTEXT
  5
8C
330
1F
100
AcDbEntity
  8
Capa 1
 62
     7
100
AcDbMText
 10
-34.56363227630223
 20
55.38890371340484
 30
0.0
 40
1.906657352415504
 41
0.0
 71
     7
 72
     1
  1
\fHelvetica|b0|i0|c0|p34;\W1.00059;-
 73
     1
 44
1.0
  0
POLYLINE
  5
8D
330
1F
100
AcDbEntity
  8
Capa 1
370
     0
100
AcDb2dPolyline
 66
     1
 10
0.0
 20
0.0
 30
0.0
  0
VERTEX
  5
8E
330
8D
100
AcDbEntity
  8
Capa 1
370
     0
100
AcDbVertex
100
AcDb2dVertex
 10
-20.80666790920962
 20
238.3123980934571
 30
0.0
  0
VERTEX
  5
8F
330
8D
100
AcDbEntity
  8
Capa 1
370
     0
100
AcDbVertex
100
AcDb2dVertex
 10
-4.550629628491595
 20
238.3123980934571
 30
0.0
  0
VERTEX
  5
90
330
8D
100
AcDbEntity
  8
Capa 1
370
     0
100
AcDbVertex
100
AcDb2dVertex
 10
-3.873667919052123
 20
239.7515876818456
 30
0.0
  0
VERTEX
  5
91
330
8D
100
AcDbEntity
  8
Capa 1
370
     0
100
AcDbVertex
100
AcDb2dVertex
 10
-6.117115579036774
 20
239.2859827198571
 30
0.0
  0
VERTEX
  5
92
330
8D
100
AcDbEntity
  8
Capa 1
370
     0
100
AcDbVertex
100
AcDb2dVertex
 10
-5.947616769345059
 20
239.7515876818456
 30
0.0
  0
VERTEX
  5
93
330
8D
100
AcDbEntity
  8
Capa 1
370
     0
100
AcDbVertex
100
AcDb2dVertex
 10
-8.233783641528435
 20
239.2859827198571
 30
0.0
  0
VERTEX
  5
94
330
8D
100
AcDbEntity
  8
Capa 1
370
     0
100
AcDbVertex
100
AcDb2dVertex
 10
-7.979879936766659
 20
239.7515876818456
 30
0.0
  0
VERTEX
  5
95
330
8D
100
AcDbEntity
  8
Capa 1
370
     0
100
AcDbVertex
100
AcDb2dVertex
 10
-10.26570229917424
 20
239.2859827198571
 30
0.0
  0
VERTEX
  5
96
330
8D
100
AcDbEntity
  8
Capa 1
370
     0
100
AcDbVertex
100
AcDb2dVertex
 10
-10.05417329683539
 20
239.7515876818456
 30
0.0
  0
VERTEX
  5
97
330
8D
100
AcDbEntity
  8
Capa 1
370
     0
100
AcDbVertex
100
AcDb2dVertex
 10
-12.29762095682004
 20
239.2859827198571
 30
0.0
  0
VERTEX
  5
98
330
8D
100
AcDbEntity
  8
Capa 1
370
     0
100
AcDbVertex
100
AcDb2dVertex
 10
-12.0860919544812
 20
239.7515876818456
 30
0.0
  0
VERTEX
  5
99
330
8D
100
AcDbEntity
  8
Capa 1
370
     0
100
AcDbVertex
100
AcDb2dVertex
 10
-14.37225882666457
 20
239.2859827198571
 30
0.0
  0
VERTEX
  5
9A
330
8D
100
AcDbEntity
  8
Capa 1
370
     0
100
AcDbVertex
100
AcDb2dVertex
 10
-14.20276001697286
 20
239.7515876818456
 30
0.0
  0
VERTEX
  5
9B
330
8D
100
AcDbEntity
  8
Capa 1
370
     0
100
AcDbVertex
100
AcDb2dVertex
 10
-16.48892688915623
 20
239.2859827198571
 30
0.0
  0
VERTEX
  5
9C
330
8D
100
AcDbEntity
  8
Capa 1
370
     0
100
AcDbVertex
100
AcDb2dVertex
 10
-16.27705337704159
 20
239.7515876818456
 30
0.0
  0
VERTEX
  5
9D
330
8D
100
AcDbEntity
  8
Capa 1
370
     0
100
AcDbVertex
100
AcDb2dVertex
 10
-18.52084554680204
 20
239.2859827198571
 30
0.0
  0
VERTEX
  5
9E
330
8D
100
AcDbEntity
  8
Capa 1
370
     0
100
AcDbVertex
100
AcDb2dVertex
 10
-18.22456713961733
 20
239.7515876818456
 30
0.0
  0
VERTEX
  5
9F
330
8D
100
AcDbEntity
  8
Capa 1
370
     0
100
AcDbVertex
100
AcDb2dVertex
 10
-20.80666790920962
 20
239.1590308674762
 30
0.0
  0
VERTEX
  5
A0
330
8D
100
AcDbEntity
  8
Capa 1
370
     0
100
AcDbVertex
100
AcDb2dVertex
 10
-20.80666790920962
 20
238.3123980934571
 30
0.0
  0
SEQEND
  5
A1
330
8D
100
AcDbEntity
  8
Capa 1
370
     0
  0
HATCH
  5
A2
330
1F
100
AcDbEntity
  8
Capa 1
 62
     7
100
AcDbHatch
 10
0.0
 20
0.0
 30
0.0
210
0.0
220
0.0
230
1.0
  2
SOLID
 70
     1
 71
     0
 91
        1
 92
        1
 93
       18
 72
     1
 10
-20.80666790920962
 20
238.3123980934571
 11
-4.550629628491595
 21
238.3123980934571
 72
     1
 10
-4.550629628491595
 20
238.3123980934571
 11
-3.873667919052123
 21
239.7515876818456
 72
     1
 10
-3.873667919052123
 20
239.7515876818456
 11
-6.117115579036774
 21
239.2859827198571
 72
     1
 10
-6.117115579036774
 20
239.2859827198571
 11
-5.947616769345059
 21
239.7515876818456
 72
     1
 10
-5.947616769345059
 20
239.7515876818456
 11
-8.233783641528435
 21
239.2859827198571
 72
     1
 10
-8.233783641528435
 20
239.2859827198571
 11
-7.979879936766659
 21
239.7515876818456
 72
     1
 10
-7.979879936766659
 20
239.7515876818456
 11
-10.26570229917424
 21
239.2859827198571
 72
     1
 10
-10.26570229917424
 20
239.2859827198571
 11
-10.05417329683539
 21
239.7515876818456
 72
     1
 10
-10.05417329683539
 20
239.7515876818456
 11
-12.29762095682004
 21
239.2859827198571
 72
     1
 10
-12.29762095682004
 20
239.2859827198571
 11
-12.0860919544812
 21
239.7515876818456
 72
     1
 10
-12.0860919544812
 20
239.7515876818456
 11
-14.37225882666457
 21
239.2859827198571
 72
     1
 10
-14.37225882666457
 20
239.2859827198571
 11
-14.20276001697286
 21
239.7515876818456
 72
     1
 10
-14.20276001697286
 20
239.7515876818456
 11
-16.48892688915623
 21
239.2859827198571
 72
     1
 10
-16.48892688915623
 20
239.2859827198571
 11
-16.27705337704159
 21
239.7515876818456
 72
     1
 10
-16.27705337704159
 20
239.7515876818456
 11
-18.52084554680204
 21
239.2859827198571
 72
     1
 10
-18.52084554680204
 20
239.2859827198571
 11
-18.22456713961733
 21
239.7515876818456
 72
     1
 10
-18.22456713961733
 20
239.7515876818456
 11
-20.80666790920962
 21
239.1590308674762
 72
     1
 10
-20.80666790920962
 20
239.1590308674762
 11
-20.80666790920962
 21
238.3123980934571
 97
        0
 75
     0
 76
     1
 98
        0
  0
POLYLINE
  5
A3
330
1F
100
AcDbEntity
  8
Capa 1
 62
     7
370
    35
100
AcDb2dPolyline
 66
     1
 10
0.0
 20
0.0
 30
0.0
  0
VERTEX
  5
A4
330
A3
100
AcDbEntity
  8
Capa 1
 62
     7
370
    35
100
AcDbVertex
100
AcDb2dVertex
 10
-20.80666790920962
 20
238.3123980934571
 30
0.0
  0
VERTEX
  5
A5
330
A3
100
AcDbEntity
  8
Capa 1
 62
     7
370
    35
100
AcDbVertex
100
AcDb2dVertex
 10
-4.550629628491595
 20
238.3123980934571
 30
0.0
  0
SEQEND
  5
A6
330
A3
100
AcDbEntity
  8
Capa 1
370
    35
  0
POLYLINE
  5
A7
330
1F
100
AcDbEntity
  8
Capa 1
 62
     7
370
    35
100
AcDb2dPolyline
 66
     1
 10
0.0
 20
0.0
 30
0.0
  0
VERTEX
  5
A8
330
A7
100
AcDbEntity
  8
Capa 1
 62
     7
370
    35
100
AcDbVertex
100
AcDb2dVertex
 10
-4.550629628491595
 20
238.3123980934571
 30
0.0
  0
VERTEX
  5
A9
330
A7
100
AcDbEntity
  8
Capa 1
 62
     7
370
    35
100
AcDbVertex
100
AcDb2dVertex
 10
-3.873667919052123
 20
239.7939623842686
 30
0.0
  0
SEQEND
  5
AA
330
A7
100
AcDbEntity
  8
Capa 1
370
    35
  0
POLYLINE
  5
AB
330
1F
100
AcDbEntity
  8
Capa 1
 62
     7
370
    35
100
AcDb2dPolyline
 66
     1
 10
0.0
 20
0.0
 30
0.0
  0
VERTEX
  5
AC
330
AB
100
AcDbEntity
  8
Capa 1
 62
     7
370
    35
100
AcDbVertex
100
AcDb2dVertex
 10
-6.117115579036774
 20
239.2859827198571
 30
0.0
  0
VERTEX
  5
AD
330
AB
100
AcDbEntity
  8
Capa 1
 62
     7
370
    35
100
AcDbVertex
100
AcDb2dVertex
 10
-3.873667919052123
 20
239.7515876818456
 30
0.0
  0
SEQEND
  5
AE
330
AB
100
AcDbEntity
  8
Capa 1
370
    35
  0
POLYLINE
  5
AF
330
1F
100
AcDbEntity
  8
Capa 1
 62
     7
370
    35
100
AcDb2dPolyline
 66
     1
 10
0.0
 20
0.0
 30
0.0
  0
VERTEX
  5
B0
330
AF
100
AcDbEntity
  8
Capa 1
 62
     7
370
    35
100
AcDbVertex
100
AcDb2dVertex
 10
-6.117115579036774
 20
239.2859827198571
 30
0.0
  0
VERTEX
  5
B1
330
AF
100
AcDbEntity
  8
Capa 1
 62
     7
370
    35
100
AcDbVertex
100
AcDb2dVertex
 10
-5.947616769345059
 20
239.7939623842686
 30
0.0
  0
SEQEND
  5
B2
330
AF
100
AcDbEntity
  8
Capa 1
370
    35
  0
POLYLINE
  5
B3
330
1F
100
AcDbEntity
  8
Capa 1
 62
     7
370
    35
100
AcDb2dPolyline
 66
     1
 10
0.0
 20
0.0
 30
0.0
  0
VERTEX
  5
B4
330
B3
100
AcDbEntity
  8
Capa 1
 62
     7
370
    35
100
AcDbVertex
100
AcDb2dVertex
 10
-8.233783641528435
 20
239.2859827198571
 30
0.0
  0
VERTEX
  5
B5
330
B3
100
AcDbEntity
  8
Capa 1
 62
     7
370
    35
100
AcDbVertex
100
AcDb2dVertex
 10
-5.947616769345059
 20
239.7515876818456
 30
0.0
  0
SEQEND
  5
B6
330
B3
100
AcDbEntity
  8
Capa 1
370
    35
  0
POLYLINE
  5
B7
330
1F
100
AcDbEntity
  8
Capa 1
 62
     7
370
    35
100
AcDb2dPolyline
 66
     1
 10
0.0
 20
0.0
 30
0.0
  0
VERTEX
  5
B8
330
B7
100
AcDbEntity
  8
Capa 1
 62
     7
370
    35
100
AcDbVertex
100
AcDb2dVertex
 10
-8.233783641528435
 20
239.2859827198571
 30
0.0
  0
VERTEX
  5
B9
330
B7
100
AcDbEntity
  8
Capa 1
 62
     7
370
    35
100
AcDbVertex
100
AcDb2dVertex
 10
-7.979879936766659
 20
239.7939623842686
 30
0.0
  0
SEQEND
  5
BA
330
B7
100
AcDbEntity
  8
Capa 1
370
    35
  0
POLYLINE
  5
BB
330
1F
100
AcDbEntity
  8
Capa 1
 62
     7
370
    35
100
AcDb2dPolyline
 66
     1
 10
0.0
 20
0.0
 30
0.0
  0
VERTEX
  5
BC
330
BB
100
AcDbEntity
  8
Capa 1
 62
     7
370
    35
100
AcDbVertex
100
AcDb2dVertex
 10
-10.26570229917424
 20
239.2859827198571
 30
0.0
  0
VERTEX
  5
BD
330
BB
100
AcDbEntity
  8
Capa 1
 62
     7
370
    35
100
AcDbVertex
100
AcDb2dVertex
 10
-7.979879936766659
 20
239.7515876818456
 30
0.0
  0
SEQEND
  5
BE
330
BB
100
AcDbEntity
  8
Capa 1
370
    35
  0
POLYLINE
  5
BF
330
1F
100
AcDbEntity
  8
Capa 1
 62
     7
370
    35
100
AcDb2dPolyline
 66
     1
 10
0.0
 20
0.0
 30
0.0
  0
VERTEX
  5
C0
330
BF
100
AcDbEntity
  8
Capa 1
 62
     7
370
    35
100
AcDbVertex
100
AcDb2dVertex
 10
-10.26570229917424
 20
239.2859827198571
 30
0.0
  0
VERTEX
  5
C1
330
BF
100
AcDbEntity
  8
Capa 1
 62
     7
370
    35
100
AcDbVertex
100
AcDb2dVertex
 10
-10.05417329683539
 20
239.7939623842686
 30
0.0
  0
SEQEND
  5
C2
330
BF
100
AcDbEntity
  8
Capa 1
370
    35
  0
POLYLINE
  5
C3
330
1F
100
AcDbEntity
  8
Capa 1
 62
     7
370
    35
100
AcDb2dPolyline
 66
     1
 10
0.0
 20
0.0
 30
0.0
  0
VERTEX
  5
C4
330
C3
100
AcDbEntity
  8
Capa 1
 62
     7
370
    35
100
AcDbVertex
100
AcDb2dVertex
 10
-12.29762095682004
 20
239.2859827198571
 30
0.0
  0
VERTEX
  5
C5
330
C3
100
AcDbEntity
  8
Capa 1
 62
     7
370
    35
100
AcDbVertex
100
AcDb2dVertex
 10
-10.05417329683539
 20
239.7515876818456
 30
0.0
  0
SEQEND
  5
C6
330
C3
100
AcDbEntity
  8
Capa 1
370
    35
  0
POLYLINE
  5
C7
330
1F
100
AcDbEntity
  8
Capa 1
 62
     7
370
    35
100
AcDb2dPolyline
 66
     1
 10
0.0
 20
0.0
 30
0.0
  0
VERTEX
  5
C8
330
C7
100
AcDbEntity
  8
Capa 1
 62
     7
370
    35
100
AcDbVertex
100
AcDb2dVertex
 10
-12.29762095682004
 20
239.2859827198571
 30
0.0
  0
VERTEX
  5
C9
330
C7
100
AcDbEntity
  8
Capa 1
 62
     7
370
    35
100
AcDbVertex
100
AcDb2dVertex
 10
-12.0860919544812
 20
239.7939623842686
 30
0.0
  0
SEQEND
  5
CA
330
C7
100
AcDbEntity
  8
Capa 1
370
    35
  0
POLYLINE
  5
CB
330
1F
100
AcDbEntity
  8
Capa 1
 62
     7
370
    35
100
AcDb2dPolyline
 66
     1
 10
0.0
 20
0.0
 30
0.0
  0
VERTEX
  5
CC
330
CB
100
AcDbEntity
  8
Capa 1
 62
     7
370
    35
100
AcDbVertex
100
AcDb2dVertex
 10
-14.37225882666457
 20
239.2859827198571
 30
0.0
  0
VERTEX
  5
CD
330
CB
100
AcDbEntity
  8
Capa 1
 62
     7
370
    35
100
AcDbVertex
100
AcDb2dVertex
 10
-12.0860919544812
 20
239.7515876818456
 30
0.0
  0
SEQEND
  5
CE
330
CB
100
AcDbEntity
  8
Capa 1
370
    35
  0
POLYLINE
  5
CF
330
1F
100
AcDbEntity
  8
Capa 1
 62
     7
370
    35
100
AcDb2dPolyline
 66
     1
 10
0.0
 20
0.0
 30
0.0
  0
VERTEX
  5
D0
330
CF
100
AcDbEntity
  8
Capa 1
 62
     7
370
    35
100
AcDbVertex
100
AcDb2dVertex
 10
-14.37225882666457
 20
239.2859827198571
 30
0.0
  0
VERTEX
  5
D1
330
CF
100
AcDbEntity
  8
Capa 1
 62
     7
370
    35
100
AcDbVertex
100
AcDb2dVertex
 10
-14.20276001697286
 20
239.7939623842686
 30
0.0
  0
SEQEND
  5
D2
330
CF
100
AcDbEntity
  8
Capa 1
370
    35
  0
POLYLINE
  5
D3
330
1F
100
AcDbEntity
  8
Capa 1
 62
     7
370
    35
100
AcDb2dPolyline
 66
     1
 10
0.0
 20
0.0
 30
0.0
  0
VERTEX
  5
D4
330
D3
100
AcDbEntity
  8
Capa 1
 62
     7
370
    35
100
AcDbVertex
100
AcDb2dVertex
 10
-16.48892688915623
 20
239.2859827198571
 30
0.0
  0
VERTEX
  5
D5
330
D3
100
AcDbEntity
  8
Capa 1
 62
     7
370
    35
100
AcDbVertex
100
AcDb2dVertex
 10
-14.20276001697286
 20
239.7515876818456
 30
0.0
  0
SEQEND
  5
D6
330
D3
100
AcDbEntity
  8
Capa 1
370
    35
  0
POLYLINE
  5
D7
330
1F
100
AcDbEntity
  8
Capa 1
 62
     7
370
    35
100
AcDb2dPolyline
 66
     1
 10
0.0
 20
0.0
 30
0.0
  0
VERTEX
  5
D8
330
D7
100
AcDbEntity
  8
Capa 1
 62
     7
370
    35
100
AcDbVertex
100
AcDb2dVertex
 10
-16.48892688915623
 20
239.2859827198571
 30
0.0
  0
VERTEX
  5
D9
330
D7
100
AcDbEntity
  8
Capa 1
 62
     7
370
    35
100
AcDbVertex
100
AcDb2dVertex
 10
-16.27705337704159
 20
239.7939623842686
 30
0.0
  0
SEQEND
  5
DA
330
D7
100
AcDbEntity
  8
Capa 1
370
    35
  0
POLYLINE
  5
DB
330
1F
100
AcDbEntity
  8
Capa 1
 62
     7
370
    35
100
AcDb2dPolyline
 66
     1
 10
0.0
 20
0.0
 30
0.0
  0
VERTEX
  5
DC
330
DB
100
AcDbEntity
  8
Capa 1
 62
     7
370
    35
100
AcDbVertex
100
AcDb2dVertex
 10
-18.56322024922497
 20
239.2859827198571
 30
0.0
  0
VERTEX
  5
DD
330
DB
100
AcDbEntity
  8
Capa 1
 62
     7
370
    35
100
AcDbVertex
100
AcDb2dVertex
 10
-16.27705337704159
 20
239.7515876818456
 30
0.0
  0
SEQEND
  5
DE
330
DB
100
AcDbEntity
  8
Capa 1
370
    35
  0
POLYLINE
  5
DF
330
1F
100
AcDbEntity
  8
Capa 1
 62
     7
370
    35
100
AcDb2dPolyline
 66
     1
 10
0.0
 20
0.0
 30
0.0
  0
VERTEX
  5
E0
330
DF
100
AcDbEntity
  8
Capa 1
 62
     7
370
    35
100
AcDbVertex
100
AcDb2dVertex
 10
-18.52084554680204
 20
239.2859827198571
 30
0.0
  0
VERTEX
  5
E1
330
DF
100
AcDbEntity
  8
Capa 1
 62
     7
370
    35
100
AcDbVertex
100
AcDb2dVertex
 10
-18.22456713961733
 20
239.7939623842686
 30
0.0
  0
SEQEND
  5
E2
330
DF
100
AcDbEntity
  8
Capa 1
370
    35
  0
POLYLINE
  5
E3
330
1F
100
AcDbEntity
  8
Capa 1
 62
     7
370
    35
100
AcDb2dPolyline
 66
     1
 10
0.0
 20
0.0
 30
0.0
  0
VERTEX
  5
E4
330
E3
100
AcDbEntity
  8
Capa 1
 62
     7
370
    35
100
AcDbVertex
100
AcDb2dVertex
 10
-18.22456713961733
 20
239.7515876818456
 30
0.0
  0
VERTEX
  5
E5
330
E3
100
AcDbEntity
  8
Capa 1
 62
     7
370
    35
100
AcDbVertex
100
AcDb2dVertex
 10
-20.84904261163255
 20
239.1590308674762
 30
0.0
  0
SEQEND
  5
E6
330
E3
100
AcDbEntity
  8
Capa 1
370
    35
  0
POLYLINE
  5
E7
330
1F
100
AcDbEntity
  8
Capa 1
 62
     7
370
    35
100
AcDb2dPolyline
 66
     1
 10
0.0
 20
0.0
 30
0.0
  0
VERTEX
  5
E8
330
E7
100
AcDbEntity
  8
Capa 1
 62
     7
370
    35
100
AcDbVertex
100
AcDb2dVertex
 10
-20.80666790920962
 20
239.1590308674762
 30
0.0
  0
VERTEX
  5
E9
330
E7
100
AcDbEntity
  8
Capa 1
 62
     7
370
    35
100
AcDbVertex
100
AcDb2dVertex
 10
-20.80666790920962
 20
238.3123980934571
 30
0.0
  0
SEQEND
  5
EA
330
E7
100
AcDbEntity
  8
Capa 1
370
    35
  0
MTEXT
  5
EB
330
1F
100
AcDbEntity
  8
Capa 1
 62
     7
100
AcDbMText
 10
-21.01733563710897
 20
241.0624473787501
 30
0.0
 40
1.958271968514244
 41
0.0
 71
     7
 72
     1
  1
\fHelvetica|b1|i0|c0|p34;\W1.00057;B E N I T O
 73
     1
 44
1.0
  0
MTEXT
  5
EC
330
1F
100
AcDbEntity
  8
Capa 1
 62
     7
100
AcDbMText
 10
-6.835246206683888
 20
241.0624473787501
 30
0.0
 40
0.9790927455887768
 41
0.0
 71
     7
 72
     1
  1
\fHelvetica|b1|i0|c0|p34;\W1.00056;.com
 73
     1
 44
1.0
  0
POLYLINE
  5
ED
330
1F
100
AcDbEntity
  8
Capa 1
 62
     7
370
    35
100
AcDb2dPolyline
 66
     1
 10
0.0
 20
0.0
 30
0.0
  0
VERTEX
  5
EE
330
ED
100
AcDbEntity
  8
Capa 1
 62
     7
370
    35
100
AcDbVertex
100
AcDb2dVertex
 10
-21.56872353327074
 20
244.6200275785092
 30
0.0
  0
VERTEX
  5
EF
330
ED
100
AcDbEntity
  8
Capa 1
 62
     7
370
    35
100
AcDbVertex
100
AcDb2dVertex
 10
-3.280766594906916
 20
244.6200275785092
 30
0.0
  0
SEQEND
  5
F0
330
ED
100
AcDbEntity
  8
Capa 1
370
    35
  0
POLYLINE
  5
F1
330
1F
100
AcDbEntity
  8
Capa 1
 62
     7
370
    35
100
AcDb2dPolyline
 66
     1
 10
0.0
 20
0.0
 30
0.0
  0
VERTEX
  5
F2
330
F1
100
AcDbEntity
  8
Capa 1
 62
     7
370
    35
100
AcDbVertex
100
AcDb2dVertex
 10
-3.280766594906916
 20
244.6200275785092
 30
0.0
  0
VERTEX
  5
F3
330
F1
100
AcDbEntity
  8
Capa 1
 62
     7
370
    35
100
AcDbVertex
100
AcDb2dVertex
 10
-3.280766594906916
 20
236.8306615477578
 30
0.0
  0
SEQEND
  5
F4
330
F1
100
AcDbEntity
  8
Capa 1
370
    35
  0
POLYLINE
  5
F5
330
1F
100
AcDbEntity
  8
Capa 1
 62
     7
370
    35
100
AcDb2dPolyline
 66
     1
 10
0.0
 20
0.0
 30
0.0
  0
VERTEX
  5
F6
330
F5
100
AcDbEntity
  8
Capa 1
 62
     7
370
    35
100
AcDbVertex
100
AcDb2dVertex
 10
-3.280766594906916
 20
236.8306615477578
 30
0.0
  0
VERTEX
  5
F7
330
F5
100
AcDbEntity
  8
Capa 1
 62
     7
370
    35
100
AcDbVertex
100
AcDb2dVertex
 10
-21.61109823569367
 20
236.8306615477578
 30
0.0
  0
SEQEND
  5
F8
330
F5
100
AcDbEntity
  8
Capa 1
370
    35
  0
POLYLINE
  5
F9
330
1F
100
AcDbEntity
  8
Capa 1
 62
     7
370
    35
100
AcDb2dPolyline
 66
     1
 10
0.0
 20
0.0
 30
0.0
  0
VERTEX
  5
FA
330
F9
100
AcDbEntity
  8
Capa 1
 62
     7
370
    35
100
AcDbVertex
100
AcDb2dVertex
 10
-21.56872353327074
 20
236.8306615477578
 30
0.0
  0
VERTEX
  5
FB
330
F9
100
AcDbEntity
  8
Capa 1
 62
     7
370
    35
100
AcDbVertex
100
AcDb2dVertex
 10
-21.56872353327074
 20
244.6624022809321
 30
0.0
  0
SEQEND
  5
FC
330
F9
100
AcDbEntity
  8
Capa 1
370
    35
  0
MTEXT
  5
FD
330
1F
100
AcDbEntity
  8
Capa 1
 62
     7
100
AcDbMText
 10
40.32400798250207
 20
234.7127877010508
 30
0.0
 40
4.766907159793268
 41
0.0
 71
     7
 72
     1
  1
\fHelvetica|b0|i0|c0|p34;\W1.00057;Cruceta tubo
 73
     1
 44
1.0
  0
MTEXT
  5
FE
330
1F
100
AcDbEntity
  8
Capa 1
 62
     7
100
AcDbMText
 10
199.5393731215894
 20
236.1521495443272
 30
0.0
 40
3.813468213542435
 41
0.0
 71
     7
 72
     1
  1
\fHelvetica|b0|i0|c0|p34;\W1.00056;IRAP10D
 73
     1
 44
1.0
  0
POLYLINE
  5
FF
330
1F
100
AcDbEntity
  8
Capa 1
 62
     7
370
    35
100
AcDb2dPolyline
 66
     1
 10
0.0
 20
0.0
 30
0.0
  0
VERTEX
  5
100
330
FF
100
AcDbEntity
  8
Capa 1
 62
     7
370
    35
100
AcDbVertex
100
AcDb2dVertex
 10
121.81417809444
 20
231.7506926487554
 30
0.0
  0
VERTEX
  5
101
330
FF
100
AcDbEntity
  8
Capa 1
 62
     7
370
    35
100
AcDbVertex
100
AcDb2dVertex
 10
121.81417809444
 20
243.7733948044901
 30
0.0
  0
SEQEND
  5
102
330
FF
100
AcDbEntity
  8
Capa 1
370
    35
  0
POLYLINE
  5
103
330
1F
100
AcDbEntity
  8
Capa 1
 62
     7
370
    35
100
AcDb2dPolyline
 66
     1
 10
0.0
 20
0.0
 30
0.0
  0
VERTEX
  5
104
330
103
100
AcDbEntity
  8
Capa 1
 62
     7
370
    35
100
AcDbVertex
100
AcDb2dVertex
 10
121.81417809444
 20
243.7310201020672
 30
0.0
  0
VERTEX
  5
105
330
103
100
AcDbEntity
  8
Capa 1
 62
     7
370
    35
100
AcDbVertex
100
AcDb2dVertex
 10
94.8056452013477
 20
243.7310201020672
 30
0.0
  0
SEQEND
  5
106
330
103
100
AcDbEntity
  8
Capa 1
370
    35
  0
POLYLINE
  5
107
330
1F
100
AcDbEntity
  8
Capa 1
 62
     7
370
    35
100
AcDb2dPolyline
 66
     1
 10
0.0
 20
0.0
 30
0.0
  0
VERTEX
  5
108
330
107
100
AcDbEntity
  8
Capa 1
 62
     7
370
    35
100
AcDbVertex
100
AcDb2dVertex
 10
94.84801990377063
 20
231.7506926487554
 30
0.0
  0
VERTEX
  5
109
330
107
100
AcDbEntity
  8
Capa 1
 62
     7
370
    35
100
AcDbVertex
100
AcDb2dVertex
 10
121.81417809444
 20
231.7506926487554
 30
0.0
  0
SEQEND
  5
10A
330
107
100
AcDbEntity
  8
Capa 1
370
    35
  0
POLYLINE
  5
10B
330
1F
100
AcDbEntity
  8
Capa 1
 62
     7
370
    35
100
AcDb2dPolyline
 66
     1
 10
0.0
 20
0.0
 30
0.0
  0
VERTEX
  5
10C
330
10B
100
AcDbEntity
  8
Capa 1
 62
     7
370
    35
100
AcDbVertex
100
AcDb2dVertex
 10
124.8200258882615
 20
231.7506926487554
 30
0.0
  0
VERTEX
  5
10D
330
10B
100
AcDbEntity
  8
Capa 1
 62
     7
370
    35
100
AcDbVertex
100
AcDb2dVertex
 10
124.8200258882615
 20
243.7733948044901
 30
0.0
  0
SEQEND
  5
10E
330
10B
100
AcDbEntity
  8
Capa 1
370
    35
  0
MTEXT
  5
10F
330
1F
100
AcDbEntity
  8
Capa 1
 62
     7
100
AcDbMText
 10
127.2763805896882
 20
233.654453669805
 30
0.0
 40
1.906657352415504
 41
0.0
 71
     7
 72
     1
  1
\fHelvetica|b0|i0|c0|p34;\W1.00059;\U+00AE
 73
     1
 44
1.0
  0
MTEXT
  5
110
330
1F
100
AcDbEntity
  8
Capa 1
 62
     7
100
AcDbMText
 10
130.1130740835939
 20
233.6542814149171
 30
0.0
 40
1.958271968514244
 41
0.0
 71
     7
 72
     1
  1
\fHelvetica|b1|i0|c0|p34;\W1.00057;BENITO
 73
     1
 44
1.0
  0
MTEXT
  5
111
330
1F
100
AcDbEntity
  8
Capa 1
 62
     7
100
AcDbMText
 10
141.2889712104216
 20
233.6542814149171
 30
0.0
 40
1.957494587588125
 41
0.0
 71
     7
 72
     1
  1
\fMyriad Pro|b0|i0|c0|p34;\W1.00057;\U+F001\U+F002\U+F003\U+F004\U+F005
 73
     1
 44
1.0
  0
MTEXT
  5
112
330
1F
100
AcDbEntity
  8
Capa 1
 62
     7
100
AcDbMText
 10
126.6417935826717
 20
239.4963059379807
 30
0.0
 40
1.958271968514244
 41
0.0
 71
     7
 72
     1
  1
\fHelvetica|b1|i0|c0|p34;\W1.00057; BENITO
 73
     1
 44
1.0
  0
MTEXT
  5
113
330
1F
100
AcDbEntity
  8
Capa 1
 62
     7
100
AcDbMText
 10
138.5797463335605
 20
239.4963059379807
 30
0.0
 40
1.957494587588125
 41
0.0
 71
     7
 72
     1
  1
\fMyriad Pro|b0|i0|c0|p34;\W1.00057;\U+F001\U+F002\U+F003\U+F004\U+F005
 73
     1
 44
1.0
  0
MTEXT
  5
114
330
1F
100
AcDbEntity
  8
Capa 1
 62
     7
100
AcDbMText
 10
244.4544906312391
 20
61.01991599879322
 30
0.0
 40
1.41716794485084
 41
0.0
 71
     7
 72
     1
  1
\fHelvetica|b0|i0|c0|p34;\W1.00057;V1 18/04/2012
 11
-4.371139000186241E-8
 21
0.999999999999999
 31
0.0
 73
     1
 44
1.0
  0
POLYLINE
  5
115
330
1F
100
AcDbEntity
  8
Capa 1
 62
     7
370
    35
100
AcDb2dPolyline
 66
     1
 10
0.0
 20
0.0
 30
0.0
  0
VERTEX
  5
116
330
115
100
AcDbEntity
  8
Capa 1
 62
     7
370
    35
100
AcDbVertex
100
AcDb2dVertex
 10
57.425300998136
 20
176.3362952119416
 30
0.0
  0
VERTEX
  5
117
330
115
100
AcDbEntity
  8
Capa 1
 62
     7
370
    35
100
AcDbVertex
100
AcDb2dVertex
 10
52.47228395151448
 20
176.3362952119416
 30
0.0
  0
SEQEND
  5
118
330
115
100
AcDbEntity
  8
Capa 1
370
    35
  0
POLYLINE
  5
119
330
1F
100
AcDbEntity
  8
Capa 1
 62
     7
370
    35
100
AcDb2dPolyline
 66
     1
 10
0.0
 20
0.0
 30
0.0
  0
VERTEX
  5
11A
330
119
100
AcDbEntity
  8
Capa 1
 62
     7
370
    35
100
AcDbVertex
100
AcDb2dVertex
 10
57.425300998136
 20
158.852596345174
 30
0.0
  0
VERTEX
  5
11B
330
119
100
AcDbEntity
  8
Capa 1
 62
     7
370
    35
100
AcDbVertex
100
AcDb2dVertex
 10
52.47228395151448
 20
158.852596345174
 30
0.0
  0
SEQEND
  5
11C
330
119
100
AcDbEntity
  8
Capa 1
370
    35
  0
POLYLINE
  5
11D
330
1F
100
AcDbEntity
  8
Capa 1
 62
     7
370
    35
100
AcDb2dPolyline
 66
     1
 10
0.0
 20
0.0
 30
0.0
  0
VERTEX
  5
11E
330
11D
100
AcDbEntity
  8
Capa 1
 62
     7
370
    35
100
AcDbVertex
100
AcDb2dVertex
 10
57.425300998136
 20
170.621222541259
 30
0.0
  0
VERTEX
  5
11F
330
11D
100
AcDbEntity
  8
Capa 1
 62
     7
370
    35
100
AcDbVertex
100
AcDb2dVertex
 10
57.38292629571307
 20
170.621222541259
 30
0.0
  0
VERTEX
  5
120
330
11D
100
AcDbEntity
  8
Capa 1
 62
     7
370
    35
100
AcDbVertex
100
AcDb2dVertex
 10
57.34055159329014
 20
170.7059719461049
 30
0.0
  0
VERTEX
  5
121
330
11D
100
AcDbEntity
  8
Capa 1
 62
     7
370
    35
100
AcDbVertex
100
AcDb2dVertex
 10
57.25580218844428
 20
170.7483466485278
 30
0.0
  0
VERTEX
  5
122
330
11D
100
AcDbEntity
  8
Capa 1
 62
     7
370
    35
100
AcDbVertex
100
AcDb2dVertex
 10
57.17105278359843
 20
170.8329237984857
 30
0.0
  0
VERTEX
  5
123
330
11D
100
AcDbEntity
  8
Capa 1
 62
     7
370
    35
100
AcDbVertex
100
AcDb2dVertex
 10
57.08664788852836
 20
170.9176732033316
 30
0.0
  0
VERTEX
  5
124
330
11D
100
AcDbEntity
  8
Capa 1
 62
     7
370
    35
100
AcDbVertex
100
AcDb2dVertex
 10
57.0018984836825
 20
171.0446250557125
 30
0.0
  0
VERTEX
  5
125
330
11D
100
AcDbEntity
  8
Capa 1
 62
     7
370
    35
100
AcDbVertex
100
AcDb2dVertex
 10
56.87477437641372
 20
171.1715769080934
 30
0.0
  0
VERTEX
  5
126
330
11D
100
AcDbEntity
  8
Capa 1
 62
     7
370
    35
100
AcDbVertex
100
AcDb2dVertex
 10
56.74799477892073
 20
171.2987010153622
 30
0.0
  0
VERTEX
  5
127
330
11D
100
AcDbEntity
  8
Capa 1
 62
     7
370
    35
100
AcDbVertex
100
AcDb2dVertex
 10
56.62087067165194
 20
171.468027570166
 30
0.0
  0
VERTEX
  5
128
330
11D
100
AcDbEntity
  8
Capa 1
 62
     7
370
    35
100
AcDbVertex
100
AcDb2dVertex
 10
56.53612126680608
 20
171.6373541249698
 30
0.0
  0
VERTEX
  5
129
330
11D
100
AcDbEntity
  8
Capa 1
 62
     7
370
    35
100
AcDbVertex
100
AcDb2dVertex
 10
56.40934166931309
 20
171.8066806797736
 30
0.0
  0
VERTEX
  5
12A
330
11D
100
AcDbEntity
  8
Capa 1
 62
     7
370
    35
100
AcDbVertex
100
AcDb2dVertex
 10
56.32459226446723
 20
172.0182096821125
 30
0.0
  0
VERTEX
  5
12B
330
11D
100
AcDbEntity
  8
Capa 1
 62
     7
370
    35
100
AcDbVertex
100
AcDb2dVertex
 10
56.28221756204431
 20
172.2299109393392
 30
0.0
  0
VERTEX
  5
12C
330
11D
100
AcDbEntity
  8
Capa 1
 62
     7
370
    35
100
AcDbVertex
100
AcDb2dVertex
 10
56.23984285962138
 20
172.441612196566
 30
0.0
  0
VERTEX
  5
12D
330
11D
100
AcDbEntity
  8
Capa 1
 62
     7
370
    35
100
AcDbVertex
100
AcDb2dVertex
 10
56.23984285962138
 20
172.6533134537927
 30
0.0
  0
VERTEX
  5
12E
330
11D
100
AcDbEntity
  8
Capa 1
 62
     7
370
    35
100
AcDbVertex
100
AcDb2dVertex
 10
56.28221756204431
 20
172.8650147110194
 30
0.0
  0
VERTEX
  5
12F
330
11D
100
AcDbEntity
  8
Capa 1
 62
     7
370
    35
100
AcDbVertex
100
AcDb2dVertex
 10
56.36696696689017
 20
173.0765437133583
 30
0.0
  0
VERTEX
  5
130
330
11D
100
AcDbEntity
  8
Capa 1
 62
     7
370
    35
100
AcDbVertex
100
AcDb2dVertex
 10
56.45137186196023
 20
173.288244970585
 30
0.0
  0
VERTEX
  5
131
330
11D
100
AcDbEntity
  8
Capa 1
 62
     7
370
    35
100
AcDbVertex
100
AcDb2dVertex
 10
56.53612126680608
 20
173.4999462278118
 30
0.0
  0
VERTEX
  5
132
330
11D
100
AcDbEntity
  8
Capa 1
 62
     7
370
    35
100
AcDbVertex
100
AcDb2dVertex
 10
56.62087067165194
 20
173.6692727826156
 30
0.0
  0
VERTEX
  5
133
330
11D
100
AcDbEntity
  8
Capa 1
 62
     7
370
    35
100
AcDbVertex
100
AcDb2dVertex
 10
56.74799477892073
 20
173.8385993374194
 30
0.0
  0
VERTEX
  5
134
330
11D
100
AcDbEntity
  8
Capa 1
 62
     7
370
    35
100
AcDbVertex
100
AcDb2dVertex
 10
56.83239967399079
 20
174.0079258922232
 30
0.0
  0
VERTEX
  5
135
330
11D
100
AcDbEntity
  8
Capa 1
 62
     7
370
    35
100
AcDbVertex
100
AcDb2dVertex
 10
56.91714907883664
 20
174.1772524470271
 30
0.0
  0
VERTEX
  5
136
330
11D
100
AcDbEntity
  8
Capa 1
 62
     7
370
    35
100
AcDbVertex
100
AcDb2dVertex
 10
57.04427318610544
 20
174.3465790018309
 30
0.0
  0
VERTEX
  5
137
330
11D
100
AcDbEntity
  8
Capa 1
 62
     7
370
    35
100
AcDbVertex
100
AcDb2dVertex
 10
57.12902259095129
 20
174.4737031090997
 30
0.0
  0
VERTEX
  5
138
330
11D
100
AcDbEntity
  8
Capa 1
 62
     7
370
    35
100
AcDbVertex
100
AcDb2dVertex
 10
57.21342748602135
 20
174.6006549614805
 30
0.0
  0
VERTEX
  5
139
330
11D
100
AcDbEntity
  8
Capa 1
 62
     7
370
    35
100
AcDbVertex
100
AcDb2dVertex
 10
57.25580218844428
 20
174.7276068138614
 30
0.0
  0
VERTEX
  5
13A
330
11D
100
AcDbEntity
  8
Capa 1
 62
     7
370
    35
100
AcDbVertex
100
AcDb2dVertex
 10
57.34055159329014
 20
174.8123562187073
 30
0.0
  0
VERTEX
  5
13B
330
11D
100
AcDbEntity
  8
Capa 1
 62
     7
370
    35
100
AcDbVertex
100
AcDb2dVertex
 10
57.38292629571307
 20
174.8969333686652
 30
0.0
  0
VERTEX
  5
13C
330
11D
100
AcDbEntity
  8
Capa 1
 62
     7
370
    35
100
AcDbVertex
100
AcDb2dVertex
 10
57.425300998136
 20
174.8969333686652
 30
0.0
  0
VERTEX
  5
13D
330
11D
100
AcDbEntity
  8
Capa 1
 62
     7
370
    35
100
AcDbVertex
100
AcDb2dVertex
 10
57.425300998136
 20
174.9393080710882
 30
0.0
  0
SEQEND
  5
13E
330
11D
100
AcDbEntity
  8
Capa 1
370
    35
  0
POLYLINE
  5
13F
330
1F
100
AcDbEntity
  8
Capa 1
 62
     7
370
    35
100
AcDb2dPolyline
 66
     1
 10
0.0
 20
0.0
 30
0.0
  0
VERTEX
  5
140
330
13F
100
AcDbEntity
  8
Capa 1
 62
     7
370
    35
100
AcDbVertex
100
AcDb2dVertex
 10
124.6929017809927
 20
188.6129010724381
 30
0.0
  0
VERTEX
  5
141
330
13F
100
AcDbEntity
  8
Capa 1
 62
     7
370
    35
100
AcDbVertex
100
AcDb2dVertex
 10
123.6345677497469
 20
192.7192853450406
 30
0.0
  0
SEQEND
  5
142
330
13F
100
AcDbEntity
  8
Capa 1
370
    35
  0
POLYLINE
  5
143
330
1F
100
AcDbEntity
  8
Capa 1
 62
     7
370
    35
100
AcDb2dPolyline
 66
     1
 10
0.0
 20
0.0
 30
0.0
  0
VERTEX
  5
144
330
143
100
AcDbEntity
  8
Capa 1
 62
     7
370
    35
100
AcDbVertex
100
AcDb2dVertex
 10
55.26625823322141
 20
162.3662515485191
 30
0.0
  0
VERTEX
  5
145
330
143
100
AcDbEntity
  8
Capa 1
 62
     7
370
    35
100
AcDbVertex
100
AcDb2dVertex
 10
55.18150882837555
 20
162.1545502912923
 30
0.0
  0
VERTEX
  5
146
330
143
100
AcDbEntity
  8
Capa 1
 62
     7
370
    35
100
AcDbVertex
100
AcDb2dVertex
 10
54.9699798260367
 20
162.0699731413344
 30
0.0
  0
VERTEX
  5
147
330
143
100
AcDbEntity
  8
Capa 1
 62
     7
370
    35
100
AcDbVertex
100
AcDb2dVertex
 10
54.75810631392206
 20
162.1545502912923
 30
0.0
  0
VERTEX
  5
148
330
143
100
AcDbEntity
  8
Capa 1
 62
     7
370
    35
100
AcDbVertex
100
AcDb2dVertex
 10
54.6733569090762
 20
162.3662515485191
 30
0.0
  0
VERTEX
  5
149
330
143
100
AcDbEntity
  8
Capa 1
 62
     7
370
    35
100
AcDbVertex
100
AcDb2dVertex
 10
54.75810631392206
 20
162.5355781033229
 30
0.0
  0
VERTEX
  5
14A
330
143
100
AcDbEntity
  8
Capa 1
 62
     7
370
    35
100
AcDbVertex
100
AcDb2dVertex
 10
54.9699798260367
 20
162.6203275081688
 30
0.0
  0
VERTEX
  5
14B
330
143
100
AcDbEntity
  8
Capa 1
 62
     7
370
    35
100
AcDbVertex
100
AcDb2dVertex
 10
55.18150882837555
 20
162.5355781033229
 30
0.0
  0
VERTEX
  5
14C
330
143
100
AcDbEntity
  8
Capa 1
 62
     7
370
    35
100
AcDbVertex
100
AcDb2dVertex
 10
55.26625823322141
 20
162.3662515485191
 30
0.0
  0
SEQEND
  5
14D
330
143
100
AcDbEntity
  8
Capa 1
370
    35
  0
POLYLINE
  5
14E
330
1F
100
AcDbEntity
  8
Capa 1
 62
     7
370
    35
100
AcDb2dPolyline
 66
     1
 10
0.0
 20
0.0
 30
0.0
  0
VERTEX
  5
14F
330
14E
100
AcDbEntity
  8
Capa 1
 62
     7
370
    35
100
AcDbVertex
100
AcDb2dVertex
 10
52.5146586539374
 20
174.9393080710882
 30
0.0
  0
VERTEX
  5
150
330
14E
100
AcDbEntity
  8
Capa 1
 62
     7
370
    35
100
AcDbVertex
100
AcDb2dVertex
 10
52.55668884658454
 20
174.9393080710882
 30
0.0
  0
VERTEX
  5
151
330
14E
100
AcDbEntity
  8
Capa 1
 62
     7
370
    35
100
AcDbVertex
100
AcDb2dVertex
 10
52.55668884658454
 20
174.8969333686652
 30
0.0
  0
VERTEX
  5
152
330
14E
100
AcDbEntity
  8
Capa 1
 62
     7
370
    35
100
AcDbVertex
100
AcDb2dVertex
 10
52.59906354900747
 20
174.8123562187073
 30
0.0
  0
VERTEX
  5
153
330
14E
100
AcDbEntity
  8
Capa 1
 62
     7
370
    35
100
AcDbVertex
100
AcDb2dVertex
 10
52.68381295385333
 20
174.7276068138614
 30
0.0
  0
VERTEX
  5
154
330
14E
100
AcDbEntity
  8
Capa 1
 62
     7
370
    35
100
AcDbVertex
100
AcDb2dVertex
 10
52.76856235869919
 20
174.6006549614805
 30
0.0
  0
VERTEX
  5
155
330
14E
100
AcDbEntity
  8
Capa 1
 62
     7
370
    35
100
AcDbVertex
100
AcDb2dVertex
 10
52.85331176354504
 20
174.4737031090997
 30
0.0
  0
VERTEX
  5
156
330
14E
100
AcDbEntity
  8
Capa 1
 62
     7
370
    35
100
AcDbVertex
100
AcDb2dVertex
 10
52.9377166586151
 20
174.3465790018309
 30
0.0
  0
VERTEX
  5
157
330
14E
100
AcDbEntity
  8
Capa 1
 62
     7
370
    35
100
AcDbVertex
100
AcDb2dVertex
 10
53.02246606346096
 20
174.1772524470271
 30
0.0
  0
VERTEX
  5
158
330
14E
100
AcDbEntity
  8
Capa 1
 62
     7
370
    35
100
AcDbVertex
100
AcDb2dVertex
 10
53.10721546830682
 20
174.0079258922232
 30
0.0
  0
VERTEX
  5
159
330
14E
100
AcDbEntity
  8
Capa 1
 62
     7
370
    35
100
AcDbVertex
100
AcDb2dVertex
 10
53.2343395755756
 20
173.8385993374194
 30
0.0
  0
VERTEX
  5
15A
330
14E
100
AcDbEntity
  8
Capa 1
 62
     7
370
    35
100
AcDbVertex
100
AcDb2dVertex
 10
53.31874447064566
 20
173.6692727826156
 30
0.0
  0
VERTEX
  5
15B
330
14E
100
AcDbEntity
  8
Capa 1
 62
     7
370
    35
100
AcDbVertex
100
AcDb2dVertex
 10
53.40349387549152
 20
173.4999462278118
 30
0.0
  0
VERTEX
  5
15C
330
14E
100
AcDbEntity
  8
Capa 1
 62
     7
370
    35
100
AcDbVertex
100
AcDb2dVertex
 10
53.48824328033738
 20
173.288244970585
 30
0.0
  0
VERTEX
  5
15D
330
14E
100
AcDbEntity
  8
Capa 1
 62
     7
370
    35
100
AcDbVertex
100
AcDb2dVertex
 10
53.57299268518324
 20
173.0765437133583
 30
0.0
  0
VERTEX
  5
15E
330
14E
100
AcDbEntity
  8
Capa 1
 62
     7
370
    35
100
AcDbVertex
100
AcDb2dVertex
 10
53.6573975802533
 20
172.8650147110194
 30
0.0
  0
VERTEX
  5
15F
330
14E
100
AcDbEntity
  8
Capa 1
 62
     7
370
    35
100
AcDbVertex
100
AcDb2dVertex
 10
53.69977228267623
 20
172.6533134537927
 30
0.0
  0
VERTEX
  5
160
330
14E
100
AcDbEntity
  8
Capa 1
 62
     7
370
    35
100
AcDbVertex
100
AcDb2dVertex
 10
53.69977228267623
 20
172.2299109393392
 30
0.0
  0
VERTEX
  5
161
330
14E
100
AcDbEntity
  8
Capa 1
 62
     7
370
    35
100
AcDbVertex
100
AcDb2dVertex
 10
53.61502287783037
 20
172.0182096821125
 30
0.0
  0
VERTEX
  5
162
330
14E
100
AcDbEntity
  8
Capa 1
 62
     7
370
    35
100
AcDbVertex
100
AcDb2dVertex
 10
53.5306179827603
 20
171.8066806797736
 30
0.0
  0
VERTEX
  5
163
330
14E
100
AcDbEntity
  8
Capa 1
 62
     7
370
    35
100
AcDbVertex
100
AcDb2dVertex
 10
53.44586857791445
 20
171.6373541249698
 30
0.0
  0
VERTEX
  5
164
330
14E
100
AcDbEntity
  8
Capa 1
 62
     7
370
    35
100
AcDbVertex
100
AcDb2dVertex
 10
53.31874447064566
 20
171.468027570166
 30
0.0
  0
VERTEX
  5
165
330
14E
100
AcDbEntity
  8
Capa 1
 62
     7
370
    35
100
AcDbVertex
100
AcDb2dVertex
 10
53.19196487315267
 20
171.2987010153622
 30
0.0
  0
VERTEX
  5
166
330
14E
100
AcDbEntity
  8
Capa 1
 62
     7
370
    35
100
AcDbVertex
100
AcDb2dVertex
 10
53.06484076588389
 20
171.1715769080934
 30
0.0
  0
VERTEX
  5
167
330
14E
100
AcDbEntity
  8
Capa 1
 62
     7
370
    35
100
AcDbVertex
100
AcDb2dVertex
 10
52.98009136103803
 20
171.0446250557125
 30
0.0
  0
VERTEX
  5
168
330
14E
100
AcDbEntity
  8
Capa 1
 62
     7
370
    35
100
AcDbVertex
100
AcDb2dVertex
 10
52.85331176354504
 20
170.9176732033316
 30
0.0
  0
VERTEX
  5
169
330
14E
100
AcDbEntity
  8
Capa 1
 62
     7
370
    35
100
AcDbVertex
100
AcDb2dVertex
 10
52.76856235869919
 20
170.8329237984857
 30
0.0
  0
VERTEX
  5
16A
330
14E
100
AcDbEntity
  8
Capa 1
 62
     7
370
    35
100
AcDbVertex
100
AcDb2dVertex
 10
52.68381295385333
 20
170.7483466485278
 30
0.0
  0
VERTEX
  5
16B
330
14E
100
AcDbEntity
  8
Capa 1
 62
     7
370
    35
100
AcDbVertex
100
AcDb2dVertex
 10
52.59906354900747
 20
170.7059719461049
 30
0.0
  0
VERTEX
  5
16C
330
14E
100
AcDbEntity
  8
Capa 1
 62
     7
370
    35
100
AcDbVertex
100
AcDb2dVertex
 10
52.55668884658454
 20
170.621222541259
 30
0.0
  0
VERTEX
  5
16D
330
14E
100
AcDbEntity
  8
Capa 1
 62
     7
370
    35
100
AcDbVertex
100
AcDb2dVertex
 10
52.5146586539374
 20
170.621222541259
 30
0.0
  0
SEQEND
  5
16E
330
14E
100
AcDbEntity
  8
Capa 1
370
    35
  0
POLYLINE
  5
16F
330
1F
100
AcDbEntity
  8
Capa 1
 62
     7
370
    35
100
AcDb2dPolyline
 66
     1
 10
0.0
 20
0.0
 30
0.0
  0
VERTEX
  5
170
330
16F
100
AcDbEntity
  8
Capa 1
 62
     7
370
    35
100
AcDbVertex
100
AcDb2dVertex
 10
-13.65257790502637
 20
192.6769106426176
 30
0.0
  0
VERTEX
  5
171
330
16F
100
AcDbEntity
  8
Capa 1
 62
     7
370
    35
100
AcDbVertex
100
AcDb2dVertex
 10
-14.75294212891934
 20
188.6129010724381
 30
0.0
  0
SEQEND
  5
172
330
16F
100
AcDbEntity
  8
Capa 1
370
    35
  0
POLYLINE
  5
173
330
1F
100
AcDbEntity
  8
Capa 1
 62
     7
370
    35
100
AcDb2dPolyline
 66
     1
 10
0.0
 20
0.0
 30
0.0
  0
VERTEX
  5
174
330
173
100
AcDbEntity
  8
Capa 1
 62
     7
370
    35
100
AcDbVertex
100
AcDb2dVertex
 10
57.425300998136
 20
176.3362952119416
 30
0.0
  0
VERTEX
  5
175
330
173
100
AcDbEntity
  8
Capa 1
 62
     7
370
    35
100
AcDbVertex
100
AcDb2dVertex
 10
56.66324537407487
 20
176.7173230239722
 30
0.0
  0
VERTEX
  5
176
330
173
100
AcDbEntity
  8
Capa 1
 62
     7
370
    35
100
AcDbVertex
100
AcDb2dVertex
 10
55.81644034516789
 20
176.971226728734
 30
0.0
  0
VERTEX
  5
177
330
173
100
AcDbEntity
  8
Capa 1
 62
     7
370
    35
100
AcDbVertex
100
AcDb2dVertex
 10
54.9699798260367
 20
177.0559761335798
 30
0.0
  0
VERTEX
  5
178
330
173
100
AcDbEntity
  8
Capa 1
 62
     7
370
    35
100
AcDbVertex
100
AcDb2dVertex
 10
54.12317479712972
 20
176.971226728734
 30
0.0
  0
VERTEX
  5
179
330
173
100
AcDbEntity
  8
Capa 1
 62
     7
370
    35
100
AcDbVertex
100
AcDb2dVertex
 10
53.27636976822274
 20
176.7173230239722
 30
0.0
  0
VERTEX
  5
17A
330
173
100
AcDbEntity
  8
Capa 1
 62
     7
370
    35
100
AcDbVertex
100
AcDb2dVertex
 10
52.5146586539374
 20
176.3362952119416
 30
0.0
  0
SEQEND
  5
17B
330
173
100
AcDbEntity
  8
Capa 1
370
    35
  0
POLYLINE
  5
17C
330
1F
100
AcDbEntity
  8
Capa 1
 62
     7
370
    35
100
AcDb2dPolyline
 66
     1
 10
0.0
 20
0.0
 30
0.0
  0
VERTEX
  5
17D
330
17C
100
AcDbEntity
  8
Capa 1
 62
     7
370
    35
100
AcDbVertex
100
AcDb2dVertex
 10
123.6345677497469
 20
192.6769106426176
 30
0.0
  0
VERTEX
  5
17E
330
17C
100
AcDbEntity
  8
Capa 1
 62
     7
370
    35
100
AcDbVertex
100
AcDb2dVertex
 10
57.38292629571307
 20
174.9393080710882
 30
0.0
  0
SEQEND
  5
17F
330
17C
100
AcDbEntity
  8
Capa 1
370
    35
  0
POLYLINE
  5
180
330
1F
100
AcDbEntity
  8
Capa 1
 62
     7
370
    35
100
AcDb2dPolyline
 66
     1
 10
0.0
 20
0.0
 30
0.0
  0
VERTEX
  5
181
330
180
100
AcDbEntity
  8
Capa 1
 62
     7
370
    35
100
AcDbVertex
100
AcDb2dVertex
 10
57.425300998136
 20
170.621222541259
 30
0.0
  0
VERTEX
  5
182
330
180
100
AcDbEntity
  8
Capa 1
 62
     7
370
    35
100
AcDbVertex
100
AcDb2dVertex
 10
124.6929017809927
 20
188.6129010724381
 30
0.0
  0
SEQEND
  5
183
330
180
100
AcDbEntity
  8
Capa 1
370
    35
  0
POLYLINE
  5
184
330
1F
100
AcDbEntity
  8
Capa 1
 62
     7
370
    35
100
AcDb2dPolyline
 66
     1
 10
0.0
 20
0.0
 30
0.0
  0
VERTEX
  5
185
330
184
100
AcDbEntity
  8
Capa 1
 62
     7
370
    35
100
AcDbVertex
100
AcDb2dVertex
 10
57.425300998136
 20
174.9393080710882
 30
0.0
  0
VERTEX
  5
186
330
184
100
AcDbEntity
  8
Capa 1
 62
     7
370
    35
100
AcDbVertex
100
AcDb2dVertex
 10
57.425300998136
 20
176.3786699143646
 30
0.0
  0
SEQEND
  5
187
330
184
100
AcDbEntity
  8
Capa 1
370
    35
  0
POLYLINE
  5
188
330
1F
100
AcDbEntity
  8
Capa 1
 62
     7
370
    35
100
AcDb2dPolyline
 66
     1
 10
0.0
 20
0.0
 30
0.0
  0
VERTEX
  5
189
330
188
100
AcDbEntity
  8
Capa 1
 62
     7
370
    35
100
AcDbVertex
100
AcDb2dVertex
 10
57.425300998136
 20
158.852596345174
 30
0.0
  0
VERTEX
  5
18A
330
188
100
AcDbEntity
  8
Capa 1
 62
     7
370
    35
100
AcDbVertex
100
AcDb2dVertex
 10
57.425300998136
 20
170.6635972436819
 30
0.0
  0
SEQEND
  5
18B
330
188
100
AcDbEntity
  8
Capa 1
370
    35
  0
POLYLINE
  5
18C
330
1F
100
AcDbEntity
  8
Capa 1
 62
     7
370
    35
100
AcDb2dPolyline
 66
     1
 10
0.0
 20
0.0
 30
0.0
  0
VERTEX
  5
18D
330
18C
100
AcDbEntity
  8
Capa 1
 62
     7
370
    35
100
AcDbVertex
100
AcDb2dVertex
 10
52.5146586539374
 20
170.621222541259
 30
0.0
  0
VERTEX
  5
18E
330
18C
100
AcDbEntity
  8
Capa 1
 62
     7
370
    35
100
AcDbVertex
100
AcDb2dVertex
 10
52.5146586539374
 20
158.852596345174
 30
0.0
  0
SEQEND
  5
18F
330
18C
100
AcDbEntity
  8
Capa 1
370
    35
  0
POLYLINE
  5
190
330
1F
100
AcDbEntity
  8
Capa 1
 62
     7
370
    35
100
AcDb2dPolyline
 66
     1
 10
0.0
 20
0.0
 30
0.0
  0
VERTEX
  5
191
330
190
100
AcDbEntity
  8
Capa 1
 62
     7
370
    35
100
AcDbVertex
100
AcDb2dVertex
 10
52.5146586539374
 20
176.3362952119416
 30
0.0
  0
VERTEX
  5
192
330
190
100
AcDbEntity
  8
Capa 1
 62
     7
370
    35
100
AcDbVertex
100
AcDb2dVertex
 10
52.5146586539374
 20
174.9393080710882
 30
0.0
  0
SEQEND
  5
193
330
190
100
AcDbEntity
  8
Capa 1
370
    35
  0
POLYLINE
  5
194
330
1F
100
AcDbEntity
  8
Capa 1
 62
     7
370
    35
100
AcDb2dPolyline
 66
     1
 10
0.0
 20
0.0
 30
0.0
  0
VERTEX
  5
195
330
194
100
AcDbEntity
  8
Capa 1
 62
     7
370
    35
100
AcDbVertex
100
AcDb2dVertex
 10
-14.75294212891934
 20
188.6129010724381
 30
0.0
  0
VERTEX
  5
196
330
194
100
AcDbEntity
  8
Capa 1
 62
     7
370
    35
100
AcDbVertex
100
AcDb2dVertex
 10
52.5146586539374
 20
170.621222541259
 30
0.0
  0
SEQEND
  5
197
330
194
100
AcDbEntity
  8
Capa 1
370
    35
  0
POLYLINE
  5
198
330
1F
100
AcDbEntity
  8
Capa 1
 62
     7
370
    35
100
AcDb2dPolyline
 66
     1
 10
0.0
 20
0.0
 30
0.0
  0
VERTEX
  5
199
330
198
100
AcDbEntity
  8
Capa 1
 62
     7
370
    35
100
AcDbVertex
100
AcDb2dVertex
 10
52.5146586539374
 20
174.9393080710882
 30
0.0
  0
VERTEX
  5
19A
330
198
100
AcDbEntity
  8
Capa 1
 62
     7
370
    35
100
AcDbVertex
100
AcDb2dVertex
 10
-13.69460809767351
 20
192.6769106426176
 30
0.0
  0
SEQEND
  5
19B
330
198
100
AcDbEntity
  8
Capa 1
370
    35
  0
POLYLINE
  5
19C
330
1F
100
AcDbEntity
  8
Capa 1
 62
     7
370
    18
100
AcDb2dPolyline
 66
     1
 10
0.0
 20
0.0
 30
0.0
  0
VERTEX
  5
19D
330
19C
100
AcDbEntity
  8
Capa 1
 62
     7
370
    18
100
AcDbVertex
100
AcDb2dVertex
 10
54.88523042119084
 20
162.0275984389115
 30
0.0
  0
VERTEX
  5
19E
330
19C
100
AcDbEntity
  8
Capa 1
 62
     7
370
    18
100
AcDbVertex
100
AcDb2dVertex
 10
55.13913412595262
 20
162.0275984389115
 30
0.0
  0
VERTEX
  5
19F
330
19C
100
AcDbEntity
  8
Capa 1
 62
     7
370
    18
100
AcDbVertex
100
AcDb2dVertex
 10
55.30863293564433
 20
162.2392996961382
 30
0.0
  0
VERTEX
  5
1A0
330
19C
100
AcDbEntity
  8
Capa 1
 62
     7
370
    18
100
AcDbVertex
100
AcDb2dVertex
 10
55.30863293564433
 20
162.4932034009
 30
0.0
  0
VERTEX
  5
1A1
330
19C
100
AcDbEntity
  8
Capa 1
 62
     7
370
    18
100
AcDbVertex
100
AcDb2dVertex
 10
55.09675942352969
 20
162.6627022105917
 30
0.0
  0
VERTEX
  5
1A2
330
19C
100
AcDbEntity
  8
Capa 1
 62
     7
370
    18
100
AcDbVertex
100
AcDb2dVertex
 10
54.84285571876791
 20
162.6627022105917
 30
0.0
  0
VERTEX
  5
1A3
330
19C
100
AcDbEntity
  8
Capa 1
 62
     7
370
    18
100
AcDbVertex
100
AcDb2dVertex
 10
54.6733569090762
 20
162.4932034009
 30
0.0
  0
VERTEX
  5
1A4
330
19C
100
AcDbEntity
  8
Capa 1
 62
     7
370
    18
100
AcDbVertex
100
AcDb2dVertex
 10
54.63132671642907
 20
162.2392996961382
 30
0.0
  0
SEQEND
  5
1A5
330
19C
100
AcDbEntity
  8
Capa 1
370
    18
  0
POLYLINE
  5
1A6
330
1F
100
AcDbEntity
  8
Capa 1
 62
     7
370
    35
100
AcDb2dPolyline
 66
     1
 10
0.0
 20
0.0
 30
0.0
  0
VERTEX
  5
1A7
330
1A6
100
AcDbEntity
  8
Capa 1
 62
     7
370
    35
100
AcDbVertex
100
AcDb2dVertex
 10
57.425300998136
 20
99.28943993333485
 30
0.0
  0
VERTEX
  5
1A8
330
1A6
100
AcDbEntity
  8
Capa 1
 62
     7
370
    35
100
AcDbVertex
100
AcDb2dVertex
 10
57.34055159329014
 20
98.6545084165425
 30
0.0
  0
VERTEX
  5
1A9
330
1A6
100
AcDbEntity
  8
Capa 1
 62
     7
370
    35
100
AcDbVertex
100
AcDb2dVertex
 10
57.08664788852836
 20
98.0619516021731
 30
0.0
  0
VERTEX
  5
1AA
330
1A6
100
AcDbEntity
  8
Capa 1
 62
     7
370
    35
100
AcDbVertex
100
AcDb2dVertex
 10
56.7056200764978
 20
97.55379968287374
 30
0.0
  0
VERTEX
  5
1AB
330
1A6
100
AcDbEntity
  8
Capa 1
 62
     7
370
    35
100
AcDbVertex
100
AcDb2dVertex
 10
56.19746815719845
 20
97.17277187084318
 30
0.0
  0
VERTEX
  5
1AC
330
1A6
100
AcDbEntity
  8
Capa 1
 62
     7
370
    35
100
AcDbVertex
100
AcDb2dVertex
 10
55.60491134282904
 20
96.91886816608141
 30
0.0
  0
VERTEX
  5
1AD
330
1A6
100
AcDbEntity
  8
Capa 1
 62
     7
370
    35
100
AcDbVertex
100
AcDb2dVertex
 10
54.9699798260367
 20
96.83411876123554
 30
0.0
  0
VERTEX
  5
1AE
330
1A6
100
AcDbEntity
  8
Capa 1
 62
     7
370
    35
100
AcDbVertex
100
AcDb2dVertex
 10
54.33470379946856
 20
96.91886816608141
 30
0.0
  0
VERTEX
  5
1AF
330
1A6
100
AcDbEntity
  8
Capa 1
 62
     7
370
    35
100
AcDbVertex
100
AcDb2dVertex
 10
53.74214698509915
 20
97.17277187084318
 30
0.0
  0
VERTEX
  5
1B0
330
1A6
100
AcDbEntity
  8
Capa 1
 62
     7
370
    35
100
AcDbVertex
100
AcDb2dVertex
 10
53.2343395755756
 20
97.55379968287374
 30
0.0
  0
VERTEX
  5
1B1
330
1A6
100
AcDbEntity
  8
Capa 1
 62
     7
370
    35
100
AcDbVertex
100
AcDb2dVertex
 10
52.85331176354504
 20
98.0619516021731
 30
0.0
  0
VERTEX
  5
1B2
330
1A6
100
AcDbEntity
  8
Capa 1
 62
     7
370
    35
100
AcDbVertex
100
AcDb2dVertex
 10
52.59906354900747
 20
98.6545084165425
 30
0.0
  0
VERTEX
  5
1B3
330
1A6
100
AcDbEntity
  8
Capa 1
 62
     7
370
    35
100
AcDbVertex
100
AcDb2dVertex
 10
52.5146586539374
 20
99.28943993333485
 30
0.0
  0
VERTEX
  5
1B4
330
1A6
100
AcDbEntity
  8
Capa 1
 62
     7
370
    35
100
AcDbVertex
100
AcDb2dVertex
 10
52.59906354900747
 20
99.92471595990298
 30
0.0
  0
VERTEX
  5
1B5
330
1A6
100
AcDbEntity
  8
Capa 1
 62
     7
370
    35
100
AcDbVertex
100
AcDb2dVertex
 10
52.85331176354504
 20
100.5172727742724
 30
0.0
  0
VERTEX
  5
1B6
330
1A6
100
AcDbEntity
  8
Capa 1
 62
     7
370
    35
100
AcDbVertex
100
AcDb2dVertex
 10
53.2343395755756
 20
101.0250801837959
 30
0.0
  0
VERTEX
  5
1B7
330
1A6
100
AcDbEntity
  8
Capa 1
 62
     7
370
    35
100
AcDbVertex
100
AcDb2dVertex
 10
53.74214698509915
 20
101.4061079958265
 30
0.0
  0
VERTEX
  5
1B8
330
1A6
100
AcDbEntity
  8
Capa 1
 62
     7
370
    35
100
AcDbVertex
100
AcDb2dVertex
 10
54.33470379946856
 20
101.6603562103641
 30
0.0
  0
VERTEX
  5
1B9
330
1A6
100
AcDbEntity
  8
Capa 1
 62
     7
370
    35
100
AcDbVertex
100
AcDb2dVertex
 10
54.9699798260367
 20
101.7447611054341
 30
0.0
  0
VERTEX
  5
1BA
330
1A6
100
AcDbEntity
  8
Capa 1
 62
     7
370
    35
100
AcDbVertex
100
AcDb2dVertex
 10
55.60491134282904
 20
101.6603562103641
 30
0.0
  0
VERTEX
  5
1BB
330
1A6
100
AcDbEntity
  8
Capa 1
 62
     7
370
    35
100
AcDbVertex
100
AcDb2dVertex
 10
56.19746815719845
 20
101.4061079958265
 30
0.0
  0
VERTEX
  5
1BC
330
1A6
100
AcDbEntity
  8
Capa 1
 62
     7
370
    35
100
AcDbVertex
100
AcDb2dVertex
 10
56.7056200764978
 20
101.0250801837959
 30
0.0
  0
VERTEX
  5
1BD
330
1A6
100
AcDbEntity
  8
Capa 1
 62
     7
370
    35
100
AcDbVertex
100
AcDb2dVertex
 10
57.08664788852836
 20
100.5172727742724
 30
0.0
  0
VERTEX
  5
1BE
330
1A6
100
AcDbEntity
  8
Capa 1
 62
     7
370
    35
100
AcDbVertex
100
AcDb2dVertex
 10
57.34055159329014
 20
99.92471595990298
 30
0.0
  0
VERTEX
  5
1BF
330
1A6
100
AcDbEntity
  8
Capa 1
 62
     7
370
    35
100
AcDbVertex
100
AcDb2dVertex
 10
57.425300998136
 20
99.28943993333485
 30
0.0
  0
SEQEND
  5
1C0
330
1A6
100
AcDbEntity
  8
Capa 1
370
    35
  0
POLYLINE
  5
1C1
330
1F
100
AcDbEntity
  8
Capa 1
 62
     7
370
    35
100
AcDb2dPolyline
 66
     1
 10
0.0
 20
0.0
 30
0.0
  0
VERTEX
  5
1C2
330
1C1
100
AcDbEntity
  8
Capa 1
 62
     7
370
    35
100
AcDbVertex
100
AcDb2dVertex
 10
124.1847498616934
 20
101.4061079958265
 30
0.0
  0
VERTEX
  5
1C3
330
1C1
100
AcDbEntity
  8
Capa 1
 62
     7
370
    35
100
AcDbVertex
100
AcDb2dVertex
 10
124.3118739689622
 20
101.3217031007564
 30
0.0
  0
VERTEX
  5
1C4
330
1C1
100
AcDbEntity
  8
Capa 1
 62
     7
370
    35
100
AcDbVertex
100
AcDb2dVertex
 10
124.438998076231
 20
101.0674548862189
 30
0.0
  0
VERTEX
  5
1C5
330
1C1
100
AcDbEntity
  8
Capa 1
 62
     7
370
    35
100
AcDbVertex
100
AcDb2dVertex
 10
124.565777673724
 20
100.6443968815412
 30
0.0
  0
VERTEX
  5
1C6
330
1C1
100
AcDbEntity
  8
Capa 1
 62
     7
370
    35
100
AcDbVertex
100
AcDb2dVertex
 10
124.6505270785698
 20
100.1786196646648
 30
0.0
  0
VERTEX
  5
1C7
330
1C1
100
AcDbEntity
  8
Capa 1
 62
     7
370
    35
100
AcDbVertex
100
AcDb2dVertex
 10
124.6929017809927
 20
99.58606285029535
 30
0.0
  0
VERTEX
  5
1C8
330
1C1
100
AcDbEntity
  8
Capa 1
 62
     7
370
    35
100
AcDbVertex
100
AcDb2dVertex
 10
124.6929017809927
 20
98.99316152615013
 30
0.0
  0
VERTEX
  5
1C9
330
1C1
100
AcDbEntity
  8
Capa 1
 62
     7
370
    35
100
AcDbVertex
100
AcDb2dVertex
 10
124.6505270785698
 20
98.40060471178073
 30
0.0
  0
VERTEX
  5
1CA
330
1C1
100
AcDbEntity
  8
Capa 1
 62
     7
370
    35
100
AcDbVertex
100
AcDb2dVertex
 10
124.565777673724
 20
97.89245279248138
 30
0.0
  0
VERTEX
  5
1CB
330
1C1
100
AcDbEntity
  8
Capa 1
 62
     7
370
    35
100
AcDbVertex
100
AcDb2dVertex
 10
124.438998076231
 20
97.51142498045081
 30
0.0
  0
VERTEX
  5
1CC
330
1C1
100
AcDbEntity
  8
Capa 1
 62
     7
370
    35
100
AcDbVertex
100
AcDb2dVertex
 10
124.3118739689622
 20
97.25752127568904
 30
0.0
  0
VERTEX
  5
1CD
330
1C1
100
AcDbEntity
  8
Capa 1
 62
     7
370
    35
100
AcDbVertex
100
AcDb2dVertex
 10
124.1847498616934
 20
97.17277187084318
 30
0.0
  0
VERTEX
  5
1CE
330
1C1
100
AcDbEntity
  8
Capa 1
 62
     7
370
    35
100
AcDbVertex
100
AcDb2dVertex
 10
124.0155955617775
 20
97.25752127568904
 30
0.0
  0
VERTEX
  5
1CF
330
1C1
100
AcDbEntity
  8
Capa 1
 62
     7
370
    35
100
AcDbVertex
100
AcDb2dVertex
 10
123.8884714545087
 20
97.51142498045081
 30
0.0
  0
VERTEX
  5
1D0
330
1C1
100
AcDbEntity
  8
Capa 1
 62
     7
370
    35
100
AcDbVertex
100
AcDb2dVertex
 10
123.7616918570157
 20
97.89245279248138
 30
0.0
  0
VERTEX
  5
1D1
330
1C1
100
AcDbEntity
  8
Capa 1
 62
     7
370
    35
100
AcDbVertex
100
AcDb2dVertex
 10
123.6769424521698
 20
98.40060471178073
 30
0.0
  0
VERTEX
  5
1D2
330
1C1
100
AcDbEntity
  8
Capa 1
 62
     7
370
    35
100
AcDbVertex
100
AcDb2dVertex
 10
123.6345677497469
 20
98.99316152615013
 30
0.0
  0
VERTEX
  5
1D3
330
1C1
100
AcDbEntity
  8
Capa 1
 62
     7
370
    35
100
AcDbVertex
100
AcDb2dVertex
 10
123.6345677497469
 20
99.58606285029535
 30
0.0
  0
VERTEX
  5
1D4
330
1C1
100
AcDbEntity
  8
Capa 1
 62
     7
370
    35
100
AcDbVertex
100
AcDb2dVertex
 10
123.6769424521698
 20
100.1786196646648
 30
0.0
  0
VERTEX
  5
1D5
330
1C1
100
AcDbEntity
  8
Capa 1
 62
     7
370
    35
100
AcDbVertex
100
AcDb2dVertex
 10
123.7616918570157
 20
100.6443968815412
 30
0.0
  0
VERTEX
  5
1D6
330
1C1
100
AcDbEntity
  8
Capa 1
 62
     7
370
    35
100
AcDbVertex
100
AcDb2dVertex
 10
123.8884714545087
 20
101.0674548862189
 30
0.0
  0
VERTEX
  5
1D7
330
1C1
100
AcDbEntity
  8
Capa 1
 62
     7
370
    35
100
AcDbVertex
100
AcDb2dVertex
 10
124.0155955617775
 20
101.3217031007564
 30
0.0
  0
VERTEX
  5
1D8
330
1C1
100
AcDbEntity
  8
Capa 1
 62
     7
370
    35
100
AcDbVertex
100
AcDb2dVertex
 10
124.1847498616934
 20
101.4061079958265
 30
0.0
  0
SEQEND
  5
1D9
330
1C1
100
AcDbEntity
  8
Capa 1
370
    35
  0
POLYLINE
  5
1DA
330
1F
100
AcDbEntity
  8
Capa 1
 62
     7
370
    35
100
AcDb2dPolyline
 66
     1
 10
0.0
 20
0.0
 30
0.0
  0
VERTEX
  5
1DB
330
1DA
100
AcDbEntity
  8
Capa 1
 62
     7
370
    35
100
AcDbVertex
100
AcDb2dVertex
 10
124.1847498616934
 20
101.1945789934877
 30
0.0
  0
VERTEX
  5
1DC
330
1DA
100
AcDbEntity
  8
Capa 1
 62
     7
370
    35
100
AcDbVertex
100
AcDb2dVertex
 10
124.3118739689622
 20
101.1098295886418
 30
0.0
  0
VERTEX
  5
1DD
330
1DA
100
AcDbEntity
  8
Capa 1
 62
     7
370
    35
100
AcDbVertex
100
AcDb2dVertex
 10
124.438998076231
 20
100.85592588388
 30
0.0
  0
VERTEX
  5
1DE
330
1DA
100
AcDbEntity
  8
Capa 1
 62
     7
370
    35
100
AcDbVertex
100
AcDb2dVertex
 10
124.565777673724
 20
100.4748980718495
 30
0.0
  0
VERTEX
  5
1DF
330
1DA
100
AcDbEntity
  8
Capa 1
 62
     7
370
    35
100
AcDbVertex
100
AcDb2dVertex
 10
124.6081523761469
 20
99.96674615255012
 30
0.0
  0
VERTEX
  5
1E0
330
1DA
100
AcDbEntity
  8
Capa 1
 62
     7
370
    35
100
AcDbVertex
100
AcDb2dVertex
 10
124.6505270785698
 20
99.41656404060363
 30
0.0
  0
VERTEX
  5
1E1
330
1DA
100
AcDbEntity
  8
Capa 1
 62
     7
370
    35
100
AcDbVertex
100
AcDb2dVertex
 10
124.6505270785698
 20
98.86638192865715
 30
0.0
  0
VERTEX
  5
1E2
330
1DA
100
AcDbEntity
  8
Capa 1
 62
     7
370
    35
100
AcDbVertex
100
AcDb2dVertex
 10
124.6081523761469
 20
98.3582300093578
 30
0.0
  0
VERTEX
  5
1E3
330
1DA
100
AcDbEntity
  8
Capa 1
 62
     7
370
    35
100
AcDbVertex
100
AcDb2dVertex
 10
124.4810282688781
 20
97.89245279248138
 30
0.0
  0
VERTEX
  5
1E4
330
1DA
100
AcDbEntity
  8
Capa 1
 62
     7
370
    35
100
AcDbVertex
100
AcDb2dVertex
 10
124.396623373808
 20
97.59617438529668
 30
0.0
  0
VERTEX
  5
1E5
330
1DA
100
AcDbEntity
  8
Capa 1
 62
     7
370
    35
100
AcDbVertex
100
AcDb2dVertex
 10
124.2274690738921
 20
97.42702008538075
 30
0.0
  0
VERTEX
  5
1E6
330
1DA
100
AcDbEntity
  8
Capa 1
 62
     7
370
    35
100
AcDbVertex
100
AcDb2dVertex
 10
124.1000004568475
 20
97.42702008538075
 30
0.0
  0
VERTEX
  5
1E7
330
1DA
100
AcDbEntity
  8
Capa 1
 62
     7
370
    35
100
AcDbVertex
100
AcDb2dVertex
 10
123.9732208593545
 20
97.59617438529668
 30
0.0
  0
VERTEX
  5
1E8
330
1DA
100
AcDbEntity
  8
Capa 1
 62
     7
370
    35
100
AcDbVertex
100
AcDb2dVertex
 10
123.8464412618616
 20
97.89245279248138
 30
0.0
  0
VERTEX
  5
1E9
330
1DA
100
AcDbEntity
  8
Capa 1
 62
     7
370
    35
100
AcDbVertex
100
AcDb2dVertex
 10
123.7616918570157
 20
98.3582300093578
 30
0.0
  0
VERTEX
  5
1EA
330
1DA
100
AcDbEntity
  8
Capa 1
 62
     7
370
    35
100
AcDbVertex
100
AcDb2dVertex
 10
123.6769424521698
 20
98.86638192865715
 30
0.0
  0
VERTEX
  5
1EB
330
1DA
100
AcDbEntity
  8
Capa 1
 62
     7
370
    35
100
AcDbVertex
100
AcDb2dVertex
 10
123.6769424521698
 20
99.41656404060363
 30
0.0
  0
VERTEX
  5
1EC
330
1DA
100
AcDbEntity
  8
Capa 1
 62
     7
370
    35
100
AcDbVertex
100
AcDb2dVertex
 10
123.718972644817
 20
99.96674615255012
 30
0.0
  0
VERTEX
  5
1ED
330
1DA
100
AcDbEntity
  8
Capa 1
 62
     7
370
    35
100
AcDbVertex
100
AcDb2dVertex
 10
123.8037220496628
 20
100.4748980718495
 30
0.0
  0
VERTEX
  5
1EE
330
1DA
100
AcDbEntity
  8
Capa 1
 62
     7
370
    35
100
AcDbVertex
100
AcDb2dVertex
 10
123.8884714545087
 20
100.85592588388
 30
0.0
  0
VERTEX
  5
1EF
330
1DA
100
AcDbEntity
  8
Capa 1
 62
     7
370
    35
100
AcDbVertex
100
AcDb2dVertex
 10
124.0155955617775
 20
101.1098295886418
 30
0.0
  0
VERTEX
  5
1F0
330
1DA
100
AcDbEntity
  8
Capa 1
 62
     7
370
    35
100
AcDbVertex
100
AcDb2dVertex
 10
124.1847498616934
 20
101.1945789934877
 30
0.0
  0
SEQEND
  5
1F1
330
1DA
100
AcDbEntity
  8
Capa 1
370
    35
  0
POLYLINE
  5
1F2
330
1F
100
AcDbEntity
  8
Capa 1
 62
     7
370
    35
100
AcDb2dPolyline
 66
     1
 10
0.0
 20
0.0
 30
0.0
  0
VERTEX
  5
1F3
330
1F2
100
AcDbEntity
  8
Capa 1
 62
     7
370
    35
100
AcDbVertex
100
AcDb2dVertex
 10
-14.20276001697286
 20
101.4061079958265
 30
0.0
  0
VERTEX
  5
1F4
330
1F2
100
AcDbEntity
  8
Capa 1
 62
     7
370
    35
100
AcDbVertex
100
AcDb2dVertex
 10
-14.07563590970407
 20
101.3217031007564
 30
0.0
  0
VERTEX
  5
1F5
330
1F2
100
AcDbEntity
  8
Capa 1
 62
     7
370
    35
100
AcDbVertex
100
AcDb2dVertex
 10
-13.90648160978815
 20
101.0674548862189
 30
0.0
  0
VERTEX
  5
1F6
330
1F2
100
AcDbEntity
  8
Capa 1
 62
     7
370
    35
100
AcDbVertex
100
AcDb2dVertex
 10
-13.77935750251937
 20
100.6443968815412
 30
0.0
  0
VERTEX
  5
1F7
330
1F2
100
AcDbEntity
  8
Capa 1
 62
     7
370
    35
100
AcDbVertex
100
AcDb2dVertex
 10
-13.73698280009644
 20
100.1786196646648
 30
0.0
  0
VERTEX
  5
1F8
330
1F2
100
AcDbEntity
  8
Capa 1
 62
     7
370
    35
100
AcDbVertex
100
AcDb2dVertex
 10
-13.65257790502637
 20
99.58606285029535
 30
0.0
  0
VERTEX
  5
1F9
330
1F2
100
AcDbEntity
  8
Capa 1
 62
     7
370
    35
100
AcDbVertex
100
AcDb2dVertex
 10
-13.65257790502637
 20
98.99316152615013
 30
0.0
  0
VERTEX
  5
1FA
330
1F2
100
AcDbEntity
  8
Capa 1
 62
     7
370
    35
100
AcDbVertex
100
AcDb2dVertex
 10
-13.73698280009644
 20
98.40060471178073
 30
0.0
  0
VERTEX
  5
1FB
330
1F2
100
AcDbEntity
  8
Capa 1
 62
     7
370
    35
100
AcDbVertex
100
AcDb2dVertex
 10
-13.77935750251937
 20
97.89245279248138
 30
0.0
  0
VERTEX
  5
1FC
330
1F2
100
AcDbEntity
  8
Capa 1
 62
     7
370
    35
100
AcDbVertex
100
AcDb2dVertex
 10
-13.90648160978815
 20
97.51142498045081
 30
0.0
  0
VERTEX
  5
1FD
330
1F2
100
AcDbEntity
  8
Capa 1
 62
     7
370
    35
100
AcDbVertex
100
AcDb2dVertex
 10
-14.07563590970407
 20
97.25752127568904
 30
0.0
  0
VERTEX
  5
1FE
330
1F2
100
AcDbEntity
  8
Capa 1
 62
     7
370
    35
100
AcDbVertex
100
AcDb2dVertex
 10
-14.20276001697286
 20
97.17277187084318
 30
0.0
  0
VERTEX
  5
1FF
330
1F2
100
AcDbEntity
  8
Capa 1
 62
     7
370
    35
100
AcDbVertex
100
AcDb2dVertex
 10
-14.37225882666457
 20
97.25752127568904
 30
0.0
  0
VERTEX
  5
200
330
1F2
100
AcDbEntity
  8
Capa 1
 62
     7
370
    35
100
AcDbVertex
100
AcDb2dVertex
 10
-14.49903842415756
 20
97.51142498045081
 30
0.0
  0
VERTEX
  5
201
330
1F2
100
AcDbEntity
  8
Capa 1
 62
     7
370
    35
100
AcDbVertex
100
AcDb2dVertex
 10
-14.62616253142635
 20
97.89245279248138
 30
0.0
  0
VERTEX
  5
202
330
1F2
100
AcDbEntity
  8
Capa 1
 62
     7
370
    35
100
AcDbVertex
100
AcDb2dVertex
 10
-14.71091193627221
 20
98.40060471178073
 30
0.0
  0
VERTEX
  5
203
330
1F2
100
AcDbEntity
  8
Capa 1
 62
     7
370
    35
100
AcDbVertex
100
AcDb2dVertex
 10
-14.75294212891934
 20
98.99316152615013
 30
0.0
  0
VERTEX
  5
204
330
1F2
100
AcDbEntity
  8
Capa 1
 62
     7
370
    35
100
AcDbVertex
100
AcDb2dVertex
 10
-14.75294212891934
 20
99.58606285029535
 30
0.0
  0
VERTEX
  5
205
330
1F2
100
AcDbEntity
  8
Capa 1
 62
     7
370
    35
100
AcDbVertex
100
AcDb2dVertex
 10
-14.71091193627221
 20
100.1786196646648
 30
0.0
  0
VERTEX
  5
206
330
1F2
100
AcDbEntity
  8
Capa 1
 62
     7
370
    35
100
AcDbVertex
100
AcDb2dVertex
 10
-14.62616253142635
 20
100.6443968815412
 30
0.0
  0
VERTEX
  5
207
330
1F2
100
AcDbEntity
  8
Capa 1
 62
     7
370
    35
100
AcDbVertex
100
AcDb2dVertex
 10
-14.49903842415756
 20
101.0674548862189
 30
0.0
  0
VERTEX
  5
208
330
1F2
100
AcDbEntity
  8
Capa 1
 62
     7
370
    35
100
AcDbVertex
100
AcDb2dVertex
 10
-14.37225882666457
 20
101.3217031007564
 30
0.0
  0
VERTEX
  5
209
330
1F2
100
AcDbEntity
  8
Capa 1
 62
     7
370
    35
100
AcDbVertex
100
AcDb2dVertex
 10
-14.20276001697286
 20
101.4061079958265
 30
0.0
  0
SEQEND
  5
20A
330
1F2
100
AcDbEntity
  8
Capa 1
370
    35
  0
POLYLINE
  5
20B
330
1F
100
AcDbEntity
  8
Capa 1
 62
     7
370
    35
100
AcDb2dPolyline
 66
     1
 10
0.0
 20
0.0
 30
0.0
  0
VERTEX
  5
20C
330
20B
100
AcDbEntity
  8
Capa 1
 62
     7
370
    35
100
AcDbVertex
100
AcDb2dVertex
 10
-14.20276001697286
 20
101.1945789934877
 30
0.0
  0
VERTEX
  5
20D
330
20B
100
AcDbEntity
  8
Capa 1
 62
     7
370
    35
100
AcDbVertex
100
AcDb2dVertex
 10
-14.07563590970407
 20
101.1098295886418
 30
0.0
  0
VERTEX
  5
20E
330
20B
100
AcDbEntity
  8
Capa 1
 62
     7
370
    35
100
AcDbVertex
100
AcDb2dVertex
 10
-13.94885631221108
 20
100.85592588388
 30
0.0
  0
VERTEX
  5
20F
330
20B
100
AcDbEntity
  8
Capa 1
 62
     7
370
    35
100
AcDbVertex
100
AcDb2dVertex
 10
-13.82173220494229
 20
100.4748980718495
 30
0.0
  0
VERTEX
  5
210
330
20B
100
AcDbEntity
  8
Capa 1
 62
     7
370
    35
100
AcDbVertex
100
AcDb2dVertex
 10
-13.73698280009644
 20
99.96674615255012
 30
0.0
  0
VERTEX
  5
211
330
20B
100
AcDbEntity
  8
Capa 1
 62
     7
370
    35
100
AcDbVertex
100
AcDb2dVertex
 10
-13.73698280009644
 20
98.86638192865715
 30
0.0
  0
VERTEX
  5
212
330
20B
100
AcDbEntity
  8
Capa 1
 62
     7
370
    35
100
AcDbVertex
100
AcDb2dVertex
 10
-13.77935750251937
 20
98.3582300093578
 30
0.0
  0
VERTEX
  5
213
330
20B
100
AcDbEntity
  8
Capa 1
 62
     7
370
    35
100
AcDbVertex
100
AcDb2dVertex
 10
-13.86410690736522
 20
97.89245279248138
 30
0.0
  0
VERTEX
  5
214
330
20B
100
AcDbEntity
  8
Capa 1
 62
     7
370
    35
100
AcDbVertex
100
AcDb2dVertex
 10
-13.99123101463401
 20
97.59617438529668
 30
0.0
  0
VERTEX
  5
215
330
20B
100
AcDbEntity
  8
Capa 1
 62
     7
370
    35
100
AcDbVertex
100
AcDb2dVertex
 10
-14.118010612127
 20
97.42702008538075
 30
0.0
  0
VERTEX
  5
216
330
20B
100
AcDbEntity
  8
Capa 1
 62
     7
370
    35
100
AcDbVertex
100
AcDb2dVertex
 10
-14.28750942181872
 20
97.42702008538075
 30
0.0
  0
VERTEX
  5
217
330
20B
100
AcDbEntity
  8
Capa 1
 62
     7
370
    35
100
AcDbVertex
100
AcDb2dVertex
 10
-14.4142890193117
 20
97.59617438529668
 30
0.0
  0
VERTEX
  5
218
330
20B
100
AcDbEntity
  8
Capa 1
 62
     7
370
    35
100
AcDbVertex
100
AcDb2dVertex
 10
-14.54141312658049
 20
97.89245279248138
 30
0.0
  0
VERTEX
  5
219
330
20B
100
AcDbEntity
  8
Capa 1
 62
     7
370
    35
100
AcDbVertex
100
AcDb2dVertex
 10
-14.62616253142635
 20
98.3582300093578
 30
0.0
  0
VERTEX
  5
21A
330
20B
100
AcDbEntity
  8
Capa 1
 62
     7
370
    35
100
AcDbVertex
100
AcDb2dVertex
 10
-14.66853723384928
 20
98.86638192865715
 30
0.0
  0
VERTEX
  5
21B
330
20B
100
AcDbEntity
  8
Capa 1
 62
     7
370
    35
100
AcDbVertex
100
AcDb2dVertex
 10
-14.71091193627221
 20
99.41656404060363
 30
0.0
  0
VERTEX
  5
21C
330
20B
100
AcDbEntity
  8
Capa 1
 62
     7
370
    35
100
AcDbVertex
100
AcDb2dVertex
 10
-14.66853723384928
 20
99.96674615255012
 30
0.0
  0
VERTEX
  5
21D
330
20B
100
AcDbEntity
  8
Capa 1
 62
     7
370
    35
100
AcDbVertex
100
AcDb2dVertex
 10
-14.58378782900342
 20
100.4748980718495
 30
0.0
  0
VERTEX
  5
21E
330
20B
100
AcDbEntity
  8
Capa 1
 62
     7
370
    35
100
AcDbVertex
100
AcDb2dVertex
 10
-14.49903842415756
 20
100.85592588388
 30
0.0
  0
VERTEX
  5
21F
330
20B
100
AcDbEntity
  8
Capa 1
 62
     7
370
    35
100
AcDbVertex
100
AcDb2dVertex
 10
-14.37225882666457
 20
101.1098295886418
 30
0.0
  0
VERTEX
  5
220
330
20B
100
AcDbEntity
  8
Capa 1
 62
     7
370
    35
100
AcDbVertex
100
AcDb2dVertex
 10
-14.20276001697286
 20
101.1945789934877
 30
0.0
  0
SEQEND
  5
221
330
20B
100
AcDbEntity
  8
Capa 1
370
    35
  0
POLYLINE
  5
222
330
1F
100
AcDbEntity
  8
Capa 1
 62
     7
370
    35
100
AcDb2dPolyline
 66
     1
 10
0.0
 20
0.0
 30
0.0
  0
VERTEX
  5
223
330
222
100
AcDbEntity
  8
Capa 1
 62
     7
370
    35
100
AcDbVertex
100
AcDb2dVertex
 10
124.1847498616934
 20
101.4061079958265
 30
0.0
  0
VERTEX
  5
224
330
222
100
AcDbEntity
  8
Capa 1
 62
     7
370
    35
100
AcDbVertex
100
AcDb2dVertex
 10
56.19746815719845
 20
101.4061079958265
 30
0.0
  0
SEQEND
  5
225
330
222
100
AcDbEntity
  8
Capa 1
370
    35
  0
POLYLINE
  5
226
330
1F
100
AcDbEntity
  8
Capa 1
 62
     7
370
    35
100
AcDb2dPolyline
 66
     1
 10
0.0
 20
0.0
 30
0.0
  0
VERTEX
  5
227
330
226
100
AcDbEntity
  8
Capa 1
 62
     7
370
    35
100
AcDbVertex
100
AcDb2dVertex
 10
56.23984285962138
 20
97.17277187084318
 30
0.0
  0
VERTEX
  5
228
330
226
100
AcDbEntity
  8
Capa 1
 62
     7
370
    35
100
AcDbVertex
100
AcDb2dVertex
 10
124.1847498616934
 20
97.17277187084318
 30
0.0
  0
SEQEND
  5
229
330
226
100
AcDbEntity
  8
Capa 1
370
    35
  0
POLYLINE
  5
22A
330
1F
100
AcDbEntity
  8
Capa 1
 62
     7
370
    35
100
AcDb2dPolyline
 66
     1
 10
0.0
 20
0.0
 30
0.0
  0
VERTEX
  5
22B
330
22A
100
AcDbEntity
  8
Capa 1
 62
     7
370
    35
100
AcDbVertex
100
AcDb2dVertex
 10
-14.20276001697286
 20
97.17277187084318
 30
0.0
  0
VERTEX
  5
22C
330
22A
100
AcDbEntity
  8
Capa 1
 62
     7
370
    35
100
AcDbVertex
100
AcDb2dVertex
 10
53.69977228267623
 20
97.17277187084318
 30
0.0
  0
SEQEND
  5
22D
330
22A
100
AcDbEntity
  8
Capa 1
370
    35
  0
POLYLINE
  5
22E
330
1F
100
AcDbEntity
  8
Capa 1
 62
     7
370
    35
100
AcDb2dPolyline
 66
     1
 10
0.0
 20
0.0
 30
0.0
  0
VERTEX
  5
22F
330
22E
100
AcDbEntity
  8
Capa 1
 62
     7
370
    35
100
AcDbVertex
100
AcDb2dVertex
 10
53.69977228267623
 20
101.4061079958265
 30
0.0
  0
VERTEX
  5
230
330
22E
100
AcDbEntity
  8
Capa 1
 62
     7
370
    35
100
AcDbVertex
100
AcDb2dVertex
 10
-14.24513471939579
 20
101.4061079958265
 30
0.0
  0
SEQEND
  5
231
330
22E
100
AcDbEntity
  8
Capa 1
370
    35
  0
POLYLINE
  5
232
330
1F
100
AcDbEntity
  8
Capa 1
 62
     7
370
    35
100
AcDb2dPolyline
 66
     1
 10
0.0
 20
0.0
 30
0.0
  0
VERTEX
  5
233
330
232
100
AcDbEntity
  8
Capa 1
 62
     7
370
    35
100
AcDbVertex
100
AcDb2dVertex
 10
159.1521475952287
 20
176.3362952119416
 30
0.0
  0
VERTEX
  5
234
330
232
100
AcDbEntity
  8
Capa 1
 62
     7
370
    35
100
AcDbVertex
100
AcDb2dVertex
 10
158.771464292974
 20
176.3362952119416
 30
0.0
  0
SEQEND
  5
235
330
232
100
AcDbEntity
  8
Capa 1
370
    35
  0
POLYLINE
  5
236
330
1F
100
AcDbEntity
  8
Capa 1
 62
     7
370
    35
100
AcDb2dPolyline
 66
     1
 10
0.0
 20
0.0
 30
0.0
  0
VERTEX
  5
237
330
236
100
AcDbEntity
  8
Capa 1
 62
     7
370
    35
100
AcDbVertex
100
AcDb2dVertex
 10
154.6225330630607
 20
176.3362952119416
 30
0.0
  0
VERTEX
  5
238
330
236
100
AcDbEntity
  8
Capa 1
 62
     7
370
    35
100
AcDbVertex
100
AcDb2dVertex
 10
154.1991305486072
 20
176.3362952119416
 30
0.0
  0
SEQEND
  5
239
330
236
100
AcDbEntity
  8
Capa 1
370
    35
  0
POLYLINE
  5
23A
330
1F
100
AcDbEntity
  8
Capa 1
 62
     7
370
    35
100
AcDb2dPolyline
 66
     1
 10
0.0
 20
0.0
 30
0.0
  0
VERTEX
  5
23B
330
23A
100
AcDbEntity
  8
Capa 1
 62
     7
370
    35
100
AcDbVertex
100
AcDb2dVertex
 10
159.1521475952287
 20
158.852596345174
 30
0.0
  0
VERTEX
  5
23C
330
23A
100
AcDbEntity
  8
Capa 1
 62
     7
370
    35
100
AcDbVertex
100
AcDb2dVertex
 10
154.1991305486072
 20
158.852596345174
 30
0.0
  0
SEQEND
  5
23D
330
23A
100
AcDbEntity
  8
Capa 1
370
    35
  0
POLYLINE
  5
23E
330
1F
100
AcDbEntity
  8
Capa 1
 62
     7
370
    35
100
AcDb2dPolyline
 66
     1
 10
0.0
 20
0.0
 30
0.0
  0
VERTEX
  5
23F
330
23E
100
AcDbEntity
  8
Capa 1
 62
     7
370
    35
100
AcDbVertex
100
AcDb2dVertex
 10
159.1521475952287
 20
162.6203275081688
 30
0.0
  0
VERTEX
  5
240
330
23E
100
AcDbEntity
  8
Capa 1
 62
     7
370
    35
100
AcDbVertex
100
AcDb2dVertex
 10
159.1521475952287
 20
162.0699731413344
 30
0.0
  0
SEQEND
  5
241
330
23E
100
AcDbEntity
  8
Capa 1
370
    35
  0
POLYLINE
  5
242
330
1F
100
AcDbEntity
  8
Capa 1
 62
     7
370
    35
100
AcDb2dPolyline
 66
     1
 10
0.0
 20
0.0
 30
0.0
  0
VERTEX
  5
243
330
242
100
AcDbEntity
  8
Capa 1
 62
     7
370
    35
100
AcDbVertex
100
AcDb2dVertex
 10
155.3422139846989
 20
162.3662515485191
 30
0.0
  0
VERTEX
  5
244
330
242
100
AcDbEntity
  8
Capa 1
 62
     7
370
    35
100
AcDbVertex
100
AcDb2dVertex
 10
155.3422139846989
 20
162.4510009533649
 30
0.0
  0
VERTEX
  5
245
330
242
100
AcDbEntity
  8
Capa 1
 62
     7
370
    35
100
AcDbVertex
100
AcDb2dVertex
 10
155.4269633895448
 20
162.5355781033229
 30
0.0
  0
VERTEX
  5
246
330
242
100
AcDbEntity
  8
Capa 1
 62
     7
370
    35
100
AcDbVertex
100
AcDb2dVertex
 10
155.4689935821919
 20
162.6203275081688
 30
0.0
  0
VERTEX
  5
247
330
242
100
AcDbEntity
  8
Capa 1
 62
     7
370
    35
100
AcDbVertex
100
AcDb2dVertex
 10
155.5117127943906
 20
162.6203275081688
 30
0.0
  0
SEQEND
  5
248
330
242
100
AcDbEntity
  8
Capa 1
370
    35
  0
POLYLINE
  5
249
330
1F
100
AcDbEntity
  8
Capa 1
 62
     7
370
    35
100
AcDb2dPolyline
 66
     1
 10
0.0
 20
0.0
 30
0.0
  0
VERTEX
  5
24A
330
249
100
AcDbEntity
  8
Capa 1
 62
     7
370
    35
100
AcDbVertex
100
AcDb2dVertex
 10
155.5117127943906
 20
162.0699731413344
 30
0.0
  0
VERTEX
  5
24B
330
249
100
AcDbEntity
  8
Capa 1
 62
     7
370
    35
100
AcDbVertex
100
AcDb2dVertex
 10
155.4689935821919
 20
162.0699731413344
 30
0.0
  0
VERTEX
  5
24C
330
249
100
AcDbEntity
  8
Capa 1
 62
     7
370
    35
100
AcDbVertex
100
AcDb2dVertex
 10
155.4269633895448
 20
162.1545502912923
 30
0.0
  0
VERTEX
  5
24D
330
249
100
AcDbEntity
  8
Capa 1
 62
     7
370
    35
100
AcDbVertex
100
AcDb2dVertex
 10
155.3422139846989
 20
162.2392996961382
 30
0.0
  0
VERTEX
  5
24E
330
249
100
AcDbEntity
  8
Capa 1
 62
     7
370
    35
100
AcDbVertex
100
AcDb2dVertex
 10
155.3422139846989
 20
162.3662515485191
 30
0.0
  0
SEQEND
  5
24F
330
249
100
AcDbEntity
  8
Capa 1
370
    35
  0
POLYLINE
  5
250
330
1F
100
AcDbEntity
  8
Capa 1
 62
     7
370
    35
100
AcDb2dPolyline
 66
     1
 10
0.0
 20
0.0
 30
0.0
  0
VERTEX
  5
251
330
250
100
AcDbEntity
  8
Capa 1
 62
     7
370
    35
100
AcDbVertex
100
AcDb2dVertex
 10
155.2154343872059
 20
162.3662515485191
 30
0.0
  0
VERTEX
  5
252
330
250
100
AcDbEntity
  8
Capa 1
 62
     7
370
    35
100
AcDbVertex
100
AcDb2dVertex
 10
155.257464579853
 20
162.4510009533649
 30
0.0
  0
VERTEX
  5
253
330
250
100
AcDbEntity
  8
Capa 1
 62
     7
370
    35
100
AcDbVertex
100
AcDb2dVertex
 10
155.299839282276
 20
162.5355781033229
 30
0.0
  0
VERTEX
  5
254
330
250
100
AcDbEntity
  8
Capa 1
 62
     7
370
    35
100
AcDbVertex
100
AcDb2dVertex
 10
155.3845886871218
 20
162.6203275081688
 30
0.0
  0
VERTEX
  5
255
330
250
100
AcDbEntity
  8
Capa 1
 62
     7
370
    35
100
AcDbVertex
100
AcDb2dVertex
 10
155.5964621992365
 20
162.6203275081688
 30
0.0
  0
VERTEX
  5
256
330
250
100
AcDbEntity
  8
Capa 1
 62
     7
370
    35
100
AcDbVertex
100
AcDb2dVertex
 10
155.6808670943065
 20
162.5355781033229
 30
0.0
  0
VERTEX
  5
257
330
250
100
AcDbEntity
  8
Capa 1
 62
     7
370
    35
100
AcDbVertex
100
AcDb2dVertex
 10
155.7232417967295
 20
162.4510009533649
 30
0.0
  0
VERTEX
  5
258
330
250
100
AcDbEntity
  8
Capa 1
 62
     7
370
    35
100
AcDbVertex
100
AcDb2dVertex
 10
155.7232417967295
 20
162.2392996961382
 30
0.0
  0
VERTEX
  5
259
330
250
100
AcDbEntity
  8
Capa 1
 62
     7
370
    35
100
AcDbVertex
100
AcDb2dVertex
 10
155.6808670943065
 20
162.1545502912923
 30
0.0
  0
VERTEX
  5
25A
330
250
100
AcDbEntity
  8
Capa 1
 62
     7
370
    35
100
AcDbVertex
100
AcDb2dVertex
 10
155.5964621992365
 20
162.0699731413344
 30
0.0
  0
VERTEX
  5
25B
330
250
100
AcDbEntity
  8
Capa 1
 62
     7
370
    35
100
AcDbVertex
100
AcDb2dVertex
 10
155.3845886871218
 20
162.0699731413344
 30
0.0
  0
VERTEX
  5
25C
330
250
100
AcDbEntity
  8
Capa 1
 62
     7
370
    35
100
AcDbVertex
100
AcDb2dVertex
 10
155.299839282276
 20
162.1545502912923
 30
0.0
  0
VERTEX
  5
25D
330
250
100
AcDbEntity
  8
Capa 1
 62
     7
370
    35
100
AcDbVertex
100
AcDb2dVertex
 10
155.257464579853
 20
162.2392996961382
 30
0.0
  0
VERTEX
  5
25E
330
250
100
AcDbEntity
  8
Capa 1
 62
     7
370
    35
100
AcDbVertex
100
AcDb2dVertex
 10
155.2154343872059
 20
162.3662515485191
 30
0.0
  0
SEQEND
  5
25F
330
250
100
AcDbEntity
  8
Capa 1
370
    35
  0
POLYLINE
  5
260
330
1F
100
AcDbEntity
  8
Capa 1
 62
     7
370
    35
100
AcDb2dPolyline
 66
     1
 10
0.0
 20
0.0
 30
0.0
  0
VERTEX
  5
261
330
260
100
AcDbEntity
  8
Capa 1
 62
     7
370
    35
100
AcDbVertex
100
AcDb2dVertex
 10
155.3422139846989
 20
162.3662515485191
 30
0.0
  0
VERTEX
  5
262
330
260
100
AcDbEntity
  8
Capa 1
 62
     7
370
    35
100
AcDbVertex
100
AcDb2dVertex
 10
155.3422139846989
 20
162.3240491009841
 30
0.0
  0
SEQEND
  5
263
330
260
100
AcDbEntity
  8
Capa 1
370
    35
  0
POLYLINE
  5
264
330
1F
100
AcDbEntity
  8
Capa 1
 62
     7
370
    35
100
AcDb2dPolyline
 66
     1
 10
0.0
 20
0.0
 30
0.0
  0
VERTEX
  5
265
330
264
100
AcDbEntity
  8
Capa 1
 62
     7
370
    35
100
AcDbVertex
100
AcDb2dVertex
 10
158.8134944856211
 20
172.441612196566
 30
0.0
  0
VERTEX
  5
266
330
264
100
AcDbEntity
  8
Capa 1
 62
     7
370
    35
100
AcDbVertex
100
AcDb2dVertex
 10
158.8134944856211
 20
172.3146603441851
 30
0.0
  0
VERTEX
  5
267
330
264
100
AcDbEntity
  8
Capa 1
 62
     7
370
    35
100
AcDbVertex
100
AcDb2dVertex
 10
158.771464292974
 20
172.2299109393392
 30
0.0
  0
VERTEX
  5
268
330
264
100
AcDbEntity
  8
Capa 1
 62
     7
370
    35
100
AcDbVertex
100
AcDb2dVertex
 10
158.771464292974
 20
172.0182096821125
 30
0.0
  0
VERTEX
  5
269
330
264
100
AcDbEntity
  8
Capa 1
 62
     7
370
    35
100
AcDbVertex
100
AcDb2dVertex
 10
158.6867148881281
 20
171.8066806797736
 30
0.0
  0
VERTEX
  5
26A
330
264
100
AcDbEntity
  8
Capa 1
 62
     7
370
    35
100
AcDbVertex
100
AcDb2dVertex
 10
158.6019654832822
 20
171.6373541249698
 30
0.0
  0
VERTEX
  5
26B
330
264
100
AcDbEntity
  8
Capa 1
 62
     7
370
    35
100
AcDbVertex
100
AcDb2dVertex
 10
158.5172160784364
 20
171.468027570166
 30
0.0
  0
VERTEX
  5
26C
330
264
100
AcDbEntity
  8
Capa 1
 62
     7
370
    35
100
AcDbVertex
100
AcDb2dVertex
 10
158.3904364809434
 20
171.2987010153622
 30
0.0
  0
VERTEX
  5
26D
330
264
100
AcDbEntity
  8
Capa 1
 62
     7
370
    35
100
AcDbVertex
100
AcDb2dVertex
 10
158.2633123736746
 20
171.1715769080934
 30
0.0
  0
VERTEX
  5
26E
330
264
100
AcDbEntity
  8
Capa 1
 62
     7
370
    35
100
AcDbVertex
100
AcDb2dVertex
 10
158.0938135639829
 20
171.0446250557125
 30
0.0
  0
VERTEX
  5
26F
330
264
100
AcDbEntity
  8
Capa 1
 62
     7
370
    35
100
AcDbVertex
100
AcDb2dVertex
 10
157.924659264067
 20
170.9176732033316
 30
0.0
  0
VERTEX
  5
270
330
264
100
AcDbEntity
  8
Capa 1
 62
     7
370
    35
100
AcDbVertex
100
AcDb2dVertex
 10
157.7551604543753
 20
170.8329237984857
 30
0.0
  0
VERTEX
  5
271
330
264
100
AcDbEntity
  8
Capa 1
 62
     7
370
    35
100
AcDbVertex
100
AcDb2dVertex
 10
157.5856616446835
 20
170.7483466485278
 30
0.0
  0
VERTEX
  5
272
330
264
100
AcDbEntity
  8
Capa 1
 62
     7
370
    35
100
AcDbVertex
100
AcDb2dVertex
 10
157.3741326423447
 20
170.7059719461049
 30
0.0
  0
VERTEX
  5
273
330
264
100
AcDbEntity
  8
Capa 1
 62
     7
370
    35
100
AcDbVertex
100
AcDb2dVertex
 10
157.1626036400059
 20
170.621222541259
 30
0.0
  0
VERTEX
  5
274
330
264
100
AcDbEntity
  8
Capa 1
 62
     7
370
    35
100
AcDbVertex
100
AcDb2dVertex
 10
156.2737684184517
 20
170.621222541259
 30
0.0
  0
VERTEX
  5
275
330
264
100
AcDbEntity
  8
Capa 1
 62
     7
370
    35
100
AcDbVertex
100
AcDb2dVertex
 10
156.0618949063371
 20
170.7059719461049
 30
0.0
  0
VERTEX
  5
276
330
264
100
AcDbEntity
  8
Capa 1
 62
     7
370
    35
100
AcDbVertex
100
AcDb2dVertex
 10
155.8500213942225
 20
170.7483466485278
 30
0.0
  0
VERTEX
  5
277
330
264
100
AcDbEntity
  8
Capa 1
 62
     7
370
    35
100
AcDbVertex
100
AcDb2dVertex
 10
155.6384923918836
 20
170.8329237984857
 30
0.0
  0
VERTEX
  5
278
330
264
100
AcDbEntity
  8
Capa 1
 62
     7
370
    35
100
AcDbVertex
100
AcDb2dVertex
 10
155.4689935821919
 20
170.9176732033316
 30
0.0
  0
VERTEX
  5
279
330
264
100
AcDbEntity
  8
Capa 1
 62
     7
370
    35
100
AcDbVertex
100
AcDb2dVertex
 10
155.299839282276
 20
171.0446250557125
 30
0.0
  0
VERTEX
  5
27A
330
264
100
AcDbEntity
  8
Capa 1
 62
     7
370
    35
100
AcDbVertex
100
AcDb2dVertex
 10
155.1306849823601
 20
171.1715769080934
 30
0.0
  0
VERTEX
  5
27B
330
264
100
AcDbEntity
  8
Capa 1
 62
     7
370
    35
100
AcDbVertex
100
AcDb2dVertex
 10
155.0035608750913
 20
171.2987010153622
 30
0.0
  0
VERTEX
  5
27C
330
264
100
AcDbEntity
  8
Capa 1
 62
     7
370
    35
100
AcDbVertex
100
AcDb2dVertex
 10
154.9188114702454
 20
171.468027570166
 30
0.0
  0
VERTEX
  5
27D
330
264
100
AcDbEntity
  8
Capa 1
 62
     7
370
    35
100
AcDbVertex
100
AcDb2dVertex
 10
154.7916873629766
 20
171.5949794225469
 30
0.0
  0
VERTEX
  5
27E
330
264
100
AcDbEntity
  8
Capa 1
 62
     7
370
    35
100
AcDbVertex
100
AcDb2dVertex
 10
154.7072824679066
 20
171.8066806797736
 30
0.0
  0
VERTEX
  5
27F
330
264
100
AcDbEntity
  8
Capa 1
 62
     7
370
    35
100
AcDbVertex
100
AcDb2dVertex
 10
154.6649077654836
 20
171.8912578297316
 30
0.0
  0
VERTEX
  5
280
330
264
100
AcDbEntity
  8
Capa 1
 62
     7
370
    35
100
AcDbVertex
100
AcDb2dVertex
 10
154.6649077654836
 20
171.9760072345774
 30
0.0
  0
VERTEX
  5
281
330
264
100
AcDbEntity
  8
Capa 1
 62
     7
370
    35
100
AcDbVertex
100
AcDb2dVertex
 10
154.6225330630607
 20
172.1029590869583
 30
0.0
  0
VERTEX
  5
282
330
264
100
AcDbEntity
  8
Capa 1
 62
     7
370
    35
100
AcDbVertex
100
AcDb2dVertex
 10
154.6225330630607
 20
172.441612196566
 30
0.0
  0
SEQEND
  5
283
330
264
100
AcDbEntity
  8
Capa 1
370
    35
  0
POLYLINE
  5
284
330
1F
100
AcDbEntity
  8
Capa 1
 62
     7
370
    35
100
AcDb2dPolyline
 66
     1
 10
0.0
 20
0.0
 30
0.0
  0
VERTEX
  5
285
330
284
100
AcDbEntity
  8
Capa 1
 62
     7
370
    35
100
AcDbVertex
100
AcDb2dVertex
 10
158.8134944856211
 20
190.6449919849718
 30
0.0
  0
VERTEX
  5
286
330
284
100
AcDbEntity
  8
Capa 1
 62
     7
370
    35
100
AcDbVertex
100
AcDb2dVertex
 10
158.7287450807752
 20
190.0946376181374
 30
0.0
  0
VERTEX
  5
287
330
284
100
AcDbEntity
  8
Capa 1
 62
     7
370
    35
100
AcDbVertex
100
AcDb2dVertex
 10
158.4748413760135
 20
189.5442832513031
 30
0.0
  0
VERTEX
  5
288
330
284
100
AcDbEntity
  8
Capa 1
 62
     7
370
    35
100
AcDbVertex
100
AcDb2dVertex
 10
158.0938135639829
 20
189.1210529917375
 30
0.0
  0
VERTEX
  5
289
330
284
100
AcDbEntity
  8
Capa 1
 62
     7
370
    35
100
AcDbVertex
100
AcDb2dVertex
 10
157.5856616446835
 20
188.8246023296649
 30
0.0
  0
VERTEX
  5
28A
330
284
100
AcDbEntity
  8
Capa 1
 62
     7
370
    35
100
AcDbVertex
100
AcDb2dVertex
 10
156.9931048303141
 20
188.6552757748611
 30
0.0
  0
VERTEX
  5
28B
330
284
100
AcDbEntity
  8
Capa 1
 62
     7
370
    35
100
AcDbVertex
100
AcDb2dVertex
 10
156.4005480159447
 20
188.6552757748611
 30
0.0
  0
VERTEX
  5
28C
330
284
100
AcDbEntity
  8
Capa 1
 62
     7
370
    35
100
AcDbVertex
100
AcDb2dVertex
 10
155.8500213942225
 20
188.8246023296649
 30
0.0
  0
VERTEX
  5
28D
330
284
100
AcDbEntity
  8
Capa 1
 62
     7
370
    35
100
AcDbVertex
100
AcDb2dVertex
 10
155.3422139846989
 20
189.1210529917375
 30
0.0
  0
VERTEX
  5
28E
330
284
100
AcDbEntity
  8
Capa 1
 62
     7
370
    35
100
AcDbVertex
100
AcDb2dVertex
 10
154.9188114702454
 20
189.5442832513031
 30
0.0
  0
VERTEX
  5
28F
330
284
100
AcDbEntity
  8
Capa 1
 62
     7
370
    35
100
AcDbVertex
100
AcDb2dVertex
 10
154.7072824679066
 20
190.0946376181374
 30
0.0
  0
VERTEX
  5
290
330
284
100
AcDbEntity
  8
Capa 1
 62
     7
370
    35
100
AcDbVertex
100
AcDb2dVertex
 10
154.6225330630607
 20
190.6449919849718
 30
0.0
  0
VERTEX
  5
291
330
284
100
AcDbEntity
  8
Capa 1
 62
     7
370
    35
100
AcDbVertex
100
AcDb2dVertex
 10
154.7072824679066
 20
191.2377210542291
 30
0.0
  0
VERTEX
  5
292
330
284
100
AcDbEntity
  8
Capa 1
 62
     7
370
    35
100
AcDbVertex
100
AcDb2dVertex
 10
154.9188114702454
 20
191.7457007186406
 30
0.0
  0
VERTEX
  5
293
330
284
100
AcDbEntity
  8
Capa 1
 62
     7
370
    35
100
AcDbVertex
100
AcDb2dVertex
 10
155.3422139846989
 20
192.2113056806291
 30
0.0
  0
VERTEX
  5
294
330
284
100
AcDbEntity
  8
Capa 1
 62
     7
370
    35
100
AcDbVertex
100
AcDb2dVertex
 10
155.8500213942225
 20
192.5075840878138
 30
0.0
  0
VERTEX
  5
295
330
284
100
AcDbEntity
  8
Capa 1
 62
     7
370
    35
100
AcDbVertex
100
AcDb2dVertex
 10
156.4005480159447
 20
192.6769106426176
 30
0.0
  0
VERTEX
  5
296
330
284
100
AcDbEntity
  8
Capa 1
 62
     7
370
    35
100
AcDbVertex
100
AcDb2dVertex
 10
156.9931048303141
 20
192.6769106426176
 30
0.0
  0
VERTEX
  5
297
330
284
100
AcDbEntity
  8
Capa 1
 62
     7
370
    35
100
AcDbVertex
100
AcDb2dVertex
 10
157.5856616446835
 20
192.5075840878138
 30
0.0
  0
VERTEX
  5
298
330
284
100
AcDbEntity
  8
Capa 1
 62
     7
370
    35
100
AcDbVertex
100
AcDb2dVertex
 10
158.0938135639829
 20
192.2113056806291
 30
0.0
  0
VERTEX
  5
299
330
284
100
AcDbEntity
  8
Capa 1
 62
     7
370
    35
100
AcDbVertex
100
AcDb2dVertex
 10
158.4748413760135
 20
191.7457007186406
 30
0.0
  0
VERTEX
  5
29A
330
284
100
AcDbEntity
  8
Capa 1
 62
     7
370
    35
100
AcDbVertex
100
AcDb2dVertex
 10
158.7287450807752
 20
191.2377210542291
 30
0.0
  0
VERTEX
  5
29B
330
284
100
AcDbEntity
  8
Capa 1
 62
     7
370
    35
100
AcDbVertex
100
AcDb2dVertex
 10
158.8134944856211
 20
190.6449919849718
 30
0.0
  0
SEQEND
  5
29C
330
284
100
AcDbEntity
  8
Capa 1
370
    35
  0
POLYLINE
  5
29D
330
1F
100
AcDbEntity
  8
Capa 1
 62
     7
370
    35
100
AcDb2dPolyline
 66
     1
 10
0.0
 20
0.0
 30
0.0
  0
VERTEX
  5
29E
330
29D
100
AcDbEntity
  8
Capa 1
 62
     7
370
    35
100
AcDbVertex
100
AcDb2dVertex
 10
154.7916873629766
 20
190.6449919849718
 30
0.0
  0
VERTEX
  5
29F
330
29D
100
AcDbEntity
  8
Capa 1
 62
     7
370
    35
100
AcDbVertex
100
AcDb2dVertex
 10
154.8764367678225
 20
191.1953463518062
 30
0.0
  0
VERTEX
  5
2A0
330
29D
100
AcDbEntity
  8
Capa 1
 62
     7
370
    35
100
AcDbVertex
100
AcDb2dVertex
 10
155.1306849823601
 20
191.7033260162177
 30
0.0
  0
VERTEX
  5
2A1
330
29D
100
AcDbEntity
  8
Capa 1
 62
     7
370
    35
100
AcDbVertex
100
AcDb2dVertex
 10
155.5117127943906
 20
192.0843538282482
 30
0.0
  0
VERTEX
  5
2A2
330
29D
100
AcDbEntity
  8
Capa 1
 62
     7
370
    35
100
AcDbVertex
100
AcDb2dVertex
 10
156.0195202039142
 20
192.33825753301
 30
0.0
  0
VERTEX
  5
2A3
330
29D
100
AcDbEntity
  8
Capa 1
 62
     7
370
    35
100
AcDbVertex
100
AcDb2dVertex
 10
156.5700468256364
 20
192.4653816402788
 30
0.0
  0
VERTEX
  5
2A4
330
29D
100
AcDbEntity
  8
Capa 1
 62
     7
370
    35
100
AcDbVertex
100
AcDb2dVertex
 10
157.1202289375829
 20
192.4230069378558
 30
0.0
  0
VERTEX
  5
2A5
330
29D
100
AcDbEntity
  8
Capa 1
 62
     7
370
    35
100
AcDbVertex
100
AcDb2dVertex
 10
157.6283808568823
 20
192.253680383052
 30
0.0
  0
VERTEX
  5
2A6
330
29D
100
AcDbEntity
  8
Capa 1
 62
     7
370
    35
100
AcDbVertex
100
AcDb2dVertex
 10
158.0938135639829
 20
191.9150272734444
 30
0.0
  0
VERTEX
  5
2A7
330
29D
100
AcDbEntity
  8
Capa 1
 62
     7
370
    35
100
AcDbVertex
100
AcDb2dVertex
 10
158.3904364809434
 20
191.449250056568
 30
0.0
  0
VERTEX
  5
2A8
330
29D
100
AcDbEntity
  8
Capa 1
 62
     7
370
    35
100
AcDbVertex
100
AcDb2dVertex
 10
158.5595907808593
 20
190.9412703921565
 30
0.0
  0
VERTEX
  5
2A9
330
29D
100
AcDbEntity
  8
Capa 1
 62
     7
370
    35
100
AcDbVertex
100
AcDb2dVertex
 10
158.5595907808593
 20
190.3909160253221
 30
0.0
  0
VERTEX
  5
2AA
330
29D
100
AcDbEntity
  8
Capa 1
 62
     7
370
    35
100
AcDbVertex
100
AcDb2dVertex
 10
158.3904364809434
 20
189.8829363609107
 30
0.0
  0
VERTEX
  5
2AB
330
29D
100
AcDbEntity
  8
Capa 1
 62
     7
370
    35
100
AcDbVertex
100
AcDb2dVertex
 10
158.0938135639829
 20
189.4173313989222
 30
0.0
  0
VERTEX
  5
2AC
330
29D
100
AcDbEntity
  8
Capa 1
 62
     7
370
    35
100
AcDbVertex
100
AcDb2dVertex
 10
157.6283808568823
 20
189.0786782893145
 30
0.0
  0
VERTEX
  5
2AD
330
29D
100
AcDbEntity
  8
Capa 1
 62
     7
370
    35
100
AcDbVertex
100
AcDb2dVertex
 10
157.1202289375829
 20
188.8669770320878
 30
0.0
  0
VERTEX
  5
2AE
330
29D
100
AcDbEntity
  8
Capa 1
 62
     7
370
    35
100
AcDbVertex
100
AcDb2dVertex
 10
156.5700468256364
 20
188.8246023296649
 30
0.0
  0
VERTEX
  5
2AF
330
29D
100
AcDbEntity
  8
Capa 1
 62
     7
370
    35
100
AcDbVertex
100
AcDb2dVertex
 10
156.0195202039142
 20
188.9515541820458
 30
0.0
  0
VERTEX
  5
2B0
330
29D
100
AcDbEntity
  8
Capa 1
 62
     7
370
    35
100
AcDbVertex
100
AcDb2dVertex
 10
155.5117127943906
 20
189.2480048441184
 30
0.0
  0
VERTEX
  5
2B1
330
29D
100
AcDbEntity
  8
Capa 1
 62
     7
370
    35
100
AcDbVertex
100
AcDb2dVertex
 10
155.1306849823601
 20
189.6290326561489
 30
0.0
  0
VERTEX
  5
2B2
330
29D
100
AcDbEntity
  8
Capa 1
 62
     7
370
    35
100
AcDbVertex
100
AcDb2dVertex
 10
154.8764367678225
 20
190.1370123205604
 30
0.0
  0
VERTEX
  5
2B3
330
29D
100
AcDbEntity
  8
Capa 1
 62
     7
370
    35
100
AcDbVertex
100
AcDb2dVertex
 10
154.7916873629766
 20
190.6449919849718
 30
0.0
  0
SEQEND
  5
2B4
330
29D
100
AcDbEntity
  8
Capa 1
370
    35
  0
POLYLINE
  5
2B5
330
1F
100
AcDbEntity
  8
Capa 1
 62
     7
370
    35
100
AcDb2dPolyline
 66
     1
 10
0.0
 20
0.0
 30
0.0
  0
VERTEX
  5
2B6
330
2B5
100
AcDbEntity
  8
Capa 1
 62
     7
370
    35
100
AcDbVertex
100
AcDb2dVertex
 10
159.1521475952287
 20
176.3362952119416
 30
0.0
  0
VERTEX
  5
2B7
330
2B5
100
AcDbEntity
  8
Capa 1
 62
     7
370
    35
100
AcDbVertex
100
AcDb2dVertex
 10
158.771464292974
 20
176.5903711715913
 30
0.0
  0
SEQEND
  5
2B8
330
2B5
100
AcDbEntity
  8
Capa 1
370
    35
  0
POLYLINE
  5
2B9
330
1F
100
AcDbEntity
  8
Capa 1
 62
     7
370
    35
100
AcDb2dPolyline
 66
     1
 10
0.0
 20
0.0
 30
0.0
  0
VERTEX
  5
2BA
330
2B9
100
AcDbEntity
  8
Capa 1
 62
     7
370
    35
100
AcDbVertex
100
AcDb2dVertex
 10
154.6225330630607
 20
176.5479964691684
 30
0.0
  0
VERTEX
  5
2BB
330
2B9
100
AcDbEntity
  8
Capa 1
 62
     7
370
    35
100
AcDbVertex
100
AcDb2dVertex
 10
154.1991305486072
 20
176.3362952119416
 30
0.0
  0
SEQEND
  5
2BC
330
2B9
100
AcDbEntity
  8
Capa 1
370
    35
  0
POLYLINE
  5
2BD
330
1F
100
AcDbEntity
  8
Capa 1
 62
     7
370
    35
100
AcDb2dPolyline
 66
     1
 10
0.0
 20
0.0
 30
0.0
  0
VERTEX
  5
2BE
330
2BD
100
AcDbEntity
  8
Capa 1
 62
     7
370
    35
100
AcDbVertex
100
AcDb2dVertex
 10
159.1521475952287
 20
162.6203275081688
 30
0.0
  0
VERTEX
  5
2BF
330
2BD
100
AcDbEntity
  8
Capa 1
 62
     7
370
    35
100
AcDbVertex
100
AcDb2dVertex
 10
159.1521475952287
 20
176.3786699143646
 30
0.0
  0
SEQEND
  5
2C0
330
2BD
100
AcDbEntity
  8
Capa 1
370
    35
  0
POLYLINE
  5
2C1
330
1F
100
AcDbEntity
  8
Capa 1
 62
     7
370
    35
100
AcDb2dPolyline
 66
     1
 10
0.0
 20
0.0
 30
0.0
  0
VERTEX
  5
2C2
330
2C1
100
AcDbEntity
  8
Capa 1
 62
     7
370
    35
100
AcDbVertex
100
AcDb2dVertex
 10
159.1521475952287
 20
158.852596345174
 30
0.0
  0
VERTEX
  5
2C3
330
2C1
100
AcDbEntity
  8
Capa 1
 62
     7
370
    35
100
AcDbVertex
100
AcDb2dVertex
 10
159.1521475952287
 20
162.1123478437573
 30
0.0
  0
SEQEND
  5
2C4
330
2C1
100
AcDbEntity
  8
Capa 1
370
    35
  0
POLYLINE
  5
2C5
330
1F
100
AcDbEntity
  8
Capa 1
 62
     7
370
    35
100
AcDb2dPolyline
 66
     1
 10
0.0
 20
0.0
 30
0.0
  0
VERTEX
  5
2C6
330
2C5
100
AcDbEntity
  8
Capa 1
 62
     7
370
    35
100
AcDbVertex
100
AcDb2dVertex
 10
154.2415052510301
 20
176.3362952119416
 30
0.0
  0
VERTEX
  5
2C7
330
2C5
100
AcDbEntity
  8
Capa 1
 62
     7
370
    35
100
AcDbVertex
100
AcDb2dVertex
 10
154.2415052510301
 20
158.852596345174
 30
0.0
  0
SEQEND
  5
2C8
330
2C5
100
AcDbEntity
  8
Capa 1
370
    35
  0
POLYLINE
  5
2C9
330
1F
100
AcDbEntity
  8
Capa 1
 62
     7
370
    35
100
AcDb2dPolyline
 66
     1
 10
0.0
 20
0.0
 30
0.0
  0
VERTEX
  5
2CA
330
2C9
100
AcDbEntity
  8
Capa 1
 62
     7
370
    35
100
AcDbVertex
100
AcDb2dVertex
 10
154.6225330630607
 20
190.6449919849718
 30
0.0
  0
VERTEX
  5
2CB
330
2C9
100
AcDbEntity
  8
Capa 1
 62
     7
370
    35
100
AcDbVertex
100
AcDb2dVertex
 10
154.6225330630607
 20
172.441612196566
 30
0.0
  0
SEQEND
  5
2CC
330
2C9
100
AcDbEntity
  8
Capa 1
370
    35
  0
POLYLINE
  5
2CD
330
1F
100
AcDbEntity
  8
Capa 1
 62
     7
370
    35
100
AcDb2dPolyline
 66
     1
 10
0.0
 20
0.0
 30
0.0
  0
VERTEX
  5
2CE
330
2CD
100
AcDbEntity
  8
Capa 1
 62
     7
370
    35
100
AcDbVertex
100
AcDb2dVertex
 10
158.8134944856211
 20
172.441612196566
 30
0.0
  0
VERTEX
  5
2CF
330
2CD
100
AcDbEntity
  8
Capa 1
 62
     7
370
    35
100
AcDbVertex
100
AcDb2dVertex
 10
158.8134944856211
 20
190.6873666873948
 30
0.0
  0
SEQEND
  5
2D0
330
2CD
100
AcDbEntity
  8
Capa 1
370
    35
  0
INSERT
  5
2D2
330
1F
100
AcDbEntity
  8
Capa 1
100
AcDbBlockReference
  2
block 2
 10
0.0
 20
0.0
 30
0.0
  0
POLYLINE
  5
2DC
330
1F
100
AcDbEntity
  8
Capa 1
 62
     7
370
    35
100
AcDb2dPolyline
 66
     1
 10
0.0
 20
0.0
 30
0.0
  0
VERTEX
  5
2DD
330
2DC
100
AcDbEntity
  8
Capa 1
 62
     7
370
    35
100
AcDbVertex
100
AcDb2dVertex
 10
181.631065956153
 20
92.21975482422167
 30
0.0
  0
VERTEX
  5
2DE
330
2DC
100
AcDbEntity
  8
Capa 1
 62
     7
370
    35
100
AcDbVertex
100
AcDb2dVertex
 10
181.5466610610829
 20
91.8390715219669
 30
0.0
  0
VERTEX
  5
2DF
330
2DC
100
AcDbEntity
  8
Capa 1
 62
     7
370
    35
100
AcDbVertex
100
AcDb2dVertex
 10
181.2927573563211
 20
91.50007390258347
 30
0.0
  0
VERTEX
  5
2E0
330
2DC
100
AcDbEntity
  8
Capa 1
 62
     7
370
    35
100
AcDbVertex
100
AcDb2dVertex
 10
180.9117295442906
 20
91.20379549539877
 30
0.0
  0
VERTEX
  5
2E1
330
2DC
100
AcDbEntity
  8
Capa 1
 62
     7
370
    35
100
AcDbVertex
100
AcDb2dVertex
 10
180.4035776249912
 20
90.99226649305992
 30
0.0
  0
VERTEX
  5
2E2
330
2DC
100
AcDbEntity
  8
Capa 1
 62
     7
370
    35
100
AcDbVertex
100
AcDb2dVertex
 10
179.810676300846
 20
90.8227676833682
 30
0.0
  0
VERTEX
  5
2E3
330
2DC
100
AcDbEntity
  8
Capa 1
 62
     7
370
    35
100
AcDbVertex
100
AcDb2dVertex
 10
179.1760892938294
 20
90.78073749072107
 30
0.0
  0
VERTEX
  5
2E4
330
2DC
100
AcDbEntity
  8
Capa 1
 62
     7
370
    35
100
AcDbVertex
100
AcDb2dVertex
 10
178.5408132672613
 20
90.8227676833682
 30
0.0
  0
VERTEX
  5
2E5
330
2DC
100
AcDbEntity
  8
Capa 1
 62
     7
370
    35
100
AcDbVertex
100
AcDb2dVertex
 10
177.9482564528919
 20
90.99226649305992
 30
0.0
  0
VERTEX
  5
2E6
330
2DC
100
AcDbEntity
  8
Capa 1
 62
     7
370
    35
100
AcDbVertex
100
AcDb2dVertex
 10
177.4404490433683
 20
91.20379549539877
 30
0.0
  0
VERTEX
  5
2E7
330
2DC
100
AcDbEntity
  8
Capa 1
 62
     7
370
    35
100
AcDbVertex
100
AcDb2dVertex
 10
177.0594212313378
 20
91.50007390258347
 30
0.0
  0
VERTEX
  5
2E8
330
2DC
100
AcDbEntity
  8
Capa 1
 62
     7
370
    35
100
AcDbVertex
100
AcDb2dVertex
 10
176.8051730168002
 20
91.8390715219669
 30
0.0
  0
VERTEX
  5
2E9
330
2DC
100
AcDbEntity
  8
Capa 1
 62
     7
370
    35
100
AcDbVertex
100
AcDb2dVertex
 10
176.7204236119544
 20
92.21975482422167
 30
0.0
  0
VERTEX
  5
2EA
330
2DC
100
AcDbEntity
  8
Capa 1
 62
     7
370
    35
100
AcDbVertex
100
AcDb2dVertex
 10
176.8051730168002
 20
92.5584079338293
 30
0.0
  0
VERTEX
  5
2EB
330
2DC
100
AcDbEntity
  8
Capa 1
 62
     7
370
    35
100
AcDbVertex
100
AcDb2dVertex
 10
177.0594212313378
 20
92.89740555321272
 30
0.0
  0
VERTEX
  5
2EC
330
2DC
100
AcDbEntity
  8
Capa 1
 62
     7
370
    35
100
AcDbVertex
100
AcDb2dVertex
 10
177.4404490433683
 20
93.19368396039744
 30
0.0
  0
VERTEX
  5
2ED
330
2DC
100
AcDbEntity
  8
Capa 1
 62
     7
370
    35
100
AcDbVertex
100
AcDb2dVertex
 10
177.9482564528919
 20
93.4475876651592
 30
0.0
  0
VERTEX
  5
2EE
330
2DC
100
AcDbEntity
  8
Capa 1
 62
     7
370
    35
100
AcDbVertex
100
AcDb2dVertex
 10
178.5408132672613
 20
93.57471177242799
 30
0.0
  0
VERTEX
  5
2EF
330
2DC
100
AcDbEntity
  8
Capa 1
 62
     7
370
    35
100
AcDbVertex
100
AcDb2dVertex
 10
179.1760892938294
 20
93.61674196507512
 30
0.0
  0
VERTEX
  5
2F0
330
2DC
100
AcDbEntity
  8
Capa 1
 62
     7
370
    35
100
AcDbVertex
100
AcDb2dVertex
 10
179.810676300846
 20
93.57471177242799
 30
0.0
  0
VERTEX
  5
2F1
330
2DC
100
AcDbEntity
  8
Capa 1
 62
     7
370
    35
100
AcDbVertex
100
AcDb2dVertex
 10
180.4035776249912
 20
93.4475876651592
 30
0.0
  0
VERTEX
  5
2F2
330
2DC
100
AcDbEntity
  8
Capa 1
 62
     7
370
    35
100
AcDbVertex
100
AcDb2dVertex
 10
180.9117295442906
 20
93.19368396039744
 30
0.0
  0
VERTEX
  5
2F3
330
2DC
100
AcDbEntity
  8
Capa 1
 62
     7
370
    35
100
AcDbVertex
100
AcDb2dVertex
 10
181.2927573563211
 20
92.89740555321272
 30
0.0
  0
VERTEX
  5
2F4
330
2DC
100
AcDbEntity
  8
Capa 1
 62
     7
370
    35
100
AcDbVertex
100
AcDb2dVertex
 10
181.5466610610829
 20
92.5584079338293
 30
0.0
  0
VERTEX
  5
2F5
330
2DC
100
AcDbEntity
  8
Capa 1
 62
     7
370
    35
100
AcDbVertex
100
AcDb2dVertex
 10
181.631065956153
 20
92.21975482422167
 30
0.0
  0
SEQEND
  5
2F6
330
2DC
100
AcDbEntity
  8
Capa 1
370
    35
  0
POLYLINE
  5
2F7
330
1F
100
AcDbEntity
  8
Capa 1
 62
     7
370
    35
100
AcDb2dPolyline
 66
     1
 10
0.0
 20
0.0
 30
0.0
  0
VERTEX
  5
2F8
330
2F7
100
AcDbEntity
  8
Capa 1
 62
     7
370
    35
100
AcDbVertex
100
AcDb2dVertex
 10
181.631065956153
 20
77.91123030607937
 30
0.0
  0
VERTEX
  5
2F9
330
2F7
100
AcDbEntity
  8
Capa 1
 62
     7
370
    35
100
AcDbVertex
100
AcDb2dVertex
 10
181.5466610610829
 20
77.57257719647174
 30
0.0
  0
VERTEX
  5
2FA
330
2F7
100
AcDbEntity
  8
Capa 1
 62
     7
370
    35
100
AcDbVertex
100
AcDb2dVertex
 10
181.2927573563211
 20
77.19154938444119
 30
0.0
  0
VERTEX
  5
2FB
330
2F7
100
AcDbEntity
  8
Capa 1
 62
     7
370
    35
100
AcDbVertex
100
AcDb2dVertex
 10
180.9117295442906
 20
76.9376456796794
 30
0.0
  0
VERTEX
  5
2FC
330
2F7
100
AcDbEntity
  8
Capa 1
 62
     7
370
    35
100
AcDbVertex
100
AcDb2dVertex
 10
180.4035776249912
 20
76.68339746514184
 30
0.0
  0
VERTEX
  5
2FD
330
2F7
100
AcDbEntity
  8
Capa 1
 62
     7
370
    35
100
AcDbVertex
100
AcDb2dVertex
 10
179.810676300846
 20
76.55661786764884
 30
0.0
  0
VERTEX
  5
2FE
330
2F7
100
AcDbEntity
  8
Capa 1
 62
     7
370
    35
100
AcDbVertex
100
AcDb2dVertex
 10
179.1760892938294
 20
76.51424316522592
 30
0.0
  0
VERTEX
  5
2FF
330
2F7
100
AcDbEntity
  8
Capa 1
 62
     7
370
    35
100
AcDbVertex
100
AcDb2dVertex
 10
178.5408132672613
 20
76.55661786764884
 30
0.0
  0
VERTEX
  5
300
330
2F7
100
AcDbEntity
  8
Capa 1
 62
     7
370
    35
100
AcDbVertex
100
AcDb2dVertex
 10
177.9482564528919
 20
76.68339746514184
 30
0.0
  0
VERTEX
  5
301
330
2F7
100
AcDbEntity
  8
Capa 1
 62
     7
370
    35
100
AcDbVertex
100
AcDb2dVertex
 10
177.4404490433683
 20
76.9376456796794
 30
0.0
  0
VERTEX
  5
302
330
2F7
100
AcDbEntity
  8
Capa 1
 62
     7
370
    35
100
AcDbVertex
100
AcDb2dVertex
 10
177.0594212313378
 20
77.19154938444119
 30
0.0
  0
VERTEX
  5
303
330
2F7
100
AcDbEntity
  8
Capa 1
 62
     7
370
    35
100
AcDbVertex
100
AcDb2dVertex
 10
176.8051730168002
 20
77.57257719647174
 30
0.0
  0
VERTEX
  5
304
330
2F7
100
AcDbEntity
  8
Capa 1
 62
     7
370
    35
100
AcDbVertex
100
AcDb2dVertex
 10
176.7204236119544
 20
77.91123030607937
 30
0.0
  0
SEQEND
  5
305
330
2F7
100
AcDbEntity
  8
Capa 1
370
    35
  0
POLYLINE
  5
306
330
1F
100
AcDbEntity
  8
Capa 1
 62
     7
370
    35
100
AcDb2dPolyline
 66
     1
 10
0.0
 20
0.0
 30
0.0
  0
VERTEX
  5
307
330
306
100
AcDbEntity
  8
Capa 1
 62
     7
370
    35
100
AcDbVertex
100
AcDb2dVertex
 10
181.631065956153
 20
88.11354280650713
 30
0.0
  0
VERTEX
  5
308
330
306
100
AcDbEntity
  8
Capa 1
 62
     7
370
    35
100
AcDbVertex
100
AcDb2dVertex
 10
181.631065956153
 20
88.19829221135298
 30
0.0
  0
VERTEX
  5
309
330
306
100
AcDbEntity
  8
Capa 1
 62
     7
370
    35
100
AcDbVertex
100
AcDb2dVertex
 10
181.5890357635058
 20
88.28304161619884
 30
0.0
  0
VERTEX
  5
30A
330
306
100
AcDbEntity
  8
Capa 1
 62
     7
370
    35
100
AcDbVertex
100
AcDb2dVertex
 10
181.5890357635058
 20
88.3674465112689
 30
0.0
  0
VERTEX
  5
30B
330
306
100
AcDbEntity
  8
Capa 1
 62
     7
370
    35
100
AcDbVertex
100
AcDb2dVertex
 10
181.5466610610829
 20
88.4945706185377
 30
0.0
  0
VERTEX
  5
30C
330
306
100
AcDbEntity
  8
Capa 1
 62
     7
370
    35
100
AcDbVertex
100
AcDb2dVertex
 10
181.5466610610829
 20
88.87559843056825
 30
0.0
  0
VERTEX
  5
30D
330
306
100
AcDbEntity
  8
Capa 1
 62
     7
370
    35
100
AcDbVertex
100
AcDb2dVertex
 10
181.5890357635058
 20
89.0871274329071
 30
0.0
  0
VERTEX
  5
30E
330
306
100
AcDbEntity
  8
Capa 1
 62
     7
370
    35
100
AcDbVertex
100
AcDb2dVertex
 10
181.5890357635058
 20
89.5105299473606
 30
0.0
  0
VERTEX
  5
30F
330
306
100
AcDbEntity
  8
Capa 1
 62
     7
370
    35
100
AcDbVertex
100
AcDb2dVertex
 10
181.631065956153
 20
89.72240345947523
 30
0.0
  0
VERTEX
  5
310
330
306
100
AcDbEntity
  8
Capa 1
 62
     7
370
    35
100
AcDbVertex
100
AcDb2dVertex
 10
181.631065956153
 20
90.14546146415293
 30
0.0
  0
SEQEND
  5
311
330
306
100
AcDbEntity
  8
Capa 1
370
    35
  0
POLYLINE
  5
312
330
1F
100
AcDbEntity
  8
Capa 1
 62
     7
370
    35
100
AcDb2dPolyline
 66
     1
 10
0.0
 20
0.0
 30
0.0
  0
VERTEX
  5
313
330
312
100
AcDbEntity
  8
Capa 1
 62
     7
370
    35
100
AcDbVertex
100
AcDb2dVertex
 10
229.5103455767529
 20
130.5740281636091
 30
0.0
  0
VERTEX
  5
314
330
312
100
AcDbEntity
  8
Capa 1
 62
     7
370
    35
100
AcDbVertex
100
AcDb2dVertex
 10
229.6371251742459
 20
130.785557165948
 30
0.0
  0
VERTEX
  5
315
330
312
100
AcDbEntity
  8
Capa 1
 62
     7
370
    35
100
AcDbVertex
100
AcDb2dVertex
 10
229.6371251742459
 20
131.1242102755556
 30
0.0
  0
VERTEX
  5
316
330
312
100
AcDbEntity
  8
Capa 1
 62
     7
370
    35
100
AcDbVertex
100
AcDb2dVertex
 10
229.5103455767529
 20
131.5476127900091
 30
0.0
  0
VERTEX
  5
317
330
312
100
AcDbEntity
  8
Capa 1
 62
     7
370
    35
100
AcDbVertex
100
AcDb2dVertex
 10
229.2560973622153
 20
132.0133900068855
 30
0.0
  0
VERTEX
  5
318
330
312
100
AcDbEntity
  8
Capa 1
 62
     7
370
    35
100
AcDbVertex
100
AcDb2dVertex
 10
228.9177887623835
 20
132.4788227139861
 30
0.0
  0
VERTEX
  5
319
330
312
100
AcDbEntity
  8
Capa 1
 62
     7
370
    35
100
AcDbVertex
100
AcDb2dVertex
 10
228.5367609503529
 20
132.9445999308626
 30
0.0
  0
VERTEX
  5
31A
330
312
100
AcDbEntity
  8
Capa 1
 62
     7
370
    35
100
AcDbVertex
100
AcDb2dVertex
 10
228.1133584358994
 20
133.3256277428931
 30
0.0
  0
VERTEX
  5
31B
330
312
100
AcDbEntity
  8
Capa 1
 62
     7
370
    35
100
AcDbVertex
100
AcDb2dVertex
 10
227.6899559214459
 20
133.5795314476549
 30
0.0
  0
VERTEX
  5
31C
330
312
100
AcDbEntity
  8
Capa 1
 62
     7
370
    35
100
AcDbVertex
100
AcDb2dVertex
 10
227.2665534069925
 20
133.7914049597696
 30
0.0
  0
VERTEX
  5
31D
330
312
100
AcDbEntity
  8
Capa 1
 62
     7
370
    35
100
AcDbVertex
100
AcDb2dVertex
 10
226.9279002973848
 20
133.7914049597696
 30
0.0
  0
VERTEX
  5
31E
330
312
100
AcDbEntity
  8
Capa 1
 62
     7
370
    35
100
AcDbVertex
100
AcDb2dVertex
 10
226.716371295046
 20
133.7066555549237
 30
0.0
  0
SEQEND
  5
31F
330
312
100
AcDbEntity
  8
Capa 1
370
    35
  0
POLYLINE
  5
320
330
1F
100
AcDbEntity
  8
Capa 1
 62
     7
370
    35
100
AcDb2dPolyline
 66
     1
 10
0.0
 20
0.0
 30
0.0
  0
VERTEX
  5
321
330
320
100
AcDbEntity
  8
Capa 1
 62
     7
370
    35
100
AcDbVertex
100
AcDb2dVertex
 10
180.9537597369377
 20
80.02789836857104
 30
0.0
  0
VERTEX
  5
322
330
320
100
AcDbEntity
  8
Capa 1
 62
     7
370
    35
100
AcDbVertex
100
AcDb2dVertex
 10
180.9537597369377
 20
79.90077426130226
 30
0.0
  0
VERTEX
  5
323
330
320
100
AcDbEntity
  8
Capa 1
 62
     7
370
    35
100
AcDbVertex
100
AcDb2dVertex
 10
180.9117295442906
 20
79.77399466380926
 30
0.0
  0
VERTEX
  5
324
330
320
100
AcDbEntity
  8
Capa 1
 62
     7
370
    35
100
AcDbVertex
100
AcDb2dVertex
 10
180.8269801394447
 20
79.68924525896341
 30
0.0
  0
VERTEX
  5
325
330
320
100
AcDbEntity
  8
Capa 1
 62
     7
370
    35
100
AcDbVertex
100
AcDb2dVertex
 10
180.7846054370218
 20
79.60449585411754
 30
0.0
  0
VERTEX
  5
326
330
320
100
AcDbEntity
  8
Capa 1
 62
     7
370
    35
100
AcDbVertex
100
AcDb2dVertex
 10
180.6998560321759
 20
79.60449585411754
 30
0.0
  0
SEQEND
  5
327
330
320
100
AcDbEntity
  8
Capa 1
370
    35
  0
POLYLINE
  5
328
330
1F
100
AcDbEntity
  8
Capa 1
 62
     7
370
    35
100
AcDb2dPolyline
 66
     1
 10
0.0
 20
0.0
 30
0.0
  0
VERTEX
  5
329
330
328
100
AcDbEntity
  8
Capa 1
 62
     7
370
    35
100
AcDbVertex
100
AcDb2dVertex
 10
180.9117295442906
 20
80.02789836857104
 30
0.0
  0
VERTEX
  5
32A
330
328
100
AcDbEntity
  8
Capa 1
 62
     7
370
    35
100
AcDbVertex
100
AcDb2dVertex
 10
181.0385091417835
 20
80.02789836857104
 30
0.0
  0
VERTEX
  5
32B
330
328
100
AcDbEntity
  8
Capa 1
 62
     7
370
    35
100
AcDbVertex
100
AcDb2dVertex
 10
181.0808838442065
 20
79.98552366614811
 30
0.0
  0
VERTEX
  5
32C
330
328
100
AcDbEntity
  8
Capa 1
 62
     7
370
    35
100
AcDbVertex
100
AcDb2dVertex
 10
181.1232585466294
 20
79.90077426130226
 30
0.0
  0
VERTEX
  5
32D
330
328
100
AcDbEntity
  8
Capa 1
 62
     7
370
    35
100
AcDbVertex
100
AcDb2dVertex
 10
181.0808838442065
 20
79.8163693662322
 30
0.0
  0
VERTEX
  5
32E
330
328
100
AcDbEntity
  8
Capa 1
 62
     7
370
    35
100
AcDbVertex
100
AcDb2dVertex
 10
181.0385091417835
 20
79.68924525896341
 30
0.0
  0
VERTEX
  5
32F
330
328
100
AcDbEntity
  8
Capa 1
 62
     7
370
    35
100
AcDbVertex
100
AcDb2dVertex
 10
180.9964789491364
 20
79.60449585411754
 30
0.0
  0
VERTEX
  5
330
330
328
100
AcDbEntity
  8
Capa 1
 62
     7
370
    35
100
AcDbVertex
100
AcDb2dVertex
 10
180.9117295442906
 20
79.5197464492717
 30
0.0
  0
VERTEX
  5
331
330
328
100
AcDbEntity
  8
Capa 1
 62
     7
370
    35
100
AcDbVertex
100
AcDb2dVertex
 10
180.7422307345988
 20
79.5197464492717
 30
0.0
  0
VERTEX
  5
332
330
328
100
AcDbEntity
  8
Capa 1
 62
     7
370
    35
100
AcDbVertex
100
AcDb2dVertex
 10
180.6998560321759
 20
79.56212115169463
 30
0.0
  0
VERTEX
  5
333
330
328
100
AcDbEntity
  8
Capa 1
 62
     7
370
    35
100
AcDbVertex
100
AcDb2dVertex
 10
180.6998560321759
 20
79.77399466380926
 30
0.0
  0
VERTEX
  5
334
330
328
100
AcDbEntity
  8
Capa 1
 62
     7
370
    35
100
AcDbVertex
100
AcDb2dVertex
 10
180.7422307345988
 20
79.85839955887933
 30
0.0
  0
VERTEX
  5
335
330
328
100
AcDbEntity
  8
Capa 1
 62
     7
370
    35
100
AcDbVertex
100
AcDb2dVertex
 10
180.8269801394447
 20
79.94314896372518
 30
0.0
  0
VERTEX
  5
336
330
328
100
AcDbEntity
  8
Capa 1
 62
     7
370
    35
100
AcDbVertex
100
AcDb2dVertex
 10
180.9117295442906
 20
80.02789836857104
 30
0.0
  0
SEQEND
  5
337
330
328
100
AcDbEntity
  8
Capa 1
370
    35
  0
POLYLINE
  5
338
330
1F
100
AcDbEntity
  8
Capa 1
 62
     7
370
    35
100
AcDb2dPolyline
 66
     1
 10
0.0
 20
0.0
 30
0.0
  0
VERTEX
  5
339
330
338
100
AcDbEntity
  8
Capa 1
 62
     7
370
    35
100
AcDbVertex
100
AcDb2dVertex
 10
176.7631428241531
 20
80.57808048051753
 30
0.0
  0
VERTEX
  5
33A
330
338
100
AcDbEntity
  8
Capa 1
 62
     7
370
    35
100
AcDbVertex
100
AcDb2dVertex
 10
176.7631428241531
 20
80.70520458778631
 30
0.0
  0
VERTEX
  5
33B
330
338
100
AcDbEntity
  8
Capa 1
 62
     7
370
    35
100
AcDbVertex
100
AcDb2dVertex
 10
176.8051730168002
 20
80.70520458778631
 30
0.0
  0
VERTEX
  5
33C
330
338
100
AcDbEntity
  8
Capa 1
 62
     7
370
    35
100
AcDbVertex
100
AcDb2dVertex
 10
176.8051730168002
 20
80.66282988536338
 30
0.0
  0
VERTEX
  5
33D
330
338
100
AcDbEntity
  8
Capa 1
 62
     7
370
    35
100
AcDbVertex
100
AcDb2dVertex
 10
176.8475477192231
 20
80.57808048051753
 30
0.0
  0
VERTEX
  5
33E
330
338
100
AcDbEntity
  8
Capa 1
 62
     7
370
    35
100
AcDbVertex
100
AcDb2dVertex
 10
176.8899224216461
 20
80.45130088302453
 30
0.0
  0
VERTEX
  5
33F
330
338
100
AcDbEntity
  8
Capa 1
 62
     7
370
    35
100
AcDbVertex
100
AcDb2dVertex
 10
176.8899224216461
 20
80.1126477734169
 30
0.0
  0
VERTEX
  5
340
330
338
100
AcDbEntity
  8
Capa 1
 62
     7
370
    35
100
AcDbVertex
100
AcDb2dVertex
 10
176.8475477192231
 20
80.1126477734169
 30
0.0
  0
VERTEX
  5
341
330
338
100
AcDbEntity
  8
Capa 1
 62
     7
370
    35
100
AcDbVertex
100
AcDb2dVertex
 10
176.8051730168002
 20
80.15502247583983
 30
0.0
  0
VERTEX
  5
342
330
338
100
AcDbEntity
  8
Capa 1
 62
     7
370
    35
100
AcDbVertex
100
AcDb2dVertex
 10
176.8051730168002
 20
80.2394273709099
 30
0.0
  0
VERTEX
  5
343
330
338
100
AcDbEntity
  8
Capa 1
 62
     7
370
    35
100
AcDbVertex
100
AcDb2dVertex
 10
176.7631428241531
 20
80.36655147817868
 30
0.0
  0
VERTEX
  5
344
330
338
100
AcDbEntity
  8
Capa 1
 62
     7
370
    35
100
AcDbVertex
100
AcDb2dVertex
 10
176.7631428241531
 20
80.57808048051753
 30
0.0
  0
SEQEND
  5
345
330
338
100
AcDbEntity
  8
Capa 1
370
    35
  0
POLYLINE
  5
346
330
1F
100
AcDbEntity
  8
Capa 1
 62
     7
370
    35
100
AcDb2dPolyline
 66
     1
 10
0.0
 20
0.0
 30
0.0
  0
VERTEX
  5
347
330
346
100
AcDbEntity
  8
Capa 1
 62
     7
370
    35
100
AcDbVertex
100
AcDb2dVertex
 10
177.4404490433683
 20
90.06105656908287
 30
0.0
  0
VERTEX
  5
348
330
346
100
AcDbEntity
  8
Capa 1
 62
     7
370
    35
100
AcDbVertex
100
AcDb2dVertex
 10
177.6096033432843
 20
89.97630716423701
 30
0.0
  0
VERTEX
  5
349
330
346
100
AcDbEntity
  8
Capa 1
 62
     7
370
    35
100
AcDbVertex
100
AcDb2dVertex
 10
177.7787576432002
 20
89.84918305696823
 30
0.0
  0
VERTEX
  5
34A
330
346
100
AcDbEntity
  8
Capa 1
 62
     7
370
    35
100
AcDbVertex
100
AcDb2dVertex
 10
177.9906311553148
 20
89.72240345947523
 30
0.0
  0
VERTEX
  5
34B
330
346
100
AcDbEntity
  8
Capa 1
 62
     7
370
    35
100
AcDbVertex
100
AcDb2dVertex
 10
178.1597854552307
 20
89.59527935220645
 30
0.0
  0
VERTEX
  5
34C
330
346
100
AcDbEntity
  8
Capa 1
 62
     7
370
    35
100
AcDbVertex
100
AcDb2dVertex
 10
178.3292842649225
 20
89.46815524493766
 30
0.0
  0
VERTEX
  5
34D
330
346
100
AcDbEntity
  8
Capa 1
 62
     7
370
    35
100
AcDbVertex
100
AcDb2dVertex
 10
178.4987830746142
 20
89.34137564744466
 30
0.0
  0
VERTEX
  5
34E
330
346
100
AcDbEntity
  8
Capa 1
 62
     7
370
    35
100
AcDbVertex
100
AcDb2dVertex
 10
178.6679373745301
 20
89.17187683775296
 30
0.0
  0
VERTEX
  5
34F
330
346
100
AcDbEntity
  8
Capa 1
 62
     7
370
    35
100
AcDbVertex
100
AcDb2dVertex
 10
178.837091674446
 20
89.04475273048416
 30
0.0
  0
VERTEX
  5
350
330
346
100
AcDbEntity
  8
Capa 1
 62
     7
370
    35
100
AcDbVertex
100
AcDb2dVertex
 10
179.0065904841377
 20
88.91797313299118
 30
0.0
  0
VERTEX
  5
351
330
346
100
AcDbEntity
  8
Capa 1
 62
     7
370
    35
100
AcDbVertex
100
AcDb2dVertex
 10
179.1333700816307
 20
88.74847432329946
 30
0.0
  0
VERTEX
  5
352
330
346
100
AcDbEntity
  8
Capa 1
 62
     7
370
    35
100
AcDbVertex
100
AcDb2dVertex
 10
179.3028688913224
 20
88.62169472580648
 30
0.0
  0
VERTEX
  5
353
330
346
100
AcDbEntity
  8
Capa 1
 62
     7
370
    35
100
AcDbVertex
100
AcDb2dVertex
 10
179.4299929985912
 20
88.45219591611476
 30
0.0
  0
VERTEX
  5
354
330
346
100
AcDbEntity
  8
Capa 1
 62
     7
370
    35
100
AcDbVertex
100
AcDb2dVertex
 10
179.5143978936613
 20
88.32507180884598
 30
0.0
  0
VERTEX
  5
355
330
346
100
AcDbEntity
  8
Capa 1
 62
     7
370
    35
100
AcDbVertex
100
AcDb2dVertex
 10
179.6415220009301
 20
88.15591750893006
 30
0.0
  0
VERTEX
  5
356
330
346
100
AcDbEntity
  8
Capa 1
 62
     7
370
    35
100
AcDbVertex
100
AcDb2dVertex
 10
179.683896703353
 20
87.98641869923834
 30
0.0
  0
VERTEX
  5
357
330
346
100
AcDbEntity
  8
Capa 1
 62
     7
370
    35
100
AcDbVertex
100
AcDb2dVertex
 10
179.7686461081989
 20
87.81726439932243
 30
0.0
  0
VERTEX
  5
358
330
346
100
AcDbEntity
  8
Capa 1
 62
     7
370
    35
100
AcDbVertex
100
AcDb2dVertex
 10
179.7686461081989
 20
87.56336069456064
 30
0.0
  0
VERTEX
  5
359
330
346
100
AcDbEntity
  8
Capa 1
 62
     7
370
    35
100
AcDbVertex
100
AcDb2dVertex
 10
179.7262714057759
 20
87.47861128971479
 30
0.0
  0
VERTEX
  5
35A
330
346
100
AcDbEntity
  8
Capa 1
 62
     7
370
    35
100
AcDbVertex
100
AcDb2dVertex
 10
179.683896703353
 20
87.26673777760014
 30
0.0
  0
VERTEX
  5
35B
330
346
100
AcDbEntity
  8
Capa 1
 62
     7
370
    35
100
AcDbVertex
100
AcDb2dVertex
 10
179.55711710586
 20
87.09758347768422
 30
0.0
  0
VERTEX
  5
35C
330
346
100
AcDbEntity
  8
Capa 1
 62
     7
370
    35
100
AcDbVertex
100
AcDb2dVertex
 10
179.4299929985912
 20
86.92808466799251
 30
0.0
  0
VERTEX
  5
35D
330
346
100
AcDbEntity
  8
Capa 1
 62
     7
370
    35
100
AcDbVertex
100
AcDb2dVertex
 10
179.3028688913224
 20
86.80130507049952
 30
0.0
  0
VERTEX
  5
35E
330
346
100
AcDbEntity
  8
Capa 1
 62
     7
370
    35
100
AcDbVertex
100
AcDb2dVertex
 10
179.1333700816307
 20
86.67418096323073
 30
0.0
  0
VERTEX
  5
35F
330
346
100
AcDbEntity
  8
Capa 1
 62
     7
370
    35
100
AcDbVertex
100
AcDb2dVertex
 10
178.9218410792919
 20
86.58943155838487
 30
0.0
  0
VERTEX
  5
360
330
346
100
AcDbEntity
  8
Capa 1
 62
     7
370
    35
100
AcDbVertex
100
AcDb2dVertex
 10
178.7523422696002
 20
86.50502666331481
 30
0.0
  0
VERTEX
  5
361
330
346
100
AcDbEntity
  8
Capa 1
 62
     7
370
    35
100
AcDbVertex
100
AcDb2dVertex
 10
178.5831879696842
 20
86.42027725846896
 30
0.0
  0
VERTEX
  5
362
330
346
100
AcDbEntity
  8
Capa 1
 62
     7
370
    35
100
AcDbVertex
100
AcDb2dVertex
 10
178.5408132672613
 20
86.42027725846896
 30
0.0
  0
SEQEND
  5
363
330
346
100
AcDbEntity
  8
Capa 1
370
    35
  0
POLYLINE
  5
364
330
1F
100
AcDbEntity
  8
Capa 1
 62
     7
370
    35
100
AcDb2dPolyline
 66
     1
 10
0.0
 20
0.0
 30
0.0
  0
VERTEX
  5
365
330
364
100
AcDbEntity
  8
Capa 1
 62
     7
370
    35
100
AcDbVertex
100
AcDb2dVertex
 10
176.8051730168002
 20
90.31496027384465
 30
0.0
  0
VERTEX
  5
366
330
364
100
AcDbEntity
  8
Capa 1
 62
     7
370
    35
100
AcDbVertex
100
AcDb2dVertex
 10
176.8899224216461
 20
90.31496027384465
 30
0.0
  0
VERTEX
  5
367
330
364
100
AcDbEntity
  8
Capa 1
 62
     7
370
    35
100
AcDbVertex
100
AcDb2dVertex
 10
176.9746718264919
 20
90.27258557142171
 30
0.0
  0
VERTEX
  5
368
330
364
100
AcDbEntity
  8
Capa 1
 62
     7
370
    35
100
AcDbVertex
100
AcDb2dVertex
 10
177.0594212313378
 20
90.27258557142171
 30
0.0
  0
VERTEX
  5
369
330
364
100
AcDbEntity
  8
Capa 1
 62
     7
370
    35
100
AcDbVertex
100
AcDb2dVertex
 10
177.1438261264078
 20
90.23021086899878
 30
0.0
  0
VERTEX
  5
36A
330
364
100
AcDbEntity
  8
Capa 1
 62
     7
370
    35
100
AcDbVertex
100
AcDb2dVertex
 10
177.3133249360996
 20
90.14546146415293
 30
0.0
  0
VERTEX
  5
36B
330
364
100
AcDbEntity
  8
Capa 1
 62
     7
370
    35
100
AcDbVertex
100
AcDb2dVertex
 10
177.4404490433683
 20
90.06105656908287
 30
0.0
  0
SEQEND
  5
36C
330
364
100
AcDbEntity
  8
Capa 1
370
    35
  0
POLYLINE
  5
36D
330
1F
100
AcDbEntity
  8
Capa 1
 62
     7
370
    35
100
AcDb2dPolyline
 66
     1
 10
0.0
 20
0.0
 30
0.0
  0
VERTEX
  5
36E
330
36D
100
AcDbEntity
  8
Capa 1
 62
     7
370
    35
100
AcDbVertex
100
AcDb2dVertex
 10
129.7306682324601
 20
77.6573266013176
 30
0.0
  0
VERTEX
  5
36F
330
36D
100
AcDbEntity
  8
Capa 1
 62
     7
370
    35
100
AcDbVertex
100
AcDb2dVertex
 10
130.1537262371378
 20
77.69970130374054
 30
0.0
  0
VERTEX
  5
370
330
36D
100
AcDbEntity
  8
Capa 1
 62
     7
370
    35
100
AcDbVertex
100
AcDb2dVertex
 10
130.5774732613671
 20
77.57257719647174
 30
0.0
  0
VERTEX
  5
371
330
36D
100
AcDbEntity
  8
Capa 1
 62
     7
370
    35
100
AcDbVertex
100
AcDb2dVertex
 10
131.0005312660448
 20
77.27629878928704
 30
0.0
  0
VERTEX
  5
372
330
36D
100
AcDbEntity
  8
Capa 1
 62
     7
370
    35
100
AcDbVertex
100
AcDb2dVertex
 10
131.3391843756524
 20
76.85289627483355
 30
0.0
  0
VERTEX
  5
373
330
36D
100
AcDbEntity
  8
Capa 1
 62
     7
370
    35
100
AcDbVertex
100
AcDb2dVertex
 10
131.5930880804142
 20
76.30271416288707
 30
0.0
  0
VERTEX
  5
374
330
36D
100
AcDbEntity
  8
Capa 1
 62
     7
370
    35
100
AcDbVertex
100
AcDb2dVertex
 10
131.7625868901059
 20
75.75218754116479
 30
0.0
  0
VERTEX
  5
375
330
36D
100
AcDbEntity
  8
Capa 1
 62
     7
370
    35
100
AcDbVertex
100
AcDb2dVertex
 10
131.8049615925289
 20
75.15963072679538
 30
0.0
  0
VERTEX
  5
376
330
36D
100
AcDbEntity
  8
Capa 1
 62
     7
370
    35
100
AcDbVertex
100
AcDb2dVertex
 10
131.6778374852601
 20
74.6091041050731
 30
0.0
  0
VERTEX
  5
377
330
36D
100
AcDbEntity
  8
Capa 1
 62
     7
370
    35
100
AcDbVertex
100
AcDb2dVertex
 10
131.5083386755684
 20
74.14367139797248
 30
0.0
  0
VERTEX
  5
378
330
36D
100
AcDbEntity
  8
Capa 1
 62
     7
370
    35
100
AcDbVertex
100
AcDb2dVertex
 10
131.1700300757365
 20
73.80501828836485
 30
0.0
  0
VERTEX
  5
379
330
36D
100
AcDbEntity
  8
Capa 1
 62
     7
370
    35
100
AcDbVertex
100
AcDb2dVertex
 10
130.789002263706
 20
73.63551947867313
 30
0.0
  0
VERTEX
  5
37A
330
36D
100
AcDbEntity
  8
Capa 1
 62
     7
370
    35
100
AcDbVertex
100
AcDb2dVertex
 10
130.3655997492525
 20
73.5931447762502
 30
0.0
  0
VERTEX
  5
37B
330
36D
100
AcDbEntity
  8
Capa 1
 62
     7
370
    35
100
AcDbVertex
100
AcDb2dVertex
 10
129.942197234799
 20
73.72026888351898
 30
0.0
  0
VERTEX
  5
37C
330
36D
100
AcDbEntity
  8
Capa 1
 62
     7
370
    35
100
AcDbVertex
100
AcDb2dVertex
 10
129.5191392301213
 20
74.0165472907037
 30
0.0
  0
VERTEX
  5
37D
330
36D
100
AcDbEntity
  8
Capa 1
 62
     7
370
    35
100
AcDbVertex
100
AcDb2dVertex
 10
129.1801416107378
 20
74.43994980515718
 30
0.0
  0
VERTEX
  5
37E
330
36D
100
AcDbEntity
  8
Capa 1
 62
     7
370
    35
100
AcDbVertex
100
AcDb2dVertex
 10
128.9262379059761
 20
74.99013191710367
 30
0.0
  0
VERTEX
  5
37F
330
36D
100
AcDbEntity
  8
Capa 1
 62
     7
370
    35
100
AcDbVertex
100
AcDb2dVertex
 10
128.7570836060601
 20
75.54065853882594
 30
0.0
  0
VERTEX
  5
380
330
36D
100
AcDbEntity
  8
Capa 1
 62
     7
370
    35
100
AcDbVertex
100
AcDb2dVertex
 10
128.7143643938614
 20
76.13321535319535
 30
0.0
  0
VERTEX
  5
381
330
36D
100
AcDbEntity
  8
Capa 1
 62
     7
370
    35
100
AcDbVertex
100
AcDb2dVertex
 10
128.7991137987073
 20
76.68339746514184
 30
0.0
  0
VERTEX
  5
382
330
36D
100
AcDbEntity
  8
Capa 1
 62
     7
370
    35
100
AcDbVertex
100
AcDb2dVertex
 10
129.0106428010461
 20
77.14917468201826
 30
0.0
  0
VERTEX
  5
383
330
36D
100
AcDbEntity
  8
Capa 1
 62
     7
370
    35
100
AcDbVertex
100
AcDb2dVertex
 10
129.3496404204296
 20
77.48782779162589
 30
0.0
  0
VERTEX
  5
384
330
36D
100
AcDbEntity
  8
Capa 1
 62
     7
370
    35
100
AcDbVertex
100
AcDb2dVertex
 10
129.7306682324601
 20
77.6573266013176
 30
0.0
  0
SEQEND
  5
385
330
36D
100
AcDbEntity
  8
Capa 1
370
    35
  0
POLYLINE
  5
386
330
1F
100
AcDbEntity
  8
Capa 1
 62
     7
370
    35
100
AcDb2dPolyline
 66
     1
 10
0.0
 20
0.0
 30
0.0
  0
VERTEX
  5
387
330
386
100
AcDbEntity
  8
Capa 1
 62
     7
370
    35
100
AcDbVertex
100
AcDb2dVertex
 10
129.7726984251073
 20
77.48782779162589
 30
0.0
  0
VERTEX
  5
388
330
386
100
AcDbEntity
  8
Capa 1
 62
     7
370
    35
100
AcDbVertex
100
AcDb2dVertex
 10
130.1537262371378
 20
77.48782779162589
 30
0.0
  0
VERTEX
  5
389
330
386
100
AcDbEntity
  8
Capa 1
 62
     7
370
    35
100
AcDbVertex
100
AcDb2dVertex
 10
130.5774732613671
 20
77.3610481941329
 30
0.0
  0
VERTEX
  5
38A
330
386
100
AcDbEntity
  8
Capa 1
 62
     7
370
    35
100
AcDbVertex
100
AcDb2dVertex
 10
130.9581565636219
 20
77.0644252771724
 30
0.0
  0
VERTEX
  5
38B
330
386
100
AcDbEntity
  8
Capa 1
 62
     7
370
    35
100
AcDbVertex
100
AcDb2dVertex
 10
131.2968096732295
 20
76.6413672724947
 30
0.0
  0
VERTEX
  5
38C
330
386
100
AcDbEntity
  8
Capa 1
 62
     7
370
    35
100
AcDbVertex
100
AcDb2dVertex
 10
131.5083386755684
 20
76.13321535319535
 30
0.0
  0
VERTEX
  5
38D
330
386
100
AcDbEntity
  8
Capa 1
 62
     7
370
    35
100
AcDbVertex
100
AcDb2dVertex
 10
131.6358072926129
 20
75.58303324124887
 30
0.0
  0
VERTEX
  5
38E
330
386
100
AcDbEntity
  8
Capa 1
 62
     7
370
    35
100
AcDbVertex
100
AcDb2dVertex
 10
131.6358072926129
 20
75.0325066195266
 30
0.0
  0
VERTEX
  5
38F
330
386
100
AcDbEntity
  8
Capa 1
 62
     7
370
    35
100
AcDbVertex
100
AcDb2dVertex
 10
131.5083386755684
 20
74.52469921000304
 30
0.0
  0
VERTEX
  5
390
330
386
100
AcDbEntity
  8
Capa 1
 62
     7
370
    35
100
AcDbVertex
100
AcDb2dVertex
 10
131.2547794805824
 20
74.14367139797248
 30
0.0
  0
VERTEX
  5
391
330
386
100
AcDbEntity
  8
Capa 1
 62
     7
370
    35
100
AcDbVertex
100
AcDb2dVertex
 10
130.915781861199
 20
73.8894231834349
 30
0.0
  0
VERTEX
  5
392
330
386
100
AcDbEntity
  8
Capa 1
 62
     7
370
    35
100
AcDbVertex
100
AcDb2dVertex
 10
130.5347540491684
 20
73.80501828836485
 30
0.0
  0
VERTEX
  5
393
330
386
100
AcDbEntity
  8
Capa 1
 62
     7
370
    35
100
AcDbVertex
100
AcDb2dVertex
 10
130.1537262371378
 20
73.84739299078777
 30
0.0
  0
VERTEX
  5
394
330
386
100
AcDbEntity
  8
Capa 1
 62
     7
370
    35
100
AcDbVertex
100
AcDb2dVertex
 10
129.7306682324601
 20
74.05892199312662
 30
0.0
  0
VERTEX
  5
395
330
386
100
AcDbEntity
  8
Capa 1
 62
     7
370
    35
100
AcDbVertex
100
AcDb2dVertex
 10
129.3916706130767
 20
74.43994980515718
 30
0.0
  0
VERTEX
  5
396
330
386
100
AcDbEntity
  8
Capa 1
 62
     7
370
    35
100
AcDbVertex
100
AcDb2dVertex
 10
129.095392205892
 20
74.9057270220336
 30
0.0
  0
VERTEX
  5
397
330
386
100
AcDbEntity
  8
Capa 1
 62
     7
370
    35
100
AcDbVertex
100
AcDb2dVertex
 10
128.9262379059761
 20
75.45590913398009
 30
0.0
  0
VERTEX
  5
398
330
386
100
AcDbEntity
  8
Capa 1
 62
     7
370
    35
100
AcDbVertex
100
AcDb2dVertex
 10
128.8838632035531
 20
76.00609124592657
 30
0.0
  0
VERTEX
  5
399
330
386
100
AcDbEntity
  8
Capa 1
 62
     7
370
    35
100
AcDbVertex
100
AcDb2dVertex
 10
128.9262379059761
 20
76.51424316522592
 30
0.0
  0
VERTEX
  5
39A
330
386
100
AcDbEntity
  8
Capa 1
 62
     7
370
    35
100
AcDbVertex
100
AcDb2dVertex
 10
129.1381114180907
 20
76.98002038210234
 30
0.0
  0
VERTEX
  5
39B
330
386
100
AcDbEntity
  8
Capa 1
 62
     7
370
    35
100
AcDbVertex
100
AcDb2dVertex
 10
129.3916706130767
 20
77.27629878928704
 30
0.0
  0
VERTEX
  5
39C
330
386
100
AcDbEntity
  8
Capa 1
 62
     7
370
    35
100
AcDbVertex
100
AcDb2dVertex
 10
129.7726984251073
 20
77.48782779162589
 30
0.0
  0
SEQEND
  5
39D
330
386
100
AcDbEntity
  8
Capa 1
370
    35
  0
POLYLINE
  5
39E
330
1F
100
AcDbEntity
  8
Capa 1
 62
     7
370
    35
100
AcDb2dPolyline
 66
     1
 10
0.0
 20
0.0
 30
0.0
  0
VERTEX
  5
39F
330
39E
100
AcDbEntity
  8
Capa 1
 62
     7
370
    35
100
AcDbVertex
100
AcDb2dVertex
 10
226.716371295046
 20
133.7066555549237
 30
0.0
  0
VERTEX
  5
3A0
330
39E
100
AcDbEntity
  8
Capa 1
 62
     7
370
    35
100
AcDbVertex
100
AcDb2dVertex
 10
180.9537597369377
 20
93.1513092579745
 30
0.0
  0
SEQEND
  5
3A1
330
39E
100
AcDbEntity
  8
Capa 1
370
    35
  0
POLYLINE
  5
3A2
330
1F
100
AcDbEntity
  8
Capa 1
 62
     7
370
    35
100
AcDb2dPolyline
 66
     1
 10
0.0
 20
0.0
 30
0.0
  0
VERTEX
  5
3A3
330
3A2
100
AcDbEntity
  8
Capa 1
 62
     7
370
    35
100
AcDbVertex
100
AcDb2dVertex
 10
181.631065956153
 20
88.11354280650713
 30
0.0
  0
VERTEX
  5
3A4
330
3A2
100
AcDbEntity
  8
Capa 1
 62
     7
370
    35
100
AcDbVertex
100
AcDb2dVertex
 10
229.5103455767529
 20
130.6164028660321
 30
0.0
  0
SEQEND
  5
3A5
330
3A2
100
AcDbEntity
  8
Capa 1
370
    35
  0
POLYLINE
  5
3A6
330
1F
100
AcDbEntity
  8
Capa 1
 62
     7
370
    35
100
AcDb2dPolyline
 66
     1
 10
0.0
 20
0.0
 30
0.0
  0
VERTEX
  5
3A7
330
3A6
100
AcDbEntity
  8
Capa 1
 62
     7
370
    35
100
AcDbVertex
100
AcDb2dVertex
 10
181.631065956153
 20
90.14546146415293
 30
0.0
  0
VERTEX
  5
3A8
330
3A6
100
AcDbEntity
  8
Capa 1
 62
     7
370
    35
100
AcDbVertex
100
AcDb2dVertex
 10
181.631065956153
 20
92.26212952664459
 30
0.0
  0
SEQEND
  5
3A9
330
3A6
100
AcDbEntity
  8
Capa 1
370
    35
  0
POLYLINE
  5
3AA
330
1F
100
AcDbEntity
  8
Capa 1
 62
     7
370
    35
100
AcDb2dPolyline
 66
     1
 10
0.0
 20
0.0
 30
0.0
  0
VERTEX
  5
3AB
330
3AA
100
AcDbEntity
  8
Capa 1
 62
     7
370
    35
100
AcDbVertex
100
AcDb2dVertex
 10
181.631065956153
 20
77.91123030607937
 30
0.0
  0
VERTEX
  5
3AC
330
3AA
100
AcDbEntity
  8
Capa 1
 62
     7
370
    35
100
AcDbVertex
100
AcDb2dVertex
 10
181.631065956153
 20
88.19829221135298
 30
0.0
  0
SEQEND
  5
3AD
330
3AA
100
AcDbEntity
  8
Capa 1
370
    35
  0
POLYLINE
  5
3AE
330
1F
100
AcDbEntity
  8
Capa 1
 62
     7
370
    35
100
AcDb2dPolyline
 66
     1
 10
0.0
 20
0.0
 30
0.0
  0
VERTEX
  5
3AF
330
3AE
100
AcDbEntity
  8
Capa 1
 62
     7
370
    35
100
AcDbVertex
100
AcDb2dVertex
 10
176.7204236119544
 20
85.9121253391696
 30
0.0
  0
VERTEX
  5
3B0
330
3AE
100
AcDbEntity
  8
Capa 1
 62
     7
370
    35
100
AcDbVertex
100
AcDb2dVertex
 10
176.7204236119544
 20
77.91123030607937
 30
0.0
  0
SEQEND
  5
3B1
330
3AE
100
AcDbEntity
  8
Capa 1
370
    35
  0
POLYLINE
  5
3B2
330
1F
100
AcDbEntity
  8
Capa 1
 62
     7
370
    35
100
AcDb2dPolyline
 66
     1
 10
0.0
 20
0.0
 30
0.0
  0
VERTEX
  5
3B3
330
3B2
100
AcDbEntity
  8
Capa 1
 62
     7
370
    35
100
AcDbVertex
100
AcDb2dVertex
 10
176.7204236119544
 20
92.21975482422167
 30
0.0
  0
VERTEX
  5
3B4
330
3B2
100
AcDbEntity
  8
Capa 1
 62
     7
370
    35
100
AcDbVertex
100
AcDb2dVertex
 10
176.7204236119544
 20
90.27258557142171
 30
0.0
  0
SEQEND
  5
3B5
330
3B2
100
AcDbEntity
  8
Capa 1
370
    35
  0
POLYLINE
  5
3B6
330
1F
100
AcDbEntity
  8
Capa 1
 62
     7
370
    35
100
AcDb2dPolyline
 66
     1
 10
0.0
 20
0.0
 30
0.0
  0
VERTEX
  5
3B7
330
3B6
100
AcDbEntity
  8
Capa 1
 62
     7
370
    35
100
AcDbVertex
100
AcDb2dVertex
 10
130.789002263706
 20
73.63551947867313
 30
0.0
  0
VERTEX
  5
3B8
330
3B6
100
AcDbEntity
  8
Capa 1
 62
     7
370
    35
100
AcDbVertex
100
AcDb2dVertex
 10
178.5408132672613
 20
86.42027725846896
 30
0.0
  0
SEQEND
  5
3B9
330
3B6
100
AcDbEntity
  8
Capa 1
370
    35
  0
POLYLINE
  5
3BA
330
1F
100
AcDbEntity
  8
Capa 1
 62
     7
370
    35
100
AcDb2dPolyline
 66
     1
 10
0.0
 20
0.0
 30
0.0
  0
VERTEX
  5
3BB
330
3BA
100
AcDbEntity
  8
Capa 1
 62
     7
370
    35
100
AcDbVertex
100
AcDb2dVertex
 10
176.8051730168002
 20
90.31496027384465
 30
0.0
  0
VERTEX
  5
3BC
330
3BA
100
AcDbEntity
  8
Capa 1
 62
     7
370
    35
100
AcDbVertex
100
AcDb2dVertex
 10
129.6882935300372
 20
77.6573266013176
 30
0.0
  0
SEQEND
  5
3BD
330
3BA
100
AcDbEntity
  8
Capa 1
370
    35
  0
POLYLINE
  5
3BE
330
1F
100
AcDbEntity
  8
Capa 1
 62
     7
370
    25
100
AcDb2dPolyline
 66
     1
 10
0.0
 20
0.0
 30
0.0
  0
VERTEX
  5
3BF
330
3BE
100
AcDbEntity
  8
Capa 1
 62
     7
370
    25
100
AcDbVertex
100
AcDb2dVertex
 10
-22.45790326460066
 20
189.671235103684
 30
0.0
  0
VERTEX
  5
3C0
330
3BE
100
AcDbEntity
  8
Capa 1
 62
     7
370
    25
100
AcDbVertex
100
AcDb2dVertex
 10
-21.9497513453013
 20
192.6769106426176
 30
0.0
  0
VERTEX
  5
3C1
330
3BE
100
AcDbEntity
  8
Capa 1
 62
     7
370
    25
100
AcDbVertex
100
AcDb2dVertex
 10
-21.44194393577775
 20
189.671235103684
 30
0.0
  0
VERTEX
  5
3C2
330
3BE
100
AcDbEntity
  8
Capa 1
 62
     7
370
    25
100
AcDbVertex
100
AcDb2dVertex
 10
-22.45790326460066
 20
189.671235103684
 30
0.0
  0
SEQEND
  5
3C3
330
3BE
100
AcDbEntity
  8
Capa 1
370
    25
  0
POLYLINE
  5
3C4
330
1F
100
AcDbEntity
  8
Capa 1
370
     0
100
AcDb2dPolyline
 66
     1
 10
0.0
 20
0.0
 30
0.0
  0
VERTEX
  5
3C5
330
3C4
100
AcDbEntity
  8
Capa 1
370
     0
100
AcDbVertex
100
AcDb2dVertex
 10
-22.45790326460066
 20
189.671235103684
 30
0.0
  0
VERTEX
  5
3C6
330
3C4
100
AcDbEntity
  8
Capa 1
370
     0
100
AcDbVertex
100
AcDb2dVertex
 10
-21.9497513453013
 20
192.6769106426176
 30
0.0
  0
VERTEX
  5
3C7
330
3C4
100
AcDbEntity
  8
Capa 1
370
     0
100
AcDbVertex
100
AcDb2dVertex
 10
-21.44194393577775
 20
189.671235103684
 30
0.0
  0
VERTEX
  5
3C8
330
3C4
100
AcDbEntity
  8
Capa 1
370
     0
100
AcDbVertex
100
AcDb2dVertex
 10
-22.45790326460066
 20
189.671235103684
 30
0.0
  0
SEQEND
  5
3C9
330
3C4
100
AcDbEntity
  8
Capa 1
370
     0
  0
HATCH
  5
3CA
330
1F
100
AcDbEntity
  8
Capa 1
 62
     7
100
AcDbHatch
 10
0.0
 20
0.0
 30
0.0
210
0.0
220
0.0
230
1.0
  2
SOLID
 70
     1
 71
     0
 91
        1
 92
        1
 93
        3
 72
     1
 10
-22.45790326460066
 20
189.671235103684
 11
-21.9497513453013
 21
192.6769106426176
 72
     1
 10
-21.9497513453013
 20
192.6769106426176
 11
-21.44194393577775
 21
189.671235103684
 72
     1
 10
-21.44194393577775
 20
189.671235103684
 11
-22.45790326460066
 21
189.671235103684
 97
        0
 75
     0
 76
     1
 98
        0
  0
POLYLINE
  5
3CB
330
1F
100
AcDbEntity
  8
Capa 1
 62
     7
370
    25
100
AcDb2dPolyline
 66
     1
 10
0.0
 20
0.0
 30
0.0
  0
VERTEX
  5
3CC
330
3CB
100
AcDbEntity
  8
Capa 1
 62
     7
370
    25
100
AcDbVertex
100
AcDb2dVertex
 10
-22.45790326460066
 20
161.8582718841076
 30
0.0
  0
VERTEX
  5
3CD
330
3CB
100
AcDbEntity
  8
Capa 1
 62
     7
370
    25
100
AcDbVertex
100
AcDb2dVertex
 10
-21.9497513453013
 20
158.852596345174
 30
0.0
  0
VERTEX
  5
3CE
330
3CB
100
AcDbEntity
  8
Capa 1
 62
     7
370
    25
100
AcDbVertex
100
AcDb2dVertex
 10
-21.44194393577775
 20
161.8582718841076
 30
0.0
  0
VERTEX
  5
3CF
330
3CB
100
AcDbEntity
  8
Capa 1
 62
     7
370
    25
100
AcDbVertex
100
AcDb2dVertex
 10
-22.45790326460066
 20
161.8582718841076
 30
0.0
  0
SEQEND
  5
3D0
330
3CB
100
AcDbEntity
  8
Capa 1
370
    25
  0
POLYLINE
  5
3D1
330
1F
100
AcDbEntity
  8
Capa 1
370
     0
100
AcDb2dPolyline
 66
     1
 10
0.0
 20
0.0
 30
0.0
  0
VERTEX
  5
3D2
330
3D1
100
AcDbEntity
  8
Capa 1
370
     0
100
AcDbVertex
100
AcDb2dVertex
 10
-22.45790326460066
 20
161.8582718841076
 30
0.0
  0
VERTEX
  5
3D3
330
3D1
100
AcDbEntity
  8
Capa 1
370
     0
100
AcDbVertex
100
AcDb2dVertex
 10
-21.9497513453013
 20
158.852596345174
 30
0.0
  0
VERTEX
  5
3D4
330
3D1
100
AcDbEntity
  8
Capa 1
370
     0
100
AcDbVertex
100
AcDb2dVertex
 10
-21.44194393577775
 20
161.8582718841076
 30
0.0
  0
VERTEX
  5
3D5
330
3D1
100
AcDbEntity
  8
Capa 1
370
     0
100
AcDbVertex
100
AcDb2dVertex
 10
-22.45790326460066
 20
161.8582718841076
 30
0.0
  0
SEQEND
  5
3D6
330
3D1
100
AcDbEntity
  8
Capa 1
370
     0
  0
HATCH
  5
3D7
330
1F
100
AcDbEntity
  8
Capa 1
 62
     7
100
AcDbHatch
 10
0.0
 20
0.0
 30
0.0
210
0.0
220
0.0
230
1.0
  2
SOLID
 70
     1
 71
     0
 91
        1
 92
        1
 93
        3
 72
     1
 10
-22.45790326460066
 20
161.8582718841076
 11
-21.9497513453013
 21
158.852596345174
 72
     1
 10
-21.9497513453013
 20
158.852596345174
 11
-21.44194393577775
 21
161.8582718841076
 72
     1
 10
-21.44194393577775
 20
161.8582718841076
 11
-22.45790326460066
 21
161.8582718841076
 97
        0
 75
     0
 76
     1
 98
        0
  0
POLYLINE
  5
3D8
330
1F
100
AcDbEntity
  8
Capa 1
 62
     7
370
    25
100
AcDb2dPolyline
 66
     1
 10
0.0
 20
0.0
 30
0.0
  0
VERTEX
  5
3D9
330
3D8
100
AcDbEntity
  8
Capa 1
 62
     7
370
    25
100
AcDbVertex
100
AcDb2dVertex
 10
-13.65257790502637
 20
192.6769106426176
 30
0.0
  0
VERTEX
  5
3DA
330
3D8
100
AcDbEntity
  8
Capa 1
 62
     7
370
    25
100
AcDbVertex
100
AcDb2dVertex
 10
-23.47386259342356
 20
192.6769106426176
 30
0.0
  0
SEQEND
  5
3DB
330
3D8
100
AcDbEntity
  8
Capa 1
370
    25
  0
POLYLINE
  5
3DC
330
1F
100
AcDbEntity
  8
Capa 1
 62
     7
370
    25
100
AcDb2dPolyline
 66
     1
 10
0.0
 20
0.0
 30
0.0
  0
VERTEX
  5
3DD
330
3DC
100
AcDbEntity
  8
Capa 1
 62
     7
370
    25
100
AcDbVertex
100
AcDb2dVertex
 10
52.5146586539374
 20
158.852596345174
 30
0.0
  0
VERTEX
  5
3DE
330
3DC
100
AcDbEntity
  8
Capa 1
 62
     7
370
    25
100
AcDbVertex
100
AcDb2dVertex
 10
-23.47386259342356
 20
158.852596345174
 30
0.0
  0
SEQEND
  5
3DF
330
3DC
100
AcDbEntity
  8
Capa 1
370
    25
  0
POLYLINE
  5
3E0
330
1F
100
AcDbEntity
  8
Capa 1
 62
     7
370
    25
100
AcDb2dPolyline
 66
     1
 10
0.0
 20
0.0
 30
0.0
  0
VERTEX
  5
3E1
330
3E0
100
AcDbEntity
  8
Capa 1
 62
     7
370
    25
100
AcDbVertex
100
AcDb2dVertex
 10
-21.9497513453013
 20
192.6769106426176
 30
0.0
  0
VERTEX
  5
3E2
330
3E0
100
AcDbEntity
  8
Capa 1
 62
     7
370
    25
100
AcDbVertex
100
AcDb2dVertex
 10
-21.9497513453013
 20
158.852596345174
 30
0.0
  0
SEQEND
  5
3E3
330
3E0
100
AcDbEntity
  8
Capa 1
370
    25
  0
MTEXT
  5
3E4
330
1F
100
AcDbEntity
  8
Capa 1
 62
     7
100
AcDbMText
 10
-22.71180696936243
 20
172.2300831942271
 30
0.0
 40
2.860099959082705
 41
0.0
 71
     7
 72
     1
  1
\fHelvetica|b0|i0|c0|p34;\W1.00055;483
 11
-4.371139000186241E-8
 21
0.999999999999999
 31
0.0
 73
     1
 44
1.0
  0
POLYLINE
  5
3E5
330
1F
100
AcDbEntity
  8
Capa 1
 62
     7
370
    25
100
AcDb2dPolyline
 66
     1
 10
0.0
 20
0.0
 30
0.0
  0
VERTEX
  5
3E6
330
3E5
100
AcDbEntity
  8
Capa 1
 62
     7
370
    25
100
AcDbVertex
100
AcDb2dVertex
 10
-11.74743884487356
 20
84.76938641285372
 30
0.0
  0
VERTEX
  5
3E7
330
3E5
100
AcDbEntity
  8
Capa 1
 62
     7
370
    25
100
AcDbVertex
100
AcDb2dVertex
 10
-14.75294212891934
 20
85.27719382237727
 30
0.0
  0
VERTEX
  5
3E8
330
3E5
100
AcDbEntity
  8
Capa 1
 62
     7
370
    25
100
AcDbVertex
100
AcDb2dVertex
 10
-11.74743884487356
 20
85.74297103925369
 30
0.0
  0
VERTEX
  5
3E9
330
3E5
100
AcDbEntity
  8
Capa 1
 62
     7
370
    25
100
AcDbVertex
100
AcDb2dVertex
 10
-11.74743884487356
 20
84.76938641285372
 30
0.0
  0
SEQEND
  5
3EA
330
3E5
100
AcDbEntity
  8
Capa 1
370
    25
  0
POLYLINE
  5
3EB
330
1F
100
AcDbEntity
  8
Capa 1
370
     0
100
AcDb2dPolyline
 66
     1
 10
0.0
 20
0.0
 30
0.0
  0
VERTEX
  5
3EC
330
3EB
100
AcDbEntity
  8
Capa 1
370
     0
100
AcDbVertex
100
AcDb2dVertex
 10
-11.74743884487356
 20
84.76938641285372
 30
0.0
  0
VERTEX
  5
3ED
330
3EB
100
AcDbEntity
  8
Capa 1
370
     0
100
AcDbVertex
100
AcDb2dVertex
 10
-14.75294212891934
 20
85.27719382237727
 30
0.0
  0
VERTEX
  5
3EE
330
3EB
100
AcDbEntity
  8
Capa 1
370
     0
100
AcDbVertex
100
AcDb2dVertex
 10
-11.74743884487356
 20
85.74297103925369
 30
0.0
  0
VERTEX
  5
3EF
330
3EB
100
AcDbEntity
  8
Capa 1
370
     0
100
AcDbVertex
100
AcDb2dVertex
 10
-11.74743884487356
 20
84.76938641285372
 30
0.0
  0
SEQEND
  5
3F0
330
3EB
100
AcDbEntity
  8
Capa 1
370
     0
  0
HATCH
  5
3F1
330
1F
100
AcDbEntity
  8
Capa 1
 62
     7
100
AcDbHatch
 10
0.0
 20
0.0
 30
0.0
210
0.0
220
0.0
230
1.0
  2
SOLID
 70
     1
 71
     0
 91
        1
 92
        1
 93
        3
 72
     1
 10
-11.74743884487356
 20
84.76938641285372
 11
-14.75294212891934
 21
85.27719382237727
 72
     1
 10
-14.75294212891934
 20
85.27719382237727
 11
-11.74743884487356
 21
85.74297103925369
 72
     1
 10
-11.74743884487356
 20
85.74297103925369
 11
-11.74743884487356
 21
84.76938641285372
 97
        0
 75
     0
 76
     1
 98
        0
  0
POLYLINE
  5
3F2
330
1F
100
AcDbEntity
  8
Capa 1
 62
     7
370
    25
100
AcDb2dPolyline
 66
     1
 10
0.0
 20
0.0
 30
0.0
  0
VERTEX
  5
3F3
330
3F2
100
AcDbEntity
  8
Capa 1
 62
     7
370
    25
100
AcDbVertex
100
AcDb2dVertex
 10
121.7297731993699
 20
84.76938641285372
 30
0.0
  0
VERTEX
  5
3F4
330
3F2
100
AcDbEntity
  8
Capa 1
 62
     7
370
    25
100
AcDbVertex
100
AcDb2dVertex
 10
124.6929017809927
 20
85.27719382237727
 30
0.0
  0
VERTEX
  5
3F5
330
3F2
100
AcDbEntity
  8
Capa 1
 62
     7
370
    25
100
AcDbVertex
100
AcDb2dVertex
 10
121.7297731993699
 20
85.74297103925369
 30
0.0
  0
VERTEX
  5
3F6
330
3F2
100
AcDbEntity
  8
Capa 1
 62
     7
370
    25
100
AcDbVertex
100
AcDb2dVertex
 10
121.7297731993699
 20
84.76938641285372
 30
0.0
  0
SEQEND
  5
3F7
330
3F2
100
AcDbEntity
  8
Capa 1
370
    25
  0
POLYLINE
  5
3F8
330
1F
100
AcDbEntity
  8
Capa 1
370
     0
100
AcDb2dPolyline
 66
     1
 10
0.0
 20
0.0
 30
0.0
  0
VERTEX
  5
3F9
330
3F8
100
AcDbEntity
  8
Capa 1
370
     0
100
AcDbVertex
100
AcDb2dVertex
 10
121.7297731993699
 20
84.76938641285372
 30
0.0
  0
VERTEX
  5
3FA
330
3F8
100
AcDbEntity
  8
Capa 1
370
     0
100
AcDbVertex
100
AcDb2dVertex
 10
124.6929017809927
 20
85.27719382237727
 30
0.0
  0
VERTEX
  5
3FB
330
3F8
100
AcDbEntity
  8
Capa 1
370
     0
100
AcDbVertex
100
AcDb2dVertex
 10
121.7297731993699
 20
85.74297103925369
 30
0.0
  0
VERTEX
  5
3FC
330
3F8
100
AcDbEntity
  8
Capa 1
370
     0
100
AcDbVertex
100
AcDb2dVertex
 10
121.7297731993699
 20
84.76938641285372
 30
0.0
  0
SEQEND
  5
3FD
330
3F8
100
AcDbEntity
  8
Capa 1
370
     0
  0
HATCH
  5
3FE
330
1F
100
AcDbEntity
  8
Capa 1
 62
     7
100
AcDbHatch
 10
0.0
 20
0.0
 30
0.0
210
0.0
220
0.0
230
1.0
  2
SOLID
 70
     1
 71
     0
 91
        1
 92
        1
 93
        3
 72
     1
 10
121.7297731993699
 20
84.76938641285372
 11
124.6929017809927
 21
85.27719382237727
 72
     1
 10
124.6929017809927
 20
85.27719382237727
 11
121.7297731993699
 21
85.74297103925369
 72
     1
 10
121.7297731993699
 20
85.74297103925369
 11
121.7297731993699
 21
84.76938641285372
 97
        0
 75
     0
 76
     1
 98
        0
  0
POLYLINE
  5
3FF
330
1F
100
AcDbEntity
  8
Capa 1
 62
     7
370
    25
100
AcDb2dPolyline
 66
     1
 10
0.0
 20
0.0
 30
0.0
  0
VERTEX
  5
400
330
3FF
100
AcDbEntity
  8
Capa 1
 62
     7
370
    25
100
AcDbVertex
100
AcDb2dVertex
 10
-14.75294212891934
 20
99.28943993333485
 30
0.0
  0
VERTEX
  5
401
330
3FF
100
AcDbEntity
  8
Capa 1
 62
     7
370
    25
100
AcDbVertex
100
AcDb2dVertex
 10
-14.75294212891934
 20
83.75308257425502
 30
0.0
  0
SEQEND
  5
402
330
3FF
100
AcDbEntity
  8
Capa 1
370
    25
  0
POLYLINE
  5
403
330
1F
100
AcDbEntity
  8
Capa 1
 62
     7
370
    25
100
AcDb2dPolyline
 66
     1
 10
0.0
 20
0.0
 30
0.0
  0
VERTEX
  5
404
330
403
100
AcDbEntity
  8
Capa 1
 62
     7
370
    25
100
AcDbVertex
100
AcDb2dVertex
 10
124.6929017809927
 20
99.28943993333485
 30
0.0
  0
VERTEX
  5
405
330
403
100
AcDbEntity
  8
Capa 1
 62
     7
370
    25
100
AcDbVertex
100
AcDb2dVertex
 10
124.6929017809927
 20
83.75308257425502
 30
0.0
  0
SEQEND
  5
406
330
403
100
AcDbEntity
  8
Capa 1
370
    25
  0
POLYLINE
  5
407
330
1F
100
AcDbEntity
  8
Capa 1
 62
     7
370
    25
100
AcDb2dPolyline
 66
     1
 10
0.0
 20
0.0
 30
0.0
  0
VERTEX
  5
408
330
407
100
AcDbEntity
  8
Capa 1
 62
     7
370
    25
100
AcDbVertex
100
AcDb2dVertex
 10
-14.75294212891934
 20
85.27719382237727
 30
0.0
  0
VERTEX
  5
409
330
407
100
AcDbEntity
  8
Capa 1
 62
     7
370
    25
100
AcDbVertex
100
AcDb2dVertex
 10
124.6929017809927
 20
85.27719382237727
 30
0.0
  0
SEQEND
  5
40A
330
407
100
AcDbEntity
  8
Capa 1
370
    25
  0
MTEXT
  5
40B
330
1F
100
AcDbEntity
  8
Capa 1
 62
     7
100
AcDbMText
 10
50.27258903305594
 20
85.99584121468807
 30
0.0
 40
2.86010110296282
 41
0.0
 71
     7
 72
     1
  1
\fHelvetica|b0|i0|c0|p34;\W1.00055;1992
 73
     1
 44
1.0
  0
POLYLINE
  5
40C
330
1F
100
AcDbEntity
  8
Capa 1
 62
     7
370
    25
100
AcDb2dPolyline
 66
     1
 10
0.0
 20
0.0
 30
0.0
  0
VERTEX
  5
40D
330
40C
100
AcDbEntity
  8
Capa 1
 62
     7
370
    25
100
AcDbVertex
100
AcDb2dVertex
 10
48.70438053363178
 20
93.61674196507512
 30
0.0
  0
VERTEX
  5
40E
330
40C
100
AcDbEntity
  8
Capa 1
 62
     7
370
    25
100
AcDbVertex
100
AcDb2dVertex
 10
56.79002497156786
 20
100.9830499911488
 30
0.0
  0
SEQEND
  5
40F
330
40C
100
AcDbEntity
  8
Capa 1
370
    25
  0
POLYLINE
  5
410
330
1F
100
AcDbEntity
  8
Capa 1
 62
     7
370
    25
100
AcDb2dPolyline
 66
     1
 10
0.0
 20
0.0
 30
0.0
  0
VERTEX
  5
411
330
410
100
AcDbEntity
  8
Capa 1
 62
     7
370
    25
100
AcDbVertex
100
AcDb2dVertex
 10
56.79002497156786
 20
100.9406752887259
 30
0.0
  0
VERTEX
  5
412
330
410
100
AcDbEntity
  8
Capa 1
 62
     7
370
    25
100
AcDbVertex
100
AcDb2dVertex
 10
65.42619603122623
 20
108.8144462145473
 30
0.0
  0
SEQEND
  5
413
330
410
100
AcDbEntity
  8
Capa 1
370
    25
  0
POLYLINE
  5
414
330
1F
100
AcDbEntity
  8
Capa 1
 62
     7
370
    25
100
AcDb2dPolyline
 66
     1
 10
0.0
 20
0.0
 30
0.0
  0
VERTEX
  5
415
330
414
100
AcDbEntity
  8
Capa 1
 62
     7
370
    25
100
AcDbVertex
100
AcDb2dVertex
 10
51.28682581299986
 20
95.26797732046616
 30
0.0
  0
VERTEX
  5
416
330
414
100
AcDbEntity
  8
Capa 1
 62
     7
370
    25
100
AcDbVertex
100
AcDb2dVertex
 10
53.14959017072974
 20
97.6385490877196
 30
0.0
  0
VERTEX
  5
417
330
414
100
AcDbEntity
  8
Capa 1
 62
     7
370
    25
100
AcDbVertex
100
AcDb2dVertex
 10
50.60951959378459
 20
95.98765824210436
 30
0.0
  0
VERTEX
  5
418
330
414
100
AcDbEntity
  8
Capa 1
 62
     7
370
    25
100
AcDbVertex
100
AcDb2dVertex
 10
51.28682581299986
 20
95.26797732046616
 30
0.0
  0
SEQEND
  5
419
330
414
100
AcDbEntity
  8
Capa 1
370
    25
  0
POLYLINE
  5
41A
330
1F
100
AcDbEntity
  8
Capa 1
370
     0
100
AcDb2dPolyline
 66
     1
 10
0.0
 20
0.0
 30
0.0
  0
VERTEX
  5
41B
330
41A
100
AcDbEntity
  8
Capa 1
370
     0
100
AcDbVertex
100
AcDb2dVertex
 10
51.28682581299986
 20
95.26797732046616
 30
0.0
  0
VERTEX
  5
41C
330
41A
100
AcDbEntity
  8
Capa 1
370
     0
100
AcDbVertex
100
AcDb2dVertex
 10
53.14959017072974
 20
97.6385490877196
 30
0.0
  0
VERTEX
  5
41D
330
41A
100
AcDbEntity
  8
Capa 1
370
     0
100
AcDbVertex
100
AcDb2dVertex
 10
50.60951959378459
 20
95.98765824210436
 30
0.0
  0
VERTEX
  5
41E
330
41A
100
AcDbEntity
  8
Capa 1
370
     0
100
AcDbVertex
100
AcDb2dVertex
 10
51.28682581299986
 20
95.26797732046616
 30
0.0
  0
SEQEND
  5
41F
330
41A
100
AcDbEntity
  8
Capa 1
370
     0
  0
HATCH
  5
420
330
1F
100
AcDbEntity
  8
Capa 1
 62
     7
100
AcDbHatch
 10
0.0
 20
0.0
 30
0.0
210
0.0
220
0.0
230
1.0
  2
SOLID
 70
     1
 71
     0
 91
        1
 92
        1
 93
        3
 72
     1
 10
51.28682581299986
 20
95.26797732046616
 11
53.14959017072974
 21
97.6385490877196
 72
     1
 10
53.14959017072974
 20
97.6385490877196
 11
50.60951959378459
 21
95.98765824210436
 72
     1
 10
50.60951959378459
 20
95.98765824210436
 11
51.28682581299986
 21
95.26797732046616
 97
        0
 75
     0
 76
     1
 98
        0
  0
POLYLINE
  5
421
330
1F
100
AcDbEntity
  8
Capa 1
 62
     7
370
    25
100
AcDb2dPolyline
 66
     1
 10
0.0
 20
0.0
 30
0.0
  0
VERTEX
  5
422
330
421
100
AcDbEntity
  8
Capa 1
 62
     7
370
    25
100
AcDbVertex
100
AcDb2dVertex
 10
59.37247025093594
 20
102.5915661343411
 30
0.0
  0
VERTEX
  5
423
330
421
100
AcDbEntity
  8
Capa 1
 62
     7
370
    25
100
AcDbVertex
100
AcDb2dVertex
 10
56.79002497156786
 20
100.9406752887259
 30
0.0
  0
VERTEX
  5
424
330
421
100
AcDbEntity
  8
Capa 1
 62
     7
370
    25
100
AcDbVertex
100
AcDb2dVertex
 10
58.69516403172067
 20
103.3112470559793
 30
0.0
  0
VERTEX
  5
425
330
421
100
AcDbEntity
  8
Capa 1
 62
     7
370
    25
100
AcDbVertex
100
AcDb2dVertex
 10
59.37247025093594
 20
102.5915661343411
 30
0.0
  0
SEQEND
  5
426
330
421
100
AcDbEntity
  8
Capa 1
370
    25
  0
POLYLINE
  5
427
330
1F
100
AcDbEntity
  8
Capa 1
370
     0
100
AcDb2dPolyline
 66
     1
 10
0.0
 20
0.0
 30
0.0
  0
VERTEX
  5
428
330
427
100
AcDbEntity
  8
Capa 1
370
     0
100
AcDbVertex
100
AcDb2dVertex
 10
59.37247025093594
 20
102.5915661343411
 30
0.0
  0
VERTEX
  5
429
330
427
100
AcDbEntity
  8
Capa 1
370
     0
100
AcDbVertex
100
AcDb2dVertex
 10
56.79002497156786
 20
100.9406752887259
 30
0.0
  0
VERTEX
  5
42A
330
427
100
AcDbEntity
  8
Capa 1
370
     0
100
AcDbVertex
100
AcDb2dVertex
 10
58.69516403172067
 20
103.3112470559793
 30
0.0
  0
VERTEX
  5
42B
330
427
100
AcDbEntity
  8
Capa 1
370
     0
100
AcDbVertex
100
AcDb2dVertex
 10
59.37247025093594
 20
102.5915661343411
 30
0.0
  0
SEQEND
  5
42C
330
427
100
AcDbEntity
  8
Capa 1
370
     0
  0
HATCH
  5
42D
330
1F
100
AcDbEntity
  8
Capa 1
 62
     7
100
AcDbHatch
 10
0.0
 20
0.0
 30
0.0
210
0.0
220
0.0
230
1.0
  2
SOLID
 70
     1
 71
     0
 91
        1
 92
        1
 93
        3
 72
     1
 10
59.37247025093594
 20
102.5915661343411
 11
56.79002497156786
 21
100.9406752887259
 72
     1
 10
56.79002497156786
 20
100.9406752887259
 11
58.69516403172067
 21
103.3112470559793
 72
     1
 10
58.69516403172067
 20
103.3112470559793
 11
59.37247025093594
 21
102.5915661343411
 97
        0
 75
     0
 76
     1
 98
        0
  0
MTEXT
  5
42E
330
1F
100
AcDbEntity
  8
Capa 1
 62
     7
100
AcDbMText
 10
60.68505249671934
 20
105.4702898208939
 30
0.0
 40
2.859908931103509
 41
0.0
 71
     7
 72
     1
  1
\fHelvetica|b0|i0|c0|p34;\W1.00059;7
 11
0.7419784553331614
 21
0.6704237255806329
 31
0.0
 73
     1
 44
1.0
  0
MTEXT
  5
42F
330
1F
100
AcDbEntity
  8
Capa 1
 62
     7
100
AcDbMText
 10
62.42069274718045
 20
107.0364312616633
 30
0.0
 40
2.859908931103509
 41
0.0
 71
     7
 72
     1
  1
\fHelvetica|b0|i0|c0|p34;\W1.00059;0
 11
0.7419784553331614
 21
0.6704237255806329
 31
0.0
 73
     1
 44
1.0
  0
POLYLINE
  5
430
330
1F
100
AcDbEntity
  8
Capa 1
 62
     7
370
    25
100
AcDb2dPolyline
 66
     1
 10
0.0
 20
0.0
 30
0.0
  0
VERTEX
  5
431
330
430
100
AcDbEntity
  8
Capa 1
 62
     7
370
    25
100
AcDbVertex
100
AcDb2dVertex
 10
20.46801479960198
 20
186.6233571172152
 30
0.0
  0
VERTEX
  5
432
330
430
100
AcDbEntity
  8
Capa 1
 62
     7
370
    25
100
AcDbVertex
100
AcDb2dVertex
 10
20.21411109484021
 20
183.6176815782816
 30
0.0
  0
VERTEX
  5
433
330
430
100
AcDbEntity
  8
Capa 1
 62
     7
370
    25
100
AcDbVertex
100
AcDb2dVertex
 10
21.44194393577775
 20
186.3692811575656
 30
0.0
  0
VERTEX
  5
434
330
430
100
AcDbEntity
  8
Capa 1
 62
     7
370
    25
100
AcDbVertex
100
AcDb2dVertex
 10
20.46801479960198
 20
186.6233571172152
 30
0.0
  0
SEQEND
  5
435
330
430
100
AcDbEntity
  8
Capa 1
370
    25
  0
POLYLINE
  5
436
330
1F
100
AcDbEntity
  8
Capa 1
370
     0
100
AcDb2dPolyline
 66
     1
 10
0.0
 20
0.0
 30
0.0
  0
VERTEX
  5
437
330
436
100
AcDbEntity
  8
Capa 1
370
     0
100
AcDbVertex
100
AcDb2dVertex
 10
20.46801479960198
 20
186.6233571172152
 30
0.0
  0
VERTEX
  5
438
330
436
100
AcDbEntity
  8
Capa 1
370
     0
100
AcDbVertex
100
AcDb2dVertex
 10
20.21411109484021
 20
183.6176815782816
 30
0.0
  0
VERTEX
  5
439
330
436
100
AcDbEntity
  8
Capa 1
370
     0
100
AcDbVertex
100
AcDb2dVertex
 10
21.44194393577775
 20
186.3692811575656
 30
0.0
  0
VERTEX
  5
43A
330
436
100
AcDbEntity
  8
Capa 1
370
     0
100
AcDbVertex
100
AcDb2dVertex
 10
20.46801479960198
 20
186.6233571172152
 30
0.0
  0
SEQEND
  5
43B
330
436
100
AcDbEntity
  8
Capa 1
370
     0
  0
HATCH
  5
43C
330
1F
100
AcDbEntity
  8
Capa 1
 62
     7
100
AcDbHatch
 10
0.0
 20
0.0
 30
0.0
210
0.0
220
0.0
230
1.0
  2
SOLID
 70
     1
 71
     0
 91
        1
 92
        1
 93
        3
 72
     1
 10
20.46801479960198
 20
186.6233571172152
 11
20.21411109484021
 21
183.6176815782816
 72
     1
 10
20.21411109484021
 20
183.6176815782816
 11
21.44194393577775
 21
186.3692811575656
 72
     1
 10
21.44194393577775
 20
186.3692811575656
 11
20.46801479960198
 21
186.6233571172152
 97
        0
 75
     0
 76
     1
 98
        0
  0
POLYLINE
  5
43D
330
1F
100
AcDbEntity
  8
Capa 1
 62
     7
370
    25
100
AcDb2dPolyline
 66
     1
 10
0.0
 20
0.0
 30
0.0
  0
VERTEX
  5
43E
330
43D
100
AcDbEntity
  8
Capa 1
 62
     7
370
    25
100
AcDbVertex
100
AcDb2dVertex
 10
17.84353932758677
 20
176.8019001739302
 30
0.0
  0
VERTEX
  5
43F
330
43D
100
AcDbEntity
  8
Capa 1
 62
     7
370
    25
100
AcDbVertex
100
AcDb2dVertex
 10
19.11340236117145
 20
179.5536720081021
 30
0.0
  0
VERTEX
  5
440
330
43D
100
AcDbEntity
  8
Capa 1
 62
     7
370
    25
100
AcDbVertex
100
AcDb2dVertex
 10
18.81712395398674
 20
176.5479964691684
 30
0.0
  0
VERTEX
  5
441
330
43D
100
AcDbEntity
  8
Capa 1
 62
     7
370
    25
100
AcDbVertex
100
AcDb2dVertex
 10
17.84353932758677
 20
176.8019001739302
 30
0.0
  0
SEQEND
  5
442
330
43D
100
AcDbEntity
  8
Capa 1
370
    25
  0
POLYLINE
  5
443
330
1F
100
AcDbEntity
  8
Capa 1
370
     0
100
AcDb2dPolyline
 66
     1
 10
0.0
 20
0.0
 30
0.0
  0
VERTEX
  5
444
330
443
100
AcDbEntity
  8
Capa 1
370
     0
100
AcDbVertex
100
AcDb2dVertex
 10
17.84353932758677
 20
176.8019001739302
 30
0.0
  0
VERTEX
  5
445
330
443
100
AcDbEntity
  8
Capa 1
370
     0
100
AcDbVertex
100
AcDb2dVertex
 10
19.11340236117145
 20
179.5536720081021
 30
0.0
  0
VERTEX
  5
446
330
443
100
AcDbEntity
  8
Capa 1
370
     0
100
AcDbVertex
100
AcDb2dVertex
 10
18.81712395398674
 20
176.5479964691684
 30
0.0
  0
VERTEX
  5
447
330
443
100
AcDbEntity
  8
Capa 1
370
     0
100
AcDbVertex
100
AcDb2dVertex
 10
17.84353932758677
 20
176.8019001739302
 30
0.0
  0
SEQEND
  5
448
330
443
100
AcDbEntity
  8
Capa 1
370
     0
  0
HATCH
  5
449
330
1F
100
AcDbEntity
  8
Capa 1
 62
     7
100
AcDbHatch
 10
0.0
 20
0.0
 30
0.0
210
0.0
220
0.0
230
1.0
  2
SOLID
 70
     1
 71
     0
 91
        1
 92
        1
 93
        3
 72
     1
 10
17.84353932758677
 20
176.8019001739302
 11
19.11340236117145
 21
179.5536720081021
 72
     1
 10
19.11340236117145
 20
179.5536720081021
 11
18.81712395398674
 21
176.5479964691684
 72
     1
 10
18.81712395398674
 20
176.5479964691684
 11
17.84353932758677
 21
176.8019001739302
 97
        0
 75
     0
 76
     1
 98
        0
  0
POLYLINE
  5
44A
330
1F
100
AcDbEntity
  8
Capa 1
 62
     7
370
    25
100
AcDb2dPolyline
 66
     1
 10
0.0
 20
0.0
 30
0.0
  0
VERTEX
  5
44B
330
44A
100
AcDbEntity
  8
Capa 1
 62
     7
370
    25
100
AcDbVertex
100
AcDb2dVertex
 10
21.73822234296246
 20
189.4173313989222
 30
0.0
  0
VERTEX
  5
44C
330
44A
100
AcDbEntity
  8
Capa 1
 62
     7
370
    25
100
AcDbVertex
100
AcDb2dVertex
 10
15.04956504587984
 20
164.4829196110107
 30
0.0
  0
SEQEND
  5
44D
330
44A
100
AcDbEntity
  8
Capa 1
370
    25
  0
MTEXT
  5
44E
330
1F
100
AcDbEntity
  8
Capa 1
 62
     7
100
AcDbMText
 10
16.02349418205561
 20
171.0027671179533
 30
0.0
 40
2.85935575067992
 41
0.0
 71
     7
 72
     1
  1
\fHelvetica|b0|i0|c0|p34;\W1.00054;6
 11
0.2588278186777375
 21
0.9659234753739678
 31
0.0
 73
     1
 44
1.0
  0
MTEXT
  5
44F
330
1F
100
AcDbEntity
  8
Capa 1
 62
     7
100
AcDbMText
 10
16.61536197687343
 20
173.2463870328258
 30
0.0
 40
2.85935575067992
 41
0.0
 71
     7
 72
     1
  1
\fHelvetica|b0|i0|c0|p34;\W1.00054;0
 11
0.2588278186777375
 21
0.9659234753739678
 31
0.0
 73
     1
 44
1.0
  0
MTEXT
  5
450
330
1F
100
AcDbEntity
  8
Capa 1
 62
     7
100
AcDbMText
 10
14.62616253142635
 20
165.6685500044133
 30
0.0
 40
3.160418133653601
 41
0.0
 71
     7
 72
     1
  1
\fMyriad Pro|b0|i0|c0|p34;\W1.00058;\U+F001
 11
0.2588040983071371
 21
0.9659298311468746
 31
0.0
 73
     1
 44
1.0
  0
POLYLINE
  5
451
330
1F
100
AcDbEntity
  8
Capa 1
 62
     7
370
    25
100
AcDb2dPolyline
 66
     1
 10
0.0
 20
0.0
 30
0.0
  0
VERTEX
  5
452
330
451
100
AcDbEntity
  8
Capa 1
 62
     7
370
    25
100
AcDbVertex
100
AcDb2dVertex
 10
43.11643197021792
 20
169.9862910244667
 30
0.0
  0
VERTEX
  5
453
330
451
100
AcDbEntity
  8
Capa 1
 62
     7
370
    25
100
AcDbVertex
100
AcDb2dVertex
 10
43.87848759427904
 20
172.9072171585545
 30
0.0
  0
VERTEX
  5
454
330
451
100
AcDbEntity
  8
Capa 1
 62
     7
370
    25
100
AcDbVertex
100
AcDb2dVertex
 10
44.13239129904082
 20
169.9015416196208
 30
0.0
  0
VERTEX
  5
455
330
451
100
AcDbEntity
  8
Capa 1
 62
     7
370
    25
100
AcDbVertex
100
AcDb2dVertex
 10
43.11643197021792
 20
169.9862910244667
 30
0.0
  0
SEQEND
  5
456
330
451
100
AcDbEntity
  8
Capa 1
370
    25
  0
POLYLINE
  5
457
330
1F
100
AcDbEntity
  8
Capa 1
370
     0
100
AcDb2dPolyline
 66
     1
 10
0.0
 20
0.0
 30
0.0
  0
VERTEX
  5
458
330
457
100
AcDbEntity
  8
Capa 1
370
     0
100
AcDbVertex
100
AcDb2dVertex
 10
43.11643197021792
 20
169.9862910244667
 30
0.0
  0
VERTEX
  5
459
330
457
100
AcDbEntity
  8
Capa 1
370
     0
100
AcDbVertex
100
AcDb2dVertex
 10
43.87848759427904
 20
172.9072171585545
 30
0.0
  0
VERTEX
  5
45A
330
457
100
AcDbEntity
  8
Capa 1
370
     0
100
AcDbVertex
100
AcDb2dVertex
 10
44.13239129904082
 20
169.9015416196208
 30
0.0
  0
VERTEX
  5
45B
330
457
100
AcDbEntity
  8
Capa 1
370
     0
100
AcDbVertex
100
AcDb2dVertex
 10
43.11643197021792
 20
169.9862910244667
 30
0.0
  0
SEQEND
  5
45C
330
457
100
AcDbEntity
  8
Capa 1
370
     0
  0
HATCH
  5
45D
330
1F
100
AcDbEntity
  8
Capa 1
 62
     7
100
AcDbHatch
 10
0.0
 20
0.0
 30
0.0
210
0.0
220
0.0
230
1.0
  2
SOLID
 70
     1
 71
     0
 91
        1
 92
        1
 93
        3
 72
     1
 10
43.11643197021792
 20
169.9862910244667
 11
43.87848759427904
 21
172.9072171585545
 72
     1
 10
43.87848759427904
 20
172.9072171585545
 11
44.13239129904082
 21
169.9015416196208
 72
     1
 10
44.13239129904082
 20
169.9015416196208
 11
43.11643197021792
 21
169.9862910244667
 97
        0
 75
     0
 76
     1
 98
        0
  0
POLYLINE
  5
45E
330
1F
100
AcDbEntity
  8
Capa 1
 62
     7
370
    25
100
AcDb2dPolyline
 66
     1
 10
0.0
 20
0.0
 30
0.0
  0
VERTEX
  5
45F
330
45E
100
AcDbEntity
  8
Capa 1
 62
     7
370
    25
100
AcDbVertex
100
AcDb2dVertex
 10
49.63593496738462
 20
162.6627022105917
 30
0.0
  0
VERTEX
  5
460
330
45E
100
AcDbEntity
  8
Capa 1
 62
     7
370
    25
100
AcDbVertex
100
AcDb2dVertex
 10
52.5146586539374
 20
161.6465706268809
 30
0.0
  0
VERTEX
  5
461
330
45E
100
AcDbEntity
  8
Capa 1
 62
     7
370
    25
100
AcDbVertex
100
AcDb2dVertex
 10
49.4664361576929
 20
161.6889453293038
 30
0.0
  0
VERTEX
  5
462
330
45E
100
AcDbEntity
  8
Capa 1
 62
     7
370
    25
100
AcDbVertex
100
AcDb2dVertex
 10
49.63593496738462
 20
162.6627022105917
 30
0.0
  0
SEQEND
  5
463
330
45E
100
AcDbEntity
  8
Capa 1
370
    25
  0
POLYLINE
  5
464
330
1F
100
AcDbEntity
  8
Capa 1
370
     0
100
AcDb2dPolyline
 66
     1
 10
0.0
 20
0.0
 30
0.0
  0
VERTEX
  5
465
330
464
100
AcDbEntity
  8
Capa 1
370
     0
100
AcDbVertex
100
AcDb2dVertex
 10
49.63593496738462
 20
162.6627022105917
 30
0.0
  0
VERTEX
  5
466
330
464
100
AcDbEntity
  8
Capa 1
370
     0
100
AcDbVertex
100
AcDb2dVertex
 10
52.5146586539374
 20
161.6465706268809
 30
0.0
  0
VERTEX
  5
467
330
464
100
AcDbEntity
  8
Capa 1
370
     0
100
AcDbVertex
100
AcDb2dVertex
 10
49.4664361576929
 20
161.6889453293038
 30
0.0
  0
VERTEX
  5
468
330
464
100
AcDbEntity
  8
Capa 1
370
     0
100
AcDbVertex
100
AcDb2dVertex
 10
49.63593496738462
 20
162.6627022105917
 30
0.0
  0
SEQEND
  5
469
330
464
100
AcDbEntity
  8
Capa 1
370
     0
  0
HATCH
  5
46A
330
1F
100
AcDbEntity
  8
Capa 1
 62
     7
100
AcDbHatch
 10
0.0
 20
0.0
 30
0.0
210
0.0
220
0.0
230
1.0
  2
SOLID
 70
     1
 71
     0
 91
        1
 92
        1
 93
        3
 72
     1
 10
49.63593496738462
 20
162.6627022105917
 11
52.5146586539374
 21
161.6465706268809
 72
     1
 10
52.5146586539374
 20
161.6465706268809
 11
49.4664361576929
 21
161.6889453293038
 72
     1
 10
49.4664361576929
 20
161.6889453293038
 11
49.63593496738462
 21
162.6627022105917
 97
        0
 75
     0
 76
     1
 98
        0
  0
POLYLINE
  5
46B
330
1F
100
AcDbEntity
  8
Capa 1
 62
     7
370
    25
100
AcDb2dPolyline
 66
     1
 10
0.0
 20
0.0
 30
0.0
  0
VERTEX
  5
46C
330
46B
100
AcDbEntity
  8
Capa 1
 62
     7
370
    25
100
AcDbVertex
100
AcDb2dVertex
 10
43.87848759427904
 20
172.9072171585545
 30
0.0
  0
VERTEX
  5
46D
330
46B
100
AcDbEntity
  8
Capa 1
 62
     7
370
    25
100
AcDbVertex
100
AcDb2dVertex
 10
43.6669585919402
 20
171.6795565725048
 30
0.0
  0
VERTEX
  5
46E
330
46B
100
AcDbEntity
  8
Capa 1
 62
     7
370
    25
100
AcDbVertex
100
AcDb2dVertex
 10
43.58220918709434
 20
170.4096935389202
 30
0.0
  0
VERTEX
  5
46F
330
46B
100
AcDbEntity
  8
Capa 1
 62
     7
370
    25
100
AcDbVertex
100
AcDb2dVertex
 10
43.70933329436313
 20
169.1820329528705
 30
0.0
  0
VERTEX
  5
470
330
46B
100
AcDbEntity
  8
Capa 1
 62
     7
370
    25
100
AcDbVertex
100
AcDb2dVertex
 10
44.00561170154783
 20
167.9543723668208
 30
0.0
  0
VERTEX
  5
471
330
46B
100
AcDbEntity
  8
Capa 1
 62
     7
370
    25
100
AcDbVertex
100
AcDb2dVertex
 10
44.47104440864845
 20
166.7689142283062
 30
0.0
  0
VERTEX
  5
472
330
46B
100
AcDbEntity
  8
Capa 1
 62
     7
370
    25
100
AcDbVertex
100
AcDb2dVertex
 10
45.06394573279366
 20
165.6682054946375
 30
0.0
  0
VERTEX
  5
473
330
46B
100
AcDbEntity
  8
Capa 1
 62
     7
370
    25
100
AcDbVertex
100
AcDb2dVertex
 10
45.82600135685479
 20
164.6946208682375
 30
0.0
  0
VERTEX
  5
474
330
46B
100
AcDbEntity
  8
Capa 1
 62
     7
370
    25
100
AcDbVertex
100
AcDb2dVertex
 10
46.75721128083183
 20
163.8056133917955
 30
0.0
  0
VERTEX
  5
475
330
46B
100
AcDbEntity
  8
Capa 1
 62
     7
370
    25
100
AcDbVertex
100
AcDb2dVertex
 10
47.73079590723181
 20
163.0435577677344
 30
0.0
  0
VERTEX
  5
476
330
46B
100
AcDbEntity
  8
Capa 1
 62
     7
370
    25
100
AcDbVertex
100
AcDb2dVertex
 10
48.87387934332349
 20
162.4510009533649
 30
0.0
  0
VERTEX
  5
477
330
46B
100
AcDbEntity
  8
Capa 1
 62
     7
370
    25
100
AcDbVertex
100
AcDb2dVertex
 10
50.05933748183811
 20
162.0275984389115
 30
0.0
  0
VERTEX
  5
478
330
46B
100
AcDbEntity
  8
Capa 1
 62
     7
370
    25
100
AcDbVertex
100
AcDb2dVertex
 10
51.28682581299986
 20
161.7736947341497
 30
0.0
  0
VERTEX
  5
479
330
46B
100
AcDbEntity
  8
Capa 1
 62
     7
370
    25
100
AcDbVertex
100
AcDb2dVertex
 10
52.5146586539374
 20
161.6465706268809
 30
0.0
  0
SEQEND
  5
47A
330
46B
100
AcDbEntity
  8
Capa 1
370
    25
  0
MTEXT
  5
47B
330
1F
100
AcDbEntity
  8
Capa 1
 62
     7
100
AcDbMText
 10
44.30206236362044
 20
169.1822052077584
 30
0.0
 40
2.859283686232678
 41
0.0
 71
     7
 72
     1
  1
\fHelvetica|b0|i0|c0|p34;\W1.00056;1
 11
0.6586819557268073
 21
-0.752421478428087
 31
0.0
 73
     1
 44
1.0
  0
MTEXT
  5
47C
330
1F
100
AcDbEntity
  8
Capa 1
 62
     7
100
AcDbMText
 10
45.82582910196689
 20
167.4038457450986
 30
0.0
 40
2.859283686232678
 41
0.0
 71
     7
 72
     1
  1
\fHelvetica|b0|i0|c0|p34;\W1.00056;0
 11
0.6586819557268073
 21
-0.752421478428087
 31
0.0
 73
     1
 44
1.0
  0
MTEXT
  5
47D
330
1F
100
AcDbEntity
  8
Capa 1
 62
     7
100
AcDbMText
 10
47.39248730739997
 20
165.6682054946375
 30
0.0
 40
2.859283686232678
 41
0.0
 71
     7
 72
     1
  1
\fHelvetica|b0|i0|c0|p34;\W1.00056;5
 11
0.6586819557268073
 21
-0.752421478428087
 31
0.0
 73
     1
 44
1.0
  0
MTEXT
  5
47E
330
1F
100
AcDbEntity
  8
Capa 1
 62
     7
100
AcDbMText
 10
48.91625404574642
 20
163.8905350515292
 30
0.0
 40
2.859283686232678
 41
0.0
 71
     7
 72
     1
  1
\fHelvetica|b0|i0|c0|p34;\W1.00056;\U+00B0
 11
0.6586819557268073
 21
-0.752421478428087
 31
0.0
 73
     1
 44
1.0
  0
ENDSEC
  0
SECTION
  2
OBJECTS
  0
DICTIONARY
  5
C
330
0
100
AcDbDictionary
281
     1
  3
ACAD_GROUP
350
D
  3
ACAD_LAYOUT
350
1A
  3
ACAD_MATERIAL
350
493
  3
ACAD_MLEADERSTYLE
350
497
  3
ACAD_MLINESTYLE
350
17
  3
ACAD_PLOTSETTINGS
350
19
  3
ACAD_PLOTSTYLENAME
350
E
  3
ACAD_SCALELIST
350
481
  3
ACAD_TABLESTYLE
350
480
  3
ACAD_VISUALSTYLE
350
2A
  3
AcDbVariableDictionary
350
4A7
  3
DWGPROPS
350
4AE
  0
DICTIONARY
  5
4AF
330
8
100
AcDbDictionary
280
     1
281
     1
  3
ACAD_XREC_ROUNDTRIP
360
4B0
  0
DICTIONARY
  5
D
102
{ACAD_REACTORS
330
C
102
}
330
C
100
AcDbDictionary
281
     1
  0
DICTIONARY
  5
1A
102
{ACAD_REACTORS
330
C
102
}
330
C
100
AcDbDictionary
281
     1
  3
Layout1
350
1E
  3
Layout2
350
26
  3
Model
350
22
  0
DICTIONARY
  5
493
102
{ACAD_REACTORS
330
C
102
}
330
C
100
AcDbDictionary
281
     1
  3
ByBlock
350
495
  3
ByLayer
350
494
  3
Global
350
496
  0
DICTIONARY
  5
497
102
{ACAD_REACTORS
330
C
102
}
330
C
100
AcDbDictionary
281
     1
  3
Standard
350
498
  0
DICTIONARY
  5
17
102
{ACAD_REACTORS
330
C
102
}
330
C
100
AcDbDictionary
281
     1
  3
Standard
350
18
  0
DICTIONARY
  5
19
102
{ACAD_REACTORS
330
C
102
}
330
C
100
AcDbDictionary
281
     1
  0
ACDBDICTIONARYWDFLT
  5
E
102
{ACAD_REACTORS
330
C
102
}
330
C
100
AcDbDictionary
281
     1
  3
Normal
350
F
100
AcDbDictionaryWithDefault
340
F
  0
DICTIONARY
  5
481
102
{ACAD_REACTORS
330
C
102
}
330
C
100
AcDbDictionary
281
     1
  3
A0
350
482
  3
A1
350
483
  3
A2
350
484
  3
A3
350
485
  3
A4
350
486
  3
A5
350
487
  3
A6
350
488
  3
A7
350
489
  3
A8
350
48A
  3
A9
350
48B
  3
B1
350
48C
  3
B2
350
48D
  3
B3
350
48E
  3
B4
350
48F
  3
B5
350
490
  3
B6
350
491
  3
B7
350
492
  0
DICTIONARY
  5
480
102
{ACAD_REACTORS
330
C
102
}
330
C
100
AcDbDictionary
281
     1
  3
Standard
350
4A3
  0
DICTIONARY
  5
2A
102
{ACAD_REACTORS
330
C
102
}
330
C
100
AcDbDictionary
281
     1
  3
2dWireframe
350
2F
  3
3D Hidden
350
31
  3
3dWireframe
350
30
  3
Basic
350
32
  3
Brighten
350
36
  3
ColorChange
350
3A
  3
Conceptual
350
34
  3
Dim
350
35
  3
EdgeColorOff
350
49D
  3
Facepattern
350
39
  3
Flat
350
2B
  3
FlatWithEdges
350
2C
  3
Gouraud
350
2D
  3
GouraudWithEdges
350
2E
  3
Hidden
350
49A
  3
JitterOff
350
49B
  3
Linepattern
350
38
  3
OverhangOff
350
49C
  3
Realistic
350
33
  3
Shaded
350
4A2
  3
Shaded with edges
350
4A1
  3
Shades of Gray
350
49E
  3
Sketchy
350
49F
  3
Thicken
350
37
  3
Wireframe
350
499
  3
X-Ray
350
4A0
  0
DICTIONARY
  5
4A7
102
{ACAD_REACTORS
330
C
102
}
330
C
100
AcDbDictionary
281
     1
  3
CANNOSCALE
350
4B1
  3
CMLEADERSTYLE
350
4A9
  3
CTABLESTYLE
350
4A8
  3
DIMASSOC
350
4AC
  3
HIDETEXT
350
4AD
  3
MSLTSCALE
350
4B2
  0
XRECORD
  5
4AE
102
{ACAD_REACTORS
330
C
102
}
330
C
100
AcDbXrecord
280
     1
  1
DWGPROPS COOKIE
  2

  3

  4

  6

  7

  8
acae2
  9

300
=
301
=
302
=
303
=
304
=
305
=
306
=
307
=
308
=
309
=
 40
0.0
 41
2456751.578333333
 42
2460427.510510128
  1

 90
        0
  0
XRECORD
  5
4B0
102
{ACAD_REACTORS
330
4AF
102
}
330
4AF
100
AcDbXrecord
280
     1
102
VTR_0.000_0.000_1.000_1.000_VISUALSTYLE
340
2F
102
VTR_0.000_0.000_1.000_1.000_GRIDDISPLAY
 70
     3
102
VTR_0.000_0.000_1.000_1.000_GRIDMAJOR
 70
     5
102
VTR_0.000_0.000_1.000_1.000_DEFAULTLIGHTING
280
     1
102
VTR_0.000_0.000_1.000_1.000_DEFAULTLIGHTINGTYPE
 70
     1
102
VTR_0.000_0.000_1.000_1.000_BRIGHTNESS
141
0.0
102
VTR_0.000_0.000_1.000_1.000_CONTRAST
142
0.0
  0
LAYOUT
  5
1E
102
{ACAD_REACTORS
330
1A
102
}
330
1A
100
AcDbPlotSettings
  1

  2
none_device
  4

  6

 40
0.0
 41
0.0
 42
0.0
 43
0.0
 44
0.0
 45
0.0
 46
0.0
 47
0.0
 48
0.0
 49
0.0
140
0.0
141
0.0
142
1.0
143
1.0
 70
   688
 72
     0
 73
     0
 74
     5
  7

 75
    16
147
1.0
148
0.0
149
0.0
100
AcDbLayout
  1
Layout1
 70
     1
 71
     1
 10
0.0
 20
0.0
 11
12.0
 21
9.0
 12
0.0
 22
0.0
 32
0.0
 14
1.000000000000000E+20
 24
1.000000000000000E+20
 34
1.000000000000000E+20
 15
-1.000000000000000E+20
 25
-1.000000000000000E+20
 35
-1.000000000000000E+20
146
0.0
 13
0.0
 23
0.0
 33
0.0
 16
1.0
 26
0.0
 36
0.0
 17
0.0
 27
1.0
 37
0.0
 76
     0
330
1B
  0
LAYOUT
  5
26
102
{ACAD_REACTORS
330
1A
102
}
330
1A
100
AcDbPlotSettings
  1

  2
none_device
  4

  6

 40
0.0
 41
0.0
 42
0.0
 43
0.0
 44
0.0
 45
0.0
 46
0.0
 47
0.0
 48
0.0
 49
0.0
140
0.0
141
0.0
142
1.0
143
1.0
 70
   688
 72
     0
 73
     0
 74
     5
  7

 75
    16
147
1.0
148
0.0
149
0.0
100
AcDbLayout
  1
Layout2
 70
     1
 71
     2
 10
0.0
 20
0.0
 11
0.0
 21
0.0
 12
0.0
 22
0.0
 32
0.0
 14
0.0
 24
0.0
 34
0.0
 15
0.0
 25
0.0
 35
0.0
146
0.0
 13
0.0
 23
0.0
 33
0.0
 16
1.0
 26
0.0
 36
0.0
 17
0.0
 27
1.0
 37
0.0
 76
     0
330
23
  0
LAYOUT
  5
22
102
{ACAD_REACTORS
330
1A
102
}
330
1A
100
AcDbPlotSettings
  1

  2
none_device
  4

  6

 40
0.0
 41
0.0
 42
0.0
 43
0.0
 44
0.0
 45
0.0
 46
0.0
 47
0.0
 48
0.0
 49
0.0
140
0.0
141
0.0
142
1.0
143
1.0
 70
  1712
 72
     0
 73
     0
 74
     0
  7

 75
     0
147
1.0
148
0.0
149
0.0
100
AcDbLayout
  1
Model
 70
     1
 71
     0
 10
0.0
 20
0.0
 11
12.0
 21
9.0
 12
0.0
 22
0.0
 32
0.0
 14
1.000000000000000E+20
 24
1.000000000000000E+20
 34
1.000000000000000E+20
 15
-1.000000000000000E+20
 25
-1.000000000000000E+20
 35
-1.000000000000000E+20
146
0.0
 13
0.0
 23
0.0
 33
0.0
 16
1.0
 26
0.0
 36
0.0
 17
0.0
 27
1.0
 37
0.0
 76
     0
330
1F
331
29
  0
MATERIAL
  5
495
102
{ACAD_REACTORS
330
493
102
}
102
{ACAD_XDICTIONARY
360
4E9
102
}
330
493
100
AcDbMaterial
  1
ByBlock
  0
MATERIAL
  5
494
102
{ACAD_REACTORS
330
493
102
}
102
{ACAD_XDICTIONARY
360
4E7
102
}
330
493
100
AcDbMaterial
  1
ByLayer
  0
MATERIAL
  5
496
102
{ACAD_REACTORS
330
493
102
}
102
{ACAD_XDICTIONARY
360
4EB
102
}
330
493
100
AcDbMaterial
  1
Global
  0
MLEADERSTYLE
  5
498
102
{ACAD_REACTORS
330
497
102
}
102
{ACAD_XDICTIONARY
360
4EE
102
}
330
497
100
AcDbMLeaderStyle
170
     2
171
     1
172
     0
 90
        2
 40
0.0
 41
0.0
173
     1
 91
-1056964608
340
14
 92
       -2
290
     1
 42
0.09
291
     1
 43
0.36
  3
Standard
341
0
 44
0.18
300

342
11
174
     1
178
     6
175
     1
176
     0
 93
-1056964608
 45
0.18
292
     0
297
     0
 46
0.18
343
0
 94
-1056964608
 47
1.0
 49
1.0
140
1.0
293
     1
141
0.0
294
     1
177
     0
142
1.0
295
     0
296
     0
143
0.125
1001
ACAD_MLEADERVER
1070
     2
  0
MLINESTYLE
  5
18
102
{ACAD_REACTORS
330
17
102
}
330
17
100
AcDbMlineStyle
  2
Standard
 70
     0
  3

 62
   256
 51
90.0
 52
90.0
 71
     2
 49
0.5
 62
   256
  6
BYLAYER
 49
-0.5
 62
   256
  6
BYLAYER
  0
ACDBPLACEHOLDER
  5
F
102
{ACAD_REACTORS
330
E
102
}
330
E
  0
SCALE
  5
482
102
{ACAD_REACTORS
330
481
102
}
330
481
100
AcDbScale
 70
     0
300
1:1
140
1.0
141
1.0
290
     1
  0
SCALE
  5
483
102
{ACAD_REACTORS
330
481
102
}
330
481
100
AcDbScale
 70
     0
300
1/128" = 1'-0"
140
0.0078125
141
12.0
290
     0
  0
SCALE
  5
484
102
{ACAD_REACTORS
330
481
102
}
330
481
100
AcDbScale
 70
     0
300
1/64" = 1'-0"
140
0.015625
141
12.0
290
     0
  0
SCALE
  5
485
102
{ACAD_REACTORS
330
481
102
}
330
481
100
AcDbScale
 70
     0
300
1/32" = 1'-0"
140
0.03125
141
12.0
290
     0
  0
SCALE
  5
486
102
{ACAD_REACTORS
330
481
102
}
330
481
100
AcDbScale
 70
     0
300
1/16" = 1'-0"
140
0.0625
141
12.0
290
     0
  0
SCALE
  5
487
102
{ACAD_REACTORS
330
481
102
}
330
481
100
AcDbScale
 70
     0
300
3/32" = 1'-0"
140
0.09375
141
12.0
290
     0
  0
SCALE
  5
488
102
{ACAD_REACTORS
330
481
102
}
330
481
100
AcDbScale
 70
     0
300
1/8" = 1'-0"
140
0.125
141
12.0
290
     0
  0
SCALE
  5
489
102
{ACAD_REACTORS
330
481
102
}
330
481
100
AcDbScale
 70
     0
300
3/16" = 1'-0"
140
0.1875
141
12.0
290
     0
  0
SCALE
  5
48A
102
{ACAD_REACTORS
330
481
102
}
330
481
100
AcDbScale
 70
     0
300
1/4" = 1'-0"
140
0.25
141
12.0
290
     0
  0
SCALE
  5
48B
102
{ACAD_REACTORS
330
481
102
}
330
481
100
AcDbScale
 70
     0
300
3/8" = 1'-0"
140
0.375
141
12.0
290
     0
  0
SCALE
  5
48C
102
{ACAD_REACTORS
330
481
102
}
330
481
100
AcDbScale
 70
     0
300
1/2" = 1'-0"
140
0.5
141
12.0
290
     0
  0
SCALE
  5
48D
102
{ACAD_REACTORS
330
481
102
}
330
481
100
AcDbScale
 70
     0
300
3/4" = 1'-0"
140
0.75
141
12.0
290
     0
  0
SCALE
  5
48E
102
{ACAD_REACTORS
330
481
102
}
330
481
100
AcDbScale
 70
     0
300
1" = 1'-0"
140
1.0
141
12.0
290
     0
  0
SCALE
  5
48F
102
{ACAD_REACTORS
330
481
102
}
330
481
100
AcDbScale
 70
     0
300
1-1/2" = 1'-0"
140
1.5
141
12.0
290
     0
  0
SCALE
  5
490
102
{ACAD_REACTORS
330
481
102
}
330
481
100
AcDbScale
 70
     0
300
3" = 1'-0"
140
3.0
141
12.0
290
     0
  0
SCALE
  5
491
102
{ACAD_REACTORS
330
481
102
}
330
481
100
AcDbScale
 70
     0
300
6" = 1'-0"
140
6.0
141
12.0
290
     0
  0
SCALE
  5
492
102
{ACAD_REACTORS
330
481
102
}
330
481
100
AcDbScale
 70
     0
300
1'-0" = 1'-0"
140
12.0
141
12.0
290
     0
  0
TABLESTYLE
  5
4A3
102
{ACAD_REACTORS
330
480
102
}
330
480
100
AcDbTableStyle
  3
Standard
 70
     0
 71
     0
 40
0.06
 41
0.06
280
     0
281
     0
  7
Standard
140
0.18
170
     2
 62
     0
 63
   257
283
     0
274
    -2
284
     1
 64
     0
275
    -2
285
     1
 65
     0
276
    -2
286
     1
 66
     0
277
    -2
287
     1
 67
     0
278
    -2
288
     1
 68
     0
279
    -2
289
     1
 69
     0
  7
Standard
140
0.25
170
     5
 62
     0
 63
   257
283
     0
274
    -2
284
     1
 64
     0
275
    -2
285
     1
 65
     0
276
    -2
286
     1
 66
     0
277
    -2
287
     1
 67
     0
278
    -2
288
     1
 68
     0
279
    -2
289
     1
 69
     0
  7
Standard
140
0.18
170
     5
 62
     0
 63
   257
283
     0
274
    -2
284
     1
 64
     0
275
    -2
285
     1
 65
     0
276
    -2
286
     1
 66
     0
277
    -2
287
     1
 67
     0
278
    -2
288
     1
 68
     0
279
    -2
289
     1
 69
     0
  0
VISUALSTYLE
  5
2F
102
{ACAD_REACTORS
330
2A
102
}
102
{ACAD_XDICTIONARY
360
4BB
102
}
330
2A
100
AcDbVisualStyle
  2
2dWireframe
 70
     4
 71
     0
 72
     2
 73
     0
 90
        0
 40
-0.6
 41
-30.0
 62
     5
 63
     7
 74
     1
 91
        4
 64
     7
 65
   257
 75
     1
175
     1
 42
1.0
 92
        0
 66
   257
 43
1.0
 76
     1
 77
     6
 78
     2
 67
     7
 79
     5
170
     0
171
     0
290
     0
174
     0
 93
        1
 44
0.0
173
     0
291
     0
 45
0.0
1001
ACAD
1000
AcDbSavedByObjectVersion
1070
     0
  0
VISUALSTYLE
  5
31
102
{ACAD_REACTORS
330
2A
102
}
102
{ACAD_XDICTIONARY
360
4BF
102
}
330
2A
100
AcDbVisualStyle
  2
3D Hidden
 70
     6
 71
     1
 72
     2
 73
     2
 90
        0
 40
-0.6
 41
-30.0
 62
     5
 63
     7
 74
     2
 91
        2
 64
     7
 65
   257
 75
     2
175
     1
 42
40.0
 92
        0
 66
   257
 43
1.0
 76
     1
 77
     6
 78
     2
 67
     7
 79
     3
170
     0
171
     0
290
     0
174
     0
 93
        1
 44
0.0
173
     0
291
     0
 45
0.0
1001
ACAD
1000
AcDbSavedByObjectVersion
1070
     0
  0
VISUALSTYLE
  5
30
102
{ACAD_REACTORS
330
2A
102
}
102
{ACAD_XDICTIONARY
360
4BD
102
}
330
2A
100
AcDbVisualStyle
  2
3dWireframe
 70
     5
 71
     0
 72
     2
 73
     0
 90
        0
 40
-0.6
 41
-30.0
 62
     5
 63
     7
 74
     1
 91
        4
 64
     7
 65
   257
 75
     1
175
     1
 42
1.0
 92
        0
 66
   257
 43
1.0
 76
     1
 77
     6
 78
     2
 67
     7
 79
     5
170
     0
171
     0
290
     0
174
     0
 93
        1
 44
0.0
173
     0
291
     0
 45
0.0
1001
ACAD
1000
AcDbSavedByObjectVersion
1070
     0
  0
VISUALSTYLE
  5
32
102
{ACAD_REACTORS
330
2A
102
}
102
{ACAD_XDICTIONARY
360
4C1
102
}
330
2A
100
AcDbVisualStyle
  2
Basic
 70
     7
 71
     1
 72
     0
 73
     1
 90
        0
 40
-0.6
 41
-30.0
 62
     5
 63
     7
 74
     0
 91
        4
 64
     7
 65
   257
 75
     1
175
     1
 42
1.0
 92
        8
 66
     7
 43
1.0
 76
     1
 77
     6
 78
     2
 67
     7
 79
     5
170
     0
171
     0
290
     0
174
     0
 93
        1
 44
0.0
173
     0
291
     1
 45
0.0
1001
ACAD
1000
AcDbSavedByObjectVersion
1070
     0
  0
VISUALSTYLE
  5
36
102
{ACAD_REACTORS
330
2A
102
}
102
{ACAD_XDICTIONARY
360
4C9
102
}
330
2A
100
AcDbVisualStyle
  2
Brighten
 70
    12
 71
     2
 72
     2
 73
     0
 90
        0
 40
-0.6
 41
-30.0
 62
     5
 63
     7
 74
     1
 91
        4
 64
     7
 65
   257
 75
     1
175
     1
 42
1.0
 92
        8
 66
     7
 43
1.0
 76
     1
 77
     6
 78
     2
 67
     7
 79
     5
170
     0
171
     0
290
     0
174
     0
 93
        1
 44
50.0
173
     0
291
     1
 45
0.0
1001
ACAD
1000
AcDbSavedByObjectVersion
1070
     0
  0
VISUALSTYLE
  5
3A
102
{ACAD_REACTORS
330
2A
102
}
102
{ACAD_XDICTIONARY
360
4D1
102
}
330
2A
100
AcDbVisualStyle
  2
ColorChange
 70
    16
 71
     2
 72
     2
 73
     3
 90
        0
 40
-0.6
 41
-30.0
 62
     5
 63
     8
 74
     1
 91
        4
 64
     7
 65
   257
 75
     1
175
     1
 42
1.0
 92
        8
 66
     8
 43
1.0
 76
     1
 77
     6
 78
     2
 67
     7
 79
     5
170
     0
171
     0
290
     0
174
     0
 93
        1
 44
0.0
173
     0
291
     1
 45
0.0
1001
ACAD
1000
AcDbSavedByObjectVersion
1070
     0
  0
VISUALSTYLE
  5
34
102
{ACAD_REACTORS
330
2A
102
}
102
{ACAD_XDICTIONARY
360
4C5
102
}
330
2A
100
AcDbVisualStyle
  2
Conceptual
 70
     9
 71
     3
 72
     2
 73
     0
 90
        0
 40
-0.6
 41
-30.0
 62
     5
 63
     7
 74
     2
 91
        2
 64
     7
 65
   257
 75
     1
175
     1
 42
40.0
 92
        8
 66
     7
 43
1.0
 76
     1
 77
     6
 78
     2
 67
     7
 79
     3
170
     0
171
     0
290
     0
174
     0
 93
        1
 44
0.0
173
     0
291
     0
 45
0.0
1001
ACAD
1000
AcDbSavedByObjectVersion
1070
     0
  0
VISUALSTYLE
  5
35
102
{ACAD_REACTORS
330
2A
102
}
102
{ACAD_XDICTIONARY
360
4C7
102
}
330
2A
100
AcDbVisualStyle
  2
Dim
 70
    11
 71
     2
 72
     2
 73
     0
 90
        0
 40
-0.6
 41
-30.0
 62
     5
 63
     7
 74
     1
 91
        4
 64
     7
 65
   257
 75
     1
175
     1
 42
1.0
 92
        8
 66
     7
 43
1.0
 76
     1
 77
     6
 78
     2
 67
     7
 79
     5
170
     0
171
     0
290
     0
174
     0
 93
        1
 44
-50.0
173
     0
291
     1
 45
0.0
1001
ACAD
1000
AcDbSavedByObjectVersion
1070
     0
  0
VISUALSTYLE
  5
49D
102
{ACAD_REACTORS
330
2A
102
}
102
{ACAD_XDICTIONARY
360
4DB
102
}
330
2A
100
AcDbVisualStyle
  2
EdgeColorOff
 70
    22
 71
     2
 72
     2
 73
     0
 90
        0
 40
0.6
 41
30.0
 62
     5
 63
     7
 74
     1
 91
        4
 64
     7
 65
   257
 75
     1
175
     1
 42
1.0
 92
        8
 66
     7
 43
1.0
 76
     1
 77
     6
 78
     2
 67
     7
 79
     5
170
     0
171
     0
290
     0
174
     0
 93
        1
 44
0.0
173
     0
291
     1
 45
0.0
1001
ACAD
1000
AcDbSavedByObjectVersion
1070
     0
  0
VISUALSTYLE
  5
39
102
{ACAD_REACTORS
330
2A
102
}
102
{ACAD_XDICTIONARY
360
4CF
102
}
330
2A
100
AcDbVisualStyle
  2
Facepattern
 70
    15
 71
     2
 72
     2
 73
     0
 90
        0
 40
-0.6
 41
-30.0
 62
     5
 63
     7
 74
     1
 91
        4
 64
     7
 65
   257
 75
     1
175
     1
 42
1.0
 92
        8
 66
     7
 43
1.0
 76
     1
 77
     6
 78
     2
 67
     7
 79
     5
170
     0
171
     0
290
     0
174
     0
 93
        1
 44
0.0
173
     0
291
     1
 45
0.0
1001
ACAD
1000
AcDbSavedByObjectVersion
1070
     0
  0
VISUALSTYLE
  5
2B
102
{ACAD_REACTORS
330
2A
102
}
102
{ACAD_XDICTIONARY
360
4B3
102
}
330
2A
100
AcDbVisualStyle
  2
Flat
 70
     0
 71
     2
 72
     1
 73
     1
 90
        2
 40
-0.6
 41
30.0
 62
     5
 63
     7
 74
     0
 91
        4
 64
     7
 65
   257
 75
     1
175
     1
 42
1.0
 92
        8
 66
     7
 43
1.0
 76
     1
 77
     6
 78
     2
 67
     7
 79
     5
170
     0
171
     0
290
     0
174
     0
 93
       13
 44
0.0
173
     0
291
     1
 45
0.0
1001
ACAD
1000
AcDbSavedByObjectVersion
1070
     0
  0
VISUALSTYLE
  5
2C
102
{ACAD_REACTORS
330
2A
102
}
102
{ACAD_XDICTIONARY
360
4B5
102
}
330
2A
100
AcDbVisualStyle
  2
FlatWithEdges
 70
     1
 71
     2
 72
     1
 73
     1
 90
        2
 40
-0.6
 41
30.0
 62
     5
 63
     7
 74
     1
 91
        4
 64
     7
 65
   257
 75
     1
175
     1
 42
1.0
 92
        0
 66
   257
 43
1.0
 76
     1
 77
     6
 78
     2
 67
     7
 79
     5
170
     0
171
     0
290
     0
174
     0
 93
       13
 44
0.0
173
     0
291
     1
 45
0.0
1001
ACAD
1000
AcDbSavedByObjectVersion
1070
     0
  0
VISUALSTYLE
  5
2D
102
{ACAD_REACTORS
330
2A
102
}
102
{ACAD_XDICTIONARY
360
4B7
102
}
330
2A
100
AcDbVisualStyle
  2
Gouraud
 70
     2
 71
     2
 72
     2
 73
     1
 90
        2
 40
-0.6
 41
30.0
 62
     5
 63
     7
 74
     0
 91
        4
 64
     7
 65
   257
 75
     1
175
     1
 42
1.0
 92
        0
 66
     7
 43
1.0
 76
     1
 77
     6
 78
     2
 67
     7
 79
     5
170
     0
171
     0
290
     0
174
     0
 93
       13
 44
0.0
173
     0
291
     1
 45
0.0
1001
ACAD
1000
AcDbSavedByObjectVersion
1070
     0
  0
VISUALSTYLE
  5
2E
102
{ACAD_REACTORS
330
2A
102
}
102
{ACAD_XDICTIONARY
360
4B9
102
}
330
2A
100
AcDbVisualStyle
  2
GouraudWithEdges
 70
     3
 71
     2
 72
     2
 73
     1
 90
        2
 40
-0.6
 41
30.0
 62
     5
 63
     7
 74
     1
 91
        4
 64
     7
 65
   257
 75
     1
175
     1
 42
1.0
 92
        0
 66
   257
 43
1.0
 76
     1
 77
     6
 78
     2
 67
     7
 79
     5
170
     0
171
     0
290
     0
174
     0
 93
       13
 44
0.0
173
     0
291
     1
 45
0.0
1001
ACAD
1000
AcDbSavedByObjectVersion
1070
     0
  0
VISUALSTYLE
  5
49A
102
{ACAD_REACTORS
330
2A
102
}
102
{ACAD_XDICTIONARY
360
4D5
102
}
330
2A
100
AcDbVisualStyle
  2
Hidden
 70
     6
 71
     1
 72
     2
 73
     2
 90
        0
 40
0.6
 41
30.0
 62
     5
 63
     7
 74
     2
 91
        2
 64
     7
 65
   257
 75
     2
175
     1
 42
40.0
 92
        0
 66
   257
 43
1.0
 76
     1
 77
     6
 78
     2
 67
     7
 79
     3
170
     0
171
     0
290
     0
174
     0
 93
        1
 44
0.0
173
     0
291
     0
 45
0.0
1001
ACAD
1000
AcDbSavedByObjectVersion
1070
     0
  0
VISUALSTYLE
  5
49B
102
{ACAD_REACTORS
330
2A
102
}
102
{ACAD_XDICTIONARY
360
4D7
102
}
330
2A
100
AcDbVisualStyle
  2
JitterOff
 70
    20
 71
     2
 72
     2
 73
     0
 90
        0
 40
0.6
 41
30.0
 62
     5
 63
     7
 74
     1
 91
        4
 64
     7
 65
   257
 75
     1
175
     1
 42
1.0
 92
       10
 66
     7
 43
1.0
 76
     1
 77
     6
 78
     2
 67
     7
 79
     5
170
     0
171
     0
290
     0
174
     0
 93
        1
 44
0.0
173
     0
291
     1
 45
0.0
1001
ACAD
1000
AcDbSavedByObjectVersion
1070
     0
  0
VISUALSTYLE
  5
38
102
{ACAD_REACTORS
330
2A
102
}
102
{ACAD_XDICTIONARY
360
4CD
102
}
330
2A
100
AcDbVisualStyle
  2
Linepattern
 70
    14
 71
     2
 72
     2
 73
     0
 90
        0
 40
-0.6
 41
-30.0
 62
     5
 63
     7
 74
     1
 91
        4
 64
     7
 65
   257
 75
     7
175
     7
 42
1.0
 92
        8
 66
     7
 43
1.0
 76
     1
 77
     6
 78
     2
 67
     7
 79
     5
170
     0
171
     0
290
     0
174
     0
 93
        1
 44
0.0
173
     0
291
     1
 45
0.0
1001
ACAD
1000
AcDbSavedByObjectVersion
1070
     0
  0
VISUALSTYLE
  5
49C
102
{ACAD_REACTORS
330
2A
102
}
102
{ACAD_XDICTIONARY
360
4D9
102
}
330
2A
100
AcDbVisualStyle
  2
OverhangOff
 70
    21
 71
     2
 72
     2
 73
     0
 90
        0
 40
0.6
 41
30.0
 62
     5
 63
     7
 74
     1
 91
        4
 64
     7
 65
   257
 75
     1
175
     1
 42
1.0
 92
        9
 66
     7
 43
1.0
 76
     1
 77
     6
 78
     2
 67
     7
 79
     5
170
     0
171
     0
290
     0
174
     0
 93
        1
 44
0.0
173
     0
291
     1
 45
0.0
1001
ACAD
1000
AcDbSavedByObjectVersion
1070
     0
  0
VISUALSTYLE
  5
33
102
{ACAD_REACTORS
330
2A
102
}
102
{ACAD_XDICTIONARY
360
4C3
102
}
330
2A
100
AcDbVisualStyle
  2
Realistic
 70
     8
 71
     2
 72
     2
 73
     0
 90
        0
 40
-0.6
 41
-30.0
 62
     5
 63
     7
 74
     1
 91
        0
 64
     7
 65
   257
 75
     1
175
     1
 42
1.0
 92
        8
 66
     8
 43
1.0
 76
     1
 77
     6
 78
     2
 67
     7
 79
     5
170
     0
171
     0
290
     0
174
     0
 93
       13
 44
0.0
173
     0
291
     0
 45
0.0
1001
ACAD
1000
AcDbSavedByObjectVersion
1070
     0
  0
VISUALSTYLE
  5
4A2
102
{ACAD_REACTORS
330
2A
102
}
102
{ACAD_XDICTIONARY
360
4E5
102
}
330
2A
100
AcDbVisualStyle
  2
Shaded
 70
    27
 71
     2
 72
     2
 73
     1
 90
        2
 40
0.6
 41
30.0
 62
     5
 63
     7
 74
     0
 91
        4
 64
     7
 65
   257
 75
     1
175
     1
 42
1.0
 92
        8
 66
   257
 43
1.0
 76
     1
 77
     6
 78
     2
 67
     8
 79
     3
170
     0
171
     0
290
     0
174
     0
 93
        5
 44
0.0
173
     0
291
     0
 45
0.0
1001
ACAD
1000
AcDbSavedByObjectVersion
1070
     0
  0
VISUALSTYLE
  5
4A1
102
{ACAD_REACTORS
330
2A
102
}
102
{ACAD_XDICTIONARY
360
4E3
102
}
330
2A
100
AcDbVisualStyle
  2
Shaded with edges
 70
    26
 71
     2
 72
     2
 73
     1
 90
        2
 40
0.6
 41
30.0
 62
     5
 63
     7
 74
     1
 91
       10
 64
     7
 65
   257
 75
     2
175
     1
 42
1.0
 92
        8
 66
   257
 43
1.0
 76
     1
 77
     6
 78
     2
 67
     7
 79
     3
170
     0
171
     0
290
     0
174
     0
 93
        5
 44
0.0
173
     0
291
     0
 45
0.0
1001
ACAD
1000
AcDbSavedByObjectVersion
1070
     0
  0
VISUALSTYLE
  5
49E
102
{ACAD_REACTORS
330
2A
102
}
102
{ACAD_XDICTIONARY
360
4DD
102
}
330
2A
100
AcDbVisualStyle
  2
Shades of Gray
 70
    23
 71
     2
 72
     2
 73
     3
 90
        0
 40
0.6
 41
30.0
 62
     5
 63
     7
 74
     2
 91
        2
 64
     7
 65
     7
 75
     1
175
     1
 42
40.0
 92
        8
 66
     7
 43
1.0
 76
     1
 77
     6
 78
     2
 67
     7
 79
     3
170
     0
171
     0
290
     0
174
     0
 93
        1
 44
0.0
173
     0
291
     0
 45
0.0
1001
ACAD
1000
AcDbSavedByObjectVersion
1070
     0
  0
VISUALSTYLE
  5
49F
102
{ACAD_REACTORS
330
2A
102
}
102
{ACAD_XDICTIONARY
360
4DF
102
}
330
2A
100
AcDbVisualStyle
  2
Sketchy
 70
    24
 71
     1
 72
     2
 73
     2
 90
        0
 40
0.6
 41
30.0
 62
     5
 63
     7
 74
     2
 91
        2
 64
     7
 65
     7
 75
     1
175
     1
 42
40.0
 92
       11
 66
     7
 43
1.0
 76
     1
 77
     6
 78
     2
 67
     7
 79
     6
170
     0
171
     0
290
     0
174
     0
 93
        1
 44
0.0
173
     0
291
     0
 45
0.0
1001
ACAD
1000
AcDbSavedByObjectVersion
1070
     0
  0
VISUALSTYLE
  5
37
102
{ACAD_REACTORS
330
2A
102
}
102
{ACAD_XDICTIONARY
360
4CB
102
}
330
2A
100
AcDbVisualStyle
  2
Thicken
 70
    13
 71
     2
 72
     2
 73
     0
 90
        0
 40
-0.6
 41
-30.0
 62
     5
 63
     7
 74
     1
 91
        4
 64
     7
 65
   257
 75
     1
175
     1
 42
1.0
 92
       12
 66
     7
 43
1.0
 76
     1
 77
     6
 78
     2
 67
     7
 79
     5
170
     0
171
     0
290
     0
174
     0
 93
        1
 44
0.0
173
     0
291
     1
 45
0.0
1001
ACAD
1000
AcDbSavedByObjectVersion
1070
     0
  0
VISUALSTYLE
  5
499
102
{ACAD_REACTORS
330
2A
102
}
102
{ACAD_XDICTIONARY
360
4D3
102
}
330
2A
100
AcDbVisualStyle
  2
Wireframe
 70
     5
 71
     0
 72
     2
 73
     0
 90
        0
 40
0.6
 41
30.0
 62
     5
 63
     7
 74
     1
 91
        4
 64
     7
 65
   257
 75
     1
175
     1
 42
1.0
 92
        0
 66
   257
 43
1.0
 76
     1
 77
     6
 78
     2
 67
     7
 79
     3
170
     0
171
     0
290
     0
174
     0
 93
        1
 44
0.0
173
     0
291
     0
 45
0.0
1001
ACAD
1000
AcDbSavedByObjectVersion
1070
     0
  0
VISUALSTYLE
  5
4A0
102
{ACAD_REACTORS
330
2A
102
}
102
{ACAD_XDICTIONARY
360
4E1
102
}
330
2A
100
AcDbVisualStyle
  2
X-Ray
 70
    25
 71
     2
 72
     2
 73
     1
 90
        1
 40
0.5
 41
30.0
 62
     5
 63
     7
 74
     1
 91
        0
 64
     7
 65
   257
 75
     1
175
     1
 42
1.0
 92
        8
 66
     7
 43
1.0
 76
     1
 77
     6
 78
     2
 67
     7
 79
     3
170
     0
171
     0
290
     0
174
     0
 93
       13
 44
0.0
173
     0
291
     0
 45
0.0
1001
ACAD
1000
AcDbSavedByObjectVersion
1070
     0
  0
DICTIONARYVAR
  5
4B1
102
{ACAD_REACTORS
330
4A7
102
}
330
4A7
100
DictionaryVariables
280
     0
  1
1:1
  0
DICTIONARYVAR
  5
4A9
102
{ACAD_REACTORS
330
4A7
102
}
330
4A7
100
DictionaryVariables
280
     0
  1
Standard
  0
DICTIONARYVAR
  5
4A8
102
{ACAD_REACTORS
330
4A7
102
}
330
4A7
100
DictionaryVariables
280
     0
  1
Standard
  0
DICTIONARYVAR
  5
4AC
102
{ACAD_REACTORS
330
4A7
102
}
330
4A7
100
DictionaryVariables
280
     0
  1
2
  0
DICTIONARYVAR
  5
4AD
102
{ACAD_REACTORS
330
4A7
102
}
330
4A7
100
DictionaryVariables
280
     0
  1
1
  0
DICTIONARYVAR
  5
4B2
102
{ACAD_REACTORS
330
4A7
102
}
330
4A7
100
DictionaryVariables
280
     0
  1
1
  0
DICTIONARY
  5
4E9
330
495
100
AcDbDictionary
280
     1
281
     1
  3
ACAD_XREC_ROUNDTRIP
360
4EA
  0
DICTIONARY
  5
4E7
330
494
100
AcDbDictionary
280
     1
281
     1
  3
ACAD_XREC_ROUNDTRIP
360
4E8
  0
DICTIONARY
  5
4EB
330
496
100
AcDbDictionary
280
     1
281
     1
  3
ACAD_XREC_ROUNDTRIP
360
4EC
  0
DICTIONARY
  5
4EE
330
498
100
AcDbDictionary
280
     1
281
     1
  3
ACAD_XREC_ROUNDTRIP
360
4EF
  0
DICTIONARY
  5
4BB
330
2F
100
AcDbDictionary
280
     1
281
     1
  3
ACAD_XREC_ROUNDTRIP
360
4BC
  0
DICTIONARY
  5
4BF
330
31
100
AcDbDictionary
280
     1
281
     1
  3
ACAD_XREC_ROUNDTRIP
360
4C0
  0
DICTIONARY
  5
4BD
330
30
100
AcDbDictionary
280
     1
281
     1
  3
ACAD_XREC_ROUNDTRIP
360
4BE
  0
DICTIONARY
  5
4C1
330
32
100
AcDbDictionary
280
     1
281
     1
  3
ACAD_XREC_ROUNDTRIP
360
4C2
  0
DICTIONARY
  5
4C9
330
36
100
AcDbDictionary
280
     1
281
     1
  3
ACAD_XREC_ROUNDTRIP
360
4CA
  0
DICTIONARY
  5
4D1
330
3A
100
AcDbDictionary
280
     1
281
     1
  3
ACAD_XREC_ROUNDTRIP
360
4D2
  0
DICTIONARY
  5
4C5
330
34
100
AcDbDictionary
280
     1
281
     1
  3
ACAD_XREC_ROUNDTRIP
360
4C6
  0
DICTIONARY
  5
4C7
330
35
100
AcDbDictionary
280
     1
281
     1
  3
ACAD_XREC_ROUNDTRIP
360
4C8
  0
DICTIONARY
  5
4DB
330
49D
100
AcDbDictionary
280
     1
281
     1
  3
ACAD_XREC_ROUNDTRIP
360
4DC
  0
DICTIONARY
  5
4CF
330
39
100
AcDbDictionary
280
     1
281
     1
  3
ACAD_XREC_ROUNDTRIP
360
4D0
  0
DICTIONARY
  5
4B3
330
2B
100
AcDbDictionary
280
     1
281
     1
  3
ACAD_XREC_ROUNDTRIP
360
4B4
  0
DICTIONARY
  5
4B5
330
2C
100
AcDbDictionary
280
     1
281
     1
  3
ACAD_XREC_ROUNDTRIP
360
4B6
  0
DICTIONARY
  5
4B7
330
2D
100
AcDbDictionary
280
     1
281
     1
  3
ACAD_XREC_ROUNDTRIP
360
4B8
  0
DICTIONARY
  5
4B9
330
2E
100
AcDbDictionary
280
     1
281
     1
  3
ACAD_XREC_ROUNDTRIP
360
4BA
  0
DICTIONARY
  5
4D5
330
49A
100
AcDbDictionary
280
     1
281
     1
  3
ACAD_XREC_ROUNDTRIP
360
4D6
  0
DICTIONARY
  5
4D7
330
49B
100
AcDbDictionary
280
     1
281
     1
  3
ACAD_XREC_ROUNDTRIP
360
4D8
  0
DICTIONARY
  5
4CD
330
38
100
AcDbDictionary
280
     1
281
     1
  3
ACAD_XREC_ROUNDTRIP
360
4CE
  0
DICTIONARY
  5
4D9
330
49C
100
AcDbDictionary
280
     1
281
     1
  3
ACAD_XREC_ROUNDTRIP
360
4DA
  0
DICTIONARY
  5
4C3
330
33
100
AcDbDictionary
280
     1
281
     1
  3
ACAD_XREC_ROUNDTRIP
360
4C4
  0
DICTIONARY
  5
4E5
330
4A2
100
AcDbDictionary
280
     1
281
     1
  3
ACAD_XREC_ROUNDTRIP
360
4E6
  0
DICTIONARY
  5
4E3
330
4A1
100
AcDbDictionary
280
     1
281
     1
  3
ACAD_XREC_ROUNDTRIP
360
4E4
  0
DICTIONARY
  5
4DD
330
49E
100
AcDbDictionary
280
     1
281
     1
  3
ACAD_XREC_ROUNDTRIP
360
4DE
  0
DICTIONARY
  5
4DF
330
49F
100
AcDbDictionary
280
     1
281
     1
  3
ACAD_XREC_ROUNDTRIP
360
4E0
  0
DICTIONARY
  5
4CB
330
37
100
AcDbDictionary
280
     1
281
     1
  3
ACAD_XREC_ROUNDTRIP
360
4CC
  0
DICTIONARY
  5
4D3
330
499
100
AcDbDictionary
280
     1
281
     1
  3
ACAD_XREC_ROUNDTRIP
360
4D4
  0
DICTIONARY
  5
4E1
330
4A0
100
AcDbDictionary
280
     1
281
     1
  3
ACAD_XREC_ROUNDTRIP
360
4E2
  0
XRECORD
  5
4EA
102
{ACAD_REACTORS
330
4E9
102
}
330
4E9
100
AcDbXrecord
280
     1
102
MATERIAL
148
0.0
149
0.0
149
0.0
 93
        0
 94
      127
282
     0
 72
     1
 77
     1
171
     1
175
     1
179
     1
273
     0
  0
XRECORD
  5
4E8
102
{ACAD_REACTORS
330
4E7
102
}
330
4E7
100
AcDbXrecord
280
     1
102
MATERIAL
148
0.0
149
0.0
149
0.0
 93
        0
 94
      127
282
     0
 72
     1
 77
     1
171
     1
175
     1
179
     1
273
     0
  0
XRECORD
  5
4EC
102
{ACAD_REACTORS
330
4EB
102
}
330
4EB
100
AcDbXrecord
280
     1
102
MATERIAL
148
0.0
149
0.0
149
0.0
 93
        0
 94
      127
282
     0
 72
     1
 77
     1
171
     1
175
     1
179
     1
273
     0
  0
XRECORD
  5
4EF
102
{ACAD_REACTORS
330
4EE
102
}
330
4EE
100
AcDbXrecord
280
     1
102
ACAD_ROUNDTRIP_2010_MLEADER_STYLE
  0
XRECORD
  5
4BC
102
{ACAD_REACTORS
330
4BB
102
}
330
4BB
100
AcDbXrecord
280
     1
102
RTVSPropertyOp0
 70
     1
102
RTVSPropertyOp1
 70
     1
102
RTVSPropertyOp2
 70
     1
102
RTVSPropertyOp3
 70
     1
102
RTVSPropertyOp4
 70
     1
102
RTVSPropertyOp5
 70
     1
102
RTVSPropertyOp6
 70
     1
102
RTVSPropertyOp7
 70
     1
102
RTVSPropertyOp8
 70
     1
102
RTVSPropertyOp9
 70
     1
102
RTVSPropertyOp10
 70
     1
102
RTVSPropertyOp11
 70
     1
102
RTVSPropertyOp12
 70
     1
102
RTVSPropertyOp13
 70
     1
102
RTVSPropertyOp14
 70
     1
102
RTVSPropertyOp15
 70
     1
102
RTVSPropertyOp16
 70
     1
102
RTVSPropertyOp17
 70
     1
102
RTVSPropertyOp18
 70
     1
102
RTVSPropertyOp19
 70
     1
102
RTVSPropertyOp20
 70
     1
102
RTVSPropertyOp21
 70
     1
102
RTVSPropertyOp22
 70
     1
102
RTVSPropertyOp23
 70
     1
102
RTVSPropertyOp24
 70
     1
102
RTVSPropertyOp25
 70
     1
102
RTVSPropertyOp26
 70
     1
102
RTVSPropertyOp27
 70
     1
102
RTVSPropertyOp28
 70
     1
102
RTVSPropertyOp29
 70
     1
102
RTVSPropertyOp30
 70
     1
102
RTVSPropertyOp31
 70
     1
102
RTVSPropertyOp32
 70
     1
102
RTVSPropertyOp33
 70
     1
102
RTVSPropertyOp34
 70
     1
102
RTVSPropertyOp35
 70
     1
102
RTVSPropertyOp36
 70
     1
102
RTVSPropertyOp37
 70
     1
102
RTVSPropertyOp38
 70
     1
102
RTVSPropertyOp39
 70
     1
102
RTVSPropertyOp40
 70
     1
102
RTVSPropertyOp41
 70
     1
102
RTVSPropertyOp42
 70
     1
102
RTVSPropertyOp43
 70
     1
102
RTVSPropertyOp44
 70
     1
102
RTVSPropertyOp45
 70
     1
102
RTVSPropertyOp46
 70
     1
102
RTVSPropertyOp47
 70
     1
102
RTVSPropertyOp48
 70
     1
102
RTVSPropertyOp49
 70
     1
102
RTVSPropertyOp50
 70
     1
102
RTVSPropertyOp51
 70
     0
102
RTVSPropertyOp52
 70
     0
102
RTVSPropertyOp53
 70
     1
102
RTVSPropertyOp54
 70
     1
102
RTVSPropertyOp55
 70
     1
102
RTVSPropertyOp56
 70
     1
102
RTVSPropertyOp57
 70
     1
102
RTVSPost2010Prop28
280
     1
102
RTVSPost2010PropOp28
 70
     1
102
RTVSPost2010Prop29
280
     1
102
RTVSPost2010PropOp29
 70
     1
102
RTVSPost2010Prop30
280
     0
102
RTVSPost2010PropOp30
 70
     1
102
RTVSPost2010Prop31
280
     0
102
RTVSPost2010PropOp31
 70
     1
102
RTVSPost2010Prop32
280
     0
102
RTVSPost2010PropOp32
 70
     1
102
RTVSPost2010Prop33
280
     0
102
RTVSPost2010PropOp33
 70
     1
102
RTVSPost2010Prop34
280
     0
102
RTVSPost2010PropOp34
 70
     1
102
RTVSPost2010Prop35
280
     0
102
RTVSPost2010PropOp35
 70
     1
102
RTVSPost2010Prop36
280
     0
102
RTVSPost2010PropOp36
 70
     1
102
RTVSPost2010Prop37
 90
       50
102
RTVSPost2010PropOp37
 70
     1
102
RTVSPost2010Prop38
140
0.0
102
RTVSPost2010PropOp38
 70
     1
102
RTVSPost2010Prop39
140
1.0
102
RTVSPost2010PropOp39
 70
     1
102
RTVSPost2010Prop40
 90
        0
102
RTVSPost2010PropOp40
 70
     1
102
RTVSPost2010Prop41ColorIndex
 90
       18
102
RTVSPost2010Prop41ColorRGB
 90
        0
102
RTVSPost2010PropOp41
 70
     1
102
RTVSPost2010Prop42
 90
       50
102
RTVSPost2010PropOp42
 70
     1
102
RTVSPost2010Prop43
 90
        3
102
RTVSPost2010PropOp43
 70
     1
102
RTVSPost2010Prop44ColorIndex
 90
        5
102
RTVSPost2010Prop44ColorRGB
 90
      255
102
RTVSPost2010PropOp44
 70
     1
102
RTVSPost2010Prop45
280
     0
102
RTVSPost2010PropOp45
 70
     1
102
RTVSPost2010Prop46
 90
       50
102
RTVSPost2010PropOp46
 70
     1
102
RTVSPost2010Prop47
 90
       50
102
RTVSPost2010PropOp47
 70
     1
102
RTVSPost2010Prop48
 90
       50
102
RTVSPost2010PropOp48
 70
     1
102
RTVSPost2010Prop49
280
     0
102
RTVSPost2010PropOp49
 70
     1
102
RTVSPost2010Prop50
 90
       50
102
RTVSPost2010PropOp50
 70
     1
102
RTVSPost2010Prop51ColorIndex
 90
      256
102
RTVSPost2010Prop51ColorRGB
 90
-16777216
102
RTVSPost2010PropOp51
 70
     0
102
RTVSPost2010Prop52
140
1.0
102
RTVSPost2010PropOp52
 70
     0
102
RTVSPost2010Prop53
 90
        2
102
RTVSPost2010PropOp53
 70
     1
102
RTVSPost2010Prop54
  1
strokes_ogs.tif
102
RTVSPost2010PropOp54
 70
     1
102
RTVSPost2010Prop55
280
     0
102
RTVSPost2010PropOp55
 70
     1
102
RTVSPost2010Prop56
140
1.0
102
RTVSPost2010PropOp56
 70
     1
102
RTVSPost2010Prop57
140
1.0
102
RTVSPost2010PropOp57
 70
     1
  0
XRECORD
  5
4C0
102
{ACAD_REACTORS
330
4BF
102
}
330
4BF
100
AcDbXrecord
280
     1
102
RTVSPropertyOp0
 70
     1
102
RTVSPropertyOp1
 70
     1
102
RTVSPropertyOp2
 70
     1
102
RTVSPropertyOp3
 70
     1
102
RTVSPropertyOp4
 70
     1
102
RTVSPropertyOp5
 70
     1
102
RTVSPropertyOp6
 70
     1
102
RTVSPropertyOp7
 70
     1
102
RTVSPropertyOp8
 70
     1
102
RTVSPropertyOp9
 70
     1
102
RTVSPropertyOp10
 70
     1
102
RTVSPropertyOp11
 70
     1
102
RTVSPropertyOp12
 70
     1
102
RTVSPropertyOp13
 70
     1
102
RTVSPropertyOp14
 70
     1
102
RTVSPropertyOp15
 70
     1
102
RTVSPropertyOp16
 70
     1
102
RTVSPropertyOp17
 70
     1
102
RTVSPropertyOp18
 70
     1
102
RTVSPropertyOp19
 70
     1
102
RTVSPropertyOp20
 70
     1
102
RTVSPropertyOp21
 70
     1
102
RTVSPropertyOp22
 70
     1
102
RTVSPropertyOp23
 70
     1
102
RTVSPropertyOp24
 70
     1
102
RTVSPropertyOp25
 70
     1
102
RTVSPropertyOp26
 70
     1
102
RTVSPropertyOp27
 70
     1
102
RTVSPropertyOp28
 70
     1
102
RTVSPropertyOp29
 70
     1
102
RTVSPropertyOp30
 70
     1
102
RTVSPropertyOp31
 70
     1
102
RTVSPropertyOp32
 70
     1
102
RTVSPropertyOp33
 70
     1
102
RTVSPropertyOp34
 70
     1
102
RTVSPropertyOp35
 70
     1
102
RTVSPropertyOp36
 70
     1
102
RTVSPropertyOp37
 70
     1
102
RTVSPropertyOp38
 70
     1
102
RTVSPropertyOp39
 70
     1
102
RTVSPropertyOp40
 70
     1
102
RTVSPropertyOp41
 70
     1
102
RTVSPropertyOp42
 70
     1
102
RTVSPropertyOp43
 70
     1
102
RTVSPropertyOp44
 70
     1
102
RTVSPropertyOp45
 70
     1
102
RTVSPropertyOp46
 70
     1
102
RTVSPropertyOp47
 70
     1
102
RTVSPropertyOp48
 70
     1
102
RTVSPropertyOp49
 70
     1
102
RTVSPropertyOp50
 70
     1
102
RTVSPropertyOp51
 70
     0
102
RTVSPropertyOp52
 70
     0
102
RTVSPropertyOp53
 70
     1
102
RTVSPropertyOp54
 70
     1
102
RTVSPropertyOp55
 70
     1
102
RTVSPropertyOp56
 70
     1
102
RTVSPropertyOp57
 70
     1
102
RTVSPost2010Prop28
280
     0
102
RTVSPost2010PropOp28
 70
     1
102
RTVSPost2010Prop29
280
     1
102
RTVSPost2010PropOp29
 70
     1
102
RTVSPost2010Prop30
280
     1
102
RTVSPost2010PropOp30
 70
     1
102
RTVSPost2010Prop31
280
     0
102
RTVSPost2010PropOp31
 70
     1
102
RTVSPost2010Prop32
280
     0
102
RTVSPost2010PropOp32
 70
     1
102
RTVSPost2010Prop33
280
     0
102
RTVSPost2010PropOp33
 70
     1
102
RTVSPost2010Prop34
280
     0
102
RTVSPost2010PropOp34
 70
     1
102
RTVSPost2010Prop35
280
     0
102
RTVSPost2010PropOp35
 70
     1
102
RTVSPost2010Prop36
280
     0
102
RTVSPost2010PropOp36
 70
     1
102
RTVSPost2010Prop37
 90
       50
102
RTVSPost2010PropOp37
 70
     1
102
RTVSPost2010Prop38
140
0.0
102
RTVSPost2010PropOp38
 70
     1
102
RTVSPost2010Prop39
140
1.0
102
RTVSPost2010PropOp39
 70
     1
102
RTVSPost2010Prop40
 90
        0
102
RTVSPost2010PropOp40
 70
     1
102
RTVSPost2010Prop41ColorIndex
 90
       18
102
RTVSPost2010Prop41ColorRGB
 90
        0
102
RTVSPost2010PropOp41
 70
     1
102
RTVSPost2010Prop42
 90
       50
102
RTVSPost2010PropOp42
 70
     1
102
RTVSPost2010Prop43
 90
        3
102
RTVSPost2010PropOp43
 70
     1
102
RTVSPost2010Prop44ColorIndex
 90
        5
102
RTVSPost2010Prop44ColorRGB
 90
      255
102
RTVSPost2010PropOp44
 70
     1
102
RTVSPost2010Prop45
280
     0
102
RTVSPost2010PropOp45
 70
     1
102
RTVSPost2010Prop46
 90
       50
102
RTVSPost2010PropOp46
 70
     1
102
RTVSPost2010Prop47
 90
       50
102
RTVSPost2010PropOp47
 70
     1
102
RTVSPost2010Prop48
 90
       50
102
RTVSPost2010PropOp48
 70
     1
102
RTVSPost2010Prop49
280
     0
102
RTVSPost2010PropOp49
 70
     1
102
RTVSPost2010Prop50
 90
       50
102
RTVSPost2010PropOp50
 70
     1
102
RTVSPost2010Prop51ColorIndex
 90
      256
102
RTVSPost2010Prop51ColorRGB
 90
-16777216
102
RTVSPost2010PropOp51
 70
     0
102
RTVSPost2010Prop52
140
1.0
102
RTVSPost2010PropOp52
 70
     0
102
RTVSPost2010Prop53
 90
        2
102
RTVSPost2010PropOp53
 70
     1
102
RTVSPost2010Prop54
  1
strokes_ogs.tif
102
RTVSPost2010PropOp54
 70
     1
102
RTVSPost2010Prop55
280
     0
102
RTVSPost2010PropOp55
 70
     1
102
RTVSPost2010Prop56
140
1.0
102
RTVSPost2010PropOp56
 70
     1
102
RTVSPost2010Prop57
140
1.0
102
RTVSPost2010PropOp57
 70
     1
  0
XRECORD
  5
4BE
102
{ACAD_REACTORS
330
4BD
102
}
330
4BD
100
AcDbXrecord
280
     1
102
RTVSPropertyOp0
 70
     1
102
RTVSPropertyOp1
 70
     1
102
RTVSPropertyOp2
 70
     1
102
RTVSPropertyOp3
 70
     1
102
RTVSPropertyOp4
 70
     1
102
RTVSPropertyOp5
 70
     1
102
RTVSPropertyOp6
 70
     1
102
RTVSPropertyOp7
 70
     1
102
RTVSPropertyOp8
 70
     1
102
RTVSPropertyOp9
 70
     1
102
RTVSPropertyOp10
 70
     1
102
RTVSPropertyOp11
 70
     1
102
RTVSPropertyOp12
 70
     1
102
RTVSPropertyOp13
 70
     1
102
RTVSPropertyOp14
 70
     1
102
RTVSPropertyOp15
 70
     1
102
RTVSPropertyOp16
 70
     1
102
RTVSPropertyOp17
 70
     1
102
RTVSPropertyOp18
 70
     1
102
RTVSPropertyOp19
 70
     1
102
RTVSPropertyOp20
 70
     1
102
RTVSPropertyOp21
 70
     1
102
RTVSPropertyOp22
 70
     1
102
RTVSPropertyOp23
 70
     1
102
RTVSPropertyOp24
 70
     1
102
RTVSPropertyOp25
 70
     1
102
RTVSPropertyOp26
 70
     1
102
RTVSPropertyOp27
 70
     1
102
RTVSPropertyOp28
 70
     1
102
RTVSPropertyOp29
 70
     1
102
RTVSPropertyOp30
 70
     1
102
RTVSPropertyOp31
 70
     1
102
RTVSPropertyOp32
 70
     1
102
RTVSPropertyOp33
 70
     1
102
RTVSPropertyOp34
 70
     1
102
RTVSPropertyOp35
 70
     1
102
RTVSPropertyOp36
 70
     1
102
RTVSPropertyOp37
 70
     1
102
RTVSPropertyOp38
 70
     1
102
RTVSPropertyOp39
 70
     1
102
RTVSPropertyOp40
 70
     1
102
RTVSPropertyOp41
 70
     1
102
RTVSPropertyOp42
 70
     1
102
RTVSPropertyOp43
 70
     1
102
RTVSPropertyOp44
 70
     1
102
RTVSPropertyOp45
 70
     1
102
RTVSPropertyOp46
 70
     1
102
RTVSPropertyOp47
 70
     1
102
RTVSPropertyOp48
 70
     1
102
RTVSPropertyOp49
 70
     1
102
RTVSPropertyOp50
 70
     1
102
RTVSPropertyOp51
 70
     0
102
RTVSPropertyOp52
 70
     0
102
RTVSPropertyOp53
 70
     1
102
RTVSPropertyOp54
 70
     1
102
RTVSPropertyOp55
 70
     1
102
RTVSPropertyOp56
 70
     1
102
RTVSPropertyOp57
 70
     1
102
RTVSPost2010Prop28
280
     0
102
RTVSPost2010PropOp28
 70
     1
102
RTVSPost2010Prop29
280
     1
102
RTVSPost2010PropOp29
 70
     1
102
RTVSPost2010Prop30
280
     1
102
RTVSPost2010PropOp30
 70
     1
102
RTVSPost2010Prop31
280
     0
102
RTVSPost2010PropOp31
 70
     1
102
RTVSPost2010Prop32
280
     0
102
RTVSPost2010PropOp32
 70
     1
102
RTVSPost2010Prop33
280
     0
102
RTVSPost2010PropOp33
 70
     1
102
RTVSPost2010Prop34
280
     0
102
RTVSPost2010PropOp34
 70
     1
102
RTVSPost2010Prop35
280
     0
102
RTVSPost2010PropOp35
 70
     1
102
RTVSPost2010Prop36
280
     0
102
RTVSPost2010PropOp36
 70
     1
102
RTVSPost2010Prop37
 90
       50
102
RTVSPost2010PropOp37
 70
     1
102
RTVSPost2010Prop38
140
0.0
102
RTVSPost2010PropOp38
 70
     1
102
RTVSPost2010Prop39
140
1.0
102
RTVSPost2010PropOp39
 70
     1
102
RTVSPost2010Prop40
 90
        0
102
RTVSPost2010PropOp40
 70
     1
102
RTVSPost2010Prop41ColorIndex
 90
       18
102
RTVSPost2010Prop41ColorRGB
 90
        0
102
RTVSPost2010PropOp41
 70
     1
102
RTVSPost2010Prop42
 90
       50
102
RTVSPost2010PropOp42
 70
     1
102
RTVSPost2010Prop43
 90
        3
102
RTVSPost2010PropOp43
 70
     1
102
RTVSPost2010Prop44ColorIndex
 90
        5
102
RTVSPost2010Prop44ColorRGB
 90
      255
102
RTVSPost2010PropOp44
 70
     1
102
RTVSPost2010Prop45
280
     0
102
RTVSPost2010PropOp45
 70
     1
102
RTVSPost2010Prop46
 90
       50
102
RTVSPost2010PropOp46
 70
     1
102
RTVSPost2010Prop47
 90
       50
102
RTVSPost2010PropOp47
 70
     1
102
RTVSPost2010Prop48
 90
       50
102
RTVSPost2010PropOp48
 70
     1
102
RTVSPost2010Prop49
280
     0
102
RTVSPost2010PropOp49
 70
     1
102
RTVSPost2010Prop50
 90
       50
102
RTVSPost2010PropOp50
 70
     1
102
RTVSPost2010Prop51ColorIndex
 90
      256
102
RTVSPost2010Prop51ColorRGB
 90
-16777216
102
RTVSPost2010PropOp51
 70
     0
102
RTVSPost2010Prop52
140
1.0
102
RTVSPost2010PropOp52
 70
     0
102
RTVSPost2010Prop53
 90
        2
102
RTVSPost2010PropOp53
 70
     1
102
RTVSPost2010Prop54
  1
strokes_ogs.tif
102
RTVSPost2010PropOp54
 70
     1
102
RTVSPost2010Prop55
280
     0
102
RTVSPost2010PropOp55
 70
     1
102
RTVSPost2010Prop56
140
1.0
102
RTVSPost2010PropOp56
 70
     1
102
RTVSPost2010Prop57
140
1.0
102
RTVSPost2010PropOp57
 70
     1
  0
XRECORD
  5
4C2
102
{ACAD_REACTORS
330
4C1
102
}
330
4C1
100
AcDbXrecord
280
     1
102
RTVSPropertyOp0
 70
     1
102
RTVSPropertyOp1
 70
     1
102
RTVSPropertyOp2
 70
     1
102
RTVSPropertyOp3
 70
     1
102
RTVSPropertyOp4
 70
     1
102
RTVSPropertyOp5
 70
     1
102
RTVSPropertyOp6
 70
     1
102
RTVSPropertyOp7
 70
     1
102
RTVSPropertyOp8
 70
     1
102
RTVSPropertyOp9
 70
     1
102
RTVSPropertyOp10
 70
     1
102
RTVSPropertyOp11
 70
     1
102
RTVSPropertyOp12
 70
     1
102
RTVSPropertyOp13
 70
     1
102
RTVSPropertyOp14
 70
     1
102
RTVSPropertyOp15
 70
     1
102
RTVSPropertyOp16
 70
     1
102
RTVSPropertyOp17
 70
     1
102
RTVSPropertyOp18
 70
     1
102
RTVSPropertyOp19
 70
     1
102
RTVSPropertyOp20
 70
     1
102
RTVSPropertyOp21
 70
     1
102
RTVSPropertyOp22
 70
     1
102
RTVSPropertyOp23
 70
     1
102
RTVSPropertyOp24
 70
     1
102
RTVSPropertyOp25
 70
     1
102
RTVSPropertyOp26
 70
     1
102
RTVSPropertyOp27
 70
     1
102
RTVSPropertyOp28
 70
     1
102
RTVSPropertyOp29
 70
     1
102
RTVSPropertyOp30
 70
     1
102
RTVSPropertyOp31
 70
     1
102
RTVSPropertyOp32
 70
     1
102
RTVSPropertyOp33
 70
     1
102
RTVSPropertyOp34
 70
     1
102
RTVSPropertyOp35
 70
     1
102
RTVSPropertyOp36
 70
     1
102
RTVSPropertyOp37
 70
     1
102
RTVSPropertyOp38
 70
     1
102
RTVSPropertyOp39
 70
     1
102
RTVSPropertyOp40
 70
     1
102
RTVSPropertyOp41
 70
     1
102
RTVSPropertyOp42
 70
     1
102
RTVSPropertyOp43
 70
     1
102
RTVSPropertyOp44
 70
     1
102
RTVSPropertyOp45
 70
     1
102
RTVSPropertyOp46
 70
     1
102
RTVSPropertyOp47
 70
     1
102
RTVSPropertyOp48
 70
     1
102
RTVSPropertyOp49
 70
     1
102
RTVSPropertyOp50
 70
     1
102
RTVSPropertyOp51
 70
     0
102
RTVSPropertyOp52
 70
     0
102
RTVSPropertyOp53
 70
     1
102
RTVSPropertyOp54
 70
     1
102
RTVSPropertyOp55
 70
     1
102
RTVSPropertyOp56
 70
     1
102
RTVSPropertyOp57
 70
     1
102
RTVSPost2010Prop28
280
     0
102
RTVSPost2010PropOp28
 70
     1
102
RTVSPost2010Prop29
280
     1
102
RTVSPost2010PropOp29
 70
     1
102
RTVSPost2010Prop30
280
     1
102
RTVSPost2010PropOp30
 70
     1
102
RTVSPost2010Prop31
280
     0
102
RTVSPost2010PropOp31
 70
     1
102
RTVSPost2010Prop32
280
     0
102
RTVSPost2010PropOp32
 70
     1
102
RTVSPost2010Prop33
280
     0
102
RTVSPost2010PropOp33
 70
     1
102
RTVSPost2010Prop34
280
     0
102
RTVSPost2010PropOp34
 70
     1
102
RTVSPost2010Prop35
280
     0
102
RTVSPost2010PropOp35
 70
     1
102
RTVSPost2010Prop36
280
     0
102
RTVSPost2010PropOp36
 70
     1
102
RTVSPost2010Prop37
 90
       50
102
RTVSPost2010PropOp37
 70
     1
102
RTVSPost2010Prop38
140
0.0
102
RTVSPost2010PropOp38
 70
     1
102
RTVSPost2010Prop39
140
1.0
102
RTVSPost2010PropOp39
 70
     1
102
RTVSPost2010Prop40
 90
        0
102
RTVSPost2010PropOp40
 70
     1
102
RTVSPost2010Prop41ColorIndex
 90
       18
102
RTVSPost2010Prop41ColorRGB
 90
        0
102
RTVSPost2010PropOp41
 70
     1
102
RTVSPost2010Prop42
 90
       50
102
RTVSPost2010PropOp42
 70
     1
102
RTVSPost2010Prop43
 90
        3
102
RTVSPost2010PropOp43
 70
     1
102
RTVSPost2010Prop44ColorIndex
 90
        5
102
RTVSPost2010Prop44ColorRGB
 90
      255
102
RTVSPost2010PropOp44
 70
     1
102
RTVSPost2010Prop45
280
     0
102
RTVSPost2010PropOp45
 70
     1
102
RTVSPost2010Prop46
 90
       50
102
RTVSPost2010PropOp46
 70
     1
102
RTVSPost2010Prop47
 90
       50
102
RTVSPost2010PropOp47
 70
     1
102
RTVSPost2010Prop48
 90
       50
102
RTVSPost2010PropOp48
 70
     1
102
RTVSPost2010Prop49
280
     0
102
RTVSPost2010PropOp49
 70
     1
102
RTVSPost2010Prop50
 90
       50
102
RTVSPost2010PropOp50
 70
     1
102
RTVSPost2010Prop51ColorIndex
 90
      256
102
RTVSPost2010Prop51ColorRGB
 90
-16777216
102
RTVSPost2010PropOp51
 70
     0
102
RTVSPost2010Prop52
140
1.0
102
RTVSPost2010PropOp52
 70
     0
102
RTVSPost2010Prop53
 90
        2
102
RTVSPost2010PropOp53
 70
     1
102
RTVSPost2010Prop54
  1
strokes_ogs.tif
102
RTVSPost2010PropOp54
 70
     1
102
RTVSPost2010Prop55
280
     0
102
RTVSPost2010PropOp55
 70
     1
102
RTVSPost2010Prop56
140
1.0
102
RTVSPost2010PropOp56
 70
     1
102
RTVSPost2010Prop57
140
1.0
102
RTVSPost2010PropOp57
 70
     1
  0
XRECORD
  5
4CA
102
{ACAD_REACTORS
330
4C9
102
}
330
4C9
100
AcDbXrecord
280
     1
102
RTVSPropertyOp0
 70
     1
102
RTVSPropertyOp1
 70
     1
102
RTVSPropertyOp2
 70
     1
102
RTVSPropertyOp3
 70
     1
102
RTVSPropertyOp4
 70
     1
102
RTVSPropertyOp5
 70
     1
102
RTVSPropertyOp6
 70
     1
102
RTVSPropertyOp7
 70
     1
102
RTVSPropertyOp8
 70
     1
102
RTVSPropertyOp9
 70
     1
102
RTVSPropertyOp10
 70
     1
102
RTVSPropertyOp11
 70
     1
102
RTVSPropertyOp12
 70
     1
102
RTVSPropertyOp13
 70
     1
102
RTVSPropertyOp14
 70
     1
102
RTVSPropertyOp15
 70
     1
102
RTVSPropertyOp16
 70
     1
102
RTVSPropertyOp17
 70
     1
102
RTVSPropertyOp18
 70
     1
102
RTVSPropertyOp19
 70
     1
102
RTVSPropertyOp20
 70
     1
102
RTVSPropertyOp21
 70
     1
102
RTVSPropertyOp22
 70
     1
102
RTVSPropertyOp23
 70
     1
102
RTVSPropertyOp24
 70
     1
102
RTVSPropertyOp25
 70
     1
102
RTVSPropertyOp26
 70
     1
102
RTVSPropertyOp27
 70
     1
102
RTVSPropertyOp28
 70
     1
102
RTVSPropertyOp29
 70
     1
102
RTVSPropertyOp30
 70
     1
102
RTVSPropertyOp31
 70
     1
102
RTVSPropertyOp32
 70
     1
102
RTVSPropertyOp33
 70
     1
102
RTVSPropertyOp34
 70
     1
102
RTVSPropertyOp35
 70
     1
102
RTVSPropertyOp36
 70
     1
102
RTVSPropertyOp37
 70
     1
102
RTVSPropertyOp38
 70
     1
102
RTVSPropertyOp39
 70
     1
102
RTVSPropertyOp40
 70
     1
102
RTVSPropertyOp41
 70
     1
102
RTVSPropertyOp42
 70
     1
102
RTVSPropertyOp43
 70
     1
102
RTVSPropertyOp44
 70
     1
102
RTVSPropertyOp45
 70
     1
102
RTVSPropertyOp46
 70
     1
102
RTVSPropertyOp47
 70
     1
102
RTVSPropertyOp48
 70
     1
102
RTVSPropertyOp49
 70
     1
102
RTVSPropertyOp50
 70
     1
102
RTVSPropertyOp51
 70
     0
102
RTVSPropertyOp52
 70
     0
102
RTVSPropertyOp53
 70
     1
102
RTVSPropertyOp54
 70
     1
102
RTVSPropertyOp55
 70
     1
102
RTVSPropertyOp56
 70
     1
102
RTVSPropertyOp57
 70
     1
102
RTVSPost2010Prop28
280
     0
102
RTVSPost2010PropOp28
 70
     1
102
RTVSPost2010Prop29
280
     1
102
RTVSPost2010PropOp29
 70
     1
102
RTVSPost2010Prop30
280
     1
102
RTVSPost2010PropOp30
 70
     1
102
RTVSPost2010Prop31
280
     0
102
RTVSPost2010PropOp31
 70
     1
102
RTVSPost2010Prop32
280
     0
102
RTVSPost2010PropOp32
 70
     1
102
RTVSPost2010Prop33
280
     0
102
RTVSPost2010PropOp33
 70
     1
102
RTVSPost2010Prop34
280
     0
102
RTVSPost2010PropOp34
 70
     1
102
RTVSPost2010Prop35
280
     0
102
RTVSPost2010PropOp35
 70
     1
102
RTVSPost2010Prop36
280
     0
102
RTVSPost2010PropOp36
 70
     1
102
RTVSPost2010Prop37
 90
       50
102
RTVSPost2010PropOp37
 70
     1
102
RTVSPost2010Prop38
140
0.0
102
RTVSPost2010PropOp38
 70
     1
102
RTVSPost2010Prop39
140
1.0
102
RTVSPost2010PropOp39
 70
     1
102
RTVSPost2010Prop40
 90
        0
102
RTVSPost2010PropOp40
 70
     1
102
RTVSPost2010Prop41ColorIndex
 90
       18
102
RTVSPost2010Prop41ColorRGB
 90
        0
102
RTVSPost2010PropOp41
 70
     1
102
RTVSPost2010Prop42
 90
       50
102
RTVSPost2010PropOp42
 70
     1
102
RTVSPost2010Prop43
 90
        3
102
RTVSPost2010PropOp43
 70
     1
102
RTVSPost2010Prop44ColorIndex
 90
        5
102
RTVSPost2010Prop44ColorRGB
 90
      255
102
RTVSPost2010PropOp44
 70
     1
102
RTVSPost2010Prop45
280
     0
102
RTVSPost2010PropOp45
 70
     1
102
RTVSPost2010Prop46
 90
       50
102
RTVSPost2010PropOp46
 70
     1
102
RTVSPost2010Prop47
 90
       50
102
RTVSPost2010PropOp47
 70
     1
102
RTVSPost2010Prop48
 90
       50
102
RTVSPost2010PropOp48
 70
     1
102
RTVSPost2010Prop49
280
     0
102
RTVSPost2010PropOp49
 70
     1
102
RTVSPost2010Prop50
 90
       50
102
RTVSPost2010PropOp50
 70
     1
102
RTVSPost2010Prop51ColorIndex
 90
      256
102
RTVSPost2010Prop51ColorRGB
 90
-16777216
102
RTVSPost2010PropOp51
 70
     0
102
RTVSPost2010Prop52
140
1.0
102
RTVSPost2010PropOp52
 70
     0
102
RTVSPost2010Prop53
 90
        2
102
RTVSPost2010PropOp53
 70
     1
102
RTVSPost2010Prop54
  1
strokes_ogs.tif
102
RTVSPost2010PropOp54
 70
     1
102
RTVSPost2010Prop55
280
     0
102
RTVSPost2010PropOp55
 70
     1
102
RTVSPost2010Prop56
140
1.0
102
RTVSPost2010PropOp56
 70
     1
102
RTVSPost2010Prop57
140
1.0
102
RTVSPost2010PropOp57
 70
     1
  0
XRECORD
  5
4D2
102
{ACAD_REACTORS
330
4D1
102
}
330
4D1
100
AcDbXrecord
280
     1
102
RTVSPropertyOp0
 70
     1
102
RTVSPropertyOp1
 70
     1
102
RTVSPropertyOp2
 70
     1
102
RTVSPropertyOp3
 70
     1
102
RTVSPropertyOp4
 70
     1
102
RTVSPropertyOp5
 70
     1
102
RTVSPropertyOp6
 70
     1
102
RTVSPropertyOp7
 70
     1
102
RTVSPropertyOp8
 70
     1
102
RTVSPropertyOp9
 70
     1
102
RTVSPropertyOp10
 70
     1
102
RTVSPropertyOp11
 70
     1
102
RTVSPropertyOp12
 70
     1
102
RTVSPropertyOp13
 70
     1
102
RTVSPropertyOp14
 70
     1
102
RTVSPropertyOp15
 70
     1
102
RTVSPropertyOp16
 70
     1
102
RTVSPropertyOp17
 70
     1
102
RTVSPropertyOp18
 70
     1
102
RTVSPropertyOp19
 70
     1
102
RTVSPropertyOp20
 70
     1
102
RTVSPropertyOp21
 70
     1
102
RTVSPropertyOp22
 70
     1
102
RTVSPropertyOp23
 70
     1
102
RTVSPropertyOp24
 70
     1
102
RTVSPropertyOp25
 70
     1
102
RTVSPropertyOp26
 70
     1
102
RTVSPropertyOp27
 70
     1
102
RTVSPropertyOp28
 70
     1
102
RTVSPropertyOp29
 70
     1
102
RTVSPropertyOp30
 70
     1
102
RTVSPropertyOp31
 70
     1
102
RTVSPropertyOp32
 70
     1
102
RTVSPropertyOp33
 70
     1
102
RTVSPropertyOp34
 70
     1
102
RTVSPropertyOp35
 70
     1
102
RTVSPropertyOp36
 70
     1
102
RTVSPropertyOp37
 70
     1
102
RTVSPropertyOp38
 70
     1
102
RTVSPropertyOp39
 70
     1
102
RTVSPropertyOp40
 70
     1
102
RTVSPropertyOp41
 70
     1
102
RTVSPropertyOp42
 70
     1
102
RTVSPropertyOp43
 70
     1
102
RTVSPropertyOp44
 70
     1
102
RTVSPropertyOp45
 70
     1
102
RTVSPropertyOp46
 70
     1
102
RTVSPropertyOp47
 70
     1
102
RTVSPropertyOp48
 70
     1
102
RTVSPropertyOp49
 70
     1
102
RTVSPropertyOp50
 70
     1
102
RTVSPropertyOp51
 70
     0
102
RTVSPropertyOp52
 70
     0
102
RTVSPropertyOp53
 70
     1
102
RTVSPropertyOp54
 70
     1
102
RTVSPropertyOp55
 70
     1
102
RTVSPropertyOp56
 70
     1
102
RTVSPropertyOp57
 70
     1
102
RTVSPost2010Prop28
280
     0
102
RTVSPost2010PropOp28
 70
     1
102
RTVSPost2010Prop29
280
     1
102
RTVSPost2010PropOp29
 70
     1
102
RTVSPost2010Prop30
280
     1
102
RTVSPost2010PropOp30
 70
     1
102
RTVSPost2010Prop31
280
     0
102
RTVSPost2010PropOp31
 70
     1
102
RTVSPost2010Prop32
280
     0
102
RTVSPost2010PropOp32
 70
     1
102
RTVSPost2010Prop33
280
     0
102
RTVSPost2010PropOp33
 70
     1
102
RTVSPost2010Prop34
280
     0
102
RTVSPost2010PropOp34
 70
     1
102
RTVSPost2010Prop35
280
     0
102
RTVSPost2010PropOp35
 70
     1
102
RTVSPost2010Prop36
280
     0
102
RTVSPost2010PropOp36
 70
     1
102
RTVSPost2010Prop37
 90
       50
102
RTVSPost2010PropOp37
 70
     1
102
RTVSPost2010Prop38
140
0.0
102
RTVSPost2010PropOp38
 70
     1
102
RTVSPost2010Prop39
140
1.0
102
RTVSPost2010PropOp39
 70
     1
102
RTVSPost2010Prop40
 90
        0
102
RTVSPost2010PropOp40
 70
     1
102
RTVSPost2010Prop41ColorIndex
 90
       18
102
RTVSPost2010Prop41ColorRGB
 90
        0
102
RTVSPost2010PropOp41
 70
     1
102
RTVSPost2010Prop42
 90
       50
102
RTVSPost2010PropOp42
 70
     1
102
RTVSPost2010Prop43
 90
        3
102
RTVSPost2010PropOp43
 70
     1
102
RTVSPost2010Prop44ColorIndex
 90
        5
102
RTVSPost2010Prop44ColorRGB
 90
      255
102
RTVSPost2010PropOp44
 70
     1
102
RTVSPost2010Prop45
280
     0
102
RTVSPost2010PropOp45
 70
     1
102
RTVSPost2010Prop46
 90
       50
102
RTVSPost2010PropOp46
 70
     1
102
RTVSPost2010Prop47
 90
       50
102
RTVSPost2010PropOp47
 70
     1
102
RTVSPost2010Prop48
 90
       50
102
RTVSPost2010PropOp48
 70
     1
102
RTVSPost2010Prop49
280
     0
102
RTVSPost2010PropOp49
 70
     1
102
RTVSPost2010Prop50
 90
       50
102
RTVSPost2010PropOp50
 70
     1
102
RTVSPost2010Prop51ColorIndex
 90
      256
102
RTVSPost2010Prop51ColorRGB
 90
-16777216
102
RTVSPost2010PropOp51
 70
     0
102
RTVSPost2010Prop52
140
1.0
102
RTVSPost2010PropOp52
 70
     0
102
RTVSPost2010Prop53
 90
        2
102
RTVSPost2010PropOp53
 70
     1
102
RTVSPost2010Prop54
  1
strokes_ogs.tif
102
RTVSPost2010PropOp54
 70
     1
102
RTVSPost2010Prop55
280
     0
102
RTVSPost2010PropOp55
 70
     1
102
RTVSPost2010Prop56
140
1.0
102
RTVSPost2010PropOp56
 70
     1
102
RTVSPost2010Prop57
140
1.0
102
RTVSPost2010PropOp57
 70
     1
  0
XRECORD
  5
4C6
102
{ACAD_REACTORS
330
4C5
102
}
330
4C5
100
AcDbXrecord
280
     1
102
RTVSPropertyOp0
 70
     1
102
RTVSPropertyOp1
 70
     1
102
RTVSPropertyOp2
 70
     1
102
RTVSPropertyOp3
 70
     1
102
RTVSPropertyOp4
 70
     1
102
RTVSPropertyOp5
 70
     1
102
RTVSPropertyOp6
 70
     1
102
RTVSPropertyOp7
 70
     1
102
RTVSPropertyOp8
 70
     1
102
RTVSPropertyOp9
 70
     1
102
RTVSPropertyOp10
 70
     1
102
RTVSPropertyOp11
 70
     1
102
RTVSPropertyOp12
 70
     1
102
RTVSPropertyOp13
 70
     1
102
RTVSPropertyOp14
 70
     1
102
RTVSPropertyOp15
 70
     1
102
RTVSPropertyOp16
 70
     1
102
RTVSPropertyOp17
 70
     1
102
RTVSPropertyOp18
 70
     1
102
RTVSPropertyOp19
 70
     1
102
RTVSPropertyOp20
 70
     1
102
RTVSPropertyOp21
 70
     1
102
RTVSPropertyOp22
 70
     1
102
RTVSPropertyOp23
 70
     1
102
RTVSPropertyOp24
 70
     1
102
RTVSPropertyOp25
 70
     1
102
RTVSPropertyOp26
 70
     1
102
RTVSPropertyOp27
 70
     1
102
RTVSPropertyOp28
 70
     1
102
RTVSPropertyOp29
 70
     1
102
RTVSPropertyOp30
 70
     1
102
RTVSPropertyOp31
 70
     1
102
RTVSPropertyOp32
 70
     1
102
RTVSPropertyOp33
 70
     1
102
RTVSPropertyOp34
 70
     1
102
RTVSPropertyOp35
 70
     1
102
RTVSPropertyOp36
 70
     1
102
RTVSPropertyOp37
 70
     1
102
RTVSPropertyOp38
 70
     1
102
RTVSPropertyOp39
 70
     1
102
RTVSPropertyOp40
 70
     1
102
RTVSPropertyOp41
 70
     1
102
RTVSPropertyOp42
 70
     1
102
RTVSPropertyOp43
 70
     1
102
RTVSPropertyOp44
 70
     1
102
RTVSPropertyOp45
 70
     1
102
RTVSPropertyOp46
 70
     1
102
RTVSPropertyOp47
 70
     1
102
RTVSPropertyOp48
 70
     1
102
RTVSPropertyOp49
 70
     1
102
RTVSPropertyOp50
 70
     1
102
RTVSPropertyOp51
 70
     0
102
RTVSPropertyOp52
 70
     0
102
RTVSPropertyOp53
 70
     1
102
RTVSPropertyOp54
 70
     1
102
RTVSPropertyOp55
 70
     1
102
RTVSPropertyOp56
 70
     1
102
RTVSPropertyOp57
 70
     1
102
RTVSPost2010Prop28
280
     0
102
RTVSPost2010PropOp28
 70
     1
102
RTVSPost2010Prop29
280
     1
102
RTVSPost2010PropOp29
 70
     1
102
RTVSPost2010Prop30
280
     1
102
RTVSPost2010PropOp30
 70
     1
102
RTVSPost2010Prop31
280
     0
102
RTVSPost2010PropOp31
 70
     1
102
RTVSPost2010Prop32
280
     0
102
RTVSPost2010PropOp32
 70
     1
102
RTVSPost2010Prop33
280
     0
102
RTVSPost2010PropOp33
 70
     1
102
RTVSPost2010Prop34
280
     0
102
RTVSPost2010PropOp34
 70
     1
102
RTVSPost2010Prop35
280
     0
102
RTVSPost2010PropOp35
 70
     1
102
RTVSPost2010Prop36
280
     0
102
RTVSPost2010PropOp36
 70
     1
102
RTVSPost2010Prop37
 90
       50
102
RTVSPost2010PropOp37
 70
     1
102
RTVSPost2010Prop38
140
0.0
102
RTVSPost2010PropOp38
 70
     1
102
RTVSPost2010Prop39
140
1.0
102
RTVSPost2010PropOp39
 70
     1
102
RTVSPost2010Prop40
 90
        0
102
RTVSPost2010PropOp40
 70
     1
102
RTVSPost2010Prop41ColorIndex
 90
       18
102
RTVSPost2010Prop41ColorRGB
 90
        0
102
RTVSPost2010PropOp41
 70
     1
102
RTVSPost2010Prop42
 90
       50
102
RTVSPost2010PropOp42
 70
     1
102
RTVSPost2010Prop43
 90
        3
102
RTVSPost2010PropOp43
 70
     1
102
RTVSPost2010Prop44ColorIndex
 90
        5
102
RTVSPost2010Prop44ColorRGB
 90
      255
102
RTVSPost2010PropOp44
 70
     1
102
RTVSPost2010Prop45
280
     0
102
RTVSPost2010PropOp45
 70
     1
102
RTVSPost2010Prop46
 90
       50
102
RTVSPost2010PropOp46
 70
     1
102
RTVSPost2010Prop47
 90
       50
102
RTVSPost2010PropOp47
 70
     1
102
RTVSPost2010Prop48
 90
       50
102
RTVSPost2010PropOp48
 70
     1
102
RTVSPost2010Prop49
280
     0
102
RTVSPost2010PropOp49
 70
     1
102
RTVSPost2010Prop50
 90
       50
102
RTVSPost2010PropOp50
 70
     1
102
RTVSPost2010Prop51ColorIndex
 90
      256
102
RTVSPost2010Prop51ColorRGB
 90
-16777216
102
RTVSPost2010PropOp51
 70
     0
102
RTVSPost2010Prop52
140
1.0
102
RTVSPost2010PropOp52
 70
     0
102
RTVSPost2010Prop53
 90
        2
102
RTVSPost2010PropOp53
 70
     1
102
RTVSPost2010Prop54
  1
strokes_ogs.tif
102
RTVSPost2010PropOp54
 70
     1
102
RTVSPost2010Prop55
280
     0
102
RTVSPost2010PropOp55
 70
     1
102
RTVSPost2010Prop56
140
1.0
102
RTVSPost2010PropOp56
 70
     1
102
RTVSPost2010Prop57
140
1.0
102
RTVSPost2010PropOp57
 70
     1
  0
XRECORD
  5
4C8
102
{ACAD_REACTORS
330
4C7
102
}
330
4C7
100
AcDbXrecord
280
     1
102
RTVSPropertyOp0
 70
     1
102
RTVSPropertyOp1
 70
     1
102
RTVSPropertyOp2
 70
     1
102
RTVSPropertyOp3
 70
     1
102
RTVSPropertyOp4
 70
     1
102
RTVSPropertyOp5
 70
     1
102
RTVSPropertyOp6
 70
     1
102
RTVSPropertyOp7
 70
     1
102
RTVSPropertyOp8
 70
     1
102
RTVSPropertyOp9
 70
     1
102
RTVSPropertyOp10
 70
     1
102
RTVSPropertyOp11
 70
     1
102
RTVSPropertyOp12
 70
     1
102
RTVSPropertyOp13
 70
     1
102
RTVSPropertyOp14
 70
     1
102
RTVSPropertyOp15
 70
     1
102
RTVSPropertyOp16
 70
     1
102
RTVSPropertyOp17
 70
     1
102
RTVSPropertyOp18
 70
     1
102
RTVSPropertyOp19
 70
     1
102
RTVSPropertyOp20
 70
     1
102
RTVSPropertyOp21
 70
     1
102
RTVSPropertyOp22
 70
     1
102
RTVSPropertyOp23
 70
     1
102
RTVSPropertyOp24
 70
     1
102
RTVSPropertyOp25
 70
     1
102
RTVSPropertyOp26
 70
     1
102
RTVSPropertyOp27
 70
     1
102
RTVSPropertyOp28
 70
     1
102
RTVSPropertyOp29
 70
     1
102
RTVSPropertyOp30
 70
     1
102
RTVSPropertyOp31
 70
     1
102
RTVSPropertyOp32
 70
     1
102
RTVSPropertyOp33
 70
     1
102
RTVSPropertyOp34
 70
     1
102
RTVSPropertyOp35
 70
     1
102
RTVSPropertyOp36
 70
     1
102
RTVSPropertyOp37
 70
     1
102
RTVSPropertyOp38
 70
     1
102
RTVSPropertyOp39
 70
     1
102
RTVSPropertyOp40
 70
     1
102
RTVSPropertyOp41
 70
     1
102
RTVSPropertyOp42
 70
     1
102
RTVSPropertyOp43
 70
     1
102
RTVSPropertyOp44
 70
     1
102
RTVSPropertyOp45
 70
     1
102
RTVSPropertyOp46
 70
     1
102
RTVSPropertyOp47
 70
     1
102
RTVSPropertyOp48
 70
     1
102
RTVSPropertyOp49
 70
     1
102
RTVSPropertyOp50
 70
     1
102
RTVSPropertyOp51
 70
     0
102
RTVSPropertyOp52
 70
     0
102
RTVSPropertyOp53
 70
     1
102
RTVSPropertyOp54
 70
     1
102
RTVSPropertyOp55
 70
     1
102
RTVSPropertyOp56
 70
     1
102
RTVSPropertyOp57
 70
     1
102
RTVSPost2010Prop28
280
     0
102
RTVSPost2010PropOp28
 70
     1
102
RTVSPost2010Prop29
280
     1
102
RTVSPost2010PropOp29
 70
     1
102
RTVSPost2010Prop30
280
     1
102
RTVSPost2010PropOp30
 70
     1
102
RTVSPost2010Prop31
280
     0
102
RTVSPost2010PropOp31
 70
     1
102
RTVSPost2010Prop32
280
     0
102
RTVSPost2010PropOp32
 70
     1
102
RTVSPost2010Prop33
280
     0
102
RTVSPost2010PropOp33
 70
     1
102
RTVSPost2010Prop34
280
     0
102
RTVSPost2010PropOp34
 70
     1
102
RTVSPost2010Prop35
280
     0
102
RTVSPost2010PropOp35
 70
     1
102
RTVSPost2010Prop36
280
     0
102
RTVSPost2010PropOp36
 70
     1
102
RTVSPost2010Prop37
 90
       50
102
RTVSPost2010PropOp37
 70
     1
102
RTVSPost2010Prop38
140
0.0
102
RTVSPost2010PropOp38
 70
     1
102
RTVSPost2010Prop39
140
1.0
102
RTVSPost2010PropOp39
 70
     1
102
RTVSPost2010Prop40
 90
        0
102
RTVSPost2010PropOp40
 70
     1
102
RTVSPost2010Prop41ColorIndex
 90
       18
102
RTVSPost2010Prop41ColorRGB
 90
        0
102
RTVSPost2010PropOp41
 70
     1
102
RTVSPost2010Prop42
 90
       50
102
RTVSPost2010PropOp42
 70
     1
102
RTVSPost2010Prop43
 90
        3
102
RTVSPost2010PropOp43
 70
     1
102
RTVSPost2010Prop44ColorIndex
 90
        5
102
RTVSPost2010Prop44ColorRGB
 90
      255
102
RTVSPost2010PropOp44
 70
     1
102
RTVSPost2010Prop45
280
     0
102
RTVSPost2010PropOp45
 70
     1
102
RTVSPost2010Prop46
 90
       50
102
RTVSPost2010PropOp46
 70
     1
102
RTVSPost2010Prop47
 90
       50
102
RTVSPost2010PropOp47
 70
     1
102
RTVSPost2010Prop48
 90
       50
102
RTVSPost2010PropOp48
 70
     1
102
RTVSPost2010Prop49
280
     0
102
RTVSPost2010PropOp49
 70
     1
102
RTVSPost2010Prop50
 90
       50
102
RTVSPost2010PropOp50
 70
     1
102
RTVSPost2010Prop51ColorIndex
 90
      256
102
RTVSPost2010Prop51ColorRGB
 90
-16777216
102
RTVSPost2010PropOp51
 70
     0
102
RTVSPost2010Prop52
140
1.0
102
RTVSPost2010PropOp52
 70
     0
102
RTVSPost2010Prop53
 90
        2
102
RTVSPost2010PropOp53
 70
     1
102
RTVSPost2010Prop54
  1
strokes_ogs.tif
102
RTVSPost2010PropOp54
 70
     1
102
RTVSPost2010Prop55
280
     0
102
RTVSPost2010PropOp55
 70
     1
102
RTVSPost2010Prop56
140
1.0
102
RTVSPost2010PropOp56
 70
     1
102
RTVSPost2010Prop57
140
1.0
102
RTVSPost2010PropOp57
 70
     1
  0
XRECORD
  5
4DC
102
{ACAD_REACTORS
330
4DB
102
}
330
4DB
100
AcDbXrecord
280
     1
102
RTVSPropertyOp0
 70
     0
102
RTVSPropertyOp1
 70
     0
102
RTVSPropertyOp2
 70
     0
102
RTVSPropertyOp3
 70
     0
102
RTVSPropertyOp4
 70
     0
102
RTVSPropertyOp5
 70
     0
102
RTVSPropertyOp6
 70
     0
102
RTVSPropertyOp7
 70
     0
102
RTVSPropertyOp8
 70
     0
102
RTVSPropertyOp9
 70
     0
102
RTVSPropertyOp10
 70
     0
102
RTVSPropertyOp11
 70
     0
102
RTVSPropertyOp12
 70
     0
102
RTVSPropertyOp13
 70
     0
102
RTVSPropertyOp14
 70
     2
102
RTVSPropertyOp15
 70
     0
102
RTVSPropertyOp16
 70
     0
102
RTVSPropertyOp17
 70
     0
102
RTVSPropertyOp18
 70
     0
102
RTVSPropertyOp19
 70
     0
102
RTVSPropertyOp20
 70
     0
102
RTVSPropertyOp21
 70
     0
102
RTVSPropertyOp22
 70
     0
102
RTVSPropertyOp23
 70
     0
102
RTVSPropertyOp24
 70
     0
102
RTVSPropertyOp25
 70
     0
102
RTVSPropertyOp26
 70
     0
102
RTVSPropertyOp27
 70
     0
102
RTVSPropertyOp28
 70
     0
102
RTVSPropertyOp29
 70
     0
102
RTVSPropertyOp30
 70
     0
102
RTVSPropertyOp31
 70
     0
102
RTVSPropertyOp32
 70
     0
102
RTVSPropertyOp33
 70
     0
102
RTVSPropertyOp34
 70
     0
102
RTVSPropertyOp35
 70
     0
102
RTVSPropertyOp36
 70
     0
102
RTVSPropertyOp37
 70
     0
102
RTVSPropertyOp38
 70
     0
102
RTVSPropertyOp39
 70
     0
102
RTVSPropertyOp40
 70
     0
102
RTVSPropertyOp41
 70
     0
102
RTVSPropertyOp42
 70
     0
102
RTVSPropertyOp43
 70
     0
102
RTVSPropertyOp44
 70
     0
102
RTVSPropertyOp45
 70
     0
102
RTVSPropertyOp46
 70
     0
102
RTVSPropertyOp47
 70
     0
102
RTVSPropertyOp48
 70
     0
102
RTVSPropertyOp49
 70
     0
102
RTVSPropertyOp50
 70
     0
102
RTVSPropertyOp51
 70
     0
102
RTVSPropertyOp52
 70
     0
102
RTVSPropertyOp53
 70
     0
102
RTVSPropertyOp54
 70
     0
102
RTVSPropertyOp55
 70
     0
102
RTVSPropertyOp56
 70
     0
102
RTVSPropertyOp57
 70
     0
102
RTVSPost2010Prop28
280
     0
102
RTVSPost2010PropOp28
 70
     0
102
RTVSPost2010Prop29
280
     1
102
RTVSPost2010PropOp29
 70
     0
102
RTVSPost2010Prop30
280
     1
102
RTVSPost2010PropOp30
 70
     0
102
RTVSPost2010Prop31
280
     0
102
RTVSPost2010PropOp31
 70
     0
102
RTVSPost2010Prop32
280
     0
102
RTVSPost2010PropOp32
 70
     0
102
RTVSPost2010Prop33
280
     0
102
RTVSPost2010PropOp33
 70
     0
102
RTVSPost2010Prop34
280
     0
102
RTVSPost2010PropOp34
 70
     0
102
RTVSPost2010Prop35
280
     0
102
RTVSPost2010PropOp35
 70
     0
102
RTVSPost2010Prop36
280
     0
102
RTVSPost2010PropOp36
 70
     0
102
RTVSPost2010Prop37
 90
       50
102
RTVSPost2010PropOp37
 70
     0
102
RTVSPost2010Prop38
140
0.0
102
RTVSPost2010PropOp38
 70
     0
102
RTVSPost2010Prop39
140
1.0
102
RTVSPost2010PropOp39
 70
     0
102
RTVSPost2010Prop40
 90
        0
102
RTVSPost2010PropOp40
 70
     0
102
RTVSPost2010Prop41ColorIndex
 90
       18
102
RTVSPost2010Prop41ColorRGB
 90
        0
102
RTVSPost2010PropOp41
 70
     0
102
RTVSPost2010Prop42
 90
       50
102
RTVSPost2010PropOp42
 70
     0
102
RTVSPost2010Prop43
 90
        3
102
RTVSPost2010PropOp43
 70
     0
102
RTVSPost2010Prop44ColorIndex
 90
        5
102
RTVSPost2010Prop44ColorRGB
 90
      255
102
RTVSPost2010PropOp44
 70
     0
102
RTVSPost2010Prop45
280
     0
102
RTVSPost2010PropOp45
 70
     0
102
RTVSPost2010Prop46
 90
       50
102
RTVSPost2010PropOp46
 70
     0
102
RTVSPost2010Prop47
 90
       50
102
RTVSPost2010PropOp47
 70
     0
102
RTVSPost2010Prop48
 90
       50
102
RTVSPost2010PropOp48
 70
     0
102
RTVSPost2010Prop49
280
     0
102
RTVSPost2010PropOp49
 70
     0
102
RTVSPost2010Prop50
 90
       50
102
RTVSPost2010PropOp50
 70
     0
102
RTVSPost2010Prop51ColorIndex
 90
      256
102
RTVSPost2010Prop51ColorRGB
 90
-16777216
102
RTVSPost2010PropOp51
 70
     0
102
RTVSPost2010Prop52
140
1.0
102
RTVSPost2010PropOp52
 70
     0
102
RTVSPost2010Prop53
 90
        2
102
RTVSPost2010PropOp53
 70
     0
102
RTVSPost2010Prop54
  1
strokes_ogs.tif
102
RTVSPost2010PropOp54
 70
     0
102
RTVSPost2010Prop55
280
     0
102
RTVSPost2010PropOp55
 70
     0
102
RTVSPost2010Prop56
140
1.0
102
RTVSPost2010PropOp56
 70
     0
102
RTVSPost2010Prop57
140
1.0
102
RTVSPost2010PropOp57
 70
     0
  0
XRECORD
  5
4D0
102
{ACAD_REACTORS
330
4CF
102
}
330
4CF
100
AcDbXrecord
280
     1
102
RTVSPropertyOp0
 70
     1
102
RTVSPropertyOp1
 70
     1
102
RTVSPropertyOp2
 70
     1
102
RTVSPropertyOp3
 70
     1
102
RTVSPropertyOp4
 70
     1
102
RTVSPropertyOp5
 70
     1
102
RTVSPropertyOp6
 70
     1
102
RTVSPropertyOp7
 70
     1
102
RTVSPropertyOp8
 70
     1
102
RTVSPropertyOp9
 70
     1
102
RTVSPropertyOp10
 70
     1
102
RTVSPropertyOp11
 70
     1
102
RTVSPropertyOp12
 70
     1
102
RTVSPropertyOp13
 70
     1
102
RTVSPropertyOp14
 70
     1
102
RTVSPropertyOp15
 70
     1
102
RTVSPropertyOp16
 70
     1
102
RTVSPropertyOp17
 70
     1
102
RTVSPropertyOp18
 70
     1
102
RTVSPropertyOp19
 70
     1
102
RTVSPropertyOp20
 70
     1
102
RTVSPropertyOp21
 70
     1
102
RTVSPropertyOp22
 70
     1
102
RTVSPropertyOp23
 70
     1
102
RTVSPropertyOp24
 70
     1
102
RTVSPropertyOp25
 70
     1
102
RTVSPropertyOp26
 70
     1
102
RTVSPropertyOp27
 70
     1
102
RTVSPropertyOp28
 70
     1
102
RTVSPropertyOp29
 70
     1
102
RTVSPropertyOp30
 70
     1
102
RTVSPropertyOp31
 70
     1
102
RTVSPropertyOp32
 70
     1
102
RTVSPropertyOp33
 70
     1
102
RTVSPropertyOp34
 70
     1
102
RTVSPropertyOp35
 70
     1
102
RTVSPropertyOp36
 70
     1
102
RTVSPropertyOp37
 70
     1
102
RTVSPropertyOp38
 70
     1
102
RTVSPropertyOp39
 70
     1
102
RTVSPropertyOp40
 70
     1
102
RTVSPropertyOp41
 70
     1
102
RTVSPropertyOp42
 70
     1
102
RTVSPropertyOp43
 70
     1
102
RTVSPropertyOp44
 70
     1
102
RTVSPropertyOp45
 70
     1
102
RTVSPropertyOp46
 70
     1
102
RTVSPropertyOp47
 70
     1
102
RTVSPropertyOp48
 70
     1
102
RTVSPropertyOp49
 70
     1
102
RTVSPropertyOp50
 70
     1
102
RTVSPropertyOp51
 70
     0
102
RTVSPropertyOp52
 70
     0
102
RTVSPropertyOp53
 70
     1
102
RTVSPropertyOp54
 70
     1
102
RTVSPropertyOp55
 70
     1
102
RTVSPropertyOp56
 70
     1
102
RTVSPropertyOp57
 70
     1
102
RTVSPost2010Prop28
280
     0
102
RTVSPost2010PropOp28
 70
     1
102
RTVSPost2010Prop29
280
     1
102
RTVSPost2010PropOp29
 70
     1
102
RTVSPost2010Prop30
280
     1
102
RTVSPost2010PropOp30
 70
     1
102
RTVSPost2010Prop31
280
     0
102
RTVSPost2010PropOp31
 70
     1
102
RTVSPost2010Prop32
280
     0
102
RTVSPost2010PropOp32
 70
     1
102
RTVSPost2010Prop33
280
     0
102
RTVSPost2010PropOp33
 70
     1
102
RTVSPost2010Prop34
280
     0
102
RTVSPost2010PropOp34
 70
     1
102
RTVSPost2010Prop35
280
     0
102
RTVSPost2010PropOp35
 70
     1
102
RTVSPost2010Prop36
280
     0
102
RTVSPost2010PropOp36
 70
     1
102
RTVSPost2010Prop37
 90
       50
102
RTVSPost2010PropOp37
 70
     1
102
RTVSPost2010Prop38
140
0.0
102
RTVSPost2010PropOp38
 70
     1
102
RTVSPost2010Prop39
140
1.0
102
RTVSPost2010PropOp39
 70
     1
102
RTVSPost2010Prop40
 90
        0
102
RTVSPost2010PropOp40
 70
     1
102
RTVSPost2010Prop41ColorIndex
 90
       18
102
RTVSPost2010Prop41ColorRGB
 90
        0
102
RTVSPost2010PropOp41
 70
     1
102
RTVSPost2010Prop42
 90
       50
102
RTVSPost2010PropOp42
 70
     1
102
RTVSPost2010Prop43
 90
        3
102
RTVSPost2010PropOp43
 70
     1
102
RTVSPost2010Prop44ColorIndex
 90
        5
102
RTVSPost2010Prop44ColorRGB
 90
      255
102
RTVSPost2010PropOp44
 70
     1
102
RTVSPost2010Prop45
280
     0
102
RTVSPost2010PropOp45
 70
     1
102
RTVSPost2010Prop46
 90
       50
102
RTVSPost2010PropOp46
 70
     1
102
RTVSPost2010Prop47
 90
       50
102
RTVSPost2010PropOp47
 70
     1
102
RTVSPost2010Prop48
 90
       50
102
RTVSPost2010PropOp48
 70
     1
102
RTVSPost2010Prop49
280
     0
102
RTVSPost2010PropOp49
 70
     1
102
RTVSPost2010Prop50
 90
       50
102
RTVSPost2010PropOp50
 70
     1
102
RTVSPost2010Prop51ColorIndex
 90
      256
102
RTVSPost2010Prop51ColorRGB
 90
-16777216
102
RTVSPost2010PropOp51
 70
     0
102
RTVSPost2010Prop52
140
1.0
102
RTVSPost2010PropOp52
 70
     0
102
RTVSPost2010Prop53
 90
        2
102
RTVSPost2010PropOp53
 70
     1
102
RTVSPost2010Prop54
  1
strokes_ogs.tif
102
RTVSPost2010PropOp54
 70
     1
102
RTVSPost2010Prop55
280
     0
102
RTVSPost2010PropOp55
 70
     1
102
RTVSPost2010Prop56
140
1.0
102
RTVSPost2010PropOp56
 70
     1
102
RTVSPost2010Prop57
140
1.0
102
RTVSPost2010PropOp57
 70
     1
  0
XRECORD
  5
4B4
102
{ACAD_REACTORS
330
4B3
102
}
330
4B3
100
AcDbXrecord
280
     1
102
RTVSPropertyOp0
 70
     1
102
RTVSPropertyOp1
 70
     1
102
RTVSPropertyOp2
 70
     1
102
RTVSPropertyOp3
 70
     1
102
RTVSPropertyOp4
 70
     1
102
RTVSPropertyOp5
 70
     1
102
RTVSPropertyOp6
 70
     1
102
RTVSPropertyOp7
 70
     1
102
RTVSPropertyOp8
 70
     1
102
RTVSPropertyOp9
 70
     1
102
RTVSPropertyOp10
 70
     1
102
RTVSPropertyOp11
 70
     1
102
RTVSPropertyOp12
 70
     1
102
RTVSPropertyOp13
 70
     1
102
RTVSPropertyOp14
 70
     1
102
RTVSPropertyOp15
 70
     1
102
RTVSPropertyOp16
 70
     1
102
RTVSPropertyOp17
 70
     1
102
RTVSPropertyOp18
 70
     1
102
RTVSPropertyOp19
 70
     1
102
RTVSPropertyOp20
 70
     1
102
RTVSPropertyOp21
 70
     1
102
RTVSPropertyOp22
 70
     1
102
RTVSPropertyOp23
 70
     1
102
RTVSPropertyOp24
 70
     1
102
RTVSPropertyOp25
 70
     1
102
RTVSPropertyOp26
 70
     1
102
RTVSPropertyOp27
 70
     1
102
RTVSPropertyOp28
 70
     1
102
RTVSPropertyOp29
 70
     1
102
RTVSPropertyOp30
 70
     1
102
RTVSPropertyOp31
 70
     1
102
RTVSPropertyOp32
 70
     1
102
RTVSPropertyOp33
 70
     1
102
RTVSPropertyOp34
 70
     1
102
RTVSPropertyOp35
 70
     1
102
RTVSPropertyOp36
 70
     1
102
RTVSPropertyOp37
 70
     1
102
RTVSPropertyOp38
 70
     1
102
RTVSPropertyOp39
 70
     1
102
RTVSPropertyOp40
 70
     1
102
RTVSPropertyOp41
 70
     1
102
RTVSPropertyOp42
 70
     1
102
RTVSPropertyOp43
 70
     1
102
RTVSPropertyOp44
 70
     1
102
RTVSPropertyOp45
 70
     1
102
RTVSPropertyOp46
 70
     1
102
RTVSPropertyOp47
 70
     1
102
RTVSPropertyOp48
 70
     1
102
RTVSPropertyOp49
 70
     1
102
RTVSPropertyOp50
 70
     1
102
RTVSPropertyOp51
 70
     0
102
RTVSPropertyOp52
 70
     0
102
RTVSPropertyOp53
 70
     1
102
RTVSPropertyOp54
 70
     1
102
RTVSPropertyOp55
 70
     1
102
RTVSPropertyOp56
 70
     1
102
RTVSPropertyOp57
 70
     1
102
RTVSPost2010Prop28
280
     0
102
RTVSPost2010PropOp28
 70
     1
102
RTVSPost2010Prop29
280
     1
102
RTVSPost2010PropOp29
 70
     1
102
RTVSPost2010Prop30
280
     1
102
RTVSPost2010PropOp30
 70
     1
102
RTVSPost2010Prop31
280
     0
102
RTVSPost2010PropOp31
 70
     1
102
RTVSPost2010Prop32
280
     0
102
RTVSPost2010PropOp32
 70
     1
102
RTVSPost2010Prop33
280
     0
102
RTVSPost2010PropOp33
 70
     1
102
RTVSPost2010Prop34
280
     0
102
RTVSPost2010PropOp34
 70
     1
102
RTVSPost2010Prop35
280
     0
102
RTVSPost2010PropOp35
 70
     1
102
RTVSPost2010Prop36
280
     0
102
RTVSPost2010PropOp36
 70
     1
102
RTVSPost2010Prop37
 90
       50
102
RTVSPost2010PropOp37
 70
     1
102
RTVSPost2010Prop38
140
0.0
102
RTVSPost2010PropOp38
 70
     1
102
RTVSPost2010Prop39
140
1.0
102
RTVSPost2010PropOp39
 70
     1
102
RTVSPost2010Prop40
 90
        0
102
RTVSPost2010PropOp40
 70
     1
102
RTVSPost2010Prop41ColorIndex
 90
       18
102
RTVSPost2010Prop41ColorRGB
 90
        0
102
RTVSPost2010PropOp41
 70
     1
102
RTVSPost2010Prop42
 90
       50
102
RTVSPost2010PropOp42
 70
     1
102
RTVSPost2010Prop43
 90
        3
102
RTVSPost2010PropOp43
 70
     1
102
RTVSPost2010Prop44ColorIndex
 90
        5
102
RTVSPost2010Prop44ColorRGB
 90
      255
102
RTVSPost2010PropOp44
 70
     1
102
RTVSPost2010Prop45
280
     0
102
RTVSPost2010PropOp45
 70
     1
102
RTVSPost2010Prop46
 90
       50
102
RTVSPost2010PropOp46
 70
     1
102
RTVSPost2010Prop47
 90
       50
102
RTVSPost2010PropOp47
 70
     1
102
RTVSPost2010Prop48
 90
       50
102
RTVSPost2010PropOp48
 70
     1
102
RTVSPost2010Prop49
280
     0
102
RTVSPost2010PropOp49
 70
     1
102
RTVSPost2010Prop50
 90
       50
102
RTVSPost2010PropOp50
 70
     1
102
RTVSPost2010Prop51ColorIndex
 90
      256
102
RTVSPost2010Prop51ColorRGB
 90
-16777216
102
RTVSPost2010PropOp51
 70
     0
102
RTVSPost2010Prop52
140
1.0
102
RTVSPost2010PropOp52
 70
     0
102
RTVSPost2010Prop53
 90
        2
102
RTVSPost2010PropOp53
 70
     1
102
RTVSPost2010Prop54
  1
strokes_ogs.tif
102
RTVSPost2010PropOp54
 70
     1
102
RTVSPost2010Prop55
280
     0
102
RTVSPost2010PropOp55
 70
     1
102
RTVSPost2010Prop56
140
1.0
102
RTVSPost2010PropOp56
 70
     1
102
RTVSPost2010Prop57
140
1.0
102
RTVSPost2010PropOp57
 70
     1
  0
XRECORD
  5
4B6
102
{ACAD_REACTORS
330
4B5
102
}
330
4B5
100
AcDbXrecord
280
     1
102
RTVSPropertyOp0
 70
     1
102
RTVSPropertyOp1
 70
     1
102
RTVSPropertyOp2
 70
     1
102
RTVSPropertyOp3
 70
     1
102
RTVSPropertyOp4
 70
     1
102
RTVSPropertyOp5
 70
     1
102
RTVSPropertyOp6
 70
     1
102
RTVSPropertyOp7
 70
     1
102
RTVSPropertyOp8
 70
     1
102
RTVSPropertyOp9
 70
     1
102
RTVSPropertyOp10
 70
     1
102
RTVSPropertyOp11
 70
     1
102
RTVSPropertyOp12
 70
     1
102
RTVSPropertyOp13
 70
     1
102
RTVSPropertyOp14
 70
     1
102
RTVSPropertyOp15
 70
     1
102
RTVSPropertyOp16
 70
     1
102
RTVSPropertyOp17
 70
     1
102
RTVSPropertyOp18
 70
     1
102
RTVSPropertyOp19
 70
     1
102
RTVSPropertyOp20
 70
     1
102
RTVSPropertyOp21
 70
     1
102
RTVSPropertyOp22
 70
     1
102
RTVSPropertyOp23
 70
     1
102
RTVSPropertyOp24
 70
     1
102
RTVSPropertyOp25
 70
     1
102
RTVSPropertyOp26
 70
     1
102
RTVSPropertyOp27
 70
     1
102
RTVSPropertyOp28
 70
     1
102
RTVSPropertyOp29
 70
     1
102
RTVSPropertyOp30
 70
     1
102
RTVSPropertyOp31
 70
     1
102
RTVSPropertyOp32
 70
     1
102
RTVSPropertyOp33
 70
     1
102
RTVSPropertyOp34
 70
     1
102
RTVSPropertyOp35
 70
     1
102
RTVSPropertyOp36
 70
     1
102
RTVSPropertyOp37
 70
     1
102
RTVSPropertyOp38
 70
     1
102
RTVSPropertyOp39
 70
     1
102
RTVSPropertyOp40
 70
     1
102
RTVSPropertyOp41
 70
     1
102
RTVSPropertyOp42
 70
     1
102
RTVSPropertyOp43
 70
     1
102
RTVSPropertyOp44
 70
     1
102
RTVSPropertyOp45
 70
     1
102
RTVSPropertyOp46
 70
     1
102
RTVSPropertyOp47
 70
     1
102
RTVSPropertyOp48
 70
     1
102
RTVSPropertyOp49
 70
     1
102
RTVSPropertyOp50
 70
     1
102
RTVSPropertyOp51
 70
     0
102
RTVSPropertyOp52
 70
     0
102
RTVSPropertyOp53
 70
     1
102
RTVSPropertyOp54
 70
     1
102
RTVSPropertyOp55
 70
     1
102
RTVSPropertyOp56
 70
     1
102
RTVSPropertyOp57
 70
     1
102
RTVSPost2010Prop28
280
     0
102
RTVSPost2010PropOp28
 70
     1
102
RTVSPost2010Prop29
280
     1
102
RTVSPost2010PropOp29
 70
     1
102
RTVSPost2010Prop30
280
     1
102
RTVSPost2010PropOp30
 70
     1
102
RTVSPost2010Prop31
280
     0
102
RTVSPost2010PropOp31
 70
     1
102
RTVSPost2010Prop32
280
     0
102
RTVSPost2010PropOp32
 70
     1
102
RTVSPost2010Prop33
280
     0
102
RTVSPost2010PropOp33
 70
     1
102
RTVSPost2010Prop34
280
     0
102
RTVSPost2010PropOp34
 70
     1
102
RTVSPost2010Prop35
280
     0
102
RTVSPost2010PropOp35
 70
     1
102
RTVSPost2010Prop36
280
     0
102
RTVSPost2010PropOp36
 70
     1
102
RTVSPost2010Prop37
 90
       50
102
RTVSPost2010PropOp37
 70
     1
102
RTVSPost2010Prop38
140
0.0
102
RTVSPost2010PropOp38
 70
     1
102
RTVSPost2010Prop39
140
1.0
102
RTVSPost2010PropOp39
 70
     1
102
RTVSPost2010Prop40
 90
        0
102
RTVSPost2010PropOp40
 70
     1
102
RTVSPost2010Prop41ColorIndex
 90
       18
102
RTVSPost2010Prop41ColorRGB
 90
        0
102
RTVSPost2010PropOp41
 70
     1
102
RTVSPost2010Prop42
 90
       50
102
RTVSPost2010PropOp42
 70
     1
102
RTVSPost2010Prop43
 90
        3
102
RTVSPost2010PropOp43
 70
     1
102
RTVSPost2010Prop44ColorIndex
 90
        5
102
RTVSPost2010Prop44ColorRGB
 90
      255
102
RTVSPost2010PropOp44
 70
     1
102
RTVSPost2010Prop45
280
     0
102
RTVSPost2010PropOp45
 70
     1
102
RTVSPost2010Prop46
 90
       50
102
RTVSPost2010PropOp46
 70
     1
102
RTVSPost2010Prop47
 90
       50
102
RTVSPost2010PropOp47
 70
     1
102
RTVSPost2010Prop48
 90
       50
102
RTVSPost2010PropOp48
 70
     1
102
RTVSPost2010Prop49
280
     0
102
RTVSPost2010PropOp49
 70
     1
102
RTVSPost2010Prop50
 90
       50
102
RTVSPost2010PropOp50
 70
     1
102
RTVSPost2010Prop51ColorIndex
 90
      256
102
RTVSPost2010Prop51ColorRGB
 90
-16777216
102
RTVSPost2010PropOp51
 70
     0
102
RTVSPost2010Prop52
140
1.0
102
RTVSPost2010PropOp52
 70
     0
102
RTVSPost2010Prop53
 90
        2
102
RTVSPost2010PropOp53
 70
     1
102
RTVSPost2010Prop54
  1
strokes_ogs.tif
102
RTVSPost2010PropOp54
 70
     1
102
RTVSPost2010Prop55
280
     0
102
RTVSPost2010PropOp55
 70
     1
102
RTVSPost2010Prop56
140
1.0
102
RTVSPost2010PropOp56
 70
     1
102
RTVSPost2010Prop57
140
1.0
102
RTVSPost2010PropOp57
 70
     1
  0
XRECORD
  5
4B8
102
{ACAD_REACTORS
330
4B7
102
}
330
4B7
100
AcDbXrecord
280
     1
102
RTVSPropertyOp0
 70
     1
102
RTVSPropertyOp1
 70
     1
102
RTVSPropertyOp2
 70
     1
102
RTVSPropertyOp3
 70
     1
102
RTVSPropertyOp4
 70
     1
102
RTVSPropertyOp5
 70
     1
102
RTVSPropertyOp6
 70
     1
102
RTVSPropertyOp7
 70
     1
102
RTVSPropertyOp8
 70
     1
102
RTVSPropertyOp9
 70
     1
102
RTVSPropertyOp10
 70
     1
102
RTVSPropertyOp11
 70
     1
102
RTVSPropertyOp12
 70
     1
102
RTVSPropertyOp13
 70
     1
102
RTVSPropertyOp14
 70
     1
102
RTVSPropertyOp15
 70
     1
102
RTVSPropertyOp16
 70
     1
102
RTVSPropertyOp17
 70
     1
102
RTVSPropertyOp18
 70
     1
102
RTVSPropertyOp19
 70
     1
102
RTVSPropertyOp20
 70
     1
102
RTVSPropertyOp21
 70
     1
102
RTVSPropertyOp22
 70
     1
102
RTVSPropertyOp23
 70
     1
102
RTVSPropertyOp24
 70
     1
102
RTVSPropertyOp25
 70
     1
102
RTVSPropertyOp26
 70
     1
102
RTVSPropertyOp27
 70
     1
102
RTVSPropertyOp28
 70
     1
102
RTVSPropertyOp29
 70
     1
102
RTVSPropertyOp30
 70
     1
102
RTVSPropertyOp31
 70
     1
102
RTVSPropertyOp32
 70
     1
102
RTVSPropertyOp33
 70
     1
102
RTVSPropertyOp34
 70
     1
102
RTVSPropertyOp35
 70
     1
102
RTVSPropertyOp36
 70
     1
102
RTVSPropertyOp37
 70
     1
102
RTVSPropertyOp38
 70
     1
102
RTVSPropertyOp39
 70
     1
102
RTVSPropertyOp40
 70
     1
102
RTVSPropertyOp41
 70
     1
102
RTVSPropertyOp42
 70
     1
102
RTVSPropertyOp43
 70
     1
102
RTVSPropertyOp44
 70
     1
102
RTVSPropertyOp45
 70
     1
102
RTVSPropertyOp46
 70
     1
102
RTVSPropertyOp47
 70
     1
102
RTVSPropertyOp48
 70
     1
102
RTVSPropertyOp49
 70
     1
102
RTVSPropertyOp50
 70
     1
102
RTVSPropertyOp51
 70
     0
102
RTVSPropertyOp52
 70
     0
102
RTVSPropertyOp53
 70
     1
102
RTVSPropertyOp54
 70
     1
102
RTVSPropertyOp55
 70
     1
102
RTVSPropertyOp56
 70
     1
102
RTVSPropertyOp57
 70
     1
102
RTVSPost2010Prop28
280
     0
102
RTVSPost2010PropOp28
 70
     1
102
RTVSPost2010Prop29
280
     1
102
RTVSPost2010PropOp29
 70
     1
102
RTVSPost2010Prop30
280
     1
102
RTVSPost2010PropOp30
 70
     1
102
RTVSPost2010Prop31
280
     0
102
RTVSPost2010PropOp31
 70
     1
102
RTVSPost2010Prop32
280
     0
102
RTVSPost2010PropOp32
 70
     1
102
RTVSPost2010Prop33
280
     0
102
RTVSPost2010PropOp33
 70
     1
102
RTVSPost2010Prop34
280
     0
102
RTVSPost2010PropOp34
 70
     1
102
RTVSPost2010Prop35
280
     0
102
RTVSPost2010PropOp35
 70
     1
102
RTVSPost2010Prop36
280
     0
102
RTVSPost2010PropOp36
 70
     1
102
RTVSPost2010Prop37
 90
       50
102
RTVSPost2010PropOp37
 70
     1
102
RTVSPost2010Prop38
140
0.0
102
RTVSPost2010PropOp38
 70
     1
102
RTVSPost2010Prop39
140
1.0
102
RTVSPost2010PropOp39
 70
     1
102
RTVSPost2010Prop40
 90
        0
102
RTVSPost2010PropOp40
 70
     1
102
RTVSPost2010Prop41ColorIndex
 90
       18
102
RTVSPost2010Prop41ColorRGB
 90
        0
102
RTVSPost2010PropOp41
 70
     1
102
RTVSPost2010Prop42
 90
       50
102
RTVSPost2010PropOp42
 70
     1
102
RTVSPost2010Prop43
 90
        3
102
RTVSPost2010PropOp43
 70
     1
102
RTVSPost2010Prop44ColorIndex
 90
        5
102
RTVSPost2010Prop44ColorRGB
 90
      255
102
RTVSPost2010PropOp44
 70
     1
102
RTVSPost2010Prop45
280
     0
102
RTVSPost2010PropOp45
 70
     1
102
RTVSPost2010Prop46
 90
       50
102
RTVSPost2010PropOp46
 70
     1
102
RTVSPost2010Prop47
 90
       50
102
RTVSPost2010PropOp47
 70
     1
102
RTVSPost2010Prop48
 90
       50
102
RTVSPost2010PropOp48
 70
     1
102
RTVSPost2010Prop49
280
     0
102
RTVSPost2010PropOp49
 70
     1
102
RTVSPost2010Prop50
 90
       50
102
RTVSPost2010PropOp50
 70
     1
102
RTVSPost2010Prop51ColorIndex
 90
      256
102
RTVSPost2010Prop51ColorRGB
 90
-16777216
102
RTVSPost2010PropOp51
 70
     0
102
RTVSPost2010Prop52
140
1.0
102
RTVSPost2010PropOp52
 70
     0
102
RTVSPost2010Prop53
 90
        2
102
RTVSPost2010PropOp53
 70
     1
102
RTVSPost2010Prop54
  1
strokes_ogs.tif
102
RTVSPost2010PropOp54
 70
     1
102
RTVSPost2010Prop55
280
     0
102
RTVSPost2010PropOp55
 70
     1
102
RTVSPost2010Prop56
140
1.0
102
RTVSPost2010PropOp56
 70
     1
102
RTVSPost2010Prop57
140
1.0
102
RTVSPost2010PropOp57
 70
     1
  0
XRECORD
  5
4BA
102
{ACAD_REACTORS
330
4B9
102
}
330
4B9
100
AcDbXrecord
280
     1
102
RTVSPropertyOp0
 70
     1
102
RTVSPropertyOp1
 70
     1
102
RTVSPropertyOp2
 70
     1
102
RTVSPropertyOp3
 70
     1
102
RTVSPropertyOp4
 70
     1
102
RTVSPropertyOp5
 70
     1
102
RTVSPropertyOp6
 70
     1
102
RTVSPropertyOp7
 70
     1
102
RTVSPropertyOp8
 70
     1
102
RTVSPropertyOp9
 70
     1
102
RTVSPropertyOp10
 70
     1
102
RTVSPropertyOp11
 70
     1
102
RTVSPropertyOp12
 70
     1
102
RTVSPropertyOp13
 70
     1
102
RTVSPropertyOp14
 70
     1
102
RTVSPropertyOp15
 70
     1
102
RTVSPropertyOp16
 70
     1
102
RTVSPropertyOp17
 70
     1
102
RTVSPropertyOp18
 70
     1
102
RTVSPropertyOp19
 70
     1
102
RTVSPropertyOp20
 70
     1
102
RTVSPropertyOp21
 70
     1
102
RTVSPropertyOp22
 70
     1
102
RTVSPropertyOp23
 70
     1
102
RTVSPropertyOp24
 70
     1
102
RTVSPropertyOp25
 70
     1
102
RTVSPropertyOp26
 70
     1
102
RTVSPropertyOp27
 70
     1
102
RTVSPropertyOp28
 70
     1
102
RTVSPropertyOp29
 70
     1
102
RTVSPropertyOp30
 70
     1
102
RTVSPropertyOp31
 70
     1
102
RTVSPropertyOp32
 70
     1
102
RTVSPropertyOp33
 70
     1
102
RTVSPropertyOp34
 70
     1
102
RTVSPropertyOp35
 70
     1
102
RTVSPropertyOp36
 70
     1
102
RTVSPropertyOp37
 70
     1
102
RTVSPropertyOp38
 70
     1
102
RTVSPropertyOp39
 70
     1
102
RTVSPropertyOp40
 70
     1
102
RTVSPropertyOp41
 70
     1
102
RTVSPropertyOp42
 70
     1
102
RTVSPropertyOp43
 70
     1
102
RTVSPropertyOp44
 70
     1
102
RTVSPropertyOp45
 70
     1
102
RTVSPropertyOp46
 70
     1
102
RTVSPropertyOp47
 70
     1
102
RTVSPropertyOp48
 70
     1
102
RTVSPropertyOp49
 70
     1
102
RTVSPropertyOp50
 70
     1
102
RTVSPropertyOp51
 70
     0
102
RTVSPropertyOp52
 70
     0
102
RTVSPropertyOp53
 70
     1
102
RTVSPropertyOp54
 70
     1
102
RTVSPropertyOp55
 70
     1
102
RTVSPropertyOp56
 70
     1
102
RTVSPropertyOp57
 70
     1
102
RTVSPost2010Prop28
280
     0
102
RTVSPost2010PropOp28
 70
     1
102
RTVSPost2010Prop29
280
     1
102
RTVSPost2010PropOp29
 70
     1
102
RTVSPost2010Prop30
280
     1
102
RTVSPost2010PropOp30
 70
     1
102
RTVSPost2010Prop31
280
     0
102
RTVSPost2010PropOp31
 70
     1
102
RTVSPost2010Prop32
280
     0
102
RTVSPost2010PropOp32
 70
     1
102
RTVSPost2010Prop33
280
     0
102
RTVSPost2010PropOp33
 70
     1
102
RTVSPost2010Prop34
280
     0
102
RTVSPost2010PropOp34
 70
     1
102
RTVSPost2010Prop35
280
     0
102
RTVSPost2010PropOp35
 70
     1
102
RTVSPost2010Prop36
280
     0
102
RTVSPost2010PropOp36
 70
     1
102
RTVSPost2010Prop37
 90
       50
102
RTVSPost2010PropOp37
 70
     1
102
RTVSPost2010Prop38
140
0.0
102
RTVSPost2010PropOp38
 70
     1
102
RTVSPost2010Prop39
140
1.0
102
RTVSPost2010PropOp39
 70
     1
102
RTVSPost2010Prop40
 90
        0
102
RTVSPost2010PropOp40
 70
     1
102
RTVSPost2010Prop41ColorIndex
 90
       18
102
RTVSPost2010Prop41ColorRGB
 90
        0
102
RTVSPost2010PropOp41
 70
     1
102
RTVSPost2010Prop42
 90
       50
102
RTVSPost2010PropOp42
 70
     1
102
RTVSPost2010Prop43
 90
        3
102
RTVSPost2010PropOp43
 70
     1
102
RTVSPost2010Prop44ColorIndex
 90
        5
102
RTVSPost2010Prop44ColorRGB
 90
      255
102
RTVSPost2010PropOp44
 70
     1
102
RTVSPost2010Prop45
280
     0
102
RTVSPost2010PropOp45
 70
     1
102
RTVSPost2010Prop46
 90
       50
102
RTVSPost2010PropOp46
 70
     1
102
RTVSPost2010Prop47
 90
       50
102
RTVSPost2010PropOp47
 70
     1
102
RTVSPost2010Prop48
 90
       50
102
RTVSPost2010PropOp48
 70
     1
102
RTVSPost2010Prop49
280
     0
102
RTVSPost2010PropOp49
 70
     1
102
RTVSPost2010Prop50
 90
       50
102
RTVSPost2010PropOp50
 70
     1
102
RTVSPost2010Prop51ColorIndex
 90
      256
102
RTVSPost2010Prop51ColorRGB
 90
-16777216
102
RTVSPost2010PropOp51
 70
     0
102
RTVSPost2010Prop52
140
1.0
102
RTVSPost2010PropOp52
 70
     0
102
RTVSPost2010Prop53
 90
        2
102
RTVSPost2010PropOp53
 70
     1
102
RTVSPost2010Prop54
  1
strokes_ogs.tif
102
RTVSPost2010PropOp54
 70
     1
102
RTVSPost2010Prop55
280
     0
102
RTVSPost2010PropOp55
 70
     1
102
RTVSPost2010Prop56
140
1.0
102
RTVSPost2010PropOp56
 70
     1
102
RTVSPost2010Prop57
140
1.0
102
RTVSPost2010PropOp57
 70
     1
  0
XRECORD
  5
4D6
102
{ACAD_REACTORS
330
4D5
102
}
330
4D5
100
AcDbXrecord
280
     1
102
RTVSPropertyOp0
 70
     1
102
RTVSPropertyOp1
 70
     1
102
RTVSPropertyOp2
 70
     1
102
RTVSPropertyOp3
 70
     1
102
RTVSPropertyOp4
 70
     1
102
RTVSPropertyOp5
 70
     1
102
RTVSPropertyOp6
 70
     1
102
RTVSPropertyOp7
 70
     1
102
RTVSPropertyOp8
 70
     1
102
RTVSPropertyOp9
 70
     1
102
RTVSPropertyOp10
 70
     1
102
RTVSPropertyOp11
 70
     1
102
RTVSPropertyOp12
 70
     1
102
RTVSPropertyOp13
 70
     1
102
RTVSPropertyOp14
 70
     1
102
RTVSPropertyOp15
 70
     1
102
RTVSPropertyOp16
 70
     1
102
RTVSPropertyOp17
 70
     1
102
RTVSPropertyOp18
 70
     1
102
RTVSPropertyOp19
 70
     1
102
RTVSPropertyOp20
 70
     1
102
RTVSPropertyOp21
 70
     1
102
RTVSPropertyOp22
 70
     1
102
RTVSPropertyOp23
 70
     1
102
RTVSPropertyOp24
 70
     1
102
RTVSPropertyOp25
 70
     1
102
RTVSPropertyOp26
 70
     1
102
RTVSPropertyOp27
 70
     1
102
RTVSPropertyOp28
 70
     1
102
RTVSPropertyOp29
 70
     1
102
RTVSPropertyOp30
 70
     1
102
RTVSPropertyOp31
 70
     1
102
RTVSPropertyOp32
 70
     1
102
RTVSPropertyOp33
 70
     1
102
RTVSPropertyOp34
 70
     1
102
RTVSPropertyOp35
 70
     1
102
RTVSPropertyOp36
 70
     1
102
RTVSPropertyOp37
 70
     1
102
RTVSPropertyOp38
 70
     1
102
RTVSPropertyOp39
 70
     1
102
RTVSPropertyOp40
 70
     1
102
RTVSPropertyOp41
 70
     1
102
RTVSPropertyOp42
 70
     1
102
RTVSPropertyOp43
 70
     1
102
RTVSPropertyOp44
 70
     1
102
RTVSPropertyOp45
 70
     1
102
RTVSPropertyOp46
 70
     1
102
RTVSPropertyOp47
 70
     1
102
RTVSPropertyOp48
 70
     1
102
RTVSPropertyOp49
 70
     1
102
RTVSPropertyOp50
 70
     1
102
RTVSPropertyOp51
 70
     0
102
RTVSPropertyOp52
 70
     0
102
RTVSPropertyOp53
 70
     1
102
RTVSPropertyOp54
 70
     1
102
RTVSPropertyOp55
 70
     1
102
RTVSPropertyOp56
 70
     1
102
RTVSPropertyOp57
 70
     1
102
RTVSPost2010Prop28
280
     0
102
RTVSPost2010PropOp28
 70
     1
102
RTVSPost2010Prop29
280
     1
102
RTVSPost2010PropOp29
 70
     1
102
RTVSPost2010Prop30
280
     1
102
RTVSPost2010PropOp30
 70
     1
102
RTVSPost2010Prop31
280
     0
102
RTVSPost2010PropOp31
 70
     1
102
RTVSPost2010Prop32
280
     0
102
RTVSPost2010PropOp32
 70
     1
102
RTVSPost2010Prop33
280
     0
102
RTVSPost2010PropOp33
 70
     1
102
RTVSPost2010Prop34
280
     0
102
RTVSPost2010PropOp34
 70
     1
102
RTVSPost2010Prop35
280
     0
102
RTVSPost2010PropOp35
 70
     1
102
RTVSPost2010Prop36
280
     0
102
RTVSPost2010PropOp36
 70
     1
102
RTVSPost2010Prop37
 90
       50
102
RTVSPost2010PropOp37
 70
     1
102
RTVSPost2010Prop38
140
0.0
102
RTVSPost2010PropOp38
 70
     1
102
RTVSPost2010Prop39
140
1.0
102
RTVSPost2010PropOp39
 70
     1
102
RTVSPost2010Prop40
 90
        0
102
RTVSPost2010PropOp40
 70
     1
102
RTVSPost2010Prop41ColorIndex
 90
       18
102
RTVSPost2010Prop41ColorRGB
 90
        0
102
RTVSPost2010PropOp41
 70
     1
102
RTVSPost2010Prop42
 90
       50
102
RTVSPost2010PropOp42
 70
     1
102
RTVSPost2010Prop43
 90
        3
102
RTVSPost2010PropOp43
 70
     1
102
RTVSPost2010Prop44ColorIndex
 90
        5
102
RTVSPost2010Prop44ColorRGB
 90
      255
102
RTVSPost2010PropOp44
 70
     1
102
RTVSPost2010Prop45
280
     0
102
RTVSPost2010PropOp45
 70
     1
102
RTVSPost2010Prop46
 90
       50
102
RTVSPost2010PropOp46
 70
     1
102
RTVSPost2010Prop47
 90
       50
102
RTVSPost2010PropOp47
 70
     1
102
RTVSPost2010Prop48
 90
       50
102
RTVSPost2010PropOp48
 70
     1
102
RTVSPost2010Prop49
280
     0
102
RTVSPost2010PropOp49
 70
     1
102
RTVSPost2010Prop50
 90
       50
102
RTVSPost2010PropOp50
 70
     1
102
RTVSPost2010Prop51ColorIndex
 90
      256
102
RTVSPost2010Prop51ColorRGB
 90
-16777216
102
RTVSPost2010PropOp51
 70
     0
102
RTVSPost2010Prop52
140
1.0
102
RTVSPost2010PropOp52
 70
     0
102
RTVSPost2010Prop53
 90
        2
102
RTVSPost2010PropOp53
 70
     1
102
RTVSPost2010Prop54
  1
strokes_ogs.tif
102
RTVSPost2010PropOp54
 70
     1
102
RTVSPost2010Prop55
280
     0
102
RTVSPost2010PropOp55
 70
     1
102
RTVSPost2010Prop56
140
1.0
102
RTVSPost2010PropOp56
 70
     1
102
RTVSPost2010Prop57
140
1.0
102
RTVSPost2010PropOp57
 70
     1
  0
XRECORD
  5
4D8
102
{ACAD_REACTORS
330
4D7
102
}
330
4D7
100
AcDbXrecord
280
     1
102
RTVSPropertyOp0
 70
     0
102
RTVSPropertyOp1
 70
     0
102
RTVSPropertyOp2
 70
     0
102
RTVSPropertyOp3
 70
     0
102
RTVSPropertyOp4
 70
     0
102
RTVSPropertyOp5
 70
     0
102
RTVSPropertyOp6
 70
     0
102
RTVSPropertyOp7
 70
     0
102
RTVSPropertyOp8
 70
     0
102
RTVSPropertyOp9
 70
     0
102
RTVSPropertyOp10
 70
     0
102
RTVSPropertyOp11
 70
     0
102
RTVSPropertyOp12
 70
     0
102
RTVSPropertyOp13
 70
     0
102
RTVSPropertyOp14
 70
     2
102
RTVSPropertyOp15
 70
     0
102
RTVSPropertyOp16
 70
     0
102
RTVSPropertyOp17
 70
     0
102
RTVSPropertyOp18
 70
     0
102
RTVSPropertyOp19
 70
     0
102
RTVSPropertyOp20
 70
     0
102
RTVSPropertyOp21
 70
     0
102
RTVSPropertyOp22
 70
     0
102
RTVSPropertyOp23
 70
     0
102
RTVSPropertyOp24
 70
     0
102
RTVSPropertyOp25
 70
     0
102
RTVSPropertyOp26
 70
     0
102
RTVSPropertyOp27
 70
     0
102
RTVSPropertyOp28
 70
     0
102
RTVSPropertyOp29
 70
     0
102
RTVSPropertyOp30
 70
     0
102
RTVSPropertyOp31
 70
     0
102
RTVSPropertyOp32
 70
     0
102
RTVSPropertyOp33
 70
     0
102
RTVSPropertyOp34
 70
     0
102
RTVSPropertyOp35
 70
     0
102
RTVSPropertyOp36
 70
     0
102
RTVSPropertyOp37
 70
     0
102
RTVSPropertyOp38
 70
     0
102
RTVSPropertyOp39
 70
     0
102
RTVSPropertyOp40
 70
     0
102
RTVSPropertyOp41
 70
     0
102
RTVSPropertyOp42
 70
     0
102
RTVSPropertyOp43
 70
     0
102
RTVSPropertyOp44
 70
     0
102
RTVSPropertyOp45
 70
     0
102
RTVSPropertyOp46
 70
     0
102
RTVSPropertyOp47
 70
     0
102
RTVSPropertyOp48
 70
     0
102
RTVSPropertyOp49
 70
     0
102
RTVSPropertyOp50
 70
     0
102
RTVSPropertyOp51
 70
     0
102
RTVSPropertyOp52
 70
     0
102
RTVSPropertyOp53
 70
     0
102
RTVSPropertyOp54
 70
     0
102
RTVSPropertyOp55
 70
     0
102
RTVSPropertyOp56
 70
     0
102
RTVSPropertyOp57
 70
     0
102
RTVSPost2010Prop28
280
     0
102
RTVSPost2010PropOp28
 70
     0
102
RTVSPost2010Prop29
280
     1
102
RTVSPost2010PropOp29
 70
     0
102
RTVSPost2010Prop30
280
     1
102
RTVSPost2010PropOp30
 70
     0
102
RTVSPost2010Prop31
280
     0
102
RTVSPost2010PropOp31
 70
     0
102
RTVSPost2010Prop32
280
     0
102
RTVSPost2010PropOp32
 70
     0
102
RTVSPost2010Prop33
280
     0
102
RTVSPost2010PropOp33
 70
     0
102
RTVSPost2010Prop34
280
     0
102
RTVSPost2010PropOp34
 70
     0
102
RTVSPost2010Prop35
280
     0
102
RTVSPost2010PropOp35
 70
     0
102
RTVSPost2010Prop36
280
     0
102
RTVSPost2010PropOp36
 70
     0
102
RTVSPost2010Prop37
 90
       50
102
RTVSPost2010PropOp37
 70
     0
102
RTVSPost2010Prop38
140
0.0
102
RTVSPost2010PropOp38
 70
     0
102
RTVSPost2010Prop39
140
1.0
102
RTVSPost2010PropOp39
 70
     0
102
RTVSPost2010Prop40
 90
        0
102
RTVSPost2010PropOp40
 70
     0
102
RTVSPost2010Prop41ColorIndex
 90
       18
102
RTVSPost2010Prop41ColorRGB
 90
        0
102
RTVSPost2010PropOp41
 70
     0
102
RTVSPost2010Prop42
 90
       50
102
RTVSPost2010PropOp42
 70
     0
102
RTVSPost2010Prop43
 90
        3
102
RTVSPost2010PropOp43
 70
     0
102
RTVSPost2010Prop44ColorIndex
 90
        5
102
RTVSPost2010Prop44ColorRGB
 90
      255
102
RTVSPost2010PropOp44
 70
     0
102
RTVSPost2010Prop45
280
     0
102
RTVSPost2010PropOp45
 70
     0
102
RTVSPost2010Prop46
 90
       50
102
RTVSPost2010PropOp46
 70
     0
102
RTVSPost2010Prop47
 90
       50
102
RTVSPost2010PropOp47
 70
     0
102
RTVSPost2010Prop48
 90
       50
102
RTVSPost2010PropOp48
 70
     0
102
RTVSPost2010Prop49
280
     0
102
RTVSPost2010PropOp49
 70
     0
102
RTVSPost2010Prop50
 90
       50
102
RTVSPost2010PropOp50
 70
     0
102
RTVSPost2010Prop51ColorIndex
 90
      256
102
RTVSPost2010Prop51ColorRGB
 90
-16777216
102
RTVSPost2010PropOp51
 70
     0
102
RTVSPost2010Prop52
140
1.0
102
RTVSPost2010PropOp52
 70
     0
102
RTVSPost2010Prop53
 90
        2
102
RTVSPost2010PropOp53
 70
     0
102
RTVSPost2010Prop54
  1
strokes_ogs.tif
102
RTVSPost2010PropOp54
 70
     0
102
RTVSPost2010Prop55
280
     0
102
RTVSPost2010PropOp55
 70
     0
102
RTVSPost2010Prop56
140
1.0
102
RTVSPost2010PropOp56
 70
     0
102
RTVSPost2010Prop57
140
1.0
102
RTVSPost2010PropOp57
 70
     0
  0
XRECORD
  5
4CE
102
{ACAD_REACTORS
330
4CD
102
}
330
4CD
100
AcDbXrecord
280
     1
102
RTVSPropertyOp0
 70
     1
102
RTVSPropertyOp1
 70
     1
102
RTVSPropertyOp2
 70
     1
102
RTVSPropertyOp3
 70
     1
102
RTVSPropertyOp4
 70
     1
102
RTVSPropertyOp5
 70
     1
102
RTVSPropertyOp6
 70
     1
102
RTVSPropertyOp7
 70
     1
102
RTVSPropertyOp8
 70
     1
102
RTVSPropertyOp9
 70
     1
102
RTVSPropertyOp10
 70
     1
102
RTVSPropertyOp11
 70
     1
102
RTVSPropertyOp12
 70
     1
102
RTVSPropertyOp13
 70
     1
102
RTVSPropertyOp14
 70
     1
102
RTVSPropertyOp15
 70
     1
102
RTVSPropertyOp16
 70
     1
102
RTVSPropertyOp17
 70
     1
102
RTVSPropertyOp18
 70
     1
102
RTVSPropertyOp19
 70
     1
102
RTVSPropertyOp20
 70
     1
102
RTVSPropertyOp21
 70
     1
102
RTVSPropertyOp22
 70
     1
102
RTVSPropertyOp23
 70
     1
102
RTVSPropertyOp24
 70
     1
102
RTVSPropertyOp25
 70
     1
102
RTVSPropertyOp26
 70
     1
102
RTVSPropertyOp27
 70
     1
102
RTVSPropertyOp28
 70
     1
102
RTVSPropertyOp29
 70
     1
102
RTVSPropertyOp30
 70
     1
102
RTVSPropertyOp31
 70
     1
102
RTVSPropertyOp32
 70
     1
102
RTVSPropertyOp33
 70
     1
102
RTVSPropertyOp34
 70
     1
102
RTVSPropertyOp35
 70
     1
102
RTVSPropertyOp36
 70
     1
102
RTVSPropertyOp37
 70
     1
102
RTVSPropertyOp38
 70
     1
102
RTVSPropertyOp39
 70
     1
102
RTVSPropertyOp40
 70
     1
102
RTVSPropertyOp41
 70
     1
102
RTVSPropertyOp42
 70
     1
102
RTVSPropertyOp43
 70
     1
102
RTVSPropertyOp44
 70
     1
102
RTVSPropertyOp45
 70
     1
102
RTVSPropertyOp46
 70
     1
102
RTVSPropertyOp47
 70
     1
102
RTVSPropertyOp48
 70
     1
102
RTVSPropertyOp49
 70
     1
102
RTVSPropertyOp50
 70
     1
102
RTVSPropertyOp51
 70
     0
102
RTVSPropertyOp52
 70
     0
102
RTVSPropertyOp53
 70
     1
102
RTVSPropertyOp54
 70
     1
102
RTVSPropertyOp55
 70
     1
102
RTVSPropertyOp56
 70
     1
102
RTVSPropertyOp57
 70
     1
102
RTVSPost2010Prop28
280
     0
102
RTVSPost2010PropOp28
 70
     1
102
RTVSPost2010Prop29
280
     1
102
RTVSPost2010PropOp29
 70
     1
102
RTVSPost2010Prop30
280
     1
102
RTVSPost2010PropOp30
 70
     1
102
RTVSPost2010Prop31
280
     0
102
RTVSPost2010PropOp31
 70
     1
102
RTVSPost2010Prop32
280
     0
102
RTVSPost2010PropOp32
 70
     1
102
RTVSPost2010Prop33
280
     0
102
RTVSPost2010PropOp33
 70
     1
102
RTVSPost2010Prop34
280
     0
102
RTVSPost2010PropOp34
 70
     1
102
RTVSPost2010Prop35
280
     0
102
RTVSPost2010PropOp35
 70
     1
102
RTVSPost2010Prop36
280
     0
102
RTVSPost2010PropOp36
 70
     1
102
RTVSPost2010Prop37
 90
       50
102
RTVSPost2010PropOp37
 70
     1
102
RTVSPost2010Prop38
140
0.0
102
RTVSPost2010PropOp38
 70
     1
102
RTVSPost2010Prop39
140
1.0
102
RTVSPost2010PropOp39
 70
     1
102
RTVSPost2010Prop40
 90
        0
102
RTVSPost2010PropOp40
 70
     1
102
RTVSPost2010Prop41ColorIndex
 90
       18
102
RTVSPost2010Prop41ColorRGB
 90
        0
102
RTVSPost2010PropOp41
 70
     1
102
RTVSPost2010Prop42
 90
       50
102
RTVSPost2010PropOp42
 70
     1
102
RTVSPost2010Prop43
 90
        3
102
RTVSPost2010PropOp43
 70
     1
102
RTVSPost2010Prop44ColorIndex
 90
        5
102
RTVSPost2010Prop44ColorRGB
 90
      255
102
RTVSPost2010PropOp44
 70
     1
102
RTVSPost2010Prop45
280
     0
102
RTVSPost2010PropOp45
 70
     1
102
RTVSPost2010Prop46
 90
       50
102
RTVSPost2010PropOp46
 70
     1
102
RTVSPost2010Prop47
 90
       50
102
RTVSPost2010PropOp47
 70
     1
102
RTVSPost2010Prop48
 90
       50
102
RTVSPost2010PropOp48
 70
     1
102
RTVSPost2010Prop49
280
     0
102
RTVSPost2010PropOp49
 70
     1
102
RTVSPost2010Prop50
 90
       50
102
RTVSPost2010PropOp50
 70
     1
102
RTVSPost2010Prop51ColorIndex
 90
      256
102
RTVSPost2010Prop51ColorRGB
 90
-16777216
102
RTVSPost2010PropOp51
 70
     0
102
RTVSPost2010Prop52
140
1.0
102
RTVSPost2010PropOp52
 70
     0
102
RTVSPost2010Prop53
 90
        2
102
RTVSPost2010PropOp53
 70
     1
102
RTVSPost2010Prop54
  1
strokes_ogs.tif
102
RTVSPost2010PropOp54
 70
     1
102
RTVSPost2010Prop55
280
     0
102
RTVSPost2010PropOp55
 70
     1
102
RTVSPost2010Prop56
140
1.0
102
RTVSPost2010PropOp56
 70
     1
102
RTVSPost2010Prop57
140
1.0
102
RTVSPost2010PropOp57
 70
     1
  0
XRECORD
  5
4DA
102
{ACAD_REACTORS
330
4D9
102
}
330
4D9
100
AcDbXrecord
280
     1
102
RTVSPropertyOp0
 70
     0
102
RTVSPropertyOp1
 70
     0
102
RTVSPropertyOp2
 70
     0
102
RTVSPropertyOp3
 70
     0
102
RTVSPropertyOp4
 70
     0
102
RTVSPropertyOp5
 70
     0
102
RTVSPropertyOp6
 70
     0
102
RTVSPropertyOp7
 70
     0
102
RTVSPropertyOp8
 70
     0
102
RTVSPropertyOp9
 70
     0
102
RTVSPropertyOp10
 70
     0
102
RTVSPropertyOp11
 70
     0
102
RTVSPropertyOp12
 70
     0
102
RTVSPropertyOp13
 70
     0
102
RTVSPropertyOp14
 70
     2
102
RTVSPropertyOp15
 70
     0
102
RTVSPropertyOp16
 70
     0
102
RTVSPropertyOp17
 70
     0
102
RTVSPropertyOp18
 70
     0
102
RTVSPropertyOp19
 70
     0
102
RTVSPropertyOp20
 70
     0
102
RTVSPropertyOp21
 70
     0
102
RTVSPropertyOp22
 70
     0
102
RTVSPropertyOp23
 70
     0
102
RTVSPropertyOp24
 70
     0
102
RTVSPropertyOp25
 70
     0
102
RTVSPropertyOp26
 70
     0
102
RTVSPropertyOp27
 70
     0
102
RTVSPropertyOp28
 70
     0
102
RTVSPropertyOp29
 70
     0
102
RTVSPropertyOp30
 70
     0
102
RTVSPropertyOp31
 70
     0
102
RTVSPropertyOp32
 70
     0
102
RTVSPropertyOp33
 70
     0
102
RTVSPropertyOp34
 70
     0
102
RTVSPropertyOp35
 70
     0
102
RTVSPropertyOp36
 70
     0
102
RTVSPropertyOp37
 70
     0
102
RTVSPropertyOp38
 70
     0
102
RTVSPropertyOp39
 70
     0
102
RTVSPropertyOp40
 70
     0
102
RTVSPropertyOp41
 70
     0
102
RTVSPropertyOp42
 70
     0
102
RTVSPropertyOp43
 70
     0
102
RTVSPropertyOp44
 70
     0
102
RTVSPropertyOp45
 70
     0
102
RTVSPropertyOp46
 70
     0
102
RTVSPropertyOp47
 70
     0
102
RTVSPropertyOp48
 70
     0
102
RTVSPropertyOp49
 70
     0
102
RTVSPropertyOp50
 70
     0
102
RTVSPropertyOp51
 70
     0
102
RTVSPropertyOp52
 70
     0
102
RTVSPropertyOp53
 70
     0
102
RTVSPropertyOp54
 70
     0
102
RTVSPropertyOp55
 70
     0
102
RTVSPropertyOp56
 70
     0
102
RTVSPropertyOp57
 70
     0
102
RTVSPost2010Prop28
280
     0
102
RTVSPost2010PropOp28
 70
     0
102
RTVSPost2010Prop29
280
     1
102
RTVSPost2010PropOp29
 70
     0
102
RTVSPost2010Prop30
280
     1
102
RTVSPost2010PropOp30
 70
     0
102
RTVSPost2010Prop31
280
     0
102
RTVSPost2010PropOp31
 70
     0
102
RTVSPost2010Prop32
280
     0
102
RTVSPost2010PropOp32
 70
     0
102
RTVSPost2010Prop33
280
     0
102
RTVSPost2010PropOp33
 70
     0
102
RTVSPost2010Prop34
280
     0
102
RTVSPost2010PropOp34
 70
     0
102
RTVSPost2010Prop35
280
     0
102
RTVSPost2010PropOp35
 70
     0
102
RTVSPost2010Prop36
280
     0
102
RTVSPost2010PropOp36
 70
     0
102
RTVSPost2010Prop37
 90
       50
102
RTVSPost2010PropOp37
 70
     0
102
RTVSPost2010Prop38
140
0.0
102
RTVSPost2010PropOp38
 70
     0
102
RTVSPost2010Prop39
140
1.0
102
RTVSPost2010PropOp39
 70
     0
102
RTVSPost2010Prop40
 90
        0
102
RTVSPost2010PropOp40
 70
     0
102
RTVSPost2010Prop41ColorIndex
 90
       18
102
RTVSPost2010Prop41ColorRGB
 90
        0
102
RTVSPost2010PropOp41
 70
     0
102
RTVSPost2010Prop42
 90
       50
102
RTVSPost2010PropOp42
 70
     0
102
RTVSPost2010Prop43
 90
        3
102
RTVSPost2010PropOp43
 70
     0
102
RTVSPost2010Prop44ColorIndex
 90
        5
102
RTVSPost2010Prop44ColorRGB
 90
      255
102
RTVSPost2010PropOp44
 70
     0
102
RTVSPost2010Prop45
280
     0
102
RTVSPost2010PropOp45
 70
     0
102
RTVSPost2010Prop46
 90
       50
102
RTVSPost2010PropOp46
 70
     0
102
RTVSPost2010Prop47
 90
       50
102
RTVSPost2010PropOp47
 70
     0
102
RTVSPost2010Prop48
 90
       50
102
RTVSPost2010PropOp48
 70
     0
102
RTVSPost2010Prop49
280
     0
102
RTVSPost2010PropOp49
 70
     0
102
RTVSPost2010Prop50
 90
       50
102
RTVSPost2010PropOp50
 70
     0
102
RTVSPost2010Prop51ColorIndex
 90
      256
102
RTVSPost2010Prop51ColorRGB
 90
-16777216
102
RTVSPost2010PropOp51
 70
     0
102
RTVSPost2010Prop52
140
1.0
102
RTVSPost2010PropOp52
 70
     0
102
RTVSPost2010Prop53
 90
        2
102
RTVSPost2010PropOp53
 70
     0
102
RTVSPost2010Prop54
  1
strokes_ogs.tif
102
RTVSPost2010PropOp54
 70
     0
102
RTVSPost2010Prop55
280
     0
102
RTVSPost2010PropOp55
 70
     0
102
RTVSPost2010Prop56
140
1.0
102
RTVSPost2010PropOp56
 70
     0
102
RTVSPost2010Prop57
140
1.0
102
RTVSPost2010PropOp57
 70
     0
  0
XRECORD
  5
4C4
102
{ACAD_REACTORS
330
4C3
102
}
330
4C3
100
AcDbXrecord
280
     1
102
RTVSPropertyOp0
 70
     1
102
RTVSPropertyOp1
 70
     1
102
RTVSPropertyOp2
 70
     1
102
RTVSPropertyOp3
 70
     1
102
RTVSPropertyOp4
 70
     1
102
RTVSPropertyOp5
 70
     1
102
RTVSPropertyOp6
 70
     1
102
RTVSPropertyOp7
 70
     1
102
RTVSPropertyOp8
 70
     1
102
RTVSPropertyOp9
 70
     1
102
RTVSPropertyOp10
 70
     1
102
RTVSPropertyOp11
 70
     1
102
RTVSPropertyOp12
 70
     1
102
RTVSPropertyOp13
 70
     1
102
RTVSPropertyOp14
 70
     1
102
RTVSPropertyOp15
 70
     1
102
RTVSPropertyOp16
 70
     1
102
RTVSPropertyOp17
 70
     1
102
RTVSPropertyOp18
 70
     1
102
RTVSPropertyOp19
 70
     1
102
RTVSPropertyOp20
 70
     1
102
RTVSPropertyOp21
 70
     1
102
RTVSPropertyOp22
 70
     1
102
RTVSPropertyOp23
 70
     1
102
RTVSPropertyOp24
 70
     1
102
RTVSPropertyOp25
 70
     1
102
RTVSPropertyOp26
 70
     1
102
RTVSPropertyOp27
 70
     1
102
RTVSPropertyOp28
 70
     1
102
RTVSPropertyOp29
 70
     1
102
RTVSPropertyOp30
 70
     1
102
RTVSPropertyOp31
 70
     1
102
RTVSPropertyOp32
 70
     1
102
RTVSPropertyOp33
 70
     1
102
RTVSPropertyOp34
 70
     1
102
RTVSPropertyOp35
 70
     1
102
RTVSPropertyOp36
 70
     1
102
RTVSPropertyOp37
 70
     1
102
RTVSPropertyOp38
 70
     1
102
RTVSPropertyOp39
 70
     1
102
RTVSPropertyOp40
 70
     1
102
RTVSPropertyOp41
 70
     1
102
RTVSPropertyOp42
 70
     1
102
RTVSPropertyOp43
 70
     1
102
RTVSPropertyOp44
 70
     1
102
RTVSPropertyOp45
 70
     1
102
RTVSPropertyOp46
 70
     1
102
RTVSPropertyOp47
 70
     1
102
RTVSPropertyOp48
 70
     1
102
RTVSPropertyOp49
 70
     1
102
RTVSPropertyOp50
 70
     1
102
RTVSPropertyOp51
 70
     0
102
RTVSPropertyOp52
 70
     0
102
RTVSPropertyOp53
 70
     1
102
RTVSPropertyOp54
 70
     1
102
RTVSPropertyOp55
 70
     1
102
RTVSPropertyOp56
 70
     1
102
RTVSPropertyOp57
 70
     1
102
RTVSPost2010Prop28
280
     0
102
RTVSPost2010PropOp28
 70
     1
102
RTVSPost2010Prop29
280
     1
102
RTVSPost2010PropOp29
 70
     1
102
RTVSPost2010Prop30
280
     1
102
RTVSPost2010PropOp30
 70
     1
102
RTVSPost2010Prop31
280
     0
102
RTVSPost2010PropOp31
 70
     1
102
RTVSPost2010Prop32
280
     0
102
RTVSPost2010PropOp32
 70
     1
102
RTVSPost2010Prop33
280
     0
102
RTVSPost2010PropOp33
 70
     1
102
RTVSPost2010Prop34
280
     0
102
RTVSPost2010PropOp34
 70
     1
102
RTVSPost2010Prop35
280
     0
102
RTVSPost2010PropOp35
 70
     1
102
RTVSPost2010Prop36
280
     0
102
RTVSPost2010PropOp36
 70
     1
102
RTVSPost2010Prop37
 90
       50
102
RTVSPost2010PropOp37
 70
     1
102
RTVSPost2010Prop38
140
0.0
102
RTVSPost2010PropOp38
 70
     1
102
RTVSPost2010Prop39
140
1.0
102
RTVSPost2010PropOp39
 70
     1
102
RTVSPost2010Prop40
 90
        0
102
RTVSPost2010PropOp40
 70
     1
102
RTVSPost2010Prop41ColorIndex
 90
       18
102
RTVSPost2010Prop41ColorRGB
 90
        0
102
RTVSPost2010PropOp41
 70
     1
102
RTVSPost2010Prop42
 90
       50
102
RTVSPost2010PropOp42
 70
     1
102
RTVSPost2010Prop43
 90
        3
102
RTVSPost2010PropOp43
 70
     1
102
RTVSPost2010Prop44ColorIndex
 90
        5
102
RTVSPost2010Prop44ColorRGB
 90
      255
102
RTVSPost2010PropOp44
 70
     1
102
RTVSPost2010Prop45
280
     0
102
RTVSPost2010PropOp45
 70
     1
102
RTVSPost2010Prop46
 90
       50
102
RTVSPost2010PropOp46
 70
     1
102
RTVSPost2010Prop47
 90
       50
102
RTVSPost2010PropOp47
 70
     1
102
RTVSPost2010Prop48
 90
       50
102
RTVSPost2010PropOp48
 70
     1
102
RTVSPost2010Prop49
280
     0
102
RTVSPost2010PropOp49
 70
     1
102
RTVSPost2010Prop50
 90
       50
102
RTVSPost2010PropOp50
 70
     1
102
RTVSPost2010Prop51ColorIndex
 90
      256
102
RTVSPost2010Prop51ColorRGB
 90
-16777216
102
RTVSPost2010PropOp51
 70
     0
102
RTVSPost2010Prop52
140
1.0
102
RTVSPost2010PropOp52
 70
     0
102
RTVSPost2010Prop53
 90
        2
102
RTVSPost2010PropOp53
 70
     1
102
RTVSPost2010Prop54
  1
strokes_ogs.tif
102
RTVSPost2010PropOp54
 70
     1
102
RTVSPost2010Prop55
280
     0
102
RTVSPost2010PropOp55
 70
     1
102
RTVSPost2010Prop56
140
1.0
102
RTVSPost2010PropOp56
 70
     1
102
RTVSPost2010Prop57
140
1.0
102
RTVSPost2010PropOp57
 70
     1
  0
XRECORD
  5
4E6
102
{ACAD_REACTORS
330
4E5
102
}
330
4E5
100
AcDbXrecord
280
     1
102
RTVSPropertyOp0
 70
     1
102
RTVSPropertyOp1
 70
     1
102
RTVSPropertyOp2
 70
     1
102
RTVSPropertyOp3
 70
     1
102
RTVSPropertyOp4
 70
     1
102
RTVSPropertyOp5
 70
     1
102
RTVSPropertyOp6
 70
     1
102
RTVSPropertyOp7
 70
     1
102
RTVSPropertyOp8
 70
     1
102
RTVSPropertyOp9
 70
     1
102
RTVSPropertyOp10
 70
     1
102
RTVSPropertyOp11
 70
     1
102
RTVSPropertyOp12
 70
     1
102
RTVSPropertyOp13
 70
     1
102
RTVSPropertyOp14
 70
     1
102
RTVSPropertyOp15
 70
     1
102
RTVSPropertyOp16
 70
     1
102
RTVSPropertyOp17
 70
     1
102
RTVSPropertyOp18
 70
     1
102
RTVSPropertyOp19
 70
     1
102
RTVSPropertyOp20
 70
     1
102
RTVSPropertyOp21
 70
     1
102
RTVSPropertyOp22
 70
     1
102
RTVSPropertyOp23
 70
     1
102
RTVSPropertyOp24
 70
     1
102
RTVSPropertyOp25
 70
     1
102
RTVSPropertyOp26
 70
     1
102
RTVSPropertyOp27
 70
     1
102
RTVSPropertyOp28
 70
     1
102
RTVSPropertyOp29
 70
     1
102
RTVSPropertyOp30
 70
     1
102
RTVSPropertyOp31
 70
     1
102
RTVSPropertyOp32
 70
     1
102
RTVSPropertyOp33
 70
     1
102
RTVSPropertyOp34
 70
     1
102
RTVSPropertyOp35
 70
     1
102
RTVSPropertyOp36
 70
     1
102
RTVSPropertyOp37
 70
     1
102
RTVSPropertyOp38
 70
     1
102
RTVSPropertyOp39
 70
     1
102
RTVSPropertyOp40
 70
     1
102
RTVSPropertyOp41
 70
     1
102
RTVSPropertyOp42
 70
     1
102
RTVSPropertyOp43
 70
     1
102
RTVSPropertyOp44
 70
     1
102
RTVSPropertyOp45
 70
     1
102
RTVSPropertyOp46
 70
     1
102
RTVSPropertyOp47
 70
     1
102
RTVSPropertyOp48
 70
     1
102
RTVSPropertyOp49
 70
     1
102
RTVSPropertyOp50
 70
     1
102
RTVSPropertyOp51
 70
     0
102
RTVSPropertyOp52
 70
     0
102
RTVSPropertyOp53
 70
     1
102
RTVSPropertyOp54
 70
     1
102
RTVSPropertyOp55
 70
     1
102
RTVSPropertyOp56
 70
     1
102
RTVSPropertyOp57
 70
     1
102
RTVSPost2010Prop28
280
     0
102
RTVSPost2010PropOp28
 70
     1
102
RTVSPost2010Prop29
280
     1
102
RTVSPost2010PropOp29
 70
     1
102
RTVSPost2010Prop30
280
     1
102
RTVSPost2010PropOp30
 70
     1
102
RTVSPost2010Prop31
280
     0
102
RTVSPost2010PropOp31
 70
     1
102
RTVSPost2010Prop32
280
     0
102
RTVSPost2010PropOp32
 70
     1
102
RTVSPost2010Prop33
280
     0
102
RTVSPost2010PropOp33
 70
     1
102
RTVSPost2010Prop34
280
     0
102
RTVSPost2010PropOp34
 70
     1
102
RTVSPost2010Prop35
280
     0
102
RTVSPost2010PropOp35
 70
     1
102
RTVSPost2010Prop36
280
     0
102
RTVSPost2010PropOp36
 70
     1
102
RTVSPost2010Prop37
 90
       50
102
RTVSPost2010PropOp37
 70
     1
102
RTVSPost2010Prop38
140
0.0
102
RTVSPost2010PropOp38
 70
     1
102
RTVSPost2010Prop39
140
1.0
102
RTVSPost2010PropOp39
 70
     1
102
RTVSPost2010Prop40
 90
        0
102
RTVSPost2010PropOp40
 70
     1
102
RTVSPost2010Prop41ColorIndex
 90
       18
102
RTVSPost2010Prop41ColorRGB
 90
        0
102
RTVSPost2010PropOp41
 70
     1
102
RTVSPost2010Prop42
 90
       50
102
RTVSPost2010PropOp42
 70
     1
102
RTVSPost2010Prop43
 90
        3
102
RTVSPost2010PropOp43
 70
     1
102
RTVSPost2010Prop44ColorIndex
 90
        5
102
RTVSPost2010Prop44ColorRGB
 90
      255
102
RTVSPost2010PropOp44
 70
     1
102
RTVSPost2010Prop45
280
     0
102
RTVSPost2010PropOp45
 70
     1
102
RTVSPost2010Prop46
 90
       50
102
RTVSPost2010PropOp46
 70
     1
102
RTVSPost2010Prop47
 90
       50
102
RTVSPost2010PropOp47
 70
     1
102
RTVSPost2010Prop48
 90
       50
102
RTVSPost2010PropOp48
 70
     1
102
RTVSPost2010Prop49
280
     0
102
RTVSPost2010PropOp49
 70
     1
102
RTVSPost2010Prop50
 90
       50
102
RTVSPost2010PropOp50
 70
     1
102
RTVSPost2010Prop51ColorIndex
 90
      256
102
RTVSPost2010Prop51ColorRGB
 90
-16777216
102
RTVSPost2010PropOp51
 70
     0
102
RTVSPost2010Prop52
140
1.0
102
RTVSPost2010PropOp52
 70
     0
102
RTVSPost2010Prop53
 90
        2
102
RTVSPost2010PropOp53
 70
     1
102
RTVSPost2010Prop54
  1
strokes_ogs.tif
102
RTVSPost2010PropOp54
 70
     1
102
RTVSPost2010Prop55
280
     0
102
RTVSPost2010PropOp55
 70
     1
102
RTVSPost2010Prop56
140
1.0
102
RTVSPost2010PropOp56
 70
     1
102
RTVSPost2010Prop57
140
1.0
102
RTVSPost2010PropOp57
 70
     1
  0
XRECORD
  5
4E4
102
{ACAD_REACTORS
330
4E3
102
}
330
4E3
100
AcDbXrecord
280
     1
102
RTVSPropertyOp0
 70
     1
102
RTVSPropertyOp1
 70
     1
102
RTVSPropertyOp2
 70
     1
102
RTVSPropertyOp3
 70
     1
102
RTVSPropertyOp4
 70
     1
102
RTVSPropertyOp5
 70
     1
102
RTVSPropertyOp6
 70
     1
102
RTVSPropertyOp7
 70
     1
102
RTVSPropertyOp8
 70
     1
102
RTVSPropertyOp9
 70
     1
102
RTVSPropertyOp10
 70
     1
102
RTVSPropertyOp11
 70
     1
102
RTVSPropertyOp12
 70
     1
102
RTVSPropertyOp13
 70
     1
102
RTVSPropertyOp14
 70
     1
102
RTVSPropertyOp15
 70
     1
102
RTVSPropertyOp16
 70
     1
102
RTVSPropertyOp17
 70
     1
102
RTVSPropertyOp18
 70
     1
102
RTVSPropertyOp19
 70
     1
102
RTVSPropertyOp20
 70
     1
102
RTVSPropertyOp21
 70
     1
102
RTVSPropertyOp22
 70
     1
102
RTVSPropertyOp23
 70
     1
102
RTVSPropertyOp24
 70
     1
102
RTVSPropertyOp25
 70
     1
102
RTVSPropertyOp26
 70
     1
102
RTVSPropertyOp27
 70
     1
102
RTVSPropertyOp28
 70
     1
102
RTVSPropertyOp29
 70
     1
102
RTVSPropertyOp30
 70
     1
102
RTVSPropertyOp31
 70
     1
102
RTVSPropertyOp32
 70
     1
102
RTVSPropertyOp33
 70
     1
102
RTVSPropertyOp34
 70
     1
102
RTVSPropertyOp35
 70
     1
102
RTVSPropertyOp36
 70
     1
102
RTVSPropertyOp37
 70
     1
102
RTVSPropertyOp38
 70
     1
102
RTVSPropertyOp39
 70
     1
102
RTVSPropertyOp40
 70
     1
102
RTVSPropertyOp41
 70
     1
102
RTVSPropertyOp42
 70
     1
102
RTVSPropertyOp43
 70
     1
102
RTVSPropertyOp44
 70
     1
102
RTVSPropertyOp45
 70
     1
102
RTVSPropertyOp46
 70
     1
102
RTVSPropertyOp47
 70
     1
102
RTVSPropertyOp48
 70
     1
102
RTVSPropertyOp49
 70
     1
102
RTVSPropertyOp50
 70
     1
102
RTVSPropertyOp51
 70
     0
102
RTVSPropertyOp52
 70
     0
102
RTVSPropertyOp53
 70
     1
102
RTVSPropertyOp54
 70
     1
102
RTVSPropertyOp55
 70
     1
102
RTVSPropertyOp56
 70
     1
102
RTVSPropertyOp57
 70
     1
102
RTVSPost2010Prop28
280
     0
102
RTVSPost2010PropOp28
 70
     1
102
RTVSPost2010Prop29
280
     1
102
RTVSPost2010PropOp29
 70
     1
102
RTVSPost2010Prop30
280
     1
102
RTVSPost2010PropOp30
 70
     1
102
RTVSPost2010Prop31
280
     0
102
RTVSPost2010PropOp31
 70
     1
102
RTVSPost2010Prop32
280
     0
102
RTVSPost2010PropOp32
 70
     1
102
RTVSPost2010Prop33
280
     0
102
RTVSPost2010PropOp33
 70
     1
102
RTVSPost2010Prop34
280
     0
102
RTVSPost2010PropOp34
 70
     1
102
RTVSPost2010Prop35
280
     0
102
RTVSPost2010PropOp35
 70
     1
102
RTVSPost2010Prop36
280
     0
102
RTVSPost2010PropOp36
 70
     1
102
RTVSPost2010Prop37
 90
       50
102
RTVSPost2010PropOp37
 70
     1
102
RTVSPost2010Prop38
140
0.0
102
RTVSPost2010PropOp38
 70
     1
102
RTVSPost2010Prop39
140
1.0
102
RTVSPost2010PropOp39
 70
     1
102
RTVSPost2010Prop40
 90
        0
102
RTVSPost2010PropOp40
 70
     1
102
RTVSPost2010Prop41ColorIndex
 90
       18
102
RTVSPost2010Prop41ColorRGB
 90
        0
102
RTVSPost2010PropOp41
 70
     1
102
RTVSPost2010Prop42
 90
       50
102
RTVSPost2010PropOp42
 70
     1
102
RTVSPost2010Prop43
 90
        3
102
RTVSPost2010PropOp43
 70
     1
102
RTVSPost2010Prop44ColorIndex
 90
        5
102
RTVSPost2010Prop44ColorRGB
 90
      255
102
RTVSPost2010PropOp44
 70
     1
102
RTVSPost2010Prop45
280
     0
102
RTVSPost2010PropOp45
 70
     1
102
RTVSPost2010Prop46
 90
       50
102
RTVSPost2010PropOp46
 70
     1
102
RTVSPost2010Prop47
 90
       50
102
RTVSPost2010PropOp47
 70
     1
102
RTVSPost2010Prop48
 90
       50
102
RTVSPost2010PropOp48
 70
     1
102
RTVSPost2010Prop49
280
     0
102
RTVSPost2010PropOp49
 70
     1
102
RTVSPost2010Prop50
 90
       50
102
RTVSPost2010PropOp50
 70
     1
102
RTVSPost2010Prop51ColorIndex
 90
      256
102
RTVSPost2010Prop51ColorRGB
 90
-16777216
102
RTVSPost2010PropOp51
 70
     0
102
RTVSPost2010Prop52
140
1.0
102
RTVSPost2010PropOp52
 70
     0
102
RTVSPost2010Prop53
 90
        2
102
RTVSPost2010PropOp53
 70
     1
102
RTVSPost2010Prop54
  1
strokes_ogs.tif
102
RTVSPost2010PropOp54
 70
     1
102
RTVSPost2010Prop55
280
     0
102
RTVSPost2010PropOp55
 70
     1
102
RTVSPost2010Prop56
140
1.0
102
RTVSPost2010PropOp56
 70
     1
102
RTVSPost2010Prop57
140
1.0
102
RTVSPost2010PropOp57
 70
     1
  0
XRECORD
  5
4DE
102
{ACAD_REACTORS
330
4DD
102
}
330
4DD
100
AcDbXrecord
280
     1
102
RTVSPropertyOp0
 70
     1
102
RTVSPropertyOp1
 70
     1
102
RTVSPropertyOp2
 70
     1
102
RTVSPropertyOp3
 70
     1
102
RTVSPropertyOp4
 70
     1
102
RTVSPropertyOp5
 70
     1
102
RTVSPropertyOp6
 70
     1
102
RTVSPropertyOp7
 70
     1
102
RTVSPropertyOp8
 70
     1
102
RTVSPropertyOp9
 70
     1
102
RTVSPropertyOp10
 70
     1
102
RTVSPropertyOp11
 70
     1
102
RTVSPropertyOp12
 70
     1
102
RTVSPropertyOp13
 70
     1
102
RTVSPropertyOp14
 70
     1
102
RTVSPropertyOp15
 70
     1
102
RTVSPropertyOp16
 70
     1
102
RTVSPropertyOp17
 70
     1
102
RTVSPropertyOp18
 70
     1
102
RTVSPropertyOp19
 70
     1
102
RTVSPropertyOp20
 70
     1
102
RTVSPropertyOp21
 70
     1
102
RTVSPropertyOp22
 70
     1
102
RTVSPropertyOp23
 70
     1
102
RTVSPropertyOp24
 70
     1
102
RTVSPropertyOp25
 70
     1
102
RTVSPropertyOp26
 70
     1
102
RTVSPropertyOp27
 70
     1
102
RTVSPropertyOp28
 70
     1
102
RTVSPropertyOp29
 70
     1
102
RTVSPropertyOp30
 70
     1
102
RTVSPropertyOp31
 70
     1
102
RTVSPropertyOp32
 70
     1
102
RTVSPropertyOp33
 70
     1
102
RTVSPropertyOp34
 70
     1
102
RTVSPropertyOp35
 70
     1
102
RTVSPropertyOp36
 70
     1
102
RTVSPropertyOp37
 70
     1
102
RTVSPropertyOp38
 70
     1
102
RTVSPropertyOp39
 70
     1
102
RTVSPropertyOp40
 70
     1
102
RTVSPropertyOp41
 70
     1
102
RTVSPropertyOp42
 70
     1
102
RTVSPropertyOp43
 70
     1
102
RTVSPropertyOp44
 70
     1
102
RTVSPropertyOp45
 70
     1
102
RTVSPropertyOp46
 70
     1
102
RTVSPropertyOp47
 70
     1
102
RTVSPropertyOp48
 70
     1
102
RTVSPropertyOp49
 70
     1
102
RTVSPropertyOp50
 70
     1
102
RTVSPropertyOp51
 70
     0
102
RTVSPropertyOp52
 70
     0
102
RTVSPropertyOp53
 70
     1
102
RTVSPropertyOp54
 70
     1
102
RTVSPropertyOp55
 70
     1
102
RTVSPropertyOp56
 70
     1
102
RTVSPropertyOp57
 70
     1
102
RTVSPost2010Prop28
280
     0
102
RTVSPost2010PropOp28
 70
     1
102
RTVSPost2010Prop29
280
     1
102
RTVSPost2010PropOp29
 70
     1
102
RTVSPost2010Prop30
280
     1
102
RTVSPost2010PropOp30
 70
     1
102
RTVSPost2010Prop31
280
     0
102
RTVSPost2010PropOp31
 70
     1
102
RTVSPost2010Prop32
280
     0
102
RTVSPost2010PropOp32
 70
     1
102
RTVSPost2010Prop33
280
     0
102
RTVSPost2010PropOp33
 70
     1
102
RTVSPost2010Prop34
280
     0
102
RTVSPost2010PropOp34
 70
     1
102
RTVSPost2010Prop35
280
     0
102
RTVSPost2010PropOp35
 70
     1
102
RTVSPost2010Prop36
280
     0
102
RTVSPost2010PropOp36
 70
     1
102
RTVSPost2010Prop37
 90
       50
102
RTVSPost2010PropOp37
 70
     1
102
RTVSPost2010Prop38
140
0.0
102
RTVSPost2010PropOp38
 70
     1
102
RTVSPost2010Prop39
140
1.0
102
RTVSPost2010PropOp39
 70
     1
102
RTVSPost2010Prop40
 90
        0
102
RTVSPost2010PropOp40
 70
     1
102
RTVSPost2010Prop41ColorIndex
 90
       18
102
RTVSPost2010Prop41ColorRGB
 90
        0
102
RTVSPost2010PropOp41
 70
     1
102
RTVSPost2010Prop42
 90
       50
102
RTVSPost2010PropOp42
 70
     1
102
RTVSPost2010Prop43
 90
        3
102
RTVSPost2010PropOp43
 70
     1
102
RTVSPost2010Prop44ColorIndex
 90
        5
102
RTVSPost2010Prop44ColorRGB
 90
      255
102
RTVSPost2010PropOp44
 70
     1
102
RTVSPost2010Prop45
280
     0
102
RTVSPost2010PropOp45
 70
     1
102
RTVSPost2010Prop46
 90
       50
102
RTVSPost2010PropOp46
 70
     1
102
RTVSPost2010Prop47
 90
       50
102
RTVSPost2010PropOp47
 70
     1
102
RTVSPost2010Prop48
 90
       50
102
RTVSPost2010PropOp48
 70
     1
102
RTVSPost2010Prop49
280
     0
102
RTVSPost2010PropOp49
 70
     1
102
RTVSPost2010Prop50
 90
       50
102
RTVSPost2010PropOp50
 70
     1
102
RTVSPost2010Prop51ColorIndex
 90
      256
102
RTVSPost2010Prop51ColorRGB
 90
-16777216
102
RTVSPost2010PropOp51
 70
     0
102
RTVSPost2010Prop52
140
1.0
102
RTVSPost2010PropOp52
 70
     0
102
RTVSPost2010Prop53
 90
        2
102
RTVSPost2010PropOp53
 70
     1
102
RTVSPost2010Prop54
  1
strokes_ogs.tif
102
RTVSPost2010PropOp54
 70
     1
102
RTVSPost2010Prop55
280
     0
102
RTVSPost2010PropOp55
 70
     1
102
RTVSPost2010Prop56
140
1.0
102
RTVSPost2010PropOp56
 70
     1
102
RTVSPost2010Prop57
140
1.0
102
RTVSPost2010PropOp57
 70
     1
  0
XRECORD
  5
4E0
102
{ACAD_REACTORS
330
4DF
102
}
330
4DF
100
AcDbXrecord
280
     1
102
RTVSPropertyOp0
 70
     1
102
RTVSPropertyOp1
 70
     1
102
RTVSPropertyOp2
 70
     1
102
RTVSPropertyOp3
 70
     1
102
RTVSPropertyOp4
 70
     1
102
RTVSPropertyOp5
 70
     1
102
RTVSPropertyOp6
 70
     1
102
RTVSPropertyOp7
 70
     1
102
RTVSPropertyOp8
 70
     1
102
RTVSPropertyOp9
 70
     1
102
RTVSPropertyOp10
 70
     1
102
RTVSPropertyOp11
 70
     1
102
RTVSPropertyOp12
 70
     1
102
RTVSPropertyOp13
 70
     1
102
RTVSPropertyOp14
 70
     1
102
RTVSPropertyOp15
 70
     1
102
RTVSPropertyOp16
 70
     1
102
RTVSPropertyOp17
 70
     1
102
RTVSPropertyOp18
 70
     1
102
RTVSPropertyOp19
 70
     1
102
RTVSPropertyOp20
 70
     1
102
RTVSPropertyOp21
 70
     1
102
RTVSPropertyOp22
 70
     1
102
RTVSPropertyOp23
 70
     1
102
RTVSPropertyOp24
 70
     1
102
RTVSPropertyOp25
 70
     1
102
RTVSPropertyOp26
 70
     1
102
RTVSPropertyOp27
 70
     1
102
RTVSPropertyOp28
 70
     1
102
RTVSPropertyOp29
 70
     1
102
RTVSPropertyOp30
 70
     1
102
RTVSPropertyOp31
 70
     1
102
RTVSPropertyOp32
 70
     1
102
RTVSPropertyOp33
 70
     1
102
RTVSPropertyOp34
 70
     1
102
RTVSPropertyOp35
 70
     1
102
RTVSPropertyOp36
 70
     1
102
RTVSPropertyOp37
 70
     1
102
RTVSPropertyOp38
 70
     1
102
RTVSPropertyOp39
 70
     1
102
RTVSPropertyOp40
 70
     1
102
RTVSPropertyOp41
 70
     1
102
RTVSPropertyOp42
 70
     1
102
RTVSPropertyOp43
 70
     1
102
RTVSPropertyOp44
 70
     1
102
RTVSPropertyOp45
 70
     1
102
RTVSPropertyOp46
 70
     1
102
RTVSPropertyOp47
 70
     1
102
RTVSPropertyOp48
 70
     1
102
RTVSPropertyOp49
 70
     1
102
RTVSPropertyOp50
 70
     1
102
RTVSPropertyOp51
 70
     0
102
RTVSPropertyOp52
 70
     0
102
RTVSPropertyOp53
 70
     1
102
RTVSPropertyOp54
 70
     1
102
RTVSPropertyOp55
 70
     1
102
RTVSPropertyOp56
 70
     1
102
RTVSPropertyOp57
 70
     1
102
RTVSPost2010Prop28
280
     0
102
RTVSPost2010PropOp28
 70
     1
102
RTVSPost2010Prop29
280
     1
102
RTVSPost2010PropOp29
 70
     1
102
RTVSPost2010Prop30
280
     1
102
RTVSPost2010PropOp30
 70
     1
102
RTVSPost2010Prop31
280
     0
102
RTVSPost2010PropOp31
 70
     1
102
RTVSPost2010Prop32
280
     0
102
RTVSPost2010PropOp32
 70
     1
102
RTVSPost2010Prop33
280
     0
102
RTVSPost2010PropOp33
 70
     1
102
RTVSPost2010Prop34
280
     0
102
RTVSPost2010PropOp34
 70
     1
102
RTVSPost2010Prop35
280
     0
102
RTVSPost2010PropOp35
 70
     1
102
RTVSPost2010Prop36
280
     0
102
RTVSPost2010PropOp36
 70
     1
102
RTVSPost2010Prop37
 90
       50
102
RTVSPost2010PropOp37
 70
     1
102
RTVSPost2010Prop38
140
0.0
102
RTVSPost2010PropOp38
 70
     1
102
RTVSPost2010Prop39
140
1.0
102
RTVSPost2010PropOp39
 70
     1
102
RTVSPost2010Prop40
 90
        0
102
RTVSPost2010PropOp40
 70
     1
102
RTVSPost2010Prop41ColorIndex
 90
       18
102
RTVSPost2010Prop41ColorRGB
 90
        0
102
RTVSPost2010PropOp41
 70
     1
102
RTVSPost2010Prop42
 90
       50
102
RTVSPost2010PropOp42
 70
     1
102
RTVSPost2010Prop43
 90
        3
102
RTVSPost2010PropOp43
 70
     1
102
RTVSPost2010Prop44ColorIndex
 90
        5
102
RTVSPost2010Prop44ColorRGB
 90
      255
102
RTVSPost2010PropOp44
 70
     1
102
RTVSPost2010Prop45
280
     0
102
RTVSPost2010PropOp45
 70
     1
102
RTVSPost2010Prop46
 90
       50
102
RTVSPost2010PropOp46
 70
     1
102
RTVSPost2010Prop47
 90
       50
102
RTVSPost2010PropOp47
 70
     1
102
RTVSPost2010Prop48
 90
       50
102
RTVSPost2010PropOp48
 70
     1
102
RTVSPost2010Prop49
280
     0
102
RTVSPost2010PropOp49
 70
     1
102
RTVSPost2010Prop50
 90
       50
102
RTVSPost2010PropOp50
 70
     1
102
RTVSPost2010Prop51ColorIndex
 90
      256
102
RTVSPost2010Prop51ColorRGB
 90
-16777216
102
RTVSPost2010PropOp51
 70
     0
102
RTVSPost2010Prop52
140
1.0
102
RTVSPost2010PropOp52
 70
     0
102
RTVSPost2010Prop53
 90
        2
102
RTVSPost2010PropOp53
 70
     1
102
RTVSPost2010Prop54
  1
strokes_ogs.tif
102
RTVSPost2010PropOp54
 70
     1
102
RTVSPost2010Prop55
280
     0
102
RTVSPost2010PropOp55
 70
     1
102
RTVSPost2010Prop56
140
1.0
102
RTVSPost2010PropOp56
 70
     1
102
RTVSPost2010Prop57
140
1.0
102
RTVSPost2010PropOp57
 70
     1
  0
XRECORD
  5
4CC
102
{ACAD_REACTORS
330
4CB
102
}
330
4CB
100
AcDbXrecord
280
     1
102
RTVSPropertyOp0
 70
     1
102
RTVSPropertyOp1
 70
     1
102
RTVSPropertyOp2
 70
     1
102
RTVSPropertyOp3
 70
     1
102
RTVSPropertyOp4
 70
     1
102
RTVSPropertyOp5
 70
     1
102
RTVSPropertyOp6
 70
     1
102
RTVSPropertyOp7
 70
     1
102
RTVSPropertyOp8
 70
     1
102
RTVSPropertyOp9
 70
     1
102
RTVSPropertyOp10
 70
     1
102
RTVSPropertyOp11
 70
     1
102
RTVSPropertyOp12
 70
     1
102
RTVSPropertyOp13
 70
     1
102
RTVSPropertyOp14
 70
     1
102
RTVSPropertyOp15
 70
     1
102
RTVSPropertyOp16
 70
     1
102
RTVSPropertyOp17
 70
     1
102
RTVSPropertyOp18
 70
     1
102
RTVSPropertyOp19
 70
     1
102
RTVSPropertyOp20
 70
     1
102
RTVSPropertyOp21
 70
     1
102
RTVSPropertyOp22
 70
     1
102
RTVSPropertyOp23
 70
     1
102
RTVSPropertyOp24
 70
     1
102
RTVSPropertyOp25
 70
     1
102
RTVSPropertyOp26
 70
     1
102
RTVSPropertyOp27
 70
     1
102
RTVSPropertyOp28
 70
     1
102
RTVSPropertyOp29
 70
     1
102
RTVSPropertyOp30
 70
     1
102
RTVSPropertyOp31
 70
     1
102
RTVSPropertyOp32
 70
     1
102
RTVSPropertyOp33
 70
     1
102
RTVSPropertyOp34
 70
     1
102
RTVSPropertyOp35
 70
     1
102
RTVSPropertyOp36
 70
     1
102
RTVSPropertyOp37
 70
     1
102
RTVSPropertyOp38
 70
     1
102
RTVSPropertyOp39
 70
     1
102
RTVSPropertyOp40
 70
     1
102
RTVSPropertyOp41
 70
     1
102
RTVSPropertyOp42
 70
     1
102
RTVSPropertyOp43
 70
     1
102
RTVSPropertyOp44
 70
     1
102
RTVSPropertyOp45
 70
     1
102
RTVSPropertyOp46
 70
     1
102
RTVSPropertyOp47
 70
     1
102
RTVSPropertyOp48
 70
     1
102
RTVSPropertyOp49
 70
     1
102
RTVSPropertyOp50
 70
     1
102
RTVSPropertyOp51
 70
     0
102
RTVSPropertyOp52
 70
     0
102
RTVSPropertyOp53
 70
     1
102
RTVSPropertyOp54
 70
     1
102
RTVSPropertyOp55
 70
     1
102
RTVSPropertyOp56
 70
     1
102
RTVSPropertyOp57
 70
     1
102
RTVSPost2010Prop28
280
     0
102
RTVSPost2010PropOp28
 70
     1
102
RTVSPost2010Prop29
280
     1
102
RTVSPost2010PropOp29
 70
     1
102
RTVSPost2010Prop30
280
     1
102
RTVSPost2010PropOp30
 70
     1
102
RTVSPost2010Prop31
280
     0
102
RTVSPost2010PropOp31
 70
     1
102
RTVSPost2010Prop32
280
     0
102
RTVSPost2010PropOp32
 70
     1
102
RTVSPost2010Prop33
280
     0
102
RTVSPost2010PropOp33
 70
     1
102
RTVSPost2010Prop34
280
     0
102
RTVSPost2010PropOp34
 70
     1
102
RTVSPost2010Prop35
280
     0
102
RTVSPost2010PropOp35
 70
     1
102
RTVSPost2010Prop36
280
     0
102
RTVSPost2010PropOp36
 70
     1
102
RTVSPost2010Prop37
 90
       50
102
RTVSPost2010PropOp37
 70
     1
102
RTVSPost2010Prop38
140
0.0
102
RTVSPost2010PropOp38
 70
     1
102
RTVSPost2010Prop39
140
1.0
102
RTVSPost2010PropOp39
 70
     1
102
RTVSPost2010Prop40
 90
        0
102
RTVSPost2010PropOp40
 70
     1
102
RTVSPost2010Prop41ColorIndex
 90
       18
102
RTVSPost2010Prop41ColorRGB
 90
        0
102
RTVSPost2010PropOp41
 70
     1
102
RTVSPost2010Prop42
 90
       50
102
RTVSPost2010PropOp42
 70
     1
102
RTVSPost2010Prop43
 90
        3
102
RTVSPost2010PropOp43
 70
     1
102
RTVSPost2010Prop44ColorIndex
 90
        5
102
RTVSPost2010Prop44ColorRGB
 90
      255
102
RTVSPost2010PropOp44
 70
     1
102
RTVSPost2010Prop45
280
     0
102
RTVSPost2010PropOp45
 70
     1
102
RTVSPost2010Prop46
 90
       50
102
RTVSPost2010PropOp46
 70
     1
102
RTVSPost2010Prop47
 90
       50
102
RTVSPost2010PropOp47
 70
     1
102
RTVSPost2010Prop48
 90
       50
102
RTVSPost2010PropOp48
 70
     1
102
RTVSPost2010Prop49
280
     0
102
RTVSPost2010PropOp49
 70
     1
102
RTVSPost2010Prop50
 90
       50
102
RTVSPost2010PropOp50
 70
     1
102
RTVSPost2010Prop51ColorIndex
 90
      256
102
RTVSPost2010Prop51ColorRGB
 90
-16777216
102
RTVSPost2010PropOp51
 70
     0
102
RTVSPost2010Prop52
140
1.0
102
RTVSPost2010PropOp52
 70
     0
102
RTVSPost2010Prop53
 90
        2
102
RTVSPost2010PropOp53
 70
     1
102
RTVSPost2010Prop54
  1
strokes_ogs.tif
102
RTVSPost2010PropOp54
 70
     1
102
RTVSPost2010Prop55
280
     0
102
RTVSPost2010PropOp55
 70
     1
102
RTVSPost2010Prop56
140
1.0
102
RTVSPost2010PropOp56
 70
     1
102
RTVSPost2010Prop57
140
1.0
102
RTVSPost2010PropOp57
 70
     1
  0
XRECORD
  5
4D4
102
{ACAD_REACTORS
330
4D3
102
}
330
4D3
100
AcDbXrecord
280
     1
102
RTVSPropertyOp0
 70
     1
102
RTVSPropertyOp1
 70
     1
102
RTVSPropertyOp2
 70
     1
102
RTVSPropertyOp3
 70
     1
102
RTVSPropertyOp4
 70
     1
102
RTVSPropertyOp5
 70
     1
102
RTVSPropertyOp6
 70
     1
102
RTVSPropertyOp7
 70
     1
102
RTVSPropertyOp8
 70
     1
102
RTVSPropertyOp9
 70
     1
102
RTVSPropertyOp10
 70
     1
102
RTVSPropertyOp11
 70
     1
102
RTVSPropertyOp12
 70
     1
102
RTVSPropertyOp13
 70
     1
102
RTVSPropertyOp14
 70
     1
102
RTVSPropertyOp15
 70
     1
102
RTVSPropertyOp16
 70
     1
102
RTVSPropertyOp17
 70
     1
102
RTVSPropertyOp18
 70
     1
102
RTVSPropertyOp19
 70
     1
102
RTVSPropertyOp20
 70
     1
102
RTVSPropertyOp21
 70
     1
102
RTVSPropertyOp22
 70
     1
102
RTVSPropertyOp23
 70
     1
102
RTVSPropertyOp24
 70
     1
102
RTVSPropertyOp25
 70
     1
102
RTVSPropertyOp26
 70
     1
102
RTVSPropertyOp27
 70
     1
102
RTVSPropertyOp28
 70
     1
102
RTVSPropertyOp29
 70
     1
102
RTVSPropertyOp30
 70
     1
102
RTVSPropertyOp31
 70
     1
102
RTVSPropertyOp32
 70
     1
102
RTVSPropertyOp33
 70
     1
102
RTVSPropertyOp34
 70
     1
102
RTVSPropertyOp35
 70
     1
102
RTVSPropertyOp36
 70
     1
102
RTVSPropertyOp37
 70
     1
102
RTVSPropertyOp38
 70
     1
102
RTVSPropertyOp39
 70
     1
102
RTVSPropertyOp40
 70
     1
102
RTVSPropertyOp41
 70
     1
102
RTVSPropertyOp42
 70
     1
102
RTVSPropertyOp43
 70
     1
102
RTVSPropertyOp44
 70
     1
102
RTVSPropertyOp45
 70
     1
102
RTVSPropertyOp46
 70
     1
102
RTVSPropertyOp47
 70
     1
102
RTVSPropertyOp48
 70
     1
102
RTVSPropertyOp49
 70
     1
102
RTVSPropertyOp50
 70
     1
102
RTVSPropertyOp51
 70
     0
102
RTVSPropertyOp52
 70
     0
102
RTVSPropertyOp53
 70
     1
102
RTVSPropertyOp54
 70
     1
102
RTVSPropertyOp55
 70
     1
102
RTVSPropertyOp56
 70
     1
102
RTVSPropertyOp57
 70
     1
102
RTVSPost2010Prop28
280
     0
102
RTVSPost2010PropOp28
 70
     1
102
RTVSPost2010Prop29
280
     1
102
RTVSPost2010PropOp29
 70
     1
102
RTVSPost2010Prop30
280
     1
102
RTVSPost2010PropOp30
 70
     1
102
RTVSPost2010Prop31
280
     0
102
RTVSPost2010PropOp31
 70
     1
102
RTVSPost2010Prop32
280
     0
102
RTVSPost2010PropOp32
 70
     1
102
RTVSPost2010Prop33
280
     0
102
RTVSPost2010PropOp33
 70
     1
102
RTVSPost2010Prop34
280
     0
102
RTVSPost2010PropOp34
 70
     1
102
RTVSPost2010Prop35
280
     0
102
RTVSPost2010PropOp35
 70
     1
102
RTVSPost2010Prop36
280
     0
102
RTVSPost2010PropOp36
 70
     1
102
RTVSPost2010Prop37
 90
       50
102
RTVSPost2010PropOp37
 70
     1
102
RTVSPost2010Prop38
140
0.0
102
RTVSPost2010PropOp38
 70
     1
102
RTVSPost2010Prop39
140
1.0
102
RTVSPost2010PropOp39
 70
     1
102
RTVSPost2010Prop40
 90
        0
102
RTVSPost2010PropOp40
 70
     1
102
RTVSPost2010Prop41ColorIndex
 90
       18
102
RTVSPost2010Prop41ColorRGB
 90
        0
102
RTVSPost2010PropOp41
 70
     1
102
RTVSPost2010Prop42
 90
       50
102
RTVSPost2010PropOp42
 70
     1
102
RTVSPost2010Prop43
 90
        3
102
RTVSPost2010PropOp43
 70
     1
102
RTVSPost2010Prop44ColorIndex
 90
        5
102
RTVSPost2010Prop44ColorRGB
 90
      255
102
RTVSPost2010PropOp44
 70
     1
102
RTVSPost2010Prop45
280
     0
102
RTVSPost2010PropOp45
 70
     1
102
RTVSPost2010Prop46
 90
       50
102
RTVSPost2010PropOp46
 70
     1
102
RTVSPost2010Prop47
 90
       50
102
RTVSPost2010PropOp47
 70
     1
102
RTVSPost2010Prop48
 90
       50
102
RTVSPost2010PropOp48
 70
     1
102
RTVSPost2010Prop49
280
     0
102
RTVSPost2010PropOp49
 70
     1
102
RTVSPost2010Prop50
 90
       50
102
RTVSPost2010PropOp50
 70
     1
102
RTVSPost2010Prop51ColorIndex
 90
      256
102
RTVSPost2010Prop51ColorRGB
 90
-16777216
102
RTVSPost2010PropOp51
 70
     0
102
RTVSPost2010Prop52
140
1.0
102
RTVSPost2010PropOp52
 70
     0
102
RTVSPost2010Prop53
 90
        2
102
RTVSPost2010PropOp53
 70
     1
102
RTVSPost2010Prop54
  1
strokes_ogs.tif
102
RTVSPost2010PropOp54
 70
     1
102
RTVSPost2010Prop55
280
     0
102
RTVSPost2010PropOp55
 70
     1
102
RTVSPost2010Prop56
140
1.0
102
RTVSPost2010PropOp56
 70
     1
102
RTVSPost2010Prop57
140
1.0
102
RTVSPost2010PropOp57
 70
     1
  0
XRECORD
  5
4E2
102
{ACAD_REACTORS
330
4E1
102
}
330
4E1
100
AcDbXrecord
280
     1
102
RTVSPropertyOp0
 70
     1
102
RTVSPropertyOp1
 70
     1
102
RTVSPropertyOp2
 70
     1
102
RTVSPropertyOp3
 70
     1
102
RTVSPropertyOp4
 70
     1
102
RTVSPropertyOp5
 70
     1
102
RTVSPropertyOp6
 70
     1
102
RTVSPropertyOp7
 70
     1
102
RTVSPropertyOp8
 70
     1
102
RTVSPropertyOp9
 70
     1
102
RTVSPropertyOp10
 70
     1
102
RTVSPropertyOp11
 70
     1
102
RTVSPropertyOp12
 70
     1
102
RTVSPropertyOp13
 70
     1
102
RTVSPropertyOp14
 70
     1
102
RTVSPropertyOp15
 70
     1
102
RTVSPropertyOp16
 70
     1
102
RTVSPropertyOp17
 70
     1
102
RTVSPropertyOp18
 70
     1
102
RTVSPropertyOp19
 70
     1
102
RTVSPropertyOp20
 70
     1
102
RTVSPropertyOp21
 70
     1
102
RTVSPropertyOp22
 70
     1
102
RTVSPropertyOp23
 70
     1
102
RTVSPropertyOp24
 70
     1
102
RTVSPropertyOp25
 70
     1
102
RTVSPropertyOp26
 70
     1
102
RTVSPropertyOp27
 70
     1
102
RTVSPropertyOp28
 70
     1
102
RTVSPropertyOp29
 70
     1
102
RTVSPropertyOp30
 70
     1
102
RTVSPropertyOp31
 70
     1
102
RTVSPropertyOp32
 70
     1
102
RTVSPropertyOp33
 70
     1
102
RTVSPropertyOp34
 70
     1
102
RTVSPropertyOp35
 70
     1
102
RTVSPropertyOp36
 70
     1
102
RTVSPropertyOp37
 70
     1
102
RTVSPropertyOp38
 70
     1
102
RTVSPropertyOp39
 70
     1
102
RTVSPropertyOp40
 70
     1
102
RTVSPropertyOp41
 70
     1
102
RTVSPropertyOp42
 70
     1
102
RTVSPropertyOp43
 70
     1
102
RTVSPropertyOp44
 70
     1
102
RTVSPropertyOp45
 70
     1
102
RTVSPropertyOp46
 70
     1
102
RTVSPropertyOp47
 70
     1
102
RTVSPropertyOp48
 70
     1
102
RTVSPropertyOp49
 70
     1
102
RTVSPropertyOp50
 70
     1
102
RTVSPropertyOp51
 70
     0
102
RTVSPropertyOp52
 70
     0
102
RTVSPropertyOp53
 70
     1
102
RTVSPropertyOp54
 70
     1
102
RTVSPropertyOp55
 70
     1
102
RTVSPropertyOp56
 70
     1
102
RTVSPropertyOp57
 70
     1
102
RTVSPost2010Prop28
280
     0
102
RTVSPost2010PropOp28
 70
     1
102
RTVSPost2010Prop29
280
     1
102
RTVSPost2010PropOp29
 70
     1
102
RTVSPost2010Prop30
280
     1
102
RTVSPost2010PropOp30
 70
     1
102
RTVSPost2010Prop31
280
     0
102
RTVSPost2010PropOp31
 70
     1
102
RTVSPost2010Prop32
280
     0
102
RTVSPost2010PropOp32
 70
     1
102
RTVSPost2010Prop33
280
     0
102
RTVSPost2010PropOp33
 70
     1
102
RTVSPost2010Prop34
280
     0
102
RTVSPost2010PropOp34
 70
     1
102
RTVSPost2010Prop35
280
     0
102
RTVSPost2010PropOp35
 70
     1
102
RTVSPost2010Prop36
280
     0
102
RTVSPost2010PropOp36
 70
     1
102
RTVSPost2010Prop37
 90
       50
102
RTVSPost2010PropOp37
 70
     1
102
RTVSPost2010Prop38
140
0.0
102
RTVSPost2010PropOp38
 70
     1
102
RTVSPost2010Prop39
140
1.0
102
RTVSPost2010PropOp39
 70
     1
102
RTVSPost2010Prop40
 90
        0
102
RTVSPost2010PropOp40
 70
     1
102
RTVSPost2010Prop41ColorIndex
 90
       18
102
RTVSPost2010Prop41ColorRGB
 90
        0
102
RTVSPost2010PropOp41
 70
     1
102
RTVSPost2010Prop42
 90
       50
102
RTVSPost2010PropOp42
 70
     1
102
RTVSPost2010Prop43
 90
        3
102
RTVSPost2010PropOp43
 70
     1
102
RTVSPost2010Prop44ColorIndex
 90
        5
102
RTVSPost2010Prop44ColorRGB
 90
      255
102
RTVSPost2010PropOp44
 70
     1
102
RTVSPost2010Prop45
280
     0
102
RTVSPost2010PropOp45
 70
     1
102
RTVSPost2010Prop46
 90
       50
102
RTVSPost2010PropOp46
 70
     1
102
RTVSPost2010Prop47
 90
       50
102
RTVSPost2010PropOp47
 70
     1
102
RTVSPost2010Prop48
 90
       50
102
RTVSPost2010PropOp48
 70
     1
102
RTVSPost2010Prop49
280
     0
102
RTVSPost2010PropOp49
 70
     1
102
RTVSPost2010Prop50
 90
       50
102
RTVSPost2010PropOp50
 70
     1
102
RTVSPost2010Prop51ColorIndex
 90
      256
102
RTVSPost2010Prop51ColorRGB
 90
-16777216
102
RTVSPost2010PropOp51
 70
     0
102
RTVSPost2010Prop52
140
1.0
102
RTVSPost2010PropOp52
 70
     0
102
RTVSPost2010Prop53
 90
        2
102
RTVSPost2010PropOp53
 70
     1
102
RTVSPost2010Prop54
  1
strokes_ogs.tif
102
RTVSPost2010PropOp54
 70
     1
102
RTVSPost2010Prop55
280
     0
102
RTVSPost2010PropOp55
 70
     1
102
RTVSPost2010Prop56
140
1.0
102
RTVSPost2010PropOp56
 70
     1
102
RTVSPost2010Prop57
140
1.0
102
RTVSPost2010PropOp57
 70
     1
  0
ENDSEC
  0
EOF
