  0
SECTION
  2
HEADER
  9
$ACADVER
  1
AC1015
  9
$ACADMAINTVER
 70
     6
  9
$DWGCODEPAGE
  3
ANSI_1252
  9
$INSBASE
 10
0.0
 20
0.0
 30
0.0
  9
$EXTMIN
 10
0.0
 20
0.0
 30
0.0
  9
$EXTMAX
 10
2100.0
 20
2970.0
 30
0.0
  9
$LIMMIN
 10
0.0
 20
0.0
  9
$LIMMAX
 10
2100.0
 20
2970.0
  9
$ORTHOMODE
 70
     0
  9
$REGENMODE
 70
     1
  9
$FILLMODE
 70
     1
  9
$QTEXTMODE
 70
     0
  9
$MIRRTEXT
 70
     1
  9
$LTSCALE
 40
10.0
  9
$ATTMODE
 70
     1
  9
$TEXTSIZE
 40
20.0
  9
$TRACEWID
 40
1.0
  9
$TEXTSTYLE
  7
Standard
  9
$CLAYER
  8
0
  9
$CELTYPE
  6
ByLayer
  9
$CECOLOR
 62
   256
  9
$CELTSCALE
 40
1.0
  9
$DISPSILH
 70
     0
  9
$DIMSCALE
 40
1.0
  9
$DIMASZ
 40
2.5
  9
$DIMEXO
 40
0.625
  9
$DIMDLI
 40
3.75
  9
$DIMRND
 40
0.0
  9
$DIMDLE
 40
0.0
  9
$DIMEXE
 40
1.25
  9
$DIMTP
 40
0.0
  9
$DIMTM
 40
0.0
  9
$DIMTXT
 40
2.5
  9
$DIMCEN
 40
2.5
  9
$DIMTSZ
 40
0.0
  9
$DIMTOL
 70
     0
  9
$DIMLIM
 70
     0
  9
$DIMTIH
 70
     0
  9
$DIMTOH
 70
     0
  9
$DIMSE1
 70
     0
  9
$DIMSE2
 70
     0
  9
$DIMTAD
 70
     1
  9
$DIMZIN
 70
     8
  9
$DIMBLK
  1

  9
$DIMASO
 70
     1
  9
$DIMSHO
 70
     1
  9
$DIMPOST
  1

  9
$DIMAPOST
  1

  9
$DIMALT
 70
     0
  9
$DIMALTD
 70
     3
  9
$DIMALTF
 40
0.03937007874016
  9
$DIMLFAC
 40
1.0
  9
$DIMTOFL
 70
     1
  9
$DIMTVP
 40
0.0
  9
$DIMTIX
 70
     0
  9
$DIMSOXD
 70
     0
  9
$DIMSAH
 70
     0
  9
$DIMBLK1
  1

  9
$DIMBLK2
  1

  9
$DIMSTYLE
  2
ISO-25
  9
$DIMCLRD
 70
     0
  9
$DIMCLRE
 70
     0
  9
$DIMCLRT
 70
     0
  9
$DIMTFAC
 40
1.0
  9
$DIMGAP
 40
0.625
  9
$DIMJUST
 70
     0
  9
$DIMSD1
 70
     0
  9
$DIMSD2
 70
     0
  9
$DIMTOLJ
 70
     0
  9
$DIMTZIN
 70
     8
  9
$DIMALTZ
 70
     0
  9
$DIMALTTZ
 70
     0
  9
$DIMUPT
 70
     0
  9
$DIMDEC
 70
     2
  9
$DIMTDEC
 70
     2
  9
$DIMALTU
 70
     2
  9
$DIMALTTD
 70
     3
  9
$DIMTXSTY
  7
Standard
  9
$DIMAUNIT
 70
     0
  9
$DIMADEC
 70
     0
  9
$DIMALTRND
 40
0.0
  9
$DIMAZIN
 70
     0
  9
$DIMDSEP
 70
    44
  9
$DIMATFIT
 70
     3
  9
$DIMFRAC
 70
     0
  9
$DIMLDRBLK
  1

  9
$DIMLUNIT
 70
     2
  9
$DIMLWD
 70
    -2
  9
$DIMLWE
 70
    -2
  9
$DIMTMOVE
 70
     0
  9
$LUNITS
 70
     2
  9
$LUPREC
 70
     4
  9
$SKETCHINC
 40
1.0
  9
$FILLETRAD
 40
10.0
  9
$AUNITS
 70
     0
  9
$AUPREC
 70
     0
  9
$MENU
  1
.
  9
$ELEVATION
 40
0.0
  9
$PELEVATION
 40
0.0
  9
$THICKNESS
 40
0.0
  9
$LIMCHECK
 70
     0
  9
$CHAMFERA
 40
0.0
  9
$CHAMFERB
 40
0.0
  9
$CHAMFERC
 40
0.0
  9
$CHAMFERD
 40
0.0
  9
$SKPOLY
 70
     0
  9
$TDCREATE
 40
2459948.706327546
  9
$TDUCREATE
 40
2459948.622994213
  9
$TDUPDATE
 40
2460427.596362361
  9
$TDUUPDATE
 40
2460427.513029028
  9
$TDINDWG
 40
0.0000000116
  9
$TDUSRTIMER
 40
0.0000000116
  9
$USRTIMER
 70
     1
  9
$ANGBASE
 50
0.0
  9
$ANGDIR
 70
     0
  9
$PDMODE
 70
     0
  9
$PDSIZE
 40
0.0
  9
$PLINEWID
 40
0.0
  9
$SPLFRAME
 70
     0
  9
$SPLINETYPE
 70
     6
  9
$SPLINESEGS
 70
     8
  9
$HANDSEED
  5
36F
  9
$SURFTAB1
 70
     6
  9
$SURFTAB2
 70
     6
  9
$SURFTYPE
 70
     6
  9
$SURFU
 70
     6
  9
$SURFV
 70
     6
  9
$UCSBASE
  2

  9
$UCSNAME
  2

  9
$UCSORG
 10
0.0
 20
0.0
 30
0.0
  9
$UCSXDIR
 10
1.0
 20
0.0
 30
0.0
  9
$UCSYDIR
 10
0.0
 20
1.0
 30
0.0
  9
$UCSORTHOREF
  2

  9
$UCSORTHOVIEW
 70
     0
  9
$UCSORGTOP
 10
0.0
 20
0.0
 30
0.0
  9
$UCSORGBOTTOM
 10
0.0
 20
0.0
 30
0.0
  9
$UCSORGLEFT
 10
0.0
 20
0.0
 30
0.0
  9
$UCSORGRIGHT
 10
0.0
 20
0.0
 30
0.0
  9
$UCSORGFRONT
 10
0.0
 20
0.0
 30
0.0
  9
$UCSORGBACK
 10
0.0
 20
0.0
 30
0.0
  9
$PUCSBASE
  2

  9
$PUCSNAME
  2

  9
$PUCSORG
 10
0.0
 20
0.0
 30
0.0
  9
$PUCSXDIR
 10
1.0
 20
0.0
 30
0.0
  9
$PUCSYDIR
 10
0.0
 20
1.0
 30
0.0
  9
$PUCSORTHOREF
  2

  9
$PUCSORTHOVIEW
 70
     0
  9
$PUCSORGTOP
 10
0.0
 20
0.0
 30
0.0
  9
$PUCSORGBOTTOM
 10
0.0
 20
0.0
 30
0.0
  9
$PUCSORGLEFT
 10
0.0
 20
0.0
 30
0.0
  9
$PUCSORGRIGHT
 10
0.0
 20
0.0
 30
0.0
  9
$PUCSORGFRONT
 10
0.0
 20
0.0
 30
0.0
  9
$PUCSORGBACK
 10
0.0
 20
0.0
 30
0.0
  9
$USERI1
 70
     0
  9
$USERI2
 70
     0
  9
$USERI3
 70
     0
  9
$USERI4
 70
     0
  9
$USERI5
 70
     0
  9
$USERR1
 40
0.0
  9
$USERR2
 40
0.0
  9
$USERR3
 40
0.0
  9
$USERR4
 40
0.0
  9
$USERR5
 40
0.0
  9
$WORLDVIEW
 70
     1
  9
$SHADEDGE
 70
     3
  9
$SHADEDIF
 70
    70
  9
$TILEMODE
 70
     1
  9
$MAXACTVP
 70
    64
  9
$PINSBASE
 10
0.0
 20
0.0
 30
0.0
  9
$PLIMCHECK
 70
     0
  9
$PEXTMIN
 10
0.0
 20
0.0
 30
0.0
  9
$PEXTMAX
 10
2100.0
 20
2970.0
 30
0.0
  9
$PLIMMIN
 10
0.0
 20
0.0
  9
$PLIMMAX
 10
2100.0
 20
2970.0
  9
$UNITMODE
 70
     0
  9
$VISRETAIN
 70
     1
  9
$PLINEGEN
 70
     0
  9
$PSLTSCALE
 70
     1
  9
$TREEDEPTH
 70
  3020
  9
$CMLSTYLE
  2
Standard
  9
$CMLJUST
 70
     0
  9
$CMLSCALE
 40
20.0
  9
$PROXYGRAPHICS
 70
     1
  9
$MEASUREMENT
 70
     1
  9
$CELWEIGHT
370
    -1
  9
$ENDCAPS
280
     0
  9
$JOINSTYLE
280
     0
  9
$LWDISPLAY
290
     0
  9
$INSUNITS
 70
     4
  9
$HYPERLINKBASE
  1

  9
$STYLESHEET
  1

  9
$XEDIT
290
     1
  9
$CEPSNTYPE
380
     0
  9
$PSTYLEMODE
290
     1
  9
$FINGERPRINTGUID
  2
{15F79C39-D0F6-4B92-BDA8-9F82D3D77CB8}
  9
$VERSIONGUID
  2
{FAEB1C32-E019-11D5-929B-00C0DF256EC4}
  9
$EXTNAMES
290
     1
  9
$PSVPSCALE
 40
0.0
  9
$OLESTARTUP
290
     0
  0
ENDSEC
  0
SECTION
  2
CLASSES
  0
CLASS
  1
ACDBDICTIONARYWDFLT
  2
AcDbDictionaryWithDefault
  3
ObjectDBX Classes
 90
        0
280
     0
281
     0
  0
CLASS
  1
VISUALSTYLE
  2
AcDbVisualStyle
  3
ObjectDBX Classes
 90
     4095
280
     0
281
     0
  0
CLASS
  1
MATERIAL
  2
AcDbMaterial
  3
ObjectDBX Classes
 90
     1153
280
     0
281
     0
  0
CLASS
  1
SCALE
  2
AcDbScale
  3
ObjectDBX Classes
 90
     1153
280
     0
281
     0
  0
CLASS
  1
TABLESTYLE
  2
AcDbTableStyle
  3
ObjectDBX Classes
 90
     4095
280
     0
281
     0
  0
CLASS
  1
MLEADERSTYLE
  2
AcDbMLeaderStyle
  3
ACDB_MLEADERSTYLE_CLASS
 90
     4095
280
     0
281
     0
  0
CLASS
  1
SUN
  2
AcDbSun
  3
SCENEOE
 90
     1153
280
     0
281
     0
  0
CLASS
  1
DICTIONARYVAR
  2
AcDbDictionaryVar
  3
ObjectDBX Classes
 90
        0
280
     0
281
     0
  0
CLASS
  1
CELLSTYLEMAP
  2
AcDbCellStyleMap
  3
ObjectDBX Classes
 90
     1152
280
     0
281
     0
  0
CLASS
  1
ACDBPLACEHOLDER
  2
AcDbPlaceHolder
  3
ObjectDBX Classes
 90
        0
280
     0
281
     0
  0
CLASS
  1
LAYOUT
  2
AcDbLayout
  3
ObjectDBX Classes
 90
        0
280
     0
281
     0
  0
ENDSEC
  0
SECTION
  2
TABLES
  0
TABLE
  2
VPORT
  5
8
102
{ACAD_XDICTIONARY
360
333
102
}
330
0
100
AcDbSymbolTable
 70
     1
  0
VPORT
  5
29
330
8
100
AcDbSymbolTableRecord
100
AcDbViewportTableRecord
  2
*Active
 70
     0
 10
0.0
 20
0.0
 11
1.0
 21
1.0
 12
344.1869158878504
 22
148.5
 13
0.0
 23
0.0
 14
10.0
 24
10.0
 15
10.0
 25
10.0
 16
0.0
 26
0.0
 36
1.0
 17
0.0
 27
0.0
 37
0.0
 40
297.0
 41
1.972972972850329
 42
50.0
 43
0.0
 44
0.0
 50
0.0
 51
0.0
 71
     0
 72
   100
 73
     1
 74
     3
 75
     0
 76
     0
 77
     0
 78
     0
281
     0
 65
     1
110
0.0
120
0.0
130
0.0
111
1.0
121
0.0
131
0.0
112
0.0
122
1.0
132
0.0
 79
     0
146
0.0
  0
ENDTAB
  0
TABLE
  2
LTYPE
  5
5
330
0
100
AcDbSymbolTable
 70
     1
  0
LTYPE
  5
14
330
5
100
AcDbSymbolTableRecord
100
AcDbLinetypeTableRecord
  2
ByBlock
 70
     0
  3

 72
    65
 73
     0
 40
0.0
  0
LTYPE
  5
15
330
5
100
AcDbSymbolTableRecord
100
AcDbLinetypeTableRecord
  2
ByLayer
 70
     0
  3

 72
    65
 73
     0
 40
0.0
  0
LTYPE
  5
16
330
5
100
AcDbSymbolTableRecord
100
AcDbLinetypeTableRecord
  2
Continuous
 70
     0
  3
Solid line
 72
    65
 73
     0
 40
0.0
  0
ENDTAB
  0
TABLE
  2
LAYER
  5
2
330
0
100
AcDbSymbolTable
 70
     9
  0
LAYER
  5
10
330
2
100
AcDbSymbolTableRecord
100
AcDbLayerTableRecord
  2
0
 70
     0
 62
     7
  6
Continuous
370
    -3
390
F
  0
LAYER
  5
6E
330
2
100
AcDbSymbolTableRecord
100
AcDbLayerTableRecord
  2
Default
 70
     0
 62
     7
  6
Continuous
370
    -3
390
F
  0
LAYER
  5
71
330
2
100
AcDbSymbolTableRecord
100
AcDbLayerTableRecord
  2
DV1_0
 70
     0
 62
     7
  6
Continuous
370
    -3
390
F
  0
LAYER
  5
10E
330
2
100
AcDbSymbolTableRecord
100
AcDbLayerTableRecord
  2
DV2_0
 70
     0
 62
     7
  6
Continuous
370
    -3
390
F
  0
LAYER
  5
173
330
2
100
AcDbSymbolTableRecord
100
AcDbLayerTableRecord
  2
DV2_Predeterminado
 70
     0
 62
     7
  6
Continuous
370
    -3
390
F
  0
LAYER
  5
179
330
2
100
AcDbSymbolTableRecord
100
AcDbLayerTableRecord
  2
DV3_0
 70
     0
 62
     7
  6
Continuous
370
    -3
390
F
  0
LAYER
  5
211
330
2
100
AcDbSymbolTableRecord
100
AcDbLayerTableRecord
  2
DV4_0
 70
     0
 62
     7
  6
Continuous
370
    -3
390
F
  0
LAYER
  5
2CE
330
2
100
AcDbSymbolTableRecord
100
AcDbLayerTableRecord
  2
Predeterminado
 70
     0
 62
     7
  6
Continuous
370
    -3
390
F
  0
LAYER
  5
2E8
330
2
100
AcDbSymbolTableRecord
100
AcDbLayerTableRecord
  2
D
 70
     0
 62
     7
  6
Continuous
370
    -3
390
F
  0
ENDTAB
  0
TABLE
  2
STYLE
  5
3
330
0
100
AcDbSymbolTable
 70
     5
  0
STYLE
  5
11
330
3
100
AcDbSymbolTableRecord
100
AcDbTextStyleTableRecord
  2
Standard
 70
     0
 40
0.0
 41
1.0
 50
0.0
 71
     0
 42
20.0
  3
txt
  4

  0
STYLE
  5
2B4
330
3
100
AcDbSymbolTableRecord
100
AcDbTextStyleTableRecord
  2
SEACAD_Solid_Edge_ANSI
 70
     0
 40
0.0
 41
1.0
 50
0.0
 71
     0
 42
2.5
  3
seans.ttf
  4

1001
ACAD
1000
Solid Edge ANSI
1071
        0
  0
STYLE
  5
2C9
330
3
100
AcDbSymbolTableRecord
100
AcDbTextStyleTableRecord
  2
GDT
 70
     0
 40
0.0
 41
1.0
 50
0.0
 71
     0
 42
2.5
  3
gdt_____.ttf
  4

1001
ACAD
1000
GDT
1071
        0
  0
STYLE
  5
32A
330
3
100
AcDbSymbolTableRecord
100
AcDbTextStyleTableRecord
  2
MtXpl_Arial
 70
     0
 40
0.2
 41
1.0
 50
0.0
 71
     0
 42
20.0
  3
arialbd.ttf
  4

1001
ACAD
1000
Arial
1071
 33554466
  0
STYLE
  5
32B
330
3
100
AcDbSymbolTableRecord
100
AcDbTextStyleTableRecord
  2
MtXpl_Arial1
 70
     0
 40
0.2
 41
1.0
 50
0.0
 71
     0
 42
20.0
  3

  4

1001
ACAD
1000
Arial
1071
       34
  0
ENDTAB
  0
TABLE
  2
VIEW
  5
6
330
0
100
AcDbSymbolTable
 70
     0
  0
ENDTAB
  0
TABLE
  2
UCS
  5
7
330
0
100
AcDbSymbolTable
 70
     0
  0
ENDTAB
  0
TABLE
  2
APPID
  5
9
330
0
100
AcDbSymbolTable
 70
     2
  0
APPID
  5
12
330
9
100
AcDbSymbolTableRecord
100
AcDbRegAppTableRecord
  2
ACAD
 70
     0
  0
APPID
  5
321
330
9
100
AcDbSymbolTableRecord
100
AcDbRegAppTableRecord
  2
ACAD_MLEADERVER
 70
     0
  0
ENDTAB
  0
TABLE
  2
DIMSTYLE
  5
A
330
0
100
AcDbSymbolTable
 70
     1
100
AcDbDimStyleTable
  0
DIMSTYLE
105
27
330
A
100
AcDbSymbolTableRecord
100
AcDbDimStyleTableRecord
  2
ISO-25
 70
     0
 41
2.5
 42
0.625
 43
3.75
 44
1.25
 73
     0
 74
     0
 77
     1
 78
     8
140
2.5
141
2.5
143
0.03937007874016
147
0.625
171
     3
172
     1
178
     0
271
     2
272
     2
274
     3
278
    44
283
     0
284
     8
340
11
  0
ENDTAB
  0
TABLE
  2
BLOCK_RECORD
  5
1
330
0
100
AcDbSymbolTable
 70
    10
  0
BLOCK_RECORD
  5
1F
330
1
100
AcDbSymbolTableRecord
100
AcDbBlockTableRecord
  2
*Model_Space
340
22
  0
BLOCK_RECORD
  5
1B
330
1
100
AcDbSymbolTableRecord
100
AcDbBlockTableRecord
  2
*Paper_Space
340
1E
  0
BLOCK_RECORD
  5
6F
330
1
100
AcDbSymbolTableRecord
100
AcDbBlockTableRecord
  2
SE
340
0
102
{BLKREFS
331
70
102
}
  0
BLOCK_RECORD
  5
10C
330
1
100
AcDbSymbolTableRecord
100
AcDbBlockTableRecord
  2
SE1
340
0
102
{BLKREFS
331
10D
102
}
  0
BLOCK_RECORD
  5
177
330
1
100
AcDbSymbolTableRecord
100
AcDbBlockTableRecord
  2
SE2
340
0
102
{BLKREFS
331
178
102
}
  0
BLOCK_RECORD
  5
20F
330
1
100
AcDbSymbolTableRecord
100
AcDbBlockTableRecord
  2
SE3
340
0
102
{BLKREFS
331
210
102
}
  0
BLOCK_RECORD
  5
2AD
330
1
100
AcDbSymbolTableRecord
100
AcDbBlockTableRecord
  2
GDimGGroup
340
0
102
{BLKREFS
331
2AE
102
}
  0
BLOCK_RECORD
  5
2B8
330
1
100
AcDbSymbolTableRecord
100
AcDbBlockTableRecord
  2
GDimGGroup1
340
0
102
{BLKREFS
331
2B9
102
}
  0
BLOCK_RECORD
  5
2C2
330
1
100
AcDbSymbolTableRecord
100
AcDbBlockTableRecord
  2
GDimGGroup2
340
0
102
{BLKREFS
331
2C3
102
}
  0
BLOCK_RECORD
  5
2CF
330
1
100
AcDbSymbolTableRecord
100
AcDbBlockTableRecord
  2
SEANNOT_GROUP
340
0
102
{BLKREFS
331
2D0
102
}
  0
BLOCK_RECORD
  5
2DE
330
1
100
AcDbSymbolTableRecord
100
AcDbBlockTableRecord
  2
SEANNOT_GROUP1
340
0
102
{BLKREFS
331
2DF
102
}
  0
BLOCK_RECORD
  5
2E3
330
1
100
AcDbSymbolTableRecord
100
AcDbBlockTableRecord
  2
SEANNOT_GROUP2
340
0
102
{BLKREFS
331
2E4
102
}
  0
ENDTAB
  0
ENDSEC
  0
SECTION
  2
BLOCKS
  0
BLOCK
  5
20
330
1F
100
AcDbEntity
  8
0
100
AcDbBlockBegin
  2
*Model_Space
 70
     0
 10
0.0
 20
0.0
 30
0.0
  3
*Model_Space
  1

  0
ENDBLK
  5
21
330
1F
100
AcDbEntity
  8
0
100
AcDbBlockEnd
  0
BLOCK
  5
1C
330
1B
100
AcDbEntity
 67
     1
  8
0
100
AcDbBlockBegin
  2
*Paper_Space
 70
     0
 10
0.0
 20
0.0
 30
0.0
  3
*Paper_Space
  1

  0
ENDBLK
  5
1D
330
1B
100
AcDbEntity
 67
     1
  8
0
100
AcDbBlockEnd
  0
BLOCK
  5
10A
330
6F
100
AcDbEntity
  8
0
100
AcDbBlockBegin
  2
SE
 70
     0
 10
0.0
 20
0.0
 30
0.0
  3
SE
  1

  0
LINE
  5
72
330
6F
100
AcDbEntity
  8
DV1_0
 62
     7
370
    35
100
AcDbLine
 10
662.0464066571432
 20
1440.06029715298
 30
0.0
 11
662.0464066571432
 21
1445.06029715298
 31
0.0
  0
LINE
  5
73
330
6F
100
AcDbEntity
  8
DV1_0
 62
     7
370
    35
100
AcDbLine
 10
632.046406657143
 20
1440.06029715298
 30
0.0
 11
632.046406657143
 21
1525.06029715298
 31
0.0
  0
LINE
  5
74
330
6F
100
AcDbEntity
  8
DV1_0
 62
     7
370
    35
100
AcDbLine
 10
842.4584539026564
 20
1435.06029715298
 30
0.0
 11
842.4584539026564
 21
1445.06029715298
 31
0.0
  0
LINE
  5
75
330
6F
100
AcDbEntity
  8
DV1_0
 62
     7
370
    35
100
AcDbLine
 10
827.4584539026564
 20
1435.06029715298
 30
0.0
 11
827.4584539026564
 21
1445.06029715298
 31
0.0
  0
LINE
  5
76
330
6F
100
AcDbEntity
  8
DV1_0
 62
     7
370
    35
100
AcDbLine
 10
823.1177483747434
 20
1440.06029715298
 30
0.0
 11
823.1177483747434
 21
1445.06029715298
 31
0.0
  0
LINE
  5
77
330
6F
100
AcDbEntity
  8
DV1_0
 62
     7
370
    35
100
AcDbLine
 10
842.4584539026564
 20
1435.06029715298
 30
0.0
 11
827.4584539026564
 21
1435.06029715298
 31
0.0
  0
LINE
  5
78
330
6F
100
AcDbEntity
  8
DV1_0
 62
     7
370
    35
100
AcDbLine
 10
827.4584539026564
 20
1435.06029715298
 30
0.0
 11
793.265915828881
 21
1435.06029715298
 31
0.0
  0
LINE
  5
79
330
6F
100
AcDbEntity
  8
DV1_0
 62
     7
370
    35
100
AcDbLine
 10
466.63435941163
 20
1435.06029715298
 30
0.0
 11
466.63435941163
 21
1525.06029715298
 31
0.0
  0
LINE
  5
7A
330
6F
100
AcDbEntity
  8
DV1_0
 62
     7
370
    35
100
AcDbLine
 10
451.63435941163
 20
1435.06029715298
 30
0.0
 11
451.63435941163
 21
1445.06029715298
 31
0.0
  0
LINE
  5
7B
330
6F
100
AcDbEntity
  8
DV1_0
 62
     7
370
    35
100
AcDbLine
 10
470.9750649395428
 20
1440.06029715298
 30
0.0
 11
470.9750649395428
 21
1525.06029715298
 31
0.0
  0
LINE
  5
7C
330
6F
100
AcDbEntity
  8
DV1_0
 62
     7
370
    35
100
AcDbLine
 10
466.63435941163
 20
1435.06029715298
 30
0.0
 11
451.63435941163
 21
1435.06029715298
 31
0.0
  0
LINE
  5
7D
330
6F
100
AcDbEntity
  8
DV1_0
 62
     7
370
    35
100
AcDbLine
 10
500.8268974854054
 20
1435.06029715298
 30
0.0
 11
466.63435941163
 21
1435.06029715298
 31
0.0
  0
SPLINE
  5
7E
330
6F
100
AcDbEntity
  8
DV1_0
 62
     7
370
    35
100
AcDbSpline
210
0.0
220
0.0
230
1.0
 70
     8
 71
     3
 72
    10
 73
     6
 74
     0
 42
0.000000001
 43
0.0000000001
 40
0.199314671130511
 40
0.199314671130511
 40
0.199314671130511
 40
0.199314671130511
 40
0.2500000000000063
 40
0.2500000000000063
 40
0.2500864936720694
 40
0.2500864936720694
 40
0.2500864936720694
 40
0.2500864936720694
 10
740.2869466714535
 20
2226.265698425783
 30
0.0
 10
740.6510104869121
 20
2226.13181225239
 30
0.0
 10
741.0329928323822
 20
2226.060522603416
 30
0.0
 10
741.4148549657067
 20
2226.060297334212
 30
0.0
 10
741.4155054997865
 20
2226.06029714921
 30
0.0
 10
741.416156036576
 20
2226.060297162952
 30
0.0
  0
SPLINE
  5
7F
330
6F
100
AcDbEntity
  8
DV1_0
 62
     7
370
    35
100
AcDbSpline
210
0.0
220
0.0
230
1.0
 70
     8
 71
     3
 72
     8
 73
     4
 74
     0
 42
0.000000001
 43
0.0000000001
 40
0.7501629540519256
 40
0.7501629540519256
 40
0.7501629540519256
 40
0.7501629540519256
 40
0.8008447269770043
 40
0.8008447269770043
 40
0.8008447269770043
 40
0.8008447269770043
 10
741.4160740899932
 20
2234.060297162931
 30
0.0
 10
741.0306904323916
 20
2234.060293848286
 30
0.0
 10
740.649627906298
 20
2233.992006540821
 30
0.0
 10
740.2854603128097
 20
2233.858949788739
 30
0.0
  0
ARC
  5
80
330
6F
100
AcDbEntity
  8
DV1_0
 62
     7
370
    35
100
AcDbCircle
 10
679.4630508904249
 20
2230.064200345813
 30
0.0
 40
3.977584194923211
100
AcDbArc
 50
90.00008616571617
 51
126.9303457814226
  0
ARC
  5
81
330
6F
100
AcDbEntity
  8
DV1_0
 62
     7
370
    35
100
AcDbCircle
 10
679.4630508904249
 20
2230.064200345813
 30
0.0
 40
3.977584194923211
100
AcDbArc
 50
233.1636401687117
 51
270.0011096269986
  0
SPLINE
  5
82
330
6F
100
AcDbEntity
  8
DV1_0
 62
     7
370
    35
100
AcDbSpline
210
0.0
220
0.0
230
1.0
 70
     8
 71
     3
 72
     8
 73
     4
 74
     0
 42
0.000000001
 43
0.0000000001
 40
0.2500864936720618
 40
0.2500864936720618
 40
0.2500864936720618
 40
0.2500864936720618
 40
0.3017559869099976
 40
0.3017559869099976
 40
0.3017559869099976
 40
0.3017559869099976
 10
552.6767295209337
 20
2226.060297162952
 30
0.0
 10
553.0653467266798
 20
2226.060305372228
 30
0.0
 10
553.4561026328946
 20
2226.131237432858
 30
0.0
 10
553.8271703936882
 20
2226.269094570629
 30
0.0
  0
LINE
  5
83
330
6F
100
AcDbEntity
  8
DV1_0
 62
     7
370
    35
100
AcDbLine
 10
662.0464066571432
 20
1440.06029715298
 30
0.0
 11
662.0464066571432
 21
1435.06029715298
 31
0.0
  0
LINE
  5
84
330
6F
100
AcDbEntity
  8
DV1_0
 62
     7
370
    35
100
AcDbLine
 10
662.0464066571432
 20
1440.06029715298
 30
0.0
 11
632.0464066571432
 21
1440.06029715298
 31
0.0
  0
LINE
  5
85
330
6F
100
AcDbEntity
  8
DV1_0
 62
     7
370
    35
100
AcDbLine
 10
632.046406657143
 20
1440.06029715298
 30
0.0
 11
632.046406657143
 21
1435.06029715298
 31
0.0
  0
LINE
  5
86
330
6F
100
AcDbEntity
  8
DV1_0
 62
     7
370
    35
100
AcDbLine
 10
662.0464066571432
 20
1435.06029715298
 30
0.0
 11
632.0464066571432
 21
1435.06029715298
 31
0.0
  0
LINE
  5
87
330
6F
100
AcDbEntity
  8
DV1_0
 62
     7
370
    35
100
AcDbLine
 10
823.1177483747434
 20
1440.06029715298
 30
0.0
 11
793.2659158288809
 21
1440.06029715298
 31
0.0
  0
LINE
  5
88
330
6F
100
AcDbEntity
  8
DV1_0
 62
     7
370
    35
100
AcDbLine
 10
793.265915828881
 20
1440.06029715298
 30
0.0
 11
793.265915828881
 21
1435.06029715298
 31
0.0
  0
LINE
  5
89
330
6F
100
AcDbEntity
  8
DV1_0
 62
     7
370
    35
100
AcDbLine
 10
500.8268974854054
 20
1440.06029715298
 30
0.0
 11
500.8268974854054
 21
1435.06029715298
 31
0.0
  0
LINE
  5
8A
330
6F
100
AcDbEntity
  8
DV1_0
 62
     7
370
    35
100
AcDbLine
 10
500.8268974854054
 20
1440.06029715298
 30
0.0
 11
470.9750649395428
 21
1440.06029715298
 31
0.0
  0
SPLINE
  5
8B
330
6F
100
AcDbEntity
  8
DV1_0
 62
     7
370
    35
100
AcDbSpline
210
0.0
220
0.0
230
1.0
 70
     8
 71
     3
 72
    10
 73
     6
 74
     0
 42
0.000000001
 43
0.0000000001
 40
0.1993146711305197
 40
0.1993146711305197
 40
0.1993146711305197
 40
0.1993146711305197
 40
0.2499999999999994
 40
0.2499999999999994
 40
0.2500864936720654
 40
0.2500864936720654
 40
0.2500864936720654
 40
0.2500864936720654
 10
740.2869466714537
 20
1621.265698425783
 30
0.0
 10
740.6510104869122
 20
1621.13181225239
 30
0.0
 10
741.0329928323822
 20
1621.060522603416
 30
0.0
 10
741.4148549657066
 20
1621.060297334211
 30
0.0
 10
741.4155054997864
 20
1621.060297149209
 30
0.0
 10
741.416156036576
 20
1621.060297162952
 30
0.0
  0
SPLINE
  5
8C
330
6F
100
AcDbEntity
  8
DV1_0
 62
     7
370
    35
100
AcDbSpline
210
0.0
220
0.0
230
1.0
 70
     8
 71
     3
 72
     8
 73
     4
 74
     0
 42
0.000000001
 43
0.0000000001
 40
0.7501629540519266
 40
0.7501629540519266
 40
0.7501629540519266
 40
0.7501629540519266
 40
0.8008447269769918
 40
0.8008447269769918
 40
0.8008447269769918
 40
0.8008447269769918
 10
741.416074089993
 20
1629.06029716293
 30
0.0
 10
741.0306904323916
 20
1629.060293848285
 30
0.0
 10
740.6496279062983
 20
1628.992006540821
 30
0.0
 10
740.2854603128101
 20
1628.858949788739
 30
0.0
  0
ARC
  5
8D
330
6F
100
AcDbEntity
  8
DV1_0
 62
     7
370
    35
100
AcDbCircle
 10
679.4630508904249
 20
1625.064200345812
 30
0.0
 40
3.97758419492323
100
AcDbArc
 50
90.00008616571617
 51
126.9303457814174
  0
ARC
  5
8E
330
6F
100
AcDbEntity
  8
DV1_0
 62
     7
370
    35
100
AcDbCircle
 10
679.4630508904249
 20
1625.064200345812
 30
0.0
 40
3.97758419492323
100
AcDbArc
 50
233.1636401687221
 51
270.0011096269986
  0
SPLINE
  5
8F
330
6F
100
AcDbEntity
  8
DV1_0
 62
     7
370
    35
100
AcDbSpline
210
0.0
220
0.0
230
1.0
 70
     8
 71
     3
 72
     8
 73
     4
 74
     0
 42
0.000000001
 43
0.0000000001
 40
0.2500864936720617
 40
0.2500864936720617
 40
0.2500864936720617
 40
0.2500864936720617
 40
0.3017559869100042
 40
0.3017559869100042
 40
0.3017559869100042
 40
0.3017559869100042
 10
552.6767295209337
 20
1621.060297162951
 30
0.0
 10
553.0653467266798
 20
1621.060305372228
 30
0.0
 10
553.4561026328947
 20
1621.131237432857
 30
0.0
 10
553.8271703936883
 20
1621.269094570628
 30
0.0
  0
LINE
  5
90
330
6F
100
AcDbEntity
  8
DV1_0
 62
     7
370
    35
100
AcDbLine
 10
475.4513527453097
 20
1445.06029715298
 30
0.0
 11
470.9750649395428
 21
1445.06029715298
 31
0.0
  0
LINE
  5
91
330
6F
100
AcDbEntity
  8
DV1_0
 62
     7
370
    35
100
AcDbLine
 10
452.1750567153333
 20
1445.06029715298
 30
0.0
 11
424.8085372412718
 21
1445.06029715298
 31
0.0
  0
LINE
  5
92
330
6F
100
AcDbEntity
  8
DV1_0
 62
     7
370
    35
100
AcDbLine
 10
452.1750567153332
 20
2325.060297152981
 30
0.0
 11
452.1750567153333
 21
1445.06029715298
 31
0.0
  0
LINE
  5
93
330
6F
100
AcDbEntity
  8
DV1_0
 62
     7
370
    35
100
AcDbLine
 10
475.4513527453097
 20
1525.06029715298
 30
0.0
 11
475.4513527453097
 21
1445.06029715298
 31
0.0
  0
LINE
  5
94
330
6F
100
AcDbEntity
  8
DV1_0
 62
     7
370
    35
100
AcDbLine
 10
424.8085372412717
 20
2325.060297152981
 30
0.0
 11
424.8085372412718
 21
1445.06029715298
 31
0.0
  0
LINE
  5
95
330
6F
100
AcDbEntity
  8
DV1_0
 62
     7
370
    35
100
AcDbLine
 10
498.9107871224111
 20
1525.06029715298
 30
0.0
 11
494.5667413849305
 21
1525.06029715298
 31
0.0
  0
LINE
  5
96
330
6F
100
AcDbEntity
  8
DV1_0
 62
     7
370
    35
100
AcDbLine
 10
494.5667413849305
 20
1525.06029715298
 30
0.0
 11
457.105494947012
 21
1525.06029715298
 31
0.0
  0
LINE
  5
97
330
6F
100
AcDbEntity
  8
DV1_0
 62
     7
370
    35
100
AcDbLine
 10
494.5667413849301
 20
2325.06029715298
 30
0.0
 11
494.5667413849305
 21
1525.06029715298
 31
0.0
  0
LINE
  5
98
330
6F
100
AcDbEntity
  8
DV1_0
 62
     7
370
    35
100
AcDbLine
 10
424.8085372412718
 20
1525.060297152981
 30
0.0
 11
424.2038106668774
 21
1525.060297152981
 31
0.0
  0
LINE
  5
99
330
6F
100
AcDbEntity
  8
DV1_0
 62
     7
370
    35
100
AcDbLine
 10
424.2038106668774
 20
2325.060297152981
 30
0.0
 11
424.2038106668774
 21
1525.060297152981
 31
0.0
  0
LINE
  5
9A
330
6F
100
AcDbEntity
  8
DV1_0
 62
     7
370
    35
100
AcDbLine
 10
617.0568524441027
 20
1525.06029715298
 30
0.0
 11
611.1444146106571
 21
1525.06029715298
 31
0.0
  0
LINE
  5
9B
330
6F
100
AcDbEntity
  8
DV1_0
 62
     7
370
    35
100
AcDbLine
 10
611.1444146106571
 20
1525.06029715298
 30
0.0
 11
553.8261129104952
 21
1525.06029715298
 31
0.0
  0
LINE
  5
9C
330
6F
100
AcDbEntity
  8
DV1_0
 62
     7
370
    35
100
AcDbLine
 10
611.144414610657
 20
2325.060297152981
 30
0.0
 11
611.144414610657
 21
1525.060297152981
 31
0.0
  0
LINE
  5
9D
330
6F
100
AcDbEntity
  8
DV1_0
 62
     7
370
    35
100
AcDbLine
 10
617.0568524441026
 20
2325.060297152981
 30
0.0
 11
617.0568524441026
 21
2290.56029715298
 31
0.0
  0
LINE
  5
9E
330
6F
100
AcDbEntity
  8
DV1_0
 62
     7
370
    35
100
AcDbLine
 10
617.0568524441026
 20
2284.560297152981
 30
0.0
 11
617.0568524441026
 21
2245.060297152981
 31
0.0
  0
LINE
  5
9F
330
6F
100
AcDbEntity
  8
DV1_0
 62
     7
370
    35
100
AcDbLine
 10
617.0568524441026
 20
2233.21941625208
 30
0.0
 11
617.0568524441026
 21
2226.90521969545
 31
0.0
  0
LINE
  5
A0
330
6F
100
AcDbEntity
  8
DV1_0
 62
     7
370
    35
100
AcDbLine
 10
617.0568524441026
 20
2215.060297152981
 30
0.0
 11
617.0568524441026
 21
1640.060297152981
 31
0.0
  0
LINE
  5
A1
330
6F
100
AcDbEntity
  8
DV1_0
 62
     7
370
    35
100
AcDbLine
 10
617.0568524441026
 20
1610.060297152981
 30
0.0
 11
617.0568524441026
 21
1525.060297152981
 31
0.0
  0
LINE
  5
A2
330
6F
100
AcDbEntity
  8
DV1_0
 62
     7
370
    35
100
AcDbLine
 10
553.8261129104951
 20
2325.060297152981
 30
0.0
 11
553.8261129104951
 21
1525.060297152981
 31
0.0
  0
LINE
  5
A3
330
6F
100
AcDbEntity
  8
DV1_0
 62
     7
370
    35
100
AcDbLine
 10
710.2316105859959
 20
2325.060297152981
 30
0.0
 11
709.8230405687677
 21
2325.060297152981
 31
0.0
  0
LINE
  5
A4
330
6F
100
AcDbEntity
  8
DV1_0
 62
     7
370
    35
100
AcDbLine
 10
682.952913492908
 20
1525.06029715298
 30
0.0
 11
677.0727515884635
 21
1525.06029715298
 31
0.0
  0
LINE
  5
A5
330
6F
100
AcDbEntity
  8
DV1_0
 62
     7
370
    35
100
AcDbLine
 10
740.2863780672006
 20
1525.06029715298
 30
0.0
 11
682.9529134929079
 21
1525.06029715298
 31
0.0
  0
LINE
  5
A6
330
6F
100
AcDbEntity
  8
DV1_0
 62
     7
370
    35
100
AcDbLine
 10
740.2863780672003
 20
2325.060297152981
 30
0.0
 11
740.2863780672006
 21
1525.06029715298
 31
0.0
  0
LINE
  5
A7
330
6F
100
AcDbEntity
  8
DV1_0
 62
     7
370
    35
100
AcDbLine
 10
682.9529134929076
 20
2325.060297152981
 30
0.0
 11
682.9529134929079
 21
1525.06029715298
 31
0.0
  0
LINE
  5
A8
330
6F
100
AcDbEntity
  8
DV1_0
 62
     7
370
    35
100
AcDbLine
 10
525.9658608421854
 20
2325.06029715298
 30
0.0
 11
525.8488261812142
 21
2325.06029715298
 31
0.0
  0
LINE
  5
A9
330
6F
100
AcDbEntity
  8
DV1_0
 62
     7
370
    35
100
AcDbLine
 10
553.8261129104952
 20
1525.06029715298
 30
0.0
 11
548.459767688924
 21
1525.06029715298
 31
0.0
  0
LINE
  5
AA
330
6F
100
AcDbEntity
  8
DV1_0
 62
     7
370
    35
100
AcDbLine
 10
548.459767688924
 20
1525.06029715298
 30
0.0
 11
498.9107871224111
 21
1525.06029715298
 31
0.0
  0
LINE
  5
AB
330
6F
100
AcDbEntity
  8
DV1_0
 62
     7
370
    35
100
AcDbLine
 10
548.4597676889235
 20
2325.06029715298
 30
0.0
 11
548.459767688924
 21
1525.06029715298
 31
0.0
  0
LINE
  5
AC
330
6F
100
AcDbEntity
  8
DV1_0
 62
     7
370
    35
100
AcDbLine
 10
498.9107871224106
 20
2325.06029715298
 30
0.0
 11
498.9107871224111
 21
1525.06029715298
 31
0.0
  0
LINE
  5
AD
330
6F
100
AcDbEntity
  8
DV1_0
 62
     7
370
    35
100
AcDbLine
 10
646.0464865487837
 20
2325.060297152981
 30
0.0
 11
645.5812226618923
 21
2325.060297152981
 31
0.0
  0
LINE
  5
AE
330
6F
100
AcDbEntity
  8
DV1_0
 62
     7
370
    35
100
AcDbLine
 10
617.072770592525
 20
1525.06029715298
 30
0.0
 11
617.0568524441031
 21
1525.06029715298
 31
0.0
  0
LINE
  5
AF
330
6F
100
AcDbEntity
  8
DV1_0
 62
     7
370
    35
100
AcDbLine
 10
677.0727515884633
 20
1525.06029715298
 30
0.0
 11
617.072770592525
 21
1525.06029715298
 31
0.0
  0
LINE
  5
B0
330
6F
100
AcDbEntity
  8
DV1_0
 62
     7
370
    35
100
AcDbLine
 10
677.0727515884627
 20
2325.060297152981
 30
0.0
 11
677.0727515884633
 21
1525.06029715298
 31
0.0
  0
LINE
  5
B1
330
6F
100
AcDbEntity
  8
DV1_0
 62
     7
370
    35
100
AcDbLine
 10
617.0568524441024
 20
2325.060297152981
 30
0.0
 11
617.0568524441024
 21
2290.56029715298
 31
0.0
  0
LINE
  5
B2
330
6F
100
AcDbEntity
  8
DV1_0
 62
     7
370
    35
100
AcDbLine
 10
617.0568524441024
 20
2284.56029715298
 30
0.0
 11
617.0568524441026
 21
2245.060297152981
 31
0.0
  0
LINE
  5
B3
330
6F
100
AcDbEntity
  8
DV1_0
 62
     7
370
    35
100
AcDbLine
 10
617.0568524441026
 20
2233.219416252079
 30
0.0
 11
617.0568524441026
 21
2226.905219695449
 31
0.0
  0
LINE
  5
B4
330
6F
100
AcDbEntity
  8
DV1_0
 62
     7
370
    35
100
AcDbLine
 10
617.0568524441026
 20
2215.06029715298
 30
0.0
 11
617.0568524441031
 21
1640.06029715298
 31
0.0
  0
LINE
  5
B5
330
6F
100
AcDbEntity
  8
DV1_0
 62
     7
370
    35
100
AcDbLine
 10
617.0568524441031
 20
1610.06029715298
 30
0.0
 11
617.0568524441031
 21
1525.06029715298
 31
0.0
  0
LINE
  5
B6
330
6F
100
AcDbEntity
  8
DV1_0
 62
     7
370
    35
100
AcDbLine
 10
617.0727705925243
 20
2325.060297152981
 30
0.0
 11
617.072770592525
 21
1525.06029715298
 31
0.0
  0
LINE
  5
B7
330
6F
100
AcDbEntity
  8
DV1_0
 62
     7
370
    35
100
AcDbLine
 10
778.1223090296851
 20
2325.06029715298
 30
0.0
 11
778.0146330423062
 21
2325.06029715298
 31
0.0
  0
LINE
  5
B8
330
6F
100
AcDbEntity
  8
DV1_0
 62
     7
370
    35
100
AcDbLine
 10
745.6575081835568
 20
1525.06029715298
 30
0.0
 11
740.2863780672006
 21
1525.06029715298
 31
0.0
  0
LINE
  5
B9
330
6F
100
AcDbEntity
  8
DV1_0
 62
     7
370
    35
100
AcDbLine
 10
795.2301798386435
 20
1525.06029715298
 30
0.0
 11
745.6575081835568
 21
1525.06029715298
 31
0.0
  0
LINE
  5
BA
330
6F
100
AcDbEntity
  8
DV1_0
 62
     7
370
    35
100
AcDbLine
 10
745.6575081835564
 20
2325.06029715298
 30
0.0
 11
745.6575081835568
 21
1525.06029715298
 31
0.0
  0
LINE
  5
BB
330
6F
100
AcDbEntity
  8
DV1_0
 62
     7
370
    35
100
AcDbLine
 10
799.0250626855419
 20
1445.06029715298
 30
0.0
 11
779.4099408688743
 21
1445.06029715298
 31
0.0
  0
LINE
  5
BC
330
6F
100
AcDbEntity
  8
DV1_0
 62
     7
370
    35
100
AcDbLine
 10
845.5247719863065
 20
1445.06029715298
 30
0.0
 11
799.0250626855418
 21
1445.06029715298
 31
0.0
  0
LINE
  5
BD
330
6F
100
AcDbEntity
  8
DV1_0
 62
     7
370
    35
100
AcDbLine
 10
845.5247719863064
 20
2325.060297152981
 30
0.0
 11
845.5247719863066
 21
1445.060297152981
 31
0.0
  0
LINE
  5
BE
330
6F
100
AcDbEntity
  8
DV1_0
 62
     7
370
    35
100
AcDbLine
 10
779.4099408688742
 20
1525.06029715298
 30
0.0
 11
779.4099408688742
 21
1445.060297152981
 31
0.0
  0
LINE
  5
BF
330
6F
100
AcDbEntity
  8
DV1_0
 62
     7
370
    35
100
AcDbLine
 10
799.0250626855417
 20
2325.060297152981
 30
0.0
 11
799.0250626855419
 21
1445.060297152981
 31
0.0
  0
LINE
  5
C0
330
6F
100
AcDbEntity
  8
DV1_0
 62
     7
370
    35
100
AcDbLine
 10
713.7923298889359
 20
1445.06029715298
 30
0.0
 11
639.6195180847656
 21
1445.06029715298
 31
0.0
  0
LINE
  5
C1
330
6F
100
AcDbEntity
  8
DV1_0
 62
     7
370
    35
100
AcDbLine
 10
717.4950914569062
 20
1445.06029715298
 30
0.0
 11
713.7923298889359
 21
1445.06029715298
 31
0.0
  0
LINE
  5
C2
330
6F
100
AcDbEntity
  8
DV1_0
 62
     7
370
    35
100
AcDbLine
 10
639.6195180847656
 20
1525.06029715298
 30
0.0
 11
639.6195180847656
 21
1445.06029715298
 31
0.0
  0
LINE
  5
C3
330
6F
100
AcDbEntity
  8
DV1_0
 62
     7
370
    35
100
AcDbLine
 10
713.7923298889359
 20
1525.06029715298
 30
0.0
 11
713.7923298889359
 21
1445.06029715298
 31
0.0
  0
LINE
  5
C4
330
6F
100
AcDbEntity
  8
DV1_0
 62
     7
370
    35
100
AcDbLine
 10
717.4950914569062
 20
1525.06029715298
 30
0.0
 11
717.4950914569062
 21
1445.06029715298
 31
0.0
  0
LINE
  5
C5
330
6F
100
AcDbEntity
  8
DV1_0
 62
     7
370
    35
100
AcDbLine
 10
861.9458427443075
 20
1525.06029715298
 30
0.0
 11
845.5247719863066
 21
1525.06029715298
 31
0.0
  0
LINE
  5
C6
330
6F
100
AcDbEntity
  8
DV1_0
 62
     7
370
    35
100
AcDbLine
 10
861.9458427443062
 20
2325.060297152981
 30
0.0
 11
861.9458427443074
 21
1525.060297152981
 31
0.0
  0
LINE
  5
C7
330
6F
100
AcDbEntity
  8
DV1_0
 62
     7
370
    35
100
AcDbLine
 10
863.2824864035229
 20
1525.06029715298
 30
0.0
 11
861.9458427443074
 21
1525.06029715298
 31
0.0
  0
LINE
  5
C8
330
6F
100
AcDbEntity
  8
DV1_0
 62
     7
370
    35
100
AcDbLine
 10
867.6239911971409
 20
1525.06029715298
 30
0.0
 11
863.2824864035229
 21
1525.06029715298
 31
0.0
  0
LINE
  5
C9
330
6F
100
AcDbEntity
  8
DV1_0
 62
     7
370
    35
100
AcDbLine
 10
867.62399119714
 20
2325.06029715298
 30
0.0
 11
867.6239911971409
 21
1525.06029715298
 31
0.0
  0
LINE
  5
CA
330
6F
100
AcDbEntity
  8
DV1_0
 62
     7
370
    35
100
AcDbLine
 10
863.282486403522
 20
2325.06029715298
 30
0.0
 11
863.2824864035229
 21
1525.06029715298
 31
0.0
  0
LINE
  5
CB
330
6F
100
AcDbEntity
  8
DV1_0
 62
     7
370
    35
100
AcDbLine
 10
470.7852726349353
 20
2325.060297152981
 30
0.0
 11
470.7852726349358
 21
2345.060297152981
 31
0.0
  0
LINE
  5
CC
330
6F
100
AcDbEntity
  8
DV1_0
 62
     7
370
    35
100
AcDbLine
 10
525.8488261812141
 20
2325.060297152981
 30
0.0
 11
524.1239730492766
 21
2325.060297152981
 31
0.0
  0
LINE
  5
CD
330
6F
100
AcDbEntity
  8
DV1_0
 62
     7
370
    35
100
AcDbLine
 10
525.9658608421862
 20
2345.060297152982
 30
0.0
 11
524.1239730492767
 21
2345.060297152982
 31
0.0
  0
LINE
  5
CE
330
6F
100
AcDbEntity
  8
DV1_0
 62
     7
370
    35
100
AcDbLine
 10
524.1239730492767
 20
2345.060297152982
 30
0.0
 11
524.1239730492767
 21
2325.060297152981
 31
0.0
  0
LINE
  5
CF
330
6F
100
AcDbEntity
  8
DV1_0
 62
     7
370
    35
100
AcDbLine
 10
524.1239730492767
 20
2325.060297152981
 30
0.0
 11
470.7852726349353
 21
2325.060297152981
 31
0.0
  0
LINE
  5
D0
330
6F
100
AcDbEntity
  8
DV1_0
 62
     7
370
    35
100
AcDbLine
 10
470.7852726349358
 20
2345.060297152981
 30
0.0
 11
524.1239730492767
 21
2345.060297152981
 31
0.0
  0
LINE
  5
D1
330
6F
100
AcDbEntity
  8
0
 62
     7
370
    18
100
AcDbLine
 10
471.3383094838618
 20
2345.060297152981
 30
0.0
 11
470.7926186236466
 21
2344.514606292766
 31
0.0
  0
LINE
  5
D2
330
6F
100
AcDbEntity
  8
DV1_0
 62
     7
370
    35
100
AcDbLine
 10
423.1375140377185
 20
2325.060297152981
 30
0.0
 11
423.1375140377191
 21
2345.060297152981
 31
0.0
  0
LINE
  5
D3
330
6F
100
AcDbEntity
  8
DV1_0
 62
     7
370
    35
100
AcDbLine
 10
470.7852726349353
 20
2325.060297152981
 30
0.0
 11
469.0861987348622
 21
2325.060297152981
 31
0.0
  0
LINE
  5
D4
330
6F
100
AcDbEntity
  8
DV1_0
 62
     7
370
    35
100
AcDbLine
 10
470.7852726349359
 20
2345.060297152982
 30
0.0
 11
469.0861987348623
 21
2345.060297152982
 31
0.0
  0
LINE
  5
D5
330
6F
100
AcDbEntity
  8
DV1_0
 62
     7
370
    35
100
AcDbLine
 10
469.0861987348622
 20
2345.060297152982
 30
0.0
 11
469.0861987348622
 21
2325.060297152981
 31
0.0
  0
LINE
  5
D6
330
6F
100
AcDbEntity
  8
DV1_0
 62
     7
370
    35
100
AcDbLine
 10
469.0861987348621
 20
2325.060297152981
 30
0.0
 11
423.1375140377184
 21
2325.060297152981
 31
0.0
  0
LINE
  5
D7
330
6F
100
AcDbEntity
  8
DV1_0
 62
     7
370
    35
100
AcDbLine
 10
423.1375140377191
 20
2345.060297152981
 30
0.0
 11
469.0861987348623
 21
2345.060297152981
 31
0.0
  0
LINE
  5
D8
330
6F
100
AcDbEntity
  8
DV1_0
 62
     7
370
    35
100
AcDbLine
 10
581.4325420287324
 20
2325.060297152981
 30
0.0
 11
525.9658608421854
 21
2325.060297152981
 31
0.0
  0
LINE
  5
D9
330
6F
100
AcDbEntity
  8
DV1_0
 62
     7
370
    35
100
AcDbLine
 10
525.9658608421854
 20
2325.060297152981
 30
0.0
 11
525.9658608421863
 21
2345.060297152981
 31
0.0
  0
LINE
  5
DA
330
6F
100
AcDbEntity
  8
DV1_0
 62
     7
370
    35
100
AcDbLine
 10
525.9658608421862
 20
2345.060297152981
 30
0.0
 11
581.4325420287323
 21
2345.060297152981
 31
0.0
  0
LINE
  5
DB
330
6F
100
AcDbEntity
  8
0
 62
     7
370
    18
100
AcDbLine
 10
527.3168904806889
 20
2345.060297152981
 30
0.0
 11
525.9809773982516
 21
2343.724384070543
 31
0.0
  0
LINE
  5
DC
330
6F
100
AcDbEntity
  8
0
 62
     7
370
    18
100
AcDbLine
 10
565.0217793695779
 20
2345.060297152981
 30
0.0
 11
545.0591996204739
 21
2325.097717403877
 31
0.0
  0
LINE
  5
DD
330
6F
100
AcDbEntity
  8
DV1_0
 62
     7
370
    35
100
AcDbLine
 10
581.4325420287324
 20
2325.060297152981
 30
0.0
 11
581.4325420287324
 21
2345.060297152981
 31
0.0
  0
LINE
  5
DE
330
6F
100
AcDbEntity
  8
DV1_0
 62
     7
370
    35
100
AcDbLine
 10
645.5812226618923
 20
2325.060297152981
 30
0.0
 11
640.6883884861887
 21
2325.060297152981
 31
0.0
  0
LINE
  5
DF
330
6F
100
AcDbEntity
  8
DV1_0
 62
     7
370
    35
100
AcDbLine
 10
646.0464865487837
 20
2345.060297152981
 30
0.0
 11
640.6883884861888
 21
2345.060297152981
 31
0.0
  0
LINE
  5
E0
330
6F
100
AcDbEntity
  8
DV1_0
 62
     7
370
    35
100
AcDbLine
 10
640.6883884861888
 20
2345.060297152982
 30
0.0
 11
640.6883884861887
 21
2325.06029715298
 31
0.0
  0
LINE
  5
E1
330
6F
100
AcDbEntity
  8
DV1_0
 62
     7
370
    35
100
AcDbLine
 10
640.6883884861887
 20
2325.06029715298
 30
0.0
 11
581.4325420287323
 21
2325.06029715298
 31
0.0
  0
LINE
  5
E2
330
6F
100
AcDbEntity
  8
DV1_0
 62
     7
370
    35
100
AcDbLine
 10
581.4325420287324
 20
2345.060297152981
 30
0.0
 11
640.6883884861888
 21
2345.060297152982
 31
0.0
  0
LINE
  5
E3
330
6F
100
AcDbEntity
  8
0
 62
     7
370
    18
100
AcDbLine
 10
639.3317935900627
 20
2345.060297152981
 30
0.0
 11
640.6677066725007
 21
2343.724384070543
 31
0.0
  0
LINE
  5
E4
330
6F
100
AcDbEntity
  8
0
 62
     7
370
    18
100
AcDbLine
 10
601.6269576774012
 20
2345.060297152981
 30
0.0
 11
621.645928894723
 21
2325.097717403877
 31
0.0
  0
LINE
  5
E5
330
6F
100
AcDbEntity
  8
0
 62
     7
370
    18
100
AcDbLine
 10
583.9410400058341
 20
2325.097717403877
 30
0.0
 11
581.4325420287324
 21
2327.550470981487
 31
0.0
  0
LINE
  5
E6
330
6F
100
AcDbEntity
  8
DV1_0
 62
     7
370
    35
100
AcDbLine
 10
709.8230405687677
 20
2325.060297152981
 30
0.0
 11
708.1119569056282
 21
2325.060297152981
 31
0.0
  0
LINE
  5
E7
330
6F
100
AcDbEntity
  8
DV1_0
 62
     7
370
    35
100
AcDbLine
 10
710.2316105859958
 20
2345.060297152982
 30
0.0
 11
708.1119569056283
 21
2345.060297152982
 31
0.0
  0
LINE
  5
E8
330
6F
100
AcDbEntity
  8
DV1_0
 62
     7
370
    35
100
AcDbLine
 10
708.1119569056282
 20
2325.06029715298
 30
0.0
 11
646.0464865487837
 21
2325.06029715298
 31
0.0
  0
LINE
  5
E9
330
6F
100
AcDbEntity
  8
DV1_0
 62
     7
370
    35
100
AcDbLine
 10
708.1119569056284
 20
2345.060297152982
 30
0.0
 11
708.1119569056283
 21
2325.06029715298
 31
0.0
  0
LINE
  5
EA
330
6F
100
AcDbEntity
  8
DV1_0
 62
     7
370
    35
100
AcDbLine
 10
646.0464865487837
 20
2325.060297152981
 30
0.0
 11
646.0464865487837
 21
2345.060297152981
 31
0.0
  0
LINE
  5
EB
330
6F
100
AcDbEntity
  8
DV1_0
 62
     7
370
    35
100
AcDbLine
 10
646.0464865487837
 20
2345.060297152981
 30
0.0
 11
708.1119569056283
 21
2345.060297152981
 31
0.0
  0
LINE
  5
EC
330
6F
100
AcDbEntity
  8
0
 62
     7
370
    18
100
AcDbLine
 10
649.8720621261483
 20
2345.060297152981
 30
0.0
 11
646.0525934881559
 21
2341.240828514988
 31
0.0
  0
LINE
  5
ED
330
6F
100
AcDbEntity
  8
0
 62
     7
370
    18
100
AcDbLine
 10
705.3192601548226
 20
2325.097717403877
 30
0.0
 11
708.0850379326004
 21
2327.863495181654
 31
0.0
  0
LINE
  5
EE
330
6F
100
AcDbEntity
  8
DV1_0
 62
     7
370
    35
100
AcDbLine
 10
710.2316105859959
 20
2325.060297152981
 30
0.0
 11
710.2316105859958
 21
2345.060297152981
 31
0.0
  0
LINE
  5
EF
330
6F
100
AcDbEntity
  8
DV1_0
 62
     7
370
    35
100
AcDbLine
 10
778.0146330423063
 20
2325.060297152981
 30
0.0
 11
775.8498214218382
 21
2325.060297152981
 31
0.0
  0
LINE
  5
F0
330
6F
100
AcDbEntity
  8
DV1_0
 62
     7
370
    35
100
AcDbLine
 10
778.1223090296851
 20
2345.060297152982
 30
0.0
 11
775.8498214218382
 21
2345.060297152982
 31
0.0
  0
LINE
  5
F1
330
6F
100
AcDbEntity
  8
DV1_0
 62
     7
370
    35
100
AcDbLine
 10
775.8498214218382
 20
2345.060297152981
 30
0.0
 11
775.8498214218382
 21
2325.06029715298
 31
0.0
  0
LINE
  5
F2
330
6F
100
AcDbEntity
  8
DV1_0
 62
     7
370
    35
100
AcDbLine
 10
775.8498214218382
 20
2325.06029715298
 30
0.0
 11
710.231610585996
 21
2325.06029715298
 31
0.0
  0
LINE
  5
F3
330
6F
100
AcDbEntity
  8
DV1_0
 62
     7
370
    35
100
AcDbLine
 10
710.2316105859957
 20
2345.060297152981
 30
0.0
 11
775.8498214218381
 21
2345.060297152981
 31
0.0
  0
LINE
  5
F4
330
6F
100
AcDbEntity
  8
0
 62
     7
370
    18
100
AcDbLine
 10
770.5167487892215
 20
2345.06029715298
 30
0.0
 11
775.80377298277
 21
2339.773272959432
 31
0.0
  0
LINE
  5
F5
330
6F
100
AcDbEntity
  8
0
 62
     7
370
    18
100
AcDbLine
 10
715.1259952049923
 20
2325.097717403876
 30
0.0
 11
710.2316105859959
 21
2329.935844728401
 31
0.0
  0
LINE
  5
F6
330
6F
100
AcDbEntity
  8
DV1_0
 62
     7
370
    35
100
AcDbLine
 10
778.1223090296852
 20
2325.06029715298
 30
0.0
 11
778.1223090296851
 21
2345.06029715298
 31
0.0
  0
LINE
  5
F7
330
6F
100
AcDbEntity
  8
DV1_0
 62
     7
370
    35
100
AcDbLine
 10
855.4924311721901
 20
2325.06029715298
 30
0.0
 11
852.4791345943894
 21
2325.06029715298
 31
0.0
  0
LINE
  5
F8
330
6F
100
AcDbEntity
  8
DV1_0
 62
     7
370
    35
100
AcDbLine
 10
855.4924311721902
 20
2345.060297152982
 30
0.0
 11
852.4791345943895
 21
2345.060297152982
 31
0.0
  0
LINE
  5
F9
330
6F
100
AcDbEntity
  8
DV1_0
 62
     7
370
    35
100
AcDbLine
 10
852.4791345943894
 20
2345.060297152982
 30
0.0
 11
852.4791345943894
 21
2325.06029715298
 31
0.0
  0
LINE
  5
FA
330
6F
100
AcDbEntity
  8
DV1_0
 62
     7
370
    35
100
AcDbLine
 10
852.4791345943894
 20
2325.06029715298
 30
0.0
 11
778.1223090296851
 21
2325.06029715298
 31
0.0
  0
LINE
  5
FB
330
6F
100
AcDbEntity
  8
DV1_0
 62
     7
370
    35
100
AcDbLine
 10
778.122309029685
 20
2345.06029715298
 30
0.0
 11
852.4791345943894
 21
2345.06029715298
 31
0.0
  0
LINE
  5
FC
330
6F
100
AcDbEntity
  8
0
 62
     7
370
    18
100
AcDbLine
 10
786.5571428099975
 20
2345.06029715298
 30
0.0
 11
778.122309029685
 21
2336.625463372668
 31
0.0
  0
LINE
  5
FD
330
6F
100
AcDbEntity
  8
0
 62
     7
370
    18
100
AcDbLine
 10
824.2620316988866
 20
2345.06029715298
 30
0.0
 11
804.2994519497827
 21
2325.097717403876
 31
0.0
  0
LINE
  5
FE
330
6F
100
AcDbEntity
  8
0
 62
     7
370
    18
100
AcDbLine
 10
842.0043408386714
 20
2325.097717403876
 30
0.0
 11
852.4465630608936
 21
2335.539939626099
 31
0.0
  0
LINE
  5
FF
330
6F
100
AcDbEntity
  8
DV1_0
 62
     7
370
    35
100
AcDbLine
 10
855.4924311721902
 20
2325.06029715298
 30
0.0
 11
855.4924311721902
 21
2345.060297152982
 31
0.0
  0
LINE
  5
100
330
6F
100
AcDbEntity
  8
DV1_0
 62
     7
370
    35
100
AcDbLine
 10
877.0464066571435
 20
2325.06029715298
 30
0.0
 11
855.4924311721902
 21
2325.06029715298
 31
0.0
  0
LINE
  5
101
330
6F
100
AcDbEntity
  8
DV1_0
 62
     7
370
    35
100
AcDbLine
 10
855.4924311721902
 20
2345.060297152982
 30
0.0
 11
877.0464066571435
 21
2345.060297152982
 31
0.0
  0
LINE
  5
102
330
6F
100
AcDbEntity
  8
DV1_0
 62
     7
370
    35
100
AcDbLine
 10
877.0464066571435
 20
2325.06029715298
 30
0.0
 11
877.0464066571435
 21
2345.060297152982
 31
0.0
  0
LINE
  5
103
330
6F
100
AcDbEntity
  8
0
 62
     7
370
    18
100
AcDbLine
 10
861.5486606736806
 20
2345.060297152982
 30
0.0
 11
877.0464066571435
 21
2329.618906609459
 31
0.0
  0
LINE
  5
104
330
6F
100
AcDbEntity
  8
DV1_0
 62
     7
370
    35
100
AcDbLine
 10
423.1375140377185
 20
2325.060297152981
 30
0.0
 11
421.9565960921616
 21
2325.060297152981
 31
0.0
  0
LINE
  5
105
330
6F
100
AcDbEntity
  8
DV1_0
 62
     7
370
    35
100
AcDbLine
 10
423.1375140377191
 20
2345.060297152981
 30
0.0
 11
421.9565960921618
 21
2345.060297152981
 31
0.0
  0
LINE
  5
106
330
6F
100
AcDbEntity
  8
DV1_0
 62
     7
370
    35
100
AcDbLine
 10
417.0464066571436
 20
2325.060297152981
 30
0.0
 11
421.9565960921616
 21
2325.060297152981
 31
0.0
  0
LINE
  5
107
330
6F
100
AcDbEntity
  8
DV1_0
 62
     7
370
    35
100
AcDbLine
 10
421.9565960921618
 20
2345.060297152981
 30
0.0
 11
421.9565960921616
 21
2325.060297152981
 31
0.0
  0
LINE
  5
108
330
6F
100
AcDbEntity
  8
DV1_0
 62
     7
370
    35
100
AcDbLine
 10
421.9565960921618
 20
2345.060297152982
 30
0.0
 11
417.0464066571436
 21
2345.060297152982
 31
0.0
  0
LINE
  5
109
330
6F
100
AcDbEntity
  8
DV1_0
 62
     7
370
    35
100
AcDbLine
 10
417.0464066571436
 20
2345.060297152982
 30
0.0
 11
417.0464066571436
 21
2325.060297152981
 31
0.0
  0
ENDBLK
  5
10B
330
6F
100
AcDbEntity
  8
0
100
AcDbBlockEnd
  0
BLOCK
  5
175
330
10C
100
AcDbEntity
  8
0
100
AcDbBlockBegin
  2
SE1
 70
     0
 10
0.0
 20
0.0
 30
0.0
  3
SE1
  1

  0
ARC
  5
10F
330
10C
100
AcDbEntity
  8
DV2_0
 62
     7
370
    35
100
AcDbCircle
 10
647.046406657143
 20
715.2655030151549
 30
0.0
 40
217.5
100
AcDbArc
 50
54.88732809236228
 51
55.03178793720618
  0
ARC
  5
110
330
10C
100
AcDbEntity
  8
DV2_0
 62
     7
370
    35
100
AcDbCircle
 10
647.046406657143
 20
715.2655030151549
 30
0.0
 40
217.5
100
AcDbArc
 50
159.131423337952
 51
159.6252034640083
  0
ARC
  5
111
330
10C
100
AcDbEntity
  8
DV2_0
 62
     7
370
    35
100
AcDbCircle
 10
647.046406657143
 20
715.2655030151549
 30
0.0
 40
217.5
100
AcDbArc
 50
124.8891762069595
 51
125.585707381906
  0
LINE
  5
112
330
10C
100
AcDbEntity
  8
DV2_0
 62
     7
370
    35
100
AcDbLine
 10
443.15341915837
 20
790.9905656421694
 30
0.0
 11
443.1542441595817
 21
790.9902418530538
 31
0.0
  0
LINE
  5
113
330
10C
100
AcDbEntity
  8
DV2_0
 62
     7
370
    35
100
AcDbLine
 10
521.2395612504515
 20
892.6894955016755
 30
0.0
 11
521.2400605015381
 21
892.6887632348231
 31
0.0
  0
LINE
  5
114
330
10C
100
AcDbEntity
  8
DV2_0
 62
     7
370
    35
100
AcDbLine
 10
475.1022295192715
 20
607.4014136407926
 30
0.0
 11
475.4513527453096
 21
606.5105847319973
 31
0.0
  0
LINE
  5
115
330
10C
100
AcDbEntity
  8
DV2_0
 62
     7
370
    35
100
AcDbLine
 10
475.4513527453096
 20
606.5105847319973
 30
0.0
 11
474.9279986988076
 21
606.3054779474387
 31
0.0
  0
LINE
  5
116
330
10C
100
AcDbEntity
  8
DV2_0
 62
     7
370
    35
100
AcDbLine
 10
475.5169301281345
 20
610.0099371964892
 30
0.0
 11
477.2060732295801
 21
607.8966177539303
 31
0.0
  0
LINE
  5
117
330
10C
100
AcDbEntity
  8
DV2_0
 62
     7
370
    35
100
AcDbLine
 10
472.9583585550073
 20
581.1779114156873
 30
0.0
 11
471.2692154535617
 21
583.2912308582462
 31
0.0
  0
LINE
  5
118
330
10C
100
AcDbEntity
  8
DV2_0
 62
     7
370
    35
100
AcDbLine
 10
431.5104037345127
 20
728.0889453733838
 30
0.0
 11
433.5598615888285
 21
728.2420550130096
 31
0.0
  0
LINE
  5
119
330
10C
100
AcDbEntity
  8
DV2_0
 62
     7
370
    35
100
AcDbLine
 10
427.1593289689857
 20
687.9818293199729
 30
0.0
 11
426.511917978135
 21
696.6477862343279
 31
0.0
  0
LINE
  5
11A
330
10C
100
AcDbEntity
  8
DV2_0
 62
     7
370
    35
100
AcDbLine
 10
441.5378644274302
 20
791.1630447652603
 30
0.0
 11
443.4922372676696
 21
790.7180566598831
 31
0.0
  0
LINE
  5
11B
330
10C
100
AcDbEntity
  8
DV2_0
 62
     7
370
    35
100
AcDbLine
 10
434.0511111543314
 20
731.3320819769275
 30
0.0
 11
432.0967383140921
 21
731.7770700823046
 31
0.0
  0
LINE
  5
11C
330
10C
100
AcDbEntity
  8
DV2_0
 62
     7
370
    35
100
AcDbLine
 10
520.3865464294488
 20
892.2459613439986
 30
0.0
 11
522.1152841214742
 21
890.3816972922408
 31
0.0
  0
LINE
  5
11D
330
10C
100
AcDbEntity
  8
DV2_0
 62
     7
370
    35
100
AcDbLine
 10
518.6146537506424
 20
868.3622534164824
 30
0.0
 11
516.2393683763376
 21
866.1596441069236
 31
0.0
  0
LINE
  5
11E
330
10C
100
AcDbEntity
  8
DV2_0
 62
     7
370
    35
100
AcDbLine
 10
444.2044083896511
 20
795.1977104334071
 30
0.0
 11
442.3496212357895
 21
796.2691061281982
 31
0.0
  0
LINE
  5
11F
330
10C
100
AcDbEntity
  8
DV2_0
 62
     7
370
    35
100
AcDbLine
 10
443.4634551902823
 20
803.2752740607584
 30
0.0
 11
446.2575773956331
 21
808.112424329329
 31
0.0
  0
LINE
  5
120
330
10C
100
AcDbEntity
  8
DV2_0
 62
     7
370
    35
100
AcDbLine
 10
587.4358313527783
 20
524.2229775403094
 30
0.0
 11
589.36599083955
 21
523.625684129531
 31
0.0
  0
LINE
  5
121
330
10C
100
AcDbEntity
  8
DV2_0
 62
     7
370
    35
100
AcDbLine
 10
586.1937146020243
 20
503.6716326670797
 30
0.0
 11
584.2635551152526
 21
504.2689260778582
 31
0.0
  0
LINE
  5
122
330
10C
100
AcDbEntity
  8
DV2_0
 62
     7
370
    35
100
AcDbLine
 10
713.3221225529851
 20
526.2928113977632
 30
0.0
 11
715.4516889635795
 21
526.9498148142492
 31
0.0
  0
LINE
  5
123
330
10C
100
AcDbEntity
  8
DV2_0
 62
     7
370
    35
100
AcDbLine
 10
711.9526069793621
 20
504.9401105020964
 30
0.0
 11
709.8230405687676
 21
504.2831070856105
 31
0.0
  0
LINE
  5
124
330
10C
100
AcDbEntity
  8
DV2_0
 62
     7
370
    35
100
AcDbLine
 10
529.3219909152238
 20
553.5650506736255
 30
0.0
 11
531.1487824473126
 21
552.3175586884263
 31
0.0
  0
LINE
  5
125
330
10C
100
AcDbEntity
  8
DV2_0
 62
     7
370
    35
100
AcDbLine
 10
527.675617713303
 20
530.4708774252422
 30
0.0
 11
525.8488261812142
 21
531.7183694104414
 31
0.0
  0
LINE
  5
126
330
10C
100
AcDbEntity
  8
DV2_0
 62
     7
370
    35
100
AcDbLine
 10
648.7612071334224
 20
515.0819010136015
 30
0.0
 11
650.7865800377755
 21
515.0835130234371
 31
0.0
  0
LINE
  5
127
330
10C
100
AcDbEntity
  8
DV2_0
 62
     7
370
    35
100
AcDbLine
 10
647.6065955662455
 20
495.0809757147064
 30
0.0
 11
645.5812226618924
 21
495.0793637048707
 31
0.0
  0
LINE
  5
128
330
10C
100
AcDbEntity
  8
DV2_0
 62
     7
370
    35
100
AcDbLine
 10
782.3309118985096
 20
565.4814571907331
 30
0.0
 11
783.9629696694201
 21
566.5942923859656
 31
0.0
  0
LINE
  5
129
330
10C
100
AcDbEntity
  8
DV2_0
 62
     7
370
    35
100
AcDbLine
 10
783.96296966942
 20
566.5942923859656
 30
0.0
 11
784.4251795146267
 21
565.9164263615149
 31
0.0
  0
LINE
  5
12A
330
10C
100
AcDbEntity
  8
DV2_0
 62
     7
370
    35
100
AcDbLine
 10
780.2859654821049
 20
539.8802039033268
 30
0.0
 11
778.0146330423063
 21
538.3314727712964
 31
0.0
  0
LINE
  5
12B
330
10C
100
AcDbEntity
  8
DV2_0
 62
     7
370
    35
100
AcDbLine
 10
783.1175743123732
 20
557.691410775013
 30
0.0
 11
781.3184709811728
 21
559.1130653312063
 31
0.0
  0
LINE
  5
12C
330
10C
100
AcDbEntity
  8
DV2_0
 62
     7
370
    35
100
AcDbLine
 10
782.0992971077455
 20
564.0245684747701
 30
0.0
 11
784.6344574056935
 21
567.2328129229701
 31
0.0
  0
LINE
  5
12D
330
10C
100
AcDbEntity
  8
DV2_0
 62
     7
370
    35
100
AcDbLine
 10
588.7072978715112
 20
927.1067546090586
 30
0.0
 11
590.7815396736024
 21
927.4157586703318
 31
0.0
  0
LINE
  5
12E
330
10C
100
AcDbEntity
  8
DV2_0
 62
     7
370
    35
100
AcDbLine
 10
523.2235926892221
 20
897.3531097863694
 30
0.0
 11
522.7688944897085
 21
898.293465606315
 31
0.0
  0
LINE
  5
12F
330
10C
100
AcDbEntity
  8
DV2_0
 62
     7
370
    35
100
AcDbLine
 10
522.7688944897085
 20
898.2934656063151
 30
0.0
 11
523.4234032870598
 21
898.6099457784043
 31
0.0
  0
LINE
  5
130
330
10C
100
AcDbEntity
  8
DV2_0
 62
     7
370
    35
100
AcDbLine
 10
714.8085318320718
 20
930.5286078306701
 30
0.0
 11
716.7865536296541
 21
930.23237490187
 31
0.0
  0
LINE
  5
131
330
10C
100
AcDbEntity
  8
DV2_0
 62
     7
370
    35
100
AcDbLine
 10
672.0464066571435
 20
943.9027703186273
 30
0.0
 11
672.0464066571433
 21
938.7624676806461
 31
0.0
  0
LINE
  5
132
330
10C
100
AcDbEntity
  8
DV2_0
 62
     7
370
    35
100
AcDbLine
 10
582.7049169383455
 20
889.3509574874798
 30
0.0
 11
584.7300335668989
 21
889.3509574874798
 31
0.0
  0
LINE
  5
133
330
10C
100
AcDbEntity
  8
DV2_0
 62
     7
370
    35
100
AcDbLine
 10
645.4835324234999
 20
889.3509574874798
 30
0.0
 11
647.508649052053
 21
889.3509574874798
 31
0.0
  0
LINE
  5
134
330
10C
100
AcDbEntity
  8
DV2_0
 62
     7
370
    35
100
AcDbLine
 10
708.2621479086539
 20
889.3509574874798
 30
0.0
 11
710.287264537207
 21
889.3509574874798
 31
0.0
  0
LINE
  5
135
330
10C
100
AcDbEntity
  8
DV2_0
 62
     7
370
    35
100
AcDbLine
 10
589.4994052057791
 20
919.3509574874798
 30
0.0
 11
587.4742885772257
 21
919.3509574874798
 31
0.0
  0
LINE
  5
136
330
10C
100
AcDbEntity
  8
DV2_0
 62
     7
370
    35
100
AcDbLine
 10
712.046406657143
 20
900.4162020509069
 30
0.0
 11
712.046406657143
 21
913.15446265558
 31
0.0
  0
ARC
  5
137
330
10C
100
AcDbEntity
  8
DV2_0
 62
     7
370
    35
100
AcDbCircle
 10
647.0464066571436
 20
715.2655030151537
 30
0.0
 40
230.0
100
AcDbArc
 50
85.01145802444407
 51
93.34867022235571
  0
SPLINE
  5
138
330
10C
100
AcDbEntity
  8
DV2_0
 62
     7
370
    35
100
AcDbSpline
210
0.0
220
0.0
230
1.0
 70
     8
 71
     3
 72
    24
 73
    20
 74
     0
 42
0.000000001
 43
0.0000000001
 40
0.0
 40
0.0
 40
0.0
 40
0.0
 40
0.1250000000000004
 40
0.1250000000000004
 40
0.1875000000000006
 40
0.1875000000000006
 40
0.2500000000000008
 40
0.2500000000000008
 40
0.3750000000000007
 40
0.3750000000000007
 40
0.5000000000000006
 40
0.5000000000000006
 40
0.6250000000000004
 40
0.6250000000000004
 40
0.7500000000000002
 40
0.7500000000000002
 40
0.8750000000000001
 40
0.8750000000000001
 40
1.0
 40
1.0
 40
1.0
 40
1.0
 10
672.0464066571435
 20
943.9027703186273
 30
0.0
 10
672.0464066571432
 20
943.9027703186273
 30
0.0
 10
672.0138784802726
 20
943.9063337019851
 30
0.0
 10
671.9183217726586
 20
943.9167415096946
 30
0.0
 10
671.8786172270809
 20
943.9210597452746
 30
0.0
 10
671.7831482440487
 20
943.9314076030786
 30
0.0
 10
671.7271387737884
 20
943.9374633887869
 30
0.0
 10
671.5385172243192
 20
943.9577689877952
 30
0.0
 10
671.3846671518392
 20
943.9742314277596
 30
0.0
 10
671.0213059122194
 20
944.0126070005981
 30
0.0
 10
670.8100665255349
 20
944.0346927942692
 30
0.0
 10
670.3489369735366
 20
944.0821234853179
 30
0.0
 10
670.0973689836031
 20
944.1076504720661
 30
0.0
 10
669.5511888817654
 20
944.1620082175909
 30
0.0
 10
669.261126658523
 20
944.1903752988801
 30
0.0
 10
668.6607623765949
 20
944.2478398049008
 30
0.0
 10
668.3464751778938
 20
944.2773188770715
 30
0.0
 10
667.7019530877968
 20
944.3363504074239
 30
0.0
 10
667.3760298200211
 20
944.3655158944754
 30
0.0
 10
667.0464066571432
 20
944.3942877629457
 30
0.0
  0
LINE
  5
139
330
10C
100
AcDbEntity
  8
DV2_0
 62
     7
370
    35
100
AcDbLine
 10
677.0464066571432
 20
937.9675724074995
 30
0.0
 11
677.0464066571432
 21
943.3005880349815
 31
0.0
  0
ARC
  5
13A
330
10C
100
AcDbEntity
  8
DV2_0
 62
     7
370
    35
100
AcDbCircle
 10
647.0464066571436
 20
715.2655030151537
 30
0.0
 40
230.0
100
AcDbArc
 50
82.50528254607343
 51
83.75986890174227
  0
ARC
  5
13B
330
10C
100
AcDbEntity
  8
DV2_0
 62
     7
370
    35
100
AcDbCircle
 10
647.046406657143
 20
709.2655030151546
 30
0.0
 40
197.0
100
AcDbArc
 50
313.4148035754447
 51
314.3798110981641
  0
ARC
  5
13C
330
10C
100
AcDbEntity
  8
DV2_0
 62
     7
370
    35
100
AcDbCircle
 10
647.046406657143
 20
709.2655030151546
 30
0.0
 40
197.0
100
AcDbArc
 50
209.6325967981991
 51
210.5543947545011
  0
ARC
  5
13D
330
10C
100
AcDbEntity
  8
DV2_0
 62
     7
370
    35
100
AcDbCircle
 10
647.046406657143
 20
709.2655030151546
 30
0.0
 40
197.0
100
AcDbArc
 50
131.3791410291781
 51
132.3009389854801
  0
ARC
  5
13E
330
10C
100
AcDbEntity
  8
DV2_0
 62
     7
370
    35
100
AcDbCircle
 10
647.046406657143
 20
709.2655030151546
 30
0.0
 40
197.0
100
AcDbArc
 50
51.74230137496856
 51
52.40668353859026
  0
ARC
  5
13F
330
10C
100
AcDbEntity
  8
DV2_0
 62
     7
370
    35
100
AcDbCircle
 10
647.046406657143
 20
709.2655030151546
 30
0.0
 40
197.0
100
AcDbArc
 50
27.55372468551537
 51
28.51873220823479
  0
ARC
  5
140
330
10C
100
AcDbEntity
  8
DV2_0
 62
     7
370
    35
100
AcDbCircle
 10
647.046406657143
 20
709.2655030151546
 30
0.0
 40
203.0
100
AcDbArc
 50
129.3732345420313
 51
130.230835937656
  0
ARC
  5
141
330
10C
100
AcDbEntity
  8
DV2_0
 62
     7
370
    35
100
AcDbCircle
 10
647.046406657143
 20
709.2655030151546
 30
0.0
 40
203.0
100
AcDbArc
 50
52.68540016889362
 51
53.32450212810666
  0
ARC
  5
142
330
10C
100
AcDbEntity
  8
DV2_0
 62
     7
370
    35
100
AcDbCircle
 10
647.046406657143
 20
850.2655030151549
 30
0.0
 40
10.0
100
AcDbArc
 50
210.7904164143745
 51
226.3545502366748
  0
ARC
  5
143
330
10C
100
AcDbEntity
  8
DV2_0
 62
     7
370
    35
100
AcDbCircle
 10
647.046406657143
 20
850.2655030151549
 30
0.0
 40
10.0
100
AcDbArc
 50
115.5789855470046
 51
131.143119369305
  0
ARC
  5
144
330
10C
100
AcDbEntity
  8
DV2_0
 62
     7
370
    35
100
AcDbCircle
 10
551.5869911969592
 20
619.8060875549708
 30
0.0
 40
10.0
100
AcDbArc
 50
154.4734891008643
 51
187.4600466828141
  0
LINE
  5
145
330
10C
100
AcDbEntity
  8
DV2_0
 62
     7
370
    35
100
AcDbLine
 10
860.54300684891
 20
662.5601541375071
 30
0.0
 11
861.9458427443061
 21
662.008132689901
 31
0.0
  0
LINE
  5
146
330
10C
100
AcDbEntity
  8
DV2_0
 62
     7
370
    35
100
AcDbLine
 10
861.9458427443062
 20
662.008132689901
 30
0.0
 11
859.4448062331021
 21
655.6523220437231
 31
0.0
  0
LINE
  5
147
330
10C
100
AcDbEntity
  8
DV2_0
 62
     7
370
    35
100
AcDbLine
 10
863.282486403522
 20
667.8844387389747
 30
0.0
 11
861.4110412783548
 21
668.0202094351599
 31
0.0
  0
LINE
  5
148
330
10C
100
AcDbEntity
  8
DV2_0
 62
     7
370
    35
100
AcDbLine
 10
864.8714704317281
 20
689.7867821540716
 30
0.0
 11
863.282486403522
 21
667.8844387389747
 31
0.0
  0
LINE
  5
149
330
10C
100
AcDbEntity
  8
DV2_0
 62
     7
370
    35
100
AcDbLine
 10
822.8360163751619
 20
807.52584434485
 30
0.0
 11
821.2508783469508
 21
810.2933699246696
 31
0.0
  0
LINE
  5
14A
330
10C
100
AcDbEntity
  8
DV2_0
 62
     7
370
    35
100
AcDbLine
 10
826.2583680132153
 20
841.7911648885389
 30
0.0
 11
827.8435060414264
 21
839.0236393087192
 31
0.0
  0
LINE
  5
14B
330
10C
100
AcDbEntity
  8
DV2_0
 62
     7
370
    35
100
AcDbLine
 10
770.2095199520212
 20
871.3840619300762
 30
0.0
 11
768.4443538454417
 21
873.0191862713285
 31
0.0
  0
LINE
  5
14C
330
10C
100
AcDbEntity
  8
DV2_0
 62
     7
370
    35
100
AcDbLine
 10
771.5469685677845
 20
892.5350572744402
 30
0.0
 11
773.9760560141566
 21
895.1573305304116
 31
0.0
  0
LINE
  5
14D
330
10C
100
AcDbEntity
  8
DV2_0
 62
     7
370
    35
100
AcDbLine
 10
773.9760560141565
 20
895.1573305304115
 30
0.0
 11
773.9873138178232
 21
895.1469021017577
 31
0.0
  0
LINE
  5
14E
330
10C
100
AcDbEntity
  8
DV2_0
 62
     7
370
    35
100
AcDbLine
 10
712.5393998670032
 20
903.5171967763415
 30
0.0
 11
712.046406657143
 21
903.7545175095715
 31
0.0
  0
LINE
  5
14F
330
10C
100
AcDbEntity
  8
DV2_0
 62
     7
370
    35
100
AcDbLine
 10
713.2915591202527
 20
920.9866419700983
 30
0.0
 11
714.9975614481668
 21
924.5305698529265
 31
0.0
  0
LINE
  5
150
330
10C
100
AcDbEntity
  8
DV2_0
 62
     7
370
    35
100
AcDbLine
 10
714.9975614481668
 20
924.5305698529265
 30
0.0
 11
715.8173474089145
 21
924.1359351979147
 31
0.0
  0
LINE
  5
151
330
10C
100
AcDbEntity
  8
DV2_0
 62
     7
370
    35
100
AcDbLine
 10
590.4706764613512
 20
938.1986471476783
 30
0.0
 11
524.1239730492767
 21
520.8688072718376
 31
0.0
  0
LINE
  5
152
330
10C
100
AcDbEntity
  8
DV2_0
 62
     7
370
    35
100
AcDbLine
 10
525.2976839607793
 20
910.3994275946686
 30
0.0
 11
470.7852726349358
 21
567.5089037269822
 31
0.0
  0
ARC
  5
153
330
10C
100
AcDbEntity
  8
DV2_0
 62
     7
370
    35
100
AcDbCircle
 10
647.0464066571436
 20
715.2655030151539
 30
0.0
 40
230.0
100
AcDbArc
 50
104.2398409329772
 51
121.9610256022087
  0
ARC
  5
154
330
10C
100
AcDbEntity
  8
DV2_0
 62
     7
370
    35
100
AcDbCircle
 10
647.0464066571436
 20
715.2655030151539
 30
0.0
 40
230.0000000000001
100
AcDbArc
 50
219.9725101814706
 51
237.693694850702
  0
LINE
  5
155
330
10C
100
AcDbEntity
  8
DV2_0
 62
     7
370
    35
100
AcDbLine
 10
523.0463680970225
 20
908.9766034639625
 30
0.0
 11
469.0861987348623
 21
569.5597570877594
 31
0.0
  0
LINE
  5
156
330
10C
100
AcDbEntity
  8
DV2_0
 62
     7
370
    35
100
AcDbLine
 10
450.4833598792528
 20
834.6931741864227
 30
0.0
 11
423.137514037719
 21
662.6840632674348
 31
0.0
  0
ARC
  5
157
330
10C
100
AcDbEntity
  8
DV2_0
 62
     7
370
    35
100
AcDbCircle
 10
647.0464066571436
 20
715.2655030151537
 30
0.0
 40
230.0
100
AcDbArc
 50
122.624474779953
 51
148.7179936890062
  0
ARC
  5
158
330
10C
100
AcDbEntity
  8
DV2_0
 62
     7
370
    35
100
AcDbCircle
 10
647.0464066571436
 20
715.2655030151537
 30
0.0
 40
230.0
100
AcDbArc
 50
193.2155420946731
 51
219.3090610037262
  0
LINE
  5
159
330
10C
100
AcDbEntity
  8
DV2_0
 62
     7
370
    35
100
AcDbLine
 10
653.8000911794953
 20
941.6632496657512
 30
0.0
 11
582.702420127631
 21
494.449173461631
 31
0.0
  0
LINE
  5
15A
330
10C
100
AcDbEntity
  8
DV2_0
 62
     7
370
    35
100
AcDbLine
 10
592.5791784322721
 20
938.7231523572603
 30
0.0
 11
525.9658608421862
 21
519.716272832184
 31
0.0
  0
LINE
  5
15B
330
10C
100
AcDbEntity
  8
DV2_0
 62
     7
370
    35
100
AcDbLine
 10
653.8000911794953
 20
941.6632496657512
 30
0.0
 11
633.6116344294741
 21
944.8727914342949
 31
0.0
  0
ARC
  5
15C
330
10C
100
AcDbEntity
  8
DV2_0
 62
     7
370
    35
100
AcDbCircle
 10
647.0464066571434
 20
715.2655030151537
 30
0.0
 40
230.0000000000001
100
AcDbArc
 50
93.3486702223558
 51
103.6985781320469
  0
ARC
  5
15D
330
10C
100
AcDbEntity
  8
DV2_0
 62
     7
370
    35
100
AcDbCircle
 10
647.0464066571434
 20
715.2655030151537
 30
0.0
 40
230.0000000000001
100
AcDbArc
 50
238.2349576516324
 51
253.7543297879139
  0
LINE
  5
15E
330
10C
100
AcDbEntity
  8
DV2_0
 62
     7
370
    35
100
AcDbLine
 10
715.0311325188665
 20
931.9287965996481
 30
0.0
 11
640.6883884861888
 21
464.3027674600934
 31
0.0
  0
LINE
  5
15F
330
10C
100
AcDbEntity
  8
DV2_0
 62
     7
370
    35
100
AcDbLine
 10
655.77528606141
 20
941.3492350507157
 30
0.0
 11
581.4325420287323
 21
473.723205911161
 31
0.0
  0
LINE
  5
160
330
10C
100
AcDbEntity
  8
DV2_0
 62
     7
370
    35
100
AcDbLine
 10
715.0311325188665
 20
931.9287965996481
 30
0.0
 11
655.77528606141
 21
941.3492350507157
 31
0.0
  0
LINE
  5
161
330
10C
100
AcDbEntity
  8
DV2_0
 62
     7
370
    35
100
AcDbLine
 10
581.4325420287324
 20
473.723205911161
 30
0.0
 11
640.6883884861888
 21
464.3027674600933
 31
0.0
  0
LINE
  5
162
330
10C
100
AcDbEntity
  8
DV2_0
 62
     7
370
    35
100
AcDbLine
 10
773.8689406412284
 20
907.140579233655
 30
0.0
 11
708.1119569056283
 21
493.5201567892413
 31
0.0
  0
LINE
  5
163
330
10C
100
AcDbEntity
  8
DV2_0
 62
     7
370
    35
100
AcDbLine
 10
717.0063274007814
 20
931.6147819846125
 30
0.0
 11
646.0464865487837
 21
485.2676765911265
 31
0.0
  0
LINE
  5
164
330
10C
100
AcDbEntity
  8
DV2_0
 62
     7
370
    35
100
AcDbLine
 10
731.0246290544321
 20
929.3861656402063
 30
0.0
 11
717.0063274007814
 21
931.6147819846126
 31
0.0
  0
ARC
  5
165
330
10C
100
AcDbEntity
  8
DV2_0
 62
     7
370
    35
100
AcDbCircle
 10
647.0464066571435
 20
715.2655030151537
 30
0.0
 40
230.0000000000001
100
AcDbArc
 50
269.7509070324627
 51
285.3968071645526
  0
ARC
  5
166
330
10C
100
AcDbEntity
  8
DV2_0
 62
     7
370
    35
100
AcDbCircle
 10
647.0464066571435
 20
715.2655030151537
 30
0.0
 40
230.0
100
AcDbArc
 50
56.53672861912674
 51
68.58486556132357
  0
LINE
  5
167
330
10C
100
AcDbEntity
  8
DV2_0
 62
     7
370
    35
100
AcDbLine
 10
828.5931588037618
 20
856.477318331771
 30
0.0
 11
775.8498214218382
 21
524.7145115589188
 31
0.0
  0
LINE
  5
168
330
10C
100
AcDbEntity
  8
DV2_0
 62
     7
370
    35
100
AcDbLine
 10
775.6996767246912
 20
905.9178990161656
 30
0.0
 11
710.2316105859957
 21
494.1148077766592
 31
0.0
  0
ARC
  5
169
330
10C
100
AcDbEntity
  8
DV2_0
 62
     7
370
    35
100
AcDbCircle
 10
647.0464066571436
 20
715.2655030151537
 30
0.0
 40
230.0000000000001
100
AcDbArc
 50
285.9452260769677
 51
304.0568245040586
  0
ARC
  5
16A
330
10C
100
AcDbEntity
  8
DV2_0
 62
     7
370
    35
100
AcDbCircle
 10
647.0464066571436
 20
715.2655030151537
 30
0.0
 40
230.0
100
AcDbArc
 50
37.87671127962079
 51
55.98830970671171
  0
LINE
  5
16B
330
10C
100
AcDbEntity
  8
DV2_0
 62
     7
370
    35
100
AcDbLine
 10
874.4259283099539
 20
749.8856291405633
 30
0.0
 11
852.4791345943895
 21
611.8372946179201
 31
0.0
  0
LINE
  5
16C
330
10C
100
AcDbEntity
  8
DV2_0
 62
     7
370
    35
100
AcDbLine
 10
830.2710609597453
 20
854.2932918046332
 30
0.0
 11
778.122309029685
 21
526.2705088559854
 31
0.0
  0
ARC
  5
16D
330
10C
100
AcDbEntity
  8
DV2_0
 62
     7
370
    35
100
AcDbCircle
 10
647.0464066571436
 20
715.2655030151537
 30
0.0
 40
230.0000000000001
100
AcDbArc
 50
304.7429199866074
 51
333.2763406965506
  0
ARC
  5
16E
330
10C
100
AcDbEntity
  8
DV2_0
 62
     7
370
    35
100
AcDbCircle
 10
647.0464066571436
 20
715.2655030151537
 30
0.0
 40
230.0000000000001
100
AcDbArc
 50
8.657195087128722
 51
37.19061579707204
  0
LINE
  5
16F
330
10C
100
AcDbEntity
  8
DV2_0
 62
     7
370
    35
100
AcDbLine
 10
875.3630214959832
 20
743.041812858849
 30
0.0
 11
855.4924311721902
 21
618.0530816695637
 31
0.0
  0
ARC
  5
170
330
10C
100
AcDbEntity
  8
DV2_0
 62
     7
370
    35
100
AcDbCircle
 10
647.0464066571435
 20
715.2655030151537
 30
0.0
 40
230.0
100
AcDbArc
 50
334.9971905351085
 51
6.936345248570989
  0
LINE
  5
171
330
10C
100
AcDbEntity
  8
DV2_0
 62
     7
370
    35
100
AcDbLine
 10
447.7138880609795
 20
830.0110782244396
 30
0.0
 11
421.9565960921618
 21
667.9941884594889
 31
0.0
  0
ARC
  5
172
330
10C
100
AcDbEntity
  8
DV2_0
 62
     7
370
    35
100
AcDbCircle
 10
647.0464066571436
 20
715.2655030151537
 30
0.0
 40
230.0
100
AcDbArc
 50
150.0731583090789
 51
191.8603774746004
  0
LINE
  5
174
330
10C
100
AcDbEntity
  8
DV2_Predeterminado
 62
     7
370
    35
100
AcDbLine
 10
677.0464066571432
 20
974.2655030151548
 30
0.0
 11
677.0464066571432
 21
974.8655030151548
 31
0.0
  0
ENDBLK
  5
176
330
10C
100
AcDbEntity
  8
0
100
AcDbBlockEnd
  0
BLOCK
  5
20D
330
177
100
AcDbEntity
  8
0
100
AcDbBlockBegin
  2
SE2
 70
     0
 10
0.0
 20
0.0
 30
0.0
  3
SE2
  1

  0
LINE
  5
17A
330
177
100
AcDbEntity
  8
DV3_0
 62
     7
370
    35
100
AcDbLine
 10
1263.528391801195
 20
1435.06029715298
 30
0.0
 11
1263.528391801195
 21
1525.06029715298
 31
0.0
  0
LINE
  5
17B
330
177
100
AcDbEntity
  8
DV3_0
 62
     7
370
    35
100
AcDbLine
 10
1268.540606811222
 20
1440.06029715298
 30
0.0
 11
1268.540606811222
 21
1525.06029715298
 31
0.0
  0
LINE
  5
17C
330
177
100
AcDbEntity
  8
DV3_0
 62
     7
370
    35
100
AcDbLine
 10
1263.528391801195
 20
1435.06029715298
 30
0.0
 11
1263.010533923537
 21
1435.06029715298
 31
0.0
  0
LINE
  5
17D
330
177
100
AcDbEntity
  8
DV3_0
 62
     7
370
    35
100
AcDbLine
 10
1303.010533923537
 20
1435.06029715298
 30
0.0
 11
1263.528391801195
 21
1435.06029715298
 31
0.0
  0
LINE
  5
17E
330
177
100
AcDbEntity
  8
DV3_0
 62
     7
370
    35
100
AcDbLine
 10
1601.991986041474
 20
1435.06029715298
 30
0.0
 11
1601.991986041474
 21
1525.06029715298
 31
0.0
  0
LINE
  5
17F
330
177
100
AcDbEntity
  8
DV3_0
 62
     7
370
    35
100
AcDbLine
 10
1576.011223927941
 20
1435.06029715298
 30
0.0
 11
1576.011223927941
 21
1445.06029715298
 31
0.0
  0
LINE
  5
180
330
177
100
AcDbEntity
  8
DV3_0
 62
     7
370
    35
100
AcDbLine
 10
1573.505116422927
 20
1440.06029715298
 30
0.0
 11
1573.505116422927
 21
1445.06029715298
 31
0.0
  0
LINE
  5
181
330
177
100
AcDbEntity
  8
DV3_0
 62
     7
370
    35
100
AcDbLine
 10
1601.991986041474
 20
1435.06029715298
 30
0.0
 11
1576.011223927941
 21
1435.06029715298
 31
0.0
  0
LINE
  5
182
330
177
100
AcDbEntity
  8
DV3_0
 62
     7
370
    35
100
AcDbLine
 10
1576.011223927941
 20
1435.06029715298
 30
0.0
 11
1556.27015286677
 21
1435.06029715298
 31
0.0
  0
SPLINE
  5
183
330
177
100
AcDbEntity
  8
DV3_0
 62
     7
370
    35
100
AcDbSpline
210
0.0
220
0.0
230
1.0
 70
     8
 71
     3
 72
    12
 73
     8
 74
     0
 42
0.000000001
 43
0.0000000001
 40
0.2500864936720646
 40
0.2500864936720646
 40
0.2500864936720646
 40
0.2500864936720646
 40
0.3125000000000007
 40
0.3125000000000007
 40
0.3750000000000006
 40
0.3750000000000006
 40
0.3820541641302391
 40
0.3820541641302391
 40
0.3820541641302391
 40
0.3820541641302391
 10
1401.048898444611
 20
2226.060297162952
 30
0.0
 10
1401.533904739341
 20
2226.060307079243
 30
0.0
 10
1402.021971812183
 20
2226.163802869006
 30
0.0
 10
1402.925448945365
 20
2226.563947457663
 30
0.0
 10
1403.337640498258
 20
2226.857262905548
 30
0.0
 10
1403.726583685891
 20
2227.2725437176
 30
0.0
 10
1403.765082565122
 20
2227.315516663863
 30
0.0
 10
1403.802615932426
 20
2227.359312225915
 30
0.0
  0
SPLINE
  5
184
330
177
100
AcDbEntity
  8
DV3_0
 62
     7
370
    35
100
AcDbSpline
210
0.0
220
0.0
230
1.0
 70
     8
 71
     3
 72
    10
 73
     6
 74
     0
 42
0.000000001
 43
0.0000000001
 40
0.2500864936720645
 40
0.2500864936720645
 40
0.2500864936720645
 40
0.2500864936720645
 40
0.3125000000000005
 40
0.3125000000000005
 40
0.3226008281221002
 40
0.3226008281221002
 40
0.3226008281221002
 40
0.3226008281221002
 10
1344.901533364778
 20
2226.060297162952
 30
0.0
 10
1345.308885381728
 20
2226.060307079243
 30
0.0
 10
1345.719431923043
 20
2226.163802869006
 30
0.0
 10
1346.161190247578
 20
2226.396093350502
 30
0.0
 10
1346.221861333485
 20
2226.430881858282
 30
0.0
 10
1346.281586516513
 20
2226.468046191459
 30
0.0
  0
LINE
  5
185
330
177
100
AcDbEntity
  8
DV3_0
 62
     7
370
    35
100
AcDbLine
 10
1303.010533923537
 20
1440.06029715298
 30
0.0
 11
1303.010533923537
 21
1435.06029715298
 31
0.0
  0
LINE
  5
186
330
177
100
AcDbEntity
  8
DV3_0
 62
     7
370
    35
100
AcDbLine
 10
1303.010533923537
 20
1440.06029715298
 30
0.0
 11
1268.540606811222
 21
1440.06029715298
 31
0.0
  0
LINE
  5
187
330
177
100
AcDbEntity
  8
DV3_0
 62
     7
370
    35
100
AcDbLine
 10
1573.505116422927
 20
1440.06029715298
 30
0.0
 11
1556.27015286677
 21
1440.06029715298
 31
0.0
  0
LINE
  5
188
330
177
100
AcDbEntity
  8
DV3_0
 62
     7
370
    35
100
AcDbLine
 10
1556.27015286677
 20
1440.06029715298
 30
0.0
 11
1556.27015286677
 21
1435.06029715298
 31
0.0
  0
ARC
  5
189
330
177
100
AcDbEntity
  8
DV3_0
 62
     7
370
    35
100
AcDbCircle
 10
1464.259895152466
 20
1625.061413384362
 30
0.0
 40
3.994237114432317
100
AcDbArc
 50
269.9554060978595
 51
355.4934719872986
  0
SPLINE
  5
18A
330
177
100
AcDbEntity
  8
DV3_0
 62
     7
370
    35
100
AcDbSpline
210
0.0
220
0.0
230
1.0
 70
     8
 71
     3
 72
    12
 73
     8
 74
     0
 42
0.000000001
 43
0.0000000001
 40
0.250086493672072
 40
0.250086493672072
 40
0.250086493672072
 40
0.250086493672072
 40
0.3125000000000102
 40
0.3125000000000102
 40
0.3750000000000141
 40
0.3750000000000141
 40
0.3820541641302475
 40
0.3820541641302475
 40
0.3820541641302475
 40
0.3820541641302475
 10
1401.048898444611
 20
1621.060297162951
 30
0.0
 10
1401.533904739341
 20
1621.060307079242
 30
0.0
 10
1402.021971812183
 20
1621.163802869005
 30
0.0
 10
1402.925448945365
 20
1621.563947457663
 30
0.0
 10
1403.337640498258
 20
1621.857262905547
 30
0.0
 10
1403.726583685891
 20
1622.2725437176
 30
0.0
 10
1403.765082565122
 20
1622.315516663862
 30
0.0
 10
1403.802615932426
 20
1622.359312225914
 30
0.0
  0
SPLINE
  5
18B
330
177
100
AcDbEntity
  8
DV3_0
 62
     7
370
    35
100
AcDbSpline
210
0.0
220
0.0
230
1.0
 70
     8
 71
     3
 72
    10
 73
     6
 74
     0
 42
0.000000001
 43
0.0000000001
 40
0.2500864936720634
 40
0.2500864936720634
 40
0.2500864936720634
 40
0.2500864936720634
 40
0.3124999999999991
 40
0.3124999999999991
 40
0.3226008281220942
 40
0.3226008281220942
 40
0.3226008281220942
 40
0.3226008281220942
 10
1344.901533364778
 20
1621.060297162952
 30
0.0
 10
1345.308885381728
 20
1621.060307079242
 30
0.0
 10
1345.719431923043
 20
1621.163802869005
 30
0.0
 10
1346.161190247578
 20
1621.396093350501
 30
0.0
 10
1346.221861333485
 20
1621.430881858282
 30
0.0
 10
1346.281586516513
 20
1621.468046191458
 30
0.0
  0
LINE
  5
18C
330
177
100
AcDbEntity
  8
DV3_0
 62
     7
370
    35
100
AcDbLine
 10
1263.010533923537
 20
1445.06029715298
 30
0.0
 11
1263.010533923537
 21
1435.06029715298
 31
0.0
  0
LINE
  5
18D
330
177
100
AcDbEntity
  8
DV3_0
 62
     7
370
    35
100
AcDbLine
 10
1528.558737274785
 20
1445.06029715298
 30
0.0
 11
1519.436564116765
 21
1445.06029715298
 31
0.0
  0
LINE
  5
18E
330
177
100
AcDbEntity
  8
DV3_0
 62
     7
370
    35
100
AcDbLine
 10
1598.387625364714
 20
1445.06029715298
 30
0.0
 11
1528.558737274785
 21
1445.06029715298
 31
0.0
  0
LINE
  5
18F
330
177
100
AcDbEntity
  8
DV3_0
 62
     7
370
    35
100
AcDbLine
 10
1598.387625364715
 20
2325.060297152981
 30
0.0
 11
1598.387625364715
 21
1445.06029715298
 31
0.0
  0
LINE
  5
190
330
177
100
AcDbEntity
  8
DV3_0
 62
     7
370
    35
100
AcDbLine
 10
1519.436564116765
 20
1525.060297152981
 30
0.0
 11
1519.436564116765
 21
1445.06029715298
 31
0.0
  0
LINE
  5
191
330
177
100
AcDbEntity
  8
DV3_0
 62
     7
370
    35
100
AcDbLine
 10
1528.558737274786
 20
2325.060297152981
 30
0.0
 11
1528.558737274786
 21
1445.06029715298
 31
0.0
  0
LINE
  5
192
330
177
100
AcDbEntity
  8
DV3_0
 62
     7
370
    35
100
AcDbLine
 10
1641.632789144843
 20
1525.06029715298
 30
0.0
 11
1598.387625364714
 21
1525.06029715298
 31
0.0
  0
LINE
  5
193
330
177
100
AcDbEntity
  8
DV3_0
 62
     7
370
    35
100
AcDbLine
 10
1641.632789144844
 20
2325.06029715298
 30
0.0
 11
1641.632789144844
 21
1525.06029715298
 31
0.0
  0
LINE
  5
194
330
177
100
AcDbEntity
  8
DV3_0
 62
     7
370
    35
100
AcDbLine
 10
1468.23294803614
 20
1525.060297152981
 30
0.0
 11
1466.742952501424
 21
1525.060297152981
 31
0.0
  0
LINE
  5
195
330
177
100
AcDbEntity
  8
DV3_0
 62
     7
370
    35
100
AcDbLine
 10
1528.066209853951
 20
1525.060297152981
 30
0.0
 11
1468.23294803614
 21
1525.060297152981
 31
0.0
  0
LINE
  5
196
330
177
100
AcDbEntity
  8
DV3_0
 62
     7
370
    35
100
AcDbLine
 10
1466.742952501424
 20
2325.060297152981
 30
0.0
 11
1466.742952501424
 21
2245.06029715298
 31
0.0
  0
LINE
  5
197
330
177
100
AcDbEntity
  8
DV3_0
 62
     7
370
    35
100
AcDbLine
 10
1466.742952501424
 20
2233.187396503511
 30
0.0
 11
1466.742952501424
 21
2226.93622479597
 31
0.0
  0
LINE
  5
198
330
177
100
AcDbEntity
  8
DV3_0
 62
     7
370
    35
100
AcDbLine
 10
1466.742952501424
 20
2215.06029715298
 30
0.0
 11
1466.742952501424
 21
1640.06029715298
 31
0.0
  0
LINE
  5
199
330
177
100
AcDbEntity
  8
DV3_0
 62
     7
370
    35
100
AcDbLine
 10
1466.742952501424
 20
1610.06029715298
 30
0.0
 11
1466.742952501424
 21
1525.060297152981
 31
0.0
  0
LINE
  5
19A
330
177
100
AcDbEntity
  8
DV3_0
 62
     7
370
    35
100
AcDbLine
 10
1468.232948036141
 20
2325.060297152981
 30
0.0
 11
1468.23294803614
 21
1525.060297152981
 31
0.0
  0
LINE
  5
19B
330
177
100
AcDbEntity
  8
DV3_0
 62
     7
370
    35
100
AcDbLine
 10
1466.742952501424
 20
1525.06029715298
 30
0.0
 11
1462.302822152737
 21
1525.06029715298
 31
0.0
  0
LINE
  5
19C
330
177
100
AcDbEntity
  8
DV3_0
 62
     7
370
    35
100
AcDbLine
 10
1462.302822152737
 20
1525.06029715298
 30
0.0
 11
1403.800111255036
 21
1525.06029715298
 31
0.0
  0
LINE
  5
19D
330
177
100
AcDbEntity
  8
DV3_0
 62
     7
370
    35
100
AcDbLine
 10
1462.302822152737
 20
2325.06029715298
 30
0.0
 11
1462.302822152737
 21
1525.06029715298
 31
0.0
  0
LINE
  5
19E
330
177
100
AcDbEntity
  8
DV3_0
 62
     7
370
    35
100
AcDbLine
 10
1466.742952501424
 20
2325.06029715298
 30
0.0
 11
1466.742952501424
 21
2245.06029715298
 31
0.0
  0
LINE
  5
19F
330
177
100
AcDbEntity
  8
DV3_0
 62
     7
370
    35
100
AcDbLine
 10
1466.742952501424
 20
2233.187396503511
 30
0.0
 11
1466.742952501424
 21
2226.93622479597
 31
0.0
  0
LINE
  5
1A0
330
177
100
AcDbEntity
  8
DV3_0
 62
     7
370
    35
100
AcDbLine
 10
1466.742952501424
 20
2215.06029715298
 30
0.0
 11
1466.742952501424
 21
1640.06029715298
 31
0.0
  0
LINE
  5
1A1
330
177
100
AcDbEntity
  8
DV3_0
 62
     7
370
    35
100
AcDbLine
 10
1466.742952501424
 20
1610.06029715298
 30
0.0
 11
1466.742952501424
 21
1525.06029715298
 31
0.0
  0
LINE
  5
1A2
330
177
100
AcDbEntity
  8
DV3_0
 62
     7
370
    35
100
AcDbLine
 10
1403.800111255036
 20
2325.06029715298
 30
0.0
 11
1403.800111255036
 21
1525.06029715298
 31
0.0
  0
LINE
  5
1A3
330
177
100
AcDbEntity
  8
DV3_0
 62
     7
370
    35
100
AcDbLine
 10
1346.281455472564
 20
1525.06029715298
 30
0.0
 11
1341.620051960286
 21
1525.06029715298
 31
0.0
  0
LINE
  5
1A4
330
177
100
AcDbEntity
  8
DV3_0
 62
     7
370
    35
100
AcDbLine
 10
1341.620051960286
 20
1525.06029715298
 30
0.0
 11
1300.822961471875
 21
1525.06029715298
 31
0.0
  0
LINE
  5
1A5
330
177
100
AcDbEntity
  8
DV3_0
 62
     7
370
    35
100
AcDbLine
 10
1341.620051960286
 20
2325.06029715298
 30
0.0
 11
1341.620051960286
 21
1525.06029715298
 31
0.0
  0
LINE
  5
1A6
330
177
100
AcDbEntity
  8
DV3_0
 62
     7
370
    35
100
AcDbLine
 10
1300.822961471874
 20
2325.06029715298
 30
0.0
 11
1300.822961471874
 21
1525.06029715298
 31
0.0
  0
LINE
  5
1A7
330
177
100
AcDbEntity
  8
DV3_0
 62
     7
370
    35
100
AcDbLine
 10
1403.800111255036
 20
1525.06029715298
 30
0.0
 11
1398.236503499531
 21
1525.06029715298
 31
0.0
  0
LINE
  5
1A8
330
177
100
AcDbEntity
  8
DV3_0
 62
     7
370
    35
100
AcDbLine
 10
1398.236503499531
 20
1525.06029715298
 30
0.0
 11
1346.281455472564
 21
1525.06029715298
 31
0.0
  0
LINE
  5
1A9
330
177
100
AcDbEntity
  8
DV3_0
 62
     7
370
    35
100
AcDbLine
 10
1398.236503499531
 20
2325.06029715298
 30
0.0
 11
1398.236503499531
 21
1525.06029715298
 31
0.0
  0
LINE
  5
1AA
330
177
100
AcDbEntity
  8
DV3_0
 62
     7
370
    35
100
AcDbLine
 10
1346.281455472564
 20
2325.06029715298
 30
0.0
 11
1346.281455472564
 21
1525.06029715298
 31
0.0
  0
LINE
  5
1AB
330
177
100
AcDbEntity
  8
DV3_0
 62
     7
370
    35
100
AcDbLine
 10
1682.088156730644
 20
1525.06029715298
 30
0.0
 11
1679.498383019428
 21
1525.06029715298
 31
0.0
  0
LINE
  5
1AC
330
177
100
AcDbEntity
  8
DV3_0
 62
     7
370
    35
100
AcDbLine
 10
1699.825470230981
 20
1525.06029715298
 30
0.0
 11
1682.088156730644
 21
1525.06029715298
 31
0.0
  0
LINE
  5
1AD
330
177
100
AcDbEntity
  8
DV3_0
 62
     7
370
    35
100
AcDbLine
 10
1699.825470230981
 20
2325.060297152981
 30
0.0
 11
1699.825470230981
 21
1525.060297152981
 31
0.0
  0
LINE
  5
1AE
330
177
100
AcDbEntity
  8
DV3_0
 62
     7
370
    35
100
AcDbLine
 10
1682.088156730644
 20
2325.060297152981
 30
0.0
 11
1682.088156730644
 21
1525.060297152981
 31
0.0
  0
LINE
  5
1AF
330
177
100
AcDbEntity
  8
DV3_0
 62
     7
370
    35
100
AcDbLine
 10
1645.662033854376
 20
1525.06029715298
 30
0.0
 11
1641.632789144844
 21
1525.06029715298
 31
0.0
  0
LINE
  5
1B0
330
177
100
AcDbEntity
  8
DV3_0
 62
     7
370
    35
100
AcDbLine
 10
1679.498383019428
 20
1525.06029715298
 30
0.0
 11
1645.662033854376
 21
1525.06029715298
 31
0.0
  0
LINE
  5
1B1
330
177
100
AcDbEntity
  8
DV3_0
 62
     7
370
    35
100
AcDbLine
 10
1679.498383019428
 20
2325.06029715298
 30
0.0
 11
1679.498383019428
 21
1525.06029715298
 31
0.0
  0
LINE
  5
1B2
330
177
100
AcDbEntity
  8
DV3_0
 62
     7
370
    35
100
AcDbLine
 10
1645.662033854376
 20
2325.06029715298
 30
0.0
 11
1645.662033854376
 21
1525.06029715298
 31
0.0
  0
LINE
  5
1B3
330
177
100
AcDbEntity
  8
DV3_0
 62
     7
370
    35
100
AcDbLine
 10
1700.719363329573
 20
1525.06029715298
 30
0.0
 11
1699.825470230981
 21
1525.06029715298
 31
0.0
  0
LINE
  5
1B4
330
177
100
AcDbEntity
  8
DV3_0
 62
     7
370
    35
100
AcDbLine
 10
1700.719363329573
 20
2325.060297152981
 30
0.0
 11
1700.719363329573
 21
1525.06029715298
 31
0.0
  0
LINE
  5
1B5
330
177
100
AcDbEntity
  8
DV3_0
 62
     7
370
    35
100
AcDbLine
 10
1635.15484782008
 20
1445.06029715298
 30
0.0
 11
1601.991986041474
 21
1445.06029715298
 31
0.0
  0
LINE
  5
1B6
330
177
100
AcDbEntity
  8
DV3_0
 62
     7
370
    35
100
AcDbLine
 10
1650.654750920336
 20
1445.06029715298
 30
0.0
 11
1635.154847820081
 21
1445.06029715298
 31
0.0
  0
LINE
  5
1B7
330
177
100
AcDbEntity
  8
DV3_0
 62
     7
370
    35
100
AcDbLine
 10
1635.154847820081
 20
1525.06029715298
 30
0.0
 11
1635.154847820081
 21
1445.060297152981
 31
0.0
  0
LINE
  5
1B8
330
177
100
AcDbEntity
  8
DV3_0
 62
     7
370
    35
100
AcDbLine
 10
1650.654750920335
 20
1525.06029715298
 30
0.0
 11
1650.654750920335
 21
1445.060297152981
 31
0.0
  0
LINE
  5
1B9
330
177
100
AcDbEntity
  8
DV3_0
 62
     7
370
    35
100
AcDbLine
 10
1271.363470358885
 20
1525.06029715298
 30
0.0
 11
1269.587301995723
 21
1525.06029715298
 31
0.0
  0
LINE
  5
1BA
330
177
100
AcDbEntity
  8
DV3_0
 62
     7
370
    35
100
AcDbLine
 10
1269.587301995723
 20
1525.06029715298
 30
0.0
 11
1260.746540514295
 21
1525.06029715298
 31
0.0
  0
LINE
  5
1BB
330
177
100
AcDbEntity
  8
DV3_0
 62
     7
370
    35
100
AcDbLine
 10
1269.587301995723
 20
2325.06029715298
 30
0.0
 11
1269.587301995723
 21
1525.06029715298
 31
0.0
  0
LINE
  5
1BC
330
177
100
AcDbEntity
  8
DV3_0
 62
     7
370
    35
100
AcDbLine
 10
1260.746540514295
 20
2313.8750703926
 30
0.0
 11
1260.746540514295
 21
2300.06029715298
 31
0.0
  0
LINE
  5
1BD
330
177
100
AcDbEntity
  8
DV3_0
 62
     7
370
    35
100
AcDbLine
 10
1260.746540514295
 20
2275.06029715298
 30
0.0
 11
1260.746540514295
 21
1525.06029715298
 31
0.0
  0
LINE
  5
1BE
330
177
100
AcDbEntity
  8
DV3_0
 62
     7
370
    35
100
AcDbLine
 10
1300.822961471874
 20
1525.06029715298
 30
0.0
 11
1297.482571332376
 21
1525.06029715298
 31
0.0
  0
LINE
  5
1BF
330
177
100
AcDbEntity
  8
DV3_0
 62
     7
370
    35
100
AcDbLine
 10
1297.482571332376
 20
1525.06029715298
 30
0.0
 11
1271.363470358885
 21
1525.06029715298
 31
0.0
  0
LINE
  5
1C0
330
177
100
AcDbEntity
  8
DV3_0
 62
     7
370
    35
100
AcDbLine
 10
1297.482571332376
 20
2325.06029715298
 30
0.0
 11
1297.482571332376
 21
1525.06029715298
 31
0.0
  0
LINE
  5
1C1
330
177
100
AcDbEntity
  8
DV3_0
 62
     7
370
    35
100
AcDbLine
 10
1271.363470358885
 20
2325.06029715298
 30
0.0
 11
1271.363470358885
 21
1525.06029715298
 31
0.0
  0
LINE
  5
1C2
330
177
100
AcDbEntity
  8
DV3_0
 62
     7
370
    35
100
AcDbLine
 10
1279.265760129823
 20
1445.06029715298
 30
0.0
 11
1268.540606811222
 21
1445.06029715298
 31
0.0
  0
LINE
  5
1C3
330
177
100
AcDbEntity
  8
DV3_0
 62
     7
370
    35
100
AcDbLine
 10
1290.374044833734
 20
1445.06029715298
 30
0.0
 11
1279.265760129823
 21
1445.06029715298
 31
0.0
  0
LINE
  5
1C4
330
177
100
AcDbEntity
  8
DV3_0
 62
     7
370
    35
100
AcDbLine
 10
1254.541489528433
 20
2275.060297152981
 30
0.0
 11
1254.541489528433
 21
1445.06029715298
 31
0.0
  0
LINE
  5
1C5
330
177
100
AcDbEntity
  8
DV3_0
 62
     7
370
    35
100
AcDbLine
 10
1279.265760129823
 20
1525.06029715298
 30
0.0
 11
1279.265760129823
 21
1445.06029715298
 31
0.0
  0
LINE
  5
1C6
330
177
100
AcDbEntity
  8
DV3_0
 62
     7
370
    35
100
AcDbLine
 10
1290.374044833734
 20
1525.06029715298
 30
0.0
 11
1290.374044833734
 21
1445.06029715298
 31
0.0
  0
LINE
  5
1C7
330
177
100
AcDbEntity
  8
DV3_0
 62
     7
370
    35
100
AcDbLine
 10
1264.97039477865
 20
2320.474842680655
 30
0.0
 11
1251.905085640938
 21
2300.06029715298
 31
0.0
  0
SPLINE
  5
1C8
330
177
100
AcDbEntity
  8
DV3_0
 62
     7
370
    35
100
AcDbSpline
210
0.0
220
0.0
230
1.0
 70
     8
 71
     3
 72
    12
 73
     8
 74
     0
 42
0.000000001
 43
0.0000000001
 40
0.0
 40
0.0
 40
0.0
 40
0.0
 40
0.2500000000000003
 40
0.2500000000000003
 40
0.5000000000000006
 40
0.5000000000000006
 40
1.0
 40
1.0
 40
1.0
 40
1.0
 10
1251.381749175746
 20
2325.474842680655
 30
0.0
 10
1251.439298147588
 20
2325.474842680655
 30
0.0
 10
1251.498677837217
 20
2325.345449731189
 30
0.0
 10
1251.61439473607
 20
2324.845502898953
 30
0.0
 10
1251.669895416465
 20
2324.475644743665
 30
0.0
 10
1251.812325663882
 20
2323.094621588722
 30
0.0
 10
1251.873266620064
 20
2321.798633300899
 30
0.0
 10
1251.873266620064
 20
2320.474842680655
 30
0.0
  0
LINE
  5
1C9
330
177
100
AcDbEntity
  8
DV3_0
 62
     7
370
    35
100
AcDbLine
 10
1251.873266620064
 20
2320.474842680655
 30
0.0
 11
1251.873266620064
 21
2300.010579932865
 31
0.0
  0
LINE
  5
1CA
330
177
100
AcDbEntity
  8
DV3_0
 62
     7
370
    35
100
AcDbLine
 10
1250.510533923538
 20
2325.474842680655
 30
0.0
 11
1251.381749175746
 21
2325.474842680655
 31
0.0
  0
LINE
  5
1CB
330
177
100
AcDbEntity
  8
DV3_0
 62
     7
370
    35
100
AcDbLine
 10
1251.565125583471
 20
2299.529109563187
 30
0.0
 11
1251.873266620064
 21
2300.010579932865
 31
0.0
  0
LINE
  5
1CC
330
177
100
AcDbEntity
  8
DV3_0
 62
     7
370
    35
100
AcDbLine
 10
1251.565125583471
 20
2299.529109563187
 30
0.0
 11
1251.565125583471
 21
2320.474842680655
 31
0.0
  0
SPLINE
  5
1CD
330
177
100
AcDbEntity
  8
DV3_0
 62
     7
370
    35
100
AcDbSpline
210
0.0
220
0.0
230
1.0
 70
     8
 71
     3
 72
    10
 73
     6
 74
     0
 42
0.000000001
 43
0.0000000001
 40
0.0
 40
0.0
 40
0.0
 40
0.0
 40
0.5
 40
0.5
 40
1.0
 40
1.0
 40
1.0
 40
1.0
 10
1251.381749175746
 20
2322.474842680655
 30
0.0
 10
1251.427775496826
 20
2322.474842680655
 30
0.0
 10
1251.474879027159
 20
2322.259311189705
 30
0.0
 10
1251.543949355783
 20
2321.522596693175
 30
0.0
 10
1251.565125583471
 20
2321.004205857783
 30
0.0
 10
1251.565125583471
 20
2320.474842680655
 30
0.0
  0
LINE
  5
1CE
330
177
100
AcDbEntity
  8
DV3_0
 62
     7
370
    35
100
AcDbLine
 10
1250.510533923538
 20
2322.474842680655
 30
0.0
 11
1251.381749175746
 21
2322.474842680655
 31
0.0
  0
LINE
  5
1CF
330
177
100
AcDbEntity
  8
DV3_0
 62
     7
370
    35
100
AcDbLine
 10
1250.510533923538
 20
2325.474842680655
 30
0.0
 11
1250.510533923538
 21
2322.474842680655
 31
0.0
  0
LINE
  5
1D0
330
177
100
AcDbEntity
  8
DV3_0
 62
     7
370
    35
100
AcDbLine
 10
1252.47544890371
 20
2300.06029715298
 30
0.0
 11
1266.510533923537
 21
2300.06029715298
 31
0.0
  0
LINE
  5
1D1
330
177
100
AcDbEntity
  8
DV3_0
 62
     7
370
    35
100
AcDbLine
 10
1266.510533923537
 20
2275.06029715298
 30
0.0
 11
1252.47544890371
 21
2275.06029715298
 31
0.0
  0
LINE
  5
1D2
330
177
100
AcDbEntity
  8
DV3_0
 62
     7
370
    35
100
AcDbLine
 10
1252.47544890371
 20
2275.06029715298
 30
0.0
 11
1252.47544890371
 21
2300.06029715298
 31
0.0
  0
LINE
  5
1D3
330
177
100
AcDbEntity
  8
DV3_0
 62
     7
370
    35
100
AcDbLine
 10
1252.47544890371
 20
2275.06029715298
 30
0.0
 11
1251.873266620064
 21
2275.06029715298
 31
0.0
  0
LINE
  5
1D4
330
177
100
AcDbEntity
  8
DV3_0
 62
     7
370
    35
100
AcDbLine
 10
1251.873266620064
 20
2300.06029715298
 30
0.0
 11
1252.47544890371
 21
2300.06029715298
 31
0.0
  0
LINE
  5
1D5
330
177
100
AcDbEntity
  8
DV3_0
 62
     7
370
    35
100
AcDbLine
 10
1251.873266620064
 20
2275.06029715298
 30
0.0
 11
1251.873266620064
 21
2300.06029715298
 31
0.0
  0
LINE
  5
1D6
330
177
100
AcDbEntity
  8
DV3_0
 62
     7
370
    35
100
AcDbLine
 10
1628.267133211708
 20
2325.060297152981
 30
0.0
 11
1628.267133211709
 21
2345.060297152981
 31
0.0
  0
LINE
  5
1D7
330
177
100
AcDbEntity
  8
DV3_0
 62
     7
370
    35
100
AcDbLine
 10
1285.376609344023
 20
2345.060297152982
 30
0.0
 11
1285.376609344023
 21
2325.060297152981
 31
0.0
  0
LINE
  5
1D8
330
177
100
AcDbEntity
  8
DV3_0
 62
     7
370
    35
100
AcDbLine
 10
1285.376609344023
 20
2345.060297152982
 30
0.0
 11
1286.799433474729
 21
2345.060297152982
 31
0.0
  0
LINE
  5
1D9
330
177
100
AcDbEntity
  8
DV3_0
 62
     7
370
    35
100
AcDbLine
 10
1626.216279850932
 20
2345.060297152981
 30
0.0
 11
1628.267133211709
 21
2345.060297152981
 31
0.0
  0
LINE
  5
1DA
330
177
100
AcDbEntity
  8
DV3_0
 62
     7
370
    35
100
AcDbLine
 10
1285.376609344023
 20
2325.060297152981
 30
0.0
 11
1286.799433474729
 21
2325.060297152981
 31
0.0
  0
LINE
  5
1DB
330
177
100
AcDbEntity
  8
DV3_0
 62
     7
370
    35
100
AcDbLine
 10
1626.216279850932
 20
2325.060297152981
 30
0.0
 11
1628.267133211708
 21
2325.060297152981
 31
0.0
  0
LINE
  5
1DC
330
177
100
AcDbEntity
  8
DV3_0
 62
     7
370
    35
100
AcDbLine
 10
1674.907229666854
 20
2345.060297152982
 30
0.0
 11
1674.907229666854
 21
2325.060297152981
 31
0.0
  0
LINE
  5
1DD
330
177
100
AcDbEntity
  8
DV3_0
 62
     7
370
    35
100
AcDbLine
 10
1674.907229666854
 20
2325.060297152981
 30
0.0
 11
1628.267133211708
 21
2325.060297152981
 31
0.0
  0
LINE
  5
1DE
330
177
100
AcDbEntity
  8
DV3_0
 62
     7
370
    35
100
AcDbLine
 10
1257.577389791013
 20
2325.060297152981
 30
0.0
 11
1257.577389791013
 21
2345.060297152982
 31
0.0
  0
LINE
  5
1DF
330
177
100
AcDbEntity
  8
DV3_0
 62
     7
370
    35
100
AcDbLine
 10
1285.376609344023
 20
2325.060297152981
 30
0.0
 11
1257.577389791014
 21
2325.060297152981
 31
0.0
  0
LINE
  5
1E0
330
177
100
AcDbEntity
  8
DV3_0
 62
     7
370
    35
100
AcDbLine
 10
1257.577389791013
 20
2345.060297152982
 30
0.0
 11
1285.376609344023
 21
2345.060297152982
 31
0.0
  0
LINE
  5
1E1
330
177
100
AcDbEntity
  8
DV3_0
 62
     7
370
    35
100
AcDbLine
 10
1628.267133211709
 20
2345.060297152981
 30
0.0
 11
1674.907229666854
 21
2345.060297152981
 31
0.0
  0
LINE
  5
1E2
330
177
100
AcDbEntity
  8
DV3_0
 62
     7
370
    35
100
AcDbLine
 10
1533.091973671254
 20
2325.060297152981
 30
0.0
 11
1533.091973671257
 21
2345.060297152981
 31
0.0
  0
LINE
  5
1E3
330
177
100
AcDbEntity
  8
DV3_0
 62
     7
370
    35
100
AcDbLine
 10
1361.082862752269
 20
2345.060297152982
 30
0.0
 11
1361.082862752271
 21
2325.060297152981
 31
0.0
  0
LINE
  5
1E4
330
177
100
AcDbEntity
  8
DV3_0
 62
     7
370
    35
100
AcDbLine
 10
1361.082862752269
 20
2345.060297152982
 30
0.0
 11
1365.764958714252
 21
2345.060297152982
 31
0.0
  0
LINE
  5
1E5
330
177
100
AcDbEntity
  8
DV3_0
 62
     7
370
    35
100
AcDbLine
 10
1527.781848479203
 20
2345.060297152981
 30
0.0
 11
1533.091973671257
 21
2345.060297152981
 31
0.0
  0
LINE
  5
1E6
330
177
100
AcDbEntity
  8
DV3_0
 62
     7
370
    35
100
AcDbLine
 10
1361.082862752271
 20
2325.060297152981
 30
0.0
 11
1365.764958714252
 21
2325.060297152981
 31
0.0
  0
LINE
  5
1E7
330
177
100
AcDbEntity
  8
DV3_0
 62
     7
370
    35
100
AcDbLine
 10
1527.781848479202
 20
2325.060297152981
 30
0.0
 11
1533.091973671254
 21
2325.060297152981
 31
0.0
  0
LINE
  5
1E8
330
177
100
AcDbEntity
  8
DV3_0
 62
     7
370
    35
100
AcDbLine
 10
1626.216279850932
 20
2345.060297152982
 30
0.0
 11
1626.216279850932
 21
2325.060297152981
 31
0.0
  0
LINE
  5
1E9
330
177
100
AcDbEntity
  8
DV3_0
 62
     7
370
    35
100
AcDbLine
 10
1626.216279850932
 20
2325.060297152981
 30
0.0
 11
1533.091973671254
 21
2325.060297152981
 31
0.0
  0
LINE
  5
1EA
330
177
100
AcDbEntity
  8
DV3_0
 62
     7
370
    35
100
AcDbLine
 10
1286.799433474729
 20
2325.060297152981
 30
0.0
 11
1286.799433474729
 21
2345.060297152982
 31
0.0
  0
LINE
  5
1EB
330
177
100
AcDbEntity
  8
DV3_0
 62
     7
370
    35
100
AcDbLine
 10
1361.082862752271
 20
2325.060297152981
 30
0.0
 11
1286.79943347473
 21
2325.060297152981
 31
0.0
  0
LINE
  5
1EC
330
177
100
AcDbEntity
  8
DV3_0
 62
     7
370
    35
100
AcDbLine
 10
1286.799433474729
 20
2345.060297152982
 30
0.0
 11
1361.082862752269
 21
2345.060297152982
 31
0.0
  0
LINE
  5
1ED
330
177
100
AcDbEntity
  8
DV3_0
 62
     7
370
    35
100
AcDbLine
 10
1533.091973671257
 20
2345.060297152981
 30
0.0
 11
1626.216279850932
 21
2345.060297152981
 31
0.0
  0
LINE
  5
1EE
330
177
100
AcDbEntity
  8
0
 62
     7
370
    18
100
AcDbLine
 10
1350.334028593592
 20
2345.060297152982
 30
0.0
 11
1361.039719453807
 21
2334.354606292767
 31
0.0
  0
LINE
  5
1EF
330
177
100
AcDbEntity
  8
0
 62
     7
370
    18
100
AcDbLine
 10
1294.943275009363
 20
2325.097717403878
 30
0.0
 11
1286.815275009363
 21
2333.225717403878
 31
0.0
  0
LINE
  5
1F0
330
177
100
AcDbEntity
  8
0
 62
     7
370
    18
100
AcDbLine
 10
1603.691950604645
 20
2345.060297152981
 30
0.0
 11
1623.710921821967
 21
2325.097717403877
 31
0.0
  0
LINE
  5
1F1
330
177
100
AcDbEntity
  8
0
 62
     7
370
    18
100
AcDbLine
 10
1548.301144044189
 20
2325.097717403877
 30
0.0
 11
1533.091973671256
 21
2340.250557516169
 31
0.0
  0
LINE
  5
1F2
330
177
100
AcDbEntity
  8
DV3_0
 62
     7
370
    35
100
AcDbLine
 10
1250.903245504396
 20
2345.060297152981
 30
0.0
 11
1250.903245504396
 21
2325.060297152981
 31
0.0
  0
LINE
  5
1F3
330
177
100
AcDbEntity
  8
DV3_0
 62
     7
370
    35
100
AcDbLine
 10
1257.052884581431
 20
2345.060297152982
 30
0.0
 11
1257.577389791013
 21
2345.060297152982
 31
0.0
  0
LINE
  5
1F4
330
177
100
AcDbEntity
  8
DV3_0
 62
     7
370
    35
100
AcDbLine
 10
1674.907229666854
 20
2345.06029715298
 30
0.0
 11
1676.059764106507
 21
2345.06029715298
 31
0.0
  0
LINE
  5
1F5
330
177
100
AcDbEntity
  8
DV3_0
 62
     7
370
    35
100
AcDbLine
 10
1257.052884581431
 20
2325.060297152981
 30
0.0
 11
1257.577389791013
 21
2325.060297152981
 31
0.0
  0
LINE
  5
1F6
330
177
100
AcDbEntity
  8
DV3_0
 62
     7
370
    35
100
AcDbLine
 10
1674.907229666854
 20
2325.060297152981
 30
0.0
 11
1676.059764106507
 21
2325.060297152981
 31
0.0
  0
LINE
  5
1F7
330
177
100
AcDbEntity
  8
DV3_0
 62
     7
370
    35
100
AcDbLine
 10
1701.32686347706
 20
2325.060297152981
 30
0.0
 11
1676.059764106507
 21
2325.060297152981
 31
0.0
  0
LINE
  5
1F8
330
177
100
AcDbEntity
  8
DV3_0
 62
     7
370
    35
100
AcDbLine
 10
1676.059764106507
 20
2325.060297152981
 30
0.0
 11
1676.059764106507
 21
2345.060297152981
 31
0.0
  0
LINE
  5
1F9
330
177
100
AcDbEntity
  8
DV3_0
 62
     7
370
    35
100
AcDbLine
 10
1257.052884581431
 20
2345.060297152982
 30
0.0
 11
1257.052884581431
 21
2325.060297152981
 31
0.0
  0
LINE
  5
1FA
330
177
100
AcDbEntity
  8
DV3_0
 62
     7
370
    35
100
AcDbLine
 10
1257.052884581431
 20
2325.060297152981
 30
0.0
 11
1250.903245504396
 21
2325.060297152981
 31
0.0
  0
LINE
  5
1FB
330
177
100
AcDbEntity
  8
DV3_0
 62
     7
370
    35
100
AcDbLine
 10
1701.32686347706
 20
2325.060297152981
 30
0.0
 11
1701.32686347706
 21
2345.060297152982
 31
0.0
  0
LINE
  5
1FC
330
177
100
AcDbEntity
  8
DV3_0
 62
     7
370
    35
100
AcDbLine
 10
1250.903245504396
 20
2345.060297152981
 30
0.0
 11
1257.052884581431
 21
2345.060297152981
 31
0.0
  0
LINE
  5
1FD
330
177
100
AcDbEntity
  8
DV3_0
 62
     7
370
    35
100
AcDbLine
 10
1676.059764106507
 20
2345.060297152981
 30
0.0
 11
1701.32686347706
 21
2345.060297152981
 31
0.0
  0
LINE
  5
1FE
330
177
100
AcDbEntity
  8
0
 62
     7
370
    18
100
AcDbLine
 10
1251.502693491618
 20
2325.097717403878
 30
0.0
 11
1257.034249047173
 21
2330.629272959433
 31
0.0
  0
LINE
  5
1FF
330
177
100
AcDbEntity
  8
0
 62
     7
370
    18
100
AcDbLine
 10
1683.828259703798
 20
2325.097717403877
 30
0.0
 11
1701.326037481576
 21
2342.595495181655
 31
0.0
  0
LINE
  5
200
330
177
100
AcDbEntity
  8
DV3_0
 62
     7
370
    35
100
AcDbLine
 10
1722.05283102753
 20
2325.060297152981
 30
0.0
 11
1722.05283102753
 21
2345.060297152981
 31
0.0
  0
LINE
  5
201
330
177
100
AcDbEntity
  8
DV3_0
 62
     7
370
    35
100
AcDbLine
 10
1701.32686347706
 20
2345.060297152981
 30
0.0
 11
1722.05283102753
 21
2345.060297152981
 31
0.0
  0
LINE
  5
202
330
177
100
AcDbEntity
  8
DV3_0
 62
     7
370
    35
100
AcDbLine
 10
1701.32686347706
 20
2325.060297152981
 30
0.0
 11
1722.05283102753
 21
2325.060297152981
 31
0.0
  0
LINE
  5
203
330
177
100
AcDbEntity
  8
DV3_0
 62
     7
370
    35
100
AcDbLine
 10
1731.473269478598
 20
2345.060297152982
 30
0.0
 11
1731.473269478598
 21
2325.06029715298
 31
0.0
  0
LINE
  5
204
330
177
100
AcDbEntity
  8
DV3_0
 62
     7
370
    35
100
AcDbLine
 10
1731.473269478598
 20
2325.06029715298
 30
0.0
 11
1722.05283102753
 21
2325.06029715298
 31
0.0
  0
LINE
  5
205
330
177
100
AcDbEntity
  8
DV3_0
 62
     7
370
    35
100
AcDbLine
 10
1722.05283102753
 20
2345.060297152981
 30
0.0
 11
1731.473269478598
 21
2345.060297152982
 31
0.0
  0
LINE
  5
206
330
177
100
AcDbEntity
  8
0
 62
     7
370
    18
100
AcDbLine
 10
1723.558915697577
 20
2345.06029715298
 30
0.0
 11
1731.442384335569
 21
2337.176828514988
 31
0.0
  0
LINE
  5
207
330
177
100
AcDbEntity
  8
DV3_0
 62
     7
370
    35
100
AcDbLine
 10
1365.764958714252
 20
2325.060297152982
 30
0.0
 11
1365.764958714252
 21
2345.060297152982
 31
0.0
  0
LINE
  5
208
330
177
100
AcDbEntity
  8
DV3_0
 62
     7
370
    35
100
AcDbLine
 10
1527.781848479202
 20
2325.060297152981
 30
0.0
 11
1365.764958714252
 21
2325.060297152982
 31
0.0
  0
LINE
  5
209
330
177
100
AcDbEntity
  8
DV3_0
 62
     7
370
    35
100
AcDbLine
 10
1527.781848479202
 20
2345.060297152981
 30
0.0
 11
1527.781848479201
 21
2325.060297152981
 31
0.0
  0
LINE
  5
20A
330
177
100
AcDbEntity
  8
DV3_0
 62
     7
370
    35
100
AcDbLine
 10
1365.764958714252
 20
2345.060297152982
 30
0.0
 11
1527.781848479202
 21
2345.060297152982
 31
0.0
  0
LINE
  5
20B
330
177
100
AcDbEntity
  8
0
 62
     7
370
    18
100
AcDbLine
 10
1407.072316569657
 20
2345.060297152982
 30
0.0
 11
1387.109736820553
 21
2325.097717403878
 31
0.0
  0
LINE
  5
20C
330
177
100
AcDbEntity
  8
0
 62
     7
370
    18
100
AcDbLine
 10
1482.482094347435
 20
2345.060297152982
 30
0.0
 11
1462.51951459833
 21
2325.097717403878
 31
0.0
  0
ENDBLK
  5
20E
330
177
100
AcDbEntity
  8
0
100
AcDbBlockEnd
  0
BLOCK
  5
2AB
330
20F
100
AcDbEntity
  8
0
100
AcDbBlockBegin
  2
SE3
 70
     0
 10
0.0
 20
0.0
 30
0.0
  3
SE3
  1

  0
LINE
  5
212
330
20F
100
AcDbEntity
  8
DV4_0
 62
     7
370
    35
100
AcDbLine
 10
1469.564674682026
 20
210.9258783417742
 30
0.0
 11
1469.564674682026
 21
282.7080015833641
 31
0.0
  0
LINE
  5
213
330
20F
100
AcDbEntity
  8
DV4_0
 62
     7
370
    35
100
AcDbLine
 10
1440.586899893354
 20
215.4087557026139
 30
0.0
 11
1440.586899893354
 21
218.7466887808112
 31
0.0
  0
LINE
  5
214
330
20F
100
AcDbEntity
  8
DV4_0
 62
     7
370
    35
100
AcDbLine
 10
1470.86193138477
 20
217.8035609622306
 30
0.0
 11
1470.86193138477
 21
282.6244515182248
 31
0.0
  0
ELLIPSE
  5
215
330
20F
100
AcDbEntity
  8
DV4_0
 62
     7
370
    35
100
AcDbEllipse
 10
1511.23489811574
 20
334.1733833582657
 30
0.0
 11
-217.4999999992573
 21
2.905308415808564E-10
 31
0.0
210
0.0
220
0.0
230
1.0
 40
0.5773502691879651
 41
1.239976634958993
 42
1.378017243035569
  0
LINE
  5
216
330
20F
100
AcDbEntity
  8
DV4_0
 62
     7
370
    35
100
AcDbLine
 10
1479.783405004732
 20
232.9441820696596
 30
0.0
 11
1469.564674682026
 21
210.9258783417741
 31
0.0
  0
SPLINE
  5
217
330
20F
100
AcDbEntity
  8
DV4_0
 62
     7
370
    35
100
AcDbSpline
210
0.0
220
0.0
230
1.0
 70
     8
 71
     3
 72
    12
 73
     8
 74
     0
 42
0.000000001
 43
0.0000000001
 40
0.6112819915068362
 40
0.6112819915068362
 40
0.6112819915068362
 40
0.6112819915068362
 40
0.6249999999999978
 40
0.6249999999999978
 40
0.687499999999998
 40
0.687499999999998
 40
0.723527374223715
 40
0.723527374223715
 40
0.723527374223715
 40
0.723527374223715
 10
1642.842160599857
 20
885.4118367549594
 30
0.0
 10
1642.783739252284
 20
885.4580606234014
 30
0.0
 10
1642.722242146551
 20
885.5002784843241
 30
0.0
 10
1642.364193797694
 20
885.7110962285036
 30
0.0
 10
1642.009729373402
 20
885.7998637542245
 30
0.0
 10
1641.399496200664
 20
885.7946713827074
 30
0.0
 10
1641.166414032895
 20
885.7627620338972
 30
0.0
 10
1640.92769882351
 20
885.7015129765213
 30
0.0
  0
SPLINE
  5
218
330
20F
100
AcDbEntity
  8
DV4_0
 62
     7
370
    35
100
AcDbSpline
210
0.0
220
0.0
230
1.0
 70
     8
 71
     3
 72
    14
 73
    10
 74
     0
 42
0.000000001
 43
0.0000000001
 40
0.5696270430126126
 40
0.5696270430126126
 40
0.5696270430126126
 40
0.5696270430126126
 40
0.6249999999999997
 40
0.6249999999999997
 40
0.6874999999999997
 40
0.6874999999999997
 40
0.7499999999999998
 40
0.7499999999999998
 40
0.7858834547243453
 40
0.7858834547243453
 40
0.7858834547243453
 40
0.7858834547243453
 10
1586.477563412699
 20
866.8484589359626
 30
0.0
 10
1586.293861592184
 20
867.1527930981445
 30
0.0
 10
1586.043514607632
 20
867.4158385289861
 30
0.0
 10
1585.390613090294
 20
867.8468761371877
 30
0.0
 10
1584.973027880044
 20
868.0028286198072
 30
0.0
 10
1584.062312621897
 20
868.1428644268462
 30
0.0
 10
1583.572363699044
 20
868.1281797445267
 30
0.0
 10
1582.788565370519
 20
867.9705152382066
 30
0.0
 10
1582.505019250108
 20
867.8859264708401
 30
0.0
 10
1582.22846481769
 20
867.776152233474
 30
0.0
  0
SPLINE
  5
219
330
20F
100
AcDbEntity
  8
DV4_0
 62
     7
370
    35
100
AcDbSpline
210
0.0
220
0.0
230
1.0
 70
     8
 71
     3
 72
    16
 73
    12
 74
     0
 42
0.000000001
 43
0.0000000001
 40
0.081461141162491
 40
0.081461141162491
 40
0.081461141162491
 40
0.081461141162491
 40
0.1250000000000043
 40
0.1250000000000043
 40
0.2500000000000069
 40
0.2500000000000069
 40
0.3125000000000059
 40
0.3125000000000059
 40
0.3750000000000048
 40
0.3750000000000048
 40
0.4353183154395657
 40
0.4353183154395657
 40
0.4353183154395657
 40
0.4353183154395657
 10
1515.695386138738
 20
859.0277204061331
 30
0.0
 10
1515.874407694436
 20
858.7701879845882
 30
0.0
 10
1516.09658700319
 20
858.5335251433189
 30
0.0
 10
1517.091595390843
 20
857.7349287800141
 30
0.0
 10
1518.135655482528
 20
857.3989281374095
 30
0.0
 10
1519.699775661247
 20
857.4320293666938
 30
0.0
 10
1520.223652077154
 20
857.5290241940218
 30
0.0
 10
1521.191284912527
 20
857.8808957711561
 30
0.0
 10
1521.63173210889
 20
858.1327075762476
 30
0.0
 10
1522.364903444624
 20
858.7529262346345
 30
0.0
 10
1522.650640287221
 20
859.1069199773929
 30
0.0
 10
1522.850515683253
 20
859.4927320839968
 30
0.0
  0
SPLINE
  5
21A
330
20F
100
AcDbEntity
  8
DV4_0
 62
     7
370
    35
100
AcDbSpline
210
0.0
220
0.0
230
1.0
 70
    11
 71
     3
 72
    32
 73
    28
 74
     0
 42
0.000000001
 43
0.0000000001
 40
0.0
 40
0.0
 40
0.0
 40
0.0
 40
0.0624999999999988
 40
0.0624999999999988
 40
0.1249999999999976
 40
0.1249999999999976
 40
0.2499999999999969
 40
0.2499999999999969
 40
0.3124999999999966
 40
0.3124999999999966
 40
0.3749999999999962
 40
0.3749999999999962
 40
0.4374999999999959
 40
0.4374999999999959
 40
0.4999999999999956
 40
0.4999999999999956
 40
0.6249999999999951
 40
0.6249999999999951
 40
0.6874999999999956
 40
0.6874999999999956
 40
0.749999999999996
 40
0.749999999999996
 40
0.8124999999999966
 40
0.8124999999999966
 40
0.874999999999997
 40
0.874999999999997
 40
1.0
 40
1.0
 40
1.0
 40
1.0
 10
1515.368904627436
 20
857.7371662756608
 30
0.0
 10
1515.368904627436
 20
857.3056226227354
 30
0.0
 10
1515.472956201625
 20
856.8832693543611
 30
0.0
 10
1515.874481951706
 20
856.0969672424268
 30
0.0
 10
1516.171621379621
 20
855.7383226341262
 30
0.0
 10
1517.278559904603
 20
854.8500761319469
 30
0.0
 10
1518.322612711215
 20
854.5141953491715
 30
0.0
 10
1519.886731153282
 20
854.5472967819288
 30
0.0
 10
1520.410609093283
 20
854.6442647280537
 30
0.0
 10
1521.378247277617
 20
854.9960434260329
 30
0.0
 10
1521.818699725557
 20
855.2477912801977
 30
0.0
 10
1522.564903087001
 20
855.8788950071905
 30
0.0
 10
1522.85819373552
 20
856.2474798123809
 30
0.0
 10
1523.259506749626
 20
857.0516437805699
 30
0.0
 10
1523.363125477097
 20
857.4824274797693
 30
0.0
 10
1523.363679092369
 20
858.7612833796919
 30
0.0
 10
1522.932009283486
 20
859.5998026079474
 30
0.0
 10
1521.827971680441
 20
860.4719050855338
 30
0.0
 10
1521.384369962708
 20
860.7027993906083
 30
0.0
 10
1520.41805291681
 20
861.0061774606351
 30
0.0
 10
1519.898715525862
 20
861.0793224390749
 30
0.0
 10
1518.844394912358
 20
861.0574122587593
 30
0.0
 10
1518.325332994369
 20
860.962973945417
 30
0.0
 10
1517.355236914558
 20
860.6183928372352
 30
0.0
 10
1516.912112640339
 20
860.3696146588405
 30
0.0
 10
1515.803589246428
 20
859.4501376038147
 30
0.0
 10
1515.368904627436
 20
858.6002535815115
 30
0.0
 10
1515.368904627436
 20
857.7371662756608
 30
0.0
  0
LINE
  5
21B
330
20F
100
AcDbEntity
  8
DV4_0
 62
     7
370
    35
100
AcDbLine
 10
1470.86193138477
 20
238.406821746443
 30
0.0
 11
1479.783405004732
 21
237.0266649742987
 31
0.0
  0
LINE
  5
21C
330
20F
100
AcDbEntity
  8
DV4_0
 62
     7
370
    35
100
AcDbLine
 10
1479.783405004732
 20
237.0266649742987
 30
0.0
 11
1479.783405004732
 21
232.9441820696598
 31
0.0
  0
LINE
  5
21D
330
20F
100
AcDbEntity
  8
DV4_0
 62
     7
370
    35
100
AcDbLine
 10
1479.783405004732
 20
237.0266649742987
 30
0.0
 11
1470.861931384769
 21
217.8035609622308
 31
0.0
  0
SPLINE
  5
21E
330
20F
100
AcDbEntity
  8
DV4_0
 62
     7
370
    35
100
AcDbSpline
210
0.0
220
0.0
230
1.0
 70
     8
 71
     3
 72
    12
 73
     8
 74
     0
 42
0.000000001
 43
0.0000000001
 40
0.6112819915068304
 40
0.6112819915068304
 40
0.6112819915068304
 40
0.6112819915068304
 40
0.6249999999999952
 40
0.6249999999999952
 40
0.6874999999999957
 40
0.6874999999999957
 40
0.723527374223715
 40
0.723527374223715
 40
0.723527374223715
 40
0.723527374223715
 10
1642.842160599857
 20
391.431405293656
 30
0.0
 10
1642.783739252284
 20
391.4776291620981
 30
0.0
 10
1642.722242146551
 20
391.5198470230209
 30
0.0
 10
1642.364193797694
 20
391.7306647672004
 30
0.0
 10
1642.009729373402
 20
391.8194322929212
 30
0.0
 10
1641.399496200664
 20
391.8142399214042
 30
0.0
 10
1641.166414032895
 20
391.7823305725938
 30
0.0
 10
1640.92769882351
 20
391.7210815152179
 30
0.0
  0
SPLINE
  5
21F
330
20F
100
AcDbEntity
  8
DV4_0
 62
     7
370
    35
100
AcDbSpline
210
0.0
220
0.0
230
1.0
 70
     8
 71
     3
 72
    14
 73
    10
 74
     0
 42
0.000000001
 43
0.0000000001
 40
0.5696270430126121
 40
0.5696270430126121
 40
0.5696270430126121
 40
0.5696270430126121
 40
0.624999999999998
 40
0.624999999999998
 40
0.6874999999999983
 40
0.6874999999999983
 40
0.7499999999999987
 40
0.7499999999999987
 40
0.7858834547243352
 40
0.7858834547243352
 40
0.7858834547243352
 40
0.7858834547243352
 10
1586.477563412699
 20
372.8680274746594
 30
0.0
 10
1586.293861592184
 20
373.1723616368415
 30
0.0
 10
1586.043514607632
 20
373.4354070676833
 30
0.0
 10
1585.390613090294
 20
373.8664446758846
 30
0.0
 10
1584.973027880044
 20
374.0223971585041
 30
0.0
 10
1584.062312621897
 20
374.162432965543
 30
0.0
 10
1583.572363699044
 20
374.1477482832233
 30
0.0
 10
1582.788565370519
 20
373.9900837769036
 30
0.0
 10
1582.505019250109
 20
373.9054950095369
 30
0.0
 10
1582.22846481769
 20
373.7957207721709
 30
0.0
  0
SPLINE
  5
220
330
20F
100
AcDbEntity
  8
DV4_0
 62
     7
370
    35
100
AcDbSpline
210
0.0
220
0.0
230
1.0
 70
     8
 71
     3
 72
    16
 73
    12
 74
     0
 42
0.000000001
 43
0.0000000001
 40
0.0814611411624898
 40
0.0814611411624898
 40
0.0814611411624898
 40
0.0814611411624898
 40
0.1250000000000001
 40
0.1250000000000001
 40
0.2499999999999984
 40
0.2499999999999984
 40
0.3124999999999987
 40
0.3124999999999987
 40
0.374999999999999
 40
0.374999999999999
 40
0.4353183154395679
 40
0.4353183154395679
 40
0.4353183154395679
 40
0.4353183154395679
 10
1515.695386138738
 20
365.0472889448298
 30
0.0
 10
1515.874407694436
 20
364.7897565232851
 30
0.0
 10
1516.09658700319
 20
364.5530936820156
 30
0.0
 10
1517.091595390843
 20
363.754497318711
 30
0.0
 10
1518.135655482528
 20
363.4184966761063
 30
0.0
 10
1519.699775661247
 20
363.4515979053907
 30
0.0
 10
1520.223652077154
 20
363.5485927327186
 30
0.0
 10
1521.191284912527
 20
363.9004643098529
 30
0.0
 10
1521.63173210889
 20
364.1522761149445
 30
0.0
 10
1522.364903444624
 20
364.772494773331
 30
0.0
 10
1522.650640287221
 20
365.1264885160899
 30
0.0
 10
1522.850515683253
 20
365.5123006226939
 30
0.0
  0
SPLINE
  5
221
330
20F
100
AcDbEntity
  8
DV4_0
 62
     7
370
    35
100
AcDbSpline
210
0.0
220
0.0
230
1.0
 70
    11
 71
     3
 72
    32
 73
    28
 74
     0
 42
0.000000001
 43
0.0000000001
 40
0.0
 40
0.0
 40
0.0
 40
0.0
 40
0.0624999999999972
 40
0.0624999999999972
 40
0.1249999999999943
 40
0.1249999999999943
 40
0.249999999999998
 40
0.249999999999998
 40
0.3124999999999998
 40
0.3124999999999998
 40
0.3750000000000017
 40
0.3750000000000017
 40
0.4375000000000035
 40
0.4375000000000035
 40
0.5000000000000053
 40
0.5000000000000053
 40
0.6249999999999957
 40
0.6249999999999957
 40
0.6874999999999963
 40
0.6874999999999963
 40
0.7499999999999971
 40
0.7499999999999971
 40
0.8124999999999978
 40
0.8124999999999978
 40
0.8749999999999986
 40
0.8749999999999986
 40
1.0
 40
1.0
 40
1.0
 40
1.0
 10
1515.368904627436
 20
363.7567348143579
 30
0.0
 10
1515.368904627436
 20
363.3251911614322
 30
0.0
 10
1515.472956201625
 20
362.9028378930578
 30
0.0
 10
1515.874481951706
 20
362.1165357811238
 30
0.0
 10
1516.171621379621
 20
361.757891172823
 30
0.0
 10
1517.278559904603
 20
360.8696446706437
 30
0.0
 10
1518.322612711215
 20
360.5337638878685
 30
0.0
 10
1519.886731153282
 20
360.5668653206257
 30
0.0
 10
1520.410609093283
 20
360.6638332667505
 30
0.0
 10
1521.378247277617
 20
361.0156119647299
 30
0.0
 10
1521.818699725557
 20
361.2673598188944
 30
0.0
 10
1522.564903087001
 20
361.8984635458875
 30
0.0
 10
1522.85819373552
 20
362.2670483510775
 30
0.0
 10
1523.259506749626
 20
363.0712123192666
 30
0.0
 10
1523.363125477097
 20
363.5019960184661
 30
0.0
 10
1523.363679092369
 20
364.7808519183889
 30
0.0
 10
1522.932009283486
 20
365.6193711466446
 30
0.0
 10
1521.827971680441
 20
366.4914736242307
 30
0.0
 10
1521.384369962707
 20
366.7223679293051
 30
0.0
 10
1520.41805291681
 20
367.0257459993321
 30
0.0
 10
1519.898715525862
 20
367.0988909777715
 30
0.0
 10
1518.844394912357
 20
367.0769807974563
 30
0.0
 10
1518.325332994369
 20
366.9825424841139
 30
0.0
 10
1517.355236914558
 20
366.6379613759322
 30
0.0
 10
1516.912112640339
 20
366.3891831975376
 30
0.0
 10
1515.803589246428
 20
365.4697061425119
 30
0.0
 10
1515.368904627436
 20
364.6198221202093
 30
0.0
 10
1515.368904627436
 20
363.7567348143579
 30
0.0
  0
LINE
  5
222
330
20F
100
AcDbEntity
  8
DV4_0
 62
     7
370
    35
100
AcDbLine
 10
1456.791735817867
 20
214.6593326284921
 30
0.0
 11
1388.064204029179
 21
231.9945220249644
 31
0.0
  0
LINE
  5
223
330
20F
100
AcDbEntity
  8
DV4_0
 62
     7
370
    35
100
AcDbLine
 10
1456.791735817867
 20
931.8386204360687
 30
0.0
 11
1456.791735817867
 21
214.6593326284923
 31
0.0
  0
LINE
  5
224
330
20F
100
AcDbEntity
  8
DV4_0
 62
     7
370
    35
100
AcDbLine
 10
1388.064204029179
 20
949.588891620232
 30
0.0
 11
1388.064204029179
 21
231.9945220249645
 31
0.0
  0
LINE
  5
225
330
20F
100
AcDbEntity
  8
DV4_0
 62
     7
370
    35
100
AcDbLine
 10
1519.563439793955
 20
291.1064508006139
 30
0.0
 11
1517.346132076113
 21
279.6306277148927
 31
0.0
  0
LINE
  5
226
330
20F
100
AcDbEntity
  8
DV4_0
 62
     7
370
    35
100
AcDbLine
 10
1517.346132076113
 20
279.6306277148926
 30
0.0
 11
1457.716006146684
 21
283.4711173382081
 31
0.0
  0
LINE
  5
227
330
20F
100
AcDbEntity
  8
DV4_0
 62
     7
370
    35
100
AcDbLine
 10
1517.346132076113
 20
928.1116615403124
 30
0.0
 11
1517.346132076113
 21
279.6306277148925
 31
0.0
  0
LINE
  5
228
330
20F
100
AcDbEntity
  8
DV4_0
 62
     7
370
    35
100
AcDbLine
 10
1519.563439793954
 20
928.1518671904389
 30
0.0
 11
1519.563439793954
 21
915.3420060749673
 31
0.0
  0
LINE
  5
229
330
20F
100
AcDbEntity
  8
DV4_0
 62
     7
370
    35
100
AcDbLine
 10
1519.563439793954
 20
909.3413587277468
 30
0.0
 11
1519.563439793954
 21
872.9429477439336
 31
0.0
  0
LINE
  5
22A
330
20F
100
AcDbEntity
  8
DV4_0
 62
     7
370
    35
100
AcDbLine
 10
1519.563439793954
 20
861.0661451575648
 30
0.0
 11
1519.563439793954
 21
857.4467095941294
 31
0.0
  0
LINE
  5
22B
330
20F
100
AcDbEntity
  8
DV4_0
 62
     7
370
    35
100
AcDbLine
 10
1519.563439793954
 20
845.5591303255997
 30
0.0
 11
1519.563439793954
 21
378.962516282631
 31
0.0
  0
LINE
  5
22C
330
20F
100
AcDbEntity
  8
DV4_0
 62
     7
370
    35
100
AcDbLine
 10
1519.563439793954
 20
351.5786988642969
 30
0.0
 11
1519.563439793954
 21
291.1064508006137
 31
0.0
  0
LINE
  5
22D
330
20F
100
AcDbEntity
  8
DV4_0
 62
     7
370
    35
100
AcDbLine
 10
1388.064204029179
 20
300.2787902779382
 30
0.0
 11
1344.979823116585
 21
321.6952702365494
 31
0.0
  0
LINE
  5
22E
330
20F
100
AcDbEntity
  8
DV4_0
 62
     7
370
    35
100
AcDbLine
 10
1344.979823116585
 20
969.0961445932734
 30
0.0
 11
1344.979823116584
 21
321.6952702365494
 31
0.0
  0
LINE
  5
22F
330
20F
100
AcDbEntity
  8
DV4_0
 62
     7
370
    35
100
AcDbLine
 10
1344.979823116584
 20
325.7063696160913
 30
0.0
 11
1341.100204750582
 21
324.2972990368542
 31
0.0
  0
LINE
  5
230
330
20F
100
AcDbEntity
  8
DV4_0
 62
     7
370
    35
100
AcDbLine
 10
1341.100204750582
 20
324.2972990368542
 30
0.0
 11
1309.15147999375
 21
353.6189576212043
 31
0.0
  0
LINE
  5
231
330
20F
100
AcDbEntity
  8
DV4_0
 62
     7
370
    35
100
AcDbLine
 10
1341.100204750582
 20
971.4980312015017
 30
0.0
 11
1341.100204750582
 21
324.2972990368543
 31
0.0
  0
LINE
  5
232
330
20F
100
AcDbEntity
  8
DV4_0
 62
     7
370
    35
100
AcDbLine
 10
1309.15147999375
 20
997.445845512182
 30
0.0
 11
1309.151479993749
 21
353.6189576212045
 31
0.0
  0
LINE
  5
233
330
20F
100
AcDbEntity
  8
DV4_0
 62
     7
370
    35
100
AcDbLine
 10
1291.244080536237
 20
393.650810125094
 30
0.0
 11
1290.577926316094
 21
393.6653172216435
 31
0.0
  0
LINE
  5
234
330
20F
100
AcDbEntity
  8
DV4_0
 62
     7
370
    35
100
AcDbLine
 10
1290.577926316093
 20
1023.392021453427
 30
0.0
 11
1290.577926316093
 21
393.6653172216435
 31
0.0
  0
LINE
  5
235
330
20F
100
AcDbEntity
  8
DV4_0
 62
     7
370
    35
100
AcDbLine
 10
1309.15147999375
 20
357.150848508259
 30
0.0
 11
1306.760714160911
 21
356.7813150340376
 31
0.0
  0
LINE
  5
236
330
20F
100
AcDbEntity
  8
DV4_0
 62
     7
370
    35
100
AcDbLine
 10
1306.760714160911
 20
356.7813150340377
 30
0.0
 11
1291.244080536237
 21
390.243901509866
 31
0.0
  0
LINE
  5
237
330
20F
100
AcDbEntity
  8
DV4_0
 62
     7
370
    35
100
AcDbLine
 10
1306.760714160911
 20
1000.054276534805
 30
0.0
 11
1306.760714160911
 21
356.7813150340378
 31
0.0
  0
LINE
  5
238
330
20F
100
AcDbEntity
  8
DV4_0
 62
     7
370
    35
100
AcDbLine
 10
1291.244080536237
 20
1022.108124654489
 30
0.0
 11
1291.244080536237
 21
390.2439015098662
 31
0.0
  0
LINE
  5
239
330
20F
100
AcDbEntity
  8
DV4_0
 62
     7
370
    35
100
AcDbLine
 10
1587.855100286007
 20
287.3073301771763
 30
0.0
 11
1582.229274636706
 21
293.4665002671181
 31
0.0
  0
LINE
  5
23A
330
20F
100
AcDbEntity
  8
DV4_0
 62
     7
370
    35
100
AcDbLine
 10
1640.927434760408
 20
303.4662009446234
 30
0.0
 11
1587.855100286007
 21
287.3073301771763
 31
0.0
  0
LINE
  5
23B
330
20F
100
AcDbEntity
  8
DV4_0
 62
     7
370
    35
100
AcDbLine
 10
1640.927434760408
 20
937.6766349791349
 30
0.0
 11
1640.927434760408
 21
303.4662009446236
 31
0.0
  0
LINE
  5
23C
330
20F
100
AcDbEntity
  8
DV4_0
 62
     7
370
    35
100
AcDbLine
 10
1587.855100286007
 20
935.6497166832785
 30
0.0
 11
1587.855100286007
 21
287.3073301771764
 31
0.0
  0
LINE
  5
23D
330
20F
100
AcDbEntity
  8
DV4_0
 62
     7
370
    35
100
AcDbLine
 10
1691.673517698501
 20
332.7993301189026
 30
0.0
 11
1688.144119289357
 21
333.8761523432839
 31
0.0
  0
LINE
  5
23E
330
20F
100
AcDbEntity
  8
DV4_0
 62
     7
370
    35
100
AcDbLine
 10
1719.7069247245
 20
363.4268128237873
 30
0.0
 11
1691.673517698502
 21
332.7993301189024
 31
0.0
  0
LINE
  5
23F
330
20F
100
AcDbEntity
  8
DV4_0
 62
     7
370
    35
100
AcDbLine
 10
1719.7069247245
 20
1004.761923891133
 30
0.0
 11
1719.7069247245
 21
363.4268128237873
 31
0.0
  0
LINE
  5
240
330
20F
100
AcDbEntity
  8
DV4_0
 62
     7
370
    35
100
AcDbLine
 10
1691.673517698501
 20
978.5107300304875
 30
0.0
 11
1691.673517698501
 21
332.7993301189026
 31
0.0
  0
LINE
  5
241
330
20F
100
AcDbEntity
  8
DV4_0
 62
     7
370
    35
100
AcDbLine
 10
1523.26694253204
 20
279.759144696389
 30
0.0
 11
1519.563439793954
 21
291.1064508006133
 31
0.0
  0
LINE
  5
242
330
20F
100
AcDbEntity
  8
DV4_0
 62
     7
370
    35
100
AcDbLine
 10
1582.229274636706
 20
286.1737996047234
 30
0.0
 11
1523.26694253204
 21
279.759144696389
 31
0.0
  0
LINE
  5
243
330
20F
100
AcDbEntity
  8
DV4_0
 62
     7
370
    35
100
AcDbLine
 10
1582.229274636706
 20
934.5491007626432
 30
0.0
 11
1582.229274636706
 21
286.1737996047234
 31
0.0
  0
LINE
  5
244
330
20F
100
AcDbEntity
  8
DV4_0
 62
     7
370
    35
100
AcDbLine
 10
1519.563439793954
 20
928.1518671904389
 30
0.0
 11
1519.563439793954
 21
915.3420060749673
 31
0.0
  0
LINE
  5
245
330
20F
100
AcDbEntity
  8
DV4_0
 62
     7
370
    35
100
AcDbLine
 10
1519.563439793954
 20
909.3413587277468
 30
0.0
 11
1519.563439793954
 21
872.9429477439336
 31
0.0
  0
LINE
  5
246
330
20F
100
AcDbEntity
  8
DV4_0
 62
     7
370
    35
100
AcDbLine
 10
1519.563439793954
 20
861.0661451575648
 30
0.0
 11
1519.563439793954
 21
857.4467095941293
 31
0.0
  0
LINE
  5
247
330
20F
100
AcDbEntity
  8
DV4_0
 62
     7
370
    35
100
AcDbLine
 10
1519.563439793954
 20
845.5591303255997
 30
0.0
 11
1519.563439793954
 21
378.9625162826309
 31
0.0
  0
LINE
  5
248
330
20F
100
AcDbEntity
  8
DV4_0
 62
     7
370
    35
100
AcDbLine
 10
1519.563439793954
 20
351.5786988642969
 30
0.0
 11
1519.563439793954
 21
291.1064508006134
 31
0.0
  0
LINE
  5
249
330
20F
100
AcDbEntity
  8
DV4_0
 62
     7
370
    35
100
AcDbLine
 10
1523.26694253204
 20
928.2466052436687
 30
0.0
 11
1523.26694253204
 21
279.7591446963892
 31
0.0
  0
LINE
  5
24A
330
20F
100
AcDbEntity
  8
DV4_0
 62
     7
370
    35
100
AcDbLine
 10
1645.751493348145
 20
305.521511810124
 30
0.0
 11
1640.927434760407
 21
308.3022533813993
 31
0.0
  0
LINE
  5
24B
330
20F
100
AcDbEntity
  8
DV4_0
 62
     7
370
    35
100
AcDbLine
 10
1688.144119289358
 20
330.0358971502191
 30
0.0
 11
1645.751493348145
 21
305.5215118101241
 31
0.0
  0
LINE
  5
24C
330
20F
100
AcDbEntity
  8
DV4_0
 62
     7
370
    35
100
AcDbLine
 10
1688.144119289357
 20
975.996383945531
 30
0.0
 11
1688.144119289358
 21
330.0358971502189
 31
0.0
  0
LINE
  5
24D
330
20F
100
AcDbEntity
  8
DV4_0
 62
     7
370
    35
100
AcDbLine
 10
1645.751493348144
 20
939.697713426549
 30
0.0
 11
1645.751493348145
 21
305.5215118101244
 31
0.0
  0
LINE
  5
24E
330
20F
100
AcDbEntity
  8
DV4_0
 62
     7
370
    35
100
AcDbLine
 10
1714.180093767214
 20
333.2422589517942
 30
0.0
 11
1710.168445196285
 21
353.0056886090119
 31
0.0
  0
LINE
  5
24F
330
20F
100
AcDbEntity
  8
DV4_0
 62
     7
370
    35
100
AcDbLine
 10
1739.010166007504
 20
334.9222899576544
 30
0.0
 11
1714.180093767214
 21
333.2422589517941
 31
0.0
  0
LINE
  5
250
330
20F
100
AcDbEntity
  8
DV4_0
 62
     7
370
    35
100
AcDbLine
 10
1714.180093767214
 20
357.38855570434
 30
0.0
 11
1714.180093767214
 21
333.2422589517943
 31
0.0
  0
LINE
  5
251
330
20F
100
AcDbEntity
  8
DV4_0
 62
     7
370
    35
100
AcDbLine
 10
1739.010166007504
 20
1042.430471891367
 30
0.0
 11
1739.010166007504
 21
334.9222899576545
 31
0.0
  0
LINE
  5
252
330
20F
100
AcDbEntity
  8
DV4_0
 62
     7
370
    35
100
AcDbLine
 10
1491.079148311089
 20
928.5756546808374
 30
0.0
 11
1491.07914831109
 21
944.9055862993928
 31
0.0
  0
LINE
  5
253
330
20F
100
AcDbEntity
  8
DV4_0
 62
     7
370
    35
100
AcDbLine
 10
1287.165029386976
 20
1107.144655217455
 30
0.0
 11
1287.165029386976
 21
1105.178591456148
 31
0.0
  0
LINE
  5
254
330
20F
100
AcDbEntity
  8
DV4_0
 62
     7
370
    35
100
AcDbLine
 10
1313.592277676723
 20
1145.100401848969
 30
0.0
 11
1561.774833552376
 21
947.6402799142293
 31
0.0
  0
LINE
  5
255
330
20F
100
AcDbEntity
  8
DV4_0
 62
     7
370
    35
100
AcDbLine
 10
1287.165029386976
 20
1107.144655217455
 30
0.0
 11
1491.07914831109
 21
944.9055862993928
 31
0.0
  0
LINE
  5
256
330
20F
100
AcDbEntity
  8
DV4_0
 62
     7
370
    35
100
AcDbLine
 10
1488.427549315986
 20
930.6853318055964
 30
0.0
 11
1491.07914831109
 21
928.5756546808374
 31
0.0
  0
LINE
  5
257
330
20F
100
AcDbEntity
  8
DV4_0
 62
     7
370
    35
100
AcDbLine
 10
1561.774833552376
 20
947.6402799142292
 30
0.0
 11
1561.774833552376
 21
931.310348295673
 31
0.0
  0
ELLIPSE
  5
258
330
20F
100
AcDbEntity
  8
DV4_0
 62
     7
370
    35
100
AcDbEllipse
 10
1511.234898116103
 20
1060.855340384685
 30
0.0
 11
229.9999999999343
 21
1.159211834766311E-11
 31
0.0
210
0.0
220
0.0
230
1.0
 40
0.5773502691894002
 41
4.624642729940764
 42
4.933935749772887
  0
ELLIPSE
  5
259
330
20F
100
AcDbEntity
  8
DV4_0
 62
     7
370
    35
100
AcDbEllipse
 10
1511.234898116217
 20
1077.185272003288
 30
0.0
 11
-230.0000000001218
 21
4.083117239642696E-11
 31
0.0
210
0.0
220
0.0
230
1.0
 40
0.5773502691894421
 41
5.7463192530231
 42
6.055612272855037
  0
ELLIPSE
  5
25A
330
20F
100
AcDbEntity
  8
DV4_0
 62
     7
370
    35
100
AcDbEllipse
 10
1511.234898116095
 20
1077.18527200331
 30
0.0
 11
-229.9999999999932
 21
-7.350030340557766E-12
 31
0.0
210
0.0
220
0.0
230
1.0
 40
0.5773502691895551
 41
1.483050076351043
 42
1.792343096183084
  0
LINE
  5
25B
330
20F
100
AcDbEntity
  8
0
 62
     7
370
    18
100
AcDbLine
 10
1494.962914566179
 20
944.7274516083708
 30
0.0
 11
1491.07914831109
 21
940.843685353282
 31
0.0
  0
LINE
  5
25C
330
20F
100
AcDbEntity
  8
0
 62
     7
370
    18
100
AcDbLine
 10
1556.297585832127
 20
930.6523450965415
 30
0.0
 11
1561.772696943239
 21
936.1274562076526
 31
0.0
  0
LINE
  5
25D
330
20F
100
AcDbEntity
  8
DV4_0
 62
     7
370
    35
100
AcDbLine
 10
1390.088094387091
 20
947.9786348661027
 30
0.0
 11
1390.088094387093
 21
964.3085664846574
 31
0.0
  0
LINE
  5
25E
330
20F
100
AcDbEntity
  8
DV4_0
 62
     7
370
    35
100
AcDbLine
 10
1287.795718662238
 20
1045.694886777629
 30
0.0
 11
1287.79571866224
 21
1029.364955159072
 31
0.0
  0
LINE
  5
25F
330
20F
100
AcDbEntity
  8
DV4_0
 62
     7
370
    35
100
AcDbLine
 10
1286.579197264379
 20
1105.644693845791
 30
0.0
 11
1488.427549315986
 21
945.0491996628461
 31
0.0
  0
LINE
  5
260
330
20F
100
AcDbEntity
  8
DV4_0
 62
     7
370
    35
100
AcDbLine
 10
1287.795718662238
 20
1045.694886777629
 30
0.0
 11
1390.088094387093
 21
964.3085664846574
 31
0.0
  0
LINE
  5
261
330
20F
100
AcDbEntity
  8
DV4_0
 62
     7
370
    35
100
AcDbLine
 10
1287.79571866224
 20
1029.364955159072
 30
0.0
 11
1289.148148164116
 21
1028.288929112815
 31
0.0
  0
LINE
  5
262
330
20F
100
AcDbEntity
  8
DV4_0
 62
     7
370
    35
100
AcDbLine
 10
1385.498233767513
 20
951.6304404267619
 30
0.0
 11
1390.088094387091
 21
947.9786348661028
 31
0.0
  0
LINE
  5
263
330
20F
100
AcDbEntity
  8
DV4_0
 62
     7
370
    35
100
AcDbLine
 10
1488.427549315986
 20
945.0491996628461
 30
0.0
 11
1488.427549315986
 21
928.7192680442898
 31
0.0
  0
ELLIPSE
  5
264
330
20F
100
AcDbEntity
  8
DV4_0
 62
     7
370
    35
100
AcDbEllipse
 10
1511.234898116074
 20
1060.855340384725
 30
0.0
 11
-229.9999999999654
 21
1.718364418804390E-11
 31
0.0
210
0.0
220
0.0
230
1.0
 40
0.5773502691894903
 41
1.016052885385447
 42
1.471470703779898
  0
ELLIPSE
  5
265
330
20F
100
AcDbEntity
  8
DV4_0
 62
     7
370
    35
100
AcDbEllipse
 10
1511.234898116088
 20
1060.855340384761
 30
0.0
 11
229.9999999999923
 21
-3.501214749252204E-13
 31
0.0
210
0.0
220
0.0
230
1.0
 40
0.5773502691895676
 41
3.141592653589793
 42
3.381016810230768
  0
ELLIPSE
  5
266
330
20F
100
AcDbEntity
  8
DV4_0
 62
     7
370
    35
100
AcDbEllipse
 10
1511.234898116092
 20
1077.185272003317
 30
0.0
 11
229.9999999999971
 21
7.644808277719366E-13
 31
0.0
210
0.0
220
0.0
230
1.0
 40
0.5773502691895648
 41
2.925598991836376
 42
3.381016810230755
  0
ELLIPSE
  5
267
330
20F
100
AcDbEntity
  8
DV4_0
 62
     7
370
    35
100
AcDbEllipse
 10
1511.234898116094
 20
1077.185272003317
 30
0.0
 11
-229.9999999999997
 21
-1.727887223940468E-12
 31
0.0
210
0.0
220
0.0
230
1.0
 40
0.5773502691895627
 41
1.016052885385398
 42
1.471470703779776
  0
LINE
  5
268
330
20F
100
AcDbEntity
  8
DV4_0
 62
     7
370
    35
100
AcDbLine
 10
1281.234898116095
 20
1077.185272003317
 30
0.0
 11
1281.234898116095
 21
1060.855340384761
 31
0.0
  0
LINE
  5
269
330
20F
100
AcDbEntity
  8
0
 62
     7
370
    18
100
AcDbLine
 10
1470.802790562758
 20
946.4626079663262
 30
0.0
 11
1488.420056652094
 21
928.8453418769906
 31
0.0
  0
LINE
  5
26A
330
20F
100
AcDbEntity
  8
0
 62
     7
370
    18
100
AcDbLine
 10
1395.79472331876
 20
946.060897432546
 30
0.0
 11
1390.093834429871
 21
951.7617863214349
 31
0.0
  0
LINE
  5
26B
330
20F
100
AcDbEntity
  8
DV4_0
 62
     7
370
    35
100
AcDbLine
 10
1355.923092337853
 20
1172.368945198864
 30
0.0
 11
1621.87755293652
 21
960.7690604542956
 31
0.0
  0
LINE
  5
26C
330
20F
100
AcDbEntity
  8
DV4_0
 62
     7
370
    35
100
AcDbLine
 10
1314.712332528044
 20
1146.175322529189
 30
0.0
 11
1563.892209818757
 21
947.9217072422208
 31
0.0
  0
LINE
  5
26D
330
20F
100
AcDbEntity
  8
DV4_0
 62
     7
370
    35
100
AcDbLine
 10
1561.774833552376
 20
933.2764120569791
 30
0.0
 11
1563.892209818756
 21
931.5917756236651
 31
0.0
  0
LINE
  5
26E
330
20F
100
AcDbEntity
  8
DV4_0
 62
     7
370
    35
100
AcDbLine
 10
1355.923092337853
 20
1172.368945198864
 30
0.0
 11
1339.378208919183
 21
1165.437332183746
 31
0.0
  0
ELLIPSE
  5
26F
330
20F
100
AcDbEntity
  8
DV4_0
 62
     7
370
    35
100
AcDbEllipse
 10
1511.234898116169
 20
1060.855340384654
 30
0.0
 11
229.9999999998873
 21
5.890019112164390E-11
 31
0.0
210
0.0
220
0.0
230
1.0
 40
0.5773502691893777
 41
4.943382567767324
 42
5.214246709387826
  0
LINE
  5
270
330
20F
100
AcDbEntity
  8
DV4_0
 62
     7
370
    35
100
AcDbLine
 10
1563.892209818756
 20
931.5917756236653
 30
0.0
 11
1563.892209818757
 21
947.9217072422209
 31
0.0
  0
LINE
  5
271
330
20F
100
AcDbEntity
  8
DV4_0
 62
     7
370
    35
100
AcDbLine
 10
1314.712332528044
 20
1146.175322529189
 30
0.0
 11
1314.712332528044
 21
1144.209258767881
 31
0.0
  0
LINE
  5
272
330
20F
100
AcDbEntity
  8
DV4_0
 62
     7
370
    35
100
AcDbLine
 10
1621.87755293652
 20
944.4391288357394
 30
0.0
 11
1621.87755293652
 21
960.7690604542959
 31
0.0
  0
ELLIPSE
  5
273
330
20F
100
AcDbEntity
  8
DV4_0
 62
     7
370
    35
100
AcDbEllipse
 10
1511.234898115189
 20
1077.185272003707
 30
0.0
 11
-229.9999999990719
 21
-4.730194035397874E-10
 31
0.0
210
0.0
220
0.0
230
1.0
 40
0.5773502691899686
 41
-0.7269528424564298
 42
-0.5463128721536723
  0
ELLIPSE
  5
274
330
20F
100
AcDbEntity
  8
DV4_0
 62
     7
370
    35
100
AcDbEllipse
 10
1511.234898116032
 20
1077.185272003408
 30
0.0
 11
230.0000000000947
 21
-5.039074833523568E-11
 31
0.0
210
0.0
220
0.0
230
1.0
 40
0.5773502691897247
 41
4.943382567768001
 42
5.214246709388283
  0
LINE
  5
275
330
20F
100
AcDbEntity
  8
0
 62
     7
370
    18
100
AcDbLine
 10
1604.717171691665
 20
955.8578025564626
 30
0.0
 11
1583.704269043473
 21
934.8448999082701
 31
0.0
  0
LINE
  5
276
330
20F
100
AcDbEntity
  8
DV4_0
 62
     7
370
    35
100
AcDbLine
 10
1635.635085723098
 20
935.4593624520785
 30
0.0
 11
1635.635085723098
 21
951.789294070634
 31
0.0
  0
LINE
  5
277
330
20F
100
AcDbEntity
  8
DV4_0
 62
     7
370
    35
100
AcDbLine
 10
1406.10327466222
 20
1193.392339326145
 30
0.0
 11
1684.196552488615
 21
972.13451419381
 31
0.0
  0
LINE
  5
278
330
20F
100
AcDbEntity
  8
DV4_0
 62
     7
370
    35
100
AcDbLine
 10
1357.541807896703
 20
1173.04711920297
 30
0.0
 11
1635.635085723098
 21
951.789294070634
 31
0.0
  0
LINE
  5
279
330
20F
100
AcDbEntity
  8
DV4_0
 62
     7
370
    35
100
AcDbLine
 10
1621.87755293652
 20
946.4051925970464
 30
0.0
 11
1635.635085723098
 21
935.4593624520785
 31
0.0
  0
LINE
  5
27A
330
20F
100
AcDbEntity
  8
DV4_0
 62
     7
370
    35
100
AcDbLine
 10
1357.541807896703
 20
1173.04711920297
 30
0.0
 11
1357.541807896703
 21
1171.081055441663
 31
0.0
  0
LINE
  5
27B
330
20F
100
AcDbEntity
  8
DV4_0
 62
     7
370
    35
100
AcDbLine
 10
1406.10327466222
 20
1193.392339326145
 30
0.0
 11
1357.541807896703
 21
1173.04711920297
 31
0.0
  0
LINE
  5
27C
330
20F
100
AcDbEntity
  8
DV4_0
 62
     7
370
    35
100
AcDbLine
 10
1684.196552488615
 20
972.13451419381
 30
0.0
 11
1684.196552488615
 21
955.8045825752536
 31
0.0
  0
LINE
  5
27D
330
20F
100
AcDbEntity
  8
DV4_0
 62
     7
370
    35
100
AcDbLine
 10
1684.196552488615
 20
955.8045825752534
 30
0.0
 11
1635.635085723098
 21
935.4593624520785
 31
0.0
  0
LINE
  5
27E
330
20F
100
AcDbEntity
  8
DV4_0
 62
     7
370
    35
100
AcDbLine
 10
1635.635085723098
 20
951.789294070634
 30
0.0
 11
1684.196552488615
 21
972.1345141938099
 31
0.0
  0
LINE
  5
27F
330
20F
100
AcDbEntity
  8
0
 62
     7
370
    18
100
AcDbLine
 10
1680.606401535538
 20
970.6303913515477
 30
0.0
 11
1684.196552488615
 21
967.0963365071134
 31
0.0
  0
LINE
  5
280
330
20F
100
AcDbEntity
  8
0
 62
     7
370
    18
100
AcDbLine
 10
1654.033952094692
 20
959.4976482715988
 30
0.0
 11
1665.516302426834
 21
948.0152979394572
 31
0.0
  0
LINE
  5
281
330
20F
100
AcDbEntity
  8
0
 62
     7
370
    18
100
AcDbLine
 10
1638.987413537945
 20
936.8957423839016
 30
0.0
 11
1635.635085723098
 21
940.1921980685007
 31
0.0
  0
LINE
  5
282
330
20F
100
AcDbEntity
  8
DV4_0
 62
     7
370
    35
100
AcDbLine
 10
1465.235804368715
 20
1207.293026543426
 30
0.0
 11
1711.212400806588
 21
1011.588019983457
 31
0.0
  0
LINE
  5
283
330
20F
100
AcDbEntity
  8
DV4_0
 62
     7
370
    35
100
AcDbLine
 10
1407.72199022107
 20
1194.070513330251
 30
0.0
 11
1673.160870549425
 21
982.8808368804746
 31
0.0
  0
LINE
  5
284
330
20F
100
AcDbEntity
  8
DV4_0
 62
     7
370
    35
100
AcDbLine
 10
1407.72199022107
 20
1194.070513330251
 30
0.0
 11
1407.72199022107
 21
1192.104449568944
 31
0.0
  0
LINE
  5
285
330
20F
100
AcDbEntity
  8
DV4_0
 62
     7
370
    35
100
AcDbLine
 10
1419.210296110878
 20
1198.883632202857
 30
0.0
 11
1407.72199022107
 21
1194.070513330251
 31
0.0
  0
ELLIPSE
  5
286
330
20F
100
AcDbEntity
  8
DV4_0
 62
     7
370
    35
100
AcDbEllipse
 10
1511.234898116245
 20
1060.855340384692
 30
0.0
 11
229.9999999998452
 21
8.268741061597828E-11
 31
0.0
210
0.0
220
0.0
230
1.0
 40
0.5773502691896227
 41
-0.7250942187903426
 42
-0.5166731840817054
  0
LINE
  5
287
330
20F
100
AcDbEntity
  8
DV4_0
 62
     7
370
    35
100
AcDbLine
 10
1711.212400806588
 20
1011.588019983457
 30
0.0
 11
1711.212400806588
 21
995.2580883649002
 31
0.0
  0
LINE
  5
288
330
20F
100
AcDbEntity
  8
DV4_0
 62
     7
370
    35
100
AcDbLine
 10
1673.160870549425
 20
980.9147731191682
 30
0.0
 11
1673.160870549425
 21
982.8808368804744
 31
0.0
  0
ELLIPSE
  5
289
330
20F
100
AcDbEntity
  8
DV4_0
 62
     7
370
    35
100
AcDbEllipse
 10
1511.234898116178
 20
1077.18527200328
 30
0.0
 11
229.9999999999151
 21
4.365162974869070E-11
 31
0.0
210
0.0
220
0.0
230
1.0
 40
0.5773502691895973
 41
5.493439651354796
 42
5.766512123098044
  0
ELLIPSE
  5
28A
330
20F
100
AcDbEntity
  8
DV4_0
 62
     7
370
    35
100
AcDbEllipse
 10
1511.234898115902
 20
1077.185272003673
 30
0.0
 11
-229.9999999996479
 21
-1.668247219844442E-10
 31
0.0
210
0.0
220
0.0
230
1.0
 40
0.5773502691888956
 41
4.913742879696545
 42
5.124022538069333
  0
LINE
  5
28B
330
20F
100
AcDbEntity
  8
DV4_0
 62
     7
370
    35
100
AcDbLine
 10
1712.2907405521
 20
996.3661986053216
 30
0.0
 11
1712.2907405521
 21
1012.696130223877
 31
0.0
  0
LINE
  5
28C
330
20F
100
AcDbEntity
  8
DV4_0
 62
     7
370
    35
100
AcDbLine
 10
1467.394895740904
 20
1207.541264311216
 30
0.0
 11
1467.394895740904
 21
1205.575200549909
 31
0.0
  0
LINE
  5
28D
330
20F
100
AcDbEntity
  8
DV4_0
 62
     7
370
    35
100
AcDbLine
 10
1539.756005467319
 20
1208.950905402733
 30
0.0
 11
1737.052564356718
 21
1051.976929378711
 31
0.0
  0
LINE
  5
28E
330
20F
100
AcDbEntity
  8
DV4_0
 62
     7
370
    35
100
AcDbLine
 10
1467.394895740904
 20
1207.541264311216
 30
0.0
 11
1712.2907405521
 21
1012.696130223877
 31
0.0
  0
LINE
  5
28F
330
20F
100
AcDbEntity
  8
DV4_0
 62
     7
370
    35
100
AcDbLine
 10
1711.212400806588
 20
997.2241521262074
 30
0.0
 11
1712.2907405521
 21
996.3661986053218
 31
0.0
  0
LINE
  5
290
330
20F
100
AcDbEntity
  8
DV4_0
 62
     7
370
    35
100
AcDbLine
 10
1737.052564356718
 20
1051.976929378711
 30
0.0
 11
1737.052564356718
 21
1035.646997760155
 31
0.0
  0
ELLIPSE
  5
291
330
20F
100
AcDbEntity
  8
DV4_0
 62
     7
370
    35
100
AcDbEllipse
 10
1511.234898115924
 20
1060.855340384798
 30
0.0
 11
230.0000000001712
 21
-5.369927543936343E-11
 31
0.0
210
0.0
220
0.0
230
1.0
 40
0.5773502691893854
 41
5.776083838800409
 42
6.092190864152045
  0
ELLIPSE
  5
292
330
20F
100
AcDbEntity
  8
DV4_0
 62
     7
370
    35
100
AcDbEllipse
 10
1511.234898116098
 20
1077.185272003316
 30
0.0
 11
229.9999999999967
 21
-9.429177878858068E-13
 31
0.0
210
0.0
220
0.0
230
1.0
 40
0.5773502691895663
 41
5.77608383880008
 42
6.092190864151847
  0
ELLIPSE
  5
293
330
20F
100
AcDbEntity
  8
DV4_0
 62
     7
370
    35
100
AcDbEllipse
 10
1511.234898116097
 20
1077.185272003304
 30
0.0
 11
230.0000000000113
 21
-3.512115200251561E-12
 31
0.0
210
0.0
220
0.0
230
1.0
 40
0.5773502691895882
 41
1.44647148505413
 42
1.762578510405877
  0
LINE
  5
294
330
20F
100
AcDbEntity
  8
0
 62
     7
370
    18
100
AcDbLine
 10
1736.539335490564
 20
1050.490013377029
 30
0.0
 11
1737.028868923275
 21
1049.946087340683
 31
0.0
  0
LINE
  5
295
330
20F
100
AcDbEntity
  8
0
 62
     7
370
    18
100
AcDbLine
 10
1713.71731336772
 20
997.9043095629053
 30
0.0
 11
1712.306202256609
 21
999.3154206740164
 31
0.0
  0
LINE
  5
296
330
20F
100
AcDbEntity
  8
DV4_0
 62
     7
370
    35
100
AcDbLine
 10
1737.559199514125
 20
1037.209970177653
 30
0.0
 11
1737.559199514125
 21
1053.539901796208
 31
0.0
  0
LINE
  5
297
330
20F
100
AcDbEntity
  8
DV4_0
 62
     7
370
    35
100
AcDbLine
 10
1542.486801427613
 20
1208.744280993447
 30
0.0
 11
1542.486801427613
 21
1206.77821723214
 31
0.0
  0
LINE
  5
298
330
20F
100
AcDbEntity
  8
DV4_0
 62
     7
370
    35
100
AcDbLine
 10
1647.53637383094
 20
1184.146180310897
 30
0.0
 11
1729.632560641832
 21
1118.828442725109
 31
0.0
  0
LINE
  5
299
330
20F
100
AcDbEntity
  8
DV4_0
 62
     7
370
    35
100
AcDbLine
 10
1542.486801427613
 20
1208.744280993447
 30
0.0
 11
1737.559199514125
 21
1053.539901796208
 31
0.0
  0
LINE
  5
29A
330
20F
100
AcDbEntity
  8
DV4_0
 62
     7
370
    35
100
AcDbLine
 10
1737.052564356717
 20
1037.613061521462
 30
0.0
 11
1737.559199514124
 21
1037.209970177653
 31
0.0
  0
ELLIPSE
  5
29B
330
20F
100
AcDbEntity
  8
DV4_0
 62
     7
370
    35
100
AcDbEllipse
 10
1511.2348981161
 20
1060.85534038476
 30
0.0
 11
-229.9999999999949
 21
2.206426636614889E-13
 31
0.0
210
0.0
220
0.0
230
1.0
 40
0.5773502691895667
 41
2.962572835715588
 42
3.141592653589793
  0
ELLIPSE
  5
29C
330
20F
100
AcDbEntity
  8
DV4_0
 62
     7
370
    35
100
AcDbEllipse
 10
1511.234898116072
 20
1077.185272003315
 30
0.0
 11
-230.0000000000229
 21
8.154970647436120E-14
 31
0.0
210
0.0
220
0.0
230
1.0
 40
0.5773502691895301
 41
2.962572835715598
 42
3.460574973960821
  0
ELLIPSE
  5
29D
330
20F
100
AcDbEntity
  8
DV4_0
 62
     7
370
    35
100
AcDbEllipse
 10
1511.2348981161
 20
1077.185272003325
 30
0.0
 11
229.9999999999913
 21
-5.177166487534076E-12
 31
0.0
210
0.0
220
0.0
230
1.0
 40
0.5773502691895471
 41
0.9364947216553361
 42
1.434496859900601
  0
LINE
  5
29E
330
20F
100
AcDbEntity
  8
DV4_0
 62
     7
370
    35
100
AcDbLine
 10
1741.234898116095
 20
1060.85534038476
 30
0.0
 11
1741.234898116095
 21
1077.185272003315
 31
0.0
  0
LINE
  5
29F
330
20F
100
AcDbEntity
  8
0
 62
     7
370
    18
100
AcDbLine
 10
1737.569586489863
 20
1045.076795279839
 30
0.0
 11
1740.053142045419
 21
1047.560350835395
 31
0.0
  0
LINE
  5
2A0
330
20F
100
AcDbEntity
  8
DV4_0
 62
     7
370
    35
100
AcDbLine
 10
1727.368057911092
 20
1120.630136578071
 30
0.0
 11
1727.368057911092
 21
1122.596200339378
 31
0.0
  0
LINE
  5
2A1
330
20F
100
AcDbEntity
  8
DV4_0
 62
     7
370
    35
100
AcDbLine
 10
1653.03830767938
 20
1181.73477070484
 30
0.0
 11
1653.03830767938
 21
1179.768706943533
 31
0.0
  0
LINE
  5
2A2
330
20F
100
AcDbEntity
  8
DV4_0
 62
     7
370
    35
100
AcDbLine
 10
1653.03830767938
 20
1181.73477070484
 30
0.0
 11
1727.368057911092
 21
1122.596200339378
 31
0.0
  0
ELLIPSE
  5
2A3
330
20F
100
AcDbEntity
  8
DV4_0
 62
     7
370
    35
100
AcDbEllipse
 10
1511.234898116088
 20
1077.185272003314
 30
0.0
 11
230.0000000000064
 21
3.229980723101870E-12
 31
0.0
210
0.0
220
0.0
230
1.0
 40
0.5773502691895576
 41
0.3490168159862748
 42
0.9064602260400545
  0
LINE
  5
2A4
330
20F
100
AcDbEntity
  8
DV4_0
 62
     7
370
    35
100
AcDbLine
 10
1289.148148164116
 20
1042.652796970064
 30
0.0
 11
1385.498233767514
 21
965.9943082840105
 31
0.0
  0
LINE
  5
2A5
330
20F
100
AcDbEntity
  8
DV4_0
 62
     7
370
    35
100
AcDbLine
 10
1289.148148164116
 20
1026.322865351508
 30
0.0
 11
1289.148148164116
 21
1042.652796970064
 31
0.0
  0
ELLIPSE
  5
2A6
330
20F
100
AcDbEntity
  8
DV4_0
 62
     7
370
    35
100
AcDbEllipse
 10
1511.234898116093
 20
1060.85534038476
 30
0.0
 11
-229.9999999999986
 21
1.533797637552467E-12
 31
0.0
210
0.0
220
0.0
230
1.0
 40
0.5773502691895608
 41
0.2630762411677718
 42
0.9924008008585992
  0
LINE
  5
2A7
330
20F
100
AcDbEntity
  8
DV4_0
 62
     7
370
    35
100
AcDbLine
 10
1385.498233767514
 20
965.9943082840106
 30
0.0
 11
1385.498233767513
 21
949.6643766654554
 31
0.0
  0
ELLIPSE
  5
2A8
330
20F
100
AcDbEntity
  8
DV4_0
 62
     7
370
    35
100
AcDbEllipse
 10
1511.234898116091
 20
1077.185272003315
 30
0.0
 11
-229.9999999999957
 21
2.744515410843557E-12
 31
0.0
210
0.0
220
0.0
230
1.0
 40
0.5773502691895624
 41
0.2630762411677789
 42
0.9924008008586142
  0
LINE
  5
2A9
330
20F
100
AcDbEntity
  8
0
 62
     7
370
    18
100
AcDbLine
 10
1315.887219843674
 20
1007.091799664419
 30
0.0
 11
1307.768319154279
 21
998.9728989750242
 31
0.0
  0
LINE
  5
2AA
330
20F
100
AcDbEntity
  8
0
 62
     7
370
    18
100
AcDbLine
 10
1350.270985820946
 20
966.0657878639131
 30
0.0
 11
1360.882541376502
 21
976.6773434194687
 31
0.0
  0
ENDBLK
  5
2AC
330
20F
100
AcDbEntity
  8
0
100
AcDbBlockEnd
  0
BLOCK
  5
2B6
330
2AD
100
AcDbEntity
  8
0
100
AcDbBlockBegin
  2
GDimGGroup
 70
     0
 10
0.0
 20
0.0
 30
0.0
  3
GDimGGroup
  1

  0
LWPOLYLINE
  5
2AF
330
2AD
100
AcDbEntity
  8
Default
 62
     7
370
    25
100
AcDbPolyline
 90
        4
 70
     0
 43
0.0
 10
1843.062288791221
 20
2315.060296892211
 10
1833.062288704298
 20
2315.060296892211
 10
1838.06228874776
 20
2345.060297152981
 10
1843.062288791221
 20
2315.060296892211
  0
LWPOLYLINE
  5
2B0
330
2AD
100
AcDbEntity
  8
Default
 62
     7
370
    25
100
AcDbPolyline
 90
        4
 70
     0
 43
0.0
 10
1843.062288791221
 20
1555.060274763986
 10
1833.062288704298
 20
1555.060274763986
 10
1838.06228874776
 20
1525.060274503216
 10
1843.062288791221
 20
1555.060274763986
  0
LINE
  5
2B1
330
2AD
100
AcDbEntity
  8
Default
 62
     7
370
    25
100
AcDbLine
 10
1626.216279850932
 20
2345.060297152981
 30
0.0
 11
1853.062288878145
 21
2345.060297152981
 31
0.0
  0
LINE
  5
2B2
330
2AD
100
AcDbEntity
  8
Default
 62
     7
370
    25
100
AcDbLine
 10
1679.498383019428
 20
1525.06029715298
 30
0.0
 11
1853.062288878145
 21
1525.06029715298
 31
0.0
  0
LINE
  5
2B3
330
2AD
100
AcDbEntity
  8
Default
 62
     7
370
    25
100
AcDbLine
 10
1838.06228874776
 20
2345.060297152981
 30
0.0
 11
1838.06228874776
 21
1525.060274503216
 31
0.0
  0
TEXT
  5
2B5
330
2AD
100
AcDbEntity
  8
Default
 62
     7
370
    25
100
AcDbText
 10
1830.56228874776
 20
1899.842894523751
 30
0.0
 40
30.0
  1
820
 50
90.0
  7
SEACAD_Solid_Edge_ANSI
 11
1800.56228874776
 21
1899.842894523751
 31
0.0
100
AcDbText
 73
     3
  0
ENDBLK
  5
2B7
330
2AD
100
AcDbEntity
  8
0
100
AcDbBlockEnd
  0
BLOCK
  5
2C0
330
2B8
100
AcDbEntity
  8
0
100
AcDbBlockBegin
  2
GDimGGroup1
 70
     0
 10
0.0
 20
0.0
 30
0.0
  3
GDimGGroup1
  1

  0
LWPOLYLINE
  5
2BA
330
2B8
100
AcDbEntity
  8
Default
 62
     7
370
    25
100
AcDbPolyline
 90
        4
 70
     0
 43
0.0
 10
332.49081871315
 20
1465.060297413751
 10
342.4908188000734
 20
1465.060297413751
 10
337.4908187566117
 20
1435.06029715298
 10
332.49081871315
 20
1465.060297413751
  0
LWPOLYLINE
  5
2BB
330
2B8
100
AcDbEntity
  8
Default
 62
     7
370
    25
100
AcDbPolyline
 90
        4
 70
     0
 43
0.0
 10
332.49081871315
 20
2315.06027841477
 10
342.4908188000734
 20
2315.06027841477
 10
337.4908187566117
 20
2345.06027867554
 10
332.49081871315
 20
2315.06027841477
  0
LINE
  5
2BC
330
2B8
100
AcDbEntity
  8
Default
 62
     7
370
    25
100
AcDbLine
 10
483.7306284485177
 20
1435.06029715298
 30
0.0
 11
322.4908186262265
 21
1435.06029715298
 31
0.0
  0
LINE
  5
2BD
330
2B8
100
AcDbEntity
  8
Default
 62
     7
370
    25
100
AcDbLine
 10
525.9658608421862
 20
2345.060297152981
 30
0.0
 11
322.4908186262265
 21
2345.060297152981
 31
0.0
  0
LINE
  5
2BE
330
2B8
100
AcDbEntity
  8
Default
 62
     7
370
    25
100
AcDbLine
 10
337.4908187566117
 20
1435.06029715298
 30
0.0
 11
337.4908187566117
 21
2345.06027867554
 31
0.0
  0
TEXT
  5
2BF
330
2B8
100
AcDbEntity
  8
Default
 62
     7
370
    25
100
AcDbText
 10
329.9908187566117
 20
1854.842896609912
 30
0.0
 40
30.0
  1
910
 50
90.0
  7
SEACAD_Solid_Edge_ANSI
 11
299.9908187566117
 21
1854.842896609912
 31
0.0
100
AcDbText
 73
     3
  0
ENDBLK
  5
2C1
330
2B8
100
AcDbEntity
  8
0
100
AcDbBlockEnd
  0
BLOCK
  5
2CC
330
2C2
100
AcDbEntity
  8
0
100
AcDbBlockBegin
  2
GDimGGroup2
 70
     0
 10
0.0
 20
0.0
 30
0.0
  3
GDimGGroup2
  1

  0
LWPOLYLINE
  5
2C4
330
2C2
100
AcDbEntity
  8
Default
 62
     7
370
    25
100
AcDbPolyline
 90
        4
 70
     0
 43
0.0
 10
847.0464063963734
 20
1051.84860063571
 10
847.0464063963734
 20
1041.848600548787
 10
877.0464066571437
 20
1046.848600592249
 10
847.0464063963734
 20
1051.84860063571
  0
LWPOLYLINE
  5
2C5
330
2C2
100
AcDbEntity
  8
Default
 62
     7
370
    25
100
AcDbPolyline
 90
        4
 70
     0
 43
0.0
 10
447.0464060238444
 20
1051.84860063571
 10
447.0464060238444
 20
1041.848600548787
 10
417.0464057630741
 20
1046.848600592249
 10
447.0464060238444
 20
1051.84860063571
  0
LINE
  5
2C6
330
2C2
100
AcDbEntity
  8
Default
 62
     7
370
    25
100
AcDbLine
 10
877.0464066571437
 20
715.2655030151537
 30
0.0
 11
877.0464066571437
 21
1061.848600722634
 31
0.0
  0
LINE
  5
2C7
330
2C2
100
AcDbEntity
  8
Default
 62
     7
370
    25
100
AcDbLine
 10
417.0464066571436
 20
715.2655030151537
 30
0.0
 11
417.0464066571436
 21
1061.848600722634
 31
0.0
  0
LINE
  5
2C8
330
2C2
100
AcDbEntity
  8
Default
 62
     7
370
    25
100
AcDbLine
 10
877.0464066571437
 20
1046.848600592249
 30
0.0
 11
417.0464057630741
 21
1046.848600592249
 31
0.0
  0
TEXT
  5
2CA
330
2C2
100
AcDbEntity
  8
Default
 62
     7
370
    25
100
AcDbText
 10
585.7237517478663
 20
1054.348600592249
 30
0.0
 40
30.0
  1
n
  7
GDT
 11
585.7237517478663
 21
1084.348600592249
 31
0.0
100
AcDbText
 73
     3
  0
TEXT
  5
2CB
330
2C2
100
AcDbEntity
  8
Default
 62
     7
370
    25
100
AcDbText
 10
637.9342780636557
 20
1054.348600592249
 30
0.0
 40
30.0
  1
460
  7
SEACAD_Solid_Edge_ANSI
 11
637.9342780636557
 21
1084.348600592249
 31
0.0
100
AcDbText
 73
     3
  0
ENDBLK
  5
2CD
330
2C2
100
AcDbEntity
  8
0
100
AcDbBlockEnd
  0
BLOCK
  5
2D5
330
2CF
100
AcDbEntity
  8
0
100
AcDbBlockBegin
  2
SEANNOT_GROUP
 70
     0
 10
0.0
 20
0.0
 30
0.0
  3
SEANNOT_GROUP
  1

  0
TEXT
  5
2D1
330
2CF
100
AcDbEntity
  8
Predeterminado
 62
     7
370
     5
100
AcDbText
 10
2025.201921067479
 20
127.403379754914
 30
0.0
 40
15.0
  1
V
 50
90.0
  7
SEACAD_Solid_Edge_ANSI
 11
2010.201921067479
 21
127.403379754914
 31
0.0
100
AcDbText
 73
     3
  0
TEXT
  5
2D2
330
2CF
100
AcDbEntity
  8
Predeterminado
 62
     7
370
     5
100
AcDbText
 10
2025.201921067479
 20
141.278379754914
 30
0.0
 40
15.0
  1
3
 50
90.0
  7
SEACAD_Solid_Edge_ANSI
 11
2010.201921067479
 21
141.278379754914
 31
0.0
100
AcDbText
 73
     3
  0
TEXT
  5
2D3
330
2CF
100
AcDbEntity
  8
Predeterminado
 62
     7
370
     5
100
AcDbText
 10
2025.201921067479
 20
152.903379754914
 30
0.0
 40
15.0
  1
 
 50
90.0
  7
SEACAD_Solid_Edge_ANSI
 11
2010.201921067479
 21
152.903379754914
 31
0.0
100
AcDbText
 73
     3
  0
TEXT
  5
2D4
330
2CF
100
AcDbEntity
  8
Predeterminado
 62
     7
370
     5
100
AcDbText
 10
2025.201921067479
 20
158.153379754914
 30
0.0
 40
15.0
  1
19/07/2012
 50
90.0
  7
SEACAD_Solid_Edge_ANSI
 11
2010.201921067479
 21
158.153379754914
 31
0.0
100
AcDbText
 73
     3
  0
ENDBLK
  5
2D6
330
2CF
100
AcDbEntity
  8
0
100
AcDbBlockEnd
  0
BLOCK
  5
2E1
330
2DE
100
AcDbEntity
  8
0
100
AcDbBlockBegin
  2
SEANNOT_GROUP1
 70
     0
 10
0.0
 20
0.0
 30
0.0
  3
SEANNOT_GROUP1
  1

  0
TEXT
  5
2E0
330
2DE
100
AcDbEntity
  8
Predeterminado
 62
     7
370
     5
100
AcDbText
 10
910.693233870423
 20
2759.56987846381
 30
0.0
 40
60.0
  1
Rústica PR
  7
SEACAD_Solid_Edge_ANSI
 11
910.693233870423
 21
2819.56987846381
 31
0.0
100
AcDbText
 73
     3
  0
ENDBLK
  5
2E2
330
2DE
100
AcDbEntity
  8
0
100
AcDbBlockEnd
  0
BLOCK
  5
2E6
330
2E3
100
AcDbEntity
  8
0
100
AcDbBlockBegin
  2
SEANNOT_GROUP2
 70
     0
 10
0.0
 20
0.0
 30
0.0
  3
SEANNOT_GROUP2
  1

  0
TEXT
  5
2E5
330
2E3
100
AcDbEntity
  8
Predeterminado
 62
     7
370
     5
100
AcDbText
 10
1266.774548802774
 20
2715.15709454231
 30
0.0
 40
30.0
  1
PA639TPR
  7
SEACAD_Solid_Edge_ANSI
 11
1266.774548802774
 21
2745.15709454231
 31
0.0
100
AcDbText
 73
     3
  0
ENDBLK
  5
2E7
330
2E3
100
AcDbEntity
  8
0
100
AcDbBlockEnd
  0
ENDSEC
  0
SECTION
  2
ENTITIES
  0
INSERT
  5
70
330
1F
100
AcDbEntity
  8
Default
100
AcDbBlockReference
  2
SE
 10
0.0
 20
0.0
 30
0.0
  0
INSERT
  5
10D
330
1F
100
AcDbEntity
  8
Default
100
AcDbBlockReference
  2
SE1
 10
0.0
 20
0.0
 30
0.0
  0
INSERT
  5
178
330
1F
100
AcDbEntity
  8
Default
100
AcDbBlockReference
  2
SE2
 10
0.0
 20
0.0
 30
0.0
  0
INSERT
  5
210
330
1F
100
AcDbEntity
  8
Default
100
AcDbBlockReference
  2
SE3
 10
0.0
 20
0.0
 30
0.0
  0
INSERT
  5
2AE
330
1F
100
AcDbEntity
  8
Default
100
AcDbBlockReference
  2
GDimGGroup
 10
0.0
 20
0.0
 30
0.0
  0
INSERT
  5
2B9
330
1F
100
AcDbEntity
  8
Default
100
AcDbBlockReference
  2
GDimGGroup1
 10
0.0
 20
0.0
 30
0.0
  0
INSERT
  5
2C3
330
1F
100
AcDbEntity
  8
Default
100
AcDbBlockReference
  2
GDimGGroup2
 10
0.0
 20
0.0
 30
0.0
  0
INSERT
  5
2D0
330
1F
100
AcDbEntity
  8
Predeterminado
100
AcDbBlockReference
  2
SEANNOT_GROUP
 10
0.0
 20
0.0
 30
0.0
  0
LINE
  5
2D7
330
1F
100
AcDbEntity
  8
Predeterminado
 62
     7
370
    35
100
AcDbLine
 10
1999.270202384685
 20
100.3236327681463
 30
0.0
 11
199.2702023846864
 21
100.3236327681461
 31
0.0
  0
LINE
  5
2D8
330
1F
100
AcDbEntity
  8
Predeterminado
 62
     7
370
    35
100
AcDbLine
 10
1999.270202384685
 20
100.3236327681463
 30
0.0
 11
1999.270202384685
 21
2870.323632768147
 31
0.0
  0
LINE
  5
2D9
330
1F
100
AcDbEntity
  8
Predeterminado
 62
     7
370
    35
100
AcDbLine
 10
1999.270202384685
 20
2870.323632768147
 30
0.0
 11
199.2702023846864
 21
2870.323632768147
 31
0.0
  0
LINE
  5
2DA
330
1F
100
AcDbEntity
  8
Predeterminado
 62
     7
370
    35
100
AcDbLine
 10
199.2702023846865
 20
2870.323632768147
 30
0.0
 11
199.2702023846865
 21
100.3236327681461
 31
0.0
  0
LINE
  5
2DB
330
1F
100
AcDbEntity
  8
Predeterminado
 62
     7
370
    35
100
AcDbLine
 10
199.2702023846865
 20
2670.323632768146
 30
0.0
 11
1999.270202384685
 21
2670.323632768146
 31
0.0
  0
LINE
  5
2DC
330
1F
100
AcDbEntity
  8
Predeterminado
 62
     7
370
    35
100
AcDbLine
 10
649.2702023846849
 20
2710.323632768146
 30
0.0
 11
649.2702023846849
 21
2830.323632768146
 31
0.0
  0
LINE
  5
2DD
330
1F
100
AcDbEntity
  8
Predeterminado
 62
     7
370
    35
100
AcDbLine
 10
1549.270202384685
 20
2710.323632768146
 30
0.0
 11
1549.270202384685
 21
2830.323632768146
 31
0.0
  0
INSERT
  5
2DF
330
1F
100
AcDbEntity
  8
Predeterminado
100
AcDbBlockReference
  2
SEANNOT_GROUP1
 10
0.0
 20
0.0
 30
0.0
  0
INSERT
  5
2E4
330
1F
100
AcDbEntity
  8
Predeterminado
100
AcDbBlockReference
  2
SEANNOT_GROUP2
 10
0.0
 20
0.0
 30
0.0
  0
MTEXT
  5
2E9
102
{ACAD_XDICTIONARY
360
331
102
}
330
1F
100
AcDbEntity
  8
D
100
AcDbMText
 10
260.0429443831316
 20
2826.91347141335
 30
0.0
 40
60.0
 41
467.5465178080735
 71
     1
 72
     1
  1
{\C7;BENITO}\P{\fArial|b1|i0|c0|p34;\C7;–}{\C7;Urban}\P
 73
     1
 44
1.0
1001
ACAD
1000
ACAD_MTEXT_DEFINED_HEIGHT_BEGIN
1070
    46
1040
177.9999999999998
1000
ACAD_MTEXT_DEFINED_HEIGHT_END
  0
MTEXT
  5
2EA
330
1F
100
AcDbEntity
  8
Predeterminado
100
AcDbMText
 10
1638.089186942272
 20
2804.449025454284
 30
0.0
 40
25.0
 41
295.425101
 71
     1
 72
     1
  1
{\fSolid Edge ANSI|b0||i0||c0|p34;\C7;\H25.;\W1.;T +34 938 521 000\P}{\fSolid Edge ANSI|b0||i0||c0|p34;\C7;\H25.;\W1.;www.benito.com\P}
 73
     1
 44
1.0
1001
ACAD
1000
ACAD_MTEXT_DEFINED_HEIGHT_BEGIN
1070
    46
1040
90.00010000000007
1000
ACAD_MTEXT_DEFINED_HEIGHT_END
  0
MTEXT
  5
2EB
330
1F
100
AcDbEntity
  8
Predeterminado
100
AcDbMText
 10
1506.598696583449
 20
80.7143559968931
 30
0.0
 40
20.0
 41
497.9301010000001
 71
     1
 72
     1
  1
{\fSolid Edge ANSI|b0||i0||c0|p34;\C7;\H20.;\W1.;BENITO –Urban –Light –Play –Covers}
 73
     1
 44
1.0
1001
ACAD
1000
ACAD_MTEXT_DEFINED_HEIGHT_BEGIN
1070
    46
1040
36.0001
1000
ACAD_MTEXT_DEFINED_HEIGHT_END
  0
ENDSEC
  0
SECTION
  2
OBJECTS
  0
DICTIONARY
  5
C
330
0
100
AcDbDictionary
281
     1
  3
ACAD_GROUP
350
D
  3
ACAD_LAYOUT
350
1A
  3
ACAD_MATERIAL
350
43
  3
ACAD_MLEADERSTYLE
350
6B
  3
ACAD_MLINESTYLE
350
17
  3
ACAD_PLOTSETTINGS
350
19
  3
ACAD_PLOTSTYLENAME
350
E
  3
ACAD_SCALELIST
350
47
  3
ACAD_TABLESTYLE
350
69
  3
ACAD_VISUALSTYLE
350
2A
  3
ACDB_RECOMPOSE_DATA
350
36E
  3
AcDbVariableDictionary
350
2EC
  3
DWGPROPS
350
330
  0
DICTIONARY
  5
333
330
8
100
AcDbDictionary
280
     1
281
     1
  3
ACAD_XREC_ROUNDTRIP
360
334
  0
DICTIONARY
  5
331
330
2E9
100
AcDbDictionary
280
     1
281
     1
  3
ACAD_MTEXT_RT
360
332
  0
DICTIONARY
  5
D
102
{ACAD_REACTORS
330
C
102
}
330
C
100
AcDbDictionary
281
     1
  0
DICTIONARY
  5
1A
102
{ACAD_REACTORS
330
C
102
}
330
C
100
AcDbDictionary
281
     1
  3
Layout1
350
1E
  3
Model
350
22
  0
DICTIONARY
  5
43
102
{ACAD_REACTORS
330
C
102
}
330
C
100
AcDbDictionary
281
     1
  3
ByBlock
350
45
  3
ByLayer
350
44
  3
Global
350
46
  0
DICTIONARY
  5
6B
102
{ACAD_REACTORS
330
C
102
}
330
C
100
AcDbDictionary
281
     1
  3
Standard
350
6C
  0
DICTIONARY
  5
17
102
{ACAD_REACTORS
330
C
102
}
330
C
100
AcDbDictionary
281
     1
  3
Standard
350
18
  0
DICTIONARY
  5
19
102
{ACAD_REACTORS
330
C
102
}
330
C
100
AcDbDictionary
281
     1
  0
ACDBDICTIONARYWDFLT
  5
E
102
{ACAD_REACTORS
330
C
102
}
330
C
100
AcDbDictionary
281
     1
  3
Normal
350
F
100
AcDbDictionaryWithDefault
340
F
  0
DICTIONARY
  5
47
102
{ACAD_REACTORS
330
C
102
}
330
C
100
AcDbDictionary
281
     1
  3
A0
350
48
  3
A1
350
49
  3
A2
350
4A
  3
A3
350
4B
  3
A4
350
4C
  3
A5
350
4D
  3
A6
350
4E
  3
A7
350
4F
  3
A8
350
50
  3
A9
350
51
  3
B0
350
52
  3
B1
350
53
  3
B2
350
54
  3
B3
350
55
  3
B4
350
56
  3
B5
350
57
  3
B6
350
58
  3
B7
350
59
  3
B8
350
5A
  3
B9
350
5B
  3
C0
350
5C
  3
C1
350
5D
  3
C2
350
5E
  3
C3
350
5F
  3
C4
350
60
  3
C5
350
61
  3
C6
350
62
  3
C7
350
63
  3
C8
350
64
  3
C9
350
65
  3
D0
350
66
  3
D1
350
67
  3
D2
350
68
  0
DICTIONARY
  5
69
102
{ACAD_REACTORS
330
C
102
}
330
C
100
AcDbDictionary
281
     1
  3
Standard
350
6A
  0
DICTIONARY
  5
2A
102
{ACAD_REACTORS
330
C
102
}
330
C
100
AcDbDictionary
281
     1
  3
2dWireframe
350
2F
  3
Basic
350
32
  3
Brighten
350
36
  3
ColorChange
350
3A
  3
Conceptual
350
34
  3
Dim
350
35
  3
EdgeColorOff
350
3D
  3
Facepattern
350
39
  3
Flat
350
2B
  3
FlatWithEdges
350
2C
  3
Gouraud
350
2D
  3
GouraudWithEdges
350
2E
  3
Hidden
350
31
  3
JitterOff
350
3B
  3
Linepattern
350
38
  3
OverhangOff
350
3C
  3
Realistic
350
33
  3
Shaded
350
42
  3
Shaded with edges
350
41
  3
Shades of Gray
350
3E
  3
Sketchy
350
3F
  3
Thicken
350
37
  3
Wireframe
350
30
  3
X-Ray
350
40
  0
XRECORD
  5
36E
102
{ACAD_REACTORS
330
C
102
}
330
C
100
AcDbXrecord
280
     1
 90
        1
330
2E9
  0
DICTIONARY
  5
2EC
102
{ACAD_REACTORS
330
C
102
}
330
C
100
AcDbDictionary
281
     1
  3
CANNOSCALE
350
2ED
  3
CMLEADERSTYLE
350
326
  3
CTABLESTYLE
350
325
  3
DIMASSOC
350
32E
  3
HIDETEXT
350
32F
  3
MSLTSCALE
350
335
  3
PSOLHEIGHT
350
32D
  3
PSOLWIDTH
350
32C
  3
SECTIONTHICKNESSINC
350
329
  3
XCLIPFRAME
350
2EE
  0
XRECORD
  5
330
102
{ACAD_REACTORS
330
C
102
}
330
C
100
AcDbXrecord
280
     1
  1
DWGPROPS COOKIE
  2

  3

  4

  6

  7

  8
acae2
  9

300
=
301
=
302
=
303
=
304
=
305
=
306
=
307
=
308
=
309
=
 40
0.0
 41
2459948.622994213
 42
2460427.513029028
  1

 90
        0
  0
XRECORD
  5
334
102
{ACAD_REACTORS
330
333
102
}
330
333
100
AcDbXrecord
280
     1
102
VTR_0.000_0.000_1.000_1.000_VISUALSTYLE
340
2F
102
VTR_0.000_0.000_1.000_1.000_GRIDDISPLAY
 70
     3
102
VTR_0.000_0.000_1.000_1.000_GRIDMAJOR
 70
     5
102
VTR_0.000_0.000_1.000_1.000_DEFAULTLIGHTING
280
     1
102
VTR_0.000_0.000_1.000_1.000_DEFAULTLIGHTINGTYPE
 70
     1
102
VTR_0.000_0.000_1.000_1.000_BRIGHTNESS
141
0.0
102
VTR_0.000_0.000_1.000_1.000_CONTRAST
142
0.0
  0
XRECORD
  5
332
102
{ACAD_REACTORS
330
331
102
}
330
331
100
AcDbXrecord
280
     1
 40
129076.0
  1
{\fSolid Edge ANSI|b1||i0||c0|p34;\C7;\H60.;\W1.;\pxsa0.6416666667;BENITO\P}{\fSolid Edge ANSI|b1||i0||c0|p34;\C7;\H60.;\W1.;\pxse0.6416666667;–Urban\P}
  0
LAYOUT
  5
1E
102
{ACAD_REACTORS
330
1A
102
}
330
1A
100
AcDbPlotSettings
  1

  2
none_device
  4

  6

 40
0.0
 41
0.0
 42
0.0
 43
0.0
 44
0.0
 45
0.0
 46
0.0
 47
0.0
 48
0.0
 49
0.0
140
0.0
141
0.0
142
1.0
143
1.0
 70
   688
 72
     1
 73
     0
 74
     5
  7

 75
    16
147
1.0
148
0.0
149
0.0
100
AcDbLayout
  1
Layout1
 70
     1
 71
     1
 10
0.0
 20
0.0
 11
2100.0
 21
2970.0
 12
0.0
 22
0.0
 32
0.0
 14
0.0
 24
0.0
 34
0.0
 15
2100.0
 25
2970.0
 35
0.0
146
0.0
 13
0.0
 23
0.0
 33
0.0
 16
1.0
 26
0.0
 36
0.0
 17
0.0
 27
1.0
 37
0.0
 76
     0
330
1B
  0
LAYOUT
  5
22
102
{ACAD_REACTORS
330
1A
102
}
330
1A
100
AcDbPlotSettings
  1

  2
none_device
  4
Letter_(8.50_x_11.00_Inches)
  6

 40
6.35
 41
6.35
 42
6.35000508
 43
6.35000508
 44
215.9
 45
279.4
 46
0.0
 47
0.0
 48
0.0
 49
0.0
140
0.0
141
0.0
142
1.0
143
1.0
 70
  1712
 72
     1
 73
     0
 74
     0
  7

 75
     0
147
1.0
148
0.0
149
0.0
100
AcDbLayout
  1
Model
 70
     1
 71
     0
 10
0.0
 20
0.0
 11
2100.0
 21
2970.0
 12
0.0
 22
0.0
 32
0.0
 14
0.0
 24
0.0
 34
0.0
 15
2100.0
 25
2970.0
 35
0.0
146
0.0
 13
0.0
 23
0.0
 33
0.0
 16
1.0
 26
0.0
 36
0.0
 17
0.0
 27
1.0
 37
0.0
 76
     0
330
1F
331
29
  0
MATERIAL
  5
45
102
{ACAD_REACTORS
330
43
102
}
102
{ACAD_XDICTIONARY
360
368
102
}
330
43
100
AcDbMaterial
  1
ByBlock
  0
MATERIAL
  5
44
102
{ACAD_REACTORS
330
43
102
}
102
{ACAD_XDICTIONARY
360
366
102
}
330
43
100
AcDbMaterial
  1
ByLayer
  0
MATERIAL
  5
46
102
{ACAD_REACTORS
330
43
102
}
102
{ACAD_XDICTIONARY
360
36A
102
}
330
43
100
AcDbMaterial
  1
Global
  0
MLEADERSTYLE
  5
6C
102
{ACAD_REACTORS
330
6B
102
}
102
{ACAD_XDICTIONARY
360
36C
102
}
330
6B
100
AcDbMLeaderStyle
170
     2
171
     1
172
     0
 90
        2
 40
0.0
 41
0.0
173
     1
 91
-1056964608
340
14
 92
       -2
290
     1
 42
2.0
291
     1
 43
8.0
  3
Standard
341
0
 44
4.0
300

342
11
174
     1
178
     6
175
     1
176
     0
 93
-1056964608
 45
4.0
292
     0
297
     0
 46
4.0
343
0
 94
-1056964608
 47
1.0
 49
1.0
140
1.0
293
     1
141
0.0
294
     1
177
     0
142
1.0
295
     0
296
     0
143
3.75
1001
ACAD_MLEADERVER
1070
     2
  0
MLINESTYLE
  5
18
102
{ACAD_REACTORS
330
17
102
}
330
17
100
AcDbMlineStyle
  2
Standard
 70
     0
  3

 62
   256
 51
90.0
 52
90.0
 71
     2
 49
0.5
 62
   256
  6
BYLAYER
 49
-0.5
 62
   256
  6
BYLAYER
  0
ACDBPLACEHOLDER
  5
F
102
{ACAD_REACTORS
330
E
102
}
330
E
  0
SCALE
  5
48
102
{ACAD_REACTORS
330
47
102
}
330
47
100
AcDbScale
 70
     0
300
1:1
140
1.0
141
1.0
290
     1
  0
SCALE
  5
49
102
{ACAD_REACTORS
330
47
102
}
330
47
100
AcDbScale
 70
     0
300
1:2
140
1.0
141
2.0
290
     0
  0
SCALE
  5
4A
102
{ACAD_REACTORS
330
47
102
}
330
47
100
AcDbScale
 70
     0
300
1:4
140
1.0
141
4.0
290
     0
  0
SCALE
  5
4B
102
{ACAD_REACTORS
330
47
102
}
330
47
100
AcDbScale
 70
     0
300
1:5
140
1.0
141
5.0
290
     0
  0
SCALE
  5
4C
102
{ACAD_REACTORS
330
47
102
}
330
47
100
AcDbScale
 70
     0
300
1:8
140
1.0
141
8.0
290
     0
  0
SCALE
  5
4D
102
{ACAD_REACTORS
330
47
102
}
330
47
100
AcDbScale
 70
     0
300
1:10
140
1.0
141
10.0
290
     0
  0
SCALE
  5
4E
102
{ACAD_REACTORS
330
47
102
}
330
47
100
AcDbScale
 70
     0
300
1:16
140
1.0
141
16.0
290
     0
  0
SCALE
  5
4F
102
{ACAD_REACTORS
330
47
102
}
330
47
100
AcDbScale
 70
     0
300
1:20
140
1.0
141
20.0
290
     0
  0
SCALE
  5
50
102
{ACAD_REACTORS
330
47
102
}
330
47
100
AcDbScale
 70
     0
300
1:30
140
1.0
141
30.0
290
     0
  0
SCALE
  5
51
102
{ACAD_REACTORS
330
47
102
}
330
47
100
AcDbScale
 70
     0
300
1:40
140
1.0
141
40.0
290
     0
  0
SCALE
  5
52
102
{ACAD_REACTORS
330
47
102
}
330
47
100
AcDbScale
 70
     0
300
1:50
140
1.0
141
50.0
290
     0
  0
SCALE
  5
53
102
{ACAD_REACTORS
330
47
102
}
330
47
100
AcDbScale
 70
     0
300
1:100
140
1.0
141
100.0
290
     0
  0
SCALE
  5
54
102
{ACAD_REACTORS
330
47
102
}
330
47
100
AcDbScale
 70
     0
300
2:1
140
2.0
141
1.0
290
     0
  0
SCALE
  5
55
102
{ACAD_REACTORS
330
47
102
}
330
47
100
AcDbScale
 70
     0
300
4:1
140
4.0
141
1.0
290
     0
  0
SCALE
  5
56
102
{ACAD_REACTORS
330
47
102
}
330
47
100
AcDbScale
 70
     0
300
8:1
140
8.0
141
1.0
290
     0
  0
SCALE
  5
57
102
{ACAD_REACTORS
330
47
102
}
330
47
100
AcDbScale
 70
     0
300
10:1
140
10.0
141
1.0
290
     0
  0
SCALE
  5
58
102
{ACAD_REACTORS
330
47
102
}
330
47
100
AcDbScale
 70
     0
300
100:1
140
100.0
141
1.0
290
     0
  0
SCALE
  5
59
102
{ACAD_REACTORS
330
47
102
}
330
47
100
AcDbScale
 70
     0
300
1/128" = 1'-0"
140
0.0078125
141
12.0
290
     0
  0
SCALE
  5
5A
102
{ACAD_REACTORS
330
47
102
}
330
47
100
AcDbScale
 70
     0
300
1/64" = 1'-0"
140
0.015625
141
12.0
290
     0
  0
SCALE
  5
5B
102
{ACAD_REACTORS
330
47
102
}
330
47
100
AcDbScale
 70
     0
300
1/32" = 1'-0"
140
0.03125
141
12.0
290
     0
  0
SCALE
  5
5C
102
{ACAD_REACTORS
330
47
102
}
330
47
100
AcDbScale
 70
     0
300
1/16" = 1'-0"
140
0.0625
141
12.0
290
     0
  0
SCALE
  5
5D
102
{ACAD_REACTORS
330
47
102
}
330
47
100
AcDbScale
 70
     0
300
3/32" = 1'-0"
140
0.09375
141
12.0
290
     0
  0
SCALE
  5
5E
102
{ACAD_REACTORS
330
47
102
}
330
47
100
AcDbScale
 70
     0
300
1/8" = 1'-0"
140
0.125
141
12.0
290
     0
  0
SCALE
  5
5F
102
{ACAD_REACTORS
330
47
102
}
330
47
100
AcDbScale
 70
     0
300
3/16" = 1'-0"
140
0.1875
141
12.0
290
     0
  0
SCALE
  5
60
102
{ACAD_REACTORS
330
47
102
}
330
47
100
AcDbScale
 70
     0
300
1/4" = 1'-0"
140
0.25
141
12.0
290
     0
  0
SCALE
  5
61
102
{ACAD_REACTORS
330
47
102
}
330
47
100
AcDbScale
 70
     0
300
3/8" = 1'-0"
140
0.375
141
12.0
290
     0
  0
SCALE
  5
62
102
{ACAD_REACTORS
330
47
102
}
330
47
100
AcDbScale
 70
     0
300
1/2" = 1'-0"
140
0.5
141
12.0
290
     0
  0
SCALE
  5
63
102
{ACAD_REACTORS
330
47
102
}
330
47
100
AcDbScale
 70
     0
300
3/4" = 1'-0"
140
0.75
141
12.0
290
     0
  0
SCALE
  5
64
102
{ACAD_REACTORS
330
47
102
}
330
47
100
AcDbScale
 70
     0
300
1" = 1'-0"
140
1.0
141
12.0
290
     0
  0
SCALE
  5
65
102
{ACAD_REACTORS
330
47
102
}
330
47
100
AcDbScale
 70
     0
300
1-1/2" = 1'-0"
140
1.5
141
12.0
290
     0
  0
SCALE
  5
66
102
{ACAD_REACTORS
330
47
102
}
330
47
100
AcDbScale
 70
     0
300
3" = 1'-0"
140
3.0
141
12.0
290
     0
  0
SCALE
  5
67
102
{ACAD_REACTORS
330
47
102
}
330
47
100
AcDbScale
 70
     0
300
6" = 1'-0"
140
6.0
141
12.0
290
     0
  0
SCALE
  5
68
102
{ACAD_REACTORS
330
47
102
}
330
47
100
AcDbScale
 70
     0
300
1'-0" = 1'-0"
140
12.0
141
12.0
290
     0
  0
TABLESTYLE
  5
6A
102
{ACAD_REACTORS
330
69
102
}
330
69
100
AcDbTableStyle
  3
Standard
 70
     0
 71
     0
 40
0.06
 41
0.06
280
     0
281
     0
  7
Standard
140
4.5
170
     2
 62
     0
 63
   257
283
     0
274
    -2
284
     1
 64
     0
275
    -2
285
     1
 65
     0
276
    -2
286
     1
 66
     0
277
    -2
287
     1
 67
     0
278
    -2
288
     1
 68
     0
279
    -2
289
     1
 69
     0
  7
Standard
140
6.0
170
     5
 62
     0
 63
   257
283
     0
274
    -2
284
     1
 64
     0
275
    -2
285
     1
 65
     0
276
    -2
286
     1
 66
     0
277
    -2
287
     1
 67
     0
278
    -2
288
     1
 68
     0
279
    -2
289
     1
 69
     0
  7
Standard
140
4.5
170
     5
 62
     0
 63
   257
283
     0
274
    -2
284
     1
 64
     0
275
    -2
285
     1
 65
     0
276
    -2
286
     1
 66
     0
277
    -2
287
     1
 67
     0
278
    -2
288
     1
 68
     0
279
    -2
289
     1
 69
     0
  0
VISUALSTYLE
  5
2F
102
{ACAD_REACTORS
330
2A
102
}
102
{ACAD_XDICTIONARY
360
33E
102
}
330
2A
100
AcDbVisualStyle
  2
2dWireframe
 70
     4
 71
     0
 72
     2
 73
     0
 90
        0
 40
0.6
 41
30.0
 62
     5
 63
     7
 74
     1
 91
        4
 64
     7
 65
   257
 75
     1
175
     1
 42
1.0
 92
        0
 66
   257
 43
1.0
 76
     1
 77
     6
 78
     2
 67
     7
 79
     5
170
     0
171
     0
290
     0
174
     0
 93
        1
 44
0.0
173
     0
291
     0
 45
0.0
1001
ACAD
1000
AcDbSavedByObjectVersion
1070
     0
  0
VISUALSTYLE
  5
32
102
{ACAD_REACTORS
330
2A
102
}
102
{ACAD_XDICTIONARY
360
344
102
}
330
2A
100
AcDbVisualStyle
  2
Basic
 70
     7
 71
     1
 72
     0
 73
     1
 90
        0
 40
0.6
 41
30.0
 62
     5
 63
     7
 74
     0
 91
        4
 64
     7
 65
   257
 75
     1
175
     1
 42
1.0
 92
        8
 66
     7
 43
1.0
 76
     1
 77
     6
 78
     2
 67
     7
 79
     5
170
     0
171
     0
290
     0
174
     0
 93
        1
 44
0.0
173
     0
291
     1
 45
0.0
1001
ACAD
1000
AcDbSavedByObjectVersion
1070
     0
  0
VISUALSTYLE
  5
36
102
{ACAD_REACTORS
330
2A
102
}
102
{ACAD_XDICTIONARY
360
34C
102
}
330
2A
100
AcDbVisualStyle
  2
Brighten
 70
    12
 71
     2
 72
     2
 73
     0
 90
        0
 40
0.6
 41
30.0
 62
     5
 63
     7
 74
     1
 91
        4
 64
     7
 65
   257
 75
     1
175
     1
 42
1.0
 92
        8
 66
     7
 43
1.0
 76
     1
 77
     6
 78
     2
 67
     7
 79
     5
170
     0
171
     0
290
     0
174
     0
 93
        1
 44
50.0
173
     0
291
     1
 45
0.0
1001
ACAD
1000
AcDbSavedByObjectVersion
1070
     0
  0
VISUALSTYLE
  5
3A
102
{ACAD_REACTORS
330
2A
102
}
102
{ACAD_XDICTIONARY
360
354
102
}
330
2A
100
AcDbVisualStyle
  2
ColorChange
 70
    16
 71
     2
 72
     2
 73
     3
 90
        0
 40
0.6
 41
30.0
 62
     5
 63
     8
 74
     1
 91
        4
 64
     7
 65
   257
 75
     1
175
     1
 42
1.0
 92
        8
 66
     8
 43
1.0
 76
     1
 77
     6
 78
     2
 67
     7
 79
     5
170
     0
171
     0
290
     0
174
     0
 93
        1
 44
0.0
173
     0
291
     1
 45
0.0
1001
ACAD
1000
AcDbSavedByObjectVersion
1070
     0
  0
VISUALSTYLE
  5
34
102
{ACAD_REACTORS
330
2A
102
}
102
{ACAD_XDICTIONARY
360
348
102
}
330
2A
100
AcDbVisualStyle
  2
Conceptual
 70
     9
 71
     3
 72
     2
 73
     0
 90
        0
 40
0.6
 41
30.0
 62
     5
 63
     7
 74
     2
 91
        2
 64
     7
 65
   257
 75
     1
175
     1
 42
179.0
 92
        8
 66
     7
 43
1.0
 76
     1
 77
     6
 78
     2
 67
     7
 79
     3
170
     0
171
     0
290
     0
174
     0
 93
        1
 44
0.0
173
     0
291
     0
 45
0.0
1001
ACAD
1000
AcDbSavedByObjectVersion
1070
     0
  0
VISUALSTYLE
  5
35
102
{ACAD_REACTORS
330
2A
102
}
102
{ACAD_XDICTIONARY
360
34A
102
}
330
2A
100
AcDbVisualStyle
  2
Dim
 70
    11
 71
     2
 72
     2
 73
     0
 90
        0
 40
0.6
 41
30.0
 62
     5
 63
     7
 74
     1
 91
        4
 64
     7
 65
   257
 75
     1
175
     1
 42
1.0
 92
        8
 66
     7
 43
1.0
 76
     1
 77
     6
 78
     2
 67
     7
 79
     5
170
     0
171
     0
290
     0
174
     0
 93
        1
 44
-50.0
173
     0
291
     1
 45
0.0
1001
ACAD
1000
AcDbSavedByObjectVersion
1070
     0
  0
VISUALSTYLE
  5
3D
102
{ACAD_REACTORS
330
2A
102
}
102
{ACAD_XDICTIONARY
360
35A
102
}
330
2A
100
AcDbVisualStyle
  2
EdgeColorOff
 70
    22
 71
     2
 72
     2
 73
     0
 90
        0
 40
0.6
 41
30.0
 62
     5
 63
     7
 74
     1
 91
        4
 64
     7
 65
   257
 75
     1
175
     1
 42
1.0
 92
        8
 66
     7
 43
1.0
 76
     1
 77
     6
 78
     2
 67
     7
 79
     5
170
     0
171
     0
290
     0
174
     0
 93
        1
 44
0.0
173
     0
291
     1
 45
0.0
1001
ACAD
1000
AcDbSavedByObjectVersion
1070
     0
  0
VISUALSTYLE
  5
39
102
{ACAD_REACTORS
330
2A
102
}
102
{ACAD_XDICTIONARY
360
352
102
}
330
2A
100
AcDbVisualStyle
  2
Facepattern
 70
    15
 71
     2
 72
     2
 73
     0
 90
        0
 40
0.6
 41
30.0
 62
     5
 63
     7
 74
     1
 91
        4
 64
     7
 65
   257
 75
     1
175
     1
 42
1.0
 92
        8
 66
     7
 43
1.0
 76
     1
 77
     6
 78
     2
 67
     7
 79
     5
170
     0
171
     0
290
     0
174
     0
 93
        1
 44
0.0
173
     0
291
     1
 45
0.0
1001
ACAD
1000
AcDbSavedByObjectVersion
1070
     0
  0
VISUALSTYLE
  5
2B
102
{ACAD_REACTORS
330
2A
102
}
102
{ACAD_XDICTIONARY
360
336
102
}
330
2A
100
AcDbVisualStyle
  2
Flat
 70
     0
 71
     2
 72
     1
 73
     1
 90
        2
 40
0.6
 41
30.0
 62
     5
 63
     7
 74
     0
 91
        0
 64
     7
 65
   257
 75
     1
175
     1
 42
1.0
 92
        8
 66
     7
 43
1.0
 76
     1
 77
     6
 78
     2
 67
     7
 79
     5
170
     0
171
     0
290
     0
174
     0
 93
       13
 44
0.0
173
     0
291
     1
 45
0.0
1001
ACAD
1000
AcDbSavedByObjectVersion
1070
     0
  0
VISUALSTYLE
  5
2C
102
{ACAD_REACTORS
330
2A
102
}
102
{ACAD_XDICTIONARY
360
338
102
}
330
2A
100
AcDbVisualStyle
  2
FlatWithEdges
 70
     1
 71
     2
 72
     1
 73
     1
 90
        2
 40
0.6
 41
30.0
 62
     5
 63
     7
 74
     1
 91
        0
 64
     7
 65
   257
 75
     1
175
     1
 42
1.0
 92
        0
 66
   257
 43
1.0
 76
     1
 77
     6
 78
     2
 67
     7
 79
     5
170
     0
171
     0
290
     0
174
     0
 93
       13
 44
0.0
173
     0
291
     1
 45
0.0
1001
ACAD
1000
AcDbSavedByObjectVersion
1070
     0
  0
VISUALSTYLE
  5
2D
102
{ACAD_REACTORS
330
2A
102
}
102
{ACAD_XDICTIONARY
360
33A
102
}
330
2A
100
AcDbVisualStyle
  2
Gouraud
 70
     2
 71
     2
 72
     2
 73
     1
 90
        2
 40
0.6
 41
30.0
 62
     5
 63
     7
 74
     0
 91
        0
 64
     7
 65
   257
 75
     1
175
     1
 42
1.0
 92
        0
 66
     7
 43
1.0
 76
     1
 77
     6
 78
     2
 67
     7
 79
     5
170
     0
171
     0
290
     0
174
     0
 93
       13
 44
0.0
173
     0
291
     1
 45
0.0
1001
ACAD
1000
AcDbSavedByObjectVersion
1070
     0
  0
VISUALSTYLE
  5
2E
102
{ACAD_REACTORS
330
2A
102
}
102
{ACAD_XDICTIONARY
360
33C
102
}
330
2A
100
AcDbVisualStyle
  2
GouraudWithEdges
 70
     3
 71
     2
 72
     2
 73
     1
 90
        2
 40
0.6
 41
30.0
 62
     5
 63
     7
 74
     1
 91
        0
 64
     7
 65
   257
 75
     1
175
     1
 42
1.0
 92
        0
 66
   257
 43
1.0
 76
     1
 77
     6
 78
     2
 67
     7
 79
     5
170
     0
171
     0
290
     0
174
     0
 93
       13
 44
0.0
173
     0
291
     1
 45
0.0
1001
ACAD
1000
AcDbSavedByObjectVersion
1070
     0
  0
VISUALSTYLE
  5
31
102
{ACAD_REACTORS
330
2A
102
}
102
{ACAD_XDICTIONARY
360
342
102
}
330
2A
100
AcDbVisualStyle
  2
Hidden
 70
     6
 71
     1
 72
     2
 73
     2
 90
        0
 40
0.6
 41
30.0
 62
     5
 63
     7
 74
     2
 91
        2
 64
     7
 65
   257
 75
     2
175
     1
 42
40.0
 92
        0
 66
   257
 43
1.0
 76
     1
 77
     6
 78
     2
 67
     7
 79
     3
170
     0
171
     0
290
     0
174
     0
 93
        1
 44
0.0
173
     0
291
     0
 45
0.0
1001
ACAD
1000
AcDbSavedByObjectVersion
1070
     0
  0
VISUALSTYLE
  5
3B
102
{ACAD_REACTORS
330
2A
102
}
102
{ACAD_XDICTIONARY
360
356
102
}
330
2A
100
AcDbVisualStyle
  2
JitterOff
 70
    20
 71
     2
 72
     2
 73
     0
 90
        0
 40
0.6
 41
30.0
 62
     5
 63
     7
 74
     1
 91
        4
 64
     7
 65
   257
 75
     1
175
     1
 42
1.0
 92
       10
 66
     7
 43
1.0
 76
     1
 77
     6
 78
     2
 67
     7
 79
     5
170
     0
171
     0
290
     0
174
     0
 93
        1
 44
0.0
173
     0
291
     1
 45
0.0
1001
ACAD
1000
AcDbSavedByObjectVersion
1070
     0
  0
VISUALSTYLE
  5
38
102
{ACAD_REACTORS
330
2A
102
}
102
{ACAD_XDICTIONARY
360
350
102
}
330
2A
100
AcDbVisualStyle
  2
Linepattern
 70
    14
 71
     2
 72
     2
 73
     0
 90
        0
 40
0.6
 41
30.0
 62
     5
 63
     7
 74
     1
 91
        4
 64
     7
 65
   257
 75
     7
175
     7
 42
1.0
 92
        8
 66
     7
 43
1.0
 76
     1
 77
     6
 78
     2
 67
     7
 79
     5
170
     0
171
     0
290
     0
174
     0
 93
        1
 44
0.0
173
     0
291
     1
 45
0.0
1001
ACAD
1000
AcDbSavedByObjectVersion
1070
     0
  0
VISUALSTYLE
  5
3C
102
{ACAD_REACTORS
330
2A
102
}
102
{ACAD_XDICTIONARY
360
358
102
}
330
2A
100
AcDbVisualStyle
  2
OverhangOff
 70
    21
 71
     2
 72
     2
 73
     0
 90
        0
 40
0.6
 41
30.0
 62
     5
 63
     7
 74
     1
 91
        4
 64
     7
 65
   257
 75
     1
175
     1
 42
1.0
 92
        9
 66
     7
 43
1.0
 76
     1
 77
     6
 78
     2
 67
     7
 79
     5
170
     0
171
     0
290
     0
174
     0
 93
        1
 44
0.0
173
     0
291
     1
 45
0.0
1001
ACAD
1000
AcDbSavedByObjectVersion
1070
     0
  0
VISUALSTYLE
  5
33
102
{ACAD_REACTORS
330
2A
102
}
102
{ACAD_XDICTIONARY
360
346
102
}
330
2A
100
AcDbVisualStyle
  2
Realistic
 70
     8
 71
     2
 72
     3
 73
     0
 90
        2
 40
0.6
 41
30.0
 62
     5
 63
     7
 74
     0
 91
        0
 64
     7
 65
   257
 75
     1
175
     1
 42
1.0
 92
        8
 66
   257
 43
1.0
 76
     1
 77
     6
 78
     2
 67
     7
 79
     3
170
     0
171
     0
290
     0
174
     0
 93
       13
 44
0.0
173
     0
291
     0
 45
0.0
1001
ACAD
1000
AcDbSavedByObjectVersion
1070
     0
  0
VISUALSTYLE
  5
42
102
{ACAD_REACTORS
330
2A
102
}
102
{ACAD_XDICTIONARY
360
364
102
}
330
2A
100
AcDbVisualStyle
  2
Shaded
 70
    27
 71
     2
 72
     2
 73
     1
 90
        2
 40
0.6
 41
30.0
 62
     5
 63
     7
 74
     0
 91
        4
 64
     7
 65
   257
 75
     1
175
     1
 42
1.0
 92
        8
 66
   257
 43
1.0
 76
     1
 77
     6
 78
     2
 67
     8
 79
     3
170
     0
171
     0
290
     0
174
     0
 93
        5
 44
0.0
173
     0
291
     0
 45
0.0
1001
ACAD
1000
AcDbSavedByObjectVersion
1070
     0
  0
VISUALSTYLE
  5
41
102
{ACAD_REACTORS
330
2A
102
}
102
{ACAD_XDICTIONARY
360
362
102
}
330
2A
100
AcDbVisualStyle
  2
Shaded with edges
 70
    26
 71
     2
 72
     2
 73
     1
 90
        2
 40
0.6
 41
30.0
 62
     5
 63
     7
 74
     1
 91
       10
 64
     7
 65
   257
 75
     2
175
     1
 42
1.0
 92
        8
 66
   257
 43
1.0
 76
     1
 77
     6
 78
     2
 67
     7
 79
     3
170
     0
171
     0
290
     0
174
     0
 93
        5
 44
0.0
173
     0
291
     0
 45
0.0
1001
ACAD
1000
AcDbSavedByObjectVersion
1070
     0
  0
VISUALSTYLE
  5
3E
102
{ACAD_REACTORS
330
2A
102
}
102
{ACAD_XDICTIONARY
360
35C
102
}
330
2A
100
AcDbVisualStyle
  2
Shades of Gray
 70
    23
 71
     2
 72
     2
 73
     3
 90
        0
 40
0.6
 41
30.0
 62
     5
 63
     7
 74
     2
 91
        2
 64
     7
 65
     7
 75
     1
175
     1
 42
40.0
 92
        8
 66
     7
 43
1.0
 76
     1
 77
     6
 78
     2
 67
     7
 79
     3
170
     0
171
     0
290
     0
174
     0
 93
        1
 44
0.0
173
     0
291
     0
 45
0.0
1001
ACAD
1000
AcDbSavedByObjectVersion
1070
     0
  0
VISUALSTYLE
  5
3F
102
{ACAD_REACTORS
330
2A
102
}
102
{ACAD_XDICTIONARY
360
35E
102
}
330
2A
100
AcDbVisualStyle
  2
Sketchy
 70
    24
 71
     1
 72
     2
 73
     2
 90
        0
 40
0.6
 41
30.0
 62
     5
 63
     7
 74
     2
 91
        2
 64
     7
 65
     7
 75
     1
175
     1
 42
40.0
 92
       11
 66
     7
 43
1.0
 76
     1
 77
     6
 78
     2
 67
     7
 79
     6
170
     0
171
     0
290
     0
174
     0
 93
        1
 44
0.0
173
     0
291
     0
 45
0.0
1001
ACAD
1000
AcDbSavedByObjectVersion
1070
     0
  0
VISUALSTYLE
  5
37
102
{ACAD_REACTORS
330
2A
102
}
102
{ACAD_XDICTIONARY
360
34E
102
}
330
2A
100
AcDbVisualStyle
  2
Thicken
 70
    13
 71
     2
 72
     2
 73
     0
 90
        0
 40
0.6
 41
30.0
 62
     5
 63
     7
 74
     1
 91
        4
 64
     7
 65
   257
 75
     1
175
     1
 42
1.0
 92
       12
 66
     7
 43
1.0
 76
     1
 77
     6
 78
     2
 67
     7
 79
     5
170
     0
171
     0
290
     0
174
     0
 93
        1
 44
0.0
173
     0
291
     1
 45
0.0
1001
ACAD
1000
AcDbSavedByObjectVersion
1070
     0
  0
VISUALSTYLE
  5
30
102
{ACAD_REACTORS
330
2A
102
}
102
{ACAD_XDICTIONARY
360
340
102
}
330
2A
100
AcDbVisualStyle
  2
Wireframe
 70
     5
 71
     0
 72
     2
 73
     0
 90
        0
 40
0.6
 41
30.0
 62
     5
 63
     7
 74
     1
 91
        4
 64
     7
 65
   257
 75
     1
175
     1
 42
1.0
 92
        0
 66
   257
 43
1.0
 76
     1
 77
     6
 78
     2
 67
     7
 79
     3
170
     0
171
     0
290
     0
174
     0
 93
        1
 44
0.0
173
     0
291
     0
 45
0.0
1001
ACAD
1000
AcDbSavedByObjectVersion
1070
     0
  0
VISUALSTYLE
  5
40
102
{ACAD_REACTORS
330
2A
102
}
102
{ACAD_XDICTIONARY
360
360
102
}
330
2A
100
AcDbVisualStyle
  2
X-Ray
 70
    25
 71
     2
 72
     2
 73
     1
 90
        1
 40
0.5
 41
30.0
 62
     5
 63
     7
 74
     1
 91
        0
 64
     7
 65
   257
 75
     1
175
     1
 42
1.0
 92
        8
 66
     7
 43
1.0
 76
     1
 77
     6
 78
     2
 67
     7
 79
     3
170
     0
171
     0
290
     0
174
     0
 93
       13
 44
0.0
173
     0
291
     0
 45
0.0
1001
ACAD
1000
AcDbSavedByObjectVersion
1070
     0
  0
DICTIONARYVAR
  5
2ED
102
{ACAD_REACTORS
330
2EC
102
}
330
2EC
100
DictionaryVariables
280
     0
  1
1:1
  0
DICTIONARYVAR
  5
326
102
{ACAD_REACTORS
330
2EC
102
}
330
2EC
100
DictionaryVariables
280
     0
  1
Standard
  0
DICTIONARYVAR
  5
325
102
{ACAD_REACTORS
330
2EC
102
}
330
2EC
100
DictionaryVariables
280
     0
  1
Standard
  0
DICTIONARYVAR
  5
32E
102
{ACAD_REACTORS
330
2EC
102
}
330
2EC
100
DictionaryVariables
280
     0
  1
2
  0
DICTIONARYVAR
  5
32F
102
{ACAD_REACTORS
330
2EC
102
}
330
2EC
100
DictionaryVariables
280
     0
  1
1
  0
DICTIONARYVAR
  5
335
102
{ACAD_REACTORS
330
2EC
102
}
330
2EC
100
DictionaryVariables
280
     0
  1
1
  0
DICTIONARYVAR
  5
32D
102
{ACAD_REACTORS
330
2EC
102
}
330
2EC
100
DictionaryVariables
280
     0
  1
80.000000
  0
DICTIONARYVAR
  5
32C
102
{ACAD_REACTORS
330
2EC
102
}
330
2EC
100
DictionaryVariables
280
     0
  1
5.000000
  0
DICTIONARYVAR
  5
329
102
{ACAD_REACTORS
330
2EC
102
}
330
2EC
100
DictionaryVariables
280
     0
  1
6.000000
  0
DICTIONARYVAR
  5
2EE
102
{ACAD_REACTORS
330
2EC
102
}
330
2EC
100
DictionaryVariables
280
     0
  1
2
  0
DICTIONARY
  5
368
330
45
100
AcDbDictionary
280
     1
281
     1
  3
ACAD_XREC_ROUNDTRIP
360
369
  0
DICTIONARY
  5
366
330
44
100
AcDbDictionary
280
     1
281
     1
  3
ACAD_XREC_ROUNDTRIP
360
367
  0
DICTIONARY
  5
36A
330
46
100
AcDbDictionary
280
     1
281
     1
  3
ACAD_XREC_ROUNDTRIP
360
36B
  0
DICTIONARY
  5
36C
330
6C
100
AcDbDictionary
280
     1
281
     1
  3
ACAD_XREC_ROUNDTRIP
360
36D
  0
DICTIONARY
  5
33E
330
2F
100
AcDbDictionary
280
     1
281
     1
  3
ACAD_XREC_ROUNDTRIP
360
33F
  0
DICTIONARY
  5
344
330
32
100
AcDbDictionary
280
     1
281
     1
  3
ACAD_XREC_ROUNDTRIP
360
345
  0
DICTIONARY
  5
34C
330
36
100
AcDbDictionary
280
     1
281
     1
  3
ACAD_XREC_ROUNDTRIP
360
34D
  0
DICTIONARY
  5
354
330
3A
100
AcDbDictionary
280
     1
281
     1
  3
ACAD_XREC_ROUNDTRIP
360
355
  0
DICTIONARY
  5
348
330
34
100
AcDbDictionary
280
     1
281
     1
  3
ACAD_XREC_ROUNDTRIP
360
349
  0
DICTIONARY
  5
34A
330
35
100
AcDbDictionary
280
     1
281
     1
  3
ACAD_XREC_ROUNDTRIP
360
34B
  0
DICTIONARY
  5
35A
330
3D
100
AcDbDictionary
280
     1
281
     1
  3
ACAD_XREC_ROUNDTRIP
360
35B
  0
DICTIONARY
  5
352
330
39
100
AcDbDictionary
280
     1
281
     1
  3
ACAD_XREC_ROUNDTRIP
360
353
  0
DICTIONARY
  5
336
330
2B
100
AcDbDictionary
280
     1
281
     1
  3
ACAD_XREC_ROUNDTRIP
360
337
  0
DICTIONARY
  5
338
330
2C
100
AcDbDictionary
280
     1
281
     1
  3
ACAD_XREC_ROUNDTRIP
360
339
  0
DICTIONARY
  5
33A
330
2D
100
AcDbDictionary
280
     1
281
     1
  3
ACAD_XREC_ROUNDTRIP
360
33B
  0
DICTIONARY
  5
33C
330
2E
100
AcDbDictionary
280
     1
281
     1
  3
ACAD_XREC_ROUNDTRIP
360
33D
  0
DICTIONARY
  5
342
330
31
100
AcDbDictionary
280
     1
281
     1
  3
ACAD_XREC_ROUNDTRIP
360
343
  0
DICTIONARY
  5
356
330
3B
100
AcDbDictionary
280
     1
281
     1
  3
ACAD_XREC_ROUNDTRIP
360
357
  0
DICTIONARY
  5
350
330
38
100
AcDbDictionary
280
     1
281
     1
  3
ACAD_XREC_ROUNDTRIP
360
351
  0
DICTIONARY
  5
358
330
3C
100
AcDbDictionary
280
     1
281
     1
  3
ACAD_XREC_ROUNDTRIP
360
359
  0
DICTIONARY
  5
346
330
33
100
AcDbDictionary
280
     1
281
     1
  3
ACAD_XREC_ROUNDTRIP
360
347
  0
DICTIONARY
  5
364
330
42
100
AcDbDictionary
280
     1
281
     1
  3
ACAD_XREC_ROUNDTRIP
360
365
  0
DICTIONARY
  5
362
330
41
100
AcDbDictionary
280
     1
281
     1
  3
ACAD_XREC_ROUNDTRIP
360
363
  0
DICTIONARY
  5
35C
330
3E
100
AcDbDictionary
280
     1
281
     1
  3
ACAD_XREC_ROUNDTRIP
360
35D
  0
DICTIONARY
  5
35E
330
3F
100
AcDbDictionary
280
     1
281
     1
  3
ACAD_XREC_ROUNDTRIP
360
35F
  0
DICTIONARY
  5
34E
330
37
100
AcDbDictionary
280
     1
281
     1
  3
ACAD_XREC_ROUNDTRIP
360
34F
  0
DICTIONARY
  5
340
330
30
100
AcDbDictionary
280
     1
281
     1
  3
ACAD_XREC_ROUNDTRIP
360
341
  0
DICTIONARY
  5
360
330
40
100
AcDbDictionary
280
     1
281
     1
  3
ACAD_XREC_ROUNDTRIP
360
361
  0
XRECORD
  5
369
102
{ACAD_REACTORS
330
368
102
}
330
368
100
AcDbXrecord
280
     1
102
MATERIAL
148
0.0
149
0.0
149
0.0
 93
        0
 94
      127
282
     0
 72
     1
 77
     1
171
     1
175
     1
179
     1
273
     0
  0
XRECORD
  5
367
102
{ACAD_REACTORS
330
366
102
}
330
366
100
AcDbXrecord
280
     1
102
MATERIAL
148
0.0
149
0.0
149
0.0
 93
        0
 94
      127
282
     0
 72
     1
 77
     1
171
     1
175
     1
179
     1
273
     0
  0
XRECORD
  5
36B
102
{ACAD_REACTORS
330
36A
102
}
330
36A
100
AcDbXrecord
280
     1
102
MATERIAL
148
0.0
149
0.0
149
0.0
 93
        0
 94
      127
282
     0
 72
     1
 77
     1
171
     1
175
     1
179
     1
273
     0
  0
XRECORD
  5
36D
102
{ACAD_REACTORS
330
36C
102
}
330
36C
100
AcDbXrecord
280
     1
102
ACAD_ROUNDTRIP_2010_MLEADER_STYLE
  0
XRECORD
  5
33F
102
{ACAD_REACTORS
330
33E
102
}
330
33E
100
AcDbXrecord
280
     1
102
RTVSPropertyOp0
 70
     1
102
RTVSPropertyOp1
 70
     1
102
RTVSPropertyOp2
 70
     1
102
RTVSPropertyOp3
 70
     1
102
RTVSPropertyOp4
 70
     1
102
RTVSPropertyOp5
 70
     1
102
RTVSPropertyOp6
 70
     1
102
RTVSPropertyOp7
 70
     1
102
RTVSPropertyOp8
 70
     1
102
RTVSPropertyOp9
 70
     1
102
RTVSPropertyOp10
 70
     1
102
RTVSPropertyOp11
 70
     1
102
RTVSPropertyOp12
 70
     1
102
RTVSPropertyOp13
 70
     1
102
RTVSPropertyOp14
 70
     1
102
RTVSPropertyOp15
 70
     1
102
RTVSPropertyOp16
 70
     1
102
RTVSPropertyOp17
 70
     1
102
RTVSPropertyOp18
 70
     1
102
RTVSPropertyOp19
 70
     1
102
RTVSPropertyOp20
 70
     1
102
RTVSPropertyOp21
 70
     1
102
RTVSPropertyOp22
 70
     1
102
RTVSPropertyOp23
 70
     1
102
RTVSPropertyOp24
 70
     1
102
RTVSPropertyOp25
 70
     1
102
RTVSPropertyOp26
 70
     1
102
RTVSPropertyOp27
 70
     1
102
RTVSPropertyOp28
 70
     1
102
RTVSPropertyOp29
 70
     1
102
RTVSPropertyOp30
 70
     1
102
RTVSPropertyOp31
 70
     1
102
RTVSPropertyOp32
 70
     1
102
RTVSPropertyOp33
 70
     1
102
RTVSPropertyOp34
 70
     1
102
RTVSPropertyOp35
 70
     1
102
RTVSPropertyOp36
 70
     1
102
RTVSPropertyOp37
 70
     1
102
RTVSPropertyOp38
 70
     1
102
RTVSPropertyOp39
 70
     1
102
RTVSPropertyOp40
 70
     1
102
RTVSPropertyOp41
 70
     1
102
RTVSPropertyOp42
 70
     1
102
RTVSPropertyOp43
 70
     1
102
RTVSPropertyOp44
 70
     1
102
RTVSPropertyOp45
 70
     1
102
RTVSPropertyOp46
 70
     1
102
RTVSPropertyOp47
 70
     1
102
RTVSPropertyOp48
 70
     1
102
RTVSPropertyOp49
 70
     1
102
RTVSPropertyOp50
 70
     1
102
RTVSPropertyOp51
 70
     0
102
RTVSPropertyOp52
 70
     0
102
RTVSPropertyOp53
 70
     1
102
RTVSPropertyOp54
 70
     1
102
RTVSPropertyOp55
 70
     1
102
RTVSPropertyOp56
 70
     1
102
RTVSPropertyOp57
 70
     1
102
RTVSPost2010Prop28
280
     1
102
RTVSPost2010PropOp28
 70
     1
102
RTVSPost2010Prop29
280
     1
102
RTVSPost2010PropOp29
 70
     1
102
RTVSPost2010Prop30
280
     0
102
RTVSPost2010PropOp30
 70
     1
102
RTVSPost2010Prop31
280
     0
102
RTVSPost2010PropOp31
 70
     1
102
RTVSPost2010Prop32
280
     0
102
RTVSPost2010PropOp32
 70
     1
102
RTVSPost2010Prop33
280
     0
102
RTVSPost2010PropOp33
 70
     1
102
RTVSPost2010Prop34
280
     0
102
RTVSPost2010PropOp34
 70
     1
102
RTVSPost2010Prop35
280
     0
102
RTVSPost2010PropOp35
 70
     1
102
RTVSPost2010Prop36
280
     0
102
RTVSPost2010PropOp36
 70
     1
102
RTVSPost2010Prop37
 90
       50
102
RTVSPost2010PropOp37
 70
     1
102
RTVSPost2010Prop38
140
0.0
102
RTVSPost2010PropOp38
 70
     1
102
RTVSPost2010Prop39
140
1.0
102
RTVSPost2010PropOp39
 70
     1
102
RTVSPost2010Prop40
 90
        0
102
RTVSPost2010PropOp40
 70
     1
102
RTVSPost2010Prop41ColorIndex
 90
       18
102
RTVSPost2010Prop41ColorRGB
 90
        0
102
RTVSPost2010PropOp41
 70
     1
102
RTVSPost2010Prop42
 90
       50
102
RTVSPost2010PropOp42
 70
     1
102
RTVSPost2010Prop43
 90
        3
102
RTVSPost2010PropOp43
 70
     1
102
RTVSPost2010Prop44ColorIndex
 90
        5
102
RTVSPost2010Prop44ColorRGB
 90
      255
102
RTVSPost2010PropOp44
 70
     1
102
RTVSPost2010Prop45
280
     0
102
RTVSPost2010PropOp45
 70
     1
102
RTVSPost2010Prop46
 90
       50
102
RTVSPost2010PropOp46
 70
     1
102
RTVSPost2010Prop47
 90
       50
102
RTVSPost2010PropOp47
 70
     1
102
RTVSPost2010Prop48
 90
       50
102
RTVSPost2010PropOp48
 70
     1
102
RTVSPost2010Prop49
280
     0
102
RTVSPost2010PropOp49
 70
     1
102
RTVSPost2010Prop50
 90
       50
102
RTVSPost2010PropOp50
 70
     1
102
RTVSPost2010Prop51ColorIndex
 90
      256
102
RTVSPost2010Prop51ColorRGB
 90
-16777216
102
RTVSPost2010PropOp51
 70
     0
102
RTVSPost2010Prop52
140
1.0
102
RTVSPost2010PropOp52
 70
     0
102
RTVSPost2010Prop53
 90
        2
102
RTVSPost2010PropOp53
 70
     1
102
RTVSPost2010Prop54
  1
strokes_ogs.tif
102
RTVSPost2010PropOp54
 70
     1
102
RTVSPost2010Prop55
280
     0
102
RTVSPost2010PropOp55
 70
     1
102
RTVSPost2010Prop56
140
1.0
102
RTVSPost2010PropOp56
 70
     1
102
RTVSPost2010Prop57
140
1.0
102
RTVSPost2010PropOp57
 70
     1
  0
XRECORD
  5
345
102
{ACAD_REACTORS
330
344
102
}
330
344
100
AcDbXrecord
280
     1
102
RTVSPropertyOp0
 70
     1
102
RTVSPropertyOp1
 70
     1
102
RTVSPropertyOp2
 70
     1
102
RTVSPropertyOp3
 70
     1
102
RTVSPropertyOp4
 70
     1
102
RTVSPropertyOp5
 70
     1
102
RTVSPropertyOp6
 70
     1
102
RTVSPropertyOp7
 70
     1
102
RTVSPropertyOp8
 70
     1
102
RTVSPropertyOp9
 70
     1
102
RTVSPropertyOp10
 70
     1
102
RTVSPropertyOp11
 70
     1
102
RTVSPropertyOp12
 70
     1
102
RTVSPropertyOp13
 70
     1
102
RTVSPropertyOp14
 70
     1
102
RTVSPropertyOp15
 70
     1
102
RTVSPropertyOp16
 70
     1
102
RTVSPropertyOp17
 70
     1
102
RTVSPropertyOp18
 70
     1
102
RTVSPropertyOp19
 70
     1
102
RTVSPropertyOp20
 70
     1
102
RTVSPropertyOp21
 70
     1
102
RTVSPropertyOp22
 70
     1
102
RTVSPropertyOp23
 70
     1
102
RTVSPropertyOp24
 70
     1
102
RTVSPropertyOp25
 70
     1
102
RTVSPropertyOp26
 70
     1
102
RTVSPropertyOp27
 70
     1
102
RTVSPropertyOp28
 70
     1
102
RTVSPropertyOp29
 70
     1
102
RTVSPropertyOp30
 70
     1
102
RTVSPropertyOp31
 70
     1
102
RTVSPropertyOp32
 70
     1
102
RTVSPropertyOp33
 70
     1
102
RTVSPropertyOp34
 70
     1
102
RTVSPropertyOp35
 70
     1
102
RTVSPropertyOp36
 70
     1
102
RTVSPropertyOp37
 70
     1
102
RTVSPropertyOp38
 70
     1
102
RTVSPropertyOp39
 70
     1
102
RTVSPropertyOp40
 70
     1
102
RTVSPropertyOp41
 70
     1
102
RTVSPropertyOp42
 70
     1
102
RTVSPropertyOp43
 70
     1
102
RTVSPropertyOp44
 70
     1
102
RTVSPropertyOp45
 70
     1
102
RTVSPropertyOp46
 70
     1
102
RTVSPropertyOp47
 70
     1
102
RTVSPropertyOp48
 70
     1
102
RTVSPropertyOp49
 70
     1
102
RTVSPropertyOp50
 70
     1
102
RTVSPropertyOp51
 70
     0
102
RTVSPropertyOp52
 70
     0
102
RTVSPropertyOp53
 70
     1
102
RTVSPropertyOp54
 70
     1
102
RTVSPropertyOp55
 70
     1
102
RTVSPropertyOp56
 70
     1
102
RTVSPropertyOp57
 70
     1
102
RTVSPost2010Prop28
280
     0
102
RTVSPost2010PropOp28
 70
     1
102
RTVSPost2010Prop29
280
     1
102
RTVSPost2010PropOp29
 70
     1
102
RTVSPost2010Prop30
280
     1
102
RTVSPost2010PropOp30
 70
     1
102
RTVSPost2010Prop31
280
     0
102
RTVSPost2010PropOp31
 70
     1
102
RTVSPost2010Prop32
280
     0
102
RTVSPost2010PropOp32
 70
     1
102
RTVSPost2010Prop33
280
     0
102
RTVSPost2010PropOp33
 70
     1
102
RTVSPost2010Prop34
280
     0
102
RTVSPost2010PropOp34
 70
     1
102
RTVSPost2010Prop35
280
     0
102
RTVSPost2010PropOp35
 70
     1
102
RTVSPost2010Prop36
280
     0
102
RTVSPost2010PropOp36
 70
     1
102
RTVSPost2010Prop37
 90
       50
102
RTVSPost2010PropOp37
 70
     1
102
RTVSPost2010Prop38
140
0.0
102
RTVSPost2010PropOp38
 70
     1
102
RTVSPost2010Prop39
140
1.0
102
RTVSPost2010PropOp39
 70
     1
102
RTVSPost2010Prop40
 90
        0
102
RTVSPost2010PropOp40
 70
     1
102
RTVSPost2010Prop41ColorIndex
 90
       18
102
RTVSPost2010Prop41ColorRGB
 90
        0
102
RTVSPost2010PropOp41
 70
     1
102
RTVSPost2010Prop42
 90
       50
102
RTVSPost2010PropOp42
 70
     1
102
RTVSPost2010Prop43
 90
        3
102
RTVSPost2010PropOp43
 70
     1
102
RTVSPost2010Prop44ColorIndex
 90
        5
102
RTVSPost2010Prop44ColorRGB
 90
      255
102
RTVSPost2010PropOp44
 70
     1
102
RTVSPost2010Prop45
280
     0
102
RTVSPost2010PropOp45
 70
     1
102
RTVSPost2010Prop46
 90
       50
102
RTVSPost2010PropOp46
 70
     1
102
RTVSPost2010Prop47
 90
       50
102
RTVSPost2010PropOp47
 70
     1
102
RTVSPost2010Prop48
 90
       50
102
RTVSPost2010PropOp48
 70
     1
102
RTVSPost2010Prop49
280
     0
102
RTVSPost2010PropOp49
 70
     1
102
RTVSPost2010Prop50
 90
       50
102
RTVSPost2010PropOp50
 70
     1
102
RTVSPost2010Prop51ColorIndex
 90
      256
102
RTVSPost2010Prop51ColorRGB
 90
-16777216
102
RTVSPost2010PropOp51
 70
     0
102
RTVSPost2010Prop52
140
1.0
102
RTVSPost2010PropOp52
 70
     0
102
RTVSPost2010Prop53
 90
        2
102
RTVSPost2010PropOp53
 70
     1
102
RTVSPost2010Prop54
  1
strokes_ogs.tif
102
RTVSPost2010PropOp54
 70
     1
102
RTVSPost2010Prop55
280
     0
102
RTVSPost2010PropOp55
 70
     1
102
RTVSPost2010Prop56
140
1.0
102
RTVSPost2010PropOp56
 70
     1
102
RTVSPost2010Prop57
140
1.0
102
RTVSPost2010PropOp57
 70
     1
  0
XRECORD
  5
34D
102
{ACAD_REACTORS
330
34C
102
}
330
34C
100
AcDbXrecord
280
     1
102
RTVSPropertyOp0
 70
     1
102
RTVSPropertyOp1
 70
     1
102
RTVSPropertyOp2
 70
     1
102
RTVSPropertyOp3
 70
     1
102
RTVSPropertyOp4
 70
     1
102
RTVSPropertyOp5
 70
     1
102
RTVSPropertyOp6
 70
     1
102
RTVSPropertyOp7
 70
     1
102
RTVSPropertyOp8
 70
     1
102
RTVSPropertyOp9
 70
     1
102
RTVSPropertyOp10
 70
     1
102
RTVSPropertyOp11
 70
     1
102
RTVSPropertyOp12
 70
     1
102
RTVSPropertyOp13
 70
     1
102
RTVSPropertyOp14
 70
     1
102
RTVSPropertyOp15
 70
     1
102
RTVSPropertyOp16
 70
     1
102
RTVSPropertyOp17
 70
     1
102
RTVSPropertyOp18
 70
     1
102
RTVSPropertyOp19
 70
     1
102
RTVSPropertyOp20
 70
     1
102
RTVSPropertyOp21
 70
     1
102
RTVSPropertyOp22
 70
     1
102
RTVSPropertyOp23
 70
     1
102
RTVSPropertyOp24
 70
     1
102
RTVSPropertyOp25
 70
     1
102
RTVSPropertyOp26
 70
     1
102
RTVSPropertyOp27
 70
     1
102
RTVSPropertyOp28
 70
     1
102
RTVSPropertyOp29
 70
     1
102
RTVSPropertyOp30
 70
     1
102
RTVSPropertyOp31
 70
     1
102
RTVSPropertyOp32
 70
     1
102
RTVSPropertyOp33
 70
     1
102
RTVSPropertyOp34
 70
     1
102
RTVSPropertyOp35
 70
     1
102
RTVSPropertyOp36
 70
     1
102
RTVSPropertyOp37
 70
     1
102
RTVSPropertyOp38
 70
     1
102
RTVSPropertyOp39
 70
     1
102
RTVSPropertyOp40
 70
     1
102
RTVSPropertyOp41
 70
     1
102
RTVSPropertyOp42
 70
     1
102
RTVSPropertyOp43
 70
     1
102
RTVSPropertyOp44
 70
     1
102
RTVSPropertyOp45
 70
     1
102
RTVSPropertyOp46
 70
     1
102
RTVSPropertyOp47
 70
     1
102
RTVSPropertyOp48
 70
     1
102
RTVSPropertyOp49
 70
     1
102
RTVSPropertyOp50
 70
     1
102
RTVSPropertyOp51
 70
     0
102
RTVSPropertyOp52
 70
     0
102
RTVSPropertyOp53
 70
     1
102
RTVSPropertyOp54
 70
     1
102
RTVSPropertyOp55
 70
     1
102
RTVSPropertyOp56
 70
     1
102
RTVSPropertyOp57
 70
     1
102
RTVSPost2010Prop28
280
     0
102
RTVSPost2010PropOp28
 70
     1
102
RTVSPost2010Prop29
280
     1
102
RTVSPost2010PropOp29
 70
     1
102
RTVSPost2010Prop30
280
     1
102
RTVSPost2010PropOp30
 70
     1
102
RTVSPost2010Prop31
280
     0
102
RTVSPost2010PropOp31
 70
     1
102
RTVSPost2010Prop32
280
     0
102
RTVSPost2010PropOp32
 70
     1
102
RTVSPost2010Prop33
280
     0
102
RTVSPost2010PropOp33
 70
     1
102
RTVSPost2010Prop34
280
     0
102
RTVSPost2010PropOp34
 70
     1
102
RTVSPost2010Prop35
280
     0
102
RTVSPost2010PropOp35
 70
     1
102
RTVSPost2010Prop36
280
     0
102
RTVSPost2010PropOp36
 70
     1
102
RTVSPost2010Prop37
 90
       50
102
RTVSPost2010PropOp37
 70
     1
102
RTVSPost2010Prop38
140
0.0
102
RTVSPost2010PropOp38
 70
     1
102
RTVSPost2010Prop39
140
1.0
102
RTVSPost2010PropOp39
 70
     1
102
RTVSPost2010Prop40
 90
        0
102
RTVSPost2010PropOp40
 70
     1
102
RTVSPost2010Prop41ColorIndex
 90
       18
102
RTVSPost2010Prop41ColorRGB
 90
        0
102
RTVSPost2010PropOp41
 70
     1
102
RTVSPost2010Prop42
 90
       50
102
RTVSPost2010PropOp42
 70
     1
102
RTVSPost2010Prop43
 90
        3
102
RTVSPost2010PropOp43
 70
     1
102
RTVSPost2010Prop44ColorIndex
 90
        5
102
RTVSPost2010Prop44ColorRGB
 90
      255
102
RTVSPost2010PropOp44
 70
     1
102
RTVSPost2010Prop45
280
     0
102
RTVSPost2010PropOp45
 70
     1
102
RTVSPost2010Prop46
 90
       50
102
RTVSPost2010PropOp46
 70
     1
102
RTVSPost2010Prop47
 90
       50
102
RTVSPost2010PropOp47
 70
     1
102
RTVSPost2010Prop48
 90
       50
102
RTVSPost2010PropOp48
 70
     1
102
RTVSPost2010Prop49
280
     0
102
RTVSPost2010PropOp49
 70
     1
102
RTVSPost2010Prop50
 90
       50
102
RTVSPost2010PropOp50
 70
     1
102
RTVSPost2010Prop51ColorIndex
 90
      256
102
RTVSPost2010Prop51ColorRGB
 90
-16777216
102
RTVSPost2010PropOp51
 70
     0
102
RTVSPost2010Prop52
140
1.0
102
RTVSPost2010PropOp52
 70
     0
102
RTVSPost2010Prop53
 90
        2
102
RTVSPost2010PropOp53
 70
     1
102
RTVSPost2010Prop54
  1
strokes_ogs.tif
102
RTVSPost2010PropOp54
 70
     1
102
RTVSPost2010Prop55
280
     0
102
RTVSPost2010PropOp55
 70
     1
102
RTVSPost2010Prop56
140
1.0
102
RTVSPost2010PropOp56
 70
     1
102
RTVSPost2010Prop57
140
1.0
102
RTVSPost2010PropOp57
 70
     1
  0
XRECORD
  5
355
102
{ACAD_REACTORS
330
354
102
}
330
354
100
AcDbXrecord
280
     1
102
RTVSPropertyOp0
 70
     1
102
RTVSPropertyOp1
 70
     1
102
RTVSPropertyOp2
 70
     1
102
RTVSPropertyOp3
 70
     1
102
RTVSPropertyOp4
 70
     1
102
RTVSPropertyOp5
 70
     1
102
RTVSPropertyOp6
 70
     1
102
RTVSPropertyOp7
 70
     1
102
RTVSPropertyOp8
 70
     1
102
RTVSPropertyOp9
 70
     1
102
RTVSPropertyOp10
 70
     1
102
RTVSPropertyOp11
 70
     1
102
RTVSPropertyOp12
 70
     1
102
RTVSPropertyOp13
 70
     1
102
RTVSPropertyOp14
 70
     1
102
RTVSPropertyOp15
 70
     1
102
RTVSPropertyOp16
 70
     1
102
RTVSPropertyOp17
 70
     1
102
RTVSPropertyOp18
 70
     1
102
RTVSPropertyOp19
 70
     1
102
RTVSPropertyOp20
 70
     1
102
RTVSPropertyOp21
 70
     1
102
RTVSPropertyOp22
 70
     1
102
RTVSPropertyOp23
 70
     1
102
RTVSPropertyOp24
 70
     1
102
RTVSPropertyOp25
 70
     1
102
RTVSPropertyOp26
 70
     1
102
RTVSPropertyOp27
 70
     1
102
RTVSPropertyOp28
 70
     1
102
RTVSPropertyOp29
 70
     1
102
RTVSPropertyOp30
 70
     1
102
RTVSPropertyOp31
 70
     1
102
RTVSPropertyOp32
 70
     1
102
RTVSPropertyOp33
 70
     1
102
RTVSPropertyOp34
 70
     1
102
RTVSPropertyOp35
 70
     1
102
RTVSPropertyOp36
 70
     1
102
RTVSPropertyOp37
 70
     1
102
RTVSPropertyOp38
 70
     1
102
RTVSPropertyOp39
 70
     1
102
RTVSPropertyOp40
 70
     1
102
RTVSPropertyOp41
 70
     1
102
RTVSPropertyOp42
 70
     1
102
RTVSPropertyOp43
 70
     1
102
RTVSPropertyOp44
 70
     1
102
RTVSPropertyOp45
 70
     1
102
RTVSPropertyOp46
 70
     1
102
RTVSPropertyOp47
 70
     1
102
RTVSPropertyOp48
 70
     1
102
RTVSPropertyOp49
 70
     1
102
RTVSPropertyOp50
 70
     1
102
RTVSPropertyOp51
 70
     0
102
RTVSPropertyOp52
 70
     0
102
RTVSPropertyOp53
 70
     1
102
RTVSPropertyOp54
 70
     1
102
RTVSPropertyOp55
 70
     1
102
RTVSPropertyOp56
 70
     1
102
RTVSPropertyOp57
 70
     1
102
RTVSPost2010Prop28
280
     0
102
RTVSPost2010PropOp28
 70
     1
102
RTVSPost2010Prop29
280
     1
102
RTVSPost2010PropOp29
 70
     1
102
RTVSPost2010Prop30
280
     1
102
RTVSPost2010PropOp30
 70
     1
102
RTVSPost2010Prop31
280
     0
102
RTVSPost2010PropOp31
 70
     1
102
RTVSPost2010Prop32
280
     0
102
RTVSPost2010PropOp32
 70
     1
102
RTVSPost2010Prop33
280
     0
102
RTVSPost2010PropOp33
 70
     1
102
RTVSPost2010Prop34
280
     0
102
RTVSPost2010PropOp34
 70
     1
102
RTVSPost2010Prop35
280
     0
102
RTVSPost2010PropOp35
 70
     1
102
RTVSPost2010Prop36
280
     0
102
RTVSPost2010PropOp36
 70
     1
102
RTVSPost2010Prop37
 90
       50
102
RTVSPost2010PropOp37
 70
     1
102
RTVSPost2010Prop38
140
0.0
102
RTVSPost2010PropOp38
 70
     1
102
RTVSPost2010Prop39
140
1.0
102
RTVSPost2010PropOp39
 70
     1
102
RTVSPost2010Prop40
 90
        0
102
RTVSPost2010PropOp40
 70
     1
102
RTVSPost2010Prop41ColorIndex
 90
       18
102
RTVSPost2010Prop41ColorRGB
 90
        0
102
RTVSPost2010PropOp41
 70
     1
102
RTVSPost2010Prop42
 90
       50
102
RTVSPost2010PropOp42
 70
     1
102
RTVSPost2010Prop43
 90
        3
102
RTVSPost2010PropOp43
 70
     1
102
RTVSPost2010Prop44ColorIndex
 90
        5
102
RTVSPost2010Prop44ColorRGB
 90
      255
102
RTVSPost2010PropOp44
 70
     1
102
RTVSPost2010Prop45
280
     0
102
RTVSPost2010PropOp45
 70
     1
102
RTVSPost2010Prop46
 90
       50
102
RTVSPost2010PropOp46
 70
     1
102
RTVSPost2010Prop47
 90
       50
102
RTVSPost2010PropOp47
 70
     1
102
RTVSPost2010Prop48
 90
       50
102
RTVSPost2010PropOp48
 70
     1
102
RTVSPost2010Prop49
280
     0
102
RTVSPost2010PropOp49
 70
     1
102
RTVSPost2010Prop50
 90
       50
102
RTVSPost2010PropOp50
 70
     1
102
RTVSPost2010Prop51ColorIndex
 90
      256
102
RTVSPost2010Prop51ColorRGB
 90
-16777216
102
RTVSPost2010PropOp51
 70
     0
102
RTVSPost2010Prop52
140
1.0
102
RTVSPost2010PropOp52
 70
     0
102
RTVSPost2010Prop53
 90
        2
102
RTVSPost2010PropOp53
 70
     1
102
RTVSPost2010Prop54
  1
strokes_ogs.tif
102
RTVSPost2010PropOp54
 70
     1
102
RTVSPost2010Prop55
280
     0
102
RTVSPost2010PropOp55
 70
     1
102
RTVSPost2010Prop56
140
1.0
102
RTVSPost2010PropOp56
 70
     1
102
RTVSPost2010Prop57
140
1.0
102
RTVSPost2010PropOp57
 70
     1
  0
XRECORD
  5
349
102
{ACAD_REACTORS
330
348
102
}
330
348
100
AcDbXrecord
280
     1
102
RTVSPropertyOp0
 70
     1
102
RTVSPropertyOp1
 70
     1
102
RTVSPropertyOp2
 70
     1
102
RTVSPropertyOp3
 70
     1
102
RTVSPropertyOp4
 70
     1
102
RTVSPropertyOp5
 70
     1
102
RTVSPropertyOp6
 70
     1
102
RTVSPropertyOp7
 70
     1
102
RTVSPropertyOp8
 70
     1
102
RTVSPropertyOp9
 70
     1
102
RTVSPropertyOp10
 70
     1
102
RTVSPropertyOp11
 70
     1
102
RTVSPropertyOp12
 70
     1
102
RTVSPropertyOp13
 70
     1
102
RTVSPropertyOp14
 70
     1
102
RTVSPropertyOp15
 70
     1
102
RTVSPropertyOp16
 70
     1
102
RTVSPropertyOp17
 70
     1
102
RTVSPropertyOp18
 70
     1
102
RTVSPropertyOp19
 70
     1
102
RTVSPropertyOp20
 70
     1
102
RTVSPropertyOp21
 70
     1
102
RTVSPropertyOp22
 70
     1
102
RTVSPropertyOp23
 70
     1
102
RTVSPropertyOp24
 70
     1
102
RTVSPropertyOp25
 70
     1
102
RTVSPropertyOp26
 70
     1
102
RTVSPropertyOp27
 70
     1
102
RTVSPropertyOp28
 70
     1
102
RTVSPropertyOp29
 70
     1
102
RTVSPropertyOp30
 70
     1
102
RTVSPropertyOp31
 70
     1
102
RTVSPropertyOp32
 70
     1
102
RTVSPropertyOp33
 70
     1
102
RTVSPropertyOp34
 70
     1
102
RTVSPropertyOp35
 70
     1
102
RTVSPropertyOp36
 70
     1
102
RTVSPropertyOp37
 70
     1
102
RTVSPropertyOp38
 70
     1
102
RTVSPropertyOp39
 70
     1
102
RTVSPropertyOp40
 70
     1
102
RTVSPropertyOp41
 70
     1
102
RTVSPropertyOp42
 70
     1
102
RTVSPropertyOp43
 70
     1
102
RTVSPropertyOp44
 70
     1
102
RTVSPropertyOp45
 70
     1
102
RTVSPropertyOp46
 70
     1
102
RTVSPropertyOp47
 70
     1
102
RTVSPropertyOp48
 70
     1
102
RTVSPropertyOp49
 70
     1
102
RTVSPropertyOp50
 70
     1
102
RTVSPropertyOp51
 70
     0
102
RTVSPropertyOp52
 70
     0
102
RTVSPropertyOp53
 70
     1
102
RTVSPropertyOp54
 70
     1
102
RTVSPropertyOp55
 70
     1
102
RTVSPropertyOp56
 70
     1
102
RTVSPropertyOp57
 70
     1
102
RTVSPost2010Prop28
280
     0
102
RTVSPost2010PropOp28
 70
     1
102
RTVSPost2010Prop29
280
     1
102
RTVSPost2010PropOp29
 70
     1
102
RTVSPost2010Prop30
280
     1
102
RTVSPost2010PropOp30
 70
     1
102
RTVSPost2010Prop31
280
     0
102
RTVSPost2010PropOp31
 70
     1
102
RTVSPost2010Prop32
280
     0
102
RTVSPost2010PropOp32
 70
     1
102
RTVSPost2010Prop33
280
     0
102
RTVSPost2010PropOp33
 70
     1
102
RTVSPost2010Prop34
280
     0
102
RTVSPost2010PropOp34
 70
     1
102
RTVSPost2010Prop35
280
     0
102
RTVSPost2010PropOp35
 70
     1
102
RTVSPost2010Prop36
280
     0
102
RTVSPost2010PropOp36
 70
     1
102
RTVSPost2010Prop37
 90
       50
102
RTVSPost2010PropOp37
 70
     1
102
RTVSPost2010Prop38
140
0.0
102
RTVSPost2010PropOp38
 70
     1
102
RTVSPost2010Prop39
140
1.0
102
RTVSPost2010PropOp39
 70
     1
102
RTVSPost2010Prop40
 90
        0
102
RTVSPost2010PropOp40
 70
     1
102
RTVSPost2010Prop41ColorIndex
 90
       18
102
RTVSPost2010Prop41ColorRGB
 90
        0
102
RTVSPost2010PropOp41
 70
     1
102
RTVSPost2010Prop42
 90
       50
102
RTVSPost2010PropOp42
 70
     1
102
RTVSPost2010Prop43
 90
        3
102
RTVSPost2010PropOp43
 70
     1
102
RTVSPost2010Prop44ColorIndex
 90
        5
102
RTVSPost2010Prop44ColorRGB
 90
      255
102
RTVSPost2010PropOp44
 70
     1
102
RTVSPost2010Prop45
280
     0
102
RTVSPost2010PropOp45
 70
     1
102
RTVSPost2010Prop46
 90
       50
102
RTVSPost2010PropOp46
 70
     1
102
RTVSPost2010Prop47
 90
       50
102
RTVSPost2010PropOp47
 70
     1
102
RTVSPost2010Prop48
 90
       50
102
RTVSPost2010PropOp48
 70
     1
102
RTVSPost2010Prop49
280
     0
102
RTVSPost2010PropOp49
 70
     1
102
RTVSPost2010Prop50
 90
       50
102
RTVSPost2010PropOp50
 70
     1
102
RTVSPost2010Prop51ColorIndex
 90
      256
102
RTVSPost2010Prop51ColorRGB
 90
-16777216
102
RTVSPost2010PropOp51
 70
     0
102
RTVSPost2010Prop52
140
1.0
102
RTVSPost2010PropOp52
 70
     0
102
RTVSPost2010Prop53
 90
        2
102
RTVSPost2010PropOp53
 70
     1
102
RTVSPost2010Prop54
  1
strokes_ogs.tif
102
RTVSPost2010PropOp54
 70
     1
102
RTVSPost2010Prop55
280
     0
102
RTVSPost2010PropOp55
 70
     1
102
RTVSPost2010Prop56
140
1.0
102
RTVSPost2010PropOp56
 70
     1
102
RTVSPost2010Prop57
140
1.0
102
RTVSPost2010PropOp57
 70
     1
  0
XRECORD
  5
34B
102
{ACAD_REACTORS
330
34A
102
}
330
34A
100
AcDbXrecord
280
     1
102
RTVSPropertyOp0
 70
     1
102
RTVSPropertyOp1
 70
     1
102
RTVSPropertyOp2
 70
     1
102
RTVSPropertyOp3
 70
     1
102
RTVSPropertyOp4
 70
     1
102
RTVSPropertyOp5
 70
     1
102
RTVSPropertyOp6
 70
     1
102
RTVSPropertyOp7
 70
     1
102
RTVSPropertyOp8
 70
     1
102
RTVSPropertyOp9
 70
     1
102
RTVSPropertyOp10
 70
     1
102
RTVSPropertyOp11
 70
     1
102
RTVSPropertyOp12
 70
     1
102
RTVSPropertyOp13
 70
     1
102
RTVSPropertyOp14
 70
     1
102
RTVSPropertyOp15
 70
     1
102
RTVSPropertyOp16
 70
     1
102
RTVSPropertyOp17
 70
     1
102
RTVSPropertyOp18
 70
     1
102
RTVSPropertyOp19
 70
     1
102
RTVSPropertyOp20
 70
     1
102
RTVSPropertyOp21
 70
     1
102
RTVSPropertyOp22
 70
     1
102
RTVSPropertyOp23
 70
     1
102
RTVSPropertyOp24
 70
     1
102
RTVSPropertyOp25
 70
     1
102
RTVSPropertyOp26
 70
     1
102
RTVSPropertyOp27
 70
     1
102
RTVSPropertyOp28
 70
     1
102
RTVSPropertyOp29
 70
     1
102
RTVSPropertyOp30
 70
     1
102
RTVSPropertyOp31
 70
     1
102
RTVSPropertyOp32
 70
     1
102
RTVSPropertyOp33
 70
     1
102
RTVSPropertyOp34
 70
     1
102
RTVSPropertyOp35
 70
     1
102
RTVSPropertyOp36
 70
     1
102
RTVSPropertyOp37
 70
     1
102
RTVSPropertyOp38
 70
     1
102
RTVSPropertyOp39
 70
     1
102
RTVSPropertyOp40
 70
     1
102
RTVSPropertyOp41
 70
     1
102
RTVSPropertyOp42
 70
     1
102
RTVSPropertyOp43
 70
     1
102
RTVSPropertyOp44
 70
     1
102
RTVSPropertyOp45
 70
     1
102
RTVSPropertyOp46
 70
     1
102
RTVSPropertyOp47
 70
     1
102
RTVSPropertyOp48
 70
     1
102
RTVSPropertyOp49
 70
     1
102
RTVSPropertyOp50
 70
     1
102
RTVSPropertyOp51
 70
     0
102
RTVSPropertyOp52
 70
     0
102
RTVSPropertyOp53
 70
     1
102
RTVSPropertyOp54
 70
     1
102
RTVSPropertyOp55
 70
     1
102
RTVSPropertyOp56
 70
     1
102
RTVSPropertyOp57
 70
     1
102
RTVSPost2010Prop28
280
     0
102
RTVSPost2010PropOp28
 70
     1
102
RTVSPost2010Prop29
280
     1
102
RTVSPost2010PropOp29
 70
     1
102
RTVSPost2010Prop30
280
     1
102
RTVSPost2010PropOp30
 70
     1
102
RTVSPost2010Prop31
280
     0
102
RTVSPost2010PropOp31
 70
     1
102
RTVSPost2010Prop32
280
     0
102
RTVSPost2010PropOp32
 70
     1
102
RTVSPost2010Prop33
280
     0
102
RTVSPost2010PropOp33
 70
     1
102
RTVSPost2010Prop34
280
     0
102
RTVSPost2010PropOp34
 70
     1
102
RTVSPost2010Prop35
280
     0
102
RTVSPost2010PropOp35
 70
     1
102
RTVSPost2010Prop36
280
     0
102
RTVSPost2010PropOp36
 70
     1
102
RTVSPost2010Prop37
 90
       50
102
RTVSPost2010PropOp37
 70
     1
102
RTVSPost2010Prop38
140
0.0
102
RTVSPost2010PropOp38
 70
     1
102
RTVSPost2010Prop39
140
1.0
102
RTVSPost2010PropOp39
 70
     1
102
RTVSPost2010Prop40
 90
        0
102
RTVSPost2010PropOp40
 70
     1
102
RTVSPost2010Prop41ColorIndex
 90
       18
102
RTVSPost2010Prop41ColorRGB
 90
        0
102
RTVSPost2010PropOp41
 70
     1
102
RTVSPost2010Prop42
 90
       50
102
RTVSPost2010PropOp42
 70
     1
102
RTVSPost2010Prop43
 90
        3
102
RTVSPost2010PropOp43
 70
     1
102
RTVSPost2010Prop44ColorIndex
 90
        5
102
RTVSPost2010Prop44ColorRGB
 90
      255
102
RTVSPost2010PropOp44
 70
     1
102
RTVSPost2010Prop45
280
     0
102
RTVSPost2010PropOp45
 70
     1
102
RTVSPost2010Prop46
 90
       50
102
RTVSPost2010PropOp46
 70
     1
102
RTVSPost2010Prop47
 90
       50
102
RTVSPost2010PropOp47
 70
     1
102
RTVSPost2010Prop48
 90
       50
102
RTVSPost2010PropOp48
 70
     1
102
RTVSPost2010Prop49
280
     0
102
RTVSPost2010PropOp49
 70
     1
102
RTVSPost2010Prop50
 90
       50
102
RTVSPost2010PropOp50
 70
     1
102
RTVSPost2010Prop51ColorIndex
 90
      256
102
RTVSPost2010Prop51ColorRGB
 90
-16777216
102
RTVSPost2010PropOp51
 70
     0
102
RTVSPost2010Prop52
140
1.0
102
RTVSPost2010PropOp52
 70
     0
102
RTVSPost2010Prop53
 90
        2
102
RTVSPost2010PropOp53
 70
     1
102
RTVSPost2010Prop54
  1
strokes_ogs.tif
102
RTVSPost2010PropOp54
 70
     1
102
RTVSPost2010Prop55
280
     0
102
RTVSPost2010PropOp55
 70
     1
102
RTVSPost2010Prop56
140
1.0
102
RTVSPost2010PropOp56
 70
     1
102
RTVSPost2010Prop57
140
1.0
102
RTVSPost2010PropOp57
 70
     1
  0
XRECORD
  5
35B
102
{ACAD_REACTORS
330
35A
102
}
330
35A
100
AcDbXrecord
280
     1
102
RTVSPropertyOp0
 70
     0
102
RTVSPropertyOp1
 70
     0
102
RTVSPropertyOp2
 70
     0
102
RTVSPropertyOp3
 70
     0
102
RTVSPropertyOp4
 70
     0
102
RTVSPropertyOp5
 70
     0
102
RTVSPropertyOp6
 70
     0
102
RTVSPropertyOp7
 70
     0
102
RTVSPropertyOp8
 70
     0
102
RTVSPropertyOp9
 70
     0
102
RTVSPropertyOp10
 70
     0
102
RTVSPropertyOp11
 70
     0
102
RTVSPropertyOp12
 70
     0
102
RTVSPropertyOp13
 70
     0
102
RTVSPropertyOp14
 70
     2
102
RTVSPropertyOp15
 70
     0
102
RTVSPropertyOp16
 70
     0
102
RTVSPropertyOp17
 70
     0
102
RTVSPropertyOp18
 70
     0
102
RTVSPropertyOp19
 70
     0
102
RTVSPropertyOp20
 70
     0
102
RTVSPropertyOp21
 70
     0
102
RTVSPropertyOp22
 70
     0
102
RTVSPropertyOp23
 70
     0
102
RTVSPropertyOp24
 70
     0
102
RTVSPropertyOp25
 70
     0
102
RTVSPropertyOp26
 70
     0
102
RTVSPropertyOp27
 70
     0
102
RTVSPropertyOp28
 70
     0
102
RTVSPropertyOp29
 70
     0
102
RTVSPropertyOp30
 70
     0
102
RTVSPropertyOp31
 70
     0
102
RTVSPropertyOp32
 70
     0
102
RTVSPropertyOp33
 70
     0
102
RTVSPropertyOp34
 70
     0
102
RTVSPropertyOp35
 70
     0
102
RTVSPropertyOp36
 70
     0
102
RTVSPropertyOp37
 70
     0
102
RTVSPropertyOp38
 70
     0
102
RTVSPropertyOp39
 70
     0
102
RTVSPropertyOp40
 70
     0
102
RTVSPropertyOp41
 70
     0
102
RTVSPropertyOp42
 70
     0
102
RTVSPropertyOp43
 70
     0
102
RTVSPropertyOp44
 70
     0
102
RTVSPropertyOp45
 70
     0
102
RTVSPropertyOp46
 70
     0
102
RTVSPropertyOp47
 70
     0
102
RTVSPropertyOp48
 70
     0
102
RTVSPropertyOp49
 70
     0
102
RTVSPropertyOp50
 70
     0
102
RTVSPropertyOp51
 70
     0
102
RTVSPropertyOp52
 70
     0
102
RTVSPropertyOp53
 70
     0
102
RTVSPropertyOp54
 70
     0
102
RTVSPropertyOp55
 70
     0
102
RTVSPropertyOp56
 70
     0
102
RTVSPropertyOp57
 70
     0
102
RTVSPost2010Prop28
280
     0
102
RTVSPost2010PropOp28
 70
     0
102
RTVSPost2010Prop29
280
     1
102
RTVSPost2010PropOp29
 70
     0
102
RTVSPost2010Prop30
280
     1
102
RTVSPost2010PropOp30
 70
     0
102
RTVSPost2010Prop31
280
     0
102
RTVSPost2010PropOp31
 70
     0
102
RTVSPost2010Prop32
280
     0
102
RTVSPost2010PropOp32
 70
     0
102
RTVSPost2010Prop33
280
     0
102
RTVSPost2010PropOp33
 70
     0
102
RTVSPost2010Prop34
280
     0
102
RTVSPost2010PropOp34
 70
     0
102
RTVSPost2010Prop35
280
     0
102
RTVSPost2010PropOp35
 70
     0
102
RTVSPost2010Prop36
280
     0
102
RTVSPost2010PropOp36
 70
     0
102
RTVSPost2010Prop37
 90
       50
102
RTVSPost2010PropOp37
 70
     0
102
RTVSPost2010Prop38
140
0.0
102
RTVSPost2010PropOp38
 70
     0
102
RTVSPost2010Prop39
140
1.0
102
RTVSPost2010PropOp39
 70
     0
102
RTVSPost2010Prop40
 90
        0
102
RTVSPost2010PropOp40
 70
     0
102
RTVSPost2010Prop41ColorIndex
 90
       18
102
RTVSPost2010Prop41ColorRGB
 90
        0
102
RTVSPost2010PropOp41
 70
     0
102
RTVSPost2010Prop42
 90
       50
102
RTVSPost2010PropOp42
 70
     0
102
RTVSPost2010Prop43
 90
        3
102
RTVSPost2010PropOp43
 70
     0
102
RTVSPost2010Prop44ColorIndex
 90
        5
102
RTVSPost2010Prop44ColorRGB
 90
      255
102
RTVSPost2010PropOp44
 70
     0
102
RTVSPost2010Prop45
280
     0
102
RTVSPost2010PropOp45
 70
     0
102
RTVSPost2010Prop46
 90
       50
102
RTVSPost2010PropOp46
 70
     0
102
RTVSPost2010Prop47
 90
       50
102
RTVSPost2010PropOp47
 70
     0
102
RTVSPost2010Prop48
 90
       50
102
RTVSPost2010PropOp48
 70
     0
102
RTVSPost2010Prop49
280
     0
102
RTVSPost2010PropOp49
 70
     0
102
RTVSPost2010Prop50
 90
       50
102
RTVSPost2010PropOp50
 70
     0
102
RTVSPost2010Prop51ColorIndex
 90
      256
102
RTVSPost2010Prop51ColorRGB
 90
-16777216
102
RTVSPost2010PropOp51
 70
     0
102
RTVSPost2010Prop52
140
1.0
102
RTVSPost2010PropOp52
 70
     0
102
RTVSPost2010Prop53
 90
        2
102
RTVSPost2010PropOp53
 70
     0
102
RTVSPost2010Prop54
  1
strokes_ogs.tif
102
RTVSPost2010PropOp54
 70
     0
102
RTVSPost2010Prop55
280
     0
102
RTVSPost2010PropOp55
 70
     0
102
RTVSPost2010Prop56
140
1.0
102
RTVSPost2010PropOp56
 70
     0
102
RTVSPost2010Prop57
140
1.0
102
RTVSPost2010PropOp57
 70
     0
  0
XRECORD
  5
353
102
{ACAD_REACTORS
330
352
102
}
330
352
100
AcDbXrecord
280
     1
102
RTVSPropertyOp0
 70
     1
102
RTVSPropertyOp1
 70
     1
102
RTVSPropertyOp2
 70
     1
102
RTVSPropertyOp3
 70
     1
102
RTVSPropertyOp4
 70
     1
102
RTVSPropertyOp5
 70
     1
102
RTVSPropertyOp6
 70
     1
102
RTVSPropertyOp7
 70
     1
102
RTVSPropertyOp8
 70
     1
102
RTVSPropertyOp9
 70
     1
102
RTVSPropertyOp10
 70
     1
102
RTVSPropertyOp11
 70
     1
102
RTVSPropertyOp12
 70
     1
102
RTVSPropertyOp13
 70
     1
102
RTVSPropertyOp14
 70
     1
102
RTVSPropertyOp15
 70
     1
102
RTVSPropertyOp16
 70
     1
102
RTVSPropertyOp17
 70
     1
102
RTVSPropertyOp18
 70
     1
102
RTVSPropertyOp19
 70
     1
102
RTVSPropertyOp20
 70
     1
102
RTVSPropertyOp21
 70
     1
102
RTVSPropertyOp22
 70
     1
102
RTVSPropertyOp23
 70
     1
102
RTVSPropertyOp24
 70
     1
102
RTVSPropertyOp25
 70
     1
102
RTVSPropertyOp26
 70
     1
102
RTVSPropertyOp27
 70
     1
102
RTVSPropertyOp28
 70
     1
102
RTVSPropertyOp29
 70
     1
102
RTVSPropertyOp30
 70
     1
102
RTVSPropertyOp31
 70
     1
102
RTVSPropertyOp32
 70
     1
102
RTVSPropertyOp33
 70
     1
102
RTVSPropertyOp34
 70
     1
102
RTVSPropertyOp35
 70
     1
102
RTVSPropertyOp36
 70
     1
102
RTVSPropertyOp37
 70
     1
102
RTVSPropertyOp38
 70
     1
102
RTVSPropertyOp39
 70
     1
102
RTVSPropertyOp40
 70
     1
102
RTVSPropertyOp41
 70
     1
102
RTVSPropertyOp42
 70
     1
102
RTVSPropertyOp43
 70
     1
102
RTVSPropertyOp44
 70
     1
102
RTVSPropertyOp45
 70
     1
102
RTVSPropertyOp46
 70
     1
102
RTVSPropertyOp47
 70
     1
102
RTVSPropertyOp48
 70
     1
102
RTVSPropertyOp49
 70
     1
102
RTVSPropertyOp50
 70
     1
102
RTVSPropertyOp51
 70
     0
102
RTVSPropertyOp52
 70
     0
102
RTVSPropertyOp53
 70
     1
102
RTVSPropertyOp54
 70
     1
102
RTVSPropertyOp55
 70
     1
102
RTVSPropertyOp56
 70
     1
102
RTVSPropertyOp57
 70
     1
102
RTVSPost2010Prop28
280
     0
102
RTVSPost2010PropOp28
 70
     1
102
RTVSPost2010Prop29
280
     1
102
RTVSPost2010PropOp29
 70
     1
102
RTVSPost2010Prop30
280
     1
102
RTVSPost2010PropOp30
 70
     1
102
RTVSPost2010Prop31
280
     0
102
RTVSPost2010PropOp31
 70
     1
102
RTVSPost2010Prop32
280
     0
102
RTVSPost2010PropOp32
 70
     1
102
RTVSPost2010Prop33
280
     0
102
RTVSPost2010PropOp33
 70
     1
102
RTVSPost2010Prop34
280
     0
102
RTVSPost2010PropOp34
 70
     1
102
RTVSPost2010Prop35
280
     0
102
RTVSPost2010PropOp35
 70
     1
102
RTVSPost2010Prop36
280
     0
102
RTVSPost2010PropOp36
 70
     1
102
RTVSPost2010Prop37
 90
       50
102
RTVSPost2010PropOp37
 70
     1
102
RTVSPost2010Prop38
140
0.0
102
RTVSPost2010PropOp38
 70
     1
102
RTVSPost2010Prop39
140
1.0
102
RTVSPost2010PropOp39
 70
     1
102
RTVSPost2010Prop40
 90
        0
102
RTVSPost2010PropOp40
 70
     1
102
RTVSPost2010Prop41ColorIndex
 90
       18
102
RTVSPost2010Prop41ColorRGB
 90
        0
102
RTVSPost2010PropOp41
 70
     1
102
RTVSPost2010Prop42
 90
       50
102
RTVSPost2010PropOp42
 70
     1
102
RTVSPost2010Prop43
 90
        3
102
RTVSPost2010PropOp43
 70
     1
102
RTVSPost2010Prop44ColorIndex
 90
        5
102
RTVSPost2010Prop44ColorRGB
 90
      255
102
RTVSPost2010PropOp44
 70
     1
102
RTVSPost2010Prop45
280
     0
102
RTVSPost2010PropOp45
 70
     1
102
RTVSPost2010Prop46
 90
       50
102
RTVSPost2010PropOp46
 70
     1
102
RTVSPost2010Prop47
 90
       50
102
RTVSPost2010PropOp47
 70
     1
102
RTVSPost2010Prop48
 90
       50
102
RTVSPost2010PropOp48
 70
     1
102
RTVSPost2010Prop49
280
     0
102
RTVSPost2010PropOp49
 70
     1
102
RTVSPost2010Prop50
 90
       50
102
RTVSPost2010PropOp50
 70
     1
102
RTVSPost2010Prop51ColorIndex
 90
      256
102
RTVSPost2010Prop51ColorRGB
 90
-16777216
102
RTVSPost2010PropOp51
 70
     0
102
RTVSPost2010Prop52
140
1.0
102
RTVSPost2010PropOp52
 70
     0
102
RTVSPost2010Prop53
 90
        2
102
RTVSPost2010PropOp53
 70
     1
102
RTVSPost2010Prop54
  1
strokes_ogs.tif
102
RTVSPost2010PropOp54
 70
     1
102
RTVSPost2010Prop55
280
     0
102
RTVSPost2010PropOp55
 70
     1
102
RTVSPost2010Prop56
140
1.0
102
RTVSPost2010PropOp56
 70
     1
102
RTVSPost2010Prop57
140
1.0
102
RTVSPost2010PropOp57
 70
     1
  0
XRECORD
  5
337
102
{ACAD_REACTORS
330
336
102
}
330
336
100
AcDbXrecord
280
     1
102
RTVSPropertyOp0
 70
     1
102
RTVSPropertyOp1
 70
     1
102
RTVSPropertyOp2
 70
     1
102
RTVSPropertyOp3
 70
     1
102
RTVSPropertyOp4
 70
     1
102
RTVSPropertyOp5
 70
     1
102
RTVSPropertyOp6
 70
     1
102
RTVSPropertyOp7
 70
     1
102
RTVSPropertyOp8
 70
     1
102
RTVSPropertyOp9
 70
     1
102
RTVSPropertyOp10
 70
     1
102
RTVSPropertyOp11
 70
     1
102
RTVSPropertyOp12
 70
     1
102
RTVSPropertyOp13
 70
     1
102
RTVSPropertyOp14
 70
     1
102
RTVSPropertyOp15
 70
     1
102
RTVSPropertyOp16
 70
     1
102
RTVSPropertyOp17
 70
     1
102
RTVSPropertyOp18
 70
     1
102
RTVSPropertyOp19
 70
     1
102
RTVSPropertyOp20
 70
     1
102
RTVSPropertyOp21
 70
     1
102
RTVSPropertyOp22
 70
     1
102
RTVSPropertyOp23
 70
     1
102
RTVSPropertyOp24
 70
     1
102
RTVSPropertyOp25
 70
     1
102
RTVSPropertyOp26
 70
     1
102
RTVSPropertyOp27
 70
     1
102
RTVSPropertyOp28
 70
     1
102
RTVSPropertyOp29
 70
     1
102
RTVSPropertyOp30
 70
     1
102
RTVSPropertyOp31
 70
     1
102
RTVSPropertyOp32
 70
     1
102
RTVSPropertyOp33
 70
     1
102
RTVSPropertyOp34
 70
     1
102
RTVSPropertyOp35
 70
     1
102
RTVSPropertyOp36
 70
     1
102
RTVSPropertyOp37
 70
     1
102
RTVSPropertyOp38
 70
     1
102
RTVSPropertyOp39
 70
     1
102
RTVSPropertyOp40
 70
     1
102
RTVSPropertyOp41
 70
     1
102
RTVSPropertyOp42
 70
     1
102
RTVSPropertyOp43
 70
     1
102
RTVSPropertyOp44
 70
     1
102
RTVSPropertyOp45
 70
     1
102
RTVSPropertyOp46
 70
     1
102
RTVSPropertyOp47
 70
     1
102
RTVSPropertyOp48
 70
     1
102
RTVSPropertyOp49
 70
     1
102
RTVSPropertyOp50
 70
     1
102
RTVSPropertyOp51
 70
     0
102
RTVSPropertyOp52
 70
     0
102
RTVSPropertyOp53
 70
     1
102
RTVSPropertyOp54
 70
     1
102
RTVSPropertyOp55
 70
     1
102
RTVSPropertyOp56
 70
     1
102
RTVSPropertyOp57
 70
     1
102
RTVSPost2010Prop28
280
     0
102
RTVSPost2010PropOp28
 70
     1
102
RTVSPost2010Prop29
280
     1
102
RTVSPost2010PropOp29
 70
     1
102
RTVSPost2010Prop30
280
     1
102
RTVSPost2010PropOp30
 70
     1
102
RTVSPost2010Prop31
280
     0
102
RTVSPost2010PropOp31
 70
     1
102
RTVSPost2010Prop32
280
     0
102
RTVSPost2010PropOp32
 70
     1
102
RTVSPost2010Prop33
280
     0
102
RTVSPost2010PropOp33
 70
     1
102
RTVSPost2010Prop34
280
     0
102
RTVSPost2010PropOp34
 70
     1
102
RTVSPost2010Prop35
280
     0
102
RTVSPost2010PropOp35
 70
     1
102
RTVSPost2010Prop36
280
     0
102
RTVSPost2010PropOp36
 70
     1
102
RTVSPost2010Prop37
 90
       50
102
RTVSPost2010PropOp37
 70
     1
102
RTVSPost2010Prop38
140
0.0
102
RTVSPost2010PropOp38
 70
     1
102
RTVSPost2010Prop39
140
1.0
102
RTVSPost2010PropOp39
 70
     1
102
RTVSPost2010Prop40
 90
        0
102
RTVSPost2010PropOp40
 70
     1
102
RTVSPost2010Prop41ColorIndex
 90
       18
102
RTVSPost2010Prop41ColorRGB
 90
        0
102
RTVSPost2010PropOp41
 70
     1
102
RTVSPost2010Prop42
 90
       50
102
RTVSPost2010PropOp42
 70
     1
102
RTVSPost2010Prop43
 90
        3
102
RTVSPost2010PropOp43
 70
     1
102
RTVSPost2010Prop44ColorIndex
 90
        5
102
RTVSPost2010Prop44ColorRGB
 90
      255
102
RTVSPost2010PropOp44
 70
     1
102
RTVSPost2010Prop45
280
     0
102
RTVSPost2010PropOp45
 70
     1
102
RTVSPost2010Prop46
 90
       50
102
RTVSPost2010PropOp46
 70
     1
102
RTVSPost2010Prop47
 90
       50
102
RTVSPost2010PropOp47
 70
     1
102
RTVSPost2010Prop48
 90
       50
102
RTVSPost2010PropOp48
 70
     1
102
RTVSPost2010Prop49
280
     0
102
RTVSPost2010PropOp49
 70
     1
102
RTVSPost2010Prop50
 90
       50
102
RTVSPost2010PropOp50
 70
     1
102
RTVSPost2010Prop51ColorIndex
 90
      256
102
RTVSPost2010Prop51ColorRGB
 90
-16777216
102
RTVSPost2010PropOp51
 70
     0
102
RTVSPost2010Prop52
140
1.0
102
RTVSPost2010PropOp52
 70
     0
102
RTVSPost2010Prop53
 90
        2
102
RTVSPost2010PropOp53
 70
     1
102
RTVSPost2010Prop54
  1
strokes_ogs.tif
102
RTVSPost2010PropOp54
 70
     1
102
RTVSPost2010Prop55
280
     0
102
RTVSPost2010PropOp55
 70
     1
102
RTVSPost2010Prop56
140
1.0
102
RTVSPost2010PropOp56
 70
     1
102
RTVSPost2010Prop57
140
1.0
102
RTVSPost2010PropOp57
 70
     1
  0
XRECORD
  5
339
102
{ACAD_REACTORS
330
338
102
}
330
338
100
AcDbXrecord
280
     1
102
RTVSPropertyOp0
 70
     1
102
RTVSPropertyOp1
 70
     1
102
RTVSPropertyOp2
 70
     1
102
RTVSPropertyOp3
 70
     1
102
RTVSPropertyOp4
 70
     1
102
RTVSPropertyOp5
 70
     1
102
RTVSPropertyOp6
 70
     1
102
RTVSPropertyOp7
 70
     1
102
RTVSPropertyOp8
 70
     1
102
RTVSPropertyOp9
 70
     1
102
RTVSPropertyOp10
 70
     1
102
RTVSPropertyOp11
 70
     1
102
RTVSPropertyOp12
 70
     1
102
RTVSPropertyOp13
 70
     1
102
RTVSPropertyOp14
 70
     1
102
RTVSPropertyOp15
 70
     1
102
RTVSPropertyOp16
 70
     1
102
RTVSPropertyOp17
 70
     1
102
RTVSPropertyOp18
 70
     1
102
RTVSPropertyOp19
 70
     1
102
RTVSPropertyOp20
 70
     1
102
RTVSPropertyOp21
 70
     1
102
RTVSPropertyOp22
 70
     1
102
RTVSPropertyOp23
 70
     1
102
RTVSPropertyOp24
 70
     1
102
RTVSPropertyOp25
 70
     1
102
RTVSPropertyOp26
 70
     1
102
RTVSPropertyOp27
 70
     1
102
RTVSPropertyOp28
 70
     1
102
RTVSPropertyOp29
 70
     1
102
RTVSPropertyOp30
 70
     1
102
RTVSPropertyOp31
 70
     1
102
RTVSPropertyOp32
 70
     1
102
RTVSPropertyOp33
 70
     1
102
RTVSPropertyOp34
 70
     1
102
RTVSPropertyOp35
 70
     1
102
RTVSPropertyOp36
 70
     1
102
RTVSPropertyOp37
 70
     1
102
RTVSPropertyOp38
 70
     1
102
RTVSPropertyOp39
 70
     1
102
RTVSPropertyOp40
 70
     1
102
RTVSPropertyOp41
 70
     1
102
RTVSPropertyOp42
 70
     1
102
RTVSPropertyOp43
 70
     1
102
RTVSPropertyOp44
 70
     1
102
RTVSPropertyOp45
 70
     1
102
RTVSPropertyOp46
 70
     1
102
RTVSPropertyOp47
 70
     1
102
RTVSPropertyOp48
 70
     1
102
RTVSPropertyOp49
 70
     1
102
RTVSPropertyOp50
 70
     1
102
RTVSPropertyOp51
 70
     0
102
RTVSPropertyOp52
 70
     0
102
RTVSPropertyOp53
 70
     1
102
RTVSPropertyOp54
 70
     1
102
RTVSPropertyOp55
 70
     1
102
RTVSPropertyOp56
 70
     1
102
RTVSPropertyOp57
 70
     1
102
RTVSPost2010Prop28
280
     0
102
RTVSPost2010PropOp28
 70
     1
102
RTVSPost2010Prop29
280
     1
102
RTVSPost2010PropOp29
 70
     1
102
RTVSPost2010Prop30
280
     1
102
RTVSPost2010PropOp30
 70
     1
102
RTVSPost2010Prop31
280
     0
102
RTVSPost2010PropOp31
 70
     1
102
RTVSPost2010Prop32
280
     0
102
RTVSPost2010PropOp32
 70
     1
102
RTVSPost2010Prop33
280
     0
102
RTVSPost2010PropOp33
 70
     1
102
RTVSPost2010Prop34
280
     0
102
RTVSPost2010PropOp34
 70
     1
102
RTVSPost2010Prop35
280
     0
102
RTVSPost2010PropOp35
 70
     1
102
RTVSPost2010Prop36
280
     0
102
RTVSPost2010PropOp36
 70
     1
102
RTVSPost2010Prop37
 90
       50
102
RTVSPost2010PropOp37
 70
     1
102
RTVSPost2010Prop38
140
0.0
102
RTVSPost2010PropOp38
 70
     1
102
RTVSPost2010Prop39
140
1.0
102
RTVSPost2010PropOp39
 70
     1
102
RTVSPost2010Prop40
 90
        0
102
RTVSPost2010PropOp40
 70
     1
102
RTVSPost2010Prop41ColorIndex
 90
       18
102
RTVSPost2010Prop41ColorRGB
 90
        0
102
RTVSPost2010PropOp41
 70
     1
102
RTVSPost2010Prop42
 90
       50
102
RTVSPost2010PropOp42
 70
     1
102
RTVSPost2010Prop43
 90
        3
102
RTVSPost2010PropOp43
 70
     1
102
RTVSPost2010Prop44ColorIndex
 90
        5
102
RTVSPost2010Prop44ColorRGB
 90
      255
102
RTVSPost2010PropOp44
 70
     1
102
RTVSPost2010Prop45
280
     0
102
RTVSPost2010PropOp45
 70
     1
102
RTVSPost2010Prop46
 90
       50
102
RTVSPost2010PropOp46
 70
     1
102
RTVSPost2010Prop47
 90
       50
102
RTVSPost2010PropOp47
 70
     1
102
RTVSPost2010Prop48
 90
       50
102
RTVSPost2010PropOp48
 70
     1
102
RTVSPost2010Prop49
280
     0
102
RTVSPost2010PropOp49
 70
     1
102
RTVSPost2010Prop50
 90
       50
102
RTVSPost2010PropOp50
 70
     1
102
RTVSPost2010Prop51ColorIndex
 90
      256
102
RTVSPost2010Prop51ColorRGB
 90
-16777216
102
RTVSPost2010PropOp51
 70
     0
102
RTVSPost2010Prop52
140
1.0
102
RTVSPost2010PropOp52
 70
     0
102
RTVSPost2010Prop53
 90
        2
102
RTVSPost2010PropOp53
 70
     1
102
RTVSPost2010Prop54
  1
strokes_ogs.tif
102
RTVSPost2010PropOp54
 70
     1
102
RTVSPost2010Prop55
280
     0
102
RTVSPost2010PropOp55
 70
     1
102
RTVSPost2010Prop56
140
1.0
102
RTVSPost2010PropOp56
 70
     1
102
RTVSPost2010Prop57
140
1.0
102
RTVSPost2010PropOp57
 70
     1
  0
XRECORD
  5
33B
102
{ACAD_REACTORS
330
33A
102
}
330
33A
100
AcDbXrecord
280
     1
102
RTVSPropertyOp0
 70
     1
102
RTVSPropertyOp1
 70
     1
102
RTVSPropertyOp2
 70
     1
102
RTVSPropertyOp3
 70
     1
102
RTVSPropertyOp4
 70
     1
102
RTVSPropertyOp5
 70
     1
102
RTVSPropertyOp6
 70
     1
102
RTVSPropertyOp7
 70
     1
102
RTVSPropertyOp8
 70
     1
102
RTVSPropertyOp9
 70
     1
102
RTVSPropertyOp10
 70
     1
102
RTVSPropertyOp11
 70
     1
102
RTVSPropertyOp12
 70
     1
102
RTVSPropertyOp13
 70
     1
102
RTVSPropertyOp14
 70
     1
102
RTVSPropertyOp15
 70
     1
102
RTVSPropertyOp16
 70
     1
102
RTVSPropertyOp17
 70
     1
102
RTVSPropertyOp18
 70
     1
102
RTVSPropertyOp19
 70
     1
102
RTVSPropertyOp20
 70
     1
102
RTVSPropertyOp21
 70
     1
102
RTVSPropertyOp22
 70
     1
102
RTVSPropertyOp23
 70
     1
102
RTVSPropertyOp24
 70
     1
102
RTVSPropertyOp25
 70
     1
102
RTVSPropertyOp26
 70
     1
102
RTVSPropertyOp27
 70
     1
102
RTVSPropertyOp28
 70
     1
102
RTVSPropertyOp29
 70
     1
102
RTVSPropertyOp30
 70
     1
102
RTVSPropertyOp31
 70
     1
102
RTVSPropertyOp32
 70
     1
102
RTVSPropertyOp33
 70
     1
102
RTVSPropertyOp34
 70
     1
102
RTVSPropertyOp35
 70
     1
102
RTVSPropertyOp36
 70
     1
102
RTVSPropertyOp37
 70
     1
102
RTVSPropertyOp38
 70
     1
102
RTVSPropertyOp39
 70
     1
102
RTVSPropertyOp40
 70
     1
102
RTVSPropertyOp41
 70
     1
102
RTVSPropertyOp42
 70
     1
102
RTVSPropertyOp43
 70
     1
102
RTVSPropertyOp44
 70
     1
102
RTVSPropertyOp45
 70
     1
102
RTVSPropertyOp46
 70
     1
102
RTVSPropertyOp47
 70
     1
102
RTVSPropertyOp48
 70
     1
102
RTVSPropertyOp49
 70
     1
102
RTVSPropertyOp50
 70
     1
102
RTVSPropertyOp51
 70
     0
102
RTVSPropertyOp52
 70
     0
102
RTVSPropertyOp53
 70
     1
102
RTVSPropertyOp54
 70
     1
102
RTVSPropertyOp55
 70
     1
102
RTVSPropertyOp56
 70
     1
102
RTVSPropertyOp57
 70
     1
102
RTVSPost2010Prop28
280
     0
102
RTVSPost2010PropOp28
 70
     1
102
RTVSPost2010Prop29
280
     1
102
RTVSPost2010PropOp29
 70
     1
102
RTVSPost2010Prop30
280
     1
102
RTVSPost2010PropOp30
 70
     1
102
RTVSPost2010Prop31
280
     0
102
RTVSPost2010PropOp31
 70
     1
102
RTVSPost2010Prop32
280
     0
102
RTVSPost2010PropOp32
 70
     1
102
RTVSPost2010Prop33
280
     0
102
RTVSPost2010PropOp33
 70
     1
102
RTVSPost2010Prop34
280
     0
102
RTVSPost2010PropOp34
 70
     1
102
RTVSPost2010Prop35
280
     0
102
RTVSPost2010PropOp35
 70
     1
102
RTVSPost2010Prop36
280
     0
102
RTVSPost2010PropOp36
 70
     1
102
RTVSPost2010Prop37
 90
       50
102
RTVSPost2010PropOp37
 70
     1
102
RTVSPost2010Prop38
140
0.0
102
RTVSPost2010PropOp38
 70
     1
102
RTVSPost2010Prop39
140
1.0
102
RTVSPost2010PropOp39
 70
     1
102
RTVSPost2010Prop40
 90
        0
102
RTVSPost2010PropOp40
 70
     1
102
RTVSPost2010Prop41ColorIndex
 90
       18
102
RTVSPost2010Prop41ColorRGB
 90
        0
102
RTVSPost2010PropOp41
 70
     1
102
RTVSPost2010Prop42
 90
       50
102
RTVSPost2010PropOp42
 70
     1
102
RTVSPost2010Prop43
 90
        3
102
RTVSPost2010PropOp43
 70
     1
102
RTVSPost2010Prop44ColorIndex
 90
        5
102
RTVSPost2010Prop44ColorRGB
 90
      255
102
RTVSPost2010PropOp44
 70
     1
102
RTVSPost2010Prop45
280
     0
102
RTVSPost2010PropOp45
 70
     1
102
RTVSPost2010Prop46
 90
       50
102
RTVSPost2010PropOp46
 70
     1
102
RTVSPost2010Prop47
 90
       50
102
RTVSPost2010PropOp47
 70
     1
102
RTVSPost2010Prop48
 90
       50
102
RTVSPost2010PropOp48
 70
     1
102
RTVSPost2010Prop49
280
     0
102
RTVSPost2010PropOp49
 70
     1
102
RTVSPost2010Prop50
 90
       50
102
RTVSPost2010PropOp50
 70
     1
102
RTVSPost2010Prop51ColorIndex
 90
      256
102
RTVSPost2010Prop51ColorRGB
 90
-16777216
102
RTVSPost2010PropOp51
 70
     0
102
RTVSPost2010Prop52
140
1.0
102
RTVSPost2010PropOp52
 70
     0
102
RTVSPost2010Prop53
 90
        2
102
RTVSPost2010PropOp53
 70
     1
102
RTVSPost2010Prop54
  1
strokes_ogs.tif
102
RTVSPost2010PropOp54
 70
     1
102
RTVSPost2010Prop55
280
     0
102
RTVSPost2010PropOp55
 70
     1
102
RTVSPost2010Prop56
140
1.0
102
RTVSPost2010PropOp56
 70
     1
102
RTVSPost2010Prop57
140
1.0
102
RTVSPost2010PropOp57
 70
     1
  0
XRECORD
  5
33D
102
{ACAD_REACTORS
330
33C
102
}
330
33C
100
AcDbXrecord
280
     1
102
RTVSPropertyOp0
 70
     1
102
RTVSPropertyOp1
 70
     1
102
RTVSPropertyOp2
 70
     1
102
RTVSPropertyOp3
 70
     1
102
RTVSPropertyOp4
 70
     1
102
RTVSPropertyOp5
 70
     1
102
RTVSPropertyOp6
 70
     1
102
RTVSPropertyOp7
 70
     1
102
RTVSPropertyOp8
 70
     1
102
RTVSPropertyOp9
 70
     1
102
RTVSPropertyOp10
 70
     1
102
RTVSPropertyOp11
 70
     1
102
RTVSPropertyOp12
 70
     1
102
RTVSPropertyOp13
 70
     1
102
RTVSPropertyOp14
 70
     1
102
RTVSPropertyOp15
 70
     1
102
RTVSPropertyOp16
 70
     1
102
RTVSPropertyOp17
 70
     1
102
RTVSPropertyOp18
 70
     1
102
RTVSPropertyOp19
 70
     1
102
RTVSPropertyOp20
 70
     1
102
RTVSPropertyOp21
 70
     1
102
RTVSPropertyOp22
 70
     1
102
RTVSPropertyOp23
 70
     1
102
RTVSPropertyOp24
 70
     1
102
RTVSPropertyOp25
 70
     1
102
RTVSPropertyOp26
 70
     1
102
RTVSPropertyOp27
 70
     1
102
RTVSPropertyOp28
 70
     1
102
RTVSPropertyOp29
 70
     1
102
RTVSPropertyOp30
 70
     1
102
RTVSPropertyOp31
 70
     1
102
RTVSPropertyOp32
 70
     1
102
RTVSPropertyOp33
 70
     1
102
RTVSPropertyOp34
 70
     1
102
RTVSPropertyOp35
 70
     1
102
RTVSPropertyOp36
 70
     1
102
RTVSPropertyOp37
 70
     1
102
RTVSPropertyOp38
 70
     1
102
RTVSPropertyOp39
 70
     1
102
RTVSPropertyOp40
 70
     1
102
RTVSPropertyOp41
 70
     1
102
RTVSPropertyOp42
 70
     1
102
RTVSPropertyOp43
 70
     1
102
RTVSPropertyOp44
 70
     1
102
RTVSPropertyOp45
 70
     1
102
RTVSPropertyOp46
 70
     1
102
RTVSPropertyOp47
 70
     1
102
RTVSPropertyOp48
 70
     1
102
RTVSPropertyOp49
 70
     1
102
RTVSPropertyOp50
 70
     1
102
RTVSPropertyOp51
 70
     0
102
RTVSPropertyOp52
 70
     0
102
RTVSPropertyOp53
 70
     1
102
RTVSPropertyOp54
 70
     1
102
RTVSPropertyOp55
 70
     1
102
RTVSPropertyOp56
 70
     1
102
RTVSPropertyOp57
 70
     1
102
RTVSPost2010Prop28
280
     0
102
RTVSPost2010PropOp28
 70
     1
102
RTVSPost2010Prop29
280
     1
102
RTVSPost2010PropOp29
 70
     1
102
RTVSPost2010Prop30
280
     1
102
RTVSPost2010PropOp30
 70
     1
102
RTVSPost2010Prop31
280
     0
102
RTVSPost2010PropOp31
 70
     1
102
RTVSPost2010Prop32
280
     0
102
RTVSPost2010PropOp32
 70
     1
102
RTVSPost2010Prop33
280
     0
102
RTVSPost2010PropOp33
 70
     1
102
RTVSPost2010Prop34
280
     0
102
RTVSPost2010PropOp34
 70
     1
102
RTVSPost2010Prop35
280
     0
102
RTVSPost2010PropOp35
 70
     1
102
RTVSPost2010Prop36
280
     0
102
RTVSPost2010PropOp36
 70
     1
102
RTVSPost2010Prop37
 90
       50
102
RTVSPost2010PropOp37
 70
     1
102
RTVSPost2010Prop38
140
0.0
102
RTVSPost2010PropOp38
 70
     1
102
RTVSPost2010Prop39
140
1.0
102
RTVSPost2010PropOp39
 70
     1
102
RTVSPost2010Prop40
 90
        0
102
RTVSPost2010PropOp40
 70
     1
102
RTVSPost2010Prop41ColorIndex
 90
       18
102
RTVSPost2010Prop41ColorRGB
 90
        0
102
RTVSPost2010PropOp41
 70
     1
102
RTVSPost2010Prop42
 90
       50
102
RTVSPost2010PropOp42
 70
     1
102
RTVSPost2010Prop43
 90
        3
102
RTVSPost2010PropOp43
 70
     1
102
RTVSPost2010Prop44ColorIndex
 90
        5
102
RTVSPost2010Prop44ColorRGB
 90
      255
102
RTVSPost2010PropOp44
 70
     1
102
RTVSPost2010Prop45
280
     0
102
RTVSPost2010PropOp45
 70
     1
102
RTVSPost2010Prop46
 90
       50
102
RTVSPost2010PropOp46
 70
     1
102
RTVSPost2010Prop47
 90
       50
102
RTVSPost2010PropOp47
 70
     1
102
RTVSPost2010Prop48
 90
       50
102
RTVSPost2010PropOp48
 70
     1
102
RTVSPost2010Prop49
280
     0
102
RTVSPost2010PropOp49
 70
     1
102
RTVSPost2010Prop50
 90
       50
102
RTVSPost2010PropOp50
 70
     1
102
RTVSPost2010Prop51ColorIndex
 90
      256
102
RTVSPost2010Prop51ColorRGB
 90
-16777216
102
RTVSPost2010PropOp51
 70
     0
102
RTVSPost2010Prop52
140
1.0
102
RTVSPost2010PropOp52
 70
     0
102
RTVSPost2010Prop53
 90
        2
102
RTVSPost2010PropOp53
 70
     1
102
RTVSPost2010Prop54
  1
strokes_ogs.tif
102
RTVSPost2010PropOp54
 70
     1
102
RTVSPost2010Prop55
280
     0
102
RTVSPost2010PropOp55
 70
     1
102
RTVSPost2010Prop56
140
1.0
102
RTVSPost2010PropOp56
 70
     1
102
RTVSPost2010Prop57
140
1.0
102
RTVSPost2010PropOp57
 70
     1
  0
XRECORD
  5
343
102
{ACAD_REACTORS
330
342
102
}
330
342
100
AcDbXrecord
280
     1
102
RTVSPropertyOp0
 70
     1
102
RTVSPropertyOp1
 70
     1
102
RTVSPropertyOp2
 70
     1
102
RTVSPropertyOp3
 70
     1
102
RTVSPropertyOp4
 70
     1
102
RTVSPropertyOp5
 70
     1
102
RTVSPropertyOp6
 70
     1
102
RTVSPropertyOp7
 70
     1
102
RTVSPropertyOp8
 70
     1
102
RTVSPropertyOp9
 70
     1
102
RTVSPropertyOp10
 70
     1
102
RTVSPropertyOp11
 70
     1
102
RTVSPropertyOp12
 70
     1
102
RTVSPropertyOp13
 70
     1
102
RTVSPropertyOp14
 70
     1
102
RTVSPropertyOp15
 70
     1
102
RTVSPropertyOp16
 70
     1
102
RTVSPropertyOp17
 70
     1
102
RTVSPropertyOp18
 70
     1
102
RTVSPropertyOp19
 70
     1
102
RTVSPropertyOp20
 70
     1
102
RTVSPropertyOp21
 70
     1
102
RTVSPropertyOp22
 70
     1
102
RTVSPropertyOp23
 70
     1
102
RTVSPropertyOp24
 70
     1
102
RTVSPropertyOp25
 70
     1
102
RTVSPropertyOp26
 70
     1
102
RTVSPropertyOp27
 70
     1
102
RTVSPropertyOp28
 70
     1
102
RTVSPropertyOp29
 70
     1
102
RTVSPropertyOp30
 70
     1
102
RTVSPropertyOp31
 70
     1
102
RTVSPropertyOp32
 70
     1
102
RTVSPropertyOp33
 70
     1
102
RTVSPropertyOp34
 70
     1
102
RTVSPropertyOp35
 70
     1
102
RTVSPropertyOp36
 70
     1
102
RTVSPropertyOp37
 70
     1
102
RTVSPropertyOp38
 70
     1
102
RTVSPropertyOp39
 70
     1
102
RTVSPropertyOp40
 70
     1
102
RTVSPropertyOp41
 70
     1
102
RTVSPropertyOp42
 70
     1
102
RTVSPropertyOp43
 70
     1
102
RTVSPropertyOp44
 70
     1
102
RTVSPropertyOp45
 70
     1
102
RTVSPropertyOp46
 70
     1
102
RTVSPropertyOp47
 70
     1
102
RTVSPropertyOp48
 70
     1
102
RTVSPropertyOp49
 70
     1
102
RTVSPropertyOp50
 70
     1
102
RTVSPropertyOp51
 70
     0
102
RTVSPropertyOp52
 70
     0
102
RTVSPropertyOp53
 70
     1
102
RTVSPropertyOp54
 70
     1
102
RTVSPropertyOp55
 70
     1
102
RTVSPropertyOp56
 70
     1
102
RTVSPropertyOp57
 70
     1
102
RTVSPost2010Prop28
280
     0
102
RTVSPost2010PropOp28
 70
     1
102
RTVSPost2010Prop29
280
     1
102
RTVSPost2010PropOp29
 70
     1
102
RTVSPost2010Prop30
280
     1
102
RTVSPost2010PropOp30
 70
     1
102
RTVSPost2010Prop31
280
     0
102
RTVSPost2010PropOp31
 70
     1
102
RTVSPost2010Prop32
280
     0
102
RTVSPost2010PropOp32
 70
     1
102
RTVSPost2010Prop33
280
     0
102
RTVSPost2010PropOp33
 70
     1
102
RTVSPost2010Prop34
280
     0
102
RTVSPost2010PropOp34
 70
     1
102
RTVSPost2010Prop35
280
     0
102
RTVSPost2010PropOp35
 70
     1
102
RTVSPost2010Prop36
280
     0
102
RTVSPost2010PropOp36
 70
     1
102
RTVSPost2010Prop37
 90
       50
102
RTVSPost2010PropOp37
 70
     1
102
RTVSPost2010Prop38
140
0.0
102
RTVSPost2010PropOp38
 70
     1
102
RTVSPost2010Prop39
140
1.0
102
RTVSPost2010PropOp39
 70
     1
102
RTVSPost2010Prop40
 90
        0
102
RTVSPost2010PropOp40
 70
     1
102
RTVSPost2010Prop41ColorIndex
 90
       18
102
RTVSPost2010Prop41ColorRGB
 90
        0
102
RTVSPost2010PropOp41
 70
     1
102
RTVSPost2010Prop42
 90
       50
102
RTVSPost2010PropOp42
 70
     1
102
RTVSPost2010Prop43
 90
        3
102
RTVSPost2010PropOp43
 70
     1
102
RTVSPost2010Prop44ColorIndex
 90
        5
102
RTVSPost2010Prop44ColorRGB
 90
      255
102
RTVSPost2010PropOp44
 70
     1
102
RTVSPost2010Prop45
280
     0
102
RTVSPost2010PropOp45
 70
     1
102
RTVSPost2010Prop46
 90
       50
102
RTVSPost2010PropOp46
 70
     1
102
RTVSPost2010Prop47
 90
       50
102
RTVSPost2010PropOp47
 70
     1
102
RTVSPost2010Prop48
 90
       50
102
RTVSPost2010PropOp48
 70
     1
102
RTVSPost2010Prop49
280
     0
102
RTVSPost2010PropOp49
 70
     1
102
RTVSPost2010Prop50
 90
       50
102
RTVSPost2010PropOp50
 70
     1
102
RTVSPost2010Prop51ColorIndex
 90
      256
102
RTVSPost2010Prop51ColorRGB
 90
-16777216
102
RTVSPost2010PropOp51
 70
     0
102
RTVSPost2010Prop52
140
1.0
102
RTVSPost2010PropOp52
 70
     0
102
RTVSPost2010Prop53
 90
        2
102
RTVSPost2010PropOp53
 70
     1
102
RTVSPost2010Prop54
  1
strokes_ogs.tif
102
RTVSPost2010PropOp54
 70
     1
102
RTVSPost2010Prop55
280
     0
102
RTVSPost2010PropOp55
 70
     1
102
RTVSPost2010Prop56
140
1.0
102
RTVSPost2010PropOp56
 70
     1
102
RTVSPost2010Prop57
140
1.0
102
RTVSPost2010PropOp57
 70
     1
  0
XRECORD
  5
357
102
{ACAD_REACTORS
330
356
102
}
330
356
100
AcDbXrecord
280
     1
102
RTVSPropertyOp0
 70
     0
102
RTVSPropertyOp1
 70
     0
102
RTVSPropertyOp2
 70
     0
102
RTVSPropertyOp3
 70
     0
102
RTVSPropertyOp4
 70
     0
102
RTVSPropertyOp5
 70
     0
102
RTVSPropertyOp6
 70
     0
102
RTVSPropertyOp7
 70
     0
102
RTVSPropertyOp8
 70
     0
102
RTVSPropertyOp9
 70
     0
102
RTVSPropertyOp10
 70
     0
102
RTVSPropertyOp11
 70
     0
102
RTVSPropertyOp12
 70
     0
102
RTVSPropertyOp13
 70
     0
102
RTVSPropertyOp14
 70
     2
102
RTVSPropertyOp15
 70
     0
102
RTVSPropertyOp16
 70
     0
102
RTVSPropertyOp17
 70
     0
102
RTVSPropertyOp18
 70
     0
102
RTVSPropertyOp19
 70
     0
102
RTVSPropertyOp20
 70
     0
102
RTVSPropertyOp21
 70
     0
102
RTVSPropertyOp22
 70
     0
102
RTVSPropertyOp23
 70
     0
102
RTVSPropertyOp24
 70
     0
102
RTVSPropertyOp25
 70
     0
102
RTVSPropertyOp26
 70
     0
102
RTVSPropertyOp27
 70
     0
102
RTVSPropertyOp28
 70
     0
102
RTVSPropertyOp29
 70
     0
102
RTVSPropertyOp30
 70
     0
102
RTVSPropertyOp31
 70
     0
102
RTVSPropertyOp32
 70
     0
102
RTVSPropertyOp33
 70
     0
102
RTVSPropertyOp34
 70
     0
102
RTVSPropertyOp35
 70
     0
102
RTVSPropertyOp36
 70
     0
102
RTVSPropertyOp37
 70
     0
102
RTVSPropertyOp38
 70
     0
102
RTVSPropertyOp39
 70
     0
102
RTVSPropertyOp40
 70
     0
102
RTVSPropertyOp41
 70
     0
102
RTVSPropertyOp42
 70
     0
102
RTVSPropertyOp43
 70
     0
102
RTVSPropertyOp44
 70
     0
102
RTVSPropertyOp45
 70
     0
102
RTVSPropertyOp46
 70
     0
102
RTVSPropertyOp47
 70
     0
102
RTVSPropertyOp48
 70
     0
102
RTVSPropertyOp49
 70
     0
102
RTVSPropertyOp50
 70
     0
102
RTVSPropertyOp51
 70
     0
102
RTVSPropertyOp52
 70
     0
102
RTVSPropertyOp53
 70
     0
102
RTVSPropertyOp54
 70
     0
102
RTVSPropertyOp55
 70
     0
102
RTVSPropertyOp56
 70
     0
102
RTVSPropertyOp57
 70
     0
102
RTVSPost2010Prop28
280
     0
102
RTVSPost2010PropOp28
 70
     0
102
RTVSPost2010Prop29
280
     1
102
RTVSPost2010PropOp29
 70
     0
102
RTVSPost2010Prop30
280
     1
102
RTVSPost2010PropOp30
 70
     0
102
RTVSPost2010Prop31
280
     0
102
RTVSPost2010PropOp31
 70
     0
102
RTVSPost2010Prop32
280
     0
102
RTVSPost2010PropOp32
 70
     0
102
RTVSPost2010Prop33
280
     0
102
RTVSPost2010PropOp33
 70
     0
102
RTVSPost2010Prop34
280
     0
102
RTVSPost2010PropOp34
 70
     0
102
RTVSPost2010Prop35
280
     0
102
RTVSPost2010PropOp35
 70
     0
102
RTVSPost2010Prop36
280
     0
102
RTVSPost2010PropOp36
 70
     0
102
RTVSPost2010Prop37
 90
       50
102
RTVSPost2010PropOp37
 70
     0
102
RTVSPost2010Prop38
140
0.0
102
RTVSPost2010PropOp38
 70
     0
102
RTVSPost2010Prop39
140
1.0
102
RTVSPost2010PropOp39
 70
     0
102
RTVSPost2010Prop40
 90
        0
102
RTVSPost2010PropOp40
 70
     0
102
RTVSPost2010Prop41ColorIndex
 90
       18
102
RTVSPost2010Prop41ColorRGB
 90
        0
102
RTVSPost2010PropOp41
 70
     0
102
RTVSPost2010Prop42
 90
       50
102
RTVSPost2010PropOp42
 70
     0
102
RTVSPost2010Prop43
 90
        3
102
RTVSPost2010PropOp43
 70
     0
102
RTVSPost2010Prop44ColorIndex
 90
        5
102
RTVSPost2010Prop44ColorRGB
 90
      255
102
RTVSPost2010PropOp44
 70
     0
102
RTVSPost2010Prop45
280
     0
102
RTVSPost2010PropOp45
 70
     0
102
RTVSPost2010Prop46
 90
       50
102
RTVSPost2010PropOp46
 70
     0
102
RTVSPost2010Prop47
 90
       50
102
RTVSPost2010PropOp47
 70
     0
102
RTVSPost2010Prop48
 90
       50
102
RTVSPost2010PropOp48
 70
     0
102
RTVSPost2010Prop49
280
     0
102
RTVSPost2010PropOp49
 70
     0
102
RTVSPost2010Prop50
 90
       50
102
RTVSPost2010PropOp50
 70
     0
102
RTVSPost2010Prop51ColorIndex
 90
      256
102
RTVSPost2010Prop51ColorRGB
 90
-16777216
102
RTVSPost2010PropOp51
 70
     0
102
RTVSPost2010Prop52
140
1.0
102
RTVSPost2010PropOp52
 70
     0
102
RTVSPost2010Prop53
 90
        2
102
RTVSPost2010PropOp53
 70
     0
102
RTVSPost2010Prop54
  1
strokes_ogs.tif
102
RTVSPost2010PropOp54
 70
     0
102
RTVSPost2010Prop55
280
     0
102
RTVSPost2010PropOp55
 70
     0
102
RTVSPost2010Prop56
140
1.0
102
RTVSPost2010PropOp56
 70
     0
102
RTVSPost2010Prop57
140
1.0
102
RTVSPost2010PropOp57
 70
     0
  0
XRECORD
  5
351
102
{ACAD_REACTORS
330
350
102
}
330
350
100
AcDbXrecord
280
     1
102
RTVSPropertyOp0
 70
     1
102
RTVSPropertyOp1
 70
     1
102
RTVSPropertyOp2
 70
     1
102
RTVSPropertyOp3
 70
     1
102
RTVSPropertyOp4
 70
     1
102
RTVSPropertyOp5
 70
     1
102
RTVSPropertyOp6
 70
     1
102
RTVSPropertyOp7
 70
     1
102
RTVSPropertyOp8
 70
     1
102
RTVSPropertyOp9
 70
     1
102
RTVSPropertyOp10
 70
     1
102
RTVSPropertyOp11
 70
     1
102
RTVSPropertyOp12
 70
     1
102
RTVSPropertyOp13
 70
     1
102
RTVSPropertyOp14
 70
     1
102
RTVSPropertyOp15
 70
     1
102
RTVSPropertyOp16
 70
     1
102
RTVSPropertyOp17
 70
     1
102
RTVSPropertyOp18
 70
     1
102
RTVSPropertyOp19
 70
     1
102
RTVSPropertyOp20
 70
     1
102
RTVSPropertyOp21
 70
     1
102
RTVSPropertyOp22
 70
     1
102
RTVSPropertyOp23
 70
     1
102
RTVSPropertyOp24
 70
     1
102
RTVSPropertyOp25
 70
     1
102
RTVSPropertyOp26
 70
     1
102
RTVSPropertyOp27
 70
     1
102
RTVSPropertyOp28
 70
     1
102
RTVSPropertyOp29
 70
     1
102
RTVSPropertyOp30
 70
     1
102
RTVSPropertyOp31
 70
     1
102
RTVSPropertyOp32
 70
     1
102
RTVSPropertyOp33
 70
     1
102
RTVSPropertyOp34
 70
     1
102
RTVSPropertyOp35
 70
     1
102
RTVSPropertyOp36
 70
     1
102
RTVSPropertyOp37
 70
     1
102
RTVSPropertyOp38
 70
     1
102
RTVSPropertyOp39
 70
     1
102
RTVSPropertyOp40
 70
     1
102
RTVSPropertyOp41
 70
     1
102
RTVSPropertyOp42
 70
     1
102
RTVSPropertyOp43
 70
     1
102
RTVSPropertyOp44
 70
     1
102
RTVSPropertyOp45
 70
     1
102
RTVSPropertyOp46
 70
     1
102
RTVSPropertyOp47
 70
     1
102
RTVSPropertyOp48
 70
     1
102
RTVSPropertyOp49
 70
     1
102
RTVSPropertyOp50
 70
     1
102
RTVSPropertyOp51
 70
     0
102
RTVSPropertyOp52
 70
     0
102
RTVSPropertyOp53
 70
     1
102
RTVSPropertyOp54
 70
     1
102
RTVSPropertyOp55
 70
     1
102
RTVSPropertyOp56
 70
     1
102
RTVSPropertyOp57
 70
     1
102
RTVSPost2010Prop28
280
     0
102
RTVSPost2010PropOp28
 70
     1
102
RTVSPost2010Prop29
280
     1
102
RTVSPost2010PropOp29
 70
     1
102
RTVSPost2010Prop30
280
     1
102
RTVSPost2010PropOp30
 70
     1
102
RTVSPost2010Prop31
280
     0
102
RTVSPost2010PropOp31
 70
     1
102
RTVSPost2010Prop32
280
     0
102
RTVSPost2010PropOp32
 70
     1
102
RTVSPost2010Prop33
280
     0
102
RTVSPost2010PropOp33
 70
     1
102
RTVSPost2010Prop34
280
     0
102
RTVSPost2010PropOp34
 70
     1
102
RTVSPost2010Prop35
280
     0
102
RTVSPost2010PropOp35
 70
     1
102
RTVSPost2010Prop36
280
     0
102
RTVSPost2010PropOp36
 70
     1
102
RTVSPost2010Prop37
 90
       50
102
RTVSPost2010PropOp37
 70
     1
102
RTVSPost2010Prop38
140
0.0
102
RTVSPost2010PropOp38
 70
     1
102
RTVSPost2010Prop39
140
1.0
102
RTVSPost2010PropOp39
 70
     1
102
RTVSPost2010Prop40
 90
        0
102
RTVSPost2010PropOp40
 70
     1
102
RTVSPost2010Prop41ColorIndex
 90
       18
102
RTVSPost2010Prop41ColorRGB
 90
        0
102
RTVSPost2010PropOp41
 70
     1
102
RTVSPost2010Prop42
 90
       50
102
RTVSPost2010PropOp42
 70
     1
102
RTVSPost2010Prop43
 90
        3
102
RTVSPost2010PropOp43
 70
     1
102
RTVSPost2010Prop44ColorIndex
 90
        5
102
RTVSPost2010Prop44ColorRGB
 90
      255
102
RTVSPost2010PropOp44
 70
     1
102
RTVSPost2010Prop45
280
     0
102
RTVSPost2010PropOp45
 70
     1
102
RTVSPost2010Prop46
 90
       50
102
RTVSPost2010PropOp46
 70
     1
102
RTVSPost2010Prop47
 90
       50
102
RTVSPost2010PropOp47
 70
     1
102
RTVSPost2010Prop48
 90
       50
102
RTVSPost2010PropOp48
 70
     1
102
RTVSPost2010Prop49
280
     0
102
RTVSPost2010PropOp49
 70
     1
102
RTVSPost2010Prop50
 90
       50
102
RTVSPost2010PropOp50
 70
     1
102
RTVSPost2010Prop51ColorIndex
 90
      256
102
RTVSPost2010Prop51ColorRGB
 90
-16777216
102
RTVSPost2010PropOp51
 70
     0
102
RTVSPost2010Prop52
140
1.0
102
RTVSPost2010PropOp52
 70
     0
102
RTVSPost2010Prop53
 90
        2
102
RTVSPost2010PropOp53
 70
     1
102
RTVSPost2010Prop54
  1
strokes_ogs.tif
102
RTVSPost2010PropOp54
 70
     1
102
RTVSPost2010Prop55
280
     0
102
RTVSPost2010PropOp55
 70
     1
102
RTVSPost2010Prop56
140
1.0
102
RTVSPost2010PropOp56
 70
     1
102
RTVSPost2010Prop57
140
1.0
102
RTVSPost2010PropOp57
 70
     1
  0
XRECORD
  5
359
102
{ACAD_REACTORS
330
358
102
}
330
358
100
AcDbXrecord
280
     1
102
RTVSPropertyOp0
 70
     0
102
RTVSPropertyOp1
 70
     0
102
RTVSPropertyOp2
 70
     0
102
RTVSPropertyOp3
 70
     0
102
RTVSPropertyOp4
 70
     0
102
RTVSPropertyOp5
 70
     0
102
RTVSPropertyOp6
 70
     0
102
RTVSPropertyOp7
 70
     0
102
RTVSPropertyOp8
 70
     0
102
RTVSPropertyOp9
 70
     0
102
RTVSPropertyOp10
 70
     0
102
RTVSPropertyOp11
 70
     0
102
RTVSPropertyOp12
 70
     0
102
RTVSPropertyOp13
 70
     0
102
RTVSPropertyOp14
 70
     2
102
RTVSPropertyOp15
 70
     0
102
RTVSPropertyOp16
 70
     0
102
RTVSPropertyOp17
 70
     0
102
RTVSPropertyOp18
 70
     0
102
RTVSPropertyOp19
 70
     0
102
RTVSPropertyOp20
 70
     0
102
RTVSPropertyOp21
 70
     0
102
RTVSPropertyOp22
 70
     0
102
RTVSPropertyOp23
 70
     0
102
RTVSPropertyOp24
 70
     0
102
RTVSPropertyOp25
 70
     0
102
RTVSPropertyOp26
 70
     0
102
RTVSPropertyOp27
 70
     0
102
RTVSPropertyOp28
 70
     0
102
RTVSPropertyOp29
 70
     0
102
RTVSPropertyOp30
 70
     0
102
RTVSPropertyOp31
 70
     0
102
RTVSPropertyOp32
 70
     0
102
RTVSPropertyOp33
 70
     0
102
RTVSPropertyOp34
 70
     0
102
RTVSPropertyOp35
 70
     0
102
RTVSPropertyOp36
 70
     0
102
RTVSPropertyOp37
 70
     0
102
RTVSPropertyOp38
 70
     0
102
RTVSPropertyOp39
 70
     0
102
RTVSPropertyOp40
 70
     0
102
RTVSPropertyOp41
 70
     0
102
RTVSPropertyOp42
 70
     0
102
RTVSPropertyOp43
 70
     0
102
RTVSPropertyOp44
 70
     0
102
RTVSPropertyOp45
 70
     0
102
RTVSPropertyOp46
 70
     0
102
RTVSPropertyOp47
 70
     0
102
RTVSPropertyOp48
 70
     0
102
RTVSPropertyOp49
 70
     0
102
RTVSPropertyOp50
 70
     0
102
RTVSPropertyOp51
 70
     0
102
RTVSPropertyOp52
 70
     0
102
RTVSPropertyOp53
 70
     0
102
RTVSPropertyOp54
 70
     0
102
RTVSPropertyOp55
 70
     0
102
RTVSPropertyOp56
 70
     0
102
RTVSPropertyOp57
 70
     0
102
RTVSPost2010Prop28
280
     0
102
RTVSPost2010PropOp28
 70
     0
102
RTVSPost2010Prop29
280
     1
102
RTVSPost2010PropOp29
 70
     0
102
RTVSPost2010Prop30
280
     1
102
RTVSPost2010PropOp30
 70
     0
102
RTVSPost2010Prop31
280
     0
102
RTVSPost2010PropOp31
 70
     0
102
RTVSPost2010Prop32
280
     0
102
RTVSPost2010PropOp32
 70
     0
102
RTVSPost2010Prop33
280
     0
102
RTVSPost2010PropOp33
 70
     0
102
RTVSPost2010Prop34
280
     0
102
RTVSPost2010PropOp34
 70
     0
102
RTVSPost2010Prop35
280
     0
102
RTVSPost2010PropOp35
 70
     0
102
RTVSPost2010Prop36
280
     0
102
RTVSPost2010PropOp36
 70
     0
102
RTVSPost2010Prop37
 90
       50
102
RTVSPost2010PropOp37
 70
     0
102
RTVSPost2010Prop38
140
0.0
102
RTVSPost2010PropOp38
 70
     0
102
RTVSPost2010Prop39
140
1.0
102
RTVSPost2010PropOp39
 70
     0
102
RTVSPost2010Prop40
 90
        0
102
RTVSPost2010PropOp40
 70
     0
102
RTVSPost2010Prop41ColorIndex
 90
       18
102
RTVSPost2010Prop41ColorRGB
 90
        0
102
RTVSPost2010PropOp41
 70
     0
102
RTVSPost2010Prop42
 90
       50
102
RTVSPost2010PropOp42
 70
     0
102
RTVSPost2010Prop43
 90
        3
102
RTVSPost2010PropOp43
 70
     0
102
RTVSPost2010Prop44ColorIndex
 90
        5
102
RTVSPost2010Prop44ColorRGB
 90
      255
102
RTVSPost2010PropOp44
 70
     0
102
RTVSPost2010Prop45
280
     0
102
RTVSPost2010PropOp45
 70
     0
102
RTVSPost2010Prop46
 90
       50
102
RTVSPost2010PropOp46
 70
     0
102
RTVSPost2010Prop47
 90
       50
102
RTVSPost2010PropOp47
 70
     0
102
RTVSPost2010Prop48
 90
       50
102
RTVSPost2010PropOp48
 70
     0
102
RTVSPost2010Prop49
280
     0
102
RTVSPost2010PropOp49
 70
     0
102
RTVSPost2010Prop50
 90
       50
102
RTVSPost2010PropOp50
 70
     0
102
RTVSPost2010Prop51ColorIndex
 90
      256
102
RTVSPost2010Prop51ColorRGB
 90
-16777216
102
RTVSPost2010PropOp51
 70
     0
102
RTVSPost2010Prop52
140
1.0
102
RTVSPost2010PropOp52
 70
     0
102
RTVSPost2010Prop53
 90
        2
102
RTVSPost2010PropOp53
 70
     0
102
RTVSPost2010Prop54
  1
strokes_ogs.tif
102
RTVSPost2010PropOp54
 70
     0
102
RTVSPost2010Prop55
280
     0
102
RTVSPost2010PropOp55
 70
     0
102
RTVSPost2010Prop56
140
1.0
102
RTVSPost2010PropOp56
 70
     0
102
RTVSPost2010Prop57
140
1.0
102
RTVSPost2010PropOp57
 70
     0
  0
XRECORD
  5
347
102
{ACAD_REACTORS
330
346
102
}
330
346
100
AcDbXrecord
280
     1
102
RTVSPropertyOp0
 70
     1
102
RTVSPropertyOp1
 70
     1
102
RTVSPropertyOp2
 70
     1
102
RTVSPropertyOp3
 70
     1
102
RTVSPropertyOp4
 70
     1
102
RTVSPropertyOp5
 70
     1
102
RTVSPropertyOp6
 70
     1
102
RTVSPropertyOp7
 70
     1
102
RTVSPropertyOp8
 70
     1
102
RTVSPropertyOp9
 70
     1
102
RTVSPropertyOp10
 70
     1
102
RTVSPropertyOp11
 70
     1
102
RTVSPropertyOp12
 70
     1
102
RTVSPropertyOp13
 70
     1
102
RTVSPropertyOp14
 70
     1
102
RTVSPropertyOp15
 70
     1
102
RTVSPropertyOp16
 70
     1
102
RTVSPropertyOp17
 70
     1
102
RTVSPropertyOp18
 70
     1
102
RTVSPropertyOp19
 70
     1
102
RTVSPropertyOp20
 70
     1
102
RTVSPropertyOp21
 70
     1
102
RTVSPropertyOp22
 70
     1
102
RTVSPropertyOp23
 70
     1
102
RTVSPropertyOp24
 70
     1
102
RTVSPropertyOp25
 70
     1
102
RTVSPropertyOp26
 70
     1
102
RTVSPropertyOp27
 70
     1
102
RTVSPropertyOp28
 70
     1
102
RTVSPropertyOp29
 70
     1
102
RTVSPropertyOp30
 70
     1
102
RTVSPropertyOp31
 70
     1
102
RTVSPropertyOp32
 70
     1
102
RTVSPropertyOp33
 70
     1
102
RTVSPropertyOp34
 70
     1
102
RTVSPropertyOp35
 70
     1
102
RTVSPropertyOp36
 70
     1
102
RTVSPropertyOp37
 70
     1
102
RTVSPropertyOp38
 70
     1
102
RTVSPropertyOp39
 70
     1
102
RTVSPropertyOp40
 70
     1
102
RTVSPropertyOp41
 70
     1
102
RTVSPropertyOp42
 70
     1
102
RTVSPropertyOp43
 70
     1
102
RTVSPropertyOp44
 70
     1
102
RTVSPropertyOp45
 70
     1
102
RTVSPropertyOp46
 70
     1
102
RTVSPropertyOp47
 70
     1
102
RTVSPropertyOp48
 70
     1
102
RTVSPropertyOp49
 70
     1
102
RTVSPropertyOp50
 70
     1
102
RTVSPropertyOp51
 70
     0
102
RTVSPropertyOp52
 70
     0
102
RTVSPropertyOp53
 70
     1
102
RTVSPropertyOp54
 70
     1
102
RTVSPropertyOp55
 70
     1
102
RTVSPropertyOp56
 70
     1
102
RTVSPropertyOp57
 70
     1
102
RTVSPost2010Prop28
280
     0
102
RTVSPost2010PropOp28
 70
     1
102
RTVSPost2010Prop29
280
     1
102
RTVSPost2010PropOp29
 70
     1
102
RTVSPost2010Prop30
280
     1
102
RTVSPost2010PropOp30
 70
     1
102
RTVSPost2010Prop31
280
     0
102
RTVSPost2010PropOp31
 70
     1
102
RTVSPost2010Prop32
280
     0
102
RTVSPost2010PropOp32
 70
     1
102
RTVSPost2010Prop33
280
     0
102
RTVSPost2010PropOp33
 70
     1
102
RTVSPost2010Prop34
280
     0
102
RTVSPost2010PropOp34
 70
     1
102
RTVSPost2010Prop35
280
     0
102
RTVSPost2010PropOp35
 70
     1
102
RTVSPost2010Prop36
280
     0
102
RTVSPost2010PropOp36
 70
     1
102
RTVSPost2010Prop37
 90
       50
102
RTVSPost2010PropOp37
 70
     1
102
RTVSPost2010Prop38
140
0.0
102
RTVSPost2010PropOp38
 70
     1
102
RTVSPost2010Prop39
140
1.0
102
RTVSPost2010PropOp39
 70
     1
102
RTVSPost2010Prop40
 90
        0
102
RTVSPost2010PropOp40
 70
     1
102
RTVSPost2010Prop41ColorIndex
 90
       18
102
RTVSPost2010Prop41ColorRGB
 90
        0
102
RTVSPost2010PropOp41
 70
     1
102
RTVSPost2010Prop42
 90
       50
102
RTVSPost2010PropOp42
 70
     1
102
RTVSPost2010Prop43
 90
        3
102
RTVSPost2010PropOp43
 70
     1
102
RTVSPost2010Prop44ColorIndex
 90
        5
102
RTVSPost2010Prop44ColorRGB
 90
      255
102
RTVSPost2010PropOp44
 70
     1
102
RTVSPost2010Prop45
280
     0
102
RTVSPost2010PropOp45
 70
     1
102
RTVSPost2010Prop46
 90
       50
102
RTVSPost2010PropOp46
 70
     1
102
RTVSPost2010Prop47
 90
       50
102
RTVSPost2010PropOp47
 70
     1
102
RTVSPost2010Prop48
 90
       50
102
RTVSPost2010PropOp48
 70
     1
102
RTVSPost2010Prop49
280
     0
102
RTVSPost2010PropOp49
 70
     1
102
RTVSPost2010Prop50
 90
       50
102
RTVSPost2010PropOp50
 70
     1
102
RTVSPost2010Prop51ColorIndex
 90
      256
102
RTVSPost2010Prop51ColorRGB
 90
-16777216
102
RTVSPost2010PropOp51
 70
     0
102
RTVSPost2010Prop52
140
1.0
102
RTVSPost2010PropOp52
 70
     0
102
RTVSPost2010Prop53
 90
        2
102
RTVSPost2010PropOp53
 70
     1
102
RTVSPost2010Prop54
  1
strokes_ogs.tif
102
RTVSPost2010PropOp54
 70
     1
102
RTVSPost2010Prop55
280
     0
102
RTVSPost2010PropOp55
 70
     1
102
RTVSPost2010Prop56
140
1.0
102
RTVSPost2010PropOp56
 70
     1
102
RTVSPost2010Prop57
140
1.0
102
RTVSPost2010PropOp57
 70
     1
  0
XRECORD
  5
365
102
{ACAD_REACTORS
330
364
102
}
330
364
100
AcDbXrecord
280
     1
102
RTVSPropertyOp0
 70
     1
102
RTVSPropertyOp1
 70
     1
102
RTVSPropertyOp2
 70
     1
102
RTVSPropertyOp3
 70
     1
102
RTVSPropertyOp4
 70
     1
102
RTVSPropertyOp5
 70
     1
102
RTVSPropertyOp6
 70
     1
102
RTVSPropertyOp7
 70
     1
102
RTVSPropertyOp8
 70
     1
102
RTVSPropertyOp9
 70
     1
102
RTVSPropertyOp10
 70
     1
102
RTVSPropertyOp11
 70
     1
102
RTVSPropertyOp12
 70
     1
102
RTVSPropertyOp13
 70
     1
102
RTVSPropertyOp14
 70
     1
102
RTVSPropertyOp15
 70
     1
102
RTVSPropertyOp16
 70
     1
102
RTVSPropertyOp17
 70
     1
102
RTVSPropertyOp18
 70
     1
102
RTVSPropertyOp19
 70
     1
102
RTVSPropertyOp20
 70
     1
102
RTVSPropertyOp21
 70
     1
102
RTVSPropertyOp22
 70
     1
102
RTVSPropertyOp23
 70
     1
102
RTVSPropertyOp24
 70
     1
102
RTVSPropertyOp25
 70
     1
102
RTVSPropertyOp26
 70
     1
102
RTVSPropertyOp27
 70
     1
102
RTVSPropertyOp28
 70
     1
102
RTVSPropertyOp29
 70
     1
102
RTVSPropertyOp30
 70
     1
102
RTVSPropertyOp31
 70
     1
102
RTVSPropertyOp32
 70
     1
102
RTVSPropertyOp33
 70
     1
102
RTVSPropertyOp34
 70
     1
102
RTVSPropertyOp35
 70
     1
102
RTVSPropertyOp36
 70
     1
102
RTVSPropertyOp37
 70
     1
102
RTVSPropertyOp38
 70
     1
102
RTVSPropertyOp39
 70
     1
102
RTVSPropertyOp40
 70
     1
102
RTVSPropertyOp41
 70
     1
102
RTVSPropertyOp42
 70
     1
102
RTVSPropertyOp43
 70
     1
102
RTVSPropertyOp44
 70
     1
102
RTVSPropertyOp45
 70
     1
102
RTVSPropertyOp46
 70
     1
102
RTVSPropertyOp47
 70
     1
102
RTVSPropertyOp48
 70
     1
102
RTVSPropertyOp49
 70
     1
102
RTVSPropertyOp50
 70
     1
102
RTVSPropertyOp51
 70
     0
102
RTVSPropertyOp52
 70
     0
102
RTVSPropertyOp53
 70
     1
102
RTVSPropertyOp54
 70
     1
102
RTVSPropertyOp55
 70
     1
102
RTVSPropertyOp56
 70
     1
102
RTVSPropertyOp57
 70
     1
102
RTVSPost2010Prop28
280
     0
102
RTVSPost2010PropOp28
 70
     1
102
RTVSPost2010Prop29
280
     1
102
RTVSPost2010PropOp29
 70
     1
102
RTVSPost2010Prop30
280
     1
102
RTVSPost2010PropOp30
 70
     1
102
RTVSPost2010Prop31
280
     0
102
RTVSPost2010PropOp31
 70
     1
102
RTVSPost2010Prop32
280
     0
102
RTVSPost2010PropOp32
 70
     1
102
RTVSPost2010Prop33
280
     0
102
RTVSPost2010PropOp33
 70
     1
102
RTVSPost2010Prop34
280
     0
102
RTVSPost2010PropOp34
 70
     1
102
RTVSPost2010Prop35
280
     0
102
RTVSPost2010PropOp35
 70
     1
102
RTVSPost2010Prop36
280
     0
102
RTVSPost2010PropOp36
 70
     1
102
RTVSPost2010Prop37
 90
       50
102
RTVSPost2010PropOp37
 70
     1
102
RTVSPost2010Prop38
140
0.0
102
RTVSPost2010PropOp38
 70
     1
102
RTVSPost2010Prop39
140
1.0
102
RTVSPost2010PropOp39
 70
     1
102
RTVSPost2010Prop40
 90
        0
102
RTVSPost2010PropOp40
 70
     1
102
RTVSPost2010Prop41ColorIndex
 90
       18
102
RTVSPost2010Prop41ColorRGB
 90
        0
102
RTVSPost2010PropOp41
 70
     1
102
RTVSPost2010Prop42
 90
       50
102
RTVSPost2010PropOp42
 70
     1
102
RTVSPost2010Prop43
 90
        3
102
RTVSPost2010PropOp43
 70
     1
102
RTVSPost2010Prop44ColorIndex
 90
        5
102
RTVSPost2010Prop44ColorRGB
 90
      255
102
RTVSPost2010PropOp44
 70
     1
102
RTVSPost2010Prop45
280
     0
102
RTVSPost2010PropOp45
 70
     1
102
RTVSPost2010Prop46
 90
       50
102
RTVSPost2010PropOp46
 70
     1
102
RTVSPost2010Prop47
 90
       50
102
RTVSPost2010PropOp47
 70
     1
102
RTVSPost2010Prop48
 90
       50
102
RTVSPost2010PropOp48
 70
     1
102
RTVSPost2010Prop49
280
     0
102
RTVSPost2010PropOp49
 70
     1
102
RTVSPost2010Prop50
 90
       50
102
RTVSPost2010PropOp50
 70
     1
102
RTVSPost2010Prop51ColorIndex
 90
      256
102
RTVSPost2010Prop51ColorRGB
 90
-16777216
102
RTVSPost2010PropOp51
 70
     0
102
RTVSPost2010Prop52
140
1.0
102
RTVSPost2010PropOp52
 70
     0
102
RTVSPost2010Prop53
 90
        2
102
RTVSPost2010PropOp53
 70
     1
102
RTVSPost2010Prop54
  1
strokes_ogs.tif
102
RTVSPost2010PropOp54
 70
     1
102
RTVSPost2010Prop55
280
     0
102
RTVSPost2010PropOp55
 70
     1
102
RTVSPost2010Prop56
140
1.0
102
RTVSPost2010PropOp56
 70
     1
102
RTVSPost2010Prop57
140
1.0
102
RTVSPost2010PropOp57
 70
     1
  0
XRECORD
  5
363
102
{ACAD_REACTORS
330
362
102
}
330
362
100
AcDbXrecord
280
     1
102
RTVSPropertyOp0
 70
     1
102
RTVSPropertyOp1
 70
     1
102
RTVSPropertyOp2
 70
     1
102
RTVSPropertyOp3
 70
     1
102
RTVSPropertyOp4
 70
     1
102
RTVSPropertyOp5
 70
     1
102
RTVSPropertyOp6
 70
     1
102
RTVSPropertyOp7
 70
     1
102
RTVSPropertyOp8
 70
     1
102
RTVSPropertyOp9
 70
     1
102
RTVSPropertyOp10
 70
     1
102
RTVSPropertyOp11
 70
     1
102
RTVSPropertyOp12
 70
     1
102
RTVSPropertyOp13
 70
     1
102
RTVSPropertyOp14
 70
     1
102
RTVSPropertyOp15
 70
     1
102
RTVSPropertyOp16
 70
     1
102
RTVSPropertyOp17
 70
     1
102
RTVSPropertyOp18
 70
     1
102
RTVSPropertyOp19
 70
     1
102
RTVSPropertyOp20
 70
     1
102
RTVSPropertyOp21
 70
     1
102
RTVSPropertyOp22
 70
     1
102
RTVSPropertyOp23
 70
     1
102
RTVSPropertyOp24
 70
     1
102
RTVSPropertyOp25
 70
     1
102
RTVSPropertyOp26
 70
     1
102
RTVSPropertyOp27
 70
     1
102
RTVSPropertyOp28
 70
     1
102
RTVSPropertyOp29
 70
     1
102
RTVSPropertyOp30
 70
     1
102
RTVSPropertyOp31
 70
     1
102
RTVSPropertyOp32
 70
     1
102
RTVSPropertyOp33
 70
     1
102
RTVSPropertyOp34
 70
     1
102
RTVSPropertyOp35
 70
     1
102
RTVSPropertyOp36
 70
     1
102
RTVSPropertyOp37
 70
     1
102
RTVSPropertyOp38
 70
     1
102
RTVSPropertyOp39
 70
     1
102
RTVSPropertyOp40
 70
     1
102
RTVSPropertyOp41
 70
     1
102
RTVSPropertyOp42
 70
     1
102
RTVSPropertyOp43
 70
     1
102
RTVSPropertyOp44
 70
     1
102
RTVSPropertyOp45
 70
     1
102
RTVSPropertyOp46
 70
     1
102
RTVSPropertyOp47
 70
     1
102
RTVSPropertyOp48
 70
     1
102
RTVSPropertyOp49
 70
     1
102
RTVSPropertyOp50
 70
     1
102
RTVSPropertyOp51
 70
     0
102
RTVSPropertyOp52
 70
     0
102
RTVSPropertyOp53
 70
     1
102
RTVSPropertyOp54
 70
     1
102
RTVSPropertyOp55
 70
     1
102
RTVSPropertyOp56
 70
     1
102
RTVSPropertyOp57
 70
     1
102
RTVSPost2010Prop28
280
     0
102
RTVSPost2010PropOp28
 70
     1
102
RTVSPost2010Prop29
280
     1
102
RTVSPost2010PropOp29
 70
     1
102
RTVSPost2010Prop30
280
     1
102
RTVSPost2010PropOp30
 70
     1
102
RTVSPost2010Prop31
280
     0
102
RTVSPost2010PropOp31
 70
     1
102
RTVSPost2010Prop32
280
     0
102
RTVSPost2010PropOp32
 70
     1
102
RTVSPost2010Prop33
280
     0
102
RTVSPost2010PropOp33
 70
     1
102
RTVSPost2010Prop34
280
     0
102
RTVSPost2010PropOp34
 70
     1
102
RTVSPost2010Prop35
280
     0
102
RTVSPost2010PropOp35
 70
     1
102
RTVSPost2010Prop36
280
     0
102
RTVSPost2010PropOp36
 70
     1
102
RTVSPost2010Prop37
 90
       50
102
RTVSPost2010PropOp37
 70
     1
102
RTVSPost2010Prop38
140
0.0
102
RTVSPost2010PropOp38
 70
     1
102
RTVSPost2010Prop39
140
1.0
102
RTVSPost2010PropOp39
 70
     1
102
RTVSPost2010Prop40
 90
        0
102
RTVSPost2010PropOp40
 70
     1
102
RTVSPost2010Prop41ColorIndex
 90
       18
102
RTVSPost2010Prop41ColorRGB
 90
        0
102
RTVSPost2010PropOp41
 70
     1
102
RTVSPost2010Prop42
 90
       50
102
RTVSPost2010PropOp42
 70
     1
102
RTVSPost2010Prop43
 90
        3
102
RTVSPost2010PropOp43
 70
     1
102
RTVSPost2010Prop44ColorIndex
 90
        5
102
RTVSPost2010Prop44ColorRGB
 90
      255
102
RTVSPost2010PropOp44
 70
     1
102
RTVSPost2010Prop45
280
     0
102
RTVSPost2010PropOp45
 70
     1
102
RTVSPost2010Prop46
 90
       50
102
RTVSPost2010PropOp46
 70
     1
102
RTVSPost2010Prop47
 90
       50
102
RTVSPost2010PropOp47
 70
     1
102
RTVSPost2010Prop48
 90
       50
102
RTVSPost2010PropOp48
 70
     1
102
RTVSPost2010Prop49
280
     0
102
RTVSPost2010PropOp49
 70
     1
102
RTVSPost2010Prop50
 90
       50
102
RTVSPost2010PropOp50
 70
     1
102
RTVSPost2010Prop51ColorIndex
 90
      256
102
RTVSPost2010Prop51ColorRGB
 90
-16777216
102
RTVSPost2010PropOp51
 70
     0
102
RTVSPost2010Prop52
140
1.0
102
RTVSPost2010PropOp52
 70
     0
102
RTVSPost2010Prop53
 90
        2
102
RTVSPost2010PropOp53
 70
     1
102
RTVSPost2010Prop54
  1
strokes_ogs.tif
102
RTVSPost2010PropOp54
 70
     1
102
RTVSPost2010Prop55
280
     0
102
RTVSPost2010PropOp55
 70
     1
102
RTVSPost2010Prop56
140
1.0
102
RTVSPost2010PropOp56
 70
     1
102
RTVSPost2010Prop57
140
1.0
102
RTVSPost2010PropOp57
 70
     1
  0
XRECORD
  5
35D
102
{ACAD_REACTORS
330
35C
102
}
330
35C
100
AcDbXrecord
280
     1
102
RTVSPropertyOp0
 70
     1
102
RTVSPropertyOp1
 70
     1
102
RTVSPropertyOp2
 70
     1
102
RTVSPropertyOp3
 70
     1
102
RTVSPropertyOp4
 70
     1
102
RTVSPropertyOp5
 70
     1
102
RTVSPropertyOp6
 70
     1
102
RTVSPropertyOp7
 70
     1
102
RTVSPropertyOp8
 70
     1
102
RTVSPropertyOp9
 70
     1
102
RTVSPropertyOp10
 70
     1
102
RTVSPropertyOp11
 70
     1
102
RTVSPropertyOp12
 70
     1
102
RTVSPropertyOp13
 70
     1
102
RTVSPropertyOp14
 70
     1
102
RTVSPropertyOp15
 70
     1
102
RTVSPropertyOp16
 70
     1
102
RTVSPropertyOp17
 70
     1
102
RTVSPropertyOp18
 70
     1
102
RTVSPropertyOp19
 70
     1
102
RTVSPropertyOp20
 70
     1
102
RTVSPropertyOp21
 70
     1
102
RTVSPropertyOp22
 70
     1
102
RTVSPropertyOp23
 70
     1
102
RTVSPropertyOp24
 70
     1
102
RTVSPropertyOp25
 70
     1
102
RTVSPropertyOp26
 70
     1
102
RTVSPropertyOp27
 70
     1
102
RTVSPropertyOp28
 70
     1
102
RTVSPropertyOp29
 70
     1
102
RTVSPropertyOp30
 70
     1
102
RTVSPropertyOp31
 70
     1
102
RTVSPropertyOp32
 70
     1
102
RTVSPropertyOp33
 70
     1
102
RTVSPropertyOp34
 70
     1
102
RTVSPropertyOp35
 70
     1
102
RTVSPropertyOp36
 70
     1
102
RTVSPropertyOp37
 70
     1
102
RTVSPropertyOp38
 70
     1
102
RTVSPropertyOp39
 70
     1
102
RTVSPropertyOp40
 70
     1
102
RTVSPropertyOp41
 70
     1
102
RTVSPropertyOp42
 70
     1
102
RTVSPropertyOp43
 70
     1
102
RTVSPropertyOp44
 70
     1
102
RTVSPropertyOp45
 70
     1
102
RTVSPropertyOp46
 70
     1
102
RTVSPropertyOp47
 70
     1
102
RTVSPropertyOp48
 70
     1
102
RTVSPropertyOp49
 70
     1
102
RTVSPropertyOp50
 70
     1
102
RTVSPropertyOp51
 70
     0
102
RTVSPropertyOp52
 70
     0
102
RTVSPropertyOp53
 70
     1
102
RTVSPropertyOp54
 70
     1
102
RTVSPropertyOp55
 70
     1
102
RTVSPropertyOp56
 70
     1
102
RTVSPropertyOp57
 70
     1
102
RTVSPost2010Prop28
280
     0
102
RTVSPost2010PropOp28
 70
     1
102
RTVSPost2010Prop29
280
     1
102
RTVSPost2010PropOp29
 70
     1
102
RTVSPost2010Prop30
280
     1
102
RTVSPost2010PropOp30
 70
     1
102
RTVSPost2010Prop31
280
     0
102
RTVSPost2010PropOp31
 70
     1
102
RTVSPost2010Prop32
280
     0
102
RTVSPost2010PropOp32
 70
     1
102
RTVSPost2010Prop33
280
     0
102
RTVSPost2010PropOp33
 70
     1
102
RTVSPost2010Prop34
280
     0
102
RTVSPost2010PropOp34
 70
     1
102
RTVSPost2010Prop35
280
     0
102
RTVSPost2010PropOp35
 70
     1
102
RTVSPost2010Prop36
280
     0
102
RTVSPost2010PropOp36
 70
     1
102
RTVSPost2010Prop37
 90
       50
102
RTVSPost2010PropOp37
 70
     1
102
RTVSPost2010Prop38
140
0.0
102
RTVSPost2010PropOp38
 70
     1
102
RTVSPost2010Prop39
140
1.0
102
RTVSPost2010PropOp39
 70
     1
102
RTVSPost2010Prop40
 90
        0
102
RTVSPost2010PropOp40
 70
     1
102
RTVSPost2010Prop41ColorIndex
 90
       18
102
RTVSPost2010Prop41ColorRGB
 90
        0
102
RTVSPost2010PropOp41
 70
     1
102
RTVSPost2010Prop42
 90
       50
102
RTVSPost2010PropOp42
 70
     1
102
RTVSPost2010Prop43
 90
        3
102
RTVSPost2010PropOp43
 70
     1
102
RTVSPost2010Prop44ColorIndex
 90
        5
102
RTVSPost2010Prop44ColorRGB
 90
      255
102
RTVSPost2010PropOp44
 70
     1
102
RTVSPost2010Prop45
280
     0
102
RTVSPost2010PropOp45
 70
     1
102
RTVSPost2010Prop46
 90
       50
102
RTVSPost2010PropOp46
 70
     1
102
RTVSPost2010Prop47
 90
       50
102
RTVSPost2010PropOp47
 70
     1
102
RTVSPost2010Prop48
 90
       50
102
RTVSPost2010PropOp48
 70
     1
102
RTVSPost2010Prop49
280
     0
102
RTVSPost2010PropOp49
 70
     1
102
RTVSPost2010Prop50
 90
       50
102
RTVSPost2010PropOp50
 70
     1
102
RTVSPost2010Prop51ColorIndex
 90
      256
102
RTVSPost2010Prop51ColorRGB
 90
-16777216
102
RTVSPost2010PropOp51
 70
     0
102
RTVSPost2010Prop52
140
1.0
102
RTVSPost2010PropOp52
 70
     0
102
RTVSPost2010Prop53
 90
        2
102
RTVSPost2010PropOp53
 70
     1
102
RTVSPost2010Prop54
  1
strokes_ogs.tif
102
RTVSPost2010PropOp54
 70
     1
102
RTVSPost2010Prop55
280
     0
102
RTVSPost2010PropOp55
 70
     1
102
RTVSPost2010Prop56
140
1.0
102
RTVSPost2010PropOp56
 70
     1
102
RTVSPost2010Prop57
140
1.0
102
RTVSPost2010PropOp57
 70
     1
  0
XRECORD
  5
35F
102
{ACAD_REACTORS
330
35E
102
}
330
35E
100
AcDbXrecord
280
     1
102
RTVSPropertyOp0
 70
     1
102
RTVSPropertyOp1
 70
     1
102
RTVSPropertyOp2
 70
     1
102
RTVSPropertyOp3
 70
     1
102
RTVSPropertyOp4
 70
     1
102
RTVSPropertyOp5
 70
     1
102
RTVSPropertyOp6
 70
     1
102
RTVSPropertyOp7
 70
     1
102
RTVSPropertyOp8
 70
     1
102
RTVSPropertyOp9
 70
     1
102
RTVSPropertyOp10
 70
     1
102
RTVSPropertyOp11
 70
     1
102
RTVSPropertyOp12
 70
     1
102
RTVSPropertyOp13
 70
     1
102
RTVSPropertyOp14
 70
     1
102
RTVSPropertyOp15
 70
     1
102
RTVSPropertyOp16
 70
     1
102
RTVSPropertyOp17
 70
     1
102
RTVSPropertyOp18
 70
     1
102
RTVSPropertyOp19
 70
     1
102
RTVSPropertyOp20
 70
     1
102
RTVSPropertyOp21
 70
     1
102
RTVSPropertyOp22
 70
     1
102
RTVSPropertyOp23
 70
     1
102
RTVSPropertyOp24
 70
     1
102
RTVSPropertyOp25
 70
     1
102
RTVSPropertyOp26
 70
     1
102
RTVSPropertyOp27
 70
     1
102
RTVSPropertyOp28
 70
     1
102
RTVSPropertyOp29
 70
     1
102
RTVSPropertyOp30
 70
     1
102
RTVSPropertyOp31
 70
     1
102
RTVSPropertyOp32
 70
     1
102
RTVSPropertyOp33
 70
     1
102
RTVSPropertyOp34
 70
     1
102
RTVSPropertyOp35
 70
     1
102
RTVSPropertyOp36
 70
     1
102
RTVSPropertyOp37
 70
     1
102
RTVSPropertyOp38
 70
     1
102
RTVSPropertyOp39
 70
     1
102
RTVSPropertyOp40
 70
     1
102
RTVSPropertyOp41
 70
     1
102
RTVSPropertyOp42
 70
     1
102
RTVSPropertyOp43
 70
     1
102
RTVSPropertyOp44
 70
     1
102
RTVSPropertyOp45
 70
     1
102
RTVSPropertyOp46
 70
     1
102
RTVSPropertyOp47
 70
     1
102
RTVSPropertyOp48
 70
     1
102
RTVSPropertyOp49
 70
     1
102
RTVSPropertyOp50
 70
     1
102
RTVSPropertyOp51
 70
     0
102
RTVSPropertyOp52
 70
     0
102
RTVSPropertyOp53
 70
     1
102
RTVSPropertyOp54
 70
     1
102
RTVSPropertyOp55
 70
     1
102
RTVSPropertyOp56
 70
     1
102
RTVSPropertyOp57
 70
     1
102
RTVSPost2010Prop28
280
     0
102
RTVSPost2010PropOp28
 70
     1
102
RTVSPost2010Prop29
280
     1
102
RTVSPost2010PropOp29
 70
     1
102
RTVSPost2010Prop30
280
     1
102
RTVSPost2010PropOp30
 70
     1
102
RTVSPost2010Prop31
280
     0
102
RTVSPost2010PropOp31
 70
     1
102
RTVSPost2010Prop32
280
     0
102
RTVSPost2010PropOp32
 70
     1
102
RTVSPost2010Prop33
280
     0
102
RTVSPost2010PropOp33
 70
     1
102
RTVSPost2010Prop34
280
     0
102
RTVSPost2010PropOp34
 70
     1
102
RTVSPost2010Prop35
280
     0
102
RTVSPost2010PropOp35
 70
     1
102
RTVSPost2010Prop36
280
     0
102
RTVSPost2010PropOp36
 70
     1
102
RTVSPost2010Prop37
 90
       50
102
RTVSPost2010PropOp37
 70
     1
102
RTVSPost2010Prop38
140
0.0
102
RTVSPost2010PropOp38
 70
     1
102
RTVSPost2010Prop39
140
1.0
102
RTVSPost2010PropOp39
 70
     1
102
RTVSPost2010Prop40
 90
        0
102
RTVSPost2010PropOp40
 70
     1
102
RTVSPost2010Prop41ColorIndex
 90
       18
102
RTVSPost2010Prop41ColorRGB
 90
        0
102
RTVSPost2010PropOp41
 70
     1
102
RTVSPost2010Prop42
 90
       50
102
RTVSPost2010PropOp42
 70
     1
102
RTVSPost2010Prop43
 90
        3
102
RTVSPost2010PropOp43
 70
     1
102
RTVSPost2010Prop44ColorIndex
 90
        5
102
RTVSPost2010Prop44ColorRGB
 90
      255
102
RTVSPost2010PropOp44
 70
     1
102
RTVSPost2010Prop45
280
     0
102
RTVSPost2010PropOp45
 70
     1
102
RTVSPost2010Prop46
 90
       50
102
RTVSPost2010PropOp46
 70
     1
102
RTVSPost2010Prop47
 90
       50
102
RTVSPost2010PropOp47
 70
     1
102
RTVSPost2010Prop48
 90
       50
102
RTVSPost2010PropOp48
 70
     1
102
RTVSPost2010Prop49
280
     0
102
RTVSPost2010PropOp49
 70
     1
102
RTVSPost2010Prop50
 90
       50
102
RTVSPost2010PropOp50
 70
     1
102
RTVSPost2010Prop51ColorIndex
 90
      256
102
RTVSPost2010Prop51ColorRGB
 90
-16777216
102
RTVSPost2010PropOp51
 70
     0
102
RTVSPost2010Prop52
140
1.0
102
RTVSPost2010PropOp52
 70
     0
102
RTVSPost2010Prop53
 90
        2
102
RTVSPost2010PropOp53
 70
     1
102
RTVSPost2010Prop54
  1
strokes_ogs.tif
102
RTVSPost2010PropOp54
 70
     1
102
RTVSPost2010Prop55
280
     0
102
RTVSPost2010PropOp55
 70
     1
102
RTVSPost2010Prop56
140
1.0
102
RTVSPost2010PropOp56
 70
     1
102
RTVSPost2010Prop57
140
1.0
102
RTVSPost2010PropOp57
 70
     1
  0
XRECORD
  5
34F
102
{ACAD_REACTORS
330
34E
102
}
330
34E
100
AcDbXrecord
280
     1
102
RTVSPropertyOp0
 70
     1
102
RTVSPropertyOp1
 70
     1
102
RTVSPropertyOp2
 70
     1
102
RTVSPropertyOp3
 70
     1
102
RTVSPropertyOp4
 70
     1
102
RTVSPropertyOp5
 70
     1
102
RTVSPropertyOp6
 70
     1
102
RTVSPropertyOp7
 70
     1
102
RTVSPropertyOp8
 70
     1
102
RTVSPropertyOp9
 70
     1
102
RTVSPropertyOp10
 70
     1
102
RTVSPropertyOp11
 70
     1
102
RTVSPropertyOp12
 70
     1
102
RTVSPropertyOp13
 70
     1
102
RTVSPropertyOp14
 70
     1
102
RTVSPropertyOp15
 70
     1
102
RTVSPropertyOp16
 70
     1
102
RTVSPropertyOp17
 70
     1
102
RTVSPropertyOp18
 70
     1
102
RTVSPropertyOp19
 70
     1
102
RTVSPropertyOp20
 70
     1
102
RTVSPropertyOp21
 70
     1
102
RTVSPropertyOp22
 70
     1
102
RTVSPropertyOp23
 70
     1
102
RTVSPropertyOp24
 70
     1
102
RTVSPropertyOp25
 70
     1
102
RTVSPropertyOp26
 70
     1
102
RTVSPropertyOp27
 70
     1
102
RTVSPropertyOp28
 70
     1
102
RTVSPropertyOp29
 70
     1
102
RTVSPropertyOp30
 70
     1
102
RTVSPropertyOp31
 70
     1
102
RTVSPropertyOp32
 70
     1
102
RTVSPropertyOp33
 70
     1
102
RTVSPropertyOp34
 70
     1
102
RTVSPropertyOp35
 70
     1
102
RTVSPropertyOp36
 70
     1
102
RTVSPropertyOp37
 70
     1
102
RTVSPropertyOp38
 70
     1
102
RTVSPropertyOp39
 70
     1
102
RTVSPropertyOp40
 70
     1
102
RTVSPropertyOp41
 70
     1
102
RTVSPropertyOp42
 70
     1
102
RTVSPropertyOp43
 70
     1
102
RTVSPropertyOp44
 70
     1
102
RTVSPropertyOp45
 70
     1
102
RTVSPropertyOp46
 70
     1
102
RTVSPropertyOp47
 70
     1
102
RTVSPropertyOp48
 70
     1
102
RTVSPropertyOp49
 70
     1
102
RTVSPropertyOp50
 70
     1
102
RTVSPropertyOp51
 70
     0
102
RTVSPropertyOp52
 70
     0
102
RTVSPropertyOp53
 70
     1
102
RTVSPropertyOp54
 70
     1
102
RTVSPropertyOp55
 70
     1
102
RTVSPropertyOp56
 70
     1
102
RTVSPropertyOp57
 70
     1
102
RTVSPost2010Prop28
280
     0
102
RTVSPost2010PropOp28
 70
     1
102
RTVSPost2010Prop29
280
     1
102
RTVSPost2010PropOp29
 70
     1
102
RTVSPost2010Prop30
280
     1
102
RTVSPost2010PropOp30
 70
     1
102
RTVSPost2010Prop31
280
     0
102
RTVSPost2010PropOp31
 70
     1
102
RTVSPost2010Prop32
280
     0
102
RTVSPost2010PropOp32
 70
     1
102
RTVSPost2010Prop33
280
     0
102
RTVSPost2010PropOp33
 70
     1
102
RTVSPost2010Prop34
280
     0
102
RTVSPost2010PropOp34
 70
     1
102
RTVSPost2010Prop35
280
     0
102
RTVSPost2010PropOp35
 70
     1
102
RTVSPost2010Prop36
280
     0
102
RTVSPost2010PropOp36
 70
     1
102
RTVSPost2010Prop37
 90
       50
102
RTVSPost2010PropOp37
 70
     1
102
RTVSPost2010Prop38
140
0.0
102
RTVSPost2010PropOp38
 70
     1
102
RTVSPost2010Prop39
140
1.0
102
RTVSPost2010PropOp39
 70
     1
102
RTVSPost2010Prop40
 90
        0
102
RTVSPost2010PropOp40
 70
     1
102
RTVSPost2010Prop41ColorIndex
 90
       18
102
RTVSPost2010Prop41ColorRGB
 90
        0
102
RTVSPost2010PropOp41
 70
     1
102
RTVSPost2010Prop42
 90
       50
102
RTVSPost2010PropOp42
 70
     1
102
RTVSPost2010Prop43
 90
        3
102
RTVSPost2010PropOp43
 70
     1
102
RTVSPost2010Prop44ColorIndex
 90
        5
102
RTVSPost2010Prop44ColorRGB
 90
      255
102
RTVSPost2010PropOp44
 70
     1
102
RTVSPost2010Prop45
280
     0
102
RTVSPost2010PropOp45
 70
     1
102
RTVSPost2010Prop46
 90
       50
102
RTVSPost2010PropOp46
 70
     1
102
RTVSPost2010Prop47
 90
       50
102
RTVSPost2010PropOp47
 70
     1
102
RTVSPost2010Prop48
 90
       50
102
RTVSPost2010PropOp48
 70
     1
102
RTVSPost2010Prop49
280
     0
102
RTVSPost2010PropOp49
 70
     1
102
RTVSPost2010Prop50
 90
       50
102
RTVSPost2010PropOp50
 70
     1
102
RTVSPost2010Prop51ColorIndex
 90
      256
102
RTVSPost2010Prop51ColorRGB
 90
-16777216
102
RTVSPost2010PropOp51
 70
     0
102
RTVSPost2010Prop52
140
1.0
102
RTVSPost2010PropOp52
 70
     0
102
RTVSPost2010Prop53
 90
        2
102
RTVSPost2010PropOp53
 70
     1
102
RTVSPost2010Prop54
  1
strokes_ogs.tif
102
RTVSPost2010PropOp54
 70
     1
102
RTVSPost2010Prop55
280
     0
102
RTVSPost2010PropOp55
 70
     1
102
RTVSPost2010Prop56
140
1.0
102
RTVSPost2010PropOp56
 70
     1
102
RTVSPost2010Prop57
140
1.0
102
RTVSPost2010PropOp57
 70
     1
  0
XRECORD
  5
341
102
{ACAD_REACTORS
330
340
102
}
330
340
100
AcDbXrecord
280
     1
102
RTVSPropertyOp0
 70
     1
102
RTVSPropertyOp1
 70
     1
102
RTVSPropertyOp2
 70
     1
102
RTVSPropertyOp3
 70
     1
102
RTVSPropertyOp4
 70
     1
102
RTVSPropertyOp5
 70
     1
102
RTVSPropertyOp6
 70
     1
102
RTVSPropertyOp7
 70
     1
102
RTVSPropertyOp8
 70
     1
102
RTVSPropertyOp9
 70
     1
102
RTVSPropertyOp10
 70
     1
102
RTVSPropertyOp11
 70
     1
102
RTVSPropertyOp12
 70
     1
102
RTVSPropertyOp13
 70
     1
102
RTVSPropertyOp14
 70
     1
102
RTVSPropertyOp15
 70
     1
102
RTVSPropertyOp16
 70
     1
102
RTVSPropertyOp17
 70
     1
102
RTVSPropertyOp18
 70
     1
102
RTVSPropertyOp19
 70
     1
102
RTVSPropertyOp20
 70
     1
102
RTVSPropertyOp21
 70
     1
102
RTVSPropertyOp22
 70
     1
102
RTVSPropertyOp23
 70
     1
102
RTVSPropertyOp24
 70
     1
102
RTVSPropertyOp25
 70
     1
102
RTVSPropertyOp26
 70
     1
102
RTVSPropertyOp27
 70
     1
102
RTVSPropertyOp28
 70
     1
102
RTVSPropertyOp29
 70
     1
102
RTVSPropertyOp30
 70
     1
102
RTVSPropertyOp31
 70
     1
102
RTVSPropertyOp32
 70
     1
102
RTVSPropertyOp33
 70
     1
102
RTVSPropertyOp34
 70
     1
102
RTVSPropertyOp35
 70
     1
102
RTVSPropertyOp36
 70
     1
102
RTVSPropertyOp37
 70
     1
102
RTVSPropertyOp38
 70
     1
102
RTVSPropertyOp39
 70
     1
102
RTVSPropertyOp40
 70
     1
102
RTVSPropertyOp41
 70
     1
102
RTVSPropertyOp42
 70
     1
102
RTVSPropertyOp43
 70
     1
102
RTVSPropertyOp44
 70
     1
102
RTVSPropertyOp45
 70
     1
102
RTVSPropertyOp46
 70
     1
102
RTVSPropertyOp47
 70
     1
102
RTVSPropertyOp48
 70
     1
102
RTVSPropertyOp49
 70
     1
102
RTVSPropertyOp50
 70
     1
102
RTVSPropertyOp51
 70
     0
102
RTVSPropertyOp52
 70
     0
102
RTVSPropertyOp53
 70
     1
102
RTVSPropertyOp54
 70
     1
102
RTVSPropertyOp55
 70
     1
102
RTVSPropertyOp56
 70
     1
102
RTVSPropertyOp57
 70
     1
102
RTVSPost2010Prop28
280
     0
102
RTVSPost2010PropOp28
 70
     1
102
RTVSPost2010Prop29
280
     1
102
RTVSPost2010PropOp29
 70
     1
102
RTVSPost2010Prop30
280
     1
102
RTVSPost2010PropOp30
 70
     1
102
RTVSPost2010Prop31
280
     0
102
RTVSPost2010PropOp31
 70
     1
102
RTVSPost2010Prop32
280
     0
102
RTVSPost2010PropOp32
 70
     1
102
RTVSPost2010Prop33
280
     0
102
RTVSPost2010PropOp33
 70
     1
102
RTVSPost2010Prop34
280
     0
102
RTVSPost2010PropOp34
 70
     1
102
RTVSPost2010Prop35
280
     0
102
RTVSPost2010PropOp35
 70
     1
102
RTVSPost2010Prop36
280
     0
102
RTVSPost2010PropOp36
 70
     1
102
RTVSPost2010Prop37
 90
       50
102
RTVSPost2010PropOp37
 70
     1
102
RTVSPost2010Prop38
140
0.0
102
RTVSPost2010PropOp38
 70
     1
102
RTVSPost2010Prop39
140
1.0
102
RTVSPost2010PropOp39
 70
     1
102
RTVSPost2010Prop40
 90
        0
102
RTVSPost2010PropOp40
 70
     1
102
RTVSPost2010Prop41ColorIndex
 90
       18
102
RTVSPost2010Prop41ColorRGB
 90
        0
102
RTVSPost2010PropOp41
 70
     1
102
RTVSPost2010Prop42
 90
       50
102
RTVSPost2010PropOp42
 70
     1
102
RTVSPost2010Prop43
 90
        3
102
RTVSPost2010PropOp43
 70
     1
102
RTVSPost2010Prop44ColorIndex
 90
        5
102
RTVSPost2010Prop44ColorRGB
 90
      255
102
RTVSPost2010PropOp44
 70
     1
102
RTVSPost2010Prop45
280
     0
102
RTVSPost2010PropOp45
 70
     1
102
RTVSPost2010Prop46
 90
       50
102
RTVSPost2010PropOp46
 70
     1
102
RTVSPost2010Prop47
 90
       50
102
RTVSPost2010PropOp47
 70
     1
102
RTVSPost2010Prop48
 90
       50
102
RTVSPost2010PropOp48
 70
     1
102
RTVSPost2010Prop49
280
     0
102
RTVSPost2010PropOp49
 70
     1
102
RTVSPost2010Prop50
 90
       50
102
RTVSPost2010PropOp50
 70
     1
102
RTVSPost2010Prop51ColorIndex
 90
      256
102
RTVSPost2010Prop51ColorRGB
 90
-16777216
102
RTVSPost2010PropOp51
 70
     0
102
RTVSPost2010Prop52
140
1.0
102
RTVSPost2010PropOp52
 70
     0
102
RTVSPost2010Prop53
 90
        2
102
RTVSPost2010PropOp53
 70
     1
102
RTVSPost2010Prop54
  1
strokes_ogs.tif
102
RTVSPost2010PropOp54
 70
     1
102
RTVSPost2010Prop55
280
     0
102
RTVSPost2010PropOp55
 70
     1
102
RTVSPost2010Prop56
140
1.0
102
RTVSPost2010PropOp56
 70
     1
102
RTVSPost2010Prop57
140
1.0
102
RTVSPost2010PropOp57
 70
     1
  0
XRECORD
  5
361
102
{ACAD_REACTORS
330
360
102
}
330
360
100
AcDbXrecord
280
     1
102
RTVSPropertyOp0
 70
     1
102
RTVSPropertyOp1
 70
     1
102
RTVSPropertyOp2
 70
     1
102
RTVSPropertyOp3
 70
     1
102
RTVSPropertyOp4
 70
     1
102
RTVSPropertyOp5
 70
     1
102
RTVSPropertyOp6
 70
     1
102
RTVSPropertyOp7
 70
     1
102
RTVSPropertyOp8
 70
     1
102
RTVSPropertyOp9
 70
     1
102
RTVSPropertyOp10
 70
     1
102
RTVSPropertyOp11
 70
     1
102
RTVSPropertyOp12
 70
     1
102
RTVSPropertyOp13
 70
     1
102
RTVSPropertyOp14
 70
     1
102
RTVSPropertyOp15
 70
     1
102
RTVSPropertyOp16
 70
     1
102
RTVSPropertyOp17
 70
     1
102
RTVSPropertyOp18
 70
     1
102
RTVSPropertyOp19
 70
     1
102
RTVSPropertyOp20
 70
     1
102
RTVSPropertyOp21
 70
     1
102
RTVSPropertyOp22
 70
     1
102
RTVSPropertyOp23
 70
     1
102
RTVSPropertyOp24
 70
     1
102
RTVSPropertyOp25
 70
     1
102
RTVSPropertyOp26
 70
     1
102
RTVSPropertyOp27
 70
     1
102
RTVSPropertyOp28
 70
     1
102
RTVSPropertyOp29
 70
     1
102
RTVSPropertyOp30
 70
     1
102
RTVSPropertyOp31
 70
     1
102
RTVSPropertyOp32
 70
     1
102
RTVSPropertyOp33
 70
     1
102
RTVSPropertyOp34
 70
     1
102
RTVSPropertyOp35
 70
     1
102
RTVSPropertyOp36
 70
     1
102
RTVSPropertyOp37
 70
     1
102
RTVSPropertyOp38
 70
     1
102
RTVSPropertyOp39
 70
     1
102
RTVSPropertyOp40
 70
     1
102
RTVSPropertyOp41
 70
     1
102
RTVSPropertyOp42
 70
     1
102
RTVSPropertyOp43
 70
     1
102
RTVSPropertyOp44
 70
     1
102
RTVSPropertyOp45
 70
     1
102
RTVSPropertyOp46
 70
     1
102
RTVSPropertyOp47
 70
     1
102
RTVSPropertyOp48
 70
     1
102
RTVSPropertyOp49
 70
     1
102
RTVSPropertyOp50
 70
     1
102
RTVSPropertyOp51
 70
     0
102
RTVSPropertyOp52
 70
     0
102
RTVSPropertyOp53
 70
     1
102
RTVSPropertyOp54
 70
     1
102
RTVSPropertyOp55
 70
     1
102
RTVSPropertyOp56
 70
     1
102
RTVSPropertyOp57
 70
     1
102
RTVSPost2010Prop28
280
     0
102
RTVSPost2010PropOp28
 70
     1
102
RTVSPost2010Prop29
280
     1
102
RTVSPost2010PropOp29
 70
     1
102
RTVSPost2010Prop30
280
     1
102
RTVSPost2010PropOp30
 70
     1
102
RTVSPost2010Prop31
280
     0
102
RTVSPost2010PropOp31
 70
     1
102
RTVSPost2010Prop32
280
     0
102
RTVSPost2010PropOp32
 70
     1
102
RTVSPost2010Prop33
280
     0
102
RTVSPost2010PropOp33
 70
     1
102
RTVSPost2010Prop34
280
     0
102
RTVSPost2010PropOp34
 70
     1
102
RTVSPost2010Prop35
280
     0
102
RTVSPost2010PropOp35
 70
     1
102
RTVSPost2010Prop36
280
     0
102
RTVSPost2010PropOp36
 70
     1
102
RTVSPost2010Prop37
 90
       50
102
RTVSPost2010PropOp37
 70
     1
102
RTVSPost2010Prop38
140
0.0
102
RTVSPost2010PropOp38
 70
     1
102
RTVSPost2010Prop39
140
1.0
102
RTVSPost2010PropOp39
 70
     1
102
RTVSPost2010Prop40
 90
        0
102
RTVSPost2010PropOp40
 70
     1
102
RTVSPost2010Prop41ColorIndex
 90
       18
102
RTVSPost2010Prop41ColorRGB
 90
        0
102
RTVSPost2010PropOp41
 70
     1
102
RTVSPost2010Prop42
 90
       50
102
RTVSPost2010PropOp42
 70
     1
102
RTVSPost2010Prop43
 90
        3
102
RTVSPost2010PropOp43
 70
     1
102
RTVSPost2010Prop44ColorIndex
 90
        5
102
RTVSPost2010Prop44ColorRGB
 90
      255
102
RTVSPost2010PropOp44
 70
     1
102
RTVSPost2010Prop45
280
     0
102
RTVSPost2010PropOp45
 70
     1
102
RTVSPost2010Prop46
 90
       50
102
RTVSPost2010PropOp46
 70
     1
102
RTVSPost2010Prop47
 90
       50
102
RTVSPost2010PropOp47
 70
     1
102
RTVSPost2010Prop48
 90
       50
102
RTVSPost2010PropOp48
 70
     1
102
RTVSPost2010Prop49
280
     0
102
RTVSPost2010PropOp49
 70
     1
102
RTVSPost2010Prop50
 90
       50
102
RTVSPost2010PropOp50
 70
     1
102
RTVSPost2010Prop51ColorIndex
 90
      256
102
RTVSPost2010Prop51ColorRGB
 90
-16777216
102
RTVSPost2010PropOp51
 70
     0
102
RTVSPost2010Prop52
140
1.0
102
RTVSPost2010PropOp52
 70
     0
102
RTVSPost2010Prop53
 90
        2
102
RTVSPost2010PropOp53
 70
     1
102
RTVSPost2010Prop54
  1
strokes_ogs.tif
102
RTVSPost2010PropOp54
 70
     1
102
RTVSPost2010Prop55
280
     0
102
RTVSPost2010PropOp55
 70
     1
102
RTVSPost2010Prop56
140
1.0
102
RTVSPost2010PropOp56
 70
     1
102
RTVSPost2010Prop57
140
1.0
102
RTVSPost2010PropOp57
 70
     1
  0
ENDSEC
  0
EOF
