  0
SECTION
  2
HEADER
  9
$ACADVER
  1
AC1015
  9
$ACADMAINTVER
 70
     6
  9
$DWGCODEPAGE
  3
ANSI_1252
  9
$INSBASE
 10
0.0
 20
0.0
 30
0.0
  9
$EXTMIN
 10
0.0
 20
0.0
 30
0.0
  9
$EXTMAX
 10
297.0
 20
210.0
 30
0.0
  9
$LIMMIN
 10
0.0
 20
0.0
  9
$LIMMAX
 10
297.0
 20
210.0
  9
$ORTHOMODE
 70
     0
  9
$REGENMODE
 70
     1
  9
$FILLMODE
 70
     1
  9
$QTEXTMODE
 70
     0
  9
$MIRRTEXT
 70
     1
  9
$LTSCALE
 40
1.0
  9
$ATTMODE
 70
     1
  9
$TEXTSIZE
 40
2.0
  9
$TRACEWID
 40
1.0
  9
$TEXTSTYLE
  7
Standard
  9
$CLAYER
  8
0
  9
$CELTYPE
  6
ByLayer
  9
$CECOLOR
 62
   256
  9
$CELTSCALE
 40
1.0
  9
$DISPSILH
 70
     0
  9
$DIMSCALE
 40
1.0
  9
$DIMASZ
 40
2.5
  9
$DIMEXO
 40
0.625
  9
$DIMDLI
 40
3.75
  9
$DIMRND
 40
0.0
  9
$DIMDLE
 40
0.0
  9
$DIMEXE
 40
1.25
  9
$DIMTP
 40
0.0
  9
$DIMTM
 40
0.0
  9
$DIMTXT
 40
2.5
  9
$DIMCEN
 40
2.5
  9
$DIMTSZ
 40
0.0
  9
$DIMTOL
 70
     0
  9
$DIMLIM
 70
     0
  9
$DIMTIH
 70
     0
  9
$DIMTOH
 70
     0
  9
$DIMSE1
 70
     0
  9
$DIMSE2
 70
     0
  9
$DIMTAD
 70
     1
  9
$DIMZIN
 70
     8
  9
$DIMBLK
  1

  9
$DIMASO
 70
     1
  9
$DIMSHO
 70
     1
  9
$DIMPOST
  1

  9
$DIMAPOST
  1

  9
$DIMALT
 70
     0
  9
$DIMALTD
 70
     3
  9
$DIMALTF
 40
0.03937007874016
  9
$DIMLFAC
 40
1.0
  9
$DIMTOFL
 70
     1
  9
$DIMTVP
 40
0.0
  9
$DIMTIX
 70
     0
  9
$DIMSOXD
 70
     0
  9
$DIMSAH
 70
     0
  9
$DIMBLK1
  1

  9
$DIMBLK2
  1

  9
$DIMSTYLE
  2
ISO-25
  9
$DIMCLRD
 70
     0
  9
$DIMCLRE
 70
     0
  9
$DIMCLRT
 70
     0
  9
$DIMTFAC
 40
1.0
  9
$DIMGAP
 40
0.625
  9
$DIMJUST
 70
     0
  9
$DIMSD1
 70
     0
  9
$DIMSD2
 70
     0
  9
$DIMTOLJ
 70
     0
  9
$DIMTZIN
 70
     8
  9
$DIMALTZ
 70
     0
  9
$DIMALTTZ
 70
     0
  9
$DIMUPT
 70
     0
  9
$DIMDEC
 70
     2
  9
$DIMTDEC
 70
     2
  9
$DIMALTU
 70
     2
  9
$DIMALTTD
 70
     3
  9
$DIMTXSTY
  7
Standard
  9
$DIMAUNIT
 70
     0
  9
$DIMADEC
 70
     0
  9
$DIMALTRND
 40
0.0
  9
$DIMAZIN
 70
     0
  9
$DIMDSEP
 70
    44
  9
$DIMATFIT
 70
     3
  9
$DIMFRAC
 70
     0
  9
$DIMLDRBLK
  1

  9
$DIMLUNIT
 70
     2
  9
$DIMLWD
 70
    -2
  9
$DIMLWE
 70
    -2
  9
$DIMTMOVE
 70
     0
  9
$LUNITS
 70
     2
  9
$LUPREC
 70
     4
  9
$SKETCHINC
 40
1.0
  9
$FILLETRAD
 40
10.0
  9
$AUNITS
 70
     0
  9
$AUPREC
 70
     0
  9
$MENU
  1
.
  9
$ELEVATION
 40
0.0
  9
$PELEVATION
 40
0.0
  9
$THICKNESS
 40
0.0
  9
$LIMCHECK
 70
     0
  9
$CHAMFERA
 40
0.0
  9
$CHAMFERB
 40
0.0
  9
$CHAMFERC
 40
0.0
  9
$CHAMFERD
 40
0.0
  9
$SKPOLY
 70
     0
  9
$TDCREATE
 40
2459362.469994317
  9
$TDUCREATE
 40
2459362.42832765
  9
$TDUPDATE
 40
2460396.621361609
  9
$TDUUPDATE
 40
2460396.579694942
  9
$TDINDWG
 40
0.0000000116
  9
$TDUSRTIMER
 40
0.0000000116
  9
$USRTIMER
 70
     1
  9
$ANGBASE
 50
0.0
  9
$ANGDIR
 70
     0
  9
$PDMODE
 70
     0
  9
$PDSIZE
 40
0.0
  9
$PLINEWID
 40
0.0
  9
$SPLFRAME
 70
     0
  9
$SPLINETYPE
 70
     6
  9
$SPLINESEGS
 70
     8
  9
$HANDSEED
  5
43D
  9
$SURFTAB1
 70
     6
  9
$SURFTAB2
 70
     6
  9
$SURFTYPE
 70
     6
  9
$SURFU
 70
     6
  9
$SURFV
 70
     6
  9
$UCSBASE
  2

  9
$UCSNAME
  2

  9
$UCSORG
 10
0.0
 20
0.0
 30
0.0
  9
$UCSXDIR
 10
1.0
 20
0.0
 30
0.0
  9
$UCSYDIR
 10
0.0
 20
1.0
 30
0.0
  9
$UCSORTHOREF
  2

  9
$UCSORTHOVIEW
 70
     0
  9
$UCSORGTOP
 10
0.0
 20
0.0
 30
0.0
  9
$UCSORGBOTTOM
 10
0.0
 20
0.0
 30
0.0
  9
$UCSORGLEFT
 10
0.0
 20
0.0
 30
0.0
  9
$UCSORGRIGHT
 10
0.0
 20
0.0
 30
0.0
  9
$UCSORGFRONT
 10
0.0
 20
0.0
 30
0.0
  9
$UCSORGBACK
 10
0.0
 20
0.0
 30
0.0
  9
$PUCSBASE
  2

  9
$PUCSNAME
  2

  9
$PUCSORG
 10
0.0
 20
0.0
 30
0.0
  9
$PUCSXDIR
 10
1.0
 20
0.0
 30
0.0
  9
$PUCSYDIR
 10
0.0
 20
1.0
 30
0.0
  9
$PUCSORTHOREF
  2

  9
$PUCSORTHOVIEW
 70
     0
  9
$PUCSORGTOP
 10
0.0
 20
0.0
 30
0.0
  9
$PUCSORGBOTTOM
 10
0.0
 20
0.0
 30
0.0
  9
$PUCSORGLEFT
 10
0.0
 20
0.0
 30
0.0
  9
$PUCSORGRIGHT
 10
0.0
 20
0.0
 30
0.0
  9
$PUCSORGFRONT
 10
0.0
 20
0.0
 30
0.0
  9
$PUCSORGBACK
 10
0.0
 20
0.0
 30
0.0
  9
$USERI1
 70
     0
  9
$USERI2
 70
     0
  9
$USERI3
 70
     0
  9
$USERI4
 70
     0
  9
$USERI5
 70
     0
  9
$USERR1
 40
0.0
  9
$USERR2
 40
0.0
  9
$USERR3
 40
0.0
  9
$USERR4
 40
0.0
  9
$USERR5
 40
0.0
  9
$WORLDVIEW
 70
     1
  9
$SHADEDGE
 70
     3
  9
$SHADEDIF
 70
    70
  9
$TILEMODE
 70
     1
  9
$MAXACTVP
 70
    64
  9
$PINSBASE
 10
0.0
 20
0.0
 30
0.0
  9
$PLIMCHECK
 70
     0
  9
$PEXTMIN
 10
0.0
 20
0.0
 30
0.0
  9
$PEXTMAX
 10
297.0
 20
210.0
 30
0.0
  9
$PLIMMIN
 10
0.0
 20
0.0
  9
$PLIMMAX
 10
297.0
 20
210.0
  9
$UNITMODE
 70
     0
  9
$VISRETAIN
 70
     1
  9
$PLINEGEN
 70
     0
  9
$PSLTSCALE
 70
     1
  9
$TREEDEPTH
 70
  3020
  9
$CMLSTYLE
  2
Standard
  9
$CMLJUST
 70
     0
  9
$CMLSCALE
 40
20.0
  9
$PROXYGRAPHICS
 70
     1
  9
$MEASUREMENT
 70
     1
  9
$CELWEIGHT
370
    -1
  9
$ENDCAPS
280
     0
  9
$JOINSTYLE
280
     0
  9
$LWDISPLAY
290
     0
  9
$INSUNITS
 70
     4
  9
$HYPERLINKBASE
  1

  9
$STYLESHEET
  1

  9
$XEDIT
290
     1
  9
$CEPSNTYPE
380
     0
  9
$PSTYLEMODE
290
     1
  9
$FINGERPRINTGUID
  2
{40C18A78-EC7D-462E-81AF-B1AD14673D19}
  9
$VERSIONGUID
  2
{FAEB1C32-E019-11D5-929B-00C0DF256EC4}
  9
$EXTNAMES
290
     1
  9
$PSVPSCALE
 40
0.0
  9
$OLESTARTUP
290
     0
  0
ENDSEC
  0
SECTION
  2
CLASSES
  0
CLASS
  1
ACDBDICTIONARYWDFLT
  2
AcDbDictionaryWithDefault
  3
ObjectDBX Classes
 90
        0
280
     0
281
     0
  0
CLASS
  1
VISUALSTYLE
  2
AcDbVisualStyle
  3
ObjectDBX Classes
 90
     4095
280
     0
281
     0
  0
CLASS
  1
MATERIAL
  2
AcDbMaterial
  3
ObjectDBX Classes
 90
     1153
280
     0
281
     0
  0
CLASS
  1
SCALE
  2
AcDbScale
  3
ObjectDBX Classes
 90
     1153
280
     0
281
     0
  0
CLASS
  1
TABLESTYLE
  2
AcDbTableStyle
  3
ObjectDBX Classes
 90
     4095
280
     0
281
     0
  0
CLASS
  1
MLEADERSTYLE
  2
AcDbMLeaderStyle
  3
ACDB_MLEADERSTYLE_CLASS
 90
     4095
280
     0
281
     0
  0
CLASS
  1
SUN
  2
AcDbSun
  3
SCENEOE
 90
     1153
280
     0
281
     0
  0
CLASS
  1
DICTIONARYVAR
  2
AcDbDictionaryVar
  3
ObjectDBX Classes
 90
        0
280
     0
281
     0
  0
CLASS
  1
CELLSTYLEMAP
  2
AcDbCellStyleMap
  3
ObjectDBX Classes
 90
     1152
280
     0
281
     0
  0
CLASS
  1
ACDBPLACEHOLDER
  2
AcDbPlaceHolder
  3
ObjectDBX Classes
 90
        0
280
     0
281
     0
  0
CLASS
  1
LAYOUT
  2
AcDbLayout
  3
ObjectDBX Classes
 90
        0
280
     0
281
     0
  0
ENDSEC
  0
SECTION
  2
TABLES
  0
TABLE
  2
VPORT
  5
8
102
{ACAD_XDICTIONARY
360
401
102
}
330
0
100
AcDbSymbolTable
 70
     1
  0
VPORT
  5
29
330
8
100
AcDbSymbolTableRecord
100
AcDbViewportTableRecord
  2
*Active
 70
     0
 10
0.0
 20
0.0
 11
1.0
 21
1.0
 12
344.1869158878504
 22
148.5
 13
0.0
 23
0.0
 14
10.0
 24
10.0
 15
10.0
 25
10.0
 16
0.0
 26
0.0
 36
1.0
 17
0.0
 27
0.0
 37
0.0
 40
297.0
 41
1.972972972850329
 42
50.0
 43
0.0
 44
0.0
 50
0.0
 51
0.0
 71
     0
 72
   100
 73
     1
 74
     3
 75
     0
 76
     0
 77
     0
 78
     0
281
     0
 65
     1
110
0.0
120
0.0
130
0.0
111
1.0
121
0.0
131
0.0
112
0.0
122
1.0
132
0.0
 79
     0
146
0.0
  0
ENDTAB
  0
TABLE
  2
LTYPE
  5
5
330
0
100
AcDbSymbolTable
 70
     1
  0
LTYPE
  5
14
330
5
100
AcDbSymbolTableRecord
100
AcDbLinetypeTableRecord
  2
ByBlock
 70
     0
  3

 72
    65
 73
     0
 40
0.0
  0
LTYPE
  5
15
330
5
100
AcDbSymbolTableRecord
100
AcDbLinetypeTableRecord
  2
ByLayer
 70
     0
  3

 72
    65
 73
     0
 40
0.0
  0
LTYPE
  5
16
330
5
100
AcDbSymbolTableRecord
100
AcDbLinetypeTableRecord
  2
Continuous
 70
     0
  3
Solid line
 72
    65
 73
     0
 40
0.0
  0
ENDTAB
  0
TABLE
  2
LAYER
  5
2
330
0
100
AcDbSymbolTable
 70
     8
  0
LAYER
  5
10
330
2
100
AcDbSymbolTableRecord
100
AcDbLayerTableRecord
  2
0
 70
     0
 62
     7
  6
Continuous
370
    -3
390
F
  0
LAYER
  5
6E
330
2
100
AcDbSymbolTableRecord
100
AcDbLayerTableRecord
  2
Default
 70
     0
 62
     7
  6
Continuous
370
    -3
390
F
  0
LAYER
  5
71
330
2
100
AcDbSymbolTableRecord
100
AcDbLayerTableRecord
  2
DV1_0
 70
     0
 62
     7
  6
Continuous
370
    -3
390
F
  0
LAYER
  5
1CA
330
2
100
AcDbSymbolTableRecord
100
AcDbLayerTableRecord
  2
DV2_0
 70
     0
 62
     7
  6
Continuous
370
    -3
390
F
  0
LAYER
  5
220
330
2
100
AcDbSymbolTableRecord
100
AcDbLayerTableRecord
  2
DV3_0
 70
     0
 62
     7
  6
Continuous
370
    -3
390
F
  0
LAYER
  5
260
330
2
100
AcDbSymbolTableRecord
100
AcDbLayerTableRecord
  2
DV4_0
 70
     0
 62
     7
  6
Continuous
370
    -3
390
F
  0
LAYER
  5
39B
330
2
100
AcDbSymbolTableRecord
100
AcDbLayerTableRecord
  2
Predeterminado
 70
     0
 62
     7
  6
Continuous
370
    -3
390
F
  0
LAYER
  5
3B6
330
2
100
AcDbSymbolTableRecord
100
AcDbLayerTableRecord
  2
D
 70
     0
 62
     7
  6
Continuous
370
    -3
390
F
  0
ENDTAB
  0
TABLE
  2
STYLE
  5
3
330
0
100
AcDbSymbolTable
 70
     4
  0
STYLE
  5
11
330
3
100
AcDbSymbolTableRecord
100
AcDbTextStyleTableRecord
  2
Standard
 70
     0
 40
0.0
 41
1.0
 50
0.0
 71
     0
 42
2.0
  3
txt
  4

  0
STYLE
  5
379
330
3
100
AcDbSymbolTableRecord
100
AcDbTextStyleTableRecord
  2
SEACAD_Solid_Edge_ANSI
 70
     0
 40
0.0
 41
1.0
 50
0.0
 71
     0
 42
2.5
  3
seans.ttf
  4

1001
ACAD
1000
Solid Edge ANSI
1071
        0
  0
STYLE
  5
3F8
330
3
100
AcDbSymbolTableRecord
100
AcDbTextStyleTableRecord
  2
MtXpl_Arial
 70
     0
 40
0.2
 41
1.0
 50
0.0
 71
     0
 42
2.0
  3
arialbd.ttf
  4

1001
ACAD
1000
Arial
1071
 33554466
  0
STYLE
  5
3F9
330
3
100
AcDbSymbolTableRecord
100
AcDbTextStyleTableRecord
  2
MtXpl_Arial1
 70
     0
 40
0.2
 41
1.0
 50
0.0
 71
     0
 42
2.0
  3

  4

1001
ACAD
1000
Arial
1071
       34
  0
ENDTAB
  0
TABLE
  2
VIEW
  5
6
330
0
100
AcDbSymbolTable
 70
     0
  0
ENDTAB
  0
TABLE
  2
UCS
  5
7
330
0
100
AcDbSymbolTable
 70
     0
  0
ENDTAB
  0
TABLE
  2
APPID
  5
9
330
0
100
AcDbSymbolTable
 70
     2
  0
APPID
  5
12
330
9
100
AcDbSymbolTableRecord
100
AcDbRegAppTableRecord
  2
ACAD
 70
     0
  0
APPID
  5
3EF
330
9
100
AcDbSymbolTableRecord
100
AcDbRegAppTableRecord
  2
ACAD_MLEADERVER
 70
     0
  0
ENDTAB
  0
TABLE
  2
DIMSTYLE
  5
A
330
0
100
AcDbSymbolTable
 70
     1
100
AcDbDimStyleTable
  0
DIMSTYLE
105
27
330
A
100
AcDbSymbolTableRecord
100
AcDbDimStyleTableRecord
  2
ISO-25
 70
     0
 41
2.5
 42
0.625
 43
3.75
 44
1.25
 73
     0
 74
     0
 77
     1
 78
     8
140
2.5
141
2.5
143
0.03937007874016
147
0.625
171
     3
172
     1
178
     0
271
     2
272
     2
274
     3
278
    44
283
     0
284
     8
340
11
  0
ENDTAB
  0
TABLE
  2
BLOCK_RECORD
  5
1
330
0
100
AcDbSymbolTable
 70
    11
  0
BLOCK_RECORD
  5
1F
330
1
100
AcDbSymbolTableRecord
100
AcDbBlockTableRecord
  2
*Model_Space
340
22
  0
BLOCK_RECORD
  5
1B
330
1
100
AcDbSymbolTableRecord
100
AcDbBlockTableRecord
  2
*Paper_Space
340
1E
  0
BLOCK_RECORD
  5
6F
330
1
100
AcDbSymbolTableRecord
100
AcDbBlockTableRecord
  2
SE
340
0
102
{BLKREFS
331
70
102
}
  0
BLOCK_RECORD
  5
1C8
330
1
100
AcDbSymbolTableRecord
100
AcDbBlockTableRecord
  2
SE1
340
0
102
{BLKREFS
331
1C9
102
}
  0
BLOCK_RECORD
  5
21E
330
1
100
AcDbSymbolTableRecord
100
AcDbBlockTableRecord
  2
SE2
340
0
102
{BLKREFS
331
21F
102
}
  0
BLOCK_RECORD
  5
25E
330
1
100
AcDbSymbolTableRecord
100
AcDbBlockTableRecord
  2
SE3
340
0
102
{BLKREFS
331
25F
102
}
  0
BLOCK_RECORD
  5
372
330
1
100
AcDbSymbolTableRecord
100
AcDbBlockTableRecord
  2
GDimGGroup
340
0
102
{BLKREFS
331
373
102
}
  0
BLOCK_RECORD
  5
37D
330
1
100
AcDbSymbolTableRecord
100
AcDbBlockTableRecord
  2
GDimGGroup1
340
0
102
{BLKREFS
331
37E
102
}
  0
BLOCK_RECORD
  5
387
330
1
100
AcDbSymbolTableRecord
100
AcDbBlockTableRecord
  2
GDimGGroup2
340
0
102
{BLKREFS
331
388
102
}
  0
BLOCK_RECORD
  5
391
330
1
100
AcDbSymbolTableRecord
100
AcDbBlockTableRecord
  2
GDimGGroup3
340
0
102
{BLKREFS
331
392
102
}
  0
BLOCK_RECORD
  5
3A2
330
1
100
AcDbSymbolTableRecord
100
AcDbBlockTableRecord
  2
SEANNOT_GROUP
340
0
102
{BLKREFS
331
3A3
102
}
  0
BLOCK_RECORD
  5
3AC
330
1
100
AcDbSymbolTableRecord
100
AcDbBlockTableRecord
  2
SEANNOT_GROUP1
340
0
102
{BLKREFS
331
3AD
102
}
  0
BLOCK_RECORD
  5
3B1
330
1
100
AcDbSymbolTableRecord
100
AcDbBlockTableRecord
  2
SEANNOT_GROUP2
340
0
102
{BLKREFS
331
3B2
102
}
  0
ENDTAB
  0
ENDSEC
  0
SECTION
  2
BLOCKS
  0
BLOCK
  5
20
330
1F
100
AcDbEntity
  8
0
100
AcDbBlockBegin
  2
*Model_Space
 70
     0
 10
0.0
 20
0.0
 30
0.0
  3
*Model_Space
  1

  0
ENDBLK
  5
21
330
1F
100
AcDbEntity
  8
0
100
AcDbBlockEnd
  0
BLOCK
  5
1C
330
1B
100
AcDbEntity
 67
     1
  8
0
100
AcDbBlockBegin
  2
*Paper_Space
 70
     0
 10
0.0
 20
0.0
 30
0.0
  3
*Paper_Space
  1

  0
ENDBLK
  5
1D
330
1B
100
AcDbEntity
 67
     1
  8
0
100
AcDbBlockEnd
  0
BLOCK
  5
1C6
330
6F
100
AcDbEntity
  8
0
100
AcDbBlockBegin
  2
SE
 70
     0
 10
0.0
 20
0.0
 30
0.0
  3
SE
  1

  0
LINE
  5
72
330
6F
100
AcDbEntity
  8
DV1_0
 62
     7
370
    35
100
AcDbLine
 10
53.14358555354008
 20
136.8461956075398
 30
0.0
 11
53.14358555354008
 21
126.8461956075398
 31
0.0
  0
LINE
  5
73
330
6F
100
AcDbEntity
  8
DV1_0
 62
     7
370
    35
100
AcDbLine
 10
53.14358555354008
 20
126.8461956075398
 30
0.0
 11
43.14358555354008
 21
126.8461956075398
 31
0.0
  0
LINE
  5
74
330
6F
100
AcDbEntity
  8
DV1_0
 62
     7
370
    35
100
AcDbLine
 10
43.14358555354008
 20
126.8461956075398
 30
0.0
 11
43.14358555354008
 21
136.8461956075398
 31
0.0
  0
LINE
  5
75
330
6F
100
AcDbEntity
  8
DV1_0
 62
     7
370
    35
100
AcDbLine
 10
43.14358555354008
 20
136.8461956075398
 30
0.0
 11
53.14358555354008
 21
136.8461956075398
 31
0.0
  0
LINE
  5
76
330
6F
100
AcDbEntity
  8
DV1_0
 62
     7
370
    35
100
AcDbLine
 10
80.24377431545737
 20
136.8461956075398
 30
0.0
 11
80.24377431545737
 21
126.8461956075398
 31
0.0
  0
LINE
  5
77
330
6F
100
AcDbEntity
  8
DV1_0
 62
     7
370
    35
100
AcDbLine
 10
80.24377431545739
 20
126.8461956075398
 30
0.0
 11
70.24377431545739
 21
126.8461956075398
 31
0.0
  0
LINE
  5
78
330
6F
100
AcDbEntity
  8
DV1_0
 62
     7
370
    35
100
AcDbLine
 10
70.24377431545737
 20
126.8461956075398
 30
0.0
 11
70.24377431545737
 21
136.8461956075398
 31
0.0
  0
LINE
  5
79
330
6F
100
AcDbEntity
  8
DV1_0
 62
     7
370
    35
100
AcDbLine
 10
70.24377431545737
 20
136.8461956075398
 30
0.0
 11
80.24377431545737
 21
136.8461956075398
 31
0.0
  0
LINE
  5
7A
330
6F
100
AcDbEntity
  8
DV1_0
 62
     7
370
    35
100
AcDbLine
 10
107.1436342157353
 20
136.8461956075398
 30
0.0
 11
107.1436342157353
 21
126.8461956075398
 31
0.0
  0
LINE
  5
7B
330
6F
100
AcDbEntity
  8
DV1_0
 62
     7
370
    35
100
AcDbLine
 10
107.1436342157353
 20
126.8461956075398
 30
0.0
 11
97.14363421573532
 21
126.8461956075398
 31
0.0
  0
LINE
  5
7C
330
6F
100
AcDbEntity
  8
DV1_0
 62
     7
370
    35
100
AcDbLine
 10
97.14363421573532
 20
126.8461956075398
 30
0.0
 11
97.1436342157353
 21
136.8461956075398
 31
0.0
  0
LINE
  5
7D
330
6F
100
AcDbEntity
  8
DV1_0
 62
     7
370
    35
100
AcDbLine
 10
97.14363421573532
 20
136.8461956075398
 30
0.0
 11
107.1436342157353
 21
136.8461956075398
 31
0.0
  0
ARC
  5
7E
330
6F
100
AcDbEntity
  8
DV1_0
 62
     7
370
    35
100
AcDbCircle
 10
90.79938421573526
 20
140.5961956075398
 30
0.0
 40
0.2000000000000002
100
AcDbArc
 50
106.1856149685922
 51
253.8143850314101
  0
LINE
  5
7F
330
6F
100
AcDbEntity
  8
DV1_0
 62
     7
370
    35
100
AcDbLine
 10
108.6436342157353
 20
140.7961956075398
 30
0.0
 11
108.3436342157353
 21
140.7961956075398
 31
0.0
  0
LINE
  5
80
330
6F
100
AcDbEntity
  8
DV1_0
 62
     7
370
    35
100
AcDbLine
 10
102.3436342157353
 20
140.7961956075398
 30
0.0
 11
102.0436342157353
 21
140.7961956075398
 31
0.0
  0
LINE
  5
81
330
6F
100
AcDbEntity
  8
DV1_0
 62
     7
370
    35
100
AcDbLine
 10
96.04363421573531
 20
140.7961956075398
 30
0.0
 11
95.74363421573534
 21
140.7961956075398
 31
0.0
  0
LINE
  5
82
330
6F
100
AcDbEntity
  8
DV1_0
 62
     7
370
    35
100
AcDbLine
 10
95.74363421573533
 20
140.3961956075398
 30
0.0
 11
96.0436342157353
 21
140.3961956075398
 31
0.0
  0
LINE
  5
83
330
6F
100
AcDbEntity
  8
DV1_0
 62
     7
370
    35
100
AcDbLine
 10
102.0436342157353
 20
140.3961956075398
 30
0.0
 11
102.3436342157353
 21
140.3961956075398
 31
0.0
  0
LINE
  5
84
330
6F
100
AcDbEntity
  8
DV1_0
 62
     7
370
    35
100
AcDbLine
 10
108.3436342157353
 20
140.3961956075398
 30
0.0
 11
108.6436342157353
 21
140.3961956075398
 31
0.0
  0
LINE
  5
85
330
6F
100
AcDbEntity
  8
DV1_0
 62
     7
370
    35
100
AcDbLine
 10
108.6436342157353
 20
111.7961956075398
 30
0.0
 11
108.3436342157354
 21
111.7961956075398
 31
0.0
  0
LINE
  5
86
330
6F
100
AcDbEntity
  8
DV1_0
 62
     7
370
    35
100
AcDbLine
 10
102.3436342157354
 20
111.7961956075398
 30
0.0
 11
102.0436342157353
 21
111.7961956075398
 31
0.0
  0
LINE
  5
87
330
6F
100
AcDbEntity
  8
DV1_0
 62
     7
370
    35
100
AcDbLine
 10
96.04363421573532
 20
111.7961956075398
 30
0.0
 11
95.74363421573537
 21
111.7961956075398
 31
0.0
  0
LINE
  5
88
330
6F
100
AcDbEntity
  8
DV1_0
 62
     7
370
    35
100
AcDbLine
 10
95.74363421573537
 20
111.3961956075398
 30
0.0
 11
96.04363421573535
 21
111.3961956075398
 31
0.0
  0
LINE
  5
89
330
6F
100
AcDbEntity
  8
DV1_0
 62
     7
370
    35
100
AcDbLine
 10
102.0436342157353
 20
111.3961956075398
 30
0.0
 11
102.3436342157354
 21
111.3961956075398
 31
0.0
  0
LINE
  5
8A
330
6F
100
AcDbEntity
  8
DV1_0
 62
     7
370
    35
100
AcDbLine
 10
108.3436342157354
 20
111.3961956075398
 30
0.0
 11
108.6436342157353
 21
111.3961956075398
 31
0.0
  0
ARC
  5
8B
330
6F
100
AcDbEntity
  8
DV1_0
 62
     7
370
    35
100
AcDbCircle
 10
63.79938421573515
 20
140.5961956075398
 30
0.0
 40
0.2000000000000002
100
AcDbArc
 50
106.1856149686198
 51
253.8143850313824
  0
LINE
  5
8C
330
6F
100
AcDbEntity
  8
DV1_0
 62
     7
370
    35
100
AcDbLine
 10
81.6436342157352
 20
140.7961956075398
 30
0.0
 11
81.34363421573516
 21
140.7961956075398
 31
0.0
  0
LINE
  5
8D
330
6F
100
AcDbEntity
  8
DV1_0
 62
     7
370
    35
100
AcDbLine
 10
75.34363421573516
 20
140.7961956075398
 30
0.0
 11
75.04363421573512
 21
140.7961956075398
 31
0.0
  0
LINE
  5
8E
330
6F
100
AcDbEntity
  8
DV1_0
 62
     7
370
    35
100
AcDbLine
 10
69.04363421573512
 20
140.7961956075398
 30
0.0
 11
68.74363421573514
 21
140.7961956075398
 31
0.0
  0
LINE
  5
8F
330
6F
100
AcDbEntity
  8
DV1_0
 62
     7
370
    35
100
AcDbLine
 10
68.74363421573514
 20
140.3961956075398
 30
0.0
 11
69.04363421573512
 21
140.3961956075398
 31
0.0
  0
LINE
  5
90
330
6F
100
AcDbEntity
  8
DV1_0
 62
     7
370
    35
100
AcDbLine
 10
75.04363421573512
 20
140.3961956075398
 30
0.0
 11
75.34363421573516
 21
140.3961956075398
 31
0.0
  0
LINE
  5
91
330
6F
100
AcDbEntity
  8
DV1_0
 62
     7
370
    35
100
AcDbLine
 10
81.34363421573516
 20
140.3961956075398
 30
0.0
 11
81.6436342157352
 21
140.3961956075398
 31
0.0
  0
LINE
  5
92
330
6F
100
AcDbEntity
  8
DV1_0
 62
     7
370
    35
100
AcDbLine
 10
81.64363421573525
 20
111.7961956075398
 30
0.0
 11
81.34363421573521
 21
111.7961956075398
 31
0.0
  0
LINE
  5
93
330
6F
100
AcDbEntity
  8
DV1_0
 62
     7
370
    35
100
AcDbLine
 10
75.3436342157352
 20
111.7961956075398
 30
0.0
 11
75.04363421573515
 21
111.7961956075398
 31
0.0
  0
LINE
  5
94
330
6F
100
AcDbEntity
  8
DV1_0
 62
     7
370
    35
100
AcDbLine
 10
69.04363421573515
 20
111.7961956075398
 30
0.0
 11
68.74363421573517
 21
111.7961956075398
 31
0.0
  0
LINE
  5
95
330
6F
100
AcDbEntity
  8
DV1_0
 62
     7
370
    35
100
AcDbLine
 10
68.74363421573517
 20
111.3961956075398
 30
0.0
 11
69.04363421573515
 21
111.3961956075398
 31
0.0
  0
LINE
  5
96
330
6F
100
AcDbEntity
  8
DV1_0
 62
     7
370
    35
100
AcDbLine
 10
75.04363421573515
 20
111.3961956075398
 30
0.0
 11
75.34363421573521
 21
111.3961956075398
 31
0.0
  0
LINE
  5
97
330
6F
100
AcDbEntity
  8
DV1_0
 62
     7
370
    35
100
AcDbLine
 10
81.3436342157352
 20
111.3961956075398
 30
0.0
 11
81.64363421573523
 21
111.3961956075398
 31
0.0
  0
LINE
  5
98
330
6F
100
AcDbEntity
  8
DV1_0
 62
     7
370
    35
100
AcDbLine
 10
114.8436342157353
 20
106.3461956075397
 30
0.0
 11
114.6436342157353
 21
106.3461956075397
 31
0.0
  0
LINE
  5
99
330
6F
100
AcDbEntity
  8
DV1_0
 62
     7
370
    35
100
AcDbLine
 10
114.8436342157353
 20
143.8461956075397
 30
0.0
 11
114.6436342157353
 21
143.8461956075397
 31
0.0
  0
LINE
  5
9A
330
6F
100
AcDbEntity
  8
DV1_0
 62
     7
370
    35
100
AcDbLine
 10
114.8436342157353
 20
106.3461956075397
 30
0.0
 11
114.8436342157353
 21
107.2961956075398
 31
0.0
  0
LINE
  5
9B
330
6F
100
AcDbEntity
  8
DV1_0
 62
     7
370
    35
100
AcDbLine
 10
114.8436342157353
 20
111.2961956075398
 30
0.0
 11
114.8436342157353
 21
112.8461956075397
 31
0.0
  0
LINE
  5
9C
330
6F
100
AcDbEntity
  8
DV1_0
 62
     7
370
    35
100
AcDbLine
 10
114.8436342157353
 20
114.8461956075397
 30
0.0
 11
114.8436342157353
 21
134.8461956075398
 31
0.0
  0
LINE
  5
9D
330
6F
100
AcDbEntity
  8
DV1_0
 62
     7
370
    35
100
AcDbLine
 10
114.8436342157353
 20
136.8461956075398
 30
0.0
 11
114.8436342157353
 21
143.8461956075397
 31
0.0
  0
LINE
  5
9E
330
6F
100
AcDbEntity
  8
DV1_0
 62
     7
370
    35
100
AcDbLine
 10
108.6436342157352
 20
106.3461956075397
 30
0.0
 11
108.3436342157354
 21
106.3461956075397
 31
0.0
  0
LINE
  5
9F
330
6F
100
AcDbEntity
  8
DV1_0
 62
     7
370
    35
100
AcDbLine
 10
108.6436342157352
 20
143.8461956075398
 30
0.0
 11
108.3436342157354
 21
143.8461956075398
 31
0.0
  0
LINE
  5
A0
330
6F
100
AcDbEntity
  8
DV1_0
 62
     7
370
    35
100
AcDbLine
 10
102.3436342157354
 20
106.3461956075398
 30
0.0
 11
102.0436342157353
 21
106.3461956075398
 31
0.0
  0
LINE
  5
A1
330
6F
100
AcDbEntity
  8
DV1_0
 62
     7
370
    35
100
AcDbLine
 10
102.3436342157353
 20
143.8461956075398
 30
0.0
 11
102.0436342157353
 21
143.8461956075398
 31
0.0
  0
LINE
  5
A2
330
6F
100
AcDbEntity
  8
DV1_0
 62
     7
370
    35
100
AcDbLine
 10
96.04363421573535
 20
106.3461956075397
 30
0.0
 11
95.74363421573538
 21
106.3461956075397
 31
0.0
  0
LINE
  5
A3
330
6F
100
AcDbEntity
  8
DV1_0
 62
     7
370
    35
100
AcDbLine
 10
90.74363421573538
 20
106.3461956075397
 30
0.0
 11
90.14363421573525
 21
106.3461956075397
 31
0.0
  0
LINE
  5
A4
330
6F
100
AcDbEntity
  8
DV1_0
 62
     7
370
    35
100
AcDbLine
 10
96.04363421573531
 20
143.8461956075397
 30
0.0
 11
95.74363421573533
 21
143.8461956075397
 31
0.0
  0
LINE
  5
A5
330
6F
100
AcDbEntity
  8
DV1_0
 62
     7
370
    35
100
AcDbLine
 10
90.74363421573534
 20
143.8461956075397
 30
0.0
 11
90.14363421573523
 21
143.8461956075397
 31
0.0
  0
LINE
  5
A6
330
6F
100
AcDbEntity
  8
DV1_0
 62
     7
370
    35
100
AcDbLine
 10
90.14363421573525
 20
106.3461956075397
 30
0.0
 11
90.14363421573525
 21
107.2961956075398
 31
0.0
  0
LINE
  5
A7
330
6F
100
AcDbEntity
  8
DV1_0
 62
     7
370
    35
100
AcDbLine
 10
90.14363421573525
 20
114.8461956075397
 30
0.0
 11
90.14363421573523
 21
132.8461956075398
 31
0.0
  0
LINE
  5
A8
330
6F
100
AcDbEntity
  8
DV1_0
 62
     7
370
    35
100
AcDbLine
 10
90.14363421573523
 20
136.8461956075398
 30
0.0
 11
90.14363421573523
 21
143.8461956075397
 31
0.0
  0
LINE
  5
A9
330
6F
100
AcDbEntity
  8
DV1_0
 62
     7
370
    35
100
AcDbLine
 10
87.74363421573523
 20
106.3461956075398
 30
0.0
 11
87.64363421573525
 21
106.3461956075398
 31
0.0
  0
LINE
  5
AA
330
6F
100
AcDbEntity
  8
DV1_0
 62
     7
370
    35
100
AcDbLine
 10
87.74363421573521
 20
143.8461956075398
 30
0.0
 11
87.64363421573522
 21
143.8461956075398
 31
0.0
  0
LINE
  5
AB
330
6F
100
AcDbEntity
  8
DV1_0
 62
     7
370
    35
100
AcDbLine
 10
87.74363421573523
 20
106.3461956075398
 30
0.0
 11
87.74363421573523
 21
107.2961956075398
 31
0.0
  0
LINE
  5
AC
330
6F
100
AcDbEntity
  8
DV1_0
 62
     7
370
    35
100
AcDbLine
 10
87.74363421573523
 20
111.2961956075398
 30
0.0
 11
87.74363421573523
 21
112.8461956075397
 31
0.0
  0
LINE
  5
AD
330
6F
100
AcDbEntity
  8
DV1_0
 62
     7
370
    35
100
AcDbLine
 10
87.74363421573523
 20
114.8461956075397
 30
0.0
 11
87.74363421573521
 21
134.8461956075398
 31
0.0
  0
LINE
  5
AE
330
6F
100
AcDbEntity
  8
DV1_0
 62
     7
370
    35
100
AcDbLine
 10
87.74363421573521
 20
136.8461956075398
 30
0.0
 11
87.74363421573521
 21
143.8461956075398
 31
0.0
  0
LINE
  5
AF
330
6F
100
AcDbEntity
  8
DV1_0
 62
     7
370
    35
100
AcDbLine
 10
81.54363421573522
 20
106.3461956075398
 30
0.0
 11
81.34363421573521
 21
106.3461956075398
 31
0.0
  0
LINE
  5
B0
330
6F
100
AcDbEntity
  8
DV1_0
 62
     7
370
    35
100
AcDbLine
 10
81.54363421573518
 20
143.8461956075398
 30
0.0
 11
81.34363421573516
 21
143.8461956075398
 31
0.0
  0
LINE
  5
B1
330
6F
100
AcDbEntity
  8
DV1_0
 62
     7
370
    35
100
AcDbLine
 10
81.54363421573522
 20
106.3461956075398
 30
0.0
 11
81.54363421573522
 21
109.2961956075398
 31
0.0
  0
LINE
  5
B2
330
6F
100
AcDbEntity
  8
DV1_0
 62
     7
370
    35
100
AcDbLine
 10
81.54363421573521
 20
114.8461956075397
 30
0.0
 11
81.5436342157352
 21
132.8461956075398
 31
0.0
  0
LINE
  5
B3
330
6F
100
AcDbEntity
  8
DV1_0
 62
     7
370
    35
100
AcDbLine
 10
81.5436342157352
 20
136.8461956075398
 30
0.0
 11
81.5436342157352
 21
140.3961956075398
 31
0.0
  0
LINE
  5
B4
330
6F
100
AcDbEntity
  8
DV1_0
 62
     7
370
    35
100
AcDbLine
 10
81.54363421573518
 20
140.7961956075398
 30
0.0
 11
81.54363421573518
 21
143.8461956075398
 31
0.0
  0
LINE
  5
B5
330
6F
100
AcDbEntity
  8
DV1_0
 62
     7
370
    35
100
AcDbLine
 10
75.3436342157352
 20
106.3461956075397
 30
0.0
 11
75.04363421573518
 21
106.3461956075397
 31
0.0
  0
LINE
  5
B6
330
6F
100
AcDbEntity
  8
DV1_0
 62
     7
370
    35
100
AcDbLine
 10
75.34363421573516
 20
143.8461956075397
 30
0.0
 11
75.04363421573514
 21
143.8461956075397
 31
0.0
  0
LINE
  5
B7
330
6F
100
AcDbEntity
  8
DV1_0
 62
     7
370
    35
100
AcDbLine
 10
69.04363421573517
 20
106.3461956075397
 30
0.0
 11
68.74363421573518
 21
106.3461956075397
 31
0.0
  0
LINE
  5
B8
330
6F
100
AcDbEntity
  8
DV1_0
 62
     7
370
    35
100
AcDbLine
 10
63.74363421573518
 20
106.3461956075397
 30
0.0
 11
63.14363421573513
 21
106.3461956075397
 31
0.0
  0
LINE
  5
B9
330
6F
100
AcDbEntity
  8
DV1_0
 62
     7
370
    35
100
AcDbLine
 10
69.04363421573512
 20
143.8461956075397
 30
0.0
 11
68.74363421573514
 21
143.8461956075397
 31
0.0
  0
LINE
  5
BA
330
6F
100
AcDbEntity
  8
DV1_0
 62
     7
370
    35
100
AcDbLine
 10
63.74363421573513
 20
143.8461956075397
 30
0.0
 11
63.14363421573508
 21
143.8461956075397
 31
0.0
  0
LINE
  5
BB
330
6F
100
AcDbEntity
  8
DV1_0
 62
     7
370
    35
100
AcDbLine
 10
63.14363421573513
 20
106.3461956075397
 30
0.0
 11
63.14363421573513
 21
107.2961956075398
 31
0.0
  0
LINE
  5
BC
330
6F
100
AcDbEntity
  8
DV1_0
 62
     7
370
    35
100
AcDbLine
 10
63.14363421573511
 20
114.8461956075397
 30
0.0
 11
63.14363421573509
 21
132.8461956075397
 31
0.0
  0
LINE
  5
BD
330
6F
100
AcDbEntity
  8
DV1_0
 62
     7
370
    35
100
AcDbLine
 10
63.14363421573508
 20
136.8461956075397
 30
0.0
 11
63.14363421573508
 21
143.8461956075397
 31
0.0
  0
LINE
  5
BE
330
6F
100
AcDbEntity
  8
DV1_0
 62
     7
370
    35
100
AcDbLine
 10
95.74363421573537
 20
106.3461956075398
 30
0.0
 11
90.74363421573537
 21
106.3461956075398
 31
0.0
  0
LINE
  5
BF
330
6F
100
AcDbEntity
  8
DV1_0
 62
     7
370
    35
100
AcDbLine
 10
95.74363421573533
 20
143.8461956075398
 30
0.0
 11
90.74363421573533
 21
143.8461956075398
 31
0.0
  0
LINE
  5
C0
330
6F
100
AcDbEntity
  8
DV1_0
 62
     7
370
    35
100
AcDbLine
 10
95.74363421573537
 20
106.3461956075398
 30
0.0
 11
95.74363421573533
 21
143.8461956075398
 31
0.0
  0
LINE
  5
C1
330
6F
100
AcDbEntity
  8
DV1_0
 62
     7
370
    35
100
AcDbLine
 10
90.74363421573537
 20
106.3461956075398
 30
0.0
 11
90.74363421573534
 21
143.8461956075398
 31
0.0
  0
LINE
  5
C2
330
6F
100
AcDbEntity
  8
DV1_0
 62
     7
370
    35
100
AcDbLine
 10
102.0436342157353
 20
106.3461956075398
 30
0.0
 11
96.04363421573534
 21
106.3461956075397
 31
0.0
  0
LINE
  5
C3
330
6F
100
AcDbEntity
  8
DV1_0
 62
     7
370
    35
100
AcDbLine
 10
102.0436342157353
 20
143.8461956075398
 30
0.0
 11
96.0436342157353
 21
143.8461956075398
 31
0.0
  0
LINE
  5
C4
330
6F
100
AcDbEntity
  8
DV1_0
 62
     7
370
    35
100
AcDbLine
 10
96.04363421573534
 20
106.3461956075397
 30
0.0
 11
96.04363421573531
 21
143.8461956075398
 31
0.0
  0
LINE
  5
C5
330
6F
100
AcDbEntity
  8
DV1_0
 62
     7
370
    35
100
AcDbLine
 10
102.0436342157353
 20
106.3461956075398
 30
0.0
 11
102.0436342157353
 21
126.8461956075398
 31
0.0
  0
LINE
  5
C6
330
6F
100
AcDbEntity
  8
DV1_0
 62
     7
370
    35
100
AcDbLine
 10
102.0436342157353
 20
136.8461956075398
 30
0.0
 11
102.0436342157353
 21
143.8461956075398
 31
0.0
  0
LINE
  5
C7
330
6F
100
AcDbEntity
  8
DV1_0
 62
     7
370
    35
100
AcDbLine
 10
108.3436342157354
 20
106.3461956075397
 30
0.0
 11
102.3436342157354
 21
106.3461956075397
 31
0.0
  0
LINE
  5
C8
330
6F
100
AcDbEntity
  8
DV1_0
 62
     7
370
    35
100
AcDbLine
 10
108.3436342157353
 20
143.8461956075397
 30
0.0
 11
102.3436342157353
 21
143.8461956075397
 31
0.0
  0
LINE
  5
C9
330
6F
100
AcDbEntity
  8
DV1_0
 62
     7
370
    35
100
AcDbLine
 10
102.3436342157354
 20
106.3461956075397
 30
0.0
 11
102.3436342157354
 21
126.8461956075398
 31
0.0
  0
LINE
  5
CA
330
6F
100
AcDbEntity
  8
DV1_0
 62
     7
370
    35
100
AcDbLine
 10
102.3436342157353
 20
136.8461956075398
 30
0.0
 11
102.3436342157353
 21
143.8461956075397
 31
0.0
  0
LINE
  5
CB
330
6F
100
AcDbEntity
  8
DV1_0
 62
     7
370
    35
100
AcDbLine
 10
108.3436342157354
 20
106.3461956075397
 30
0.0
 11
108.3436342157354
 21
143.8461956075397
 31
0.0
  0
LINE
  5
CC
330
6F
100
AcDbEntity
  8
DV1_0
 62
     7
370
    35
100
AcDbLine
 10
114.6436342157353
 20
106.3461956075398
 30
0.0
 11
108.6436342157353
 21
106.3461956075398
 31
0.0
  0
LINE
  5
CD
330
6F
100
AcDbEntity
  8
DV1_0
 62
     7
370
    35
100
AcDbLine
 10
114.6436342157353
 20
143.8461956075398
 30
0.0
 11
108.6436342157353
 21
143.8461956075398
 31
0.0
  0
LINE
  5
CE
330
6F
100
AcDbEntity
  8
DV1_0
 62
     7
370
    35
100
AcDbLine
 10
108.6436342157353
 20
106.3461956075398
 30
0.0
 11
108.6436342157353
 21
143.8461956075398
 31
0.0
  0
LINE
  5
CF
330
6F
100
AcDbEntity
  8
DV1_0
 62
     7
370
    35
100
AcDbLine
 10
114.6436342157353
 20
106.3461956075398
 30
0.0
 11
114.6436342157353
 21
143.8461956075398
 31
0.0
  0
LINE
  5
D0
330
6F
100
AcDbEntity
  8
DV1_0
 62
     7
370
    35
100
AcDbLine
 10
63.34363421573502
 20
112.8461956075397
 30
0.0
 11
63.74363421573517
 21
112.8461956075397
 31
0.0
  0
LINE
  5
D1
330
6F
100
AcDbEntity
  8
DV1_0
 62
     7
370
    35
100
AcDbLine
 10
68.74363421573517
 20
112.8461956075397
 30
0.0
 11
69.04363421573515
 21
112.8461956075397
 31
0.0
  0
LINE
  5
D2
330
6F
100
AcDbEntity
  8
DV1_0
 62
     7
370
    35
100
AcDbLine
 10
75.04363421573515
 20
112.8461956075397
 30
0.0
 11
75.3436342157352
 21
112.8461956075397
 31
0.0
  0
LINE
  5
D3
330
6F
100
AcDbEntity
  8
DV1_0
 62
     7
370
    35
100
AcDbLine
 10
81.3436342157352
 20
112.8461956075397
 30
0.0
 11
81.64363421573523
 21
112.8461956075397
 31
0.0
  0
LINE
  5
D4
330
6F
100
AcDbEntity
  8
DV1_0
 62
     7
370
    35
100
AcDbLine
 10
63.34363421573502
 20
111.2961956075398
 30
0.0
 11
63.34363421573502
 21
112.8461956075397
 31
0.0
  0
LINE
  5
D5
330
6F
100
AcDbEntity
  8
DV1_0
 62
     7
370
    35
100
AcDbLine
 10
90.3436342157352
 20
112.8461956075397
 30
0.0
 11
90.74363421573536
 21
112.8461956075397
 31
0.0
  0
LINE
  5
D6
330
6F
100
AcDbEntity
  8
DV1_0
 62
     7
370
    35
100
AcDbLine
 10
95.74363421573537
 20
112.8461956075397
 30
0.0
 11
96.04363421573534
 21
112.8461956075397
 31
0.0
  0
LINE
  5
D7
330
6F
100
AcDbEntity
  8
DV1_0
 62
     7
370
    35
100
AcDbLine
 10
102.0436342157353
 20
112.8461956075397
 30
0.0
 11
102.3436342157354
 21
112.8461956075397
 31
0.0
  0
LINE
  5
D8
330
6F
100
AcDbEntity
  8
DV1_0
 62
     7
370
    35
100
AcDbLine
 10
108.3436342157354
 20
112.8461956075397
 30
0.0
 11
108.6436342157353
 21
112.8461956075397
 31
0.0
  0
LINE
  5
D9
330
6F
100
AcDbEntity
  8
DV1_0
 62
     7
370
    35
100
AcDbLine
 10
90.34363421573514
 20
111.2961956075398
 30
0.0
 11
90.34363421573512
 21
112.8461956075397
 31
0.0
  0
LINE
  5
DA
330
6F
100
AcDbEntity
  8
DV1_0
 62
     7
370
    35
100
AcDbLine
 10
90.34363421573511
 20
132.8461956075398
 30
0.0
 11
90.74363421573536
 21
132.8461956075398
 31
0.0
  0
LINE
  5
DB
330
6F
100
AcDbEntity
  8
DV1_0
 62
     7
370
    35
100
AcDbLine
 10
95.74363421573536
 20
132.8461956075398
 30
0.0
 11
96.04363421573532
 21
132.8461956075398
 31
0.0
  0
LINE
  5
DC
330
6F
100
AcDbEntity
  8
DV1_0
 62
     7
370
    35
100
AcDbLine
 10
108.3436342157354
 20
132.8461956075398
 30
0.0
 11
108.6436342157353
 21
132.8461956075398
 31
0.0
  0
LINE
  5
DD
330
6F
100
AcDbEntity
  8
DV1_0
 62
     7
370
    35
100
AcDbLine
 10
89.9436342157351
 20
132.8461956075398
 30
0.0
 11
90.34363421573511
 21
132.8461956075398
 31
0.0
  0
LINE
  5
DE
330
6F
100
AcDbEntity
  8
DV1_0
 62
     7
370
    35
100
AcDbLine
 10
90.34363421573521
 20
134.8461956075398
 30
0.0
 11
90.74363421573536
 21
134.8461956075398
 31
0.0
  0
LINE
  5
DF
330
6F
100
AcDbEntity
  8
DV1_0
 62
     7
370
    35
100
AcDbLine
 10
95.74363421573536
 20
134.8461956075398
 30
0.0
 11
96.04363421573532
 21
134.8461956075398
 31
0.0
  0
LINE
  5
E0
330
6F
100
AcDbEntity
  8
DV1_0
 62
     7
370
    35
100
AcDbLine
 10
108.3436342157354
 20
134.8461956075398
 30
0.0
 11
108.6436342157353
 21
134.8461956075398
 31
0.0
  0
LINE
  5
E1
330
6F
100
AcDbEntity
  8
DV1_0
 62
     7
370
    35
100
AcDbLine
 10
90.34363421573511
 20
132.8461956075398
 30
0.0
 11
90.34363421573511
 21
134.8461956075398
 31
0.0
  0
LINE
  5
E2
330
6F
100
AcDbEntity
  8
DV1_0
 62
     7
370
    35
100
AcDbLine
 10
63.34363421573507
 20
132.8461956075398
 30
0.0
 11
63.74363421573516
 21
132.8461956075398
 31
0.0
  0
LINE
  5
E3
330
6F
100
AcDbEntity
  8
DV1_0
 62
     7
370
    35
100
AcDbLine
 10
68.74363421573517
 20
132.8461956075398
 30
0.0
 11
69.04363421573515
 21
132.8461956075398
 31
0.0
  0
LINE
  5
E4
330
6F
100
AcDbEntity
  8
DV1_0
 62
     7
370
    35
100
AcDbLine
 10
81.34363421573518
 20
132.8461956075398
 30
0.0
 11
81.64363421573522
 21
132.8461956075398
 31
0.0
  0
LINE
  5
E5
330
6F
100
AcDbEntity
  8
DV1_0
 62
     7
370
    35
100
AcDbLine
 10
62.94363421573507
 20
132.8461956075398
 30
0.0
 11
63.34363421573507
 21
132.8461956075398
 31
0.0
  0
LINE
  5
E6
330
6F
100
AcDbEntity
  8
DV1_0
 62
     7
370
    35
100
AcDbLine
 10
63.34363421573513
 20
134.8461956075398
 30
0.0
 11
63.74363421573516
 21
134.8461956075398
 31
0.0
  0
LINE
  5
E7
330
6F
100
AcDbEntity
  8
DV1_0
 62
     7
370
    35
100
AcDbLine
 10
68.74363421573517
 20
134.8461956075398
 30
0.0
 11
69.04363421573515
 21
134.8461956075398
 31
0.0
  0
LINE
  5
E8
330
6F
100
AcDbEntity
  8
DV1_0
 62
     7
370
    35
100
AcDbLine
 10
81.34363421573518
 20
134.8461956075398
 30
0.0
 11
81.64363421573522
 21
134.8461956075398
 31
0.0
  0
LINE
  5
E9
330
6F
100
AcDbEntity
  8
DV1_0
 62
     7
370
    35
100
AcDbLine
 10
63.34363421573507
 20
132.8461956075398
 30
0.0
 11
63.34363421573507
 21
134.8461956075398
 31
0.0
  0
LINE
  5
EA
330
6F
100
AcDbEntity
  8
DV1_0
 62
     7
370
    35
100
AcDbLine
 10
68.74363421573518
 20
106.3461956075397
 30
0.0
 11
63.74363421573518
 21
106.3461956075397
 31
0.0
  0
LINE
  5
EB
330
6F
100
AcDbEntity
  8
DV1_0
 62
     7
370
    35
100
AcDbLine
 10
68.74363421573516
 20
143.8461956075397
 30
0.0
 11
63.74363421573515
 21
143.8461956075397
 31
0.0
  0
LINE
  5
EC
330
6F
100
AcDbEntity
  8
DV1_0
 62
     7
370
    35
100
AcDbLine
 10
68.74363421573518
 20
106.3461956075397
 30
0.0
 11
68.74363421573516
 21
143.8461956075397
 31
0.0
  0
LINE
  5
ED
330
6F
100
AcDbEntity
  8
DV1_0
 62
     7
370
    35
100
AcDbLine
 10
63.74363421573518
 20
106.3461956075397
 30
0.0
 11
63.74363421573515
 21
143.8461956075397
 31
0.0
  0
LINE
  5
EE
330
6F
100
AcDbEntity
  8
DV1_0
 62
     7
370
    35
100
AcDbLine
 10
75.04363421573518
 20
106.3461956075397
 30
0.0
 11
69.04363421573518
 21
106.3461956075397
 31
0.0
  0
LINE
  5
EF
330
6F
100
AcDbEntity
  8
DV1_0
 62
     7
370
    35
100
AcDbLine
 10
75.04363421573514
 20
143.8461956075397
 30
0.0
 11
69.04363421573514
 21
143.8461956075397
 31
0.0
  0
LINE
  5
F0
330
6F
100
AcDbEntity
  8
DV1_0
 62
     7
370
    35
100
AcDbLine
 10
69.04363421573517
 20
106.3461956075397
 30
0.0
 11
69.04363421573512
 21
143.8461956075397
 31
0.0
  0
LINE
  5
F1
330
6F
100
AcDbEntity
  8
DV1_0
 62
     7
370
    35
100
AcDbLine
 10
75.04363421573518
 20
106.3461956075397
 30
0.0
 11
75.04363421573517
 21
126.8461956075398
 31
0.0
  0
LINE
  5
F2
330
6F
100
AcDbEntity
  8
DV1_0
 62
     7
370
    35
100
AcDbLine
 10
75.04363421573515
 20
136.8461956075398
 30
0.0
 11
75.04363421573514
 21
143.8461956075397
 31
0.0
  0
LINE
  5
F3
330
6F
100
AcDbEntity
  8
DV1_0
 62
     7
370
    35
100
AcDbLine
 10
81.34363421573521
 20
106.3461956075398
 30
0.0
 11
75.34363421573521
 21
106.3461956075397
 31
0.0
  0
LINE
  5
F4
330
6F
100
AcDbEntity
  8
DV1_0
 62
     7
370
    35
100
AcDbLine
 10
81.34363421573518
 20
143.8461956075398
 30
0.0
 11
75.34363421573518
 21
143.8461956075398
 31
0.0
  0
LINE
  5
F5
330
6F
100
AcDbEntity
  8
DV1_0
 62
     7
370
    35
100
AcDbLine
 10
75.34363421573521
 20
106.3461956075397
 30
0.0
 11
75.3436342157352
 21
126.8461956075398
 31
0.0
  0
LINE
  5
F6
330
6F
100
AcDbEntity
  8
DV1_0
 62
     7
370
    35
100
AcDbLine
 10
75.34363421573518
 20
136.8461956075398
 30
0.0
 11
75.34363421573516
 21
143.8461956075398
 31
0.0
  0
LINE
  5
F7
330
6F
100
AcDbEntity
  8
DV1_0
 62
     7
370
    35
100
AcDbLine
 10
81.34363421573521
 20
106.3461956075398
 30
0.0
 11
81.34363421573516
 21
143.8461956075398
 31
0.0
  0
LINE
  5
F8
330
6F
100
AcDbEntity
  8
DV1_0
 62
     7
370
    35
100
AcDbLine
 10
87.64363421573525
 20
106.3461956075398
 30
0.0
 11
81.64363421573525
 21
106.3461956075397
 31
0.0
  0
LINE
  5
F9
330
6F
100
AcDbEntity
  8
DV1_0
 62
     7
370
    35
100
AcDbLine
 10
87.6436342157352
 20
143.8461956075398
 30
0.0
 11
81.6436342157352
 21
143.8461956075398
 31
0.0
  0
LINE
  5
FA
330
6F
100
AcDbEntity
  8
DV1_0
 62
     7
370
    35
100
AcDbLine
 10
81.64363421573526
 20
106.3461956075397
 30
0.0
 11
81.64363421573522
 21
143.8461956075398
 31
0.0
  0
LINE
  5
FB
330
6F
100
AcDbEntity
  8
DV1_0
 62
     7
370
    35
100
AcDbLine
 10
87.64363421573525
 20
106.3461956075398
 30
0.0
 11
87.64363421573522
 21
143.8461956075398
 31
0.0
  0
LINE
  5
FC
330
6F
100
AcDbEntity
  8
DV1_0
 62
     7
370
    35
100
AcDbLine
 10
114.9436342157354
 20
107.2961956075398
 30
0.0
 11
114.6436342157353
 21
107.2961956075398
 31
0.0
  0
LINE
  5
FD
330
6F
100
AcDbEntity
  8
DV1_0
 62
     7
370
    35
100
AcDbLine
 10
36.34363421573502
 20
112.8461956075396
 30
0.0
 11
36.74363421573509
 21
112.8461956075396
 31
0.0
  0
LINE
  5
FE
330
6F
100
AcDbEntity
  8
DV1_0
 62
     7
370
    35
100
AcDbLine
 10
41.74363421573509
 20
112.8461956075396
 30
0.0
 11
42.04363421573509
 21
112.8461956075396
 31
0.0
  0
LINE
  5
FF
330
6F
100
AcDbEntity
  8
DV1_0
 62
     7
370
    35
100
AcDbLine
 10
48.04363421573509
 20
112.8461956075396
 30
0.0
 11
48.34363421573508
 21
112.8461956075396
 31
0.0
  0
LINE
  5
100
330
6F
100
AcDbEntity
  8
DV1_0
 62
     7
370
    35
100
AcDbLine
 10
54.34363421573509
 20
112.8461956075396
 30
0.0
 11
54.64363421573509
 21
112.8461956075396
 31
0.0
  0
LINE
  5
101
330
6F
100
AcDbEntity
  8
DV1_0
 62
     7
370
    35
100
AcDbLine
 10
36.34363421573497
 20
111.2961956075398
 30
0.0
 11
36.34363421573497
 21
112.8461956075396
 31
0.0
  0
LINE
  5
102
330
6F
100
AcDbEntity
  8
DV1_0
 62
     7
370
    35
100
AcDbLine
 10
36.34363421573495
 20
132.8461956075398
 30
0.0
 11
36.74363421573503
 21
132.8461956075398
 31
0.0
  0
LINE
  5
103
330
6F
100
AcDbEntity
  8
DV1_0
 62
     7
370
    35
100
AcDbLine
 10
41.74363421573503
 20
132.8461956075398
 30
0.0
 11
42.04363421573505
 21
132.8461956075398
 31
0.0
  0
LINE
  5
104
330
6F
100
AcDbEntity
  8
DV1_0
 62
     7
370
    35
100
AcDbLine
 10
54.34363421573507
 20
132.8461956075398
 30
0.0
 11
54.64363421573507
 21
132.8461956075398
 31
0.0
  0
LINE
  5
105
330
6F
100
AcDbEntity
  8
DV1_0
 62
     7
370
    35
100
AcDbLine
 10
35.94363421573495
 20
132.8461956075398
 30
0.0
 11
36.34363421573495
 21
132.8461956075398
 31
0.0
  0
LINE
  5
106
330
6F
100
AcDbEntity
  8
DV1_0
 62
     7
370
    35
100
AcDbLine
 10
36.34363421573502
 20
134.8461956075398
 30
0.0
 11
36.74363421573502
 21
134.8461956075398
 31
0.0
  0
LINE
  5
107
330
6F
100
AcDbEntity
  8
DV1_0
 62
     7
370
    35
100
AcDbLine
 10
41.74363421573502
 20
134.8461956075398
 30
0.0
 11
42.04363421573505
 21
134.8461956075398
 31
0.0
  0
LINE
  5
108
330
6F
100
AcDbEntity
  8
DV1_0
 62
     7
370
    35
100
AcDbLine
 10
54.34363421573506
 20
134.8461956075398
 30
0.0
 11
54.64363421573507
 21
134.8461956075398
 31
0.0
  0
LINE
  5
109
330
6F
100
AcDbEntity
  8
DV1_0
 62
     7
370
    35
100
AcDbLine
 10
36.34363421573495
 20
132.8461956075398
 30
0.0
 11
36.34363421573495
 21
134.8461956075398
 31
0.0
  0
LINE
  5
10A
330
6F
100
AcDbEntity
  8
DV1_0
 62
     7
370
    35
100
AcDbLine
 10
36.34363421573502
 20
112.8461956075397
 30
0.0
 11
35.94363421573502
 21
112.8461956075397
 31
0.0
  0
LINE
  5
10B
330
6F
100
AcDbEntity
  8
DV1_0
 62
     7
370
    35
100
AcDbLine
 10
60.94363421573503
 20
112.8461956075397
 30
0.0
 11
60.79363421573504
 21
112.8461956075397
 31
0.0
  0
LINE
  5
10C
330
6F
100
AcDbEntity
  8
DV1_0
 62
     7
370
    35
100
AcDbLine
 10
60.79363421573529
 20
112.8461956075397
 30
0.0
 11
60.64363421573509
 21
112.8461956075397
 31
0.0
  0
LINE
  5
10D
330
6F
100
AcDbEntity
  8
DV1_0
 62
     7
370
    35
100
AcDbLine
 10
60.94363421573503
 20
114.8461956075397
 30
0.0
 11
60.79363421573503
 21
114.8461956075397
 31
0.0
  0
LINE
  5
10E
330
6F
100
AcDbEntity
  8
DV1_0
 62
     7
370
    35
100
AcDbLine
 10
36.34363421573502
 20
114.8461956075397
 30
0.0
 11
35.94363421573502
 21
114.8461956075396
 31
0.0
  0
LINE
  5
10F
330
6F
100
AcDbEntity
  8
DV1_0
 62
     7
370
    35
100
AcDbLine
 10
60.79363421573528
 20
114.8461956075397
 30
0.0
 11
60.64363421573508
 21
114.8461956075397
 31
0.0
  0
LINE
  5
110
330
6F
100
AcDbEntity
  8
DV1_0
 62
     7
370
    35
100
AcDbLine
 10
54.64363421573509
 20
114.8461956075397
 30
0.0
 11
54.34363421573508
 21
114.8461956075397
 31
0.0
  0
LINE
  5
111
330
6F
100
AcDbEntity
  8
DV1_0
 62
     7
370
    35
100
AcDbLine
 10
48.34363421573508
 20
114.8461956075397
 30
0.0
 11
48.04363421573508
 21
114.8461956075397
 31
0.0
  0
LINE
  5
112
330
6F
100
AcDbEntity
  8
DV1_0
 62
     7
370
    35
100
AcDbLine
 10
42.04363421573508
 20
114.8461956075396
 30
0.0
 11
41.74363421573507
 21
114.8461956075396
 31
0.0
  0
LINE
  5
113
330
6F
100
AcDbEntity
  8
DV1_0
 62
     7
370
    35
100
AcDbLine
 10
36.74363421573507
 20
114.8461956075396
 30
0.0
 11
36.34363421573502
 21
114.8461956075396
 31
0.0
  0
LINE
  5
114
330
6F
100
AcDbEntity
  8
DV1_0
 62
     7
370
    35
100
AcDbLine
 10
60.79363421573504
 20
112.8461956075397
 30
0.0
 11
60.79363421573503
 21
114.8461956075397
 31
0.0
  0
LINE
  5
115
330
6F
100
AcDbEntity
  8
DV1_0
 62
     7
370
    35
100
AcDbLine
 10
36.34363421573502
 20
112.8461956075397
 30
0.0
 11
36.34363421573502
 21
114.8461956075396
 31
0.0
  0
LINE
  5
116
330
6F
100
AcDbEntity
  8
DV1_0
 62
     7
370
    35
100
AcDbLine
 10
36.34363421573502
 20
134.8461956075397
 30
0.0
 11
35.94363421573502
 21
134.8461956075397
 31
0.0
  0
LINE
  5
117
330
6F
100
AcDbEntity
  8
DV1_0
 62
     7
370
    35
100
AcDbLine
 10
60.94363421573504
 20
134.8461956075398
 30
0.0
 11
60.79363421573504
 21
134.8461956075398
 31
0.0
  0
LINE
  5
118
330
6F
100
AcDbEntity
  8
DV1_0
 62
     7
370
    35
100
AcDbLine
 10
60.79363421573529
 20
134.8461956075398
 30
0.0
 11
60.64363421573507
 21
134.8461956075398
 31
0.0
  0
LINE
  5
119
330
6F
100
AcDbEntity
  8
DV1_0
 62
     7
370
    35
100
AcDbLine
 10
60.94363421573503
 20
136.8461956075398
 30
0.0
 11
60.79363421573503
 21
136.8461956075398
 31
0.0
  0
LINE
  5
11A
330
6F
100
AcDbEntity
  8
DV1_0
 62
     7
370
    35
100
AcDbLine
 10
36.34363421573502
 20
136.8461956075398
 30
0.0
 11
35.94363421573502
 21
136.8461956075398
 31
0.0
  0
LINE
  5
11B
330
6F
100
AcDbEntity
  8
DV1_0
 62
     7
370
    35
100
AcDbLine
 10
60.79363421573529
 20
136.8461956075398
 30
0.0
 11
60.64363421573507
 21
136.8461956075398
 31
0.0
  0
LINE
  5
11C
330
6F
100
AcDbEntity
  8
DV1_0
 62
     7
370
    35
100
AcDbLine
 10
54.64363421573507
 20
136.8461956075398
 30
0.0
 11
54.34363421573506
 21
136.8461956075398
 31
0.0
  0
LINE
  5
11D
330
6F
100
AcDbEntity
  8
DV1_0
 62
     7
370
    35
100
AcDbLine
 10
42.04363421573506
 20
136.8461956075397
 30
0.0
 11
41.74363421573502
 21
136.8461956075397
 31
0.0
  0
LINE
  5
11E
330
6F
100
AcDbEntity
  8
DV1_0
 62
     7
370
    35
100
AcDbLine
 10
36.74363421573502
 20
136.8461956075397
 30
0.0
 11
36.34363421573502
 21
136.8461956075397
 31
0.0
  0
LINE
  5
11F
330
6F
100
AcDbEntity
  8
DV1_0
 62
     7
370
    35
100
AcDbLine
 10
60.79363421573504
 20
134.8461956075398
 30
0.0
 11
60.79363421573503
 21
136.8461956075398
 31
0.0
  0
LINE
  5
120
330
6F
100
AcDbEntity
  8
DV1_0
 62
     7
370
    35
100
AcDbLine
 10
36.34363421573502
 20
134.8461956075398
 30
0.0
 11
36.34363421573502
 21
136.8461956075398
 31
0.0
  0
LINE
  5
121
330
6F
100
AcDbEntity
  8
DV1_0
 62
     7
370
    35
100
AcDbLine
 10
87.94363421573523
 20
153.3461956075397
 30
0.0
 11
89.94363421573523
 21
153.3461956075397
 31
0.0
  0
LINE
  5
122
330
6F
100
AcDbEntity
  8
DV1_0
 62
     7
370
    35
100
AcDbLine
 10
87.94363421573529
 20
105.3461956075397
 30
0.0
 11
89.94363421573529
 21
105.3461956075397
 31
0.0
  0
LINE
  5
123
330
6F
100
AcDbEntity
  8
DV1_0
 62
     7
370
    35
100
AcDbLine
 10
89.94363421573523
 20
153.3461956075397
 30
0.0
 11
89.94363421573527
 21
105.3461956075397
 31
0.0
  0
LINE
  5
124
330
6F
100
AcDbEntity
  8
DV1_0
 62
     7
370
    35
100
AcDbLine
 10
87.94363421573523
 20
153.3461956075397
 30
0.0
 11
87.94363421573527
 21
105.3461956075397
 31
0.0
  0
LINE
  5
125
330
6F
100
AcDbEntity
  8
DV1_0
 62
     7
370
    35
100
AcDbLine
 10
36.7436342157351
 20
107.2961956075398
 30
0.0
 11
35.94363421573506
 21
107.2961956075398
 31
0.0
  0
LINE
  5
126
330
6F
100
AcDbEntity
  8
DV1_0
 62
     7
370
    35
100
AcDbLine
 10
60.94363421573516
 20
107.2961956075398
 30
0.0
 11
60.6436342157351
 21
107.2961956075398
 31
0.0
  0
LINE
  5
127
330
6F
100
AcDbEntity
  8
DV1_0
 62
     7
370
    35
100
AcDbLine
 10
37.94363421573497
 20
151.3461956075397
 30
0.0
 11
37.94363421573496
 21
153.3461956075397
 31
0.0
  0
LINE
  5
128
330
6F
100
AcDbEntity
  8
DV1_0
 62
     7
370
    35
100
AcDbLine
 10
35.94363421573497
 20
151.3461956075397
 30
0.0
 11
37.94363421573497
 21
151.3461956075397
 31
0.0
  0
LINE
  5
129
330
6F
100
AcDbEntity
  8
DV1_0
 62
     7
370
    35
100
AcDbLine
 10
58.943634215735
 20
151.3461956075397
 30
0.0
 11
60.943634215735
 21
151.3461956075397
 31
0.0
  0
LINE
  5
12A
330
6F
100
AcDbEntity
  8
DV1_0
 62
     7
370
    35
100
AcDbLine
 10
58.943634215735
 20
153.3461956075397
 30
0.0
 11
58.943634215735
 21
151.3461956075397
 31
0.0
  0
LINE
  5
12B
330
6F
100
AcDbEntity
  8
DV1_0
 62
     7
370
    35
100
AcDbLine
 10
60.74363421573514
 20
106.3461956075397
 30
0.0
 11
60.6436342157351
 21
106.3461956075397
 31
0.0
  0
LINE
  5
12C
330
6F
100
AcDbEntity
  8
DV1_0
 62
     7
370
    35
100
AcDbLine
 10
60.74363421573509
 20
143.8461956075397
 30
0.0
 11
60.64363421573506
 21
143.8461956075397
 31
0.0
  0
LINE
  5
12D
330
6F
100
AcDbEntity
  8
DV1_0
 62
     7
370
    35
100
AcDbLine
 10
60.74363421573514
 20
106.3461956075397
 30
0.0
 11
60.74363421573514
 21
107.2961956075398
 31
0.0
  0
LINE
  5
12E
330
6F
100
AcDbEntity
  8
DV1_0
 62
     7
370
    35
100
AcDbLine
 10
60.74363421573513
 20
111.2961956075398
 30
0.0
 11
60.74363421573513
 21
112.8461956075397
 31
0.0
  0
LINE
  5
12F
330
6F
100
AcDbEntity
  8
DV1_0
 62
     7
370
    35
100
AcDbLine
 10
60.74363421573513
 20
114.8461956075397
 30
0.0
 11
60.7436342157351
 21
134.8461956075398
 31
0.0
  0
LINE
  5
130
330
6F
100
AcDbEntity
  8
DV1_0
 62
     7
370
    35
100
AcDbLine
 10
60.7436342157351
 20
136.8461956075398
 30
0.0
 11
60.74363421573509
 21
143.8461956075397
 31
0.0
  0
LINE
  5
131
330
6F
100
AcDbEntity
  8
DV1_0
 62
     7
370
    35
100
AcDbLine
 10
54.54363421573516
 20
106.3461956075397
 30
0.0
 11
54.34363421573509
 21
106.3461956075397
 31
0.0
  0
LINE
  5
132
330
6F
100
AcDbEntity
  8
DV1_0
 62
     7
370
    35
100
AcDbLine
 10
54.5436342157351
 20
143.8461956075397
 30
0.0
 11
54.34363421573505
 21
143.8461956075397
 31
0.0
  0
LINE
  5
133
330
6F
100
AcDbEntity
  8
DV1_0
 62
     7
370
    35
100
AcDbLine
 10
54.54363421573516
 20
106.3461956075397
 30
0.0
 11
54.54363421573515
 21
109.2961956075398
 31
0.0
  0
LINE
  5
134
330
6F
100
AcDbEntity
  8
DV1_0
 62
     7
370
    35
100
AcDbLine
 10
54.54363421573515
 20
114.8461956075397
 30
0.0
 11
54.54363421573512
 21
132.8461956075398
 31
0.0
  0
LINE
  5
135
330
6F
100
AcDbEntity
  8
DV1_0
 62
     7
370
    35
100
AcDbLine
 10
54.54363421573512
 20
136.8461956075398
 30
0.0
 11
54.54363421573511
 21
140.3961956075398
 31
0.0
  0
LINE
  5
136
330
6F
100
AcDbEntity
  8
DV1_0
 62
     7
370
    35
100
AcDbLine
 10
54.54363421573511
 20
140.7961956075398
 30
0.0
 11
54.5436342157351
 21
143.8461956075397
 31
0.0
  0
LINE
  5
137
330
6F
100
AcDbEntity
  8
DV1_0
 62
     7
370
    35
100
AcDbLine
 10
48.34363421573509
 20
106.3461956075397
 30
0.0
 11
48.0436342157351
 21
106.3461956075397
 31
0.0
  0
LINE
  5
138
330
6F
100
AcDbEntity
  8
DV1_0
 62
     7
370
    35
100
AcDbLine
 10
48.34363421573504
 20
143.8461956075397
 30
0.0
 11
48.04363421573504
 21
143.8461956075397
 31
0.0
  0
LINE
  5
139
330
6F
100
AcDbEntity
  8
DV1_0
 62
     7
370
    35
100
AcDbLine
 10
42.0436342157351
 20
106.3461956075397
 30
0.0
 11
41.7436342157351
 21
106.3461956075397
 31
0.0
  0
LINE
  5
13A
330
6F
100
AcDbEntity
  8
DV1_0
 62
     7
370
    35
100
AcDbLine
 10
36.7436342157351
 20
106.3461956075397
 30
0.0
 11
36.14363421573507
 21
106.3461956075397
 31
0.0
  0
LINE
  5
13B
330
6F
100
AcDbEntity
  8
DV1_0
 62
     7
370
    35
100
AcDbLine
 10
42.04363421573505
 20
143.8461956075397
 30
0.0
 11
41.743634215735
 21
143.8461956075397
 31
0.0
  0
LINE
  5
13C
330
6F
100
AcDbEntity
  8
DV1_0
 62
     7
370
    35
100
AcDbLine
 10
36.743634215735
 20
143.8461956075397
 30
0.0
 11
36.14363421573503
 21
143.8461956075397
 31
0.0
  0
LINE
  5
13D
330
6F
100
AcDbEntity
  8
DV1_0
 62
     7
370
    35
100
AcDbLine
 10
36.14363421573508
 20
106.3461956075397
 30
0.0
 11
36.14363421573508
 21
107.2961956075397
 31
0.0
  0
LINE
  5
13E
330
6F
100
AcDbEntity
  8
DV1_0
 62
     7
370
    35
100
AcDbLine
 10
36.14363421573507
 20
114.8461956075396
 30
0.0
 11
36.14363421573506
 21
132.8461956075397
 31
0.0
  0
LINE
  5
13F
330
6F
100
AcDbEntity
  8
DV1_0
 62
     7
370
    35
100
AcDbLine
 10
36.14363421573505
 20
136.8461956075397
 30
0.0
 11
36.14363421573504
 21
143.8461956075397
 31
0.0
  0
LINE
  5
140
330
6F
100
AcDbEntity
  8
DV1_0
 62
     7
370
    35
100
AcDbLine
 10
41.7436342157351
 20
106.3461956075397
 30
0.0
 11
36.7436342157351
 21
106.3461956075396
 31
0.0
  0
LINE
  5
141
330
6F
100
AcDbEntity
  8
DV1_0
 62
     7
370
    35
100
AcDbLine
 10
41.743634215735
 20
143.8461956075397
 30
0.0
 11
36.743634215735
 21
143.8461956075397
 31
0.0
  0
LINE
  5
142
330
6F
100
AcDbEntity
  8
DV1_0
 62
     7
370
    35
100
AcDbLine
 10
41.7436342157351
 20
106.3461956075397
 30
0.0
 11
41.74363421573501
 21
143.8461956075397
 31
0.0
  0
LINE
  5
143
330
6F
100
AcDbEntity
  8
DV1_0
 62
     7
370
    35
100
AcDbLine
 10
36.74363421573509
 20
106.3461956075396
 30
0.0
 11
36.743634215735
 21
143.8461956075396
 31
0.0
  0
LINE
  5
144
330
6F
100
AcDbEntity
  8
DV1_0
 62
     7
370
    35
100
AcDbLine
 10
48.0436342157351
 20
106.3461956075397
 30
0.0
 11
42.0436342157351
 21
106.3461956075396
 31
0.0
  0
LINE
  5
145
330
6F
100
AcDbEntity
  8
DV1_0
 62
     7
370
    35
100
AcDbLine
 10
48.04363421573504
 20
143.8461956075397
 30
0.0
 11
42.04363421573504
 21
143.8461956075397
 31
0.0
  0
LINE
  5
146
330
6F
100
AcDbEntity
  8
DV1_0
 62
     7
370
    35
100
AcDbLine
 10
42.0436342157351
 20
106.3461956075397
 30
0.0
 11
42.04363421573505
 21
143.8461956075397
 31
0.0
  0
LINE
  5
147
330
6F
100
AcDbEntity
  8
DV1_0
 62
     7
370
    35
100
AcDbLine
 10
48.0436342157351
 20
106.3461956075397
 30
0.0
 11
48.04363421573507
 21
126.8461956075398
 31
0.0
  0
LINE
  5
148
330
6F
100
AcDbEntity
  8
DV1_0
 62
     7
370
    35
100
AcDbLine
 10
48.04363421573505
 20
136.8461956075397
 30
0.0
 11
48.04363421573505
 21
143.8461956075397
 31
0.0
  0
LINE
  5
149
330
6F
100
AcDbEntity
  8
DV1_0
 62
     7
370
    35
100
AcDbLine
 10
54.34363421573509
 20
106.3461956075397
 30
0.0
 11
48.34363421573509
 21
106.3461956075397
 31
0.0
  0
LINE
  5
14A
330
6F
100
AcDbEntity
  8
DV1_0
 62
     7
370
    35
100
AcDbLine
 10
54.34363421573505
 20
143.8461956075397
 30
0.0
 11
48.34363421573505
 21
143.8461956075397
 31
0.0
  0
LINE
  5
14B
330
6F
100
AcDbEntity
  8
DV1_0
 62
     7
370
    35
100
AcDbLine
 10
48.34363421573509
 20
106.3461956075397
 30
0.0
 11
48.34363421573507
 21
126.8461956075398
 31
0.0
  0
LINE
  5
14C
330
6F
100
AcDbEntity
  8
DV1_0
 62
     7
370
    35
100
AcDbLine
 10
48.34363421573506
 20
136.8461956075397
 30
0.0
 11
48.34363421573505
 21
143.8461956075397
 31
0.0
  0
LINE
  5
14D
330
6F
100
AcDbEntity
  8
DV1_0
 62
     7
370
    35
100
AcDbLine
 10
54.34363421573509
 20
106.3461956075397
 30
0.0
 11
54.34363421573505
 21
143.8461956075397
 31
0.0
  0
LINE
  5
14E
330
6F
100
AcDbEntity
  8
DV1_0
 62
     7
370
    35
100
AcDbLine
 10
60.6436342157351
 20
106.3461956075397
 30
0.0
 11
54.6436342157351
 21
106.3461956075397
 31
0.0
  0
LINE
  5
14F
330
6F
100
AcDbEntity
  8
DV1_0
 62
     7
370
    35
100
AcDbLine
 10
60.64363421573506
 20
143.8461956075397
 30
0.0
 11
54.64363421573506
 21
143.8461956075397
 31
0.0
  0
LINE
  5
150
330
6F
100
AcDbEntity
  8
DV1_0
 62
     7
370
    35
100
AcDbLine
 10
54.64363421573509
 20
106.3461956075397
 30
0.0
 11
54.64363421573506
 21
143.8461956075397
 31
0.0
  0
LINE
  5
151
330
6F
100
AcDbEntity
  8
DV1_0
 62
     7
370
    35
100
AcDbLine
 10
60.6436342157351
 20
106.3461956075397
 30
0.0
 11
60.64363421573506
 21
143.8461956075397
 31
0.0
  0
LINE
  5
152
330
6F
100
AcDbEntity
  8
DV1_0
 62
     7
370
    35
100
AcDbLine
 10
60.94363421573511
 20
153.3461956075397
 30
0.0
 11
62.94363421573511
 21
153.3461956075397
 31
0.0
  0
LINE
  5
153
330
6F
100
AcDbEntity
  8
DV1_0
 62
     7
370
    35
100
AcDbLine
 10
60.94363421573516
 20
105.3461956075397
 30
0.0
 11
62.94363421573516
 21
105.3461956075397
 31
0.0
  0
LINE
  5
154
330
6F
100
AcDbEntity
  8
DV1_0
 62
     7
370
    35
100
AcDbLine
 10
62.94363421573511
 20
153.3461956075397
 30
0.0
 11
62.94363421573515
 21
105.3461956075397
 31
0.0
  0
LINE
  5
155
330
6F
100
AcDbEntity
  8
DV1_0
 62
     7
370
    35
100
AcDbLine
 10
60.94363421573511
 20
153.3461956075397
 30
0.0
 11
60.94363421573515
 21
105.3461956075397
 31
0.0
  0
ARC
  5
156
330
6F
100
AcDbEntity
  8
DV1_0
 62
     7
370
    35
100
AcDbCircle
 10
36.79915716461873
 20
140.5961956075398
 30
0.0
 40
0.2000000000000002
100
AcDbArc
 50
106.1178966516342
 51
253.8821033483658
  0
LINE
  5
157
330
6F
100
AcDbEntity
  8
DV1_0
 62
     7
370
    35
100
AcDbLine
 10
54.64363421573506
 20
140.7961956075398
 30
0.0
 11
54.34363421573505
 21
140.7961956075398
 31
0.0
  0
LINE
  5
158
330
6F
100
AcDbEntity
  8
DV1_0
 62
     7
370
    35
100
AcDbLine
 10
48.34363421573505
 20
140.7961956075398
 30
0.0
 11
48.04363421573505
 21
140.7961956075398
 31
0.0
  0
LINE
  5
159
330
6F
100
AcDbEntity
  8
DV1_0
 62
     7
370
    35
100
AcDbLine
 10
42.04363421573505
 20
140.7961956075398
 30
0.0
 11
41.74363421573501
 21
140.7961956075398
 31
0.0
  0
LINE
  5
15A
330
6F
100
AcDbEntity
  8
DV1_0
 62
     7
370
    35
100
AcDbLine
 10
41.74363421573501
 20
140.3961956075398
 30
0.0
 11
42.04363421573505
 21
140.3961956075398
 31
0.0
  0
LINE
  5
15B
330
6F
100
AcDbEntity
  8
DV1_0
 62
     7
370
    35
100
AcDbLine
 10
48.04363421573505
 20
140.3961956075398
 30
0.0
 11
48.34363421573505
 21
140.3961956075398
 31
0.0
  0
LINE
  5
15C
330
6F
100
AcDbEntity
  8
DV1_0
 62
     7
370
    35
100
AcDbLine
 10
54.34363421573505
 20
140.3961956075398
 30
0.0
 11
54.64363421573506
 21
140.3961956075398
 31
0.0
  0
LINE
  5
15D
330
6F
100
AcDbEntity
  8
DV1_0
 62
     7
370
    35
100
AcDbLine
 10
54.64363421573509
 20
111.7961956075398
 30
0.0
 11
54.34363421573508
 21
111.7961956075398
 31
0.0
  0
LINE
  5
15E
330
6F
100
AcDbEntity
  8
DV1_0
 62
     7
370
    35
100
AcDbLine
 10
48.34363421573508
 20
111.7961956075398
 30
0.0
 11
48.04363421573508
 21
111.7961956075398
 31
0.0
  0
LINE
  5
15F
330
6F
100
AcDbEntity
  8
DV1_0
 62
     7
370
    35
100
AcDbLine
 10
42.04363421573508
 20
111.7961956075398
 30
0.0
 11
41.74363421573508
 21
111.7961956075398
 31
0.0
  0
LINE
  5
160
330
6F
100
AcDbEntity
  8
DV1_0
 62
     7
370
    35
100
AcDbLine
 10
41.74363421573509
 20
111.3961956075398
 30
0.0
 11
42.0436342157351
 21
111.3961956075398
 31
0.0
  0
LINE
  5
161
330
6F
100
AcDbEntity
  8
DV1_0
 62
     7
370
    35
100
AcDbLine
 10
48.0436342157351
 20
111.3961956075398
 30
0.0
 11
48.34363421573509
 21
111.3961956075398
 31
0.0
  0
LINE
  5
162
330
6F
100
AcDbEntity
  8
DV1_0
 62
     7
370
    35
100
AcDbLine
 10
54.34363421573508
 20
111.3961956075398
 30
0.0
 11
54.64363421573509
 21
111.3961956075398
 31
0.0
  0
LINE
  5
163
330
6F
100
AcDbEntity
  8
DV1_0
 62
     7
370
    35
100
AcDbLine
 10
116.943634215735
 20
155.3461956075398
 30
0.0
 11
116.943634215735
 21
153.3461956075398
 31
0.0
  0
LINE
  5
164
330
6F
100
AcDbEntity
  8
DV1_0
 62
     7
370
    35
100
AcDbLine
 10
33.94363421573502
 20
155.3461956075398
 30
0.0
 11
33.94363421573502
 21
153.3461956075398
 31
0.0
  0
LINE
  5
165
330
6F
100
AcDbEntity
  8
DV1_0
 62
     7
370
    35
100
AcDbLine
 10
116.943634215735
 20
153.3461956075398
 30
0.0
 11
33.94363421573502
 21
153.3461956075397
 31
0.0
  0
LINE
  5
166
330
6F
100
AcDbEntity
  8
DV1_0
 62
     7
370
    35
100
AcDbLine
 10
116.943634215735
 20
155.3461956075398
 30
0.0
 11
33.94363421573502
 21
155.3461956075397
 31
0.0
  0
LINE
  5
167
330
6F
100
AcDbEntity
  8
DV1_0
 62
     7
370
    35
100
AcDbLine
 10
112.9436342157352
 20
151.3461956075397
 30
0.0
 11
114.9436342157352
 21
151.3461956075397
 31
0.0
  0
LINE
  5
168
330
6F
100
AcDbEntity
  8
DV1_0
 62
     7
370
    35
100
AcDbLine
 10
112.9436342157352
 20
153.3461956075397
 30
0.0
 11
112.9436342157352
 21
151.3461956075397
 31
0.0
  0
LINE
  5
169
330
6F
100
AcDbEntity
  8
DV1_0
 62
     7
370
    35
100
AcDbLine
 10
63.34363421573514
 20
134.8461956075398
 30
0.0
 11
62.94363421573513
 21
134.8461956075398
 31
0.0
  0
LINE
  5
16A
330
6F
100
AcDbEntity
  8
DV1_0
 62
     7
370
    35
100
AcDbLine
 10
87.94363421573514
 20
134.8461956075398
 30
0.0
 11
87.79363421573515
 21
134.8461956075398
 31
0.0
  0
LINE
  5
16B
330
6F
100
AcDbEntity
  8
DV1_0
 62
     7
370
    35
100
AcDbLine
 10
87.7936342157354
 20
134.8461956075398
 30
0.0
 11
87.64363421573522
 21
134.8461956075398
 31
0.0
  0
LINE
  5
16C
330
6F
100
AcDbEntity
  8
DV1_0
 62
     7
370
    35
100
AcDbLine
 10
87.94363421573513
 20
136.8461956075398
 30
0.0
 11
87.79363421573514
 21
136.8461956075398
 31
0.0
  0
LINE
  5
16D
330
6F
100
AcDbEntity
  8
DV1_0
 62
     7
370
    35
100
AcDbLine
 10
63.34363421573512
 20
136.8461956075398
 30
0.0
 11
62.94363421573512
 21
136.8461956075398
 31
0.0
  0
LINE
  5
16E
330
6F
100
AcDbEntity
  8
DV1_0
 62
     7
370
    35
100
AcDbLine
 10
87.7936342157354
 20
136.8461956075398
 30
0.0
 11
87.6436342157352
 21
136.8461956075398
 31
0.0
  0
LINE
  5
16F
330
6F
100
AcDbEntity
  8
DV1_0
 62
     7
370
    35
100
AcDbLine
 10
81.64363421573522
 20
136.8461956075398
 30
0.0
 11
81.34363421573518
 21
136.8461956075398
 31
0.0
  0
LINE
  5
170
330
6F
100
AcDbEntity
  8
DV1_0
 62
     7
370
    35
100
AcDbLine
 10
69.04363421573514
 20
136.8461956075397
 30
0.0
 11
68.74363421573517
 21
136.8461956075397
 31
0.0
  0
LINE
  5
171
330
6F
100
AcDbEntity
  8
DV1_0
 62
     7
370
    35
100
AcDbLine
 10
63.74363421573516
 20
136.8461956075397
 30
0.0
 11
63.34363421573513
 21
136.8461956075397
 31
0.0
  0
LINE
  5
172
330
6F
100
AcDbEntity
  8
DV1_0
 62
     7
370
    35
100
AcDbLine
 10
87.79363421573515
 20
134.8461956075398
 30
0.0
 11
87.79363421573514
 21
136.8461956075398
 31
0.0
  0
LINE
  5
173
330
6F
100
AcDbEntity
  8
DV1_0
 62
     7
370
    35
100
AcDbLine
 10
63.34363421573514
 20
134.8461956075398
 30
0.0
 11
63.34363421573514
 21
136.8461956075398
 31
0.0
  0
LINE
  5
174
330
6F
100
AcDbEntity
  8
DV1_0
 62
     7
370
    35
100
AcDbLine
 10
90.34363421573518
 20
134.8461956075398
 30
0.0
 11
89.94363421573517
 21
134.8461956075398
 31
0.0
  0
LINE
  5
175
330
6F
100
AcDbEntity
  8
DV1_0
 62
     7
370
    35
100
AcDbLine
 10
114.9436342157352
 20
134.8461956075398
 30
0.0
 11
114.7936342157352
 21
134.8461956075398
 31
0.0
  0
LINE
  5
176
330
6F
100
AcDbEntity
  8
DV1_0
 62
     7
370
    35
100
AcDbLine
 10
114.7936342157355
 20
134.8461956075398
 30
0.0
 11
114.6436342157353
 21
134.8461956075398
 31
0.0
  0
LINE
  5
177
330
6F
100
AcDbEntity
  8
DV1_0
 62
     7
370
    35
100
AcDbLine
 10
114.9436342157352
 20
136.8461956075398
 30
0.0
 11
114.7936342157352
 21
136.8461956075398
 31
0.0
  0
LINE
  5
178
330
6F
100
AcDbEntity
  8
DV1_0
 62
     7
370
    35
100
AcDbLine
 10
90.34363421573518
 20
136.8461956075398
 30
0.0
 11
89.94363421573517
 21
136.8461956075398
 31
0.0
  0
LINE
  5
179
330
6F
100
AcDbEntity
  8
DV1_0
 62
     7
370
    35
100
AcDbLine
 10
114.7936342157355
 20
136.8461956075398
 30
0.0
 11
114.6436342157353
 21
136.8461956075398
 31
0.0
  0
LINE
  5
17A
330
6F
100
AcDbEntity
  8
DV1_0
 62
     7
370
    35
100
AcDbLine
 10
108.6436342157353
 20
136.8461956075398
 30
0.0
 11
108.3436342157354
 21
136.8461956075398
 31
0.0
  0
LINE
  5
17B
330
6F
100
AcDbEntity
  8
DV1_0
 62
     7
370
    35
100
AcDbLine
 10
96.04363421573532
 20
136.8461956075398
 30
0.0
 11
95.74363421573536
 21
136.8461956075398
 31
0.0
  0
LINE
  5
17C
330
6F
100
AcDbEntity
  8
DV1_0
 62
     7
370
    35
100
AcDbLine
 10
90.74363421573534
 20
136.8461956075398
 30
0.0
 11
90.3436342157352
 21
136.8461956075398
 31
0.0
  0
LINE
  5
17D
330
6F
100
AcDbEntity
  8
DV1_0
 62
     7
370
    35
100
AcDbLine
 10
114.7936342157352
 20
134.8461956075398
 30
0.0
 11
114.7936342157352
 21
136.8461956075398
 31
0.0
  0
LINE
  5
17E
330
6F
100
AcDbEntity
  8
DV1_0
 62
     7
370
    35
100
AcDbLine
 10
90.34363421573518
 20
134.8461956075398
 30
0.0
 11
90.34363421573516
 21
136.8461956075398
 31
0.0
  0
LINE
  5
17F
330
6F
100
AcDbEntity
  8
DV1_0
 62
     7
370
    35
100
AcDbLine
 10
64.94363421573502
 20
151.3461956075397
 30
0.0
 11
64.94363421573502
 21
153.3461956075397
 31
0.0
  0
LINE
  5
180
330
6F
100
AcDbEntity
  8
DV1_0
 62
     7
370
    35
100
AcDbLine
 10
62.94363421573501
 20
151.3461956075397
 30
0.0
 11
64.94363421573502
 21
151.3461956075397
 31
0.0
  0
LINE
  5
181
330
6F
100
AcDbEntity
  8
DV1_0
 62
     7
370
    35
100
AcDbLine
 10
114.9436342157353
 20
153.3461956075397
 30
0.0
 11
116.9436342157353
 21
153.3461956075397
 31
0.0
  0
LINE
  5
182
330
6F
100
AcDbEntity
  8
DV1_0
 62
     7
370
    35
100
AcDbLine
 10
114.9436342157354
 20
105.3461956075397
 30
0.0
 11
116.9436342157354
 21
105.3461956075397
 31
0.0
  0
LINE
  5
183
330
6F
100
AcDbEntity
  8
DV1_0
 62
     7
370
    35
100
AcDbLine
 10
116.9436342157353
 20
153.3461956075397
 30
0.0
 11
116.9436342157354
 21
105.3461956075397
 31
0.0
  0
LINE
  5
184
330
6F
100
AcDbEntity
  8
DV1_0
 62
     7
370
    35
100
AcDbLine
 10
114.9436342157353
 20
153.3461956075397
 30
0.0
 11
114.9436342157354
 21
105.3461956075397
 31
0.0
  0
LINE
  5
185
330
6F
100
AcDbEntity
  8
DV1_0
 62
     7
370
    35
100
AcDbLine
 10
91.94363421573512
 20
151.3461956075397
 30
0.0
 11
91.94363421573512
 21
153.3461956075397
 31
0.0
  0
LINE
  5
186
330
6F
100
AcDbEntity
  8
DV1_0
 62
     7
370
    35
100
AcDbLine
 10
89.94363421573512
 20
151.3461956075397
 30
0.0
 11
91.94363421573512
 21
151.3461956075397
 31
0.0
  0
LINE
  5
187
330
6F
100
AcDbEntity
  8
DV1_0
 62
     7
370
    35
100
AcDbLine
 10
87.94363421573524
 20
107.2961956075398
 30
0.0
 11
87.64363421573525
 21
107.2961956075398
 31
0.0
  0
LINE
  5
188
330
6F
100
AcDbEntity
  8
DV1_0
 62
     7
370
    35
100
AcDbLine
 10
85.94363421573512
 20
151.3461956075397
 30
0.0
 11
87.94363421573512
 21
151.3461956075397
 31
0.0
  0
LINE
  5
189
330
6F
100
AcDbEntity
  8
DV1_0
 62
     7
370
    35
100
AcDbLine
 10
85.9436342157351
 20
153.3461956075397
 30
0.0
 11
85.94363421573512
 21
151.3461956075397
 31
0.0
  0
LINE
  5
18A
330
6F
100
AcDbEntity
  8
DV1_0
 62
     7
370
    35
100
AcDbLine
 10
90.74363421573537
 20
107.2961956075398
 30
0.0
 11
89.94363421573524
 21
107.2961956075398
 31
0.0
  0
LINE
  5
18B
330
6F
100
AcDbEntity
  8
DV1_0
 62
     7
370
    35
100
AcDbLine
 10
63.34363421573509
 20
112.8461956075397
 30
0.0
 11
62.94363421573509
 21
112.8461956075397
 31
0.0
  0
LINE
  5
18C
330
6F
100
AcDbEntity
  8
DV1_0
 62
     7
370
    35
100
AcDbLine
 10
87.94363421573512
 20
112.8461956075397
 30
0.0
 11
87.79363421573511
 21
112.8461956075397
 31
0.0
  0
LINE
  5
18D
330
6F
100
AcDbEntity
  8
DV1_0
 62
     7
370
    35
100
AcDbLine
 10
87.79363421573537
 20
112.8461956075397
 30
0.0
 11
87.64363421573523
 21
112.8461956075397
 31
0.0
  0
LINE
  5
18E
330
6F
100
AcDbEntity
  8
DV1_0
 62
     7
370
    35
100
AcDbLine
 10
87.94363421573512
 20
114.8461956075397
 30
0.0
 11
87.79363421573511
 21
114.8461956075397
 31
0.0
  0
LINE
  5
18F
330
6F
100
AcDbEntity
  8
DV1_0
 62
     7
370
    35
100
AcDbLine
 10
63.34363421573511
 20
114.8461956075397
 30
0.0
 11
62.94363421573511
 21
114.8461956075397
 31
0.0
  0
LINE
  5
190
330
6F
100
AcDbEntity
  8
DV1_0
 62
     7
370
    35
100
AcDbLine
 10
87.79363421573535
 20
114.8461956075397
 30
0.0
 11
87.64363421573522
 21
114.8461956075397
 31
0.0
  0
LINE
  5
191
330
6F
100
AcDbEntity
  8
DV1_0
 62
     7
370
    35
100
AcDbLine
 10
81.64363421573523
 20
114.8461956075397
 30
0.0
 11
81.3436342157352
 21
114.8461956075397
 31
0.0
  0
LINE
  5
192
330
6F
100
AcDbEntity
  8
DV1_0
 62
     7
370
    35
100
AcDbLine
 10
75.3436342157352
 20
114.8461956075397
 30
0.0
 11
75.04363421573515
 21
114.8461956075397
 31
0.0
  0
LINE
  5
193
330
6F
100
AcDbEntity
  8
DV1_0
 62
     7
370
    35
100
AcDbLine
 10
69.04363421573515
 20
114.8461956075397
 30
0.0
 11
68.74363421573516
 21
114.8461956075397
 31
0.0
  0
LINE
  5
194
330
6F
100
AcDbEntity
  8
DV1_0
 62
     7
370
    35
100
AcDbLine
 10
63.74363421573517
 20
114.8461956075397
 30
0.0
 11
63.34363421573509
 21
114.8461956075397
 31
0.0
  0
LINE
  5
195
330
6F
100
AcDbEntity
  8
DV1_0
 62
     7
370
    35
100
AcDbLine
 10
87.79363421573511
 20
112.8461956075397
 30
0.0
 11
87.79363421573511
 21
114.8461956075397
 31
0.0
  0
LINE
  5
196
330
6F
100
AcDbEntity
  8
DV1_0
 62
     7
370
    35
100
AcDbLine
 10
63.34363421573509
 20
112.8461956075397
 30
0.0
 11
63.34363421573509
 21
114.8461956075397
 31
0.0
  0
LINE
  5
197
330
6F
100
AcDbEntity
  8
DV1_0
 62
     7
370
    35
100
AcDbLine
 10
90.34363421573518
 20
112.8461956075397
 30
0.0
 11
89.94363421573517
 21
112.8461956075397
 31
0.0
  0
LINE
  5
198
330
6F
100
AcDbEntity
  8
DV1_0
 62
     7
370
    35
100
AcDbLine
 10
114.9436342157352
 20
112.8461956075397
 30
0.0
 11
114.7936342157352
 21
112.8461956075397
 31
0.0
  0
LINE
  5
199
330
6F
100
AcDbEntity
  8
DV1_0
 62
     7
370
    35
100
AcDbLine
 10
114.7936342157355
 20
112.8461956075397
 30
0.0
 11
114.6436342157353
 21
112.8461956075397
 31
0.0
  0
LINE
  5
19A
330
6F
100
AcDbEntity
  8
DV1_0
 62
     7
370
    35
100
AcDbLine
 10
114.9436342157352
 20
114.8461956075397
 30
0.0
 11
114.7936342157352
 21
114.8461956075397
 31
0.0
  0
LINE
  5
19B
330
6F
100
AcDbEntity
  8
DV1_0
 62
     7
370
    35
100
AcDbLine
 10
90.34363421573518
 20
114.8461956075397
 30
0.0
 11
89.94363421573519
 21
114.8461956075397
 31
0.0
  0
LINE
  5
19C
330
6F
100
AcDbEntity
  8
DV1_0
 62
     7
370
    35
100
AcDbLine
 10
114.7936342157355
 20
114.8461956075397
 30
0.0
 11
114.6436342157353
 21
114.8461956075397
 31
0.0
  0
LINE
  5
19D
330
6F
100
AcDbEntity
  8
DV1_0
 62
     7
370
    35
100
AcDbLine
 10
108.6436342157353
 20
114.8461956075397
 30
0.0
 11
108.3436342157354
 21
114.8461956075397
 31
0.0
  0
LINE
  5
19E
330
6F
100
AcDbEntity
  8
DV1_0
 62
     7
370
    35
100
AcDbLine
 10
102.3436342157354
 20
114.8461956075397
 30
0.0
 11
102.0436342157354
 21
114.8461956075397
 31
0.0
  0
LINE
  5
19F
330
6F
100
AcDbEntity
  8
DV1_0
 62
     7
370
    35
100
AcDbLine
 10
96.04363421573534
 20
114.8461956075397
 30
0.0
 11
95.74363421573537
 21
114.8461956075397
 31
0.0
  0
LINE
  5
1A0
330
6F
100
AcDbEntity
  8
DV1_0
 62
     7
370
    35
100
AcDbLine
 10
90.74363421573537
 20
114.8461956075397
 30
0.0
 11
90.3436342157352
 21
114.8461956075397
 31
0.0
  0
LINE
  5
1A1
330
6F
100
AcDbEntity
  8
DV1_0
 62
     7
370
    35
100
AcDbLine
 10
114.7936342157352
 20
112.8461956075397
 30
0.0
 11
114.7936342157352
 21
114.8461956075397
 31
0.0
  0
LINE
  5
1A2
330
6F
100
AcDbEntity
  8
DV1_0
 62
     7
370
    35
100
AcDbLine
 10
90.34363421573518
 20
112.8461956075397
 30
0.0
 11
90.34363421573516
 21
114.8461956075397
 31
0.0
  0
LINE
  5
1A3
330
6F
100
AcDbEntity
  8
DV1_0
 62
     7
370
    35
100
AcDbLine
 10
63.74363421573518
 20
107.2961956075398
 30
0.0
 11
62.94363421573516
 21
107.2961956075398
 31
0.0
  0
LINE
  5
1A4
330
6F
100
AcDbEntity
  8
DV1_0
 62
     7
370
    35
100
AcDbLine
 10
33.94363421573501
 20
153.3461956075397
 30
0.0
 11
35.94363421573501
 21
153.3461956075397
 31
0.0
  0
LINE
  5
1A5
330
6F
100
AcDbEntity
  8
DV1_0
 62
     7
370
    35
100
AcDbLine
 10
33.94363421573505
 20
105.3461956075397
 30
0.0
 11
35.94363421573505
 21
105.3461956075397
 31
0.0
  0
LINE
  5
1A6
330
6F
100
AcDbEntity
  8
DV1_0
 62
     7
370
    35
100
AcDbLine
 10
35.943634215735
 20
153.3461956075397
 30
0.0
 11
35.94363421573505
 21
105.3461956075397
 31
0.0
  0
LINE
  5
1A7
330
6F
100
AcDbEntity
  8
DV1_0
 62
     7
370
    35
100
AcDbLine
 10
33.94363421573501
 20
153.3461956075397
 30
0.0
 11
33.94363421573505
 21
105.3461956075397
 31
0.0
  0
LINE
  5
1A8
330
6F
100
AcDbEntity
  8
DV1_0
 62
     7
370
    35
100
AcDbLine
 10
60.94363421573505
 20
109.2961956075398
 30
0.0
 11
60.6436342157351
 21
109.2961956075398
 31
0.0
  0
LINE
  5
1A9
330
6F
100
AcDbEntity
  8
DV1_0
 62
     7
370
    35
100
AcDbLine
 10
54.6436342157351
 20
109.2961956075398
 30
0.0
 11
54.34363421573509
 21
109.2961956075398
 31
0.0
  0
LINE
  5
1AA
330
6F
100
AcDbEntity
  8
DV1_0
 62
     7
370
    35
100
AcDbLine
 10
48.34363421573509
 20
109.2961956075398
 30
0.0
 11
48.0436342157351
 21
109.2961956075398
 31
0.0
  0
LINE
  5
1AB
330
6F
100
AcDbEntity
  8
DV1_0
 62
     7
370
    35
100
AcDbLine
 10
42.0436342157351
 20
109.2961956075398
 30
0.0
 11
41.7436342157351
 21
109.2961956075398
 31
0.0
  0
LINE
  5
1AC
330
6F
100
AcDbEntity
  8
DV1_0
 62
     7
370
    35
100
AcDbLine
 10
36.7436342157351
 20
109.2961956075398
 30
0.0
 11
35.94363421573505
 21
109.2961956075398
 31
0.0
  0
LINE
  5
1AD
330
6F
100
AcDbEntity
  8
DV1_0
 62
     7
370
    35
100
AcDbLine
 10
60.94363421573505
 20
111.2961956075398
 30
0.0
 11
60.6436342157351
 21
111.2961956075398
 31
0.0
  0
LINE
  5
1AE
330
6F
100
AcDbEntity
  8
DV1_0
 62
     7
370
    35
100
AcDbLine
 10
54.6436342157351
 20
111.2961956075398
 30
0.0
 11
54.34363421573509
 21
111.2961956075398
 31
0.0
  0
LINE
  5
1AF
330
6F
100
AcDbEntity
  8
DV1_0
 62
     7
370
    35
100
AcDbLine
 10
48.34363421573509
 20
111.2961956075398
 30
0.0
 11
48.04363421573509
 21
111.2961956075398
 31
0.0
  0
LINE
  5
1B0
330
6F
100
AcDbEntity
  8
DV1_0
 62
     7
370
    35
100
AcDbLine
 10
42.0436342157351
 20
111.2961956075398
 30
0.0
 11
41.74363421573509
 21
111.2961956075398
 31
0.0
  0
LINE
  5
1B1
330
6F
100
AcDbEntity
  8
DV1_0
 62
     7
370
    35
100
AcDbLine
 10
36.74363421573509
 20
111.2961956075398
 30
0.0
 11
35.94363421573505
 21
111.2961956075398
 31
0.0
  0
LINE
  5
1B2
330
6F
100
AcDbEntity
  8
DV1_0
 62
     7
370
    35
100
AcDbLine
 10
114.9436342157353
 20
109.2961956075398
 30
0.0
 11
114.6436342157353
 21
109.2961956075398
 31
0.0
  0
LINE
  5
1B3
330
6F
100
AcDbEntity
  8
DV1_0
 62
     7
370
    35
100
AcDbLine
 10
108.6436342157353
 20
109.2961956075398
 30
0.0
 11
108.3436342157354
 21
109.2961956075398
 31
0.0
  0
LINE
  5
1B4
330
6F
100
AcDbEntity
  8
DV1_0
 62
     7
370
    35
100
AcDbLine
 10
102.3436342157354
 20
109.2961956075398
 30
0.0
 11
102.0436342157353
 21
109.2961956075398
 31
0.0
  0
LINE
  5
1B5
330
6F
100
AcDbEntity
  8
DV1_0
 62
     7
370
    35
100
AcDbLine
 10
96.04363421573532
 20
109.2961956075398
 30
0.0
 11
95.74363421573537
 21
109.2961956075398
 31
0.0
  0
LINE
  5
1B6
330
6F
100
AcDbEntity
  8
DV1_0
 62
     7
370
    35
100
AcDbLine
 10
90.74363421573536
 20
109.2961956075398
 30
0.0
 11
89.94363421573527
 21
109.2961956075398
 31
0.0
  0
LINE
  5
1B7
330
6F
100
AcDbEntity
  8
DV1_0
 62
     7
370
    35
100
AcDbLine
 10
114.9436342157353
 20
111.2961956075398
 30
0.0
 11
114.6436342157353
 21
111.2961956075398
 31
0.0
  0
LINE
  5
1B8
330
6F
100
AcDbEntity
  8
DV1_0
 62
     7
370
    35
100
AcDbLine
 10
108.6436342157353
 20
111.2961956075398
 30
0.0
 11
108.3436342157354
 21
111.2961956075398
 31
0.0
  0
LINE
  5
1B9
330
6F
100
AcDbEntity
  8
DV1_0
 62
     7
370
    35
100
AcDbLine
 10
102.3436342157354
 20
111.2961956075398
 30
0.0
 11
102.0436342157353
 21
111.2961956075398
 31
0.0
  0
LINE
  5
1BA
330
6F
100
AcDbEntity
  8
DV1_0
 62
     7
370
    35
100
AcDbLine
 10
96.04363421573532
 20
111.2961956075398
 30
0.0
 11
95.74363421573537
 21
111.2961956075398
 31
0.0
  0
LINE
  5
1BB
330
6F
100
AcDbEntity
  8
DV1_0
 62
     7
370
    35
100
AcDbLine
 10
90.74363421573537
 20
111.2961956075398
 30
0.0
 11
89.94363421573527
 21
111.2961956075398
 31
0.0
  0
LINE
  5
1BC
330
6F
100
AcDbEntity
  8
DV1_0
 62
     7
370
    35
100
AcDbLine
 10
87.94363421573516
 20
109.2961956075398
 30
0.0
 11
87.64363421573523
 21
109.2961956075398
 31
0.0
  0
LINE
  5
1BD
330
6F
100
AcDbEntity
  8
DV1_0
 62
     7
370
    35
100
AcDbLine
 10
81.64363421573525
 20
109.2961956075398
 30
0.0
 11
81.34363421573521
 21
109.2961956075398
 31
0.0
  0
LINE
  5
1BE
330
6F
100
AcDbEntity
  8
DV1_0
 62
     7
370
    35
100
AcDbLine
 10
75.34363421573521
 20
109.2961956075398
 30
0.0
 11
75.04363421573517
 21
109.2961956075398
 31
0.0
  0
LINE
  5
1BF
330
6F
100
AcDbEntity
  8
DV1_0
 62
     7
370
    35
100
AcDbLine
 10
69.04363421573517
 20
109.2961956075398
 30
0.0
 11
68.74363421573518
 21
109.2961956075398
 31
0.0
  0
LINE
  5
1C0
330
6F
100
AcDbEntity
  8
DV1_0
 62
     7
370
    35
100
AcDbLine
 10
63.74363421573518
 20
109.2961956075398
 30
0.0
 11
62.94363421573516
 21
109.2961956075398
 31
0.0
  0
LINE
  5
1C1
330
6F
100
AcDbEntity
  8
DV1_0
 62
     7
370
    35
100
AcDbLine
 10
87.94363421573516
 20
111.2961956075398
 30
0.0
 11
87.64363421573525
 21
111.2961956075398
 31
0.0
  0
LINE
  5
1C2
330
6F
100
AcDbEntity
  8
DV1_0
 62
     7
370
    35
100
AcDbLine
 10
81.64363421573525
 20
111.2961956075398
 30
0.0
 11
81.34363421573521
 21
111.2961956075398
 31
0.0
  0
LINE
  5
1C3
330
6F
100
AcDbEntity
  8
DV1_0
 62
     7
370
    35
100
AcDbLine
 10
75.34363421573521
 20
111.2961956075398
 30
0.0
 11
75.04363421573517
 21
111.2961956075398
 31
0.0
  0
LINE
  5
1C4
330
6F
100
AcDbEntity
  8
DV1_0
 62
     7
370
    35
100
AcDbLine
 10
69.04363421573517
 20
111.2961956075398
 30
0.0
 11
68.74363421573517
 21
111.2961956075398
 31
0.0
  0
LINE
  5
1C5
330
6F
100
AcDbEntity
  8
DV1_0
 62
     7
370
    35
100
AcDbLine
 10
63.74363421573518
 20
111.2961956075398
 30
0.0
 11
62.94363421573516
 21
111.2961956075398
 31
0.0
  0
ENDBLK
  5
1C7
330
6F
100
AcDbEntity
  8
0
100
AcDbBlockEnd
  0
BLOCK
  5
21C
330
1C8
100
AcDbEntity
  8
0
100
AcDbBlockBegin
  2
SE1
 70
     0
 10
0.0
 20
0.0
 30
0.0
  3
SE1
  1

  0
LINE
  5
1CB
330
1C8
100
AcDbEntity
  8
DV2_0
 62
     7
370
    35
100
AcDbLine
 10
205.0702474282483
 20
112.8461956075397
 30
0.0
 11
204.9902474282483
 21
112.8461956075397
 31
0.0
  0
LINE
  5
1CC
330
1C8
100
AcDbEntity
  8
DV2_0
 62
     7
370
    35
100
AcDbLine
 10
197.9902474282483
 20
112.8461956075397
 30
0.0
 11
197.9002474282483
 21
112.8461956075397
 31
0.0
  0
LINE
  5
1CD
330
1C8
100
AcDbEntity
  8
DV2_0
 62
     7
370
    35
100
AcDbLine
 10
190.9002474282483
 20
112.8461956075397
 30
0.0
 11
190.8202474282483
 21
112.8461956075397
 31
0.0
  0
LINE
  5
1CE
330
1C8
100
AcDbEntity
  8
DV2_0
 62
     7
370
    35
100
AcDbLine
 10
205.0702474282483
 20
114.8461956075396
 30
0.0
 11
204.9902474282483
 21
114.8461956075396
 31
0.0
  0
LINE
  5
1CF
330
1C8
100
AcDbEntity
  8
DV2_0
 62
     7
370
    35
100
AcDbLine
 10
197.9902474282483
 20
114.8461956075396
 30
0.0
 11
197.9002474282483
 21
114.8461956075396
 31
0.0
  0
LINE
  5
1D0
330
1C8
100
AcDbEntity
  8
DV2_0
 62
     7
370
    35
100
AcDbLine
 10
190.9002474282483
 20
114.8461956075396
 30
0.0
 11
190.8202474282483
 21
114.8461956075396
 31
0.0
  0
ARC
  5
1D1
330
1C8
100
AcDbEntity
  8
DV2_0
 62
     7
370
    35
100
AcDbCircle
 10
190.9702474282485
 20
113.3461956075397
 30
0.0
 40
0.2000000000000002
100
AcDbArc
 50
110.4873151147808
 51
138.5903778908058
  0
ARC
  5
1D2
330
1C8
100
AcDbEntity
  8
DV2_0
 62
     7
370
    35
100
AcDbCircle
 10
190.9702474282485
 20
113.3461956075397
 30
0.0
 40
0.2000000000000002
100
AcDbArc
 50
221.4096221091972
 51
249.5126848852192
  0
LINE
  5
1D3
330
1C8
100
AcDbEntity
  8
DV2_0
 62
     7
370
    35
100
AcDbLine
 10
205.0702474282483
 20
134.8461956075398
 30
0.0
 11
204.9902474282483
 21
134.8461956075398
 31
0.0
  0
LINE
  5
1D4
330
1C8
100
AcDbEntity
  8
DV2_0
 62
     7
370
    35
100
AcDbLine
 10
197.9902474282483
 20
134.8461956075398
 30
0.0
 11
197.9002474282483
 21
134.8461956075398
 31
0.0
  0
LINE
  5
1D5
330
1C8
100
AcDbEntity
  8
DV2_0
 62
     7
370
    35
100
AcDbLine
 10
190.9002474282483
 20
134.8461956075398
 30
0.0
 11
190.8202474282483
 21
134.8461956075398
 31
0.0
  0
LINE
  5
1D6
330
1C8
100
AcDbEntity
  8
DV2_0
 62
     7
370
    35
100
AcDbLine
 10
205.0702474282483
 20
136.8461956075398
 30
0.0
 11
204.9902474282483
 21
136.8461956075398
 31
0.0
  0
LINE
  5
1D7
330
1C8
100
AcDbEntity
  8
DV2_0
 62
     7
370
    35
100
AcDbLine
 10
197.9902474282483
 20
136.8461956075398
 30
0.0
 11
197.9002474282483
 21
136.8461956075398
 31
0.0
  0
LINE
  5
1D8
330
1C8
100
AcDbEntity
  8
DV2_0
 62
     7
370
    35
100
AcDbLine
 10
190.9002474282483
 20
136.8461956075398
 30
0.0
 11
190.8202474282483
 21
136.8461956075398
 31
0.0
  0
ARC
  5
1D9
330
1C8
100
AcDbEntity
  8
DV2_0
 62
     7
370
    35
100
AcDbCircle
 10
190.9702474282485
 20
135.3461956075398
 30
0.0
 40
0.2000000000000002
100
AcDbArc
 50
110.4873151147851
 51
138.5903778908088
  0
ARC
  5
1DA
330
1C8
100
AcDbEntity
  8
DV2_0
 62
     7
370
    35
100
AcDbCircle
 10
190.9702474282485
 20
135.3461956075398
 30
0.0
 40
0.2000000000000002
100
AcDbArc
 50
221.4096221091972
 51
249.5126848852206
  0
LINE
  5
1DB
330
1C8
100
AcDbEntity
  8
DV2_0
 62
     7
370
    35
100
AcDbLine
 10
205.0702474282483
 20
109.2961956075398
 30
0.0
 11
204.9902474282483
 21
109.2961956075398
 31
0.0
  0
LINE
  5
1DC
330
1C8
100
AcDbEntity
  8
DV2_0
 62
     7
370
    35
100
AcDbLine
 10
197.9902474282483
 20
109.2961956075398
 30
0.0
 11
197.9002474282483
 21
109.2961956075398
 31
0.0
  0
LINE
  5
1DD
330
1C8
100
AcDbEntity
  8
DV2_0
 62
     7
370
    35
100
AcDbLine
 10
190.9002474282483
 20
109.2961956075398
 30
0.0
 11
190.8202474282483
 21
109.2961956075398
 31
0.0
  0
LINE
  5
1DE
330
1C8
100
AcDbEntity
  8
DV2_0
 62
     7
370
    35
100
AcDbLine
 10
205.0702474282483
 20
107.2961956075398
 30
0.0
 11
204.9902474282483
 21
107.2961956075398
 31
0.0
  0
LINE
  5
1DF
330
1C8
100
AcDbEntity
  8
DV2_0
 62
     7
370
    35
100
AcDbLine
 10
197.9902474282483
 20
107.2961956075398
 30
0.0
 11
197.9002474282483
 21
107.2961956075398
 31
0.0
  0
LINE
  5
1E0
330
1C8
100
AcDbEntity
  8
DV2_0
 62
     7
370
    35
100
AcDbLine
 10
190.9002474282483
 20
107.2961956075398
 30
0.0
 11
190.8202474282483
 21
107.2961956075398
 31
0.0
  0
LINE
  5
1E1
330
1C8
100
AcDbEntity
  8
DV2_0
 62
     7
370
    35
100
AcDbLine
 10
190.8202474282483
 20
151.3461956075397
 30
0.0
 11
190.9002474282483
 21
151.3461956075397
 31
0.0
  0
LINE
  5
1E2
330
1C8
100
AcDbEntity
  8
DV2_0
 62
     7
370
    35
100
AcDbLine
 10
197.9002474282483
 20
151.3461956075397
 30
0.0
 11
197.9902474282483
 21
151.3461956075397
 31
0.0
  0
LINE
  5
1E3
330
1C8
100
AcDbEntity
  8
DV2_0
 62
     7
370
    35
100
AcDbLine
 10
204.9902474282483
 20
151.3461956075397
 30
0.0
 11
205.0702474282483
 21
151.3461956075397
 31
0.0
  0
LINE
  5
1E4
330
1C8
100
AcDbEntity
  8
DV2_0
 62
     7
370
    35
100
AcDbLine
 10
190.8202474282483
 20
153.3461956075397
 30
0.0
 11
190.9002474282483
 21
153.3461956075397
 31
0.0
  0
LINE
  5
1E5
330
1C8
100
AcDbEntity
  8
DV2_0
 62
     7
370
    35
100
AcDbLine
 10
197.9002474282483
 20
153.3461956075397
 30
0.0
 11
197.9902474282483
 21
153.3461956075397
 31
0.0
  0
LINE
  5
1E6
330
1C8
100
AcDbEntity
  8
DV2_0
 62
     7
370
    35
100
AcDbLine
 10
204.9902474282483
 20
153.3461956075397
 30
0.0
 11
205.0702474282483
 21
153.3461956075397
 31
0.0
  0
LINE
  5
1E7
330
1C8
100
AcDbEntity
  8
DV2_0
 62
     7
370
    35
100
AcDbLine
 10
205.0702474282483
 20
140.7961956075397
 30
0.0
 11
204.9902474282483
 21
140.7961956075397
 31
0.0
  0
LINE
  5
1E8
330
1C8
100
AcDbEntity
  8
DV2_0
 62
     7
370
    35
100
AcDbLine
 10
197.9902474282483
 20
140.7961956075397
 30
0.0
 11
197.9002474282483
 21
140.7961956075397
 31
0.0
  0
LINE
  5
1E9
330
1C8
100
AcDbEntity
  8
DV2_0
 62
     7
370
    35
100
AcDbLine
 10
190.9002474282483
 20
140.7961956075397
 30
0.0
 11
190.8202474282483
 21
140.7961956075397
 31
0.0
  0
LINE
  5
1EA
330
1C8
100
AcDbEntity
  8
DV2_0
 62
     7
370
    35
100
AcDbLine
 10
190.8202474282483
 20
140.3961956075398
 30
0.0
 11
190.9002474282483
 21
140.3961956075398
 31
0.0
  0
LINE
  5
1EB
330
1C8
100
AcDbEntity
  8
DV2_0
 62
     7
370
    35
100
AcDbLine
 10
197.9002474282483
 20
140.3961956075398
 30
0.0
 11
197.9902474282483
 21
140.3961956075398
 31
0.0
  0
LINE
  5
1EC
330
1C8
100
AcDbEntity
  8
DV2_0
 62
     7
370
    35
100
AcDbLine
 10
204.9902474282483
 20
140.3961956075398
 30
0.0
 11
205.0702474282483
 21
140.3961956075398
 31
0.0
  0
LINE
  5
1ED
330
1C8
100
AcDbEntity
  8
DV2_0
 62
     7
370
    35
100
AcDbLine
 10
205.0702474282483
 20
111.7961956075398
 30
0.0
 11
204.9902474282483
 21
111.7961956075398
 31
0.0
  0
LINE
  5
1EE
330
1C8
100
AcDbEntity
  8
DV2_0
 62
     7
370
    35
100
AcDbLine
 10
197.9902474282483
 20
111.7961956075398
 30
0.0
 11
197.9002474282483
 21
111.7961956075398
 31
0.0
  0
LINE
  5
1EF
330
1C8
100
AcDbEntity
  8
DV2_0
 62
     7
370
    35
100
AcDbLine
 10
190.9002474282483
 20
111.7961956075398
 30
0.0
 11
190.8202474282483
 21
111.7961956075398
 31
0.0
  0
LINE
  5
1F0
330
1C8
100
AcDbEntity
  8
DV2_0
 62
     7
370
    35
100
AcDbLine
 10
190.8202474282483
 20
111.3961956075398
 30
0.0
 11
190.9002474282483
 21
111.3961956075398
 31
0.0
  0
LINE
  5
1F1
330
1C8
100
AcDbEntity
  8
DV2_0
 62
     7
370
    35
100
AcDbLine
 10
197.9002474282483
 20
111.3961956075398
 30
0.0
 11
197.9902474282483
 21
111.3961956075398
 31
0.0
  0
LINE
  5
1F2
330
1C8
100
AcDbEntity
  8
DV2_0
 62
     7
370
    35
100
AcDbLine
 10
204.9902474282483
 20
111.3961956075398
 30
0.0
 11
205.0702474282483
 21
111.3961956075398
 31
0.0
  0
LINE
  5
1F3
330
1C8
100
AcDbEntity
  8
DV2_0
 62
     7
370
    35
100
AcDbLine
 10
204.9902474282483
 20
105.3461956075397
 30
0.0
 11
205.0702474282483
 21
105.3461956075397
 31
0.0
  0
LINE
  5
1F4
330
1C8
100
AcDbEntity
  8
DV2_0
 62
     7
370
    35
100
AcDbLine
 10
197.9002474282483
 20
105.3461956075397
 30
0.0
 11
197.9902474282483
 21
105.3461956075397
 31
0.0
  0
LINE
  5
1F5
330
1C8
100
AcDbEntity
  8
DV2_0
 62
     7
370
    35
100
AcDbLine
 10
212.0702474282483
 20
153.3461956075398
 30
0.0
 11
205.0702474282483
 21
153.3461956075398
 31
0.0
  0
LINE
  5
1F6
330
1C8
100
AcDbEntity
  8
DV2_0
 62
     7
370
    35
100
AcDbLine
 10
212.0702474282483
 20
155.3461956075398
 30
0.0
 11
212.0702474282483
 21
153.3461956075398
 31
0.0
  0
LINE
  5
1F7
330
1C8
100
AcDbEntity
  8
DV2_0
 62
     7
370
    35
100
AcDbLine
 10
205.0702474282483
 20
155.3461956075398
 30
0.0
 11
212.0702474282483
 21
155.3461956075398
 31
0.0
  0
LINE
  5
1F8
330
1C8
100
AcDbEntity
  8
DV2_0
 62
     7
370
    35
100
AcDbLine
 10
205.0702474282483
 20
153.3461956075398
 30
0.0
 11
205.0702474282483
 21
155.3461956075398
 31
0.0
  0
LINE
  5
1F9
330
1C8
100
AcDbEntity
  8
DV2_0
 62
     7
370
    35
100
AcDbLine
 10
204.9902474282483
 20
153.3461956075398
 30
0.0
 11
197.9902474282483
 21
153.3461956075398
 31
0.0
  0
LINE
  5
1FA
330
1C8
100
AcDbEntity
  8
DV2_0
 62
     7
370
    35
100
AcDbLine
 10
204.9902474282483
 20
155.3461956075398
 30
0.0
 11
204.9902474282483
 21
153.3461956075398
 31
0.0
  0
LINE
  5
1FB
330
1C8
100
AcDbEntity
  8
DV2_0
 62
     7
370
    35
100
AcDbLine
 10
197.9902474282483
 20
155.3461956075398
 30
0.0
 11
204.9902474282483
 21
155.3461956075398
 31
0.0
  0
LINE
  5
1FC
330
1C8
100
AcDbEntity
  8
DV2_0
 62
     7
370
    35
100
AcDbLine
 10
197.9902474282483
 20
153.3461956075398
 30
0.0
 11
197.9902474282483
 21
155.3461956075398
 31
0.0
  0
LINE
  5
1FD
330
1C8
100
AcDbEntity
  8
DV2_0
 62
     7
370
    35
100
AcDbLine
 10
197.9702474282483
 20
109.2961956075398
 30
0.0
 11
197.9002474282483
 21
109.2961956075398
 31
0.0
  0
LINE
  5
1FE
330
1C8
100
AcDbEntity
  8
DV2_0
 62
     7
370
    35
100
AcDbLine
 10
197.9702474282483
 20
111.2961956075398
 30
0.0
 11
197.9702474282483
 21
109.2961956075398
 31
0.0
  0
LINE
  5
1FF
330
1C8
100
AcDbEntity
  8
DV2_0
 62
     7
370
    35
100
AcDbLine
 10
197.9002474282483
 20
111.2961956075398
 30
0.0
 11
197.9702474282483
 21
111.2961956075398
 31
0.0
  0
LINE
  5
200
330
1C8
100
AcDbEntity
  8
DV2_0
 62
     7
370
    35
100
AcDbLine
 10
190.9002474282483
 20
109.2961956075398
 30
0.0
 11
190.8202474282483
 21
109.2961956075398
 31
0.0
  0
LINE
  5
201
330
1C8
100
AcDbEntity
  8
DV2_0
 62
     7
370
    35
100
AcDbLine
 10
190.8202474282483
 20
111.2961956075398
 30
0.0
 11
190.9002474282483
 21
111.2961956075398
 31
0.0
  0
LINE
  5
202
330
1C8
100
AcDbEntity
  8
DV2_0
 62
     7
370
    35
100
AcDbLine
 10
197.9002474282483
 20
153.3461956075398
 30
0.0
 11
190.9002474282483
 21
153.3461956075398
 31
0.0
  0
LINE
  5
203
330
1C8
100
AcDbEntity
  8
DV2_0
 62
     7
370
    35
100
AcDbLine
 10
197.9002474282483
 20
155.3461956075398
 30
0.0
 11
197.9002474282483
 21
153.3461956075398
 31
0.0
  0
LINE
  5
204
330
1C8
100
AcDbEntity
  8
DV2_0
 62
     7
370
    35
100
AcDbLine
 10
190.9002474282483
 20
155.3461956075398
 30
0.0
 11
197.9002474282483
 21
155.3461956075398
 31
0.0
  0
LINE
  5
205
330
1C8
100
AcDbEntity
  8
DV2_0
 62
     7
370
    35
100
AcDbLine
 10
190.9002474282483
 20
153.3461956075398
 30
0.0
 11
190.9002474282483
 21
155.3461956075398
 31
0.0
  0
LINE
  5
206
330
1C8
100
AcDbEntity
  8
DV2_0
 62
     7
370
    35
100
AcDbLine
 10
190.8202474282483
 20
153.3461956075398
 30
0.0
 11
183.8202474282483
 21
153.3461956075398
 31
0.0
  0
LINE
  5
207
330
1C8
100
AcDbEntity
  8
DV2_0
 62
     7
370
    35
100
AcDbLine
 10
190.8202474282483
 20
155.3461956075398
 30
0.0
 11
190.8202474282483
 21
153.3461956075398
 31
0.0
  0
LINE
  5
208
330
1C8
100
AcDbEntity
  8
DV2_0
 62
     7
370
    35
100
AcDbLine
 10
183.8202474282483
 20
155.3461956075398
 30
0.0
 11
190.8202474282483
 21
155.3461956075398
 31
0.0
  0
LINE
  5
209
330
1C8
100
AcDbEntity
  8
DV2_0
 62
     7
370
    35
100
AcDbLine
 10
183.8202474282483
 20
153.3461956075398
 30
0.0
 11
183.8202474282483
 21
155.3461956075398
 31
0.0
  0
LINE
  5
20A
330
1C8
100
AcDbEntity
  8
DV2_0
 62
     7
370
    35
100
AcDbLine
 10
183.8202474282483
 20
153.3461956075397
 30
0.0
 11
190.8202474282483
 21
153.3461956075397
 31
0.0
  0
LINE
  5
20B
330
1C8
100
AcDbEntity
  8
DV2_0
 62
     7
370
    35
100
AcDbLine
 10
183.8202474282483
 20
105.3461956075397
 30
0.0
 11
190.8202474282483
 21
105.3461956075397
 31
0.0
  0
LINE
  5
20C
330
1C8
100
AcDbEntity
  8
DV2_0
 62
     7
370
    35
100
AcDbLine
 10
190.8202474282483
 20
153.3461956075397
 30
0.0
 11
190.8202474282483
 21
105.3461956075397
 31
0.0
  0
LINE
  5
20D
330
1C8
100
AcDbEntity
  8
DV2_0
 62
     7
370
    35
100
AcDbLine
 10
183.8202474282483
 20
153.3461956075397
 30
0.0
 11
183.8202474282483
 21
105.3461956075397
 31
0.0
  0
LINE
  5
20E
330
1C8
100
AcDbEntity
  8
DV2_0
 62
     7
370
    35
100
AcDbLine
 10
205.0702474282483
 20
153.3461956075397
 30
0.0
 11
212.0702474282483
 21
153.3461956075397
 31
0.0
  0
LINE
  5
20F
330
1C8
100
AcDbEntity
  8
DV2_0
 62
     7
370
    35
100
AcDbLine
 10
205.0702474282483
 20
105.3461956075397
 30
0.0
 11
212.0702474282483
 21
105.3461956075397
 31
0.0
  0
LINE
  5
210
330
1C8
100
AcDbEntity
  8
DV2_0
 62
     7
370
    35
100
AcDbLine
 10
212.0702474282483
 20
153.3461956075397
 30
0.0
 11
212.0702474282483
 21
105.3461956075397
 31
0.0
  0
LINE
  5
211
330
1C8
100
AcDbEntity
  8
DV2_0
 62
     7
370
    35
100
AcDbLine
 10
205.0702474282483
 20
153.3461956075397
 30
0.0
 11
205.0702474282483
 21
105.3461956075397
 31
0.0
  0
LINE
  5
212
330
1C8
100
AcDbEntity
  8
DV2_0
 62
     7
370
    35
100
AcDbLine
 10
197.9902474282483
 20
153.3461956075397
 30
0.0
 11
204.9902474282483
 21
153.3461956075397
 31
0.0
  0
LINE
  5
213
330
1C8
100
AcDbEntity
  8
DV2_0
 62
     7
370
    35
100
AcDbLine
 10
197.9902474282483
 20
105.3461956075397
 30
0.0
 11
204.9902474282483
 21
105.3461956075397
 31
0.0
  0
LINE
  5
214
330
1C8
100
AcDbEntity
  8
DV2_0
 62
     7
370
    35
100
AcDbLine
 10
204.9902474282483
 20
153.3461956075397
 30
0.0
 11
204.9902474282483
 21
105.3461956075397
 31
0.0
  0
LINE
  5
215
330
1C8
100
AcDbEntity
  8
DV2_0
 62
     7
370
    35
100
AcDbLine
 10
197.9902474282483
 20
153.3461956075397
 30
0.0
 11
197.9902474282483
 21
105.3461956075397
 31
0.0
  0
LINE
  5
216
330
1C8
100
AcDbEntity
  8
DV2_0
 62
     7
370
    35
100
AcDbLine
 10
190.9002474282483
 20
153.3461956075397
 30
0.0
 11
197.9002474282483
 21
153.3461956075397
 31
0.0
  0
LINE
  5
217
330
1C8
100
AcDbEntity
  8
DV2_0
 62
     7
370
    35
100
AcDbLine
 10
190.9002474282483
 20
105.3461956075397
 30
0.0
 11
197.9002474282483
 21
105.3461956075397
 31
0.0
  0
LINE
  5
218
330
1C8
100
AcDbEntity
  8
DV2_0
 62
     7
370
    35
100
AcDbLine
 10
197.9002474282483
 20
153.3461956075397
 30
0.0
 11
197.9002474282483
 21
105.3461956075397
 31
0.0
  0
LINE
  5
219
330
1C8
100
AcDbEntity
  8
DV2_0
 62
     7
370
    35
100
AcDbLine
 10
190.9002474282483
 20
153.3461956075397
 30
0.0
 11
190.9002474282483
 21
105.3461956075397
 31
0.0
  0
LINE
  5
21A
330
1C8
100
AcDbEntity
  8
DV2_0
 62
     7
370
    35
100
AcDbLine
 10
205.0702474282483
 20
109.2961956075398
 30
0.0
 11
204.9902474282483
 21
109.2961956075398
 31
0.0
  0
LINE
  5
21B
330
1C8
100
AcDbEntity
  8
DV2_0
 62
     7
370
    35
100
AcDbLine
 10
204.9902474282483
 20
111.2961956075398
 30
0.0
 11
205.0702474282483
 21
111.2961956075398
 31
0.0
  0
ENDBLK
  5
21D
330
1C8
100
AcDbEntity
  8
0
100
AcDbBlockEnd
  0
BLOCK
  5
25C
330
21E
100
AcDbEntity
  8
0
100
AcDbBlockBegin
  2
SE2
 70
     0
 10
0.0
 20
0.0
 30
0.0
  3
SE2
  1

  0
LINE
  5
221
330
21E
100
AcDbEntity
  8
DV3_0
 62
     7
370
    35
100
AcDbLine
 10
112.9436342157354
 20
57.07177229065408
 30
0.0
 11
91.94363421573526
 21
57.07177229065408
 31
0.0
  0
LINE
  5
222
330
21E
100
AcDbEntity
  8
DV3_0
 62
     7
370
    35
100
AcDbLine
 10
85.94363421573524
 20
57.07177229065408
 30
0.0
 11
64.94363421573516
 21
57.07177229065408
 31
0.0
  0
LINE
  5
223
330
21E
100
AcDbEntity
  8
DV3_0
 62
     7
370
    35
100
AcDbLine
 10
37.94363421573496
 20
64.22177229065414
 30
0.0
 11
37.94363421573496
 21
64.14177229065413
 31
0.0
  0
LINE
  5
224
330
21E
100
AcDbEntity
  8
DV3_0
 62
     7
370
    35
100
AcDbLine
 10
37.94363421573496
 20
57.14177229065413
 30
0.0
 11
37.94363421573496
 21
57.05177229065413
 31
0.0
  0
LINE
  5
225
330
21E
100
AcDbEntity
  8
DV3_0
 62
     7
370
    35
100
AcDbLine
 10
37.94363421573496
 20
50.05177229065413
 30
0.0
 11
37.94363421573496
 21
49.97177229065413
 31
0.0
  0
LINE
  5
226
330
21E
100
AcDbEntity
  8
DV3_0
 62
     7
370
    35
100
AcDbLine
 10
35.94363421573496
 20
64.22177229065413
 30
0.0
 11
35.94363421573496
 21
64.14177229065413
 31
0.0
  0
LINE
  5
227
330
21E
100
AcDbEntity
  8
DV3_0
 62
     7
370
    35
100
AcDbLine
 10
35.94363421573496
 20
57.14177229065413
 30
0.0
 11
35.94363421573496
 21
57.05177229065413
 31
0.0
  0
LINE
  5
228
330
21E
100
AcDbEntity
  8
DV3_0
 62
     7
370
    35
100
AcDbLine
 10
35.94363421573496
 20
50.05177229065413
 30
0.0
 11
35.94363421573496
 21
49.97177229065413
 31
0.0
  0
LINE
  5
229
330
21E
100
AcDbEntity
  8
DV3_0
 62
     7
370
    35
100
AcDbLine
 10
60.943634215735
 20
64.22177229065414
 30
0.0
 11
60.943634215735
 21
64.14177229065415
 31
0.0
  0
LINE
  5
22A
330
21E
100
AcDbEntity
  8
DV3_0
 62
     7
370
    35
100
AcDbLine
 10
60.943634215735
 20
57.14177229065415
 30
0.0
 11
60.943634215735
 21
57.05177229065414
 31
0.0
  0
LINE
  5
22B
330
21E
100
AcDbEntity
  8
DV3_0
 62
     7
370
    35
100
AcDbLine
 10
60.943634215735
 20
50.05177229065414
 30
0.0
 11
60.943634215735
 21
49.97177229065428
 31
0.0
  0
LINE
  5
22C
330
21E
100
AcDbEntity
  8
DV3_0
 62
     7
370
    35
100
AcDbLine
 10
58.943634215735
 20
64.22177229065414
 30
0.0
 11
58.943634215735
 21
64.14177229065415
 31
0.0
  0
LINE
  5
22D
330
21E
100
AcDbEntity
  8
DV3_0
 62
     7
370
    35
100
AcDbLine
 10
58.943634215735
 20
57.14177229065415
 30
0.0
 11
58.943634215735
 21
57.05177229065414
 31
0.0
  0
LINE
  5
22E
330
21E
100
AcDbEntity
  8
DV3_0
 62
     7
370
    35
100
AcDbLine
 10
58.943634215735
 20
50.05177229065414
 30
0.0
 11
58.943634215735
 21
49.97177229065414
 31
0.0
  0
LINE
  5
22F
330
21E
100
AcDbEntity
  8
DV3_0
 62
     7
370
    35
100
AcDbLine
 10
60.94363421573511
 20
50.05177229065414
 30
0.0
 11
60.94363421573511
 21
49.97177229065427
 31
0.0
  0
LINE
  5
230
330
21E
100
AcDbEntity
  8
DV3_0
 62
     7
370
    35
100
AcDbLine
 10
62.94363421573511
 20
49.97177229065427
 30
0.0
 11
62.94363421573511
 21
50.05177229065414
 31
0.0
  0
LINE
  5
231
330
21E
100
AcDbEntity
  8
DV3_0
 62
     7
370
    35
100
AcDbLine
 10
60.94363421573511
 20
57.14177229065414
 30
0.0
 11
60.94363421573511
 21
57.05177229065414
 31
0.0
  0
LINE
  5
232
330
21E
100
AcDbEntity
  8
DV3_0
 62
     7
370
    35
100
AcDbLine
 10
62.94363421573511
 20
57.05177229065413
 30
0.0
 11
62.94363421573511
 21
57.14177229065414
 31
0.0
  0
LINE
  5
233
330
21E
100
AcDbEntity
  8
DV3_0
 62
     7
370
    35
100
AcDbLine
 10
116.943634215735
 20
49.97177229065414
 30
0.0
 11
116.943634215735
 21
42.97177229065414
 31
0.0
  0
LINE
  5
234
330
21E
100
AcDbEntity
  8
DV3_0
 62
     7
370
    35
100
AcDbLine
 10
33.94363421573502
 20
49.97177229065412
 30
0.0
 11
33.94363421573502
 21
42.97177229065412
 31
0.0
  0
LINE
  5
235
330
21E
100
AcDbEntity
  8
DV3_0
 62
     7
370
    35
100
AcDbLine
 10
116.943634215735
 20
42.97177229065414
 30
0.0
 11
33.94363421573502
 21
42.97177229065413
 31
0.0
  0
LINE
  5
236
330
21E
100
AcDbEntity
  8
DV3_0
 62
     7
370
    35
100
AcDbLine
 10
116.943634215735
 20
49.97177229065414
 30
0.0
 11
33.94363421573502
 21
49.97177229065412
 31
0.0
  0
LINE
  5
237
330
21E
100
AcDbEntity
  8
DV3_0
 62
     7
370
    35
100
AcDbLine
 10
116.943634215735
 20
57.05177229065414
 30
0.0
 11
116.943634215735
 21
50.05177229065414
 31
0.0
  0
LINE
  5
238
330
21E
100
AcDbEntity
  8
DV3_0
 62
     7
370
    35
100
AcDbLine
 10
33.94363421573502
 20
57.05177229065413
 30
0.0
 11
33.94363421573502
 21
50.05177229065413
 31
0.0
  0
LINE
  5
239
330
21E
100
AcDbEntity
  8
DV3_0
 62
     7
370
    35
100
AcDbLine
 10
116.943634215735
 20
50.05177229065414
 30
0.0
 11
33.94363421573502
 21
50.05177229065413
 31
0.0
  0
LINE
  5
23A
330
21E
100
AcDbEntity
  8
DV3_0
 62
     7
370
    35
100
AcDbLine
 10
116.943634215735
 20
57.05177229065414
 30
0.0
 11
33.94363421573502
 21
57.05177229065413
 31
0.0
  0
LINE
  5
23B
330
21E
100
AcDbEntity
  8
DV3_0
 62
     7
370
    35
100
AcDbLine
 10
58.94363421573516
 20
57.07177229065408
 30
0.0
 11
37.94363421573505
 21
57.07177229065408
 31
0.0
  0
LINE
  5
23C
330
21E
100
AcDbEntity
  8
DV3_0
 62
     7
370
    35
100
AcDbLine
 10
114.9436342157352
 20
64.22177229065417
 30
0.0
 11
114.9436342157352
 21
64.14177229065416
 31
0.0
  0
LINE
  5
23D
330
21E
100
AcDbEntity
  8
DV3_0
 62
     7
370
    35
100
AcDbLine
 10
114.9436342157352
 20
57.14177229065416
 30
0.0
 11
114.9436342157352
 21
57.05177229065416
 31
0.0
  0
LINE
  5
23E
330
21E
100
AcDbEntity
  8
DV3_0
 62
     7
370
    35
100
AcDbLine
 10
114.9436342157352
 20
50.05177229065416
 30
0.0
 11
114.9436342157352
 21
49.97177229065414
 31
0.0
  0
LINE
  5
23F
330
21E
100
AcDbEntity
  8
DV3_0
 62
     7
370
    35
100
AcDbLine
 10
112.9436342157352
 20
64.22177229065416
 30
0.0
 11
112.9436342157352
 21
64.14177229065416
 31
0.0
  0
LINE
  5
240
330
21E
100
AcDbEntity
  8
DV3_0
 62
     7
370
    35
100
AcDbLine
 10
112.9436342157352
 20
57.14177229065416
 30
0.0
 11
112.9436342157352
 21
57.05177229065416
 31
0.0
  0
LINE
  5
241
330
21E
100
AcDbEntity
  8
DV3_0
 62
     7
370
    35
100
AcDbLine
 10
112.9436342157352
 20
50.05177229065416
 30
0.0
 11
112.9436342157352
 21
49.97177229065414
 31
0.0
  0
LINE
  5
242
330
21E
100
AcDbEntity
  8
DV3_0
 62
     7
370
    35
100
AcDbLine
 10
116.943634215735
 20
64.14177229065416
 30
0.0
 11
116.943634215735
 21
57.14177229065416
 31
0.0
  0
LINE
  5
243
330
21E
100
AcDbEntity
  8
DV3_0
 62
     7
370
    35
100
AcDbLine
 10
33.94363421573502
 20
64.14177229065415
 30
0.0
 11
33.94363421573502
 21
57.14177229065415
 31
0.0
  0
LINE
  5
244
330
21E
100
AcDbEntity
  8
DV3_0
 62
     7
370
    35
100
AcDbLine
 10
116.943634215735
 20
57.14177229065415
 30
0.0
 11
33.94363421573502
 21
57.14177229065413
 31
0.0
  0
LINE
  5
245
330
21E
100
AcDbEntity
  8
DV3_0
 62
     7
370
    35
100
AcDbLine
 10
116.943634215735
 20
64.14177229065416
 30
0.0
 11
33.94363421573502
 21
64.14177229065415
 31
0.0
  0
LINE
  5
246
330
21E
100
AcDbEntity
  8
DV3_0
 62
     7
370
    35
100
AcDbLine
 10
116.9436342157352
 20
71.22177229065416
 30
0.0
 11
116.9436342157352
 21
64.22177229065416
 31
0.0
  0
LINE
  5
247
330
21E
100
AcDbEntity
  8
DV3_0
 62
     7
370
    35
100
AcDbLine
 10
33.94363421573518
 20
71.22177229065414
 30
0.0
 11
33.94363421573518
 21
64.22177229065414
 31
0.0
  0
LINE
  5
248
330
21E
100
AcDbEntity
  8
DV3_0
 62
     7
370
    35
100
AcDbLine
 10
116.9436342157352
 20
64.22177229065414
 30
0.0
 11
33.94363421573519
 21
64.22177229065413
 31
0.0
  0
LINE
  5
249
330
21E
100
AcDbEntity
  8
DV3_0
 62
     7
370
    35
100
AcDbLine
 10
116.9436342157352
 20
71.22177229065416
 30
0.0
 11
33.94363421573519
 21
71.22177229065414
 31
0.0
  0
LINE
  5
24A
330
21E
100
AcDbEntity
  8
DV3_0
 62
     7
370
    35
100
AcDbLine
 10
64.94363421573502
 20
64.22177229065414
 30
0.0
 11
64.94363421573502
 21
64.14177229065415
 31
0.0
  0
LINE
  5
24B
330
21E
100
AcDbEntity
  8
DV3_0
 62
     7
370
    35
100
AcDbLine
 10
64.94363421573502
 20
57.14177229065414
 30
0.0
 11
64.94363421573502
 21
57.05177229065414
 31
0.0
  0
LINE
  5
24C
330
21E
100
AcDbEntity
  8
DV3_0
 62
     7
370
    35
100
AcDbLine
 10
64.94363421573502
 20
50.05177229065414
 30
0.0
 11
64.94363421573502
 21
49.97177229065413
 31
0.0
  0
LINE
  5
24D
330
21E
100
AcDbEntity
  8
DV3_0
 62
     7
370
    35
100
AcDbLine
 10
62.94363421573501
 20
64.22177229065414
 30
0.0
 11
62.94363421573501
 21
64.14177229065415
 31
0.0
  0
LINE
  5
24E
330
21E
100
AcDbEntity
  8
DV3_0
 62
     7
370
    35
100
AcDbLine
 10
62.94363421573501
 20
57.14177229065414
 30
0.0
 11
62.94363421573501
 21
57.05177229065414
 31
0.0
  0
LINE
  5
24F
330
21E
100
AcDbEntity
  8
DV3_0
 62
     7
370
    35
100
AcDbLine
 10
62.94363421573501
 20
50.05177229065414
 30
0.0
 11
62.94363421573501
 21
49.97177229065427
 31
0.0
  0
LINE
  5
250
330
21E
100
AcDbEntity
  8
DV3_0
 62
     7
370
    35
100
AcDbLine
 10
91.94363421573512
 20
64.22177229065414
 30
0.0
 11
91.94363421573512
 21
64.14177229065415
 31
0.0
  0
LINE
  5
251
330
21E
100
AcDbEntity
  8
DV3_0
 62
     7
370
    35
100
AcDbLine
 10
91.94363421573512
 20
57.14177229065415
 30
0.0
 11
91.94363421573512
 21
57.05177229065414
 31
0.0
  0
LINE
  5
252
330
21E
100
AcDbEntity
  8
DV3_0
 62
     7
370
    35
100
AcDbLine
 10
91.94363421573512
 20
50.05177229065414
 30
0.0
 11
91.94363421573512
 21
49.97177229065413
 31
0.0
  0
LINE
  5
253
330
21E
100
AcDbEntity
  8
DV3_0
 62
     7
370
    35
100
AcDbLine
 10
89.94363421573512
 20
64.22177229065416
 30
0.0
 11
89.94363421573512
 21
64.14177229065413
 31
0.0
  0
LINE
  5
254
330
21E
100
AcDbEntity
  8
DV3_0
 62
     7
370
    35
100
AcDbLine
 10
89.94363421573512
 20
57.14177229065414
 30
0.0
 11
89.94363421573512
 21
57.05177229065413
 31
0.0
  0
LINE
  5
255
330
21E
100
AcDbEntity
  8
DV3_0
 62
     7
370
    35
100
AcDbLine
 10
89.94363421573512
 20
50.05177229065413
 30
0.0
 11
89.94363421573512
 21
49.97177229065414
 31
0.0
  0
LINE
  5
256
330
21E
100
AcDbEntity
  8
DV3_0
 62
     7
370
    35
100
AcDbLine
 10
87.9436342157351
 20
64.22177229065416
 30
0.0
 11
87.9436342157351
 21
64.14177229065415
 31
0.0
  0
LINE
  5
257
330
21E
100
AcDbEntity
  8
DV3_0
 62
     7
370
    35
100
AcDbLine
 10
87.9436342157351
 20
57.14177229065414
 30
0.0
 11
87.9436342157351
 21
57.05177229065414
 31
0.0
  0
LINE
  5
258
330
21E
100
AcDbEntity
  8
DV3_0
 62
     7
370
    35
100
AcDbLine
 10
87.9436342157351
 20
50.05177229065414
 30
0.0
 11
87.9436342157351
 21
49.97177229065414
 31
0.0
  0
LINE
  5
259
330
21E
100
AcDbEntity
  8
DV3_0
 62
     7
370
    35
100
AcDbLine
 10
85.9436342157351
 20
64.22177229065414
 30
0.0
 11
85.9436342157351
 21
64.14177229065415
 31
0.0
  0
LINE
  5
25A
330
21E
100
AcDbEntity
  8
DV3_0
 62
     7
370
    35
100
AcDbLine
 10
85.9436342157351
 20
57.14177229065415
 30
0.0
 11
85.9436342157351
 21
57.05177229065414
 31
0.0
  0
LINE
  5
25B
330
21E
100
AcDbEntity
  8
DV3_0
 62
     7
370
    35
100
AcDbLine
 10
85.9436342157351
 20
50.05177229065414
 30
0.0
 11
85.9436342157351
 21
49.97177229065413
 31
0.0
  0
ENDBLK
  5
25D
330
21E
100
AcDbEntity
  8
0
100
AcDbBlockEnd
  0
BLOCK
  5
370
330
25E
100
AcDbEntity
  8
0
100
AcDbBlockBegin
  2
SE3
 70
     0
 10
0.0
 20
0.0
 30
0.0
  3
SE3
  1

  0
LINE
  5
261
330
25E
100
AcDbEntity
  8
DV4_0
 62
     7
370
    35
100
AcDbLine
 10
202.4303082316657
 20
45.74089395023917
 30
0.0
 11
202.4303082316657
 21
37.57592814096191
 31
0.0
  0
LINE
  5
262
330
25E
100
AcDbEntity
  8
DV4_0
 62
     7
370
    35
100
AcDbLine
 10
202.4303082316657
 20
37.57592814096191
 30
0.0
 11
195.3592404198002
 21
33.49344523632328
 31
0.0
  0
LINE
  5
263
330
25E
100
AcDbEntity
  8
DV4_0
 62
     7
370
    35
100
AcDbLine
 10
195.3592404198002
 20
33.49344523632328
 30
0.0
 11
195.3592404198002
 21
41.65841104560053
 31
0.0
  0
LINE
  5
264
330
25E
100
AcDbEntity
  8
DV4_0
 62
     7
370
    35
100
AcDbLine
 10
195.3592404198002
 20
41.65841104560054
 30
0.0
 11
202.4303082316657
 21
45.74089395023917
 31
0.0
  0
LINE
  5
265
330
25E
100
AcDbEntity
  8
DV4_0
 62
     7
370
    35
100
AcDbLine
 10
195.2531744026222
 20
33.55468247989285
 30
0.0
 11
195.2531744026222
 21
41.71964828917011
 31
0.0
  0
LINE
  5
266
330
25E
100
AcDbEntity
  8
DV4_0
 62
     7
370
    35
100
AcDbLine
 10
195.2531744026222
 20
41.71964828917011
 30
0.0
 11
202.3242422144877
 21
45.80213119380873
 31
0.0
  0
LINE
  5
267
330
25E
100
AcDbEntity
  8
DV4_0
 62
     7
370
    35
100
AcDbLine
 10
195.3592404198002
 20
41.65841104560054
 30
0.0
 11
195.2531744026223
 21
41.71964828917012
 31
0.0
  0
LINE
  5
268
330
25E
100
AcDbEntity
  8
DV4_0
 62
     7
370
    35
100
AcDbLine
 10
195.3592404198002
 20
33.49344523632328
 30
0.0
 11
195.2531744026222
 21
33.55468247989285
 31
0.0
  0
LINE
  5
269
330
25E
100
AcDbEntity
  8
DV4_0
 62
     7
370
    35
100
AcDbLine
 10
202.4303082316657
 20
45.74089395023917
 30
0.0
 11
202.3242422144877
 21
45.80213119380874
 31
0.0
  0
LINE
  5
26A
330
25E
100
AcDbEntity
  8
DV4_0
 62
     7
370
    35
100
AcDbLine
 10
221.5930354766529
 20
56.8044996835399
 30
0.0
 11
221.5930354766529
 21
48.63953387426265
 31
0.0
  0
LINE
  5
26B
330
25E
100
AcDbEntity
  8
DV4_0
 62
     7
370
    35
100
AcDbLine
 10
221.5930354766529
 20
48.63953387426265
 30
0.0
 11
214.5219676647874
 21
44.557050969624
 31
0.0
  0
LINE
  5
26C
330
25E
100
AcDbEntity
  8
DV4_0
 62
     7
370
    35
100
AcDbLine
 10
214.5219676647874
 20
44.557050969624
 30
0.0
 11
214.5219676647874
 21
52.72201677890127
 31
0.0
  0
LINE
  5
26D
330
25E
100
AcDbEntity
  8
DV4_0
 62
     7
370
    35
100
AcDbLine
 10
214.5219676647874
 20
52.72201677890126
 30
0.0
 11
221.5930354766529
 21
56.80449968353989
 31
0.0
  0
LINE
  5
26E
330
25E
100
AcDbEntity
  8
DV4_0
 62
     7
370
    35
100
AcDbLine
 10
214.4159016476094
 20
44.61828821319358
 30
0.0
 11
214.4159016476094
 21
52.78325402247084
 31
0.0
  0
LINE
  5
26F
330
25E
100
AcDbEntity
  8
DV4_0
 62
     7
370
    35
100
AcDbLine
 10
214.4159016476094
 20
52.78325402247085
 30
0.0
 11
221.4869694594749
 21
56.86573692710949
 31
0.0
  0
LINE
  5
270
330
25E
100
AcDbEntity
  8
DV4_0
 62
     7
370
    35
100
AcDbLine
 10
214.5219676647874
 20
52.72201677890126
 30
0.0
 11
214.4159016476094
 21
52.78325402247084
 31
0.0
  0
LINE
  5
271
330
25E
100
AcDbEntity
  8
DV4_0
 62
     7
370
    35
100
AcDbLine
 10
214.5219676647874
 20
44.557050969624
 30
0.0
 11
214.4159016476094
 21
44.61828821319359
 31
0.0
  0
LINE
  5
272
330
25E
100
AcDbEntity
  8
DV4_0
 62
     7
370
    35
100
AcDbLine
 10
221.5930354766529
 20
56.8044996835399
 30
0.0
 11
221.4869694594749
 21
56.86573692710948
 31
0.0
  0
LINE
  5
273
330
25E
100
AcDbEntity
  8
DV4_0
 62
     7
370
    35
100
AcDbLine
 10
240.6141088251075
 20
67.78632150154579
 30
0.0
 11
240.6141088251075
 21
59.62135569226854
 31
0.0
  0
LINE
  5
274
330
25E
100
AcDbEntity
  8
DV4_0
 62
     7
370
    35
100
AcDbLine
 10
240.6141088251075
 20
59.62135569226854
 30
0.0
 11
233.543041013242
 21
55.5388727876299
 31
0.0
  0
LINE
  5
275
330
25E
100
AcDbEntity
  8
DV4_0
 62
     7
370
    35
100
AcDbLine
 10
233.543041013242
 20
55.53887278762989
 30
0.0
 11
233.543041013242
 21
63.70383859690715
 31
0.0
  0
LINE
  5
276
330
25E
100
AcDbEntity
  8
DV4_0
 62
     7
370
    35
100
AcDbLine
 10
233.543041013242
 20
63.70383859690716
 30
0.0
 11
240.6141088251075
 21
67.78632150154579
 31
0.0
  0
LINE
  5
277
330
25E
100
AcDbEntity
  8
DV4_0
 62
     7
370
    35
100
AcDbLine
 10
233.436974996064
 20
55.60011003119948
 30
0.0
 11
233.436974996064
 21
63.76507584047674
 31
0.0
  0
LINE
  5
278
330
25E
100
AcDbEntity
  8
DV4_0
 62
     7
370
    35
100
AcDbLine
 10
233.436974996064
 20
63.76507584047673
 30
0.0
 11
240.5080428079295
 21
67.84755874511536
 31
0.0
  0
LINE
  5
279
330
25E
100
AcDbEntity
  8
DV4_0
 62
     7
370
    35
100
AcDbLine
 10
233.543041013242
 20
63.70383859690716
 30
0.0
 11
233.4369749960641
 21
63.76507584047674
 31
0.0
  0
LINE
  5
27A
330
25E
100
AcDbEntity
  8
DV4_0
 62
     7
370
    35
100
AcDbLine
 10
233.543041013242
 20
55.53887278762989
 30
0.0
 11
233.436974996064
 21
55.60011003119947
 31
0.0
  0
LINE
  5
27B
330
25E
100
AcDbEntity
  8
DV4_0
 62
     7
370
    35
100
AcDbLine
 10
240.6141088251075
 20
67.78632150154579
 30
0.0
 11
240.5080428079295
 21
67.84755874511536
 31
0.0
  0
LINE
  5
27C
330
25E
100
AcDbEntity
  8
DV4_0
 62
     7
370
    35
100
AcDbLine
 10
236.599935359998
 20
78.65515715287366
 30
0.0
 11
242.2567896094903
 21
75.3891708291628
 31
0.0
  0
LINE
  5
27D
330
25E
100
AcDbEntity
  8
DV4_0
 62
     7
370
    35
100
AcDbLine
 10
242.6567896094903
 20
75.62011093683864
 30
0.0
 11
236.999935359998
 21
78.8860972605495
 31
0.0
  0
LINE
  5
27E
330
25E
100
AcDbEntity
  8
DV4_0
 62
     7
370
    35
100
AcDbLine
 10
217.5080522679611
 20
67.63245331034929
 30
0.0
 11
223.1649065174534
 21
64.36646698663847
 31
0.0
  0
LINE
  5
27F
330
25E
100
AcDbEntity
  8
DV4_0
 62
     7
370
    35
100
AcDbLine
 10
223.5649065174534
 20
64.59740709431433
 30
0.0
 11
217.9080522679612
 21
67.86339341802514
 31
0.0
  0
LINE
  5
280
330
25E
100
AcDbEntity
  8
DV4_0
 62
     7
370
    35
100
AcDbLine
 10
228.9114915964702
 20
36.24914106321239
 30
0.0
 11
228.6993595621142
 21
36.37161555035154
 31
0.0
  0
LINE
  5
281
330
25E
100
AcDbEntity
  8
DV4_0
 62
     7
370
    35
100
AcDbLine
 10
232.4470255024029
 20
38.29038251553173
 30
0.0
 11
228.9114915964702
 21
36.2491410632124
 31
0.0
  0
LINE
  5
282
330
25E
100
AcDbEntity
  8
DV4_0
 62
     7
370
    35
100
AcDbLine
 10
231.7399187212163
 20
69.31725259078529
 30
0.0
 11
232.4470255024029
 21
68.90900430032143
 31
0.0
  0
LINE
  5
283
330
25E
100
AcDbEntity
  8
DV4_0
 62
     7
370
    35
100
AcDbLine
 10
228.6993595621142
 20
67.5617849417907
 30
0.0
 11
231.7399187212163
 21
69.3172525907853
 31
0.0
  0
LINE
  5
284
330
25E
100
AcDbEntity
  8
DV4_0
 62
     7
370
    35
100
AcDbLine
 10
228.9114915964701
 20
66.86776284800213
 30
0.0
 11
228.6993595621142
 21
66.99023733514127
 31
0.0
  0
LINE
  5
285
330
25E
100
AcDbEntity
  8
DV4_0
 62
     7
370
    35
100
AcDbLine
 10
232.4470255024029
 20
68.90900430032144
 30
0.0
 11
228.9114915964701
 21
66.86776284800213
 31
0.0
  0
LINE
  5
286
330
25E
100
AcDbEntity
  8
DV4_0
 62
     7
370
    35
100
AcDbLine
 10
232.4470255024029
 20
38.29038251553173
 30
0.0
 11
232.4470255024029
 21
68.90900430032144
 31
0.0
  0
LINE
  5
287
330
25E
100
AcDbEntity
  8
DV4_0
 62
     7
370
    35
100
AcDbLine
 10
228.9114915964702
 20
36.24914106321239
 30
0.0
 11
228.9114915964701
 21
66.86776284800212
 31
0.0
  0
LINE
  5
288
330
25E
100
AcDbEntity
  8
DV4_0
 62
     7
370
    35
100
AcDbLine
 10
236.9017982238781
 20
40.86234674545398
 30
0.0
 11
232.6591575367588
 21
38.4128570026708
 31
0.0
  0
LINE
  5
289
330
25E
100
AcDbEntity
  8
DV4_0
 62
     7
370
    35
100
AcDbLine
 10
232.6591575367588
 20
38.41285700267081
 30
0.0
 11
232.4470255024029
 21
38.53533148980995
 31
0.0
  0
LINE
  5
28A
330
25E
100
AcDbEntity
  8
DV4_0
 62
     7
370
    35
100
AcDbLine
 10
236.9017982238781
 20
71.48096853024371
 30
0.0
 11
232.6591575367588
 21
69.03147878746054
 31
0.0
  0
LINE
  5
28B
330
25E
100
AcDbEntity
  8
DV4_0
 62
     7
370
    35
100
AcDbLine
 10
236.1946914426915
 20
71.88921682070757
 30
0.0
 11
236.9017982238781
 21
71.48096853024371
 31
0.0
  0
LINE
  5
28C
330
25E
100
AcDbEntity
  8
DV4_0
 62
     7
370
    35
100
AcDbLine
 10
231.9520507555723
 20
69.43972707792439
 30
0.0
 11
236.1946914426915
 21
71.88921682070757
 31
0.0
  0
LINE
  5
28D
330
25E
100
AcDbEntity
  8
DV4_0
 62
     7
370
    35
100
AcDbLine
 10
232.6591575367588
 20
69.03147878746051
 30
0.0
 11
231.9520507555723
 21
69.43972707792437
 31
0.0
  0
LINE
  5
28E
330
25E
100
AcDbEntity
  8
DV4_0
 62
     7
370
    35
100
AcDbLine
 10
232.6591575367588
 20
38.41285700267081
 30
0.0
 11
232.6591575367588
 21
69.03147878746053
 31
0.0
  0
LINE
  5
28F
330
25E
100
AcDbEntity
  8
DV4_0
 62
     7
370
    35
100
AcDbLine
 10
236.9017982238781
 20
40.86234674545398
 30
0.0
 11
236.9017982238781
 21
57.47805216733325
 31
0.0
  0
LINE
  5
290
330
25E
100
AcDbEntity
  8
DV4_0
 62
     7
370
    35
100
AcDbLine
 10
236.9017982238781
 20
65.76549246374967
 30
0.0
 11
236.9017982238781
 21
71.4809685302437
 31
0.0
  0
LINE
  5
291
330
25E
100
AcDbEntity
  8
DV4_0
 62
     7
370
    35
100
AcDbLine
 10
231.9520507555723
 20
69.19477810364616
 30
0.0
 11
231.9520507555723
 21
69.43972707792437
 31
0.0
  0
LINE
  5
292
330
25E
100
AcDbEntity
  8
DV4_0
 62
     7
370
    35
100
AcDbLine
 10
241.3565709453534
 20
43.43431097537632
 30
0.0
 11
237.1139302582341
 21
40.98482123259314
 31
0.0
  0
LINE
  5
293
330
25E
100
AcDbEntity
  8
DV4_0
 62
     7
370
    35
100
AcDbLine
 10
237.1139302582341
 20
40.98482123259314
 30
0.0
 11
236.9017982238781
 21
41.10729571973232
 31
0.0
  0
LINE
  5
294
330
25E
100
AcDbEntity
  8
DV4_0
 62
     7
370
    35
100
AcDbLine
 10
241.3565709453534
 20
74.05293276016606
 30
0.0
 11
237.1139302582341
 21
71.60344301738287
 31
0.0
  0
LINE
  5
295
330
25E
100
AcDbEntity
  8
DV4_0
 62
     7
370
    35
100
AcDbLine
 10
240.6494641641668
 20
74.46118105062992
 30
0.0
 11
241.3565709453534
 21
74.05293276016606
 31
0.0
  0
LINE
  5
296
330
25E
100
AcDbEntity
  8
DV4_0
 62
     7
370
    35
100
AcDbLine
 10
236.4068234770476
 20
72.01169130784673
 30
0.0
 11
240.6494641641669
 21
74.46118105062992
 31
0.0
  0
LINE
  5
297
330
25E
100
AcDbEntity
  8
DV4_0
 62
     7
370
    35
100
AcDbLine
 10
237.1139302582341
 20
71.60344301738286
 30
0.0
 11
236.4068234770475
 21
72.01169130784672
 31
0.0
  0
LINE
  5
298
330
25E
100
AcDbEntity
  8
DV4_0
 62
     7
370
    35
100
AcDbLine
 10
237.1139302582341
 20
40.98482123259314
 30
0.0
 11
237.1139302582341
 21
57.6005266544724
 31
0.0
  0
LINE
  5
299
330
25E
100
AcDbEntity
  8
DV4_0
 62
     7
370
    35
100
AcDbLine
 10
237.1139302582341
 20
65.88796695088882
 30
0.0
 11
237.1139302582341
 21
71.60344301738284
 31
0.0
  0
LINE
  5
29A
330
25E
100
AcDbEntity
  8
DV4_0
 62
     7
370
    35
100
AcDbLine
 10
241.3565709453534
 20
43.43431097537632
 30
0.0
 11
241.3565709453534
 21
74.05293276016604
 31
0.0
  0
LINE
  5
29B
330
25E
100
AcDbEntity
  8
DV4_0
 62
     7
370
    35
100
AcDbLine
 10
236.4068234770476
 20
71.7667423335684
 30
0.0
 11
236.4068234770476
 21
72.01169130784673
 31
0.0
  0
LINE
  5
29C
330
25E
100
AcDbEntity
  8
DV4_0
 62
     7
370
    35
100
AcDbLine
 10
245.8113436668286
 20
46.00627520529866
 30
0.0
 11
241.5687029797093
 21
43.55678546251549
 31
0.0
  0
LINE
  5
29D
330
25E
100
AcDbEntity
  8
DV4_0
 62
     7
370
    35
100
AcDbLine
 10
241.5687029797093
 20
43.55678546251549
 30
0.0
 11
241.3565709453534
 21
43.67925994965461
 31
0.0
  0
LINE
  5
29E
330
25E
100
AcDbEntity
  8
DV4_0
 62
     7
370
    35
100
AcDbLine
 10
245.8113436668286
 20
76.6248969900884
 30
0.0
 11
241.5687029797093
 21
74.17540724730522
 31
0.0
  0
LINE
  5
29F
330
25E
100
AcDbEntity
  8
DV4_0
 62
     7
370
    35
100
AcDbLine
 10
245.104236885642
 20
77.03314528055225
 30
0.0
 11
245.8113436668286
 21
76.62489699008839
 31
0.0
  0
LINE
  5
2A0
330
25E
100
AcDbEntity
  8
DV4_0
 62
     7
370
    35
100
AcDbLine
 10
240.8615961985227
 20
74.58365553776906
 30
0.0
 11
245.104236885642
 21
77.03314528055225
 31
0.0
  0
LINE
  5
2A1
330
25E
100
AcDbEntity
  8
DV4_0
 62
     7
370
    35
100
AcDbLine
 10
241.5687029797093
 20
74.1754072473052
 30
0.0
 11
240.8615961985227
 21
74.58365553776906
 31
0.0
  0
LINE
  5
2A2
330
25E
100
AcDbEntity
  8
DV4_0
 62
     7
370
    35
100
AcDbLine
 10
241.5687029797093
 20
43.55678546251549
 30
0.0
 11
241.5687029797093
 21
74.1754072473052
 31
0.0
  0
LINE
  5
2A3
330
25E
100
AcDbEntity
  8
DV4_0
 62
     7
370
    35
100
AcDbLine
 10
245.8113436668286
 20
46.00627520529866
 30
0.0
 11
245.8113436668286
 21
76.62489699008839
 31
0.0
  0
LINE
  5
2A4
330
25E
100
AcDbEntity
  8
DV4_0
 62
     7
370
    35
100
AcDbLine
 10
240.8615961985227
 20
74.33870656349077
 30
0.0
 11
240.8615961985227
 21
74.58365553776905
 31
0.0
  0
LINE
  5
2A5
330
25E
100
AcDbEntity
  8
DV4_0
 62
     7
370
    35
100
AcDbLine
 10
209.8196085044331
 20
25.226437220688
 30
0.0
 11
209.6074764700772
 21
25.34891170782712
 31
0.0
  0
LINE
  5
2A6
330
25E
100
AcDbEntity
  8
DV4_0
 62
     7
370
    35
100
AcDbLine
 10
213.3551424103659
 20
27.26767867300732
 30
0.0
 11
209.8196085044332
 21
25.226437220688
 31
0.0
  0
LINE
  5
2A7
330
25E
100
AcDbEntity
  8
DV4_0
 62
     7
370
    35
100
AcDbLine
 10
212.6480356291793
 20
58.2945487482609
 30
0.0
 11
213.3551424103659
 21
57.88630045779703
 31
0.0
  0
LINE
  5
2A8
330
25E
100
AcDbEntity
  8
DV4_0
 62
     7
370
    35
100
AcDbLine
 10
209.6074764700772
 20
56.53908109926631
 30
0.0
 11
212.6480356291793
 21
58.2945487482609
 31
0.0
  0
LINE
  5
2A9
330
25E
100
AcDbEntity
  8
DV4_0
 62
     7
370
    35
100
AcDbLine
 10
209.8196085044331
 20
55.84505900547772
 30
0.0
 11
209.6074764700772
 21
55.96753349261684
 31
0.0
  0
LINE
  5
2AA
330
25E
100
AcDbEntity
  8
DV4_0
 62
     7
370
    35
100
AcDbLine
 10
213.3551424103659
 20
57.88630045779703
 30
0.0
 11
209.8196085044331
 21
55.84505900547772
 31
0.0
  0
LINE
  5
2AB
330
25E
100
AcDbEntity
  8
DV4_0
 62
     7
370
    35
100
AcDbLine
 10
213.3551424103659
 20
27.26767867300732
 30
0.0
 11
213.3551424103659
 21
57.88630045779703
 31
0.0
  0
LINE
  5
2AC
330
25E
100
AcDbEntity
  8
DV4_0
 62
     7
370
    35
100
AcDbLine
 10
209.8196085044331
 20
25.226437220688
 30
0.0
 11
209.8196085044331
 21
55.84505900547771
 31
0.0
  0
LINE
  5
2AD
330
25E
100
AcDbEntity
  8
DV4_0
 62
     7
370
    35
100
AcDbLine
 10
217.8099151318411
 20
29.83964290292965
 30
0.0
 11
213.5672744447218
 21
27.39015316014646
 31
0.0
  0
LINE
  5
2AE
330
25E
100
AcDbEntity
  8
DV4_0
 62
     7
370
    35
100
AcDbLine
 10
213.5672744447219
 20
27.39015316014645
 30
0.0
 11
213.3551424103659
 21
27.5126276472856
 31
0.0
  0
LINE
  5
2AF
330
25E
100
AcDbEntity
  8
DV4_0
 62
     7
370
    35
100
AcDbLine
 10
217.8099151318411
 20
60.45826468771936
 30
0.0
 11
213.5672744447218
 21
58.00877494493617
 31
0.0
  0
LINE
  5
2B0
330
25E
100
AcDbEntity
  8
DV4_0
 62
     7
370
    35
100
AcDbLine
 10
217.1028083506546
 20
60.86651297818322
 30
0.0
 11
217.8099151318411
 21
60.45826468771936
 31
0.0
  0
LINE
  5
2B1
330
25E
100
AcDbEntity
  8
DV4_0
 62
     7
370
    35
100
AcDbLine
 10
212.8601676635353
 20
58.41702323540003
 30
0.0
 11
217.1028083506546
 21
60.86651297818322
 31
0.0
  0
LINE
  5
2B2
330
25E
100
AcDbEntity
  8
DV4_0
 62
     7
370
    35
100
AcDbLine
 10
213.5672744447218
 20
58.00877494493619
 30
0.0
 11
212.8601676635353
 21
58.41702323540004
 31
0.0
  0
LINE
  5
2B3
330
25E
100
AcDbEntity
  8
DV4_0
 62
     7
370
    35
100
AcDbLine
 10
213.5672744447219
 20
27.39015316014645
 30
0.0
 11
213.5672744447218
 21
58.00877494493616
 31
0.0
  0
LINE
  5
2B4
330
25E
100
AcDbEntity
  8
DV4_0
 62
     7
370
    35
100
AcDbLine
 10
217.8099151318411
 20
29.83964290292965
 30
0.0
 11
217.8099151318411
 21
46.45534832480882
 31
0.0
  0
LINE
  5
2B5
330
25E
100
AcDbEntity
  8
DV4_0
 62
     7
370
    35
100
AcDbLine
 10
217.8099151318411
 20
54.74278862122524
 30
0.0
 11
217.8099151318411
 21
60.45826468771936
 31
0.0
  0
LINE
  5
2B6
330
25E
100
AcDbEntity
  8
DV4_0
 62
     7
370
    35
100
AcDbLine
 10
212.8601676635353
 20
58.17207426112174
 30
0.0
 11
212.8601676635353
 21
58.41702323540003
 31
0.0
  0
LINE
  5
2B7
330
25E
100
AcDbEntity
  8
DV4_0
 62
     7
370
    35
100
AcDbLine
 10
222.2646878533164
 20
32.41160713285202
 30
0.0
 11
218.0220471661972
 21
29.96211739006884
 31
0.0
  0
LINE
  5
2B8
330
25E
100
AcDbEntity
  8
DV4_0
 62
     7
370
    35
100
AcDbLine
 10
218.0220471661971
 20
29.96211739006883
 30
0.0
 11
217.8099151318411
 21
30.08459187720801
 31
0.0
  0
LINE
  5
2B9
330
25E
100
AcDbEntity
  8
DV4_0
 62
     7
370
    35
100
AcDbLine
 10
222.2646878533164
 20
63.03022891764174
 30
0.0
 11
218.0220471661971
 21
60.58073917485855
 31
0.0
  0
LINE
  5
2BA
330
25E
100
AcDbEntity
  8
DV4_0
 62
     7
370
    35
100
AcDbLine
 10
221.5575810721299
 20
63.4384772081056
 30
0.0
 11
222.2646878533164
 21
63.03022891764174
 31
0.0
  0
LINE
  5
2BB
330
25E
100
AcDbEntity
  8
DV4_0
 62
     7
370
    35
100
AcDbLine
 10
217.3149403850106
 20
60.98898746532242
 30
0.0
 11
221.5575810721299
 21
63.4384772081056
 31
0.0
  0
LINE
  5
2BC
330
25E
100
AcDbEntity
  8
DV4_0
 62
     7
370
    35
100
AcDbLine
 10
218.0220471661971
 20
60.58073917485855
 30
0.0
 11
217.3149403850105
 21
60.98898746532241
 31
0.0
  0
LINE
  5
2BD
330
25E
100
AcDbEntity
  8
DV4_0
 62
     7
370
    35
100
AcDbLine
 10
218.0220471661971
 20
29.96211739006883
 30
0.0
 11
218.0220471661971
 21
46.577822811948
 31
0.0
  0
LINE
  5
2BE
330
25E
100
AcDbEntity
  8
DV4_0
 62
     7
370
    35
100
AcDbLine
 10
218.0220471661971
 20
54.86526310836441
 30
0.0
 11
218.0220471661971
 21
60.58073917485854
 31
0.0
  0
LINE
  5
2BF
330
25E
100
AcDbEntity
  8
DV4_0
 62
     7
370
    35
100
AcDbLine
 10
222.2646878533164
 20
32.41160713285202
 30
0.0
 11
222.2646878533164
 21
63.03022891764174
 31
0.0
  0
LINE
  5
2C0
330
25E
100
AcDbEntity
  8
DV4_0
 62
     7
370
    35
100
AcDbLine
 10
217.3149403850106
 20
60.74403849104405
 30
0.0
 11
217.3149403850106
 21
60.98898746532241
 31
0.0
  0
LINE
  5
2C1
330
25E
100
AcDbEntity
  8
DV4_0
 62
     7
370
    35
100
AcDbLine
 10
226.7194605747917
 20
34.98357136277436
 30
0.0
 11
222.4768198876724
 21
32.53408161999118
 31
0.0
  0
LINE
  5
2C2
330
25E
100
AcDbEntity
  8
DV4_0
 62
     7
370
    35
100
AcDbLine
 10
222.4768198876724
 20
32.53408161999119
 30
0.0
 11
222.2646878533164
 21
32.65655610713036
 31
0.0
  0
LINE
  5
2C3
330
25E
100
AcDbEntity
  8
DV4_0
 62
     7
370
    35
100
AcDbLine
 10
226.7194605747917
 20
65.6021931475641
 30
0.0
 11
222.4768198876724
 21
63.15270340478091
 31
0.0
  0
LINE
  5
2C4
330
25E
100
AcDbEntity
  8
DV4_0
 62
     7
370
    35
100
AcDbLine
 10
226.0123537936051
 20
66.01044143802795
 30
0.0
 11
226.7194605747917
 21
65.6021931475641
 31
0.0
  0
LINE
  5
2C5
330
25E
100
AcDbEntity
  8
DV4_0
 62
     7
370
    35
100
AcDbLine
 10
221.7697131064858
 20
63.56095169524475
 30
0.0
 11
226.0123537936051
 21
66.01044143802794
 31
0.0
  0
LINE
  5
2C6
330
25E
100
AcDbEntity
  8
DV4_0
 62
     7
370
    35
100
AcDbLine
 10
222.4768198876724
 20
63.15270340478089
 30
0.0
 11
221.7697131064859
 21
63.56095169524475
 31
0.0
  0
LINE
  5
2C7
330
25E
100
AcDbEntity
  8
DV4_0
 62
     7
370
    35
100
AcDbLine
 10
222.4768198876724
 20
32.53408161999119
 30
0.0
 11
222.4768198876724
 21
63.15270340478091
 31
0.0
  0
LINE
  5
2C8
330
25E
100
AcDbEntity
  8
DV4_0
 62
     7
370
    35
100
AcDbLine
 10
226.7194605747917
 20
34.98357136277436
 30
0.0
 11
226.7194605747917
 21
65.60219314756408
 31
0.0
  0
LINE
  5
2C9
330
25E
100
AcDbEntity
  8
DV4_0
 62
     7
370
    35
100
AcDbLine
 10
221.7697131064858
 20
63.31600272096641
 30
0.0
 11
221.7697131064858
 21
63.56095169524475
 31
0.0
  0
LINE
  5
2CA
330
25E
100
AcDbEntity
  8
DV4_0
 62
     7
370
    35
100
AcDbLine
 10
200.6625756880675
 20
51.37474022489832
 30
0.0
 11
195.0057214385752
 21
54.64072654860927
 31
0.0
  0
LINE
  5
2CB
330
25E
100
AcDbEntity
  8
DV4_0
 62
     7
370
    35
100
AcDbLine
 10
202.0767892504406
 20
52.19123680582604
 30
0.0
 11
196.4199350009483
 21
55.45722312953698
 31
0.0
  0
LINE
  5
2CC
330
25E
100
AcDbEntity
  8
DV4_0
 62
     7
370
    35
100
AcDbLine
 10
196.5260010181263
 20
55.51846037310656
 30
0.0
 11
202.1828552676186
 21
52.25247404939562
 31
0.0
  0
ELLIPSE
  5
2CD
330
25E
100
AcDbEntity
  8
DV4_0
 62
     7
370
    35
100
AcDbEllipse
 10
199.5312048381694
 20
53.25268236103192
 30
0.0
 11
0.09999999999999623
 21
-0.1732050807568942
 31
0.0
210
0.0
220
0.0
230
0.9999999999999998
 40
0.5773502691896278
 41
0.0
 42
6.283185307179586
  0
ELLIPSE
  5
2CE
330
25E
100
AcDbEntity
  8
DV4_0
 62
     7
370
    35
100
AcDbEllipse
 10
199.6372708553474
 20
53.31391960460149
 30
0.0
 11
-0.09999999999999722
 21
0.1732050807568948
 31
0.0
210
0.0
220
0.0
230
1.0
 40
0.5773502691896092
 41
0.5589898660106822
 42
2.582602787579293
  0
ELLIPSE
  5
2CF
330
25E
100
AcDbEntity
  8
DV4_0
 62
     7
370
    35
100
AcDbEllipse
 10
197.763437885203
 20
53.45680650626386
 30
0.0
 11
0.09999999999999573
 21
-0.173205080756894
 31
0.0
210
0.0
220
0.0
230
1.0
 40
0.5773502691896303
 41
0.0
 42
6.283185307179586
  0
ELLIPSE
  5
2D0
330
25E
100
AcDbEntity
  8
DV4_0
 62
     7
370
    35
100
AcDbEllipse
 10
197.869503902381
 20
53.51804374983343
 30
0.0
 11
-0.1000000000000006
 21
0.1732050807568923
 31
0.0
210
0.0
220
0.0
230
0.9999999999999998
 40
0.5773502691896054
 41
0.558989866015855
 42
2.582602787574003
  0
LINE
  5
2D1
330
25E
100
AcDbEntity
  8
DV4_0
 62
     7
370
    35
100
AcDbLine
 10
227.2851459997411
 20
73.27726100828458
 30
0.0
 11
228.6993595621142
 21
74.09375758921232
 31
0.0
  0
LINE
  5
2D2
330
25E
100
AcDbEntity
  8
DV4_0
 62
     7
370
    35
100
AcDbLine
 10
227.2851459997411
 20
34.08542512375373
 30
0.0
 11
228.6993595621142
 21
34.90192170468146
 31
0.0
  0
LINE
  5
2D3
330
25E
100
AcDbEntity
  8
DV4_0
 62
     7
370
    35
100
AcDbLine
 10
226.2244858279611
 20
34.69779755944966
 30
0.0
 11
227.2851459997411
 21
34.08542512375374
 31
0.0
  0
LINE
  5
2D4
330
25E
100
AcDbEntity
  8
DV4_0
 62
     7
370
    35
100
AcDbLine
 10
228.6993595621142
 20
74.09375758921232
 30
0.0
 11
228.6993595621142
 21
34.90192170468148
 31
0.0
  0
LINE
  5
2D5
330
25E
100
AcDbEntity
  8
DV4_0
 62
     7
370
    35
100
AcDbLine
 10
227.2851459997411
 20
73.27726100828458
 30
0.0
 11
227.2851459997411
 21
34.08542512375374
 31
0.0
  0
LINE
  5
2D6
330
25E
100
AcDbEntity
  8
DV4_0
 62
     7
370
    35
100
AcDbLine
 10
222.3353985314353
 20
70.41952297503761
 30
0.0
 11
222.3353985314353
 21
65.30726386101269
 31
0.0
  0
LINE
  5
2D7
330
25E
100
AcDbEntity
  8
DV4_0
 62
     7
370
    35
100
AcDbLine
 10
222.3353985314353
 20
64.84538364566097
 30
0.0
 11
222.3353985314353
 21
63.88755032761595
 31
0.0
  0
LINE
  5
2D8
330
25E
100
AcDbEntity
  8
DV4_0
 62
     7
370
    35
100
AcDbLine
 10
222.2788299889403
 20
70.38686311180048
 30
0.0
 11
222.2788299889403
 21
65.33992372424979
 31
0.0
  0
LINE
  5
2D9
330
25E
100
AcDbEntity
  8
DV4_0
 62
     7
370
    35
100
AcDbLine
 10
222.2788299889403
 20
64.87804350889809
 30
0.0
 11
222.2788299889403
 21
63.85489046437884
 31
0.0
  0
LINE
  5
2DA
330
25E
100
AcDbEntity
  8
DV4_0
 62
     7
370
    35
100
AcDbLine
 10
217.3290825206345
 20
67.52912507855345
 30
0.0
 11
217.3290825206345
 21
65.55320335270844
 31
0.0
  0
LINE
  5
2DB
330
25E
100
AcDbEntity
  8
DV4_0
 62
     7
370
    35
100
AcDbLine
 10
217.3290825206345
 20
63.79773570371375
 30
0.0
 11
217.3290825206345
 21
60.99715243113181
 31
0.0
  0
LINE
  5
2DC
330
25E
100
AcDbEntity
  8
DV4_0
 62
     7
370
    35
100
AcDbLine
 10
190.7277254123964
 20
14.20373337816354
 30
0.0
 11
190.5155933780405
 21
14.32620786530268
 31
0.0
  0
LINE
  5
2DD
330
25E
100
AcDbEntity
  8
DV4_0
 62
     7
370
    35
100
AcDbLine
 10
194.2632593183292
 20
16.24497483048286
 30
0.0
 11
190.7277254123964
 21
14.20373337816354
 31
0.0
  0
LINE
  5
2DE
330
25E
100
AcDbEntity
  8
DV4_0
 62
     7
370
    35
100
AcDbLine
 10
193.5561525371426
 20
47.2718449057364
 30
0.0
 11
194.2632593183291
 21
46.86359661527254
 31
0.0
  0
LINE
  5
2DF
330
25E
100
AcDbEntity
  8
DV4_0
 62
     7
370
    35
100
AcDbLine
 10
190.5155933780404
 20
45.51637725674183
 30
0.0
 11
193.5561525371425
 21
47.27184490573641
 31
0.0
  0
LINE
  5
2E0
330
25E
100
AcDbEntity
  8
DV4_0
 62
     7
370
    35
100
AcDbLine
 10
190.7277254123964
 20
44.82235516295322
 30
0.0
 11
190.5155933780404
 21
44.94482965009233
 31
0.0
  0
LINE
  5
2E1
330
25E
100
AcDbEntity
  8
DV4_0
 62
     7
370
    35
100
AcDbLine
 10
194.2632593183291
 20
46.86359661527253
 30
0.0
 11
190.7277254123964
 21
44.82235516295322
 31
0.0
  0
LINE
  5
2E2
330
25E
100
AcDbEntity
  8
DV4_0
 62
     7
370
    35
100
AcDbLine
 10
194.2632593183292
 20
16.24497483048286
 30
0.0
 11
194.2632593183291
 21
46.86359661527254
 31
0.0
  0
LINE
  5
2E3
330
25E
100
AcDbEntity
  8
DV4_0
 62
     7
370
    35
100
AcDbLine
 10
190.7277254123964
 20
14.20373337816354
 30
0.0
 11
190.7277254123964
 21
44.82235516295323
 31
0.0
  0
LINE
  5
2E4
330
25E
100
AcDbEntity
  8
DV4_0
 62
     7
370
    35
100
AcDbLine
 10
198.7180320398044
 20
18.8169390604052
 30
0.0
 11
194.4753913526851
 21
16.36744931762201
 31
0.0
  0
LINE
  5
2E5
330
25E
100
AcDbEntity
  8
DV4_0
 62
     7
370
    35
100
AcDbLine
 10
194.4753913526851
 20
16.36744931762201
 30
0.0
 11
194.2632593183292
 21
16.48992380476118
 31
0.0
  0
LINE
  5
2E6
330
25E
100
AcDbEntity
  8
DV4_0
 62
     7
370
    35
100
AcDbLine
 10
198.7180320398044
 20
49.43556084519491
 30
0.0
 11
194.4753913526851
 21
46.98607110241173
 31
0.0
  0
LINE
  5
2E7
330
25E
100
AcDbEntity
  8
DV4_0
 62
     7
370
    35
100
AcDbLine
 10
198.0109252586178
 20
49.84380913565877
 30
0.0
 11
198.7180320398044
 21
49.43556084519491
 31
0.0
  0
LINE
  5
2E8
330
25E
100
AcDbEntity
  8
DV4_0
 62
     7
370
    35
100
AcDbLine
 10
193.7682845714986
 20
47.39431939287557
 30
0.0
 11
198.0109252586178
 21
49.84380913565876
 31
0.0
  0
LINE
  5
2E9
330
25E
100
AcDbEntity
  8
DV4_0
 62
     7
370
    35
100
AcDbLine
 10
194.4753913526851
 20
46.98607110241172
 30
0.0
 11
193.7682845714986
 21
47.39431939287558
 31
0.0
  0
LINE
  5
2EA
330
25E
100
AcDbEntity
  8
DV4_0
 62
     7
370
    35
100
AcDbLine
 10
194.4753913526851
 20
16.36744931762201
 30
0.0
 11
194.4753913526851
 21
46.98607110241171
 31
0.0
  0
LINE
  5
2EB
330
25E
100
AcDbEntity
  8
DV4_0
 62
     7
370
    35
100
AcDbLine
 10
198.7180320398044
 20
18.8169390604052
 30
0.0
 11
198.7180320398044
 21
35.43264448228454
 31
0.0
  0
LINE
  5
2EC
330
25E
100
AcDbEntity
  8
DV4_0
 62
     7
370
    35
100
AcDbLine
 10
198.7180320398044
 20
43.72008477870096
 30
0.0
 11
198.7180320398044
 21
49.4355608451949
 31
0.0
  0
LINE
  5
2ED
330
25E
100
AcDbEntity
  8
DV4_0
 62
     7
370
    35
100
AcDbLine
 10
193.7682845714986
 20
47.14937041859721
 30
0.0
 11
193.7682845714986
 21
47.39431939287558
 31
0.0
  0
LINE
  5
2EE
330
25E
100
AcDbEntity
  8
DV4_0
 62
     7
370
    35
100
AcDbLine
 10
203.1728047612797
 20
21.38890329032754
 30
0.0
 11
198.9301640741604
 21
18.93941354754436
 31
0.0
  0
LINE
  5
2EF
330
25E
100
AcDbEntity
  8
DV4_0
 62
     7
370
    35
100
AcDbLine
 10
198.9301640741604
 20
18.93941354754435
 30
0.0
 11
198.7180320398044
 21
19.06188803468351
 31
0.0
  0
LINE
  5
2F0
330
25E
100
AcDbEntity
  8
DV4_0
 62
     7
370
    35
100
AcDbLine
 10
203.1728047612796
 20
52.00752507511726
 30
0.0
 11
198.9301640741603
 21
49.55803533233407
 31
0.0
  0
LINE
  5
2F1
330
25E
100
AcDbEntity
  8
DV4_0
 62
     7
370
    35
100
AcDbLine
 10
202.4656979800931
 20
52.41577336558112
 30
0.0
 11
203.1728047612797
 21
52.00752507511726
 31
0.0
  0
LINE
  5
2F2
330
25E
100
AcDbEntity
  8
DV4_0
 62
     7
370
    35
100
AcDbLine
 10
198.2230572929738
 20
49.96628362279793
 30
0.0
 11
202.4656979800931
 21
52.41577336558112
 31
0.0
  0
LINE
  5
2F3
330
25E
100
AcDbEntity
  8
DV4_0
 62
     7
370
    35
100
AcDbLine
 10
198.9301640741604
 20
49.55803533233407
 30
0.0
 11
198.2230572929738
 21
49.96628362279793
 31
0.0
  0
LINE
  5
2F4
330
25E
100
AcDbEntity
  8
DV4_0
 62
     7
370
    35
100
AcDbLine
 10
198.9301640741604
 20
18.93941354754435
 30
0.0
 11
198.9301640741604
 21
35.5551189694237
 31
0.0
  0
LINE
  5
2F5
330
25E
100
AcDbEntity
  8
DV4_0
 62
     7
370
    35
100
AcDbLine
 10
198.9301640741604
 20
43.84255926584011
 30
0.0
 11
198.9301640741604
 21
49.55803533233406
 31
0.0
  0
LINE
  5
2F6
330
25E
100
AcDbEntity
  8
DV4_0
 62
     7
370
    35
100
AcDbLine
 10
203.1728047612797
 20
21.38890329032754
 30
0.0
 11
203.1728047612796
 21
52.00752507511726
 31
0.0
  0
LINE
  5
2F7
330
25E
100
AcDbEntity
  8
DV4_0
 62
     7
370
    35
100
AcDbLine
 10
198.2230572929738
 20
49.72133464851959
 30
0.0
 11
198.2230572929738
 21
49.96628362279793
 31
0.0
  0
LINE
  5
2F8
330
25E
100
AcDbEntity
  8
DV4_0
 62
     7
370
    35
100
AcDbLine
 10
207.6275774827549
 20
23.9608675202499
 30
0.0
 11
203.3849367956356
 21
21.51137777746671
 31
0.0
  0
LINE
  5
2F9
330
25E
100
AcDbEntity
  8
DV4_0
 62
     7
370
    35
100
AcDbLine
 10
203.3849367956356
 20
21.51137777746672
 30
0.0
 11
203.1728047612797
 21
21.63385226460588
 31
0.0
  0
LINE
  5
2FA
330
25E
100
AcDbEntity
  8
DV4_0
 62
     7
370
    35
100
AcDbLine
 10
207.6275774827549
 20
54.57948930503962
 30
0.0
 11
203.3849367956356
 21
52.12999956225644
 31
0.0
  0
LINE
  5
2FB
330
25E
100
AcDbEntity
  8
DV4_0
 62
     7
370
    35
100
AcDbLine
 10
206.9204707015683
 20
54.98773759550349
 30
0.0
 11
207.6275774827549
 21
54.57948930503962
 31
0.0
  0
LINE
  5
2FC
330
25E
100
AcDbEntity
  8
DV4_0
 62
     7
370
    35
100
AcDbLine
 10
202.6778300144491
 20
52.5382478527203
 30
0.0
 11
206.9204707015684
 21
54.98773759550349
 31
0.0
  0
LINE
  5
2FD
330
25E
100
AcDbEntity
  8
DV4_0
 62
     7
370
    35
100
AcDbLine
 10
203.3849367956356
 20
52.12999956225644
 30
0.0
 11
202.6778300144491
 21
52.5382478527203
 31
0.0
  0
LINE
  5
2FE
330
25E
100
AcDbEntity
  8
DV4_0
 62
     7
370
    35
100
AcDbLine
 10
203.3849367956356
 20
21.51137777746672
 30
0.0
 11
203.3849367956356
 21
52.12999956225644
 31
0.0
  0
LINE
  5
2FF
330
25E
100
AcDbEntity
  8
DV4_0
 62
     7
370
    35
100
AcDbLine
 10
207.6275774827549
 20
23.9608675202499
 30
0.0
 11
207.6275774827549
 21
54.57948930503962
 31
0.0
  0
LINE
  5
300
330
25E
100
AcDbEntity
  8
DV4_0
 62
     7
370
    35
100
AcDbLine
 10
202.6778300144491
 20
52.29329887844197
 30
0.0
 11
202.6778300144491
 21
52.5382478527203
 31
0.0
  0
LINE
  5
301
330
25E
100
AcDbEntity
  8
DV4_0
 62
     7
370
    35
100
AcDbLine
 10
217.2654429103277
 20
67.49238273241171
 30
0.0
 11
217.2654429103277
 21
65.58994569885013
 31
0.0
  0
LINE
  5
302
330
25E
100
AcDbEntity
  8
DV4_0
 62
     7
370
    35
100
AcDbLine
 10
217.2654429103277
 20
63.83447804985551
 30
0.0
 11
217.2654429103277
 21
60.77261587137641
 31
0.0
  0
LINE
  5
303
330
25E
100
AcDbEntity
  8
DV4_0
 62
     7
370
    35
100
AcDbLine
 10
212.3156954420218
 20
64.63464469916465
 30
0.0
 11
212.3156954420219
 21
58.102672051743
 31
0.0
  0
LINE
  5
304
330
25E
100
AcDbEntity
  8
DV4_0
 62
     7
370
    35
100
AcDbLine
 10
212.2591268995269
 20
64.60198483592752
 30
0.0
 11
212.2591268995269
 21
58.07001218850588
 31
0.0
  0
LINE
  5
305
330
25E
100
AcDbEntity
  8
DV4_0
 62
     7
370
    35
100
AcDbLine
 10
208.1932629077041
 20
62.25455716576031
 30
0.0
 11
209.6074764700772
 21
63.07105374668804
 31
0.0
  0
LINE
  5
306
330
25E
100
AcDbEntity
  8
DV4_0
 62
     7
370
    35
100
AcDbLine
 10
208.1932629077041
 20
23.06272128122946
 30
0.0
 11
209.6074764700772
 21
23.87921786215719
 31
0.0
  0
LINE
  5
307
330
25E
100
AcDbEntity
  8
DV4_0
 62
     7
370
    35
100
AcDbLine
 10
207.1326027359244
 20
23.67509371692522
 30
0.0
 11
208.1932629077042
 21
23.06272128122946
 31
0.0
  0
LINE
  5
308
330
25E
100
AcDbEntity
  8
DV4_0
 62
     7
370
    35
100
AcDbLine
 10
209.6074764700772
 20
63.07105374668803
 30
0.0
 11
209.6074764700772
 21
23.87921786215719
 31
0.0
  0
LINE
  5
309
330
25E
100
AcDbEntity
  8
DV4_0
 62
     7
370
    35
100
AcDbLine
 10
208.1932629077041
 20
62.25455716576031
 30
0.0
 11
208.1932629077042
 21
23.06272128122947
 31
0.0
  0
LINE
  5
30A
330
25E
100
AcDbEntity
  8
DV4_0
 62
     7
370
    35
100
AcDbLine
 10
203.2435154393983
 20
59.39681913251319
 30
0.0
 11
203.2435154393983
 21
54.28437463202822
 31
0.0
  0
LINE
  5
30B
330
25E
100
AcDbEntity
  8
DV4_0
 62
     7
370
    35
100
AcDbLine
 10
203.2435154393983
 20
53.82249441667652
 30
0.0
 11
203.2435154393983
 21
52.86484648509138
 31
0.0
  0
LINE
  5
30C
330
25E
100
AcDbEntity
  8
DV4_0
 62
     7
370
    35
100
AcDbLine
 10
198.4160086265403
 20
56.60965677459485
 30
0.0
 11
204.0728628760327
 21
53.34367045088395
 31
0.0
  0
LINE
  5
30D
330
25E
100
AcDbEntity
  8
DV4_0
 62
     7
370
    35
100
AcDbLine
 10
204.4728628760327
 20
53.5746105585598
 30
0.0
 11
198.8160086265403
 21
56.8405968822707
 31
0.0
  0
LINE
  5
30E
330
25E
100
AcDbEntity
  8
DV4_0
 62
     7
370
    35
100
AcDbLine
 10
203.3271529472834
 20
59.445107270205
 30
0.0
 11
203.3271529472834
 21
54.2360864943364
 31
0.0
  0
LINE
  5
30F
330
25E
100
AcDbEntity
  8
DV4_0
 62
     7
370
    35
100
AcDbLine
 10
203.3271529472834
 20
53.7742062789847
 30
0.0
 11
203.3271529472834
 21
52.9131346227832
 31
0.0
  0
LINE
  5
310
330
25E
100
AcDbEntity
  8
DV4_0
 62
     7
370
    35
100
AcDbLine
 10
198.3774054789776
 20
56.58736923695795
 30
0.0
 11
198.3774054789776
 21
54.44955150925516
 31
0.0
  0
LINE
  5
311
330
25E
100
AcDbEntity
  8
DV4_0
 62
     7
370
    35
100
AcDbLine
 10
198.3774054789776
 20
52.69408386026053
 30
0.0
 11
198.3774054789776
 21
50.05539658953615
 31
0.0
  0
LINE
  5
312
330
25E
100
AcDbEntity
  8
DV4_0
 62
     7
370
    35
100
AcDbLine
 10
198.3137658686708
 20
56.5506268908162
 30
0.0
 11
198.3137658686708
 21
54.4862938553969
 31
0.0
  0
LINE
  5
313
330
25E
100
AcDbEntity
  8
DV4_0
 62
     7
370
    35
100
AcDbLine
 10
198.3137658686708
 20
52.7308262064023
 30
0.0
 11
198.3137658686708
 21
50.0186542433944
 31
0.0
  0
LINE
  5
314
330
25E
100
AcDbEntity
  8
DV4_0
 62
     7
370
    35
100
AcDbLine
 10
193.364018400365
 20
53.69288885756914
 30
0.0
 11
193.364018400365
 21
47.16091621014735
 31
0.0
  0
LINE
  5
315
330
25E
100
AcDbEntity
  8
DV4_0
 62
     7
370
    35
100
AcDbLine
 10
193.1672438074901
 20
53.57928099340316
 30
0.0
 11
193.1672438074901
 21
47.04730834598136
 31
0.0
  0
LINE
  5
316
330
25E
100
AcDbEntity
  8
DV4_0
 62
     7
370
    35
100
AcDbLine
 10
242.841495185845
 20
89.60719262683912
 30
0.0
 11
247.7912426541508
 21
86.74945459359208
 31
0.0
  0
LINE
  5
317
330
25E
100
AcDbEntity
  8
DV4_0
 62
     7
370
    35
100
AcDbLine
 10
247.7912426541508
 20
86.74945459359208
 30
0.0
 11
247.7912426541508
 21
85.11646143173662
 31
0.0
  0
LINE
  5
318
330
25E
100
AcDbEntity
  8
DV4_0
 62
     7
370
    35
100
AcDbLine
 10
189.1013798156674
 20
51.23185332323593
 30
0.0
 11
184.1516323473615
 21
54.08959135648297
 31
0.0
  0
LINE
  5
319
330
25E
100
AcDbEntity
  8
DV4_0
 62
     7
370
    35
100
AcDbLine
 10
189.1013798156674
 20
52.86484648509138
 30
0.0
 11
189.1013798156674
 21
51.23185332323592
 31
0.0
  0
LINE
  5
31A
330
25E
100
AcDbEntity
  8
DV4_0
 62
     7
370
    35
100
AcDbLine
 10
184.1516323473615
 20
55.72258451833842
 30
0.0
 11
189.1013798156674
 21
52.86484648509138
 31
0.0
  0
LINE
  5
31B
330
25E
100
AcDbEntity
  8
DV4_0
 62
     7
370
    35
100
AcDbLine
 10
184.1516323473615
 20
54.08959135648297
 30
0.0
 11
184.1516323473615
 21
55.72258451833842
 31
0.0
  0
LINE
  5
31C
330
25E
100
AcDbEntity
  8
DV4_0
 62
     7
370
    35
100
AcDbLine
 10
247.7912426541508
 20
85.11646143173664
 30
0.0
 11
189.1013798156674
 21
51.23185332323593
 31
0.0
  0
LINE
  5
31D
330
25E
100
AcDbEntity
  8
DV4_0
 62
     7
370
    35
100
AcDbLine
 10
247.7912426541508
 20
86.74945459359208
 30
0.0
 11
189.1013798156674
 21
52.86484648509137
 31
0.0
  0
LINE
  5
31E
330
25E
100
AcDbEntity
  8
DV4_0
 62
     7
370
    35
100
AcDbLine
 10
242.841495185845
 20
89.60719262683912
 30
0.0
 11
184.1516323473615
 21
55.72258451833841
 31
0.0
  0
LINE
  5
31F
330
25E
100
AcDbEntity
  8
DV4_0
 62
     7
370
    35
100
AcDbLine
 10
237.8351791750442
 20
92.4975905233233
 30
0.0
 11
242.7849266433501
 21
89.63985249007625
 31
0.0
  0
LINE
  5
320
330
25E
100
AcDbEntity
  8
DV4_0
 62
     7
370
    35
100
AcDbLine
 10
242.78492664335
 20
89.63985249007625
 30
0.0
 11
242.78492664335
 21
89.57453276360202
 31
0.0
  0
LINE
  5
321
330
25E
100
AcDbEntity
  8
DV4_0
 62
     7
370
    35
100
AcDbLine
 10
184.0950638048666
 20
54.12225121972008
 30
0.0
 11
179.1453163365608
 21
56.97998925296713
 31
0.0
  0
LINE
  5
322
330
25E
100
AcDbEntity
  8
DV4_0
 62
     7
370
    35
100
AcDbLine
 10
184.0950638048666
 20
55.75524438157553
 30
0.0
 11
184.0950638048666
 21
54.12225121972008
 31
0.0
  0
LINE
  5
323
330
25E
100
AcDbEntity
  8
DV4_0
 62
     7
370
    35
100
AcDbLine
 10
179.1453163365608
 20
58.61298241482258
 30
0.0
 11
184.0950638048666
 21
55.75524438157553
 31
0.0
  0
LINE
  5
324
330
25E
100
AcDbEntity
  8
DV4_0
 62
     7
370
    35
100
AcDbLine
 10
179.1453163365608
 20
56.97998925296713
 30
0.0
 11
179.1453163365608
 21
58.61298241482258
 31
0.0
  0
LINE
  5
325
330
25E
100
AcDbEntity
  8
DV4_0
 62
     7
370
    35
100
AcDbLine
 10
184.1516323473616
 20
54.15491108295719
 30
0.0
 11
184.0950638048666
 21
54.12225121972008
 31
0.0
  0
LINE
  5
326
330
25E
100
AcDbEntity
  8
DV4_0
 62
     7
370
    35
100
AcDbLine
 10
242.78492664335
 20
89.63985249007625
 30
0.0
 11
184.0950638048666
 21
55.75524438157554
 31
0.0
  0
LINE
  5
327
330
25E
100
AcDbEntity
  8
DV4_0
 62
     7
370
    35
100
AcDbLine
 10
237.8351791750442
 20
92.4975905233233
 30
0.0
 11
179.1453163365608
 21
58.61298241482259
 31
0.0
  0
LINE
  5
328
330
25E
100
AcDbEntity
  8
DV4_0
 62
     7
370
    35
100
AcDbLine
 10
232.8217920964316
 20
95.39207090271208
 30
0.0
 11
237.7715395647375
 21
92.53433286946503
 31
0.0
  0
LINE
  5
329
330
25E
100
AcDbEntity
  8
DV4_0
 62
     7
370
    35
100
AcDbLine
 10
237.7715395647375
 20
92.53433286946502
 30
0.0
 11
237.7715395647375
 21
92.46084817718153
 31
0.0
  0
LINE
  5
32A
330
25E
100
AcDbEntity
  8
DV4_0
 62
     7
370
    35
100
AcDbLine
 10
179.081676726254
 20
57.01673159910887
 30
0.0
 11
174.1319292579481
 21
59.87446963235591
 31
0.0
  0
LINE
  5
32B
330
25E
100
AcDbEntity
  8
DV4_0
 62
     7
370
    35
100
AcDbLine
 10
179.081676726254
 20
58.64972476096433
 30
0.0
 11
179.081676726254
 21
57.01673159910887
 31
0.0
  0
LINE
  5
32C
330
25E
100
AcDbEntity
  8
DV4_0
 62
     7
370
    35
100
AcDbLine
 10
174.1319292579481
 20
61.50746279421137
 30
0.0
 11
179.081676726254
 21
58.64972476096433
 31
0.0
  0
LINE
  5
32D
330
25E
100
AcDbEntity
  8
DV4_0
 62
     7
370
    35
100
AcDbLine
 10
174.1319292579481
 20
59.87446963235591
 30
0.0
 11
174.1319292579481
 21
61.50746279421137
 31
0.0
  0
LINE
  5
32E
330
25E
100
AcDbEntity
  8
DV4_0
 62
     7
370
    35
100
AcDbLine
 10
179.1453163365608
 20
57.0534739452506
 30
0.0
 11
179.081676726254
 21
57.01673159910888
 31
0.0
  0
LINE
  5
32F
330
25E
100
AcDbEntity
  8
DV4_0
 62
     7
370
    35
100
AcDbLine
 10
237.7715395647375
 20
92.53433286946502
 30
0.0
 11
179.081676726254
 21
58.64972476096433
 31
0.0
  0
LINE
  5
330
330
25E
100
AcDbEntity
  8
DV4_0
 62
     7
370
    35
100
AcDbLine
 10
232.8217920964316
 20
95.39207090271208
 30
0.0
 11
174.1319292579481
 21
61.50746279421138
 31
0.0
  0
LINE
  5
331
330
25E
100
AcDbEntity
  8
DV4_0
 62
     7
370
    35
100
AcDbLine
 10
231.3510099915638
 20
75.62468867845192
 30
0.0
 11
231.3510099915638
 21
69.09271603103022
 31
0.0
  0
LINE
  5
332
330
25E
100
AcDbEntity
  8
DV4_0
 62
     7
370
    35
100
AcDbLine
 10
219.7544587801042
 20
62.39744406742277
 30
0.0
 11
214.097604530612
 21
65.66343039113363
 31
0.0
  0
LINE
  5
333
330
25E
100
AcDbEntity
  8
DV4_0
 62
     7
370
    35
100
AcDbLine
 10
221.1686723424773
 20
63.21394064835049
 30
0.0
 11
215.5118180929851
 21
66.47992697206135
 31
0.0
  0
LINE
  5
334
330
25E
100
AcDbEntity
  8
DV4_0
 62
     7
370
    35
100
AcDbLine
 10
215.6178841101631
 20
66.54116421563093
 30
0.0
 11
221.2747383596553
 21
63.27517789192007
 31
0.0
  0
ELLIPSE
  5
335
330
25E
100
AcDbEntity
  8
DV4_0
 62
     7
370
    35
100
AcDbEllipse
 10
218.6230879302062
 20
64.27538620355625
 30
0.0
 11
0.1000000000000006
 21
-0.1732050807568877
 31
0.0
210
0.0
220
0.0
230
0.9999999999999999
 40
0.5773502691896409
 41
0.0
 42
6.283185307179586
  0
ELLIPSE
  5
336
330
25E
100
AcDbEntity
  8
DV4_0
 62
     7
370
    35
100
AcDbEllipse
 10
218.7291539473842
 20
64.33662344712585
 30
0.0
 11
-0.1000000000000006
 21
0.1732050807568877
 31
0.0
210
0.0
220
0.0
230
0.9999999999999999
 40
0.5773502691896197
 41
0.5589899258785378
 42
2.582602725545829
  0
ELLIPSE
  5
337
330
25E
100
AcDbEntity
  8
DV4_0
 62
     7
370
    35
100
AcDbEllipse
 10
216.8553209772399
 20
64.47951034878821
 30
0.0
 11
0.0999999999999918
 21
-0.1732050807568963
 31
0.0
210
0.0
220
0.0
230
1.0
 40
0.5773502691896142
 41
0.0
 42
6.283185307179586
  0
ELLIPSE
  5
338
330
25E
100
AcDbEntity
  8
DV4_0
 62
     7
370
    35
100
AcDbEllipse
 10
216.9613869944179
 20
64.54074759235779
 30
0.0
 11
-0.0999999999999918
 21
0.1732050807568963
 31
0.0
210
0.0
220
0.0
230
1.0
 40
0.5773502691896168
 41
0.5589899243796044
 42
2.582602727071973
  0
LINE
  5
339
330
25E
100
AcDbEntity
  8
DV4_0
 62
     7
370
    35
100
AcDbLine
 10
227.815476085631
 20
98.2824687991963
 30
0.0
 11
232.7652235539368
 21
95.42473076594926
 31
0.0
  0
LINE
  5
33A
330
25E
100
AcDbEntity
  8
DV4_0
 62
     7
370
    35
100
AcDbLine
 10
232.7652235539368
 20
95.42473076594926
 30
0.0
 11
232.7652235539368
 21
95.35941103947503
 31
0.0
  0
LINE
  5
33B
330
25E
100
AcDbEntity
  8
DV4_0
 62
     7
370
    35
100
AcDbLine
 10
174.0753607154533
 20
59.9071294955931
 30
0.0
 11
169.1256132471475
 21
62.76486752884014
 31
0.0
  0
LINE
  5
33C
330
25E
100
AcDbEntity
  8
DV4_0
 62
     7
370
    35
100
AcDbLine
 10
174.0753607154533
 20
61.54012265744855
 30
0.0
 11
174.0753607154533
 21
59.9071294955931
 31
0.0
  0
LINE
  5
33D
330
25E
100
AcDbEntity
  8
DV4_0
 62
     7
370
    35
100
AcDbLine
 10
169.1256132471475
 20
64.39786069069558
 30
0.0
 11
174.0753607154534
 21
61.54012265744853
 31
0.0
  0
LINE
  5
33E
330
25E
100
AcDbEntity
  8
DV4_0
 62
     7
370
    35
100
AcDbLine
 10
169.1256132471475
 20
62.76486752884014
 30
0.0
 11
169.1256132471475
 21
64.3978606906956
 31
0.0
  0
LINE
  5
33F
330
25E
100
AcDbEntity
  8
DV4_0
 62
     7
370
    35
100
AcDbLine
 10
174.1319292579482
 20
59.93978935883013
 30
0.0
 11
174.0753607154533
 21
59.90712949559308
 31
0.0
  0
LINE
  5
340
330
25E
100
AcDbEntity
  8
DV4_0
 62
     7
370
    35
100
AcDbLine
 10
232.7652235539368
 20
95.42473076594926
 30
0.0
 11
174.0753607154533
 21
61.54012265744855
 31
0.0
  0
LINE
  5
341
330
25E
100
AcDbEntity
  8
DV4_0
 62
     7
370
    35
100
AcDbLine
 10
227.815476085631
 20
98.2824687991963
 30
0.0
 11
169.1256132471475
 21
64.39786069069558
 31
0.0
  0
LINE
  5
342
330
25E
100
AcDbEntity
  8
DV4_0
 62
     7
370
    35
100
AcDbLine
 10
238.8463418721411
 20
73.42014790994705
 30
0.0
 11
233.1894876226488
 21
76.68613423365797
 31
0.0
  0
LINE
  5
343
330
25E
100
AcDbEntity
  8
DV4_0
 62
     7
370
    35
100
AcDbLine
 10
240.2605554345142
 20
74.23664449087477
 30
0.0
 11
234.6037011850219
 21
77.5026308145857
 31
0.0
  0
LINE
  5
344
330
25E
100
AcDbEntity
  8
DV4_0
 62
     7
370
    35
100
AcDbLine
 10
234.7097672021999
 20
77.56386805815526
 30
0.0
 11
240.3666214516922
 21
74.29788173444435
 31
0.0
  0
ELLIPSE
  5
345
330
25E
100
AcDbEntity
  8
DV4_0
 62
     7
370
    35
100
AcDbEllipse
 10
237.714971022243
 20
75.2980900460806
 30
0.0
 11
0.0999999999999918
 21
-0.1732050807568917
 31
0.0
210
0.0
220
0.0
230
1.0
 40
0.5773502691896247
 41
0.0
 42
6.283185307179586
  0
ELLIPSE
  5
346
330
25E
100
AcDbEntity
  8
DV4_0
 62
     7
370
    35
100
AcDbEllipse
 10
237.821037039421
 20
75.3593272896502
 30
0.0
 11
-0.09999999999999969
 21
0.1732050807568871
 31
0.0
210
0.0
220
0.0
230
1.0
 40
0.5773502691896245
 41
0.5589898788438425
 42
2.582602773304309
  0
ELLIPSE
  5
347
330
25E
100
AcDbEntity
  8
DV4_0
 62
     7
370
    35
100
AcDbEllipse
 10
235.9472040692767
 20
75.50221419131255
 30
0.0
 11
0.09999999999999967
 21
-0.1732050807568917
 31
0.0
210
0.0
220
0.0
230
1.0
 40
0.5773502691896355
 41
0.0
 42
6.283185307179586
  0
ELLIPSE
  5
348
330
25E
100
AcDbEntity
  8
DV4_0
 62
     7
370
    35
100
AcDbEllipse
 10
236.0532700864547
 20
75.56345143488214
 30
0.0
 11
-0.09999999999999969
 21
0.1732050807568871
 31
0.0
210
0.0
220
0.0
230
1.0
 40
0.5773502691896114
 41
0.5589898660352972
 42
2.582602787554597
  0
LINE
  5
349
330
25E
100
AcDbEntity
  8
DV4_0
 62
     7
370
    35
100
AcDbLine
 10
246.377029091778
 20
84.29996485080893
 30
0.0
 11
247.7912426541511
 21
85.11646143173665
 31
0.0
  0
LINE
  5
34A
330
25E
100
AcDbEntity
  8
DV4_0
 62
     7
370
    35
100
AcDbLine
 10
246.377029091778
 20
45.10812896627809
 30
0.0
 11
247.7912426541511
 21
45.92462554720581
 31
0.0
  0
LINE
  5
34B
330
25E
100
AcDbEntity
  8
DV4_0
 62
     7
370
    35
100
AcDbLine
 10
245.316368919998
 20
45.72050140197396
 30
0.0
 11
246.377029091778
 21
45.10812896627809
 31
0.0
  0
LINE
  5
34C
330
25E
100
AcDbEntity
  8
DV4_0
 62
     7
370
    35
100
AcDbLine
 10
247.791242654151
 20
85.11646143173665
 30
0.0
 11
247.7912426541511
 21
45.92462554720581
 31
0.0
  0
LINE
  5
34D
330
25E
100
AcDbEntity
  8
DV4_0
 62
     7
370
    35
100
AcDbLine
 10
246.377029091778
 20
84.29996485080893
 30
0.0
 11
246.377029091778
 21
45.10812896627809
 31
0.0
  0
LINE
  5
34E
330
25E
100
AcDbEntity
  8
DV4_0
 62
     7
370
    35
100
AcDbLine
 10
241.4272816234721
 20
81.44222681756197
 30
0.0
 11
241.4272816234721
 21
76.32996770353702
 31
0.0
  0
LINE
  5
34F
330
25E
100
AcDbEntity
  8
DV4_0
 62
     7
370
    35
100
AcDbLine
 10
241.4272816234721
 20
75.8680874881853
 30
0.0
 11
241.4272816234721
 21
74.91025417014025
 31
0.0
  0
LINE
  5
350
330
25E
100
AcDbEntity
  8
DV4_0
 62
     7
370
    35
100
AcDbLine
 10
236.3573260023646
 20
78.51508657493606
 30
0.0
 11
236.3573260023646
 21
76.61264954137444
 31
0.0
  0
LINE
  5
351
330
25E
100
AcDbEntity
  8
DV4_0
 62
     7
370
    35
100
AcDbLine
 10
236.3573260023646
 20
74.85718189237983
 30
0.0
 11
236.3573260023646
 21
71.79531971390081
 31
0.0
  0
LINE
  5
352
330
25E
100
AcDbEntity
  8
DV4_0
 62
     7
370
    35
100
AcDbLine
 10
231.4075785340587
 20
75.65734854168903
 30
0.0
 11
231.4075785340588
 21
69.12537589426734
 31
0.0
  0
LINE
  5
353
330
25E
100
AcDbEntity
  8
DV4_0
 62
     7
370
    35
100
AcDbLine
 10
241.3707130809772
 20
81.40956695432486
 30
0.0
 11
241.3707130809772
 21
76.36262756677414
 31
0.0
  0
LINE
  5
354
330
25E
100
AcDbEntity
  8
DV4_0
 62
     7
370
    35
100
AcDbLine
 10
241.3707130809772
 20
75.90074735142242
 30
0.0
 11
241.3707130809772
 21
74.87759430690312
 31
0.0
  0
LINE
  5
355
330
25E
100
AcDbEntity
  8
DV4_0
 62
     7
370
    35
100
AcDbLine
 10
236.4209656126714
 20
78.55182892107783
 30
0.0
 11
236.4209656126714
 21
76.5759071952327
 31
0.0
  0
LINE
  5
356
330
25E
100
AcDbEntity
  8
DV4_0
 62
     7
370
    35
100
AcDbLine
 10
236.4209656126714
 20
74.82043954623808
 30
0.0
 11
236.4209656126714
 21
72.01985627365605
 31
0.0
  0
LINE
  5
357
330
25E
100
AcDbEntity
  8
DV4_0
 62
     7
370
    35
100
AcDbLine
 10
169.1256132471474
 20
62.76486752884004
 30
0.0
 11
174.0753607154532
 21
59.907129495593
 31
0.0
  0
LINE
  5
358
330
25E
100
AcDbEntity
  8
DV4_0
 62
     7
370
    35
100
AcDbLine
 10
174.0753607154532
 20
59.907129495593
 30
0.0
 11
174.1319292579481
 21
59.93978935883011
 31
0.0
  0
LINE
  5
359
330
25E
100
AcDbEntity
  8
DV4_0
 62
     7
370
    35
100
AcDbLine
 10
174.0753607154533
 20
20.71529361106218
 30
0.0
 11
174.1319292579481
 21
20.74795347429927
 31
0.0
  0
LINE
  5
35A
330
25E
100
AcDbEntity
  8
DV4_0
 62
     7
370
    35
100
AcDbLine
 10
169.1256132471474
 20
23.57303164430921
 30
0.0
 11
174.0753607154533
 21
20.71529361106217
 31
0.0
  0
LINE
  5
35B
330
25E
100
AcDbEntity
  8
DV4_0
 62
     7
370
    35
100
AcDbLine
 10
174.0753607154532
 20
59.907129495593
 30
0.0
 11
174.0753607154533
 21
20.71529361106217
 31
0.0
  0
LINE
  5
35C
330
25E
100
AcDbEntity
  8
DV4_0
 62
     7
370
    35
100
AcDbLine
 10
169.1256132471474
 20
62.76486752884004
 30
0.0
 11
169.1256132471474
 21
23.57303164430921
 31
0.0
  0
LINE
  5
35D
330
25E
100
AcDbEntity
  8
DV4_0
 62
     7
370
    35
100
AcDbLine
 10
184.1516323473615
 20
54.08959135648295
 30
0.0
 11
189.1013798156674
 21
51.2318533232359
 31
0.0
  0
LINE
  5
35E
330
25E
100
AcDbEntity
  8
DV4_0
 62
     7
370
    35
100
AcDbLine
 10
189.1013798156674
 20
51.2318533232359
 30
0.0
 11
190.5155933780405
 21
52.04834990416363
 31
0.0
  0
LINE
  5
35F
330
25E
100
AcDbEntity
  8
DV4_0
 62
     7
370
    35
100
AcDbLine
 10
189.1013798156674
 20
12.04001743870507
 30
0.0
 11
190.5155933780405
 21
12.85651401963279
 31
0.0
  0
LINE
  5
360
330
25E
100
AcDbEntity
  8
DV4_0
 62
     7
370
    35
100
AcDbLine
 10
184.1516323473616
 20
14.89775547195209
 30
0.0
 11
189.1013798156674
 21
12.04001743870506
 31
0.0
  0
LINE
  5
361
330
25E
100
AcDbEntity
  8
DV4_0
 62
     7
370
    35
100
AcDbLine
 10
190.5155933780405
 20
52.04834990416364
 30
0.0
 11
190.5155933780405
 21
12.8565140196328
 31
0.0
  0
LINE
  5
362
330
25E
100
AcDbEntity
  8
DV4_0
 62
     7
370
    35
100
AcDbLine
 10
189.1013798156674
 20
51.2318533232359
 30
0.0
 11
189.1013798156674
 21
12.04001743870507
 31
0.0
  0
LINE
  5
363
330
25E
100
AcDbEntity
  8
DV4_0
 62
     7
370
    35
100
AcDbLine
 10
184.1516323473615
 20
54.08959135648295
 30
0.0
 11
184.1516323473616
 21
14.89775547195211
 31
0.0
  0
LINE
  5
364
330
25E
100
AcDbEntity
  8
DV4_0
 62
     7
370
    35
100
AcDbLine
 10
179.1453163365608
 20
56.9799892529671
 30
0.0
 11
184.0950638048666
 21
54.12225121972006
 31
0.0
  0
LINE
  5
365
330
25E
100
AcDbEntity
  8
DV4_0
 62
     7
370
    35
100
AcDbLine
 10
184.0950638048666
 20
54.12225121972006
 30
0.0
 11
184.1516323473615
 21
54.15491108295716
 31
0.0
  0
LINE
  5
366
330
25E
100
AcDbEntity
  8
DV4_0
 62
     7
370
    35
100
AcDbLine
 10
184.0950638048666
 20
14.93041533518923
 30
0.0
 11
184.1516323473616
 21
14.96307519842633
 31
0.0
  0
LINE
  5
367
330
25E
100
AcDbEntity
  8
DV4_0
 62
     7
370
    35
100
AcDbLine
 10
179.1453163365608
 20
17.78815336843626
 30
0.0
 11
184.0950638048666
 21
14.93041533518922
 31
0.0
  0
LINE
  5
368
330
25E
100
AcDbEntity
  8
DV4_0
 62
     7
370
    35
100
AcDbLine
 10
184.0950638048666
 20
54.12225121972006
 30
0.0
 11
184.0950638048666
 21
14.93041533518922
 31
0.0
  0
LINE
  5
369
330
25E
100
AcDbEntity
  8
DV4_0
 62
     7
370
    35
100
AcDbLine
 10
179.1453163365608
 20
56.9799892529671
 30
0.0
 11
179.1453163365608
 21
17.78815336843627
 31
0.0
  0
LINE
  5
36A
330
25E
100
AcDbEntity
  8
DV4_0
 62
     7
370
    35
100
AcDbLine
 10
174.1319292579481
 20
59.87446963235588
 30
0.0
 11
179.081676726254
 21
57.01673159910884
 31
0.0
  0
LINE
  5
36B
330
25E
100
AcDbEntity
  8
DV4_0
 62
     7
370
    35
100
AcDbLine
 10
179.081676726254
 20
57.01673159910884
 30
0.0
 11
179.1453163365608
 21
57.05347394525059
 31
0.0
  0
LINE
  5
36C
330
25E
100
AcDbEntity
  8
DV4_0
 62
     7
370
    35
100
AcDbLine
 10
179.081676726254
 20
17.824895714578
 30
0.0
 11
179.1453163365608
 21
17.86163806071975
 31
0.0
  0
LINE
  5
36D
330
25E
100
AcDbEntity
  8
DV4_0
 62
     7
370
    35
100
AcDbLine
 10
174.1319292579482
 20
20.68263374782506
 30
0.0
 11
179.081676726254
 21
17.82489571457802
 31
0.0
  0
LINE
  5
36E
330
25E
100
AcDbEntity
  8
DV4_0
 62
     7
370
    35
100
AcDbLine
 10
179.081676726254
 20
57.01673159910884
 30
0.0
 11
179.081676726254
 21
17.82489571457801
 31
0.0
  0
LINE
  5
36F
330
25E
100
AcDbEntity
  8
DV4_0
 62
     7
370
    35
100
AcDbLine
 10
174.1319292579481
 20
59.87446963235588
 30
0.0
 11
174.1319292579482
 21
20.68263374782505
 31
0.0
  0
ENDBLK
  5
371
330
25E
100
AcDbEntity
  8
0
100
AcDbBlockEnd
  0
BLOCK
  5
37B
330
372
100
AcDbEntity
  8
0
100
AcDbBlockBegin
  2
GDimGGroup
 70
     0
 10
0.0
 20
0.0
 30
0.0
  3
GDimGGroup
  1

  0
LWPOLYLINE
  5
374
330
372
100
AcDbEntity
  8
Default
 62
     7
370
    25
100
AcDbPolyline
 90
        4
 70
     0
 43
0.0
 10
113.943634189658
 20
168.5484306325831
 10
113.943634189658
 20
167.5484306238908
 10
116.943634215735
 20
168.0484306282369
 10
113.943634189658
 20
168.5484306325831
  0
LWPOLYLINE
  5
375
330
372
100
AcDbEntity
  8
Default
 62
     7
370
    25
100
AcDbPolyline
 90
        4
 70
     0
 43
0.0
 10
36.94363740085824
 20
168.5484306325831
 10
36.94363740085824
 20
167.5484306238908
 10
33.9436373747812
 20
168.0484306282369
 10
36.94363740085824
 20
168.5484306325831
  0
LINE
  5
376
330
372
100
AcDbEntity
  8
Default
 62
     7
370
    25
100
AcDbLine
 10
116.943634215735
 20
155.3461956075398
 30
0.0
 11
116.943634215735
 21
169.5484306412754
 31
0.0
  0
LINE
  5
377
330
372
100
AcDbEntity
  8
Default
 62
     7
370
    25
100
AcDbLine
 10
33.94363421573502
 20
155.3461956075398
 30
0.0
 11
33.94363421573502
 21
169.5484306412754
 31
0.0
  0
LINE
  5
378
330
372
100
AcDbEntity
  8
Default
 62
     7
370
    25
100
AcDbLine
 10
116.943634215735
 20
168.0484306282369
 30
0.0
 11
33.9436373747812
 21
168.0484306282369
 31
0.0
  0
TEXT
  5
37A
330
372
100
AcDbEntity
  8
Default
 62
     7
370
    25
100
AcDbText
 10
70.74798362134507
 20
168.7984306282369
 30
0.0
 40
3.0
  1
1660
  7
SEACAD_Solid_Edge_ANSI
 11
70.74798362134507
 21
171.7984306282369
 31
0.0
100
AcDbText
 73
     3
  0
ENDBLK
  5
37C
330
372
100
AcDbEntity
  8
0
100
AcDbBlockEnd
  0
BLOCK
  5
385
330
37D
100
AcDbEntity
  8
0
100
AcDbBlockBegin
  2
GDimGGroup1
 70
     0
 10
0.0
 20
0.0
 30
0.0
  3
GDimGGroup1
  1

  0
LWPOLYLINE
  5
37F
330
37D
100
AcDbEntity
  8
Default
 62
     7
370
    25
100
AcDbPolyline
 90
        4
 70
     0
 43
0.0
 10
129.4621397039471
 20
68.22177226457713
 10
128.4621396952548
 20
68.22177226457713
 10
128.9621396996009
 20
71.22177229065416
 10
129.4621397039471
 20
68.22177226457713
  0
LWPOLYLINE
  5
380
330
37D
100
AcDbEntity
  8
Default
 62
     7
370
    25
100
AcDbPolyline
 90
        4
 70
     0
 43
0.0
 10
129.4621397039471
 20
45.97177280846951
 10
128.4621396952548
 20
45.97177280846951
 10
128.9621396996009
 20
42.97177278239248
 10
129.4621397039471
 20
45.97177280846951
  0
LINE
  5
381
330
37D
100
AcDbEntity
  8
Default
 62
     7
370
    25
100
AcDbLine
 10
116.9436342157352
 20
71.22177229065416
 30
0.0
 11
130.4621397126394
 21
71.22177229065416
 31
0.0
  0
LINE
  5
382
330
37D
100
AcDbEntity
  8
Default
 62
     7
370
    25
100
AcDbLine
 10
116.943634215735
 20
42.97177229065414
 30
0.0
 11
130.4621397126394
 21
42.97177229065414
 31
0.0
  0
LINE
  5
383
330
37D
100
AcDbEntity
  8
Default
 62
     7
370
    25
100
AcDbLine
 10
128.9621396996009
 20
71.22177229065416
 30
0.0
 11
128.9621396996009
 21
42.97177278239248
 31
0.0
  0
TEXT
  5
384
330
37D
100
AcDbEntity
  8
Default
 62
     7
370
    25
100
AcDbText
 10
128.2121396996009
 20
53.57503340608854
 30
0.0
 40
3.0
  1
565
 50
90.0
  7
SEACAD_Solid_Edge_ANSI
 11
125.2121396996009
 21
53.57503340608854
 31
0.0
100
AcDbText
 73
     3
  0
ENDBLK
  5
386
330
37D
100
AcDbEntity
  8
0
100
AcDbBlockEnd
  0
BLOCK
  5
38F
330
387
100
AcDbEntity
  8
0
100
AcDbBlockBegin
  2
GDimGGroup2
 70
     0
 10
0.0
 20
0.0
 30
0.0
  3
GDimGGroup2
  1

  0
LWPOLYLINE
  5
389
330
387
100
AcDbEntity
  8
Default
 62
     7
370
    25
100
AcDbPolyline
 90
        4
 70
     0
 43
0.0
 10
225.2453753784348
 20
152.3461955814627
 10
224.2453753697425
 20
152.3461955814627
 10
224.7453753740887
 20
155.3461956075398
 10
225.2453753784348
 20
152.3461955814627
  0
LWPOLYLINE
  5
38A
330
387
100
AcDbEntity
  8
Default
 62
     7
370
    25
100
AcDbPolyline
 90
        4
 70
     0
 43
0.0
 10
225.2453753784348
 20
108.3461948885587
 10
224.2453753697425
 20
108.3461948885587
 10
224.7453753740887
 20
105.3461948624817
 10
225.2453753784348
 20
108.3461948885587
  0
LINE
  5
38B
330
387
100
AcDbEntity
  8
Default
 62
     7
370
    25
100
AcDbLine
 10
212.0702474282483
 20
155.3461956075398
 30
0.0
 11
226.2453753871272
 21
155.3461956075398
 31
0.0
  0
LINE
  5
38C
330
387
100
AcDbEntity
  8
Default
 62
     7
370
    25
100
AcDbLine
 10
212.0702474282483
 20
105.3461956075397
 30
0.0
 11
226.2453753871272
 21
105.3461956075397
 31
0.0
  0
LINE
  5
38D
330
387
100
AcDbEntity
  8
Default
 62
     7
370
    25
100
AcDbLine
 10
224.7453753740887
 20
155.3461956075398
 30
0.0
 11
224.7453753740887
 21
105.3461948624817
 31
0.0
  0
TEXT
  5
38E
330
387
100
AcDbEntity
  8
Default
 62
     7
370
    25
100
AcDbText
 10
223.9953753740887
 20
125.6505430610977
 30
0.0
 40
3.0
  1
1000
 50
90.0
  7
SEACAD_Solid_Edge_ANSI
 11
220.9953753740887
 21
125.6505430610977
 31
0.0
100
AcDbText
 73
     3
  0
ENDBLK
  5
390
330
387
100
AcDbEntity
  8
0
100
AcDbBlockEnd
  0
BLOCK
  5
399
330
391
100
AcDbEntity
  8
0
100
AcDbBlockBegin
  2
GDimGGroup3
 70
     0
 10
0.0
 20
0.0
 30
0.0
  3
GDimGGroup3
  1

  0
LWPOLYLINE
  5
393
330
391
100
AcDbEntity
  8
Default
 62
     7
370
    25
100
AcDbPolyline
 90
        4
 70
     0
 43
0.0
 10
129.4621405056297
 20
140.8461955814628
 10
128.4621404969373
 20
140.8461955814628
 10
128.9621405012835
 20
143.8461956075398
 10
129.4621405056297
 20
140.8461955814628
  0
LWPOLYLINE
  5
394
330
391
100
AcDbEntity
  8
Default
 62
     7
370
    25
100
AcDbPolyline
 90
        4
 70
     0
 43
0.0
 10
129.4621405056297
 20
108.3461958422331
 10
128.4621404969373
 20
108.3461958422331
 10
128.9621405012835
 20
105.346195816156
 10
129.4621405056297
 20
108.3461958422331
  0
LINE
  5
395
330
391
100
AcDbEntity
  8
Default
 62
     7
370
    25
100
AcDbLine
 10
114.6436342678893
 20
143.8461956075398
 30
0.0
 11
130.462140514322
 21
143.8461956075398
 31
0.0
  0
LINE
  5
396
330
391
100
AcDbEntity
  8
Default
 62
     7
370
    25
100
AcDbLine
 10
115.9436342157354
 20
105.3461956075397
 30
0.0
 11
130.462140514322
 21
105.3461956075397
 31
0.0
  0
LINE
  5
397
330
391
100
AcDbEntity
  8
Default
 62
     7
370
    25
100
AcDbLine
 10
128.9621405012835
 20
143.8461956075398
 30
0.0
 11
128.9621405012835
 21
105.346195816156
 31
0.0
  0
TEXT
  5
398
330
391
100
AcDbEntity
  8
Default
 62
     7
370
    25
100
AcDbText
 10
128.2121405012835
 20
121.0744565814131
 30
0.0
 40
3.0
  1
770
 50
90.0
  7
SEACAD_Solid_Edge_ANSI
 11
125.2121405012835
 21
121.0744565814131
 31
0.0
100
AcDbText
 73
     3
  0
ENDBLK
  5
39A
330
391
100
AcDbEntity
  8
0
100
AcDbBlockEnd
  0
BLOCK
  5
3A8
330
3A2
100
AcDbEntity
  8
0
100
AcDbBlockBegin
  2
SEANNOT_GROUP
 70
     0
 10
0.0
 20
0.0
 30
0.0
  3
SEANNOT_GROUP
  1

  0
TEXT
  5
3A4
330
3A2
100
AcDbEntity
  8
Predeterminado
 62
     7
370
     5
100
AcDbText
 10
291.0487110700109
 20
14.25425842492689
 30
0.0
 40
1.5
  1
V 
 50
90.0
  7
SEACAD_Solid_Edge_ANSI
 11
289.5487110700109
 21
14.25425842492689
 31
0.0
100
AcDbText
 73
     3
  0
TEXT
  5
3A5
330
3A2
100
AcDbEntity
  8
Predeterminado
 62
     7
370
     5
100
AcDbText
 10
291.0487110700109
 20
16.16675842492689
 30
0.0
 40
1.5
  1
01
 50
90.0
  7
SEACAD_Solid_Edge_ANSI
 11
289.5487110700109
 21
16.16675842492689
 31
0.0
100
AcDbText
 73
     3
  0
TEXT
  5
3A6
330
3A2
100
AcDbEntity
  8
Predeterminado
 62
     7
370
     5
100
AcDbText
 10
291.0487110700109
 20
18.22925842492689
 30
0.0
 40
1.5
  1
 
 50
90.0
  7
SEACAD_Solid_Edge_ANSI
 11
289.5487110700109
 21
18.22925842492689
 31
0.0
100
AcDbText
 73
     3
  0
TEXT
  5
3A7
330
3A2
100
AcDbEntity
  8
Predeterminado
 62
     7
370
     5
100
AcDbText
 10
291.0487110700109
 20
18.75425842492689
 30
0.0
 40
1.5
  1
25/02/2021
 50
90.0
  7
SEACAD_Solid_Edge_ANSI
 11
289.5487110700109
 21
18.75425842492689
 31
0.0
100
AcDbText
 73
     3
  0
ENDBLK
  5
3A9
330
3A2
100
AcDbEntity
  8
0
100
AcDbBlockEnd
  0
BLOCK
  5
3AF
330
3AC
100
AcDbEntity
  8
0
100
AcDbBlockBegin
  2
SEANNOT_GROUP1
 70
     0
 10
0.0
 20
0.0
 30
0.0
  3
SEANNOT_GROUP1
  1

  0
TEXT
  5
3AE
330
3AC
100
AcDbEntity
  8
Predeterminado
 62
     7
370
     5
100
AcDbText
 10
137.8414036261762
 20
190.8725958935368
 30
0.0
 40
6.0
  1
Picco
  7
SEACAD_Solid_Edge_ANSI
 11
137.8414036261762
 21
196.8725958935368
 31
0.0
100
AcDbText
 73
     3
  0
ENDBLK
  5
3B0
330
3AC
100
AcDbEntity
  8
0
100
AcDbBlockEnd
  0
BLOCK
  5
3B4
330
3B1
100
AcDbEntity
  8
0
100
AcDbBlockBegin
  2
SEANNOT_GROUP2
 70
     0
 10
0.0
 20
0.0
 30
0.0
  3
SEANNOT_GROUP2
  1

  0
TEXT
  5
3B3
330
3B1
100
AcDbEntity
  8
Predeterminado
 62
     7
370
     5
100
AcDbText
 10
153.1889212852353
 20
186.4313175013868
 30
0.0
 40
3.0
  1
PA664S3
  7
SEACAD_Solid_Edge_ANSI
 11
153.1889212852353
 21
189.4313175013868
 31
0.0
100
AcDbText
 73
     3
  0
ENDBLK
  5
3B5
330
3B1
100
AcDbEntity
  8
0
100
AcDbBlockEnd
  0
ENDSEC
  0
SECTION
  2
ENTITIES
  0
INSERT
  5
70
330
1F
100
AcDbEntity
  8
Default
100
AcDbBlockReference
  2
SE
 10
0.0
 20
0.0
 30
0.0
  0
INSERT
  5
1C9
330
1F
100
AcDbEntity
  8
Default
100
AcDbBlockReference
  2
SE1
 10
0.0
 20
0.0
 30
0.0
  0
INSERT
  5
21F
330
1F
100
AcDbEntity
  8
Default
100
AcDbBlockReference
  2
SE2
 10
0.0
 20
0.0
 30
0.0
  0
INSERT
  5
25F
330
1F
100
AcDbEntity
  8
Default
100
AcDbBlockReference
  2
SE3
 10
0.0
 20
0.0
 30
0.0
  0
INSERT
  5
373
330
1F
100
AcDbEntity
  8
Default
100
AcDbBlockReference
  2
GDimGGroup
 10
0.0
 20
0.0
 30
0.0
  0
INSERT
  5
37E
330
1F
100
AcDbEntity
  8
Default
100
AcDbBlockReference
  2
GDimGGroup1
 10
0.0
 20
0.0
 30
0.0
  0
INSERT
  5
388
330
1F
100
AcDbEntity
  8
Default
100
AcDbBlockReference
  2
GDimGGroup2
 10
0.0
 20
0.0
 30
0.0
  0
INSERT
  5
392
330
1F
100
AcDbEntity
  8
Default
100
AcDbBlockReference
  2
GDimGGroup3
 10
0.0
 20
0.0
 30
0.0
  0
LINE
  5
39C
330
1F
100
AcDbEntity
  8
Predeterminado
 62
     7
370
    35
100
AcDbLine
 10
11.28870202951687
 20
8.596433905172951
 30
0.0
 11
11.28870202951684
 21
201.9479713239704
 31
0.0
  0
LINE
  5
39D
330
1F
100
AcDbEntity
  8
Predeterminado
 62
     7
370
    35
100
AcDbLine
 10
11.28870202951687
 20
8.596433905172951
 30
0.0
 11
288.2887020295169
 21
8.596433905172969
 31
0.0
  0
LINE
  5
39E
330
1F
100
AcDbEntity
  8
Predeterminado
 62
     7
370
    35
100
AcDbLine
 10
191.2887020295167
 20
201.9479713239704
 30
0.0
 11
11.28870202951683
 21
201.9479713239704
 31
0.0
  0
LINE
  5
39F
330
1F
100
AcDbEntity
  8
Predeterminado
 62
     7
370
    35
100
AcDbLine
 10
288.2887020295169
 20
201.9479713239704
 30
0.0
 11
11.28870202951691
 21
201.9479713239704
 31
0.0
  0
LINE
  5
3A0
330
1F
100
AcDbEntity
  8
Predeterminado
 62
     7
370
    35
100
AcDbLine
 10
11.28870202951684
 20
181.9479713239704
 30
0.0
 11
288.2887020295169
 21
181.9479713239704
 31
0.0
  0
LINE
  5
3A1
330
1F
100
AcDbEntity
  8
Predeterminado
 62
     7
370
    35
100
AcDbLine
 10
288.2887020295169
 20
201.9479713239704
 30
0.0
 11
288.2887020295169
 21
8.596433905173
 31
0.0
  0
INSERT
  5
3A3
330
1F
100
AcDbEntity
  8
Predeterminado
100
AcDbBlockReference
  2
SEANNOT_GROUP
 10
0.0
 20
0.0
 30
0.0
  0
LINE
  5
3AA
330
1F
100
AcDbEntity
  8
Predeterminado
 62
     7
370
    35
100
AcDbLine
 10
89.91055911737307
 20
185.9479713239704
 30
0.0
 11
89.91055911737307
 21
197.9479713239704
 31
0.0
  0
LINE
  5
3AB
330
1F
100
AcDbEntity
  8
Predeterminado
 62
     7
370
    35
100
AcDbLine
 10
199.9105591173731
 20
185.9479713239704
 30
0.0
 11
199.9105591173731
 21
197.9479713239704
 31
0.0
  0
INSERT
  5
3AD
330
1F
100
AcDbEntity
  8
Predeterminado
100
AcDbBlockReference
  2
SEANNOT_GROUP1
 10
0.0
 20
0.0
 30
0.0
  0
INSERT
  5
3B2
330
1F
100
AcDbEntity
  8
Predeterminado
100
AcDbBlockReference
  2
SEANNOT_GROUP2
 10
0.0
 20
0.0
 30
0.0
  0
MTEXT
  5
3B7
102
{ACAD_XDICTIONARY
360
3FF
102
}
330
1F
100
AcDbEntity
  8
D
100
AcDbMText
 10
30.51445010131163
 20
199.4630352844171
 30
0.0
 40
6.500000000000001
 41
45.70995606879774
 71
     1
 72
     1
  1
{\C7;BENITO}\P{\fArial|b1|i0|c0|p34;\C7;–}{\C7;Urban}\P
 73
     1
 44
1.0
1001
ACAD
1000
ACAD_MTEXT_DEFINED_HEIGHT_BEGIN
1070
    46
1040
21.60001000000001
1000
ACAD_MTEXT_DEFINED_HEIGHT_END
  0
MTEXT
  5
3B8
330
1F
100
AcDbEntity
  8
Predeterminado
100
AcDbMText
 10
229.9135975724114
 20
195.9475188821595
 30
0.0
 40
3.0
 41
38.610011
 71
     1
 72
     1
  1
{\fSolid Edge ANSI|b0||i0||c0|p34;\C7;\H3.;\W1.;T +34 938 521 000\P}{\fSolid Edge ANSI|b0||i0||c0|p34;\C7;\H3.;\W1.;www.benito.com\P}
 73
     1
 44
1.0
1001
ACAD
1000
ACAD_MTEXT_DEFINED_HEIGHT_BEGIN
1070
    46
1040
10.80001
1000
ACAD_MTEXT_DEFINED_HEIGHT_END
  0
MTEXT
  5
3B9
330
1F
100
AcDbEntity
  8
Predeterminado
100
AcDbMText
 10
238.6065149365715
 20
7.329097306594801
 30
0.0
 40
2.0
 41
54.23001100000002
 71
     1
 72
     1
  1
{\fSolid Edge ANSI|b0||i0||c0|p34;\C7;\H2.;\W1.;BENITO –Urban –Light –Play –Covers}
 73
     1
 44
1.0
1001
ACAD
1000
ACAD_MTEXT_DEFINED_HEIGHT_BEGIN
1070
    46
1040
3.60001
1000
ACAD_MTEXT_DEFINED_HEIGHT_END
  0
ENDSEC
  0
SECTION
  2
OBJECTS
  0
DICTIONARY
  5
C
330
0
100
AcDbDictionary
281
     1
  3
ACAD_GROUP
350
D
  3
ACAD_LAYOUT
350
1A
  3
ACAD_MATERIAL
350
43
  3
ACAD_MLEADERSTYLE
350
6B
  3
ACAD_MLINESTYLE
350
17
  3
ACAD_PLOTSETTINGS
350
19
  3
ACAD_PLOTSTYLENAME
350
E
  3
ACAD_SCALELIST
350
47
  3
ACAD_TABLESTYLE
350
69
  3
ACAD_VISUALSTYLE
350
2A
  3
ACDB_RECOMPOSE_DATA
350
43C
  3
AcDbVariableDictionary
350
3BA
  3
DWGPROPS
350
3FE
  0
DICTIONARY
  5
401
330
8
100
AcDbDictionary
280
     1
281
     1
  3
ACAD_XREC_ROUNDTRIP
360
402
  0
DICTIONARY
  5
3FF
330
3B7
100
AcDbDictionary
280
     1
281
     1
  3
ACAD_MTEXT_RT
360
400
  0
DICTIONARY
  5
D
102
{ACAD_REACTORS
330
C
102
}
330
C
100
AcDbDictionary
281
     1
  0
DICTIONARY
  5
1A
102
{ACAD_REACTORS
330
C
102
}
330
C
100
AcDbDictionary
281
     1
  3
Layout1
350
1E
  3
Model
350
22
  0
DICTIONARY
  5
43
102
{ACAD_REACTORS
330
C
102
}
330
C
100
AcDbDictionary
281
     1
  3
ByBlock
350
45
  3
ByLayer
350
44
  3
Global
350
46
  0
DICTIONARY
  5
6B
102
{ACAD_REACTORS
330
C
102
}
330
C
100
AcDbDictionary
281
     1
  3
Standard
350
6C
  0
DICTIONARY
  5
17
102
{ACAD_REACTORS
330
C
102
}
330
C
100
AcDbDictionary
281
     1
  3
Standard
350
18
  0
DICTIONARY
  5
19
102
{ACAD_REACTORS
330
C
102
}
330
C
100
AcDbDictionary
281
     1
  0
ACDBDICTIONARYWDFLT
  5
E
102
{ACAD_REACTORS
330
C
102
}
330
C
100
AcDbDictionary
281
     1
  3
Normal
350
F
100
AcDbDictionaryWithDefault
340
F
  0
DICTIONARY
  5
47
102
{ACAD_REACTORS
330
C
102
}
330
C
100
AcDbDictionary
281
     1
  3
A0
350
48
  3
A1
350
49
  3
A2
350
4A
  3
A3
350
4B
  3
A4
350
4C
  3
A5
350
4D
  3
A6
350
4E
  3
A7
350
4F
  3
A8
350
50
  3
A9
350
51
  3
B0
350
52
  3
B1
350
53
  3
B2
350
54
  3
B3
350
55
  3
B4
350
56
  3
B5
350
57
  3
B6
350
58
  3
B7
350
59
  3
B8
350
5A
  3
B9
350
5B
  3
C0
350
5C
  3
C1
350
5D
  3
C2
350
5E
  3
C3
350
5F
  3
C4
350
60
  3
C5
350
61
  3
C6
350
62
  3
C7
350
63
  3
C8
350
64
  3
C9
350
65
  3
D0
350
66
  3
D1
350
67
  3
D2
350
68
  0
DICTIONARY
  5
69
102
{ACAD_REACTORS
330
C
102
}
330
C
100
AcDbDictionary
281
     1
  3
Standard
350
6A
  0
DICTIONARY
  5
2A
102
{ACAD_REACTORS
330
C
102
}
330
C
100
AcDbDictionary
281
     1
  3
2dWireframe
350
2F
  3
Basic
350
32
  3
Brighten
350
36
  3
ColorChange
350
3A
  3
Conceptual
350
34
  3
Dim
350
35
  3
EdgeColorOff
350
3D
  3
Facepattern
350
39
  3
Flat
350
2B
  3
FlatWithEdges
350
2C
  3
Gouraud
350
2D
  3
GouraudWithEdges
350
2E
  3
Hidden
350
31
  3
JitterOff
350
3B
  3
Linepattern
350
38
  3
OverhangOff
350
3C
  3
Realistic
350
33
  3
Shaded
350
42
  3
Shaded with edges
350
41
  3
Shades of Gray
350
3E
  3
Sketchy
350
3F
  3
Thicken
350
37
  3
Wireframe
350
30
  3
X-Ray
350
40
  0
XRECORD
  5
43C
102
{ACAD_REACTORS
330
C
102
}
330
C
100
AcDbXrecord
280
     1
 90
        1
330
3B7
  0
DICTIONARY
  5
3BA
102
{ACAD_REACTORS
330
C
102
}
330
C
100
AcDbDictionary
281
     1
  3
CANNOSCALE
350
3BB
  3
CMLEADERSTYLE
350
3F4
  3
CTABLESTYLE
350
3F3
  3
DIMASSOC
350
3FC
  3
HIDETEXT
350
3FD
  3
MSLTSCALE
350
403
  3
PSOLHEIGHT
350
3FB
  3
PSOLWIDTH
350
3FA
  3
SECTIONTHICKNESSINC
350
3F7
  3
XCLIPFRAME
350
3BC
  0
XRECORD
  5
3FE
102
{ACAD_REACTORS
330
C
102
}
330
C
100
AcDbXrecord
280
     1
  1
DWGPROPS COOKIE
  2

  3

  4

  6

  7

  8
acae2
  9

300
=
301
=
302
=
303
=
304
=
305
=
306
=
307
=
308
=
309
=
 40
0.0
 41
2459362.42832765
 42
2460396.579694942
  1

 90
        0
  0
XRECORD
  5
402
102
{ACAD_REACTORS
330
401
102
}
330
401
100
AcDbXrecord
280
     1
102
VTR_0.000_0.000_1.000_1.000_VISUALSTYLE
340
2F
102
VTR_0.000_0.000_1.000_1.000_GRIDDISPLAY
 70
     3
102
VTR_0.000_0.000_1.000_1.000_GRIDMAJOR
 70
     5
102
VTR_0.000_0.000_1.000_1.000_DEFAULTLIGHTING
280
     1
102
VTR_0.000_0.000_1.000_1.000_DEFAULTLIGHTINGTYPE
 70
     1
102
VTR_0.000_0.000_1.000_1.000_BRIGHTNESS
141
0.0
102
VTR_0.000_0.000_1.000_1.000_CONTRAST
142
0.0
  0
XRECORD
  5
400
102
{ACAD_REACTORS
330
3FF
102
}
330
3FF
100
AcDbXrecord
280
     1
 40
129076.0
  1
{\fSolid Edge ANSI|b1||i0||c0|p34;\C7;\H6.5;\W1.;\pxsa0.9538461538;BENITO\P}{\fSolid Edge ANSI|b1||i0||c0|p34;\C7;\H6.5;\W1.;\pxse1.;–Urban\P}
  0
LAYOUT
  5
1E
102
{ACAD_REACTORS
330
1A
102
}
330
1A
100
AcDbPlotSettings
  1

  2
none_device
  4

  6

 40
0.0
 41
0.0
 42
0.0
 43
0.0
 44
0.0
 45
0.0
 46
0.0
 47
0.0
 48
0.0
 49
0.0
140
0.0
141
0.0
142
1.0
143
1.0
 70
   688
 72
     1
 73
     0
 74
     5
  7

 75
    16
147
1.0
148
0.0
149
0.0
100
AcDbLayout
  1
Layout1
 70
     1
 71
     1
 10
0.0
 20
0.0
 11
297.0
 21
210.0
 12
0.0
 22
0.0
 32
0.0
 14
0.0
 24
0.0
 34
0.0
 15
297.0
 25
210.0
 35
0.0
146
0.0
 13
0.0
 23
0.0
 33
0.0
 16
1.0
 26
0.0
 36
0.0
 17
0.0
 27
1.0
 37
0.0
 76
     0
330
1B
  0
LAYOUT
  5
22
102
{ACAD_REACTORS
330
1A
102
}
330
1A
100
AcDbPlotSettings
  1

  2
none_device
  4
Letter_(8.50_x_11.00_Inches)
  6

 40
6.35
 41
6.35
 42
6.35000508
 43
6.35000508
 44
215.9
 45
279.4
 46
0.0
 47
0.0
 48
0.0
 49
0.0
140
0.0
141
0.0
142
1.0
143
1.0
 70
  1712
 72
     1
 73
     0
 74
     0
  7

 75
     0
147
1.0
148
0.0
149
0.0
100
AcDbLayout
  1
Model
 70
     1
 71
     0
 10
0.0
 20
0.0
 11
297.0
 21
210.0
 12
0.0
 22
0.0
 32
0.0
 14
0.0
 24
0.0
 34
0.0
 15
297.0
 25
210.0
 35
0.0
146
0.0
 13
0.0
 23
0.0
 33
0.0
 16
1.0
 26
0.0
 36
0.0
 17
0.0
 27
1.0
 37
0.0
 76
     0
330
1F
331
29
  0
MATERIAL
  5
45
102
{ACAD_REACTORS
330
43
102
}
102
{ACAD_XDICTIONARY
360
436
102
}
330
43
100
AcDbMaterial
  1
ByBlock
  0
MATERIAL
  5
44
102
{ACAD_REACTORS
330
43
102
}
102
{ACAD_XDICTIONARY
360
434
102
}
330
43
100
AcDbMaterial
  1
ByLayer
  0
MATERIAL
  5
46
102
{ACAD_REACTORS
330
43
102
}
102
{ACAD_XDICTIONARY
360
438
102
}
330
43
100
AcDbMaterial
  1
Global
  0
MLEADERSTYLE
  5
6C
102
{ACAD_REACTORS
330
6B
102
}
102
{ACAD_XDICTIONARY
360
43A
102
}
330
6B
100
AcDbMLeaderStyle
170
     2
171
     1
172
     0
 90
        2
 40
0.0
 41
0.0
173
     1
 91
-1056964608
340
14
 92
       -2
290
     1
 42
2.0
291
     1
 43
8.0
  3
Standard
341
0
 44
4.0
300

342
11
174
     1
178
     6
175
     1
176
     0
 93
-1056964608
 45
4.0
292
     0
297
     0
 46
4.0
343
0
 94
-1056964608
 47
1.0
 49
1.0
140
1.0
293
     1
141
0.0
294
     1
177
     0
142
1.0
295
     0
296
     0
143
3.75
1001
ACAD_MLEADERVER
1070
     2
  0
MLINESTYLE
  5
18
102
{ACAD_REACTORS
330
17
102
}
330
17
100
AcDbMlineStyle
  2
Standard
 70
     0
  3

 62
   256
 51
90.0
 52
90.0
 71
     2
 49
0.5
 62
   256
  6
BYLAYER
 49
-0.5
 62
   256
  6
BYLAYER
  0
ACDBPLACEHOLDER
  5
F
102
{ACAD_REACTORS
330
E
102
}
330
E
  0
SCALE
  5
48
102
{ACAD_REACTORS
330
47
102
}
330
47
100
AcDbScale
 70
     0
300
1:1
140
1.0
141
1.0
290
     1
  0
SCALE
  5
49
102
{ACAD_REACTORS
330
47
102
}
330
47
100
AcDbScale
 70
     0
300
1:2
140
1.0
141
2.0
290
     0
  0
SCALE
  5
4A
102
{ACAD_REACTORS
330
47
102
}
330
47
100
AcDbScale
 70
     0
300
1:4
140
1.0
141
4.0
290
     0
  0
SCALE
  5
4B
102
{ACAD_REACTORS
330
47
102
}
330
47
100
AcDbScale
 70
     0
300
1:5
140
1.0
141
5.0
290
     0
  0
SCALE
  5
4C
102
{ACAD_REACTORS
330
47
102
}
330
47
100
AcDbScale
 70
     0
300
1:8
140
1.0
141
8.0
290
     0
  0
SCALE
  5
4D
102
{ACAD_REACTORS
330
47
102
}
330
47
100
AcDbScale
 70
     0
300
1:10
140
1.0
141
10.0
290
     0
  0
SCALE
  5
4E
102
{ACAD_REACTORS
330
47
102
}
330
47
100
AcDbScale
 70
     0
300
1:16
140
1.0
141
16.0
290
     0
  0
SCALE
  5
4F
102
{ACAD_REACTORS
330
47
102
}
330
47
100
AcDbScale
 70
     0
300
1:20
140
1.0
141
20.0
290
     0
  0
SCALE
  5
50
102
{ACAD_REACTORS
330
47
102
}
330
47
100
AcDbScale
 70
     0
300
1:30
140
1.0
141
30.0
290
     0
  0
SCALE
  5
51
102
{ACAD_REACTORS
330
47
102
}
330
47
100
AcDbScale
 70
     0
300
1:40
140
1.0
141
40.0
290
     0
  0
SCALE
  5
52
102
{ACAD_REACTORS
330
47
102
}
330
47
100
AcDbScale
 70
     0
300
1:50
140
1.0
141
50.0
290
     0
  0
SCALE
  5
53
102
{ACAD_REACTORS
330
47
102
}
330
47
100
AcDbScale
 70
     0
300
1:100
140
1.0
141
100.0
290
     0
  0
SCALE
  5
54
102
{ACAD_REACTORS
330
47
102
}
330
47
100
AcDbScale
 70
     0
300
2:1
140
2.0
141
1.0
290
     0
  0
SCALE
  5
55
102
{ACAD_REACTORS
330
47
102
}
330
47
100
AcDbScale
 70
     0
300
4:1
140
4.0
141
1.0
290
     0
  0
SCALE
  5
56
102
{ACAD_REACTORS
330
47
102
}
330
47
100
AcDbScale
 70
     0
300
8:1
140
8.0
141
1.0
290
     0
  0
SCALE
  5
57
102
{ACAD_REACTORS
330
47
102
}
330
47
100
AcDbScale
 70
     0
300
10:1
140
10.0
141
1.0
290
     0
  0
SCALE
  5
58
102
{ACAD_REACTORS
330
47
102
}
330
47
100
AcDbScale
 70
     0
300
100:1
140
100.0
141
1.0
290
     0
  0
SCALE
  5
59
102
{ACAD_REACTORS
330
47
102
}
330
47
100
AcDbScale
 70
     0
300
1/128" = 1'-0"
140
0.0078125
141
12.0
290
     0
  0
SCALE
  5
5A
102
{ACAD_REACTORS
330
47
102
}
330
47
100
AcDbScale
 70
     0
300
1/64" = 1'-0"
140
0.015625
141
12.0
290
     0
  0
SCALE
  5
5B
102
{ACAD_REACTORS
330
47
102
}
330
47
100
AcDbScale
 70
     0
300
1/32" = 1'-0"
140
0.03125
141
12.0
290
     0
  0
SCALE
  5
5C
102
{ACAD_REACTORS
330
47
102
}
330
47
100
AcDbScale
 70
     0
300
1/16" = 1'-0"
140
0.0625
141
12.0
290
     0
  0
SCALE
  5
5D
102
{ACAD_REACTORS
330
47
102
}
330
47
100
AcDbScale
 70
     0
300
3/32" = 1'-0"
140
0.09375
141
12.0
290
     0
  0
SCALE
  5
5E
102
{ACAD_REACTORS
330
47
102
}
330
47
100
AcDbScale
 70
     0
300
1/8" = 1'-0"
140
0.125
141
12.0
290
     0
  0
SCALE
  5
5F
102
{ACAD_REACTORS
330
47
102
}
330
47
100
AcDbScale
 70
     0
300
3/16" = 1'-0"
140
0.1875
141
12.0
290
     0
  0
SCALE
  5
60
102
{ACAD_REACTORS
330
47
102
}
330
47
100
AcDbScale
 70
     0
300
1/4" = 1'-0"
140
0.25
141
12.0
290
     0
  0
SCALE
  5
61
102
{ACAD_REACTORS
330
47
102
}
330
47
100
AcDbScale
 70
     0
300
3/8" = 1'-0"
140
0.375
141
12.0
290
     0
  0
SCALE
  5
62
102
{ACAD_REACTORS
330
47
102
}
330
47
100
AcDbScale
 70
     0
300
1/2" = 1'-0"
140
0.5
141
12.0
290
     0
  0
SCALE
  5
63
102
{ACAD_REACTORS
330
47
102
}
330
47
100
AcDbScale
 70
     0
300
3/4" = 1'-0"
140
0.75
141
12.0
290
     0
  0
SCALE
  5
64
102
{ACAD_REACTORS
330
47
102
}
330
47
100
AcDbScale
 70
     0
300
1" = 1'-0"
140
1.0
141
12.0
290
     0
  0
SCALE
  5
65
102
{ACAD_REACTORS
330
47
102
}
330
47
100
AcDbScale
 70
     0
300
1-1/2" = 1'-0"
140
1.5
141
12.0
290
     0
  0
SCALE
  5
66
102
{ACAD_REACTORS
330
47
102
}
330
47
100
AcDbScale
 70
     0
300
3" = 1'-0"
140
3.0
141
12.0
290
     0
  0
SCALE
  5
67
102
{ACAD_REACTORS
330
47
102
}
330
47
100
AcDbScale
 70
     0
300
6" = 1'-0"
140
6.0
141
12.0
290
     0
  0
SCALE
  5
68
102
{ACAD_REACTORS
330
47
102
}
330
47
100
AcDbScale
 70
     0
300
1'-0" = 1'-0"
140
12.0
141
12.0
290
     0
  0
TABLESTYLE
  5
6A
102
{ACAD_REACTORS
330
69
102
}
330
69
100
AcDbTableStyle
  3
Standard
 70
     0
 71
     0
 40
0.06
 41
0.06
280
     0
281
     0
  7
Standard
140
4.5
170
     2
 62
     0
 63
   257
283
     0
274
    -2
284
     1
 64
     0
275
    -2
285
     1
 65
     0
276
    -2
286
     1
 66
     0
277
    -2
287
     1
 67
     0
278
    -2
288
     1
 68
     0
279
    -2
289
     1
 69
     0
  7
Standard
140
6.0
170
     5
 62
     0
 63
   257
283
     0
274
    -2
284
     1
 64
     0
275
    -2
285
     1
 65
     0
276
    -2
286
     1
 66
     0
277
    -2
287
     1
 67
     0
278
    -2
288
     1
 68
     0
279
    -2
289
     1
 69
     0
  7
Standard
140
4.5
170
     5
 62
     0
 63
   257
283
     0
274
    -2
284
     1
 64
     0
275
    -2
285
     1
 65
     0
276
    -2
286
     1
 66
     0
277
    -2
287
     1
 67
     0
278
    -2
288
     1
 68
     0
279
    -2
289
     1
 69
     0
  0
VISUALSTYLE
  5
2F
102
{ACAD_REACTORS
330
2A
102
}
102
{ACAD_XDICTIONARY
360
40C
102
}
330
2A
100
AcDbVisualStyle
  2
2dWireframe
 70
     4
 71
     0
 72
     2
 73
     0
 90
        0
 40
0.6
 41
30.0
 62
     5
 63
     7
 74
     1
 91
        4
 64
     7
 65
   257
 75
     1
175
     1
 42
1.0
 92
        0
 66
   257
 43
1.0
 76
     1
 77
     6
 78
     2
 67
     7
 79
     5
170
     0
171
     0
290
     0
174
     0
 93
        1
 44
0.0
173
     0
291
     0
 45
0.0
1001
ACAD
1000
AcDbSavedByObjectVersion
1070
     0
  0
VISUALSTYLE
  5
32
102
{ACAD_REACTORS
330
2A
102
}
102
{ACAD_XDICTIONARY
360
412
102
}
330
2A
100
AcDbVisualStyle
  2
Basic
 70
     7
 71
     1
 72
     0
 73
     1
 90
        0
 40
0.6
 41
30.0
 62
     5
 63
     7
 74
     0
 91
        4
 64
     7
 65
   257
 75
     1
175
     1
 42
1.0
 92
        8
 66
     7
 43
1.0
 76
     1
 77
     6
 78
     2
 67
     7
 79
     5
170
     0
171
     0
290
     0
174
     0
 93
        1
 44
0.0
173
     0
291
     1
 45
0.0
1001
ACAD
1000
AcDbSavedByObjectVersion
1070
     0
  0
VISUALSTYLE
  5
36
102
{ACAD_REACTORS
330
2A
102
}
102
{ACAD_XDICTIONARY
360
41A
102
}
330
2A
100
AcDbVisualStyle
  2
Brighten
 70
    12
 71
     2
 72
     2
 73
     0
 90
        0
 40
0.6
 41
30.0
 62
     5
 63
     7
 74
     1
 91
        4
 64
     7
 65
   257
 75
     1
175
     1
 42
1.0
 92
        8
 66
     7
 43
1.0
 76
     1
 77
     6
 78
     2
 67
     7
 79
     5
170
     0
171
     0
290
     0
174
     0
 93
        1
 44
50.0
173
     0
291
     1
 45
0.0
1001
ACAD
1000
AcDbSavedByObjectVersion
1070
     0
  0
VISUALSTYLE
  5
3A
102
{ACAD_REACTORS
330
2A
102
}
102
{ACAD_XDICTIONARY
360
422
102
}
330
2A
100
AcDbVisualStyle
  2
ColorChange
 70
    16
 71
     2
 72
     2
 73
     3
 90
        0
 40
0.6
 41
30.0
 62
     5
 63
     8
 74
     1
 91
        4
 64
     7
 65
   257
 75
     1
175
     1
 42
1.0
 92
        8
 66
     8
 43
1.0
 76
     1
 77
     6
 78
     2
 67
     7
 79
     5
170
     0
171
     0
290
     0
174
     0
 93
        1
 44
0.0
173
     0
291
     1
 45
0.0
1001
ACAD
1000
AcDbSavedByObjectVersion
1070
     0
  0
VISUALSTYLE
  5
34
102
{ACAD_REACTORS
330
2A
102
}
102
{ACAD_XDICTIONARY
360
416
102
}
330
2A
100
AcDbVisualStyle
  2
Conceptual
 70
     9
 71
     3
 72
     2
 73
     0
 90
        0
 40
0.6
 41
30.0
 62
     5
 63
     7
 74
     2
 91
        2
 64
     7
 65
   257
 75
     1
175
     1
 42
179.0
 92
        8
 66
     7
 43
1.0
 76
     1
 77
     6
 78
     2
 67
     7
 79
     3
170
     0
171
     0
290
     0
174
     0
 93
        1
 44
0.0
173
     0
291
     0
 45
0.0
1001
ACAD
1000
AcDbSavedByObjectVersion
1070
     0
  0
VISUALSTYLE
  5
35
102
{ACAD_REACTORS
330
2A
102
}
102
{ACAD_XDICTIONARY
360
418
102
}
330
2A
100
AcDbVisualStyle
  2
Dim
 70
    11
 71
     2
 72
     2
 73
     0
 90
        0
 40
0.6
 41
30.0
 62
     5
 63
     7
 74
     1
 91
        4
 64
     7
 65
   257
 75
     1
175
     1
 42
1.0
 92
        8
 66
     7
 43
1.0
 76
     1
 77
     6
 78
     2
 67
     7
 79
     5
170
     0
171
     0
290
     0
174
     0
 93
        1
 44
-50.0
173
     0
291
     1
 45
0.0
1001
ACAD
1000
AcDbSavedByObjectVersion
1070
     0
  0
VISUALSTYLE
  5
3D
102
{ACAD_REACTORS
330
2A
102
}
102
{ACAD_XDICTIONARY
360
428
102
}
330
2A
100
AcDbVisualStyle
  2
EdgeColorOff
 70
    22
 71
     2
 72
     2
 73
     0
 90
        0
 40
0.6
 41
30.0
 62
     5
 63
     7
 74
     1
 91
        4
 64
     7
 65
   257
 75
     1
175
     1
 42
1.0
 92
        8
 66
     7
 43
1.0
 76
     1
 77
     6
 78
     2
 67
     7
 79
     5
170
     0
171
     0
290
     0
174
     0
 93
        1
 44
0.0
173
     0
291
     1
 45
0.0
1001
ACAD
1000
AcDbSavedByObjectVersion
1070
     0
  0
VISUALSTYLE
  5
39
102
{ACAD_REACTORS
330
2A
102
}
102
{ACAD_XDICTIONARY
360
420
102
}
330
2A
100
AcDbVisualStyle
  2
Facepattern
 70
    15
 71
     2
 72
     2
 73
     0
 90
        0
 40
0.6
 41
30.0
 62
     5
 63
     7
 74
     1
 91
        4
 64
     7
 65
   257
 75
     1
175
     1
 42
1.0
 92
        8
 66
     7
 43
1.0
 76
     1
 77
     6
 78
     2
 67
     7
 79
     5
170
     0
171
     0
290
     0
174
     0
 93
        1
 44
0.0
173
     0
291
     1
 45
0.0
1001
ACAD
1000
AcDbSavedByObjectVersion
1070
     0
  0
VISUALSTYLE
  5
2B
102
{ACAD_REACTORS
330
2A
102
}
102
{ACAD_XDICTIONARY
360
404
102
}
330
2A
100
AcDbVisualStyle
  2
Flat
 70
     0
 71
     2
 72
     1
 73
     1
 90
        2
 40
0.6
 41
30.0
 62
     5
 63
     7
 74
     0
 91
        0
 64
     7
 65
   257
 75
     1
175
     1
 42
1.0
 92
        8
 66
     7
 43
1.0
 76
     1
 77
     6
 78
     2
 67
     7
 79
     5
170
     0
171
     0
290
     0
174
     0
 93
       13
 44
0.0
173
     0
291
     1
 45
0.0
1001
ACAD
1000
AcDbSavedByObjectVersion
1070
     0
  0
VISUALSTYLE
  5
2C
102
{ACAD_REACTORS
330
2A
102
}
102
{ACAD_XDICTIONARY
360
406
102
}
330
2A
100
AcDbVisualStyle
  2
FlatWithEdges
 70
     1
 71
     2
 72
     1
 73
     1
 90
        2
 40
0.6
 41
30.0
 62
     5
 63
     7
 74
     1
 91
        0
 64
     7
 65
   257
 75
     1
175
     1
 42
1.0
 92
        0
 66
   257
 43
1.0
 76
     1
 77
     6
 78
     2
 67
     7
 79
     5
170
     0
171
     0
290
     0
174
     0
 93
       13
 44
0.0
173
     0
291
     1
 45
0.0
1001
ACAD
1000
AcDbSavedByObjectVersion
1070
     0
  0
VISUALSTYLE
  5
2D
102
{ACAD_REACTORS
330
2A
102
}
102
{ACAD_XDICTIONARY
360
408
102
}
330
2A
100
AcDbVisualStyle
  2
Gouraud
 70
     2
 71
     2
 72
     2
 73
     1
 90
        2
 40
0.6
 41
30.0
 62
     5
 63
     7
 74
     0
 91
        0
 64
     7
 65
   257
 75
     1
175
     1
 42
1.0
 92
        0
 66
     7
 43
1.0
 76
     1
 77
     6
 78
     2
 67
     7
 79
     5
170
     0
171
     0
290
     0
174
     0
 93
       13
 44
0.0
173
     0
291
     1
 45
0.0
1001
ACAD
1000
AcDbSavedByObjectVersion
1070
     0
  0
VISUALSTYLE
  5
2E
102
{ACAD_REACTORS
330
2A
102
}
102
{ACAD_XDICTIONARY
360
40A
102
}
330
2A
100
AcDbVisualStyle
  2
GouraudWithEdges
 70
     3
 71
     2
 72
     2
 73
     1
 90
        2
 40
0.6
 41
30.0
 62
     5
 63
     7
 74
     1
 91
        0
 64
     7
 65
   257
 75
     1
175
     1
 42
1.0
 92
        0
 66
   257
 43
1.0
 76
     1
 77
     6
 78
     2
 67
     7
 79
     5
170
     0
171
     0
290
     0
174
     0
 93
       13
 44
0.0
173
     0
291
     1
 45
0.0
1001
ACAD
1000
AcDbSavedByObjectVersion
1070
     0
  0
VISUALSTYLE
  5
31
102
{ACAD_REACTORS
330
2A
102
}
102
{ACAD_XDICTIONARY
360
410
102
}
330
2A
100
AcDbVisualStyle
  2
Hidden
 70
     6
 71
     1
 72
     2
 73
     2
 90
        0
 40
0.6
 41
30.0
 62
     5
 63
     7
 74
     2
 91
        2
 64
     7
 65
   257
 75
     2
175
     1
 42
40.0
 92
        0
 66
   257
 43
1.0
 76
     1
 77
     6
 78
     2
 67
     7
 79
     3
170
     0
171
     0
290
     0
174
     0
 93
        1
 44
0.0
173
     0
291
     0
 45
0.0
1001
ACAD
1000
AcDbSavedByObjectVersion
1070
     0
  0
VISUALSTYLE
  5
3B
102
{ACAD_REACTORS
330
2A
102
}
102
{ACAD_XDICTIONARY
360
424
102
}
330
2A
100
AcDbVisualStyle
  2
JitterOff
 70
    20
 71
     2
 72
     2
 73
     0
 90
        0
 40
0.6
 41
30.0
 62
     5
 63
     7
 74
     1
 91
        4
 64
     7
 65
   257
 75
     1
175
     1
 42
1.0
 92
       10
 66
     7
 43
1.0
 76
     1
 77
     6
 78
     2
 67
     7
 79
     5
170
     0
171
     0
290
     0
174
     0
 93
        1
 44
0.0
173
     0
291
     1
 45
0.0
1001
ACAD
1000
AcDbSavedByObjectVersion
1070
     0
  0
VISUALSTYLE
  5
38
102
{ACAD_REACTORS
330
2A
102
}
102
{ACAD_XDICTIONARY
360
41E
102
}
330
2A
100
AcDbVisualStyle
  2
Linepattern
 70
    14
 71
     2
 72
     2
 73
     0
 90
        0
 40
0.6
 41
30.0
 62
     5
 63
     7
 74
     1
 91
        4
 64
     7
 65
   257
 75
     7
175
     7
 42
1.0
 92
        8
 66
     7
 43
1.0
 76
     1
 77
     6
 78
     2
 67
     7
 79
     5
170
     0
171
     0
290
     0
174
     0
 93
        1
 44
0.0
173
     0
291
     1
 45
0.0
1001
ACAD
1000
AcDbSavedByObjectVersion
1070
     0
  0
VISUALSTYLE
  5
3C
102
{ACAD_REACTORS
330
2A
102
}
102
{ACAD_XDICTIONARY
360
426
102
}
330
2A
100
AcDbVisualStyle
  2
OverhangOff
 70
    21
 71
     2
 72
     2
 73
     0
 90
        0
 40
0.6
 41
30.0
 62
     5
 63
     7
 74
     1
 91
        4
 64
     7
 65
   257
 75
     1
175
     1
 42
1.0
 92
        9
 66
     7
 43
1.0
 76
     1
 77
     6
 78
     2
 67
     7
 79
     5
170
     0
171
     0
290
     0
174
     0
 93
        1
 44
0.0
173
     0
291
     1
 45
0.0
1001
ACAD
1000
AcDbSavedByObjectVersion
1070
     0
  0
VISUALSTYLE
  5
33
102
{ACAD_REACTORS
330
2A
102
}
102
{ACAD_XDICTIONARY
360
414
102
}
330
2A
100
AcDbVisualStyle
  2
Realistic
 70
     8
 71
     2
 72
     3
 73
     0
 90
        2
 40
0.6
 41
30.0
 62
     5
 63
     7
 74
     0
 91
        0
 64
     7
 65
   257
 75
     1
175
     1
 42
1.0
 92
        8
 66
   257
 43
1.0
 76
     1
 77
     6
 78
     2
 67
     7
 79
     3
170
     0
171
     0
290
     0
174
     0
 93
       13
 44
0.0
173
     0
291
     0
 45
0.0
1001
ACAD
1000
AcDbSavedByObjectVersion
1070
     0
  0
VISUALSTYLE
  5
42
102
{ACAD_REACTORS
330
2A
102
}
102
{ACAD_XDICTIONARY
360
432
102
}
330
2A
100
AcDbVisualStyle
  2
Shaded
 70
    27
 71
     2
 72
     2
 73
     1
 90
        2
 40
0.6
 41
30.0
 62
     5
 63
     7
 74
     0
 91
        4
 64
     7
 65
   257
 75
     1
175
     1
 42
1.0
 92
        8
 66
   257
 43
1.0
 76
     1
 77
     6
 78
     2
 67
     8
 79
     3
170
     0
171
     0
290
     0
174
     0
 93
        5
 44
0.0
173
     0
291
     0
 45
0.0
1001
ACAD
1000
AcDbSavedByObjectVersion
1070
     0
  0
VISUALSTYLE
  5
41
102
{ACAD_REACTORS
330
2A
102
}
102
{ACAD_XDICTIONARY
360
430
102
}
330
2A
100
AcDbVisualStyle
  2
Shaded with edges
 70
    26
 71
     2
 72
     2
 73
     1
 90
        2
 40
0.6
 41
30.0
 62
     5
 63
     7
 74
     1
 91
       10
 64
     7
 65
   257
 75
     2
175
     1
 42
1.0
 92
        8
 66
   257
 43
1.0
 76
     1
 77
     6
 78
     2
 67
     7
 79
     3
170
     0
171
     0
290
     0
174
     0
 93
        5
 44
0.0
173
     0
291
     0
 45
0.0
1001
ACAD
1000
AcDbSavedByObjectVersion
1070
     0
  0
VISUALSTYLE
  5
3E
102
{ACAD_REACTORS
330
2A
102
}
102
{ACAD_XDICTIONARY
360
42A
102
}
330
2A
100
AcDbVisualStyle
  2
Shades of Gray
 70
    23
 71
     2
 72
     2
 73
     3
 90
        0
 40
0.6
 41
30.0
 62
     5
 63
     7
 74
     2
 91
        2
 64
     7
 65
     7
 75
     1
175
     1
 42
40.0
 92
        8
 66
     7
 43
1.0
 76
     1
 77
     6
 78
     2
 67
     7
 79
     3
170
     0
171
     0
290
     0
174
     0
 93
        1
 44
0.0
173
     0
291
     0
 45
0.0
1001
ACAD
1000
AcDbSavedByObjectVersion
1070
     0
  0
VISUALSTYLE
  5
3F
102
{ACAD_REACTORS
330
2A
102
}
102
{ACAD_XDICTIONARY
360
42C
102
}
330
2A
100
AcDbVisualStyle
  2
Sketchy
 70
    24
 71
     1
 72
     2
 73
     2
 90
        0
 40
0.6
 41
30.0
 62
     5
 63
     7
 74
     2
 91
        2
 64
     7
 65
     7
 75
     1
175
     1
 42
40.0
 92
       11
 66
     7
 43
1.0
 76
     1
 77
     6
 78
     2
 67
     7
 79
     6
170
     0
171
     0
290
     0
174
     0
 93
        1
 44
0.0
173
     0
291
     0
 45
0.0
1001
ACAD
1000
AcDbSavedByObjectVersion
1070
     0
  0
VISUALSTYLE
  5
37
102
{ACAD_REACTORS
330
2A
102
}
102
{ACAD_XDICTIONARY
360
41C
102
}
330
2A
100
AcDbVisualStyle
  2
Thicken
 70
    13
 71
     2
 72
     2
 73
     0
 90
        0
 40
0.6
 41
30.0
 62
     5
 63
     7
 74
     1
 91
        4
 64
     7
 65
   257
 75
     1
175
     1
 42
1.0
 92
       12
 66
     7
 43
1.0
 76
     1
 77
     6
 78
     2
 67
     7
 79
     5
170
     0
171
     0
290
     0
174
     0
 93
        1
 44
0.0
173
     0
291
     1
 45
0.0
1001
ACAD
1000
AcDbSavedByObjectVersion
1070
     0
  0
VISUALSTYLE
  5
30
102
{ACAD_REACTORS
330
2A
102
}
102
{ACAD_XDICTIONARY
360
40E
102
}
330
2A
100
AcDbVisualStyle
  2
Wireframe
 70
     5
 71
     0
 72
     2
 73
     0
 90
        0
 40
0.6
 41
30.0
 62
     5
 63
     7
 74
     1
 91
        4
 64
     7
 65
   257
 75
     1
175
     1
 42
1.0
 92
        0
 66
   257
 43
1.0
 76
     1
 77
     6
 78
     2
 67
     7
 79
     3
170
     0
171
     0
290
     0
174
     0
 93
        1
 44
0.0
173
     0
291
     0
 45
0.0
1001
ACAD
1000
AcDbSavedByObjectVersion
1070
     0
  0
VISUALSTYLE
  5
40
102
{ACAD_REACTORS
330
2A
102
}
102
{ACAD_XDICTIONARY
360
42E
102
}
330
2A
100
AcDbVisualStyle
  2
X-Ray
 70
    25
 71
     2
 72
     2
 73
     1
 90
        1
 40
0.5
 41
30.0
 62
     5
 63
     7
 74
     1
 91
        0
 64
     7
 65
   257
 75
     1
175
     1
 42
1.0
 92
        8
 66
     7
 43
1.0
 76
     1
 77
     6
 78
     2
 67
     7
 79
     3
170
     0
171
     0
290
     0
174
     0
 93
       13
 44
0.0
173
     0
291
     0
 45
0.0
1001
ACAD
1000
AcDbSavedByObjectVersion
1070
     0
  0
DICTIONARYVAR
  5
3BB
102
{ACAD_REACTORS
330
3BA
102
}
330
3BA
100
DictionaryVariables
280
     0
  1
1:1
  0
DICTIONARYVAR
  5
3F4
102
{ACAD_REACTORS
330
3BA
102
}
330
3BA
100
DictionaryVariables
280
     0
  1
Standard
  0
DICTIONARYVAR
  5
3F3
102
{ACAD_REACTORS
330
3BA
102
}
330
3BA
100
DictionaryVariables
280
     0
  1
Standard
  0
DICTIONARYVAR
  5
3FC
102
{ACAD_REACTORS
330
3BA
102
}
330
3BA
100
DictionaryVariables
280
     0
  1
2
  0
DICTIONARYVAR
  5
3FD
102
{ACAD_REACTORS
330
3BA
102
}
330
3BA
100
DictionaryVariables
280
     0
  1
1
  0
DICTIONARYVAR
  5
403
102
{ACAD_REACTORS
330
3BA
102
}
330
3BA
100
DictionaryVariables
280
     0
  1
1
  0
DICTIONARYVAR
  5
3FB
102
{ACAD_REACTORS
330
3BA
102
}
330
3BA
100
DictionaryVariables
280
     0
  1
80.000000
  0
DICTIONARYVAR
  5
3FA
102
{ACAD_REACTORS
330
3BA
102
}
330
3BA
100
DictionaryVariables
280
     0
  1
5.000000
  0
DICTIONARYVAR
  5
3F7
102
{ACAD_REACTORS
330
3BA
102
}
330
3BA
100
DictionaryVariables
280
     0
  1
6.000000
  0
DICTIONARYVAR
  5
3BC
102
{ACAD_REACTORS
330
3BA
102
}
330
3BA
100
DictionaryVariables
280
     0
  1
2
  0
DICTIONARY
  5
436
330
45
100
AcDbDictionary
280
     1
281
     1
  3
ACAD_XREC_ROUNDTRIP
360
437
  0
DICTIONARY
  5
434
330
44
100
AcDbDictionary
280
     1
281
     1
  3
ACAD_XREC_ROUNDTRIP
360
435
  0
DICTIONARY
  5
438
330
46
100
AcDbDictionary
280
     1
281
     1
  3
ACAD_XREC_ROUNDTRIP
360
439
  0
DICTIONARY
  5
43A
330
6C
100
AcDbDictionary
280
     1
281
     1
  3
ACAD_XREC_ROUNDTRIP
360
43B
  0
DICTIONARY
  5
40C
330
2F
100
AcDbDictionary
280
     1
281
     1
  3
ACAD_XREC_ROUNDTRIP
360
40D
  0
DICTIONARY
  5
412
330
32
100
AcDbDictionary
280
     1
281
     1
  3
ACAD_XREC_ROUNDTRIP
360
413
  0
DICTIONARY
  5
41A
330
36
100
AcDbDictionary
280
     1
281
     1
  3
ACAD_XREC_ROUNDTRIP
360
41B
  0
DICTIONARY
  5
422
330
3A
100
AcDbDictionary
280
     1
281
     1
  3
ACAD_XREC_ROUNDTRIP
360
423
  0
DICTIONARY
  5
416
330
34
100
AcDbDictionary
280
     1
281
     1
  3
ACAD_XREC_ROUNDTRIP
360
417
  0
DICTIONARY
  5
418
330
35
100
AcDbDictionary
280
     1
281
     1
  3
ACAD_XREC_ROUNDTRIP
360
419
  0
DICTIONARY
  5
428
330
3D
100
AcDbDictionary
280
     1
281
     1
  3
ACAD_XREC_ROUNDTRIP
360
429
  0
DICTIONARY
  5
420
330
39
100
AcDbDictionary
280
     1
281
     1
  3
ACAD_XREC_ROUNDTRIP
360
421
  0
DICTIONARY
  5
404
330
2B
100
AcDbDictionary
280
     1
281
     1
  3
ACAD_XREC_ROUNDTRIP
360
405
  0
DICTIONARY
  5
406
330
2C
100
AcDbDictionary
280
     1
281
     1
  3
ACAD_XREC_ROUNDTRIP
360
407
  0
DICTIONARY
  5
408
330
2D
100
AcDbDictionary
280
     1
281
     1
  3
ACAD_XREC_ROUNDTRIP
360
409
  0
DICTIONARY
  5
40A
330
2E
100
AcDbDictionary
280
     1
281
     1
  3
ACAD_XREC_ROUNDTRIP
360
40B
  0
DICTIONARY
  5
410
330
31
100
AcDbDictionary
280
     1
281
     1
  3
ACAD_XREC_ROUNDTRIP
360
411
  0
DICTIONARY
  5
424
330
3B
100
AcDbDictionary
280
     1
281
     1
  3
ACAD_XREC_ROUNDTRIP
360
425
  0
DICTIONARY
  5
41E
330
38
100
AcDbDictionary
280
     1
281
     1
  3
ACAD_XREC_ROUNDTRIP
360
41F
  0
DICTIONARY
  5
426
330
3C
100
AcDbDictionary
280
     1
281
     1
  3
ACAD_XREC_ROUNDTRIP
360
427
  0
DICTIONARY
  5
414
330
33
100
AcDbDictionary
280
     1
281
     1
  3
ACAD_XREC_ROUNDTRIP
360
415
  0
DICTIONARY
  5
432
330
42
100
AcDbDictionary
280
     1
281
     1
  3
ACAD_XREC_ROUNDTRIP
360
433
  0
DICTIONARY
  5
430
330
41
100
AcDbDictionary
280
     1
281
     1
  3
ACAD_XREC_ROUNDTRIP
360
431
  0
DICTIONARY
  5
42A
330
3E
100
AcDbDictionary
280
     1
281
     1
  3
ACAD_XREC_ROUNDTRIP
360
42B
  0
DICTIONARY
  5
42C
330
3F
100
AcDbDictionary
280
     1
281
     1
  3
ACAD_XREC_ROUNDTRIP
360
42D
  0
DICTIONARY
  5
41C
330
37
100
AcDbDictionary
280
     1
281
     1
  3
ACAD_XREC_ROUNDTRIP
360
41D
  0
DICTIONARY
  5
40E
330
30
100
AcDbDictionary
280
     1
281
     1
  3
ACAD_XREC_ROUNDTRIP
360
40F
  0
DICTIONARY
  5
42E
330
40
100
AcDbDictionary
280
     1
281
     1
  3
ACAD_XREC_ROUNDTRIP
360
42F
  0
XRECORD
  5
437
102
{ACAD_REACTORS
330
436
102
}
330
436
100
AcDbXrecord
280
     1
102
MATERIAL
148
0.0
149
0.0
149
0.0
 93
        0
 94
      127
282
     0
 72
     1
 77
     1
171
     1
175
     1
179
     1
273
     0
  0
XRECORD
  5
435
102
{ACAD_REACTORS
330
434
102
}
330
434
100
AcDbXrecord
280
     1
102
MATERIAL
148
0.0
149
0.0
149
0.0
 93
        0
 94
      127
282
     0
 72
     1
 77
     1
171
     1
175
     1
179
     1
273
     0
  0
XRECORD
  5
439
102
{ACAD_REACTORS
330
438
102
}
330
438
100
AcDbXrecord
280
     1
102
MATERIAL
148
0.0
149
0.0
149
0.0
 93
        0
 94
      127
282
     0
 72
     1
 77
     1
171
     1
175
     1
179
     1
273
     0
  0
XRECORD
  5
43B
102
{ACAD_REACTORS
330
43A
102
}
330
43A
100
AcDbXrecord
280
     1
102
ACAD_ROUNDTRIP_2010_MLEADER_STYLE
  0
XRECORD
  5
40D
102
{ACAD_REACTORS
330
40C
102
}
330
40C
100
AcDbXrecord
280
     1
102
RTVSPropertyOp0
 70
     1
102
RTVSPropertyOp1
 70
     1
102
RTVSPropertyOp2
 70
     1
102
RTVSPropertyOp3
 70
     1
102
RTVSPropertyOp4
 70
     1
102
RTVSPropertyOp5
 70
     1
102
RTVSPropertyOp6
 70
     1
102
RTVSPropertyOp7
 70
     1
102
RTVSPropertyOp8
 70
     1
102
RTVSPropertyOp9
 70
     1
102
RTVSPropertyOp10
 70
     1
102
RTVSPropertyOp11
 70
     1
102
RTVSPropertyOp12
 70
     1
102
RTVSPropertyOp13
 70
     1
102
RTVSPropertyOp14
 70
     1
102
RTVSPropertyOp15
 70
     1
102
RTVSPropertyOp16
 70
     1
102
RTVSPropertyOp17
 70
     1
102
RTVSPropertyOp18
 70
     1
102
RTVSPropertyOp19
 70
     1
102
RTVSPropertyOp20
 70
     1
102
RTVSPropertyOp21
 70
     1
102
RTVSPropertyOp22
 70
     1
102
RTVSPropertyOp23
 70
     1
102
RTVSPropertyOp24
 70
     1
102
RTVSPropertyOp25
 70
     1
102
RTVSPropertyOp26
 70
     1
102
RTVSPropertyOp27
 70
     1
102
RTVSPropertyOp28
 70
     1
102
RTVSPropertyOp29
 70
     1
102
RTVSPropertyOp30
 70
     1
102
RTVSPropertyOp31
 70
     1
102
RTVSPropertyOp32
 70
     1
102
RTVSPropertyOp33
 70
     1
102
RTVSPropertyOp34
 70
     1
102
RTVSPropertyOp35
 70
     1
102
RTVSPropertyOp36
 70
     1
102
RTVSPropertyOp37
 70
     1
102
RTVSPropertyOp38
 70
     1
102
RTVSPropertyOp39
 70
     1
102
RTVSPropertyOp40
 70
     1
102
RTVSPropertyOp41
 70
     1
102
RTVSPropertyOp42
 70
     1
102
RTVSPropertyOp43
 70
     1
102
RTVSPropertyOp44
 70
     1
102
RTVSPropertyOp45
 70
     1
102
RTVSPropertyOp46
 70
     1
102
RTVSPropertyOp47
 70
     1
102
RTVSPropertyOp48
 70
     1
102
RTVSPropertyOp49
 70
     1
102
RTVSPropertyOp50
 70
     1
102
RTVSPropertyOp51
 70
     0
102
RTVSPropertyOp52
 70
     0
102
RTVSPropertyOp53
 70
     1
102
RTVSPropertyOp54
 70
     1
102
RTVSPropertyOp55
 70
     1
102
RTVSPropertyOp56
 70
     1
102
RTVSPropertyOp57
 70
     1
102
RTVSPost2010Prop28
280
     1
102
RTVSPost2010PropOp28
 70
     1
102
RTVSPost2010Prop29
280
     1
102
RTVSPost2010PropOp29
 70
     1
102
RTVSPost2010Prop30
280
     0
102
RTVSPost2010PropOp30
 70
     1
102
RTVSPost2010Prop31
280
     0
102
RTVSPost2010PropOp31
 70
     1
102
RTVSPost2010Prop32
280
     0
102
RTVSPost2010PropOp32
 70
     1
102
RTVSPost2010Prop33
280
     0
102
RTVSPost2010PropOp33
 70
     1
102
RTVSPost2010Prop34
280
     0
102
RTVSPost2010PropOp34
 70
     1
102
RTVSPost2010Prop35
280
     0
102
RTVSPost2010PropOp35
 70
     1
102
RTVSPost2010Prop36
280
     0
102
RTVSPost2010PropOp36
 70
     1
102
RTVSPost2010Prop37
 90
       50
102
RTVSPost2010PropOp37
 70
     1
102
RTVSPost2010Prop38
140
0.0
102
RTVSPost2010PropOp38
 70
     1
102
RTVSPost2010Prop39
140
1.0
102
RTVSPost2010PropOp39
 70
     1
102
RTVSPost2010Prop40
 90
        0
102
RTVSPost2010PropOp40
 70
     1
102
RTVSPost2010Prop41ColorIndex
 90
       18
102
RTVSPost2010Prop41ColorRGB
 90
        0
102
RTVSPost2010PropOp41
 70
     1
102
RTVSPost2010Prop42
 90
       50
102
RTVSPost2010PropOp42
 70
     1
102
RTVSPost2010Prop43
 90
        3
102
RTVSPost2010PropOp43
 70
     1
102
RTVSPost2010Prop44ColorIndex
 90
        5
102
RTVSPost2010Prop44ColorRGB
 90
      255
102
RTVSPost2010PropOp44
 70
     1
102
RTVSPost2010Prop45
280
     0
102
RTVSPost2010PropOp45
 70
     1
102
RTVSPost2010Prop46
 90
       50
102
RTVSPost2010PropOp46
 70
     1
102
RTVSPost2010Prop47
 90
       50
102
RTVSPost2010PropOp47
 70
     1
102
RTVSPost2010Prop48
 90
       50
102
RTVSPost2010PropOp48
 70
     1
102
RTVSPost2010Prop49
280
     0
102
RTVSPost2010PropOp49
 70
     1
102
RTVSPost2010Prop50
 90
       50
102
RTVSPost2010PropOp50
 70
     1
102
RTVSPost2010Prop51ColorIndex
 90
      256
102
RTVSPost2010Prop51ColorRGB
 90
-16777216
102
RTVSPost2010PropOp51
 70
     0
102
RTVSPost2010Prop52
140
1.0
102
RTVSPost2010PropOp52
 70
     0
102
RTVSPost2010Prop53
 90
        2
102
RTVSPost2010PropOp53
 70
     1
102
RTVSPost2010Prop54
  1
strokes_ogs.tif
102
RTVSPost2010PropOp54
 70
     1
102
RTVSPost2010Prop55
280
     0
102
RTVSPost2010PropOp55
 70
     1
102
RTVSPost2010Prop56
140
1.0
102
RTVSPost2010PropOp56
 70
     1
102
RTVSPost2010Prop57
140
1.0
102
RTVSPost2010PropOp57
 70
     1
  0
XRECORD
  5
413
102
{ACAD_REACTORS
330
412
102
}
330
412
100
AcDbXrecord
280
     1
102
RTVSPropertyOp0
 70
     1
102
RTVSPropertyOp1
 70
     1
102
RTVSPropertyOp2
 70
     1
102
RTVSPropertyOp3
 70
     1
102
RTVSPropertyOp4
 70
     1
102
RTVSPropertyOp5
 70
     1
102
RTVSPropertyOp6
 70
     1
102
RTVSPropertyOp7
 70
     1
102
RTVSPropertyOp8
 70
     1
102
RTVSPropertyOp9
 70
     1
102
RTVSPropertyOp10
 70
     1
102
RTVSPropertyOp11
 70
     1
102
RTVSPropertyOp12
 70
     1
102
RTVSPropertyOp13
 70
     1
102
RTVSPropertyOp14
 70
     1
102
RTVSPropertyOp15
 70
     1
102
RTVSPropertyOp16
 70
     1
102
RTVSPropertyOp17
 70
     1
102
RTVSPropertyOp18
 70
     1
102
RTVSPropertyOp19
 70
     1
102
RTVSPropertyOp20
 70
     1
102
RTVSPropertyOp21
 70
     1
102
RTVSPropertyOp22
 70
     1
102
RTVSPropertyOp23
 70
     1
102
RTVSPropertyOp24
 70
     1
102
RTVSPropertyOp25
 70
     1
102
RTVSPropertyOp26
 70
     1
102
RTVSPropertyOp27
 70
     1
102
RTVSPropertyOp28
 70
     1
102
RTVSPropertyOp29
 70
     1
102
RTVSPropertyOp30
 70
     1
102
RTVSPropertyOp31
 70
     1
102
RTVSPropertyOp32
 70
     1
102
RTVSPropertyOp33
 70
     1
102
RTVSPropertyOp34
 70
     1
102
RTVSPropertyOp35
 70
     1
102
RTVSPropertyOp36
 70
     1
102
RTVSPropertyOp37
 70
     1
102
RTVSPropertyOp38
 70
     1
102
RTVSPropertyOp39
 70
     1
102
RTVSPropertyOp40
 70
     1
102
RTVSPropertyOp41
 70
     1
102
RTVSPropertyOp42
 70
     1
102
RTVSPropertyOp43
 70
     1
102
RTVSPropertyOp44
 70
     1
102
RTVSPropertyOp45
 70
     1
102
RTVSPropertyOp46
 70
     1
102
RTVSPropertyOp47
 70
     1
102
RTVSPropertyOp48
 70
     1
102
RTVSPropertyOp49
 70
     1
102
RTVSPropertyOp50
 70
     1
102
RTVSPropertyOp51
 70
     0
102
RTVSPropertyOp52
 70
     0
102
RTVSPropertyOp53
 70
     1
102
RTVSPropertyOp54
 70
     1
102
RTVSPropertyOp55
 70
     1
102
RTVSPropertyOp56
 70
     1
102
RTVSPropertyOp57
 70
     1
102
RTVSPost2010Prop28
280
     0
102
RTVSPost2010PropOp28
 70
     1
102
RTVSPost2010Prop29
280
     1
102
RTVSPost2010PropOp29
 70
     1
102
RTVSPost2010Prop30
280
     1
102
RTVSPost2010PropOp30
 70
     1
102
RTVSPost2010Prop31
280
     0
102
RTVSPost2010PropOp31
 70
     1
102
RTVSPost2010Prop32
280
     0
102
RTVSPost2010PropOp32
 70
     1
102
RTVSPost2010Prop33
280
     0
102
RTVSPost2010PropOp33
 70
     1
102
RTVSPost2010Prop34
280
     0
102
RTVSPost2010PropOp34
 70
     1
102
RTVSPost2010Prop35
280
     0
102
RTVSPost2010PropOp35
 70
     1
102
RTVSPost2010Prop36
280
     0
102
RTVSPost2010PropOp36
 70
     1
102
RTVSPost2010Prop37
 90
       50
102
RTVSPost2010PropOp37
 70
     1
102
RTVSPost2010Prop38
140
0.0
102
RTVSPost2010PropOp38
 70
     1
102
RTVSPost2010Prop39
140
1.0
102
RTVSPost2010PropOp39
 70
     1
102
RTVSPost2010Prop40
 90
        0
102
RTVSPost2010PropOp40
 70
     1
102
RTVSPost2010Prop41ColorIndex
 90
       18
102
RTVSPost2010Prop41ColorRGB
 90
        0
102
RTVSPost2010PropOp41
 70
     1
102
RTVSPost2010Prop42
 90
       50
102
RTVSPost2010PropOp42
 70
     1
102
RTVSPost2010Prop43
 90
        3
102
RTVSPost2010PropOp43
 70
     1
102
RTVSPost2010Prop44ColorIndex
 90
        5
102
RTVSPost2010Prop44ColorRGB
 90
      255
102
RTVSPost2010PropOp44
 70
     1
102
RTVSPost2010Prop45
280
     0
102
RTVSPost2010PropOp45
 70
     1
102
RTVSPost2010Prop46
 90
       50
102
RTVSPost2010PropOp46
 70
     1
102
RTVSPost2010Prop47
 90
       50
102
RTVSPost2010PropOp47
 70
     1
102
RTVSPost2010Prop48
 90
       50
102
RTVSPost2010PropOp48
 70
     1
102
RTVSPost2010Prop49
280
     0
102
RTVSPost2010PropOp49
 70
     1
102
RTVSPost2010Prop50
 90
       50
102
RTVSPost2010PropOp50
 70
     1
102
RTVSPost2010Prop51ColorIndex
 90
      256
102
RTVSPost2010Prop51ColorRGB
 90
-16777216
102
RTVSPost2010PropOp51
 70
     0
102
RTVSPost2010Prop52
140
1.0
102
RTVSPost2010PropOp52
 70
     0
102
RTVSPost2010Prop53
 90
        2
102
RTVSPost2010PropOp53
 70
     1
102
RTVSPost2010Prop54
  1
strokes_ogs.tif
102
RTVSPost2010PropOp54
 70
     1
102
RTVSPost2010Prop55
280
     0
102
RTVSPost2010PropOp55
 70
     1
102
RTVSPost2010Prop56
140
1.0
102
RTVSPost2010PropOp56
 70
     1
102
RTVSPost2010Prop57
140
1.0
102
RTVSPost2010PropOp57
 70
     1
  0
XRECORD
  5
41B
102
{ACAD_REACTORS
330
41A
102
}
330
41A
100
AcDbXrecord
280
     1
102
RTVSPropertyOp0
 70
     1
102
RTVSPropertyOp1
 70
     1
102
RTVSPropertyOp2
 70
     1
102
RTVSPropertyOp3
 70
     1
102
RTVSPropertyOp4
 70
     1
102
RTVSPropertyOp5
 70
     1
102
RTVSPropertyOp6
 70
     1
102
RTVSPropertyOp7
 70
     1
102
RTVSPropertyOp8
 70
     1
102
RTVSPropertyOp9
 70
     1
102
RTVSPropertyOp10
 70
     1
102
RTVSPropertyOp11
 70
     1
102
RTVSPropertyOp12
 70
     1
102
RTVSPropertyOp13
 70
     1
102
RTVSPropertyOp14
 70
     1
102
RTVSPropertyOp15
 70
     1
102
RTVSPropertyOp16
 70
     1
102
RTVSPropertyOp17
 70
     1
102
RTVSPropertyOp18
 70
     1
102
RTVSPropertyOp19
 70
     1
102
RTVSPropertyOp20
 70
     1
102
RTVSPropertyOp21
 70
     1
102
RTVSPropertyOp22
 70
     1
102
RTVSPropertyOp23
 70
     1
102
RTVSPropertyOp24
 70
     1
102
RTVSPropertyOp25
 70
     1
102
RTVSPropertyOp26
 70
     1
102
RTVSPropertyOp27
 70
     1
102
RTVSPropertyOp28
 70
     1
102
RTVSPropertyOp29
 70
     1
102
RTVSPropertyOp30
 70
     1
102
RTVSPropertyOp31
 70
     1
102
RTVSPropertyOp32
 70
     1
102
RTVSPropertyOp33
 70
     1
102
RTVSPropertyOp34
 70
     1
102
RTVSPropertyOp35
 70
     1
102
RTVSPropertyOp36
 70
     1
102
RTVSPropertyOp37
 70
     1
102
RTVSPropertyOp38
 70
     1
102
RTVSPropertyOp39
 70
     1
102
RTVSPropertyOp40
 70
     1
102
RTVSPropertyOp41
 70
     1
102
RTVSPropertyOp42
 70
     1
102
RTVSPropertyOp43
 70
     1
102
RTVSPropertyOp44
 70
     1
102
RTVSPropertyOp45
 70
     1
102
RTVSPropertyOp46
 70
     1
102
RTVSPropertyOp47
 70
     1
102
RTVSPropertyOp48
 70
     1
102
RTVSPropertyOp49
 70
     1
102
RTVSPropertyOp50
 70
     1
102
RTVSPropertyOp51
 70
     0
102
RTVSPropertyOp52
 70
     0
102
RTVSPropertyOp53
 70
     1
102
RTVSPropertyOp54
 70
     1
102
RTVSPropertyOp55
 70
     1
102
RTVSPropertyOp56
 70
     1
102
RTVSPropertyOp57
 70
     1
102
RTVSPost2010Prop28
280
     0
102
RTVSPost2010PropOp28
 70
     1
102
RTVSPost2010Prop29
280
     1
102
RTVSPost2010PropOp29
 70
     1
102
RTVSPost2010Prop30
280
     1
102
RTVSPost2010PropOp30
 70
     1
102
RTVSPost2010Prop31
280
     0
102
RTVSPost2010PropOp31
 70
     1
102
RTVSPost2010Prop32
280
     0
102
RTVSPost2010PropOp32
 70
     1
102
RTVSPost2010Prop33
280
     0
102
RTVSPost2010PropOp33
 70
     1
102
RTVSPost2010Prop34
280
     0
102
RTVSPost2010PropOp34
 70
     1
102
RTVSPost2010Prop35
280
     0
102
RTVSPost2010PropOp35
 70
     1
102
RTVSPost2010Prop36
280
     0
102
RTVSPost2010PropOp36
 70
     1
102
RTVSPost2010Prop37
 90
       50
102
RTVSPost2010PropOp37
 70
     1
102
RTVSPost2010Prop38
140
0.0
102
RTVSPost2010PropOp38
 70
     1
102
RTVSPost2010Prop39
140
1.0
102
RTVSPost2010PropOp39
 70
     1
102
RTVSPost2010Prop40
 90
        0
102
RTVSPost2010PropOp40
 70
     1
102
RTVSPost2010Prop41ColorIndex
 90
       18
102
RTVSPost2010Prop41ColorRGB
 90
        0
102
RTVSPost2010PropOp41
 70
     1
102
RTVSPost2010Prop42
 90
       50
102
RTVSPost2010PropOp42
 70
     1
102
RTVSPost2010Prop43
 90
        3
102
RTVSPost2010PropOp43
 70
     1
102
RTVSPost2010Prop44ColorIndex
 90
        5
102
RTVSPost2010Prop44ColorRGB
 90
      255
102
RTVSPost2010PropOp44
 70
     1
102
RTVSPost2010Prop45
280
     0
102
RTVSPost2010PropOp45
 70
     1
102
RTVSPost2010Prop46
 90
       50
102
RTVSPost2010PropOp46
 70
     1
102
RTVSPost2010Prop47
 90
       50
102
RTVSPost2010PropOp47
 70
     1
102
RTVSPost2010Prop48
 90
       50
102
RTVSPost2010PropOp48
 70
     1
102
RTVSPost2010Prop49
280
     0
102
RTVSPost2010PropOp49
 70
     1
102
RTVSPost2010Prop50
 90
       50
102
RTVSPost2010PropOp50
 70
     1
102
RTVSPost2010Prop51ColorIndex
 90
      256
102
RTVSPost2010Prop51ColorRGB
 90
-16777216
102
RTVSPost2010PropOp51
 70
     0
102
RTVSPost2010Prop52
140
1.0
102
RTVSPost2010PropOp52
 70
     0
102
RTVSPost2010Prop53
 90
        2
102
RTVSPost2010PropOp53
 70
     1
102
RTVSPost2010Prop54
  1
strokes_ogs.tif
102
RTVSPost2010PropOp54
 70
     1
102
RTVSPost2010Prop55
280
     0
102
RTVSPost2010PropOp55
 70
     1
102
RTVSPost2010Prop56
140
1.0
102
RTVSPost2010PropOp56
 70
     1
102
RTVSPost2010Prop57
140
1.0
102
RTVSPost2010PropOp57
 70
     1
  0
XRECORD
  5
423
102
{ACAD_REACTORS
330
422
102
}
330
422
100
AcDbXrecord
280
     1
102
RTVSPropertyOp0
 70
     1
102
RTVSPropertyOp1
 70
     1
102
RTVSPropertyOp2
 70
     1
102
RTVSPropertyOp3
 70
     1
102
RTVSPropertyOp4
 70
     1
102
RTVSPropertyOp5
 70
     1
102
RTVSPropertyOp6
 70
     1
102
RTVSPropertyOp7
 70
     1
102
RTVSPropertyOp8
 70
     1
102
RTVSPropertyOp9
 70
     1
102
RTVSPropertyOp10
 70
     1
102
RTVSPropertyOp11
 70
     1
102
RTVSPropertyOp12
 70
     1
102
RTVSPropertyOp13
 70
     1
102
RTVSPropertyOp14
 70
     1
102
RTVSPropertyOp15
 70
     1
102
RTVSPropertyOp16
 70
     1
102
RTVSPropertyOp17
 70
     1
102
RTVSPropertyOp18
 70
     1
102
RTVSPropertyOp19
 70
     1
102
RTVSPropertyOp20
 70
     1
102
RTVSPropertyOp21
 70
     1
102
RTVSPropertyOp22
 70
     1
102
RTVSPropertyOp23
 70
     1
102
RTVSPropertyOp24
 70
     1
102
RTVSPropertyOp25
 70
     1
102
RTVSPropertyOp26
 70
     1
102
RTVSPropertyOp27
 70
     1
102
RTVSPropertyOp28
 70
     1
102
RTVSPropertyOp29
 70
     1
102
RTVSPropertyOp30
 70
     1
102
RTVSPropertyOp31
 70
     1
102
RTVSPropertyOp32
 70
     1
102
RTVSPropertyOp33
 70
     1
102
RTVSPropertyOp34
 70
     1
102
RTVSPropertyOp35
 70
     1
102
RTVSPropertyOp36
 70
     1
102
RTVSPropertyOp37
 70
     1
102
RTVSPropertyOp38
 70
     1
102
RTVSPropertyOp39
 70
     1
102
RTVSPropertyOp40
 70
     1
102
RTVSPropertyOp41
 70
     1
102
RTVSPropertyOp42
 70
     1
102
RTVSPropertyOp43
 70
     1
102
RTVSPropertyOp44
 70
     1
102
RTVSPropertyOp45
 70
     1
102
RTVSPropertyOp46
 70
     1
102
RTVSPropertyOp47
 70
     1
102
RTVSPropertyOp48
 70
     1
102
RTVSPropertyOp49
 70
     1
102
RTVSPropertyOp50
 70
     1
102
RTVSPropertyOp51
 70
     0
102
RTVSPropertyOp52
 70
     0
102
RTVSPropertyOp53
 70
     1
102
RTVSPropertyOp54
 70
     1
102
RTVSPropertyOp55
 70
     1
102
RTVSPropertyOp56
 70
     1
102
RTVSPropertyOp57
 70
     1
102
RTVSPost2010Prop28
280
     0
102
RTVSPost2010PropOp28
 70
     1
102
RTVSPost2010Prop29
280
     1
102
RTVSPost2010PropOp29
 70
     1
102
RTVSPost2010Prop30
280
     1
102
RTVSPost2010PropOp30
 70
     1
102
RTVSPost2010Prop31
280
     0
102
RTVSPost2010PropOp31
 70
     1
102
RTVSPost2010Prop32
280
     0
102
RTVSPost2010PropOp32
 70
     1
102
RTVSPost2010Prop33
280
     0
102
RTVSPost2010PropOp33
 70
     1
102
RTVSPost2010Prop34
280
     0
102
RTVSPost2010PropOp34
 70
     1
102
RTVSPost2010Prop35
280
     0
102
RTVSPost2010PropOp35
 70
     1
102
RTVSPost2010Prop36
280
     0
102
RTVSPost2010PropOp36
 70
     1
102
RTVSPost2010Prop37
 90
       50
102
RTVSPost2010PropOp37
 70
     1
102
RTVSPost2010Prop38
140
0.0
102
RTVSPost2010PropOp38
 70
     1
102
RTVSPost2010Prop39
140
1.0
102
RTVSPost2010PropOp39
 70
     1
102
RTVSPost2010Prop40
 90
        0
102
RTVSPost2010PropOp40
 70
     1
102
RTVSPost2010Prop41ColorIndex
 90
       18
102
RTVSPost2010Prop41ColorRGB
 90
        0
102
RTVSPost2010PropOp41
 70
     1
102
RTVSPost2010Prop42
 90
       50
102
RTVSPost2010PropOp42
 70
     1
102
RTVSPost2010Prop43
 90
        3
102
RTVSPost2010PropOp43
 70
     1
102
RTVSPost2010Prop44ColorIndex
 90
        5
102
RTVSPost2010Prop44ColorRGB
 90
      255
102
RTVSPost2010PropOp44
 70
     1
102
RTVSPost2010Prop45
280
     0
102
RTVSPost2010PropOp45
 70
     1
102
RTVSPost2010Prop46
 90
       50
102
RTVSPost2010PropOp46
 70
     1
102
RTVSPost2010Prop47
 90
       50
102
RTVSPost2010PropOp47
 70
     1
102
RTVSPost2010Prop48
 90
       50
102
RTVSPost2010PropOp48
 70
     1
102
RTVSPost2010Prop49
280
     0
102
RTVSPost2010PropOp49
 70
     1
102
RTVSPost2010Prop50
 90
       50
102
RTVSPost2010PropOp50
 70
     1
102
RTVSPost2010Prop51ColorIndex
 90
      256
102
RTVSPost2010Prop51ColorRGB
 90
-16777216
102
RTVSPost2010PropOp51
 70
     0
102
RTVSPost2010Prop52
140
1.0
102
RTVSPost2010PropOp52
 70
     0
102
RTVSPost2010Prop53
 90
        2
102
RTVSPost2010PropOp53
 70
     1
102
RTVSPost2010Prop54
  1
strokes_ogs.tif
102
RTVSPost2010PropOp54
 70
     1
102
RTVSPost2010Prop55
280
     0
102
RTVSPost2010PropOp55
 70
     1
102
RTVSPost2010Prop56
140
1.0
102
RTVSPost2010PropOp56
 70
     1
102
RTVSPost2010Prop57
140
1.0
102
RTVSPost2010PropOp57
 70
     1
  0
XRECORD
  5
417
102
{ACAD_REACTORS
330
416
102
}
330
416
100
AcDbXrecord
280
     1
102
RTVSPropertyOp0
 70
     1
102
RTVSPropertyOp1
 70
     1
102
RTVSPropertyOp2
 70
     1
102
RTVSPropertyOp3
 70
     1
102
RTVSPropertyOp4
 70
     1
102
RTVSPropertyOp5
 70
     1
102
RTVSPropertyOp6
 70
     1
102
RTVSPropertyOp7
 70
     1
102
RTVSPropertyOp8
 70
     1
102
RTVSPropertyOp9
 70
     1
102
RTVSPropertyOp10
 70
     1
102
RTVSPropertyOp11
 70
     1
102
RTVSPropertyOp12
 70
     1
102
RTVSPropertyOp13
 70
     1
102
RTVSPropertyOp14
 70
     1
102
RTVSPropertyOp15
 70
     1
102
RTVSPropertyOp16
 70
     1
102
RTVSPropertyOp17
 70
     1
102
RTVSPropertyOp18
 70
     1
102
RTVSPropertyOp19
 70
     1
102
RTVSPropertyOp20
 70
     1
102
RTVSPropertyOp21
 70
     1
102
RTVSPropertyOp22
 70
     1
102
RTVSPropertyOp23
 70
     1
102
RTVSPropertyOp24
 70
     1
102
RTVSPropertyOp25
 70
     1
102
RTVSPropertyOp26
 70
     1
102
RTVSPropertyOp27
 70
     1
102
RTVSPropertyOp28
 70
     1
102
RTVSPropertyOp29
 70
     1
102
RTVSPropertyOp30
 70
     1
102
RTVSPropertyOp31
 70
     1
102
RTVSPropertyOp32
 70
     1
102
RTVSPropertyOp33
 70
     1
102
RTVSPropertyOp34
 70
     1
102
RTVSPropertyOp35
 70
     1
102
RTVSPropertyOp36
 70
     1
102
RTVSPropertyOp37
 70
     1
102
RTVSPropertyOp38
 70
     1
102
RTVSPropertyOp39
 70
     1
102
RTVSPropertyOp40
 70
     1
102
RTVSPropertyOp41
 70
     1
102
RTVSPropertyOp42
 70
     1
102
RTVSPropertyOp43
 70
     1
102
RTVSPropertyOp44
 70
     1
102
RTVSPropertyOp45
 70
     1
102
RTVSPropertyOp46
 70
     1
102
RTVSPropertyOp47
 70
     1
102
RTVSPropertyOp48
 70
     1
102
RTVSPropertyOp49
 70
     1
102
RTVSPropertyOp50
 70
     1
102
RTVSPropertyOp51
 70
     0
102
RTVSPropertyOp52
 70
     0
102
RTVSPropertyOp53
 70
     1
102
RTVSPropertyOp54
 70
     1
102
RTVSPropertyOp55
 70
     1
102
RTVSPropertyOp56
 70
     1
102
RTVSPropertyOp57
 70
     1
102
RTVSPost2010Prop28
280
     0
102
RTVSPost2010PropOp28
 70
     1
102
RTVSPost2010Prop29
280
     1
102
RTVSPost2010PropOp29
 70
     1
102
RTVSPost2010Prop30
280
     1
102
RTVSPost2010PropOp30
 70
     1
102
RTVSPost2010Prop31
280
     0
102
RTVSPost2010PropOp31
 70
     1
102
RTVSPost2010Prop32
280
     0
102
RTVSPost2010PropOp32
 70
     1
102
RTVSPost2010Prop33
280
     0
102
RTVSPost2010PropOp33
 70
     1
102
RTVSPost2010Prop34
280
     0
102
RTVSPost2010PropOp34
 70
     1
102
RTVSPost2010Prop35
280
     0
102
RTVSPost2010PropOp35
 70
     1
102
RTVSPost2010Prop36
280
     0
102
RTVSPost2010PropOp36
 70
     1
102
RTVSPost2010Prop37
 90
       50
102
RTVSPost2010PropOp37
 70
     1
102
RTVSPost2010Prop38
140
0.0
102
RTVSPost2010PropOp38
 70
     1
102
RTVSPost2010Prop39
140
1.0
102
RTVSPost2010PropOp39
 70
     1
102
RTVSPost2010Prop40
 90
        0
102
RTVSPost2010PropOp40
 70
     1
102
RTVSPost2010Prop41ColorIndex
 90
       18
102
RTVSPost2010Prop41ColorRGB
 90
        0
102
RTVSPost2010PropOp41
 70
     1
102
RTVSPost2010Prop42
 90
       50
102
RTVSPost2010PropOp42
 70
     1
102
RTVSPost2010Prop43
 90
        3
102
RTVSPost2010PropOp43
 70
     1
102
RTVSPost2010Prop44ColorIndex
 90
        5
102
RTVSPost2010Prop44ColorRGB
 90
      255
102
RTVSPost2010PropOp44
 70
     1
102
RTVSPost2010Prop45
280
     0
102
RTVSPost2010PropOp45
 70
     1
102
RTVSPost2010Prop46
 90
       50
102
RTVSPost2010PropOp46
 70
     1
102
RTVSPost2010Prop47
 90
       50
102
RTVSPost2010PropOp47
 70
     1
102
RTVSPost2010Prop48
 90
       50
102
RTVSPost2010PropOp48
 70
     1
102
RTVSPost2010Prop49
280
     0
102
RTVSPost2010PropOp49
 70
     1
102
RTVSPost2010Prop50
 90
       50
102
RTVSPost2010PropOp50
 70
     1
102
RTVSPost2010Prop51ColorIndex
 90
      256
102
RTVSPost2010Prop51ColorRGB
 90
-16777216
102
RTVSPost2010PropOp51
 70
     0
102
RTVSPost2010Prop52
140
1.0
102
RTVSPost2010PropOp52
 70
     0
102
RTVSPost2010Prop53
 90
        2
102
RTVSPost2010PropOp53
 70
     1
102
RTVSPost2010Prop54
  1
strokes_ogs.tif
102
RTVSPost2010PropOp54
 70
     1
102
RTVSPost2010Prop55
280
     0
102
RTVSPost2010PropOp55
 70
     1
102
RTVSPost2010Prop56
140
1.0
102
RTVSPost2010PropOp56
 70
     1
102
RTVSPost2010Prop57
140
1.0
102
RTVSPost2010PropOp57
 70
     1
  0
XRECORD
  5
419
102
{ACAD_REACTORS
330
418
102
}
330
418
100
AcDbXrecord
280
     1
102
RTVSPropertyOp0
 70
     1
102
RTVSPropertyOp1
 70
     1
102
RTVSPropertyOp2
 70
     1
102
RTVSPropertyOp3
 70
     1
102
RTVSPropertyOp4
 70
     1
102
RTVSPropertyOp5
 70
     1
102
RTVSPropertyOp6
 70
     1
102
RTVSPropertyOp7
 70
     1
102
RTVSPropertyOp8
 70
     1
102
RTVSPropertyOp9
 70
     1
102
RTVSPropertyOp10
 70
     1
102
RTVSPropertyOp11
 70
     1
102
RTVSPropertyOp12
 70
     1
102
RTVSPropertyOp13
 70
     1
102
RTVSPropertyOp14
 70
     1
102
RTVSPropertyOp15
 70
     1
102
RTVSPropertyOp16
 70
     1
102
RTVSPropertyOp17
 70
     1
102
RTVSPropertyOp18
 70
     1
102
RTVSPropertyOp19
 70
     1
102
RTVSPropertyOp20
 70
     1
102
RTVSPropertyOp21
 70
     1
102
RTVSPropertyOp22
 70
     1
102
RTVSPropertyOp23
 70
     1
102
RTVSPropertyOp24
 70
     1
102
RTVSPropertyOp25
 70
     1
102
RTVSPropertyOp26
 70
     1
102
RTVSPropertyOp27
 70
     1
102
RTVSPropertyOp28
 70
     1
102
RTVSPropertyOp29
 70
     1
102
RTVSPropertyOp30
 70
     1
102
RTVSPropertyOp31
 70
     1
102
RTVSPropertyOp32
 70
     1
102
RTVSPropertyOp33
 70
     1
102
RTVSPropertyOp34
 70
     1
102
RTVSPropertyOp35
 70
     1
102
RTVSPropertyOp36
 70
     1
102
RTVSPropertyOp37
 70
     1
102
RTVSPropertyOp38
 70
     1
102
RTVSPropertyOp39
 70
     1
102
RTVSPropertyOp40
 70
     1
102
RTVSPropertyOp41
 70
     1
102
RTVSPropertyOp42
 70
     1
102
RTVSPropertyOp43
 70
     1
102
RTVSPropertyOp44
 70
     1
102
RTVSPropertyOp45
 70
     1
102
RTVSPropertyOp46
 70
     1
102
RTVSPropertyOp47
 70
     1
102
RTVSPropertyOp48
 70
     1
102
RTVSPropertyOp49
 70
     1
102
RTVSPropertyOp50
 70
     1
102
RTVSPropertyOp51
 70
     0
102
RTVSPropertyOp52
 70
     0
102
RTVSPropertyOp53
 70
     1
102
RTVSPropertyOp54
 70
     1
102
RTVSPropertyOp55
 70
     1
102
RTVSPropertyOp56
 70
     1
102
RTVSPropertyOp57
 70
     1
102
RTVSPost2010Prop28
280
     0
102
RTVSPost2010PropOp28
 70
     1
102
RTVSPost2010Prop29
280
     1
102
RTVSPost2010PropOp29
 70
     1
102
RTVSPost2010Prop30
280
     1
102
RTVSPost2010PropOp30
 70
     1
102
RTVSPost2010Prop31
280
     0
102
RTVSPost2010PropOp31
 70
     1
102
RTVSPost2010Prop32
280
     0
102
RTVSPost2010PropOp32
 70
     1
102
RTVSPost2010Prop33
280
     0
102
RTVSPost2010PropOp33
 70
     1
102
RTVSPost2010Prop34
280
     0
102
RTVSPost2010PropOp34
 70
     1
102
RTVSPost2010Prop35
280
     0
102
RTVSPost2010PropOp35
 70
     1
102
RTVSPost2010Prop36
280
     0
102
RTVSPost2010PropOp36
 70
     1
102
RTVSPost2010Prop37
 90
       50
102
RTVSPost2010PropOp37
 70
     1
102
RTVSPost2010Prop38
140
0.0
102
RTVSPost2010PropOp38
 70
     1
102
RTVSPost2010Prop39
140
1.0
102
RTVSPost2010PropOp39
 70
     1
102
RTVSPost2010Prop40
 90
        0
102
RTVSPost2010PropOp40
 70
     1
102
RTVSPost2010Prop41ColorIndex
 90
       18
102
RTVSPost2010Prop41ColorRGB
 90
        0
102
RTVSPost2010PropOp41
 70
     1
102
RTVSPost2010Prop42
 90
       50
102
RTVSPost2010PropOp42
 70
     1
102
RTVSPost2010Prop43
 90
        3
102
RTVSPost2010PropOp43
 70
     1
102
RTVSPost2010Prop44ColorIndex
 90
        5
102
RTVSPost2010Prop44ColorRGB
 90
      255
102
RTVSPost2010PropOp44
 70
     1
102
RTVSPost2010Prop45
280
     0
102
RTVSPost2010PropOp45
 70
     1
102
RTVSPost2010Prop46
 90
       50
102
RTVSPost2010PropOp46
 70
     1
102
RTVSPost2010Prop47
 90
       50
102
RTVSPost2010PropOp47
 70
     1
102
RTVSPost2010Prop48
 90
       50
102
RTVSPost2010PropOp48
 70
     1
102
RTVSPost2010Prop49
280
     0
102
RTVSPost2010PropOp49
 70
     1
102
RTVSPost2010Prop50
 90
       50
102
RTVSPost2010PropOp50
 70
     1
102
RTVSPost2010Prop51ColorIndex
 90
      256
102
RTVSPost2010Prop51ColorRGB
 90
-16777216
102
RTVSPost2010PropOp51
 70
     0
102
RTVSPost2010Prop52
140
1.0
102
RTVSPost2010PropOp52
 70
     0
102
RTVSPost2010Prop53
 90
        2
102
RTVSPost2010PropOp53
 70
     1
102
RTVSPost2010Prop54
  1
strokes_ogs.tif
102
RTVSPost2010PropOp54
 70
     1
102
RTVSPost2010Prop55
280
     0
102
RTVSPost2010PropOp55
 70
     1
102
RTVSPost2010Prop56
140
1.0
102
RTVSPost2010PropOp56
 70
     1
102
RTVSPost2010Prop57
140
1.0
102
RTVSPost2010PropOp57
 70
     1
  0
XRECORD
  5
429
102
{ACAD_REACTORS
330
428
102
}
330
428
100
AcDbXrecord
280
     1
102
RTVSPropertyOp0
 70
     0
102
RTVSPropertyOp1
 70
     0
102
RTVSPropertyOp2
 70
     0
102
RTVSPropertyOp3
 70
     0
102
RTVSPropertyOp4
 70
     0
102
RTVSPropertyOp5
 70
     0
102
RTVSPropertyOp6
 70
     0
102
RTVSPropertyOp7
 70
     0
102
RTVSPropertyOp8
 70
     0
102
RTVSPropertyOp9
 70
     0
102
RTVSPropertyOp10
 70
     0
102
RTVSPropertyOp11
 70
     0
102
RTVSPropertyOp12
 70
     0
102
RTVSPropertyOp13
 70
     0
102
RTVSPropertyOp14
 70
     2
102
RTVSPropertyOp15
 70
     0
102
RTVSPropertyOp16
 70
     0
102
RTVSPropertyOp17
 70
     0
102
RTVSPropertyOp18
 70
     0
102
RTVSPropertyOp19
 70
     0
102
RTVSPropertyOp20
 70
     0
102
RTVSPropertyOp21
 70
     0
102
RTVSPropertyOp22
 70
     0
102
RTVSPropertyOp23
 70
     0
102
RTVSPropertyOp24
 70
     0
102
RTVSPropertyOp25
 70
     0
102
RTVSPropertyOp26
 70
     0
102
RTVSPropertyOp27
 70
     0
102
RTVSPropertyOp28
 70
     0
102
RTVSPropertyOp29
 70
     0
102
RTVSPropertyOp30
 70
     0
102
RTVSPropertyOp31
 70
     0
102
RTVSPropertyOp32
 70
     0
102
RTVSPropertyOp33
 70
     0
102
RTVSPropertyOp34
 70
     0
102
RTVSPropertyOp35
 70
     0
102
RTVSPropertyOp36
 70
     0
102
RTVSPropertyOp37
 70
     0
102
RTVSPropertyOp38
 70
     0
102
RTVSPropertyOp39
 70
     0
102
RTVSPropertyOp40
 70
     0
102
RTVSPropertyOp41
 70
     0
102
RTVSPropertyOp42
 70
     0
102
RTVSPropertyOp43
 70
     0
102
RTVSPropertyOp44
 70
     0
102
RTVSPropertyOp45
 70
     0
102
RTVSPropertyOp46
 70
     0
102
RTVSPropertyOp47
 70
     0
102
RTVSPropertyOp48
 70
     0
102
RTVSPropertyOp49
 70
     0
102
RTVSPropertyOp50
 70
     0
102
RTVSPropertyOp51
 70
     0
102
RTVSPropertyOp52
 70
     0
102
RTVSPropertyOp53
 70
     0
102
RTVSPropertyOp54
 70
     0
102
RTVSPropertyOp55
 70
     0
102
RTVSPropertyOp56
 70
     0
102
RTVSPropertyOp57
 70
     0
102
RTVSPost2010Prop28
280
     0
102
RTVSPost2010PropOp28
 70
     0
102
RTVSPost2010Prop29
280
     1
102
RTVSPost2010PropOp29
 70
     0
102
RTVSPost2010Prop30
280
     1
102
RTVSPost2010PropOp30
 70
     0
102
RTVSPost2010Prop31
280
     0
102
RTVSPost2010PropOp31
 70
     0
102
RTVSPost2010Prop32
280
     0
102
RTVSPost2010PropOp32
 70
     0
102
RTVSPost2010Prop33
280
     0
102
RTVSPost2010PropOp33
 70
     0
102
RTVSPost2010Prop34
280
     0
102
RTVSPost2010PropOp34
 70
     0
102
RTVSPost2010Prop35
280
     0
102
RTVSPost2010PropOp35
 70
     0
102
RTVSPost2010Prop36
280
     0
102
RTVSPost2010PropOp36
 70
     0
102
RTVSPost2010Prop37
 90
       50
102
RTVSPost2010PropOp37
 70
     0
102
RTVSPost2010Prop38
140
0.0
102
RTVSPost2010PropOp38
 70
     0
102
RTVSPost2010Prop39
140
1.0
102
RTVSPost2010PropOp39
 70
     0
102
RTVSPost2010Prop40
 90
        0
102
RTVSPost2010PropOp40
 70
     0
102
RTVSPost2010Prop41ColorIndex
 90
       18
102
RTVSPost2010Prop41ColorRGB
 90
        0
102
RTVSPost2010PropOp41
 70
     0
102
RTVSPost2010Prop42
 90
       50
102
RTVSPost2010PropOp42
 70
     0
102
RTVSPost2010Prop43
 90
        3
102
RTVSPost2010PropOp43
 70
     0
102
RTVSPost2010Prop44ColorIndex
 90
        5
102
RTVSPost2010Prop44ColorRGB
 90
      255
102
RTVSPost2010PropOp44
 70
     0
102
RTVSPost2010Prop45
280
     0
102
RTVSPost2010PropOp45
 70
     0
102
RTVSPost2010Prop46
 90
       50
102
RTVSPost2010PropOp46
 70
     0
102
RTVSPost2010Prop47
 90
       50
102
RTVSPost2010PropOp47
 70
     0
102
RTVSPost2010Prop48
 90
       50
102
RTVSPost2010PropOp48
 70
     0
102
RTVSPost2010Prop49
280
     0
102
RTVSPost2010PropOp49
 70
     0
102
RTVSPost2010Prop50
 90
       50
102
RTVSPost2010PropOp50
 70
     0
102
RTVSPost2010Prop51ColorIndex
 90
      256
102
RTVSPost2010Prop51ColorRGB
 90
-16777216
102
RTVSPost2010PropOp51
 70
     0
102
RTVSPost2010Prop52
140
1.0
102
RTVSPost2010PropOp52
 70
     0
102
RTVSPost2010Prop53
 90
        2
102
RTVSPost2010PropOp53
 70
     0
102
RTVSPost2010Prop54
  1
strokes_ogs.tif
102
RTVSPost2010PropOp54
 70
     0
102
RTVSPost2010Prop55
280
     0
102
RTVSPost2010PropOp55
 70
     0
102
RTVSPost2010Prop56
140
1.0
102
RTVSPost2010PropOp56
 70
     0
102
RTVSPost2010Prop57
140
1.0
102
RTVSPost2010PropOp57
 70
     0
  0
XRECORD
  5
421
102
{ACAD_REACTORS
330
420
102
}
330
420
100
AcDbXrecord
280
     1
102
RTVSPropertyOp0
 70
     1
102
RTVSPropertyOp1
 70
     1
102
RTVSPropertyOp2
 70
     1
102
RTVSPropertyOp3
 70
     1
102
RTVSPropertyOp4
 70
     1
102
RTVSPropertyOp5
 70
     1
102
RTVSPropertyOp6
 70
     1
102
RTVSPropertyOp7
 70
     1
102
RTVSPropertyOp8
 70
     1
102
RTVSPropertyOp9
 70
     1
102
RTVSPropertyOp10
 70
     1
102
RTVSPropertyOp11
 70
     1
102
RTVSPropertyOp12
 70
     1
102
RTVSPropertyOp13
 70
     1
102
RTVSPropertyOp14
 70
     1
102
RTVSPropertyOp15
 70
     1
102
RTVSPropertyOp16
 70
     1
102
RTVSPropertyOp17
 70
     1
102
RTVSPropertyOp18
 70
     1
102
RTVSPropertyOp19
 70
     1
102
RTVSPropertyOp20
 70
     1
102
RTVSPropertyOp21
 70
     1
102
RTVSPropertyOp22
 70
     1
102
RTVSPropertyOp23
 70
     1
102
RTVSPropertyOp24
 70
     1
102
RTVSPropertyOp25
 70
     1
102
RTVSPropertyOp26
 70
     1
102
RTVSPropertyOp27
 70
     1
102
RTVSPropertyOp28
 70
     1
102
RTVSPropertyOp29
 70
     1
102
RTVSPropertyOp30
 70
     1
102
RTVSPropertyOp31
 70
     1
102
RTVSPropertyOp32
 70
     1
102
RTVSPropertyOp33
 70
     1
102
RTVSPropertyOp34
 70
     1
102
RTVSPropertyOp35
 70
     1
102
RTVSPropertyOp36
 70
     1
102
RTVSPropertyOp37
 70
     1
102
RTVSPropertyOp38
 70
     1
102
RTVSPropertyOp39
 70
     1
102
RTVSPropertyOp40
 70
     1
102
RTVSPropertyOp41
 70
     1
102
RTVSPropertyOp42
 70
     1
102
RTVSPropertyOp43
 70
     1
102
RTVSPropertyOp44
 70
     1
102
RTVSPropertyOp45
 70
     1
102
RTVSPropertyOp46
 70
     1
102
RTVSPropertyOp47
 70
     1
102
RTVSPropertyOp48
 70
     1
102
RTVSPropertyOp49
 70
     1
102
RTVSPropertyOp50
 70
     1
102
RTVSPropertyOp51
 70
     0
102
RTVSPropertyOp52
 70
     0
102
RTVSPropertyOp53
 70
     1
102
RTVSPropertyOp54
 70
     1
102
RTVSPropertyOp55
 70
     1
102
RTVSPropertyOp56
 70
     1
102
RTVSPropertyOp57
 70
     1
102
RTVSPost2010Prop28
280
     0
102
RTVSPost2010PropOp28
 70
     1
102
RTVSPost2010Prop29
280
     1
102
RTVSPost2010PropOp29
 70
     1
102
RTVSPost2010Prop30
280
     1
102
RTVSPost2010PropOp30
 70
     1
102
RTVSPost2010Prop31
280
     0
102
RTVSPost2010PropOp31
 70
     1
102
RTVSPost2010Prop32
280
     0
102
RTVSPost2010PropOp32
 70
     1
102
RTVSPost2010Prop33
280
     0
102
RTVSPost2010PropOp33
 70
     1
102
RTVSPost2010Prop34
280
     0
102
RTVSPost2010PropOp34
 70
     1
102
RTVSPost2010Prop35
280
     0
102
RTVSPost2010PropOp35
 70
     1
102
RTVSPost2010Prop36
280
     0
102
RTVSPost2010PropOp36
 70
     1
102
RTVSPost2010Prop37
 90
       50
102
RTVSPost2010PropOp37
 70
     1
102
RTVSPost2010Prop38
140
0.0
102
RTVSPost2010PropOp38
 70
     1
102
RTVSPost2010Prop39
140
1.0
102
RTVSPost2010PropOp39
 70
     1
102
RTVSPost2010Prop40
 90
        0
102
RTVSPost2010PropOp40
 70
     1
102
RTVSPost2010Prop41ColorIndex
 90
       18
102
RTVSPost2010Prop41ColorRGB
 90
        0
102
RTVSPost2010PropOp41
 70
     1
102
RTVSPost2010Prop42
 90
       50
102
RTVSPost2010PropOp42
 70
     1
102
RTVSPost2010Prop43
 90
        3
102
RTVSPost2010PropOp43
 70
     1
102
RTVSPost2010Prop44ColorIndex
 90
        5
102
RTVSPost2010Prop44ColorRGB
 90
      255
102
RTVSPost2010PropOp44
 70
     1
102
RTVSPost2010Prop45
280
     0
102
RTVSPost2010PropOp45
 70
     1
102
RTVSPost2010Prop46
 90
       50
102
RTVSPost2010PropOp46
 70
     1
102
RTVSPost2010Prop47
 90
       50
102
RTVSPost2010PropOp47
 70
     1
102
RTVSPost2010Prop48
 90
       50
102
RTVSPost2010PropOp48
 70
     1
102
RTVSPost2010Prop49
280
     0
102
RTVSPost2010PropOp49
 70
     1
102
RTVSPost2010Prop50
 90
       50
102
RTVSPost2010PropOp50
 70
     1
102
RTVSPost2010Prop51ColorIndex
 90
      256
102
RTVSPost2010Prop51ColorRGB
 90
-16777216
102
RTVSPost2010PropOp51
 70
     0
102
RTVSPost2010Prop52
140
1.0
102
RTVSPost2010PropOp52
 70
     0
102
RTVSPost2010Prop53
 90
        2
102
RTVSPost2010PropOp53
 70
     1
102
RTVSPost2010Prop54
  1
strokes_ogs.tif
102
RTVSPost2010PropOp54
 70
     1
102
RTVSPost2010Prop55
280
     0
102
RTVSPost2010PropOp55
 70
     1
102
RTVSPost2010Prop56
140
1.0
102
RTVSPost2010PropOp56
 70
     1
102
RTVSPost2010Prop57
140
1.0
102
RTVSPost2010PropOp57
 70
     1
  0
XRECORD
  5
405
102
{ACAD_REACTORS
330
404
102
}
330
404
100
AcDbXrecord
280
     1
102
RTVSPropertyOp0
 70
     1
102
RTVSPropertyOp1
 70
     1
102
RTVSPropertyOp2
 70
     1
102
RTVSPropertyOp3
 70
     1
102
RTVSPropertyOp4
 70
     1
102
RTVSPropertyOp5
 70
     1
102
RTVSPropertyOp6
 70
     1
102
RTVSPropertyOp7
 70
     1
102
RTVSPropertyOp8
 70
     1
102
RTVSPropertyOp9
 70
     1
102
RTVSPropertyOp10
 70
     1
102
RTVSPropertyOp11
 70
     1
102
RTVSPropertyOp12
 70
     1
102
RTVSPropertyOp13
 70
     1
102
RTVSPropertyOp14
 70
     1
102
RTVSPropertyOp15
 70
     1
102
RTVSPropertyOp16
 70
     1
102
RTVSPropertyOp17
 70
     1
102
RTVSPropertyOp18
 70
     1
102
RTVSPropertyOp19
 70
     1
102
RTVSPropertyOp20
 70
     1
102
RTVSPropertyOp21
 70
     1
102
RTVSPropertyOp22
 70
     1
102
RTVSPropertyOp23
 70
     1
102
RTVSPropertyOp24
 70
     1
102
RTVSPropertyOp25
 70
     1
102
RTVSPropertyOp26
 70
     1
102
RTVSPropertyOp27
 70
     1
102
RTVSPropertyOp28
 70
     1
102
RTVSPropertyOp29
 70
     1
102
RTVSPropertyOp30
 70
     1
102
RTVSPropertyOp31
 70
     1
102
RTVSPropertyOp32
 70
     1
102
RTVSPropertyOp33
 70
     1
102
RTVSPropertyOp34
 70
     1
102
RTVSPropertyOp35
 70
     1
102
RTVSPropertyOp36
 70
     1
102
RTVSPropertyOp37
 70
     1
102
RTVSPropertyOp38
 70
     1
102
RTVSPropertyOp39
 70
     1
102
RTVSPropertyOp40
 70
     1
102
RTVSPropertyOp41
 70
     1
102
RTVSPropertyOp42
 70
     1
102
RTVSPropertyOp43
 70
     1
102
RTVSPropertyOp44
 70
     1
102
RTVSPropertyOp45
 70
     1
102
RTVSPropertyOp46
 70
     1
102
RTVSPropertyOp47
 70
     1
102
RTVSPropertyOp48
 70
     1
102
RTVSPropertyOp49
 70
     1
102
RTVSPropertyOp50
 70
     1
102
RTVSPropertyOp51
 70
     0
102
RTVSPropertyOp52
 70
     0
102
RTVSPropertyOp53
 70
     1
102
RTVSPropertyOp54
 70
     1
102
RTVSPropertyOp55
 70
     1
102
RTVSPropertyOp56
 70
     1
102
RTVSPropertyOp57
 70
     1
102
RTVSPost2010Prop28
280
     0
102
RTVSPost2010PropOp28
 70
     1
102
RTVSPost2010Prop29
280
     1
102
RTVSPost2010PropOp29
 70
     1
102
RTVSPost2010Prop30
280
     1
102
RTVSPost2010PropOp30
 70
     1
102
RTVSPost2010Prop31
280
     0
102
RTVSPost2010PropOp31
 70
     1
102
RTVSPost2010Prop32
280
     0
102
RTVSPost2010PropOp32
 70
     1
102
RTVSPost2010Prop33
280
     0
102
RTVSPost2010PropOp33
 70
     1
102
RTVSPost2010Prop34
280
     0
102
RTVSPost2010PropOp34
 70
     1
102
RTVSPost2010Prop35
280
     0
102
RTVSPost2010PropOp35
 70
     1
102
RTVSPost2010Prop36
280
     0
102
RTVSPost2010PropOp36
 70
     1
102
RTVSPost2010Prop37
 90
       50
102
RTVSPost2010PropOp37
 70
     1
102
RTVSPost2010Prop38
140
0.0
102
RTVSPost2010PropOp38
 70
     1
102
RTVSPost2010Prop39
140
1.0
102
RTVSPost2010PropOp39
 70
     1
102
RTVSPost2010Prop40
 90
        0
102
RTVSPost2010PropOp40
 70
     1
102
RTVSPost2010Prop41ColorIndex
 90
       18
102
RTVSPost2010Prop41ColorRGB
 90
        0
102
RTVSPost2010PropOp41
 70
     1
102
RTVSPost2010Prop42
 90
       50
102
RTVSPost2010PropOp42
 70
     1
102
RTVSPost2010Prop43
 90
        3
102
RTVSPost2010PropOp43
 70
     1
102
RTVSPost2010Prop44ColorIndex
 90
        5
102
RTVSPost2010Prop44ColorRGB
 90
      255
102
RTVSPost2010PropOp44
 70
     1
102
RTVSPost2010Prop45
280
     0
102
RTVSPost2010PropOp45
 70
     1
102
RTVSPost2010Prop46
 90
       50
102
RTVSPost2010PropOp46
 70
     1
102
RTVSPost2010Prop47
 90
       50
102
RTVSPost2010PropOp47
 70
     1
102
RTVSPost2010Prop48
 90
       50
102
RTVSPost2010PropOp48
 70
     1
102
RTVSPost2010Prop49
280
     0
102
RTVSPost2010PropOp49
 70
     1
102
RTVSPost2010Prop50
 90
       50
102
RTVSPost2010PropOp50
 70
     1
102
RTVSPost2010Prop51ColorIndex
 90
      256
102
RTVSPost2010Prop51ColorRGB
 90
-16777216
102
RTVSPost2010PropOp51
 70
     0
102
RTVSPost2010Prop52
140
1.0
102
RTVSPost2010PropOp52
 70
     0
102
RTVSPost2010Prop53
 90
        2
102
RTVSPost2010PropOp53
 70
     1
102
RTVSPost2010Prop54
  1
strokes_ogs.tif
102
RTVSPost2010PropOp54
 70
     1
102
RTVSPost2010Prop55
280
     0
102
RTVSPost2010PropOp55
 70
     1
102
RTVSPost2010Prop56
140
1.0
102
RTVSPost2010PropOp56
 70
     1
102
RTVSPost2010Prop57
140
1.0
102
RTVSPost2010PropOp57
 70
     1
  0
XRECORD
  5
407
102
{ACAD_REACTORS
330
406
102
}
330
406
100
AcDbXrecord
280
     1
102
RTVSPropertyOp0
 70
     1
102
RTVSPropertyOp1
 70
     1
102
RTVSPropertyOp2
 70
     1
102
RTVSPropertyOp3
 70
     1
102
RTVSPropertyOp4
 70
     1
102
RTVSPropertyOp5
 70
     1
102
RTVSPropertyOp6
 70
     1
102
RTVSPropertyOp7
 70
     1
102
RTVSPropertyOp8
 70
     1
102
RTVSPropertyOp9
 70
     1
102
RTVSPropertyOp10
 70
     1
102
RTVSPropertyOp11
 70
     1
102
RTVSPropertyOp12
 70
     1
102
RTVSPropertyOp13
 70
     1
102
RTVSPropertyOp14
 70
     1
102
RTVSPropertyOp15
 70
     1
102
RTVSPropertyOp16
 70
     1
102
RTVSPropertyOp17
 70
     1
102
RTVSPropertyOp18
 70
     1
102
RTVSPropertyOp19
 70
     1
102
RTVSPropertyOp20
 70
     1
102
RTVSPropertyOp21
 70
     1
102
RTVSPropertyOp22
 70
     1
102
RTVSPropertyOp23
 70
     1
102
RTVSPropertyOp24
 70
     1
102
RTVSPropertyOp25
 70
     1
102
RTVSPropertyOp26
 70
     1
102
RTVSPropertyOp27
 70
     1
102
RTVSPropertyOp28
 70
     1
102
RTVSPropertyOp29
 70
     1
102
RTVSPropertyOp30
 70
     1
102
RTVSPropertyOp31
 70
     1
102
RTVSPropertyOp32
 70
     1
102
RTVSPropertyOp33
 70
     1
102
RTVSPropertyOp34
 70
     1
102
RTVSPropertyOp35
 70
     1
102
RTVSPropertyOp36
 70
     1
102
RTVSPropertyOp37
 70
     1
102
RTVSPropertyOp38
 70
     1
102
RTVSPropertyOp39
 70
     1
102
RTVSPropertyOp40
 70
     1
102
RTVSPropertyOp41
 70
     1
102
RTVSPropertyOp42
 70
     1
102
RTVSPropertyOp43
 70
     1
102
RTVSPropertyOp44
 70
     1
102
RTVSPropertyOp45
 70
     1
102
RTVSPropertyOp46
 70
     1
102
RTVSPropertyOp47
 70
     1
102
RTVSPropertyOp48
 70
     1
102
RTVSPropertyOp49
 70
     1
102
RTVSPropertyOp50
 70
     1
102
RTVSPropertyOp51
 70
     0
102
RTVSPropertyOp52
 70
     0
102
RTVSPropertyOp53
 70
     1
102
RTVSPropertyOp54
 70
     1
102
RTVSPropertyOp55
 70
     1
102
RTVSPropertyOp56
 70
     1
102
RTVSPropertyOp57
 70
     1
102
RTVSPost2010Prop28
280
     0
102
RTVSPost2010PropOp28
 70
     1
102
RTVSPost2010Prop29
280
     1
102
RTVSPost2010PropOp29
 70
     1
102
RTVSPost2010Prop30
280
     1
102
RTVSPost2010PropOp30
 70
     1
102
RTVSPost2010Prop31
280
     0
102
RTVSPost2010PropOp31
 70
     1
102
RTVSPost2010Prop32
280
     0
102
RTVSPost2010PropOp32
 70
     1
102
RTVSPost2010Prop33
280
     0
102
RTVSPost2010PropOp33
 70
     1
102
RTVSPost2010Prop34
280
     0
102
RTVSPost2010PropOp34
 70
     1
102
RTVSPost2010Prop35
280
     0
102
RTVSPost2010PropOp35
 70
     1
102
RTVSPost2010Prop36
280
     0
102
RTVSPost2010PropOp36
 70
     1
102
RTVSPost2010Prop37
 90
       50
102
RTVSPost2010PropOp37
 70
     1
102
RTVSPost2010Prop38
140
0.0
102
RTVSPost2010PropOp38
 70
     1
102
RTVSPost2010Prop39
140
1.0
102
RTVSPost2010PropOp39
 70
     1
102
RTVSPost2010Prop40
 90
        0
102
RTVSPost2010PropOp40
 70
     1
102
RTVSPost2010Prop41ColorIndex
 90
       18
102
RTVSPost2010Prop41ColorRGB
 90
        0
102
RTVSPost2010PropOp41
 70
     1
102
RTVSPost2010Prop42
 90
       50
102
RTVSPost2010PropOp42
 70
     1
102
RTVSPost2010Prop43
 90
        3
102
RTVSPost2010PropOp43
 70
     1
102
RTVSPost2010Prop44ColorIndex
 90
        5
102
RTVSPost2010Prop44ColorRGB
 90
      255
102
RTVSPost2010PropOp44
 70
     1
102
RTVSPost2010Prop45
280
     0
102
RTVSPost2010PropOp45
 70
     1
102
RTVSPost2010Prop46
 90
       50
102
RTVSPost2010PropOp46
 70
     1
102
RTVSPost2010Prop47
 90
       50
102
RTVSPost2010PropOp47
 70
     1
102
RTVSPost2010Prop48
 90
       50
102
RTVSPost2010PropOp48
 70
     1
102
RTVSPost2010Prop49
280
     0
102
RTVSPost2010PropOp49
 70
     1
102
RTVSPost2010Prop50
 90
       50
102
RTVSPost2010PropOp50
 70
     1
102
RTVSPost2010Prop51ColorIndex
 90
      256
102
RTVSPost2010Prop51ColorRGB
 90
-16777216
102
RTVSPost2010PropOp51
 70
     0
102
RTVSPost2010Prop52
140
1.0
102
RTVSPost2010PropOp52
 70
     0
102
RTVSPost2010Prop53
 90
        2
102
RTVSPost2010PropOp53
 70
     1
102
RTVSPost2010Prop54
  1
strokes_ogs.tif
102
RTVSPost2010PropOp54
 70
     1
102
RTVSPost2010Prop55
280
     0
102
RTVSPost2010PropOp55
 70
     1
102
RTVSPost2010Prop56
140
1.0
102
RTVSPost2010PropOp56
 70
     1
102
RTVSPost2010Prop57
140
1.0
102
RTVSPost2010PropOp57
 70
     1
  0
XRECORD
  5
409
102
{ACAD_REACTORS
330
408
102
}
330
408
100
AcDbXrecord
280
     1
102
RTVSPropertyOp0
 70
     1
102
RTVSPropertyOp1
 70
     1
102
RTVSPropertyOp2
 70
     1
102
RTVSPropertyOp3
 70
     1
102
RTVSPropertyOp4
 70
     1
102
RTVSPropertyOp5
 70
     1
102
RTVSPropertyOp6
 70
     1
102
RTVSPropertyOp7
 70
     1
102
RTVSPropertyOp8
 70
     1
102
RTVSPropertyOp9
 70
     1
102
RTVSPropertyOp10
 70
     1
102
RTVSPropertyOp11
 70
     1
102
RTVSPropertyOp12
 70
     1
102
RTVSPropertyOp13
 70
     1
102
RTVSPropertyOp14
 70
     1
102
RTVSPropertyOp15
 70
     1
102
RTVSPropertyOp16
 70
     1
102
RTVSPropertyOp17
 70
     1
102
RTVSPropertyOp18
 70
     1
102
RTVSPropertyOp19
 70
     1
102
RTVSPropertyOp20
 70
     1
102
RTVSPropertyOp21
 70
     1
102
RTVSPropertyOp22
 70
     1
102
RTVSPropertyOp23
 70
     1
102
RTVSPropertyOp24
 70
     1
102
RTVSPropertyOp25
 70
     1
102
RTVSPropertyOp26
 70
     1
102
RTVSPropertyOp27
 70
     1
102
RTVSPropertyOp28
 70
     1
102
RTVSPropertyOp29
 70
     1
102
RTVSPropertyOp30
 70
     1
102
RTVSPropertyOp31
 70
     1
102
RTVSPropertyOp32
 70
     1
102
RTVSPropertyOp33
 70
     1
102
RTVSPropertyOp34
 70
     1
102
RTVSPropertyOp35
 70
     1
102
RTVSPropertyOp36
 70
     1
102
RTVSPropertyOp37
 70
     1
102
RTVSPropertyOp38
 70
     1
102
RTVSPropertyOp39
 70
     1
102
RTVSPropertyOp40
 70
     1
102
RTVSPropertyOp41
 70
     1
102
RTVSPropertyOp42
 70
     1
102
RTVSPropertyOp43
 70
     1
102
RTVSPropertyOp44
 70
     1
102
RTVSPropertyOp45
 70
     1
102
RTVSPropertyOp46
 70
     1
102
RTVSPropertyOp47
 70
     1
102
RTVSPropertyOp48
 70
     1
102
RTVSPropertyOp49
 70
     1
102
RTVSPropertyOp50
 70
     1
102
RTVSPropertyOp51
 70
     0
102
RTVSPropertyOp52
 70
     0
102
RTVSPropertyOp53
 70
     1
102
RTVSPropertyOp54
 70
     1
102
RTVSPropertyOp55
 70
     1
102
RTVSPropertyOp56
 70
     1
102
RTVSPropertyOp57
 70
     1
102
RTVSPost2010Prop28
280
     0
102
RTVSPost2010PropOp28
 70
     1
102
RTVSPost2010Prop29
280
     1
102
RTVSPost2010PropOp29
 70
     1
102
RTVSPost2010Prop30
280
     1
102
RTVSPost2010PropOp30
 70
     1
102
RTVSPost2010Prop31
280
     0
102
RTVSPost2010PropOp31
 70
     1
102
RTVSPost2010Prop32
280
     0
102
RTVSPost2010PropOp32
 70
     1
102
RTVSPost2010Prop33
280
     0
102
RTVSPost2010PropOp33
 70
     1
102
RTVSPost2010Prop34
280
     0
102
RTVSPost2010PropOp34
 70
     1
102
RTVSPost2010Prop35
280
     0
102
RTVSPost2010PropOp35
 70
     1
102
RTVSPost2010Prop36
280
     0
102
RTVSPost2010PropOp36
 70
     1
102
RTVSPost2010Prop37
 90
       50
102
RTVSPost2010PropOp37
 70
     1
102
RTVSPost2010Prop38
140
0.0
102
RTVSPost2010PropOp38
 70
     1
102
RTVSPost2010Prop39
140
1.0
102
RTVSPost2010PropOp39
 70
     1
102
RTVSPost2010Prop40
 90
        0
102
RTVSPost2010PropOp40
 70
     1
102
RTVSPost2010Prop41ColorIndex
 90
       18
102
RTVSPost2010Prop41ColorRGB
 90
        0
102
RTVSPost2010PropOp41
 70
     1
102
RTVSPost2010Prop42
 90
       50
102
RTVSPost2010PropOp42
 70
     1
102
RTVSPost2010Prop43
 90
        3
102
RTVSPost2010PropOp43
 70
     1
102
RTVSPost2010Prop44ColorIndex
 90
        5
102
RTVSPost2010Prop44ColorRGB
 90
      255
102
RTVSPost2010PropOp44
 70
     1
102
RTVSPost2010Prop45
280
     0
102
RTVSPost2010PropOp45
 70
     1
102
RTVSPost2010Prop46
 90
       50
102
RTVSPost2010PropOp46
 70
     1
102
RTVSPost2010Prop47
 90
       50
102
RTVSPost2010PropOp47
 70
     1
102
RTVSPost2010Prop48
 90
       50
102
RTVSPost2010PropOp48
 70
     1
102
RTVSPost2010Prop49
280
     0
102
RTVSPost2010PropOp49
 70
     1
102
RTVSPost2010Prop50
 90
       50
102
RTVSPost2010PropOp50
 70
     1
102
RTVSPost2010Prop51ColorIndex
 90
      256
102
RTVSPost2010Prop51ColorRGB
 90
-16777216
102
RTVSPost2010PropOp51
 70
     0
102
RTVSPost2010Prop52
140
1.0
102
RTVSPost2010PropOp52
 70
     0
102
RTVSPost2010Prop53
 90
        2
102
RTVSPost2010PropOp53
 70
     1
102
RTVSPost2010Prop54
  1
strokes_ogs.tif
102
RTVSPost2010PropOp54
 70
     1
102
RTVSPost2010Prop55
280
     0
102
RTVSPost2010PropOp55
 70
     1
102
RTVSPost2010Prop56
140
1.0
102
RTVSPost2010PropOp56
 70
     1
102
RTVSPost2010Prop57
140
1.0
102
RTVSPost2010PropOp57
 70
     1
  0
XRECORD
  5
40B
102
{ACAD_REACTORS
330
40A
102
}
330
40A
100
AcDbXrecord
280
     1
102
RTVSPropertyOp0
 70
     1
102
RTVSPropertyOp1
 70
     1
102
RTVSPropertyOp2
 70
     1
102
RTVSPropertyOp3
 70
     1
102
RTVSPropertyOp4
 70
     1
102
RTVSPropertyOp5
 70
     1
102
RTVSPropertyOp6
 70
     1
102
RTVSPropertyOp7
 70
     1
102
RTVSPropertyOp8
 70
     1
102
RTVSPropertyOp9
 70
     1
102
RTVSPropertyOp10
 70
     1
102
RTVSPropertyOp11
 70
     1
102
RTVSPropertyOp12
 70
     1
102
RTVSPropertyOp13
 70
     1
102
RTVSPropertyOp14
 70
     1
102
RTVSPropertyOp15
 70
     1
102
RTVSPropertyOp16
 70
     1
102
RTVSPropertyOp17
 70
     1
102
RTVSPropertyOp18
 70
     1
102
RTVSPropertyOp19
 70
     1
102
RTVSPropertyOp20
 70
     1
102
RTVSPropertyOp21
 70
     1
102
RTVSPropertyOp22
 70
     1
102
RTVSPropertyOp23
 70
     1
102
RTVSPropertyOp24
 70
     1
102
RTVSPropertyOp25
 70
     1
102
RTVSPropertyOp26
 70
     1
102
RTVSPropertyOp27
 70
     1
102
RTVSPropertyOp28
 70
     1
102
RTVSPropertyOp29
 70
     1
102
RTVSPropertyOp30
 70
     1
102
RTVSPropertyOp31
 70
     1
102
RTVSPropertyOp32
 70
     1
102
RTVSPropertyOp33
 70
     1
102
RTVSPropertyOp34
 70
     1
102
RTVSPropertyOp35
 70
     1
102
RTVSPropertyOp36
 70
     1
102
RTVSPropertyOp37
 70
     1
102
RTVSPropertyOp38
 70
     1
102
RTVSPropertyOp39
 70
     1
102
RTVSPropertyOp40
 70
     1
102
RTVSPropertyOp41
 70
     1
102
RTVSPropertyOp42
 70
     1
102
RTVSPropertyOp43
 70
     1
102
RTVSPropertyOp44
 70
     1
102
RTVSPropertyOp45
 70
     1
102
RTVSPropertyOp46
 70
     1
102
RTVSPropertyOp47
 70
     1
102
RTVSPropertyOp48
 70
     1
102
RTVSPropertyOp49
 70
     1
102
RTVSPropertyOp50
 70
     1
102
RTVSPropertyOp51
 70
     0
102
RTVSPropertyOp52
 70
     0
102
RTVSPropertyOp53
 70
     1
102
RTVSPropertyOp54
 70
     1
102
RTVSPropertyOp55
 70
     1
102
RTVSPropertyOp56
 70
     1
102
RTVSPropertyOp57
 70
     1
102
RTVSPost2010Prop28
280
     0
102
RTVSPost2010PropOp28
 70
     1
102
RTVSPost2010Prop29
280
     1
102
RTVSPost2010PropOp29
 70
     1
102
RTVSPost2010Prop30
280
     1
102
RTVSPost2010PropOp30
 70
     1
102
RTVSPost2010Prop31
280
     0
102
RTVSPost2010PropOp31
 70
     1
102
RTVSPost2010Prop32
280
     0
102
RTVSPost2010PropOp32
 70
     1
102
RTVSPost2010Prop33
280
     0
102
RTVSPost2010PropOp33
 70
     1
102
RTVSPost2010Prop34
280
     0
102
RTVSPost2010PropOp34
 70
     1
102
RTVSPost2010Prop35
280
     0
102
RTVSPost2010PropOp35
 70
     1
102
RTVSPost2010Prop36
280
     0
102
RTVSPost2010PropOp36
 70
     1
102
RTVSPost2010Prop37
 90
       50
102
RTVSPost2010PropOp37
 70
     1
102
RTVSPost2010Prop38
140
0.0
102
RTVSPost2010PropOp38
 70
     1
102
RTVSPost2010Prop39
140
1.0
102
RTVSPost2010PropOp39
 70
     1
102
RTVSPost2010Prop40
 90
        0
102
RTVSPost2010PropOp40
 70
     1
102
RTVSPost2010Prop41ColorIndex
 90
       18
102
RTVSPost2010Prop41ColorRGB
 90
        0
102
RTVSPost2010PropOp41
 70
     1
102
RTVSPost2010Prop42
 90
       50
102
RTVSPost2010PropOp42
 70
     1
102
RTVSPost2010Prop43
 90
        3
102
RTVSPost2010PropOp43
 70
     1
102
RTVSPost2010Prop44ColorIndex
 90
        5
102
RTVSPost2010Prop44ColorRGB
 90
      255
102
RTVSPost2010PropOp44
 70
     1
102
RTVSPost2010Prop45
280
     0
102
RTVSPost2010PropOp45
 70
     1
102
RTVSPost2010Prop46
 90
       50
102
RTVSPost2010PropOp46
 70
     1
102
RTVSPost2010Prop47
 90
       50
102
RTVSPost2010PropOp47
 70
     1
102
RTVSPost2010Prop48
 90
       50
102
RTVSPost2010PropOp48
 70
     1
102
RTVSPost2010Prop49
280
     0
102
RTVSPost2010PropOp49
 70
     1
102
RTVSPost2010Prop50
 90
       50
102
RTVSPost2010PropOp50
 70
     1
102
RTVSPost2010Prop51ColorIndex
 90
      256
102
RTVSPost2010Prop51ColorRGB
 90
-16777216
102
RTVSPost2010PropOp51
 70
     0
102
RTVSPost2010Prop52
140
1.0
102
RTVSPost2010PropOp52
 70
     0
102
RTVSPost2010Prop53
 90
        2
102
RTVSPost2010PropOp53
 70
     1
102
RTVSPost2010Prop54
  1
strokes_ogs.tif
102
RTVSPost2010PropOp54
 70
     1
102
RTVSPost2010Prop55
280
     0
102
RTVSPost2010PropOp55
 70
     1
102
RTVSPost2010Prop56
140
1.0
102
RTVSPost2010PropOp56
 70
     1
102
RTVSPost2010Prop57
140
1.0
102
RTVSPost2010PropOp57
 70
     1
  0
XRECORD
  5
411
102
{ACAD_REACTORS
330
410
102
}
330
410
100
AcDbXrecord
280
     1
102
RTVSPropertyOp0
 70
     1
102
RTVSPropertyOp1
 70
     1
102
RTVSPropertyOp2
 70
     1
102
RTVSPropertyOp3
 70
     1
102
RTVSPropertyOp4
 70
     1
102
RTVSPropertyOp5
 70
     1
102
RTVSPropertyOp6
 70
     1
102
RTVSPropertyOp7
 70
     1
102
RTVSPropertyOp8
 70
     1
102
RTVSPropertyOp9
 70
     1
102
RTVSPropertyOp10
 70
     1
102
RTVSPropertyOp11
 70
     1
102
RTVSPropertyOp12
 70
     1
102
RTVSPropertyOp13
 70
     1
102
RTVSPropertyOp14
 70
     1
102
RTVSPropertyOp15
 70
     1
102
RTVSPropertyOp16
 70
     1
102
RTVSPropertyOp17
 70
     1
102
RTVSPropertyOp18
 70
     1
102
RTVSPropertyOp19
 70
     1
102
RTVSPropertyOp20
 70
     1
102
RTVSPropertyOp21
 70
     1
102
RTVSPropertyOp22
 70
     1
102
RTVSPropertyOp23
 70
     1
102
RTVSPropertyOp24
 70
     1
102
RTVSPropertyOp25
 70
     1
102
RTVSPropertyOp26
 70
     1
102
RTVSPropertyOp27
 70
     1
102
RTVSPropertyOp28
 70
     1
102
RTVSPropertyOp29
 70
     1
102
RTVSPropertyOp30
 70
     1
102
RTVSPropertyOp31
 70
     1
102
RTVSPropertyOp32
 70
     1
102
RTVSPropertyOp33
 70
     1
102
RTVSPropertyOp34
 70
     1
102
RTVSPropertyOp35
 70
     1
102
RTVSPropertyOp36
 70
     1
102
RTVSPropertyOp37
 70
     1
102
RTVSPropertyOp38
 70
     1
102
RTVSPropertyOp39
 70
     1
102
RTVSPropertyOp40
 70
     1
102
RTVSPropertyOp41
 70
     1
102
RTVSPropertyOp42
 70
     1
102
RTVSPropertyOp43
 70
     1
102
RTVSPropertyOp44
 70
     1
102
RTVSPropertyOp45
 70
     1
102
RTVSPropertyOp46
 70
     1
102
RTVSPropertyOp47
 70
     1
102
RTVSPropertyOp48
 70
     1
102
RTVSPropertyOp49
 70
     1
102
RTVSPropertyOp50
 70
     1
102
RTVSPropertyOp51
 70
     0
102
RTVSPropertyOp52
 70
     0
102
RTVSPropertyOp53
 70
     1
102
RTVSPropertyOp54
 70
     1
102
RTVSPropertyOp55
 70
     1
102
RTVSPropertyOp56
 70
     1
102
RTVSPropertyOp57
 70
     1
102
RTVSPost2010Prop28
280
     0
102
RTVSPost2010PropOp28
 70
     1
102
RTVSPost2010Prop29
280
     1
102
RTVSPost2010PropOp29
 70
     1
102
RTVSPost2010Prop30
280
     1
102
RTVSPost2010PropOp30
 70
     1
102
RTVSPost2010Prop31
280
     0
102
RTVSPost2010PropOp31
 70
     1
102
RTVSPost2010Prop32
280
     0
102
RTVSPost2010PropOp32
 70
     1
102
RTVSPost2010Prop33
280
     0
102
RTVSPost2010PropOp33
 70
     1
102
RTVSPost2010Prop34
280
     0
102
RTVSPost2010PropOp34
 70
     1
102
RTVSPost2010Prop35
280
     0
102
RTVSPost2010PropOp35
 70
     1
102
RTVSPost2010Prop36
280
     0
102
RTVSPost2010PropOp36
 70
     1
102
RTVSPost2010Prop37
 90
       50
102
RTVSPost2010PropOp37
 70
     1
102
RTVSPost2010Prop38
140
0.0
102
RTVSPost2010PropOp38
 70
     1
102
RTVSPost2010Prop39
140
1.0
102
RTVSPost2010PropOp39
 70
     1
102
RTVSPost2010Prop40
 90
        0
102
RTVSPost2010PropOp40
 70
     1
102
RTVSPost2010Prop41ColorIndex
 90
       18
102
RTVSPost2010Prop41ColorRGB
 90
        0
102
RTVSPost2010PropOp41
 70
     1
102
RTVSPost2010Prop42
 90
       50
102
RTVSPost2010PropOp42
 70
     1
102
RTVSPost2010Prop43
 90
        3
102
RTVSPost2010PropOp43
 70
     1
102
RTVSPost2010Prop44ColorIndex
 90
        5
102
RTVSPost2010Prop44ColorRGB
 90
      255
102
RTVSPost2010PropOp44
 70
     1
102
RTVSPost2010Prop45
280
     0
102
RTVSPost2010PropOp45
 70
     1
102
RTVSPost2010Prop46
 90
       50
102
RTVSPost2010PropOp46
 70
     1
102
RTVSPost2010Prop47
 90
       50
102
RTVSPost2010PropOp47
 70
     1
102
RTVSPost2010Prop48
 90
       50
102
RTVSPost2010PropOp48
 70
     1
102
RTVSPost2010Prop49
280
     0
102
RTVSPost2010PropOp49
 70
     1
102
RTVSPost2010Prop50
 90
       50
102
RTVSPost2010PropOp50
 70
     1
102
RTVSPost2010Prop51ColorIndex
 90
      256
102
RTVSPost2010Prop51ColorRGB
 90
-16777216
102
RTVSPost2010PropOp51
 70
     0
102
RTVSPost2010Prop52
140
1.0
102
RTVSPost2010PropOp52
 70
     0
102
RTVSPost2010Prop53
 90
        2
102
RTVSPost2010PropOp53
 70
     1
102
RTVSPost2010Prop54
  1
strokes_ogs.tif
102
RTVSPost2010PropOp54
 70
     1
102
RTVSPost2010Prop55
280
     0
102
RTVSPost2010PropOp55
 70
     1
102
RTVSPost2010Prop56
140
1.0
102
RTVSPost2010PropOp56
 70
     1
102
RTVSPost2010Prop57
140
1.0
102
RTVSPost2010PropOp57
 70
     1
  0
XRECORD
  5
425
102
{ACAD_REACTORS
330
424
102
}
330
424
100
AcDbXrecord
280
     1
102
RTVSPropertyOp0
 70
     0
102
RTVSPropertyOp1
 70
     0
102
RTVSPropertyOp2
 70
     0
102
RTVSPropertyOp3
 70
     0
102
RTVSPropertyOp4
 70
     0
102
RTVSPropertyOp5
 70
     0
102
RTVSPropertyOp6
 70
     0
102
RTVSPropertyOp7
 70
     0
102
RTVSPropertyOp8
 70
     0
102
RTVSPropertyOp9
 70
     0
102
RTVSPropertyOp10
 70
     0
102
RTVSPropertyOp11
 70
     0
102
RTVSPropertyOp12
 70
     0
102
RTVSPropertyOp13
 70
     0
102
RTVSPropertyOp14
 70
     2
102
RTVSPropertyOp15
 70
     0
102
RTVSPropertyOp16
 70
     0
102
RTVSPropertyOp17
 70
     0
102
RTVSPropertyOp18
 70
     0
102
RTVSPropertyOp19
 70
     0
102
RTVSPropertyOp20
 70
     0
102
RTVSPropertyOp21
 70
     0
102
RTVSPropertyOp22
 70
     0
102
RTVSPropertyOp23
 70
     0
102
RTVSPropertyOp24
 70
     0
102
RTVSPropertyOp25
 70
     0
102
RTVSPropertyOp26
 70
     0
102
RTVSPropertyOp27
 70
     0
102
RTVSPropertyOp28
 70
     0
102
RTVSPropertyOp29
 70
     0
102
RTVSPropertyOp30
 70
     0
102
RTVSPropertyOp31
 70
     0
102
RTVSPropertyOp32
 70
     0
102
RTVSPropertyOp33
 70
     0
102
RTVSPropertyOp34
 70
     0
102
RTVSPropertyOp35
 70
     0
102
RTVSPropertyOp36
 70
     0
102
RTVSPropertyOp37
 70
     0
102
RTVSPropertyOp38
 70
     0
102
RTVSPropertyOp39
 70
     0
102
RTVSPropertyOp40
 70
     0
102
RTVSPropertyOp41
 70
     0
102
RTVSPropertyOp42
 70
     0
102
RTVSPropertyOp43
 70
     0
102
RTVSPropertyOp44
 70
     0
102
RTVSPropertyOp45
 70
     0
102
RTVSPropertyOp46
 70
     0
102
RTVSPropertyOp47
 70
     0
102
RTVSPropertyOp48
 70
     0
102
RTVSPropertyOp49
 70
     0
102
RTVSPropertyOp50
 70
     0
102
RTVSPropertyOp51
 70
     0
102
RTVSPropertyOp52
 70
     0
102
RTVSPropertyOp53
 70
     0
102
RTVSPropertyOp54
 70
     0
102
RTVSPropertyOp55
 70
     0
102
RTVSPropertyOp56
 70
     0
102
RTVSPropertyOp57
 70
     0
102
RTVSPost2010Prop28
280
     0
102
RTVSPost2010PropOp28
 70
     0
102
RTVSPost2010Prop29
280
     1
102
RTVSPost2010PropOp29
 70
     0
102
RTVSPost2010Prop30
280
     1
102
RTVSPost2010PropOp30
 70
     0
102
RTVSPost2010Prop31
280
     0
102
RTVSPost2010PropOp31
 70
     0
102
RTVSPost2010Prop32
280
     0
102
RTVSPost2010PropOp32
 70
     0
102
RTVSPost2010Prop33
280
     0
102
RTVSPost2010PropOp33
 70
     0
102
RTVSPost2010Prop34
280
     0
102
RTVSPost2010PropOp34
 70
     0
102
RTVSPost2010Prop35
280
     0
102
RTVSPost2010PropOp35
 70
     0
102
RTVSPost2010Prop36
280
     0
102
RTVSPost2010PropOp36
 70
     0
102
RTVSPost2010Prop37
 90
       50
102
RTVSPost2010PropOp37
 70
     0
102
RTVSPost2010Prop38
140
0.0
102
RTVSPost2010PropOp38
 70
     0
102
RTVSPost2010Prop39
140
1.0
102
RTVSPost2010PropOp39
 70
     0
102
RTVSPost2010Prop40
 90
        0
102
RTVSPost2010PropOp40
 70
     0
102
RTVSPost2010Prop41ColorIndex
 90
       18
102
RTVSPost2010Prop41ColorRGB
 90
        0
102
RTVSPost2010PropOp41
 70
     0
102
RTVSPost2010Prop42
 90
       50
102
RTVSPost2010PropOp42
 70
     0
102
RTVSPost2010Prop43
 90
        3
102
RTVSPost2010PropOp43
 70
     0
102
RTVSPost2010Prop44ColorIndex
 90
        5
102
RTVSPost2010Prop44ColorRGB
 90
      255
102
RTVSPost2010PropOp44
 70
     0
102
RTVSPost2010Prop45
280
     0
102
RTVSPost2010PropOp45
 70
     0
102
RTVSPost2010Prop46
 90
       50
102
RTVSPost2010PropOp46
 70
     0
102
RTVSPost2010Prop47
 90
       50
102
RTVSPost2010PropOp47
 70
     0
102
RTVSPost2010Prop48
 90
       50
102
RTVSPost2010PropOp48
 70
     0
102
RTVSPost2010Prop49
280
     0
102
RTVSPost2010PropOp49
 70
     0
102
RTVSPost2010Prop50
 90
       50
102
RTVSPost2010PropOp50
 70
     0
102
RTVSPost2010Prop51ColorIndex
 90
      256
102
RTVSPost2010Prop51ColorRGB
 90
-16777216
102
RTVSPost2010PropOp51
 70
     0
102
RTVSPost2010Prop52
140
1.0
102
RTVSPost2010PropOp52
 70
     0
102
RTVSPost2010Prop53
 90
        2
102
RTVSPost2010PropOp53
 70
     0
102
RTVSPost2010Prop54
  1
strokes_ogs.tif
102
RTVSPost2010PropOp54
 70
     0
102
RTVSPost2010Prop55
280
     0
102
RTVSPost2010PropOp55
 70
     0
102
RTVSPost2010Prop56
140
1.0
102
RTVSPost2010PropOp56
 70
     0
102
RTVSPost2010Prop57
140
1.0
102
RTVSPost2010PropOp57
 70
     0
  0
XRECORD
  5
41F
102
{ACAD_REACTORS
330
41E
102
}
330
41E
100
AcDbXrecord
280
     1
102
RTVSPropertyOp0
 70
     1
102
RTVSPropertyOp1
 70
     1
102
RTVSPropertyOp2
 70
     1
102
RTVSPropertyOp3
 70
     1
102
RTVSPropertyOp4
 70
     1
102
RTVSPropertyOp5
 70
     1
102
RTVSPropertyOp6
 70
     1
102
RTVSPropertyOp7
 70
     1
102
RTVSPropertyOp8
 70
     1
102
RTVSPropertyOp9
 70
     1
102
RTVSPropertyOp10
 70
     1
102
RTVSPropertyOp11
 70
     1
102
RTVSPropertyOp12
 70
     1
102
RTVSPropertyOp13
 70
     1
102
RTVSPropertyOp14
 70
     1
102
RTVSPropertyOp15
 70
     1
102
RTVSPropertyOp16
 70
     1
102
RTVSPropertyOp17
 70
     1
102
RTVSPropertyOp18
 70
     1
102
RTVSPropertyOp19
 70
     1
102
RTVSPropertyOp20
 70
     1
102
RTVSPropertyOp21
 70
     1
102
RTVSPropertyOp22
 70
     1
102
RTVSPropertyOp23
 70
     1
102
RTVSPropertyOp24
 70
     1
102
RTVSPropertyOp25
 70
     1
102
RTVSPropertyOp26
 70
     1
102
RTVSPropertyOp27
 70
     1
102
RTVSPropertyOp28
 70
     1
102
RTVSPropertyOp29
 70
     1
102
RTVSPropertyOp30
 70
     1
102
RTVSPropertyOp31
 70
     1
102
RTVSPropertyOp32
 70
     1
102
RTVSPropertyOp33
 70
     1
102
RTVSPropertyOp34
 70
     1
102
RTVSPropertyOp35
 70
     1
102
RTVSPropertyOp36
 70
     1
102
RTVSPropertyOp37
 70
     1
102
RTVSPropertyOp38
 70
     1
102
RTVSPropertyOp39
 70
     1
102
RTVSPropertyOp40
 70
     1
102
RTVSPropertyOp41
 70
     1
102
RTVSPropertyOp42
 70
     1
102
RTVSPropertyOp43
 70
     1
102
RTVSPropertyOp44
 70
     1
102
RTVSPropertyOp45
 70
     1
102
RTVSPropertyOp46
 70
     1
102
RTVSPropertyOp47
 70
     1
102
RTVSPropertyOp48
 70
     1
102
RTVSPropertyOp49
 70
     1
102
RTVSPropertyOp50
 70
     1
102
RTVSPropertyOp51
 70
     0
102
RTVSPropertyOp52
 70
     0
102
RTVSPropertyOp53
 70
     1
102
RTVSPropertyOp54
 70
     1
102
RTVSPropertyOp55
 70
     1
102
RTVSPropertyOp56
 70
     1
102
RTVSPropertyOp57
 70
     1
102
RTVSPost2010Prop28
280
     0
102
RTVSPost2010PropOp28
 70
     1
102
RTVSPost2010Prop29
280
     1
102
RTVSPost2010PropOp29
 70
     1
102
RTVSPost2010Prop30
280
     1
102
RTVSPost2010PropOp30
 70
     1
102
RTVSPost2010Prop31
280
     0
102
RTVSPost2010PropOp31
 70
     1
102
RTVSPost2010Prop32
280
     0
102
RTVSPost2010PropOp32
 70
     1
102
RTVSPost2010Prop33
280
     0
102
RTVSPost2010PropOp33
 70
     1
102
RTVSPost2010Prop34
280
     0
102
RTVSPost2010PropOp34
 70
     1
102
RTVSPost2010Prop35
280
     0
102
RTVSPost2010PropOp35
 70
     1
102
RTVSPost2010Prop36
280
     0
102
RTVSPost2010PropOp36
 70
     1
102
RTVSPost2010Prop37
 90
       50
102
RTVSPost2010PropOp37
 70
     1
102
RTVSPost2010Prop38
140
0.0
102
RTVSPost2010PropOp38
 70
     1
102
RTVSPost2010Prop39
140
1.0
102
RTVSPost2010PropOp39
 70
     1
102
RTVSPost2010Prop40
 90
        0
102
RTVSPost2010PropOp40
 70
     1
102
RTVSPost2010Prop41ColorIndex
 90
       18
102
RTVSPost2010Prop41ColorRGB
 90
        0
102
RTVSPost2010PropOp41
 70
     1
102
RTVSPost2010Prop42
 90
       50
102
RTVSPost2010PropOp42
 70
     1
102
RTVSPost2010Prop43
 90
        3
102
RTVSPost2010PropOp43
 70
     1
102
RTVSPost2010Prop44ColorIndex
 90
        5
102
RTVSPost2010Prop44ColorRGB
 90
      255
102
RTVSPost2010PropOp44
 70
     1
102
RTVSPost2010Prop45
280
     0
102
RTVSPost2010PropOp45
 70
     1
102
RTVSPost2010Prop46
 90
       50
102
RTVSPost2010PropOp46
 70
     1
102
RTVSPost2010Prop47
 90
       50
102
RTVSPost2010PropOp47
 70
     1
102
RTVSPost2010Prop48
 90
       50
102
RTVSPost2010PropOp48
 70
     1
102
RTVSPost2010Prop49
280
     0
102
RTVSPost2010PropOp49
 70
     1
102
RTVSPost2010Prop50
 90
       50
102
RTVSPost2010PropOp50
 70
     1
102
RTVSPost2010Prop51ColorIndex
 90
      256
102
RTVSPost2010Prop51ColorRGB
 90
-16777216
102
RTVSPost2010PropOp51
 70
     0
102
RTVSPost2010Prop52
140
1.0
102
RTVSPost2010PropOp52
 70
     0
102
RTVSPost2010Prop53
 90
        2
102
RTVSPost2010PropOp53
 70
     1
102
RTVSPost2010Prop54
  1
strokes_ogs.tif
102
RTVSPost2010PropOp54
 70
     1
102
RTVSPost2010Prop55
280
     0
102
RTVSPost2010PropOp55
 70
     1
102
RTVSPost2010Prop56
140
1.0
102
RTVSPost2010PropOp56
 70
     1
102
RTVSPost2010Prop57
140
1.0
102
RTVSPost2010PropOp57
 70
     1
  0
XRECORD
  5
427
102
{ACAD_REACTORS
330
426
102
}
330
426
100
AcDbXrecord
280
     1
102
RTVSPropertyOp0
 70
     0
102
RTVSPropertyOp1
 70
     0
102
RTVSPropertyOp2
 70
     0
102
RTVSPropertyOp3
 70
     0
102
RTVSPropertyOp4
 70
     0
102
RTVSPropertyOp5
 70
     0
102
RTVSPropertyOp6
 70
     0
102
RTVSPropertyOp7
 70
     0
102
RTVSPropertyOp8
 70
     0
102
RTVSPropertyOp9
 70
     0
102
RTVSPropertyOp10
 70
     0
102
RTVSPropertyOp11
 70
     0
102
RTVSPropertyOp12
 70
     0
102
RTVSPropertyOp13
 70
     0
102
RTVSPropertyOp14
 70
     2
102
RTVSPropertyOp15
 70
     0
102
RTVSPropertyOp16
 70
     0
102
RTVSPropertyOp17
 70
     0
102
RTVSPropertyOp18
 70
     0
102
RTVSPropertyOp19
 70
     0
102
RTVSPropertyOp20
 70
     0
102
RTVSPropertyOp21
 70
     0
102
RTVSPropertyOp22
 70
     0
102
RTVSPropertyOp23
 70
     0
102
RTVSPropertyOp24
 70
     0
102
RTVSPropertyOp25
 70
     0
102
RTVSPropertyOp26
 70
     0
102
RTVSPropertyOp27
 70
     0
102
RTVSPropertyOp28
 70
     0
102
RTVSPropertyOp29
 70
     0
102
RTVSPropertyOp30
 70
     0
102
RTVSPropertyOp31
 70
     0
102
RTVSPropertyOp32
 70
     0
102
RTVSPropertyOp33
 70
     0
102
RTVSPropertyOp34
 70
     0
102
RTVSPropertyOp35
 70
     0
102
RTVSPropertyOp36
 70
     0
102
RTVSPropertyOp37
 70
     0
102
RTVSPropertyOp38
 70
     0
102
RTVSPropertyOp39
 70
     0
102
RTVSPropertyOp40
 70
     0
102
RTVSPropertyOp41
 70
     0
102
RTVSPropertyOp42
 70
     0
102
RTVSPropertyOp43
 70
     0
102
RTVSPropertyOp44
 70
     0
102
RTVSPropertyOp45
 70
     0
102
RTVSPropertyOp46
 70
     0
102
RTVSPropertyOp47
 70
     0
102
RTVSPropertyOp48
 70
     0
102
RTVSPropertyOp49
 70
     0
102
RTVSPropertyOp50
 70
     0
102
RTVSPropertyOp51
 70
     0
102
RTVSPropertyOp52
 70
     0
102
RTVSPropertyOp53
 70
     0
102
RTVSPropertyOp54
 70
     0
102
RTVSPropertyOp55
 70
     0
102
RTVSPropertyOp56
 70
     0
102
RTVSPropertyOp57
 70
     0
102
RTVSPost2010Prop28
280
     0
102
RTVSPost2010PropOp28
 70
     0
102
RTVSPost2010Prop29
280
     1
102
RTVSPost2010PropOp29
 70
     0
102
RTVSPost2010Prop30
280
     1
102
RTVSPost2010PropOp30
 70
     0
102
RTVSPost2010Prop31
280
     0
102
RTVSPost2010PropOp31
 70
     0
102
RTVSPost2010Prop32
280
     0
102
RTVSPost2010PropOp32
 70
     0
102
RTVSPost2010Prop33
280
     0
102
RTVSPost2010PropOp33
 70
     0
102
RTVSPost2010Prop34
280
     0
102
RTVSPost2010PropOp34
 70
     0
102
RTVSPost2010Prop35
280
     0
102
RTVSPost2010PropOp35
 70
     0
102
RTVSPost2010Prop36
280
     0
102
RTVSPost2010PropOp36
 70
     0
102
RTVSPost2010Prop37
 90
       50
102
RTVSPost2010PropOp37
 70
     0
102
RTVSPost2010Prop38
140
0.0
102
RTVSPost2010PropOp38
 70
     0
102
RTVSPost2010Prop39
140
1.0
102
RTVSPost2010PropOp39
 70
     0
102
RTVSPost2010Prop40
 90
        0
102
RTVSPost2010PropOp40
 70
     0
102
RTVSPost2010Prop41ColorIndex
 90
       18
102
RTVSPost2010Prop41ColorRGB
 90
        0
102
RTVSPost2010PropOp41
 70
     0
102
RTVSPost2010Prop42
 90
       50
102
RTVSPost2010PropOp42
 70
     0
102
RTVSPost2010Prop43
 90
        3
102
RTVSPost2010PropOp43
 70
     0
102
RTVSPost2010Prop44ColorIndex
 90
        5
102
RTVSPost2010Prop44ColorRGB
 90
      255
102
RTVSPost2010PropOp44
 70
     0
102
RTVSPost2010Prop45
280
     0
102
RTVSPost2010PropOp45
 70
     0
102
RTVSPost2010Prop46
 90
       50
102
RTVSPost2010PropOp46
 70
     0
102
RTVSPost2010Prop47
 90
       50
102
RTVSPost2010PropOp47
 70
     0
102
RTVSPost2010Prop48
 90
       50
102
RTVSPost2010PropOp48
 70
     0
102
RTVSPost2010Prop49
280
     0
102
RTVSPost2010PropOp49
 70
     0
102
RTVSPost2010Prop50
 90
       50
102
RTVSPost2010PropOp50
 70
     0
102
RTVSPost2010Prop51ColorIndex
 90
      256
102
RTVSPost2010Prop51ColorRGB
 90
-16777216
102
RTVSPost2010PropOp51
 70
     0
102
RTVSPost2010Prop52
140
1.0
102
RTVSPost2010PropOp52
 70
     0
102
RTVSPost2010Prop53
 90
        2
102
RTVSPost2010PropOp53
 70
     0
102
RTVSPost2010Prop54
  1
strokes_ogs.tif
102
RTVSPost2010PropOp54
 70
     0
102
RTVSPost2010Prop55
280
     0
102
RTVSPost2010PropOp55
 70
     0
102
RTVSPost2010Prop56
140
1.0
102
RTVSPost2010PropOp56
 70
     0
102
RTVSPost2010Prop57
140
1.0
102
RTVSPost2010PropOp57
 70
     0
  0
XRECORD
  5
415
102
{ACAD_REACTORS
330
414
102
}
330
414
100
AcDbXrecord
280
     1
102
RTVSPropertyOp0
 70
     1
102
RTVSPropertyOp1
 70
     1
102
RTVSPropertyOp2
 70
     1
102
RTVSPropertyOp3
 70
     1
102
RTVSPropertyOp4
 70
     1
102
RTVSPropertyOp5
 70
     1
102
RTVSPropertyOp6
 70
     1
102
RTVSPropertyOp7
 70
     1
102
RTVSPropertyOp8
 70
     1
102
RTVSPropertyOp9
 70
     1
102
RTVSPropertyOp10
 70
     1
102
RTVSPropertyOp11
 70
     1
102
RTVSPropertyOp12
 70
     1
102
RTVSPropertyOp13
 70
     1
102
RTVSPropertyOp14
 70
     1
102
RTVSPropertyOp15
 70
     1
102
RTVSPropertyOp16
 70
     1
102
RTVSPropertyOp17
 70
     1
102
RTVSPropertyOp18
 70
     1
102
RTVSPropertyOp19
 70
     1
102
RTVSPropertyOp20
 70
     1
102
RTVSPropertyOp21
 70
     1
102
RTVSPropertyOp22
 70
     1
102
RTVSPropertyOp23
 70
     1
102
RTVSPropertyOp24
 70
     1
102
RTVSPropertyOp25
 70
     1
102
RTVSPropertyOp26
 70
     1
102
RTVSPropertyOp27
 70
     1
102
RTVSPropertyOp28
 70
     1
102
RTVSPropertyOp29
 70
     1
102
RTVSPropertyOp30
 70
     1
102
RTVSPropertyOp31
 70
     1
102
RTVSPropertyOp32
 70
     1
102
RTVSPropertyOp33
 70
     1
102
RTVSPropertyOp34
 70
     1
102
RTVSPropertyOp35
 70
     1
102
RTVSPropertyOp36
 70
     1
102
RTVSPropertyOp37
 70
     1
102
RTVSPropertyOp38
 70
     1
102
RTVSPropertyOp39
 70
     1
102
RTVSPropertyOp40
 70
     1
102
RTVSPropertyOp41
 70
     1
102
RTVSPropertyOp42
 70
     1
102
RTVSPropertyOp43
 70
     1
102
RTVSPropertyOp44
 70
     1
102
RTVSPropertyOp45
 70
     1
102
RTVSPropertyOp46
 70
     1
102
RTVSPropertyOp47
 70
     1
102
RTVSPropertyOp48
 70
     1
102
RTVSPropertyOp49
 70
     1
102
RTVSPropertyOp50
 70
     1
102
RTVSPropertyOp51
 70
     0
102
RTVSPropertyOp52
 70
     0
102
RTVSPropertyOp53
 70
     1
102
RTVSPropertyOp54
 70
     1
102
RTVSPropertyOp55
 70
     1
102
RTVSPropertyOp56
 70
     1
102
RTVSPropertyOp57
 70
     1
102
RTVSPost2010Prop28
280
     0
102
RTVSPost2010PropOp28
 70
     1
102
RTVSPost2010Prop29
280
     1
102
RTVSPost2010PropOp29
 70
     1
102
RTVSPost2010Prop30
280
     1
102
RTVSPost2010PropOp30
 70
     1
102
RTVSPost2010Prop31
280
     0
102
RTVSPost2010PropOp31
 70
     1
102
RTVSPost2010Prop32
280
     0
102
RTVSPost2010PropOp32
 70
     1
102
RTVSPost2010Prop33
280
     0
102
RTVSPost2010PropOp33
 70
     1
102
RTVSPost2010Prop34
280
     0
102
RTVSPost2010PropOp34
 70
     1
102
RTVSPost2010Prop35
280
     0
102
RTVSPost2010PropOp35
 70
     1
102
RTVSPost2010Prop36
280
     0
102
RTVSPost2010PropOp36
 70
     1
102
RTVSPost2010Prop37
 90
       50
102
RTVSPost2010PropOp37
 70
     1
102
RTVSPost2010Prop38
140
0.0
102
RTVSPost2010PropOp38
 70
     1
102
RTVSPost2010Prop39
140
1.0
102
RTVSPost2010PropOp39
 70
     1
102
RTVSPost2010Prop40
 90
        0
102
RTVSPost2010PropOp40
 70
     1
102
RTVSPost2010Prop41ColorIndex
 90
       18
102
RTVSPost2010Prop41ColorRGB
 90
        0
102
RTVSPost2010PropOp41
 70
     1
102
RTVSPost2010Prop42
 90
       50
102
RTVSPost2010PropOp42
 70
     1
102
RTVSPost2010Prop43
 90
        3
102
RTVSPost2010PropOp43
 70
     1
102
RTVSPost2010Prop44ColorIndex
 90
        5
102
RTVSPost2010Prop44ColorRGB
 90
      255
102
RTVSPost2010PropOp44
 70
     1
102
RTVSPost2010Prop45
280
     0
102
RTVSPost2010PropOp45
 70
     1
102
RTVSPost2010Prop46
 90
       50
102
RTVSPost2010PropOp46
 70
     1
102
RTVSPost2010Prop47
 90
       50
102
RTVSPost2010PropOp47
 70
     1
102
RTVSPost2010Prop48
 90
       50
102
RTVSPost2010PropOp48
 70
     1
102
RTVSPost2010Prop49
280
     0
102
RTVSPost2010PropOp49
 70
     1
102
RTVSPost2010Prop50
 90
       50
102
RTVSPost2010PropOp50
 70
     1
102
RTVSPost2010Prop51ColorIndex
 90
      256
102
RTVSPost2010Prop51ColorRGB
 90
-16777216
102
RTVSPost2010PropOp51
 70
     0
102
RTVSPost2010Prop52
140
1.0
102
RTVSPost2010PropOp52
 70
     0
102
RTVSPost2010Prop53
 90
        2
102
RTVSPost2010PropOp53
 70
     1
102
RTVSPost2010Prop54
  1
strokes_ogs.tif
102
RTVSPost2010PropOp54
 70
     1
102
RTVSPost2010Prop55
280
     0
102
RTVSPost2010PropOp55
 70
     1
102
RTVSPost2010Prop56
140
1.0
102
RTVSPost2010PropOp56
 70
     1
102
RTVSPost2010Prop57
140
1.0
102
RTVSPost2010PropOp57
 70
     1
  0
XRECORD
  5
433
102
{ACAD_REACTORS
330
432
102
}
330
432
100
AcDbXrecord
280
     1
102
RTVSPropertyOp0
 70
     1
102
RTVSPropertyOp1
 70
     1
102
RTVSPropertyOp2
 70
     1
102
RTVSPropertyOp3
 70
     1
102
RTVSPropertyOp4
 70
     1
102
RTVSPropertyOp5
 70
     1
102
RTVSPropertyOp6
 70
     1
102
RTVSPropertyOp7
 70
     1
102
RTVSPropertyOp8
 70
     1
102
RTVSPropertyOp9
 70
     1
102
RTVSPropertyOp10
 70
     1
102
RTVSPropertyOp11
 70
     1
102
RTVSPropertyOp12
 70
     1
102
RTVSPropertyOp13
 70
     1
102
RTVSPropertyOp14
 70
     1
102
RTVSPropertyOp15
 70
     1
102
RTVSPropertyOp16
 70
     1
102
RTVSPropertyOp17
 70
     1
102
RTVSPropertyOp18
 70
     1
102
RTVSPropertyOp19
 70
     1
102
RTVSPropertyOp20
 70
     1
102
RTVSPropertyOp21
 70
     1
102
RTVSPropertyOp22
 70
     1
102
RTVSPropertyOp23
 70
     1
102
RTVSPropertyOp24
 70
     1
102
RTVSPropertyOp25
 70
     1
102
RTVSPropertyOp26
 70
     1
102
RTVSPropertyOp27
 70
     1
102
RTVSPropertyOp28
 70
     1
102
RTVSPropertyOp29
 70
     1
102
RTVSPropertyOp30
 70
     1
102
RTVSPropertyOp31
 70
     1
102
RTVSPropertyOp32
 70
     1
102
RTVSPropertyOp33
 70
     1
102
RTVSPropertyOp34
 70
     1
102
RTVSPropertyOp35
 70
     1
102
RTVSPropertyOp36
 70
     1
102
RTVSPropertyOp37
 70
     1
102
RTVSPropertyOp38
 70
     1
102
RTVSPropertyOp39
 70
     1
102
RTVSPropertyOp40
 70
     1
102
RTVSPropertyOp41
 70
     1
102
RTVSPropertyOp42
 70
     1
102
RTVSPropertyOp43
 70
     1
102
RTVSPropertyOp44
 70
     1
102
RTVSPropertyOp45
 70
     1
102
RTVSPropertyOp46
 70
     1
102
RTVSPropertyOp47
 70
     1
102
RTVSPropertyOp48
 70
     1
102
RTVSPropertyOp49
 70
     1
102
RTVSPropertyOp50
 70
     1
102
RTVSPropertyOp51
 70
     0
102
RTVSPropertyOp52
 70
     0
102
RTVSPropertyOp53
 70
     1
102
RTVSPropertyOp54
 70
     1
102
RTVSPropertyOp55
 70
     1
102
RTVSPropertyOp56
 70
     1
102
RTVSPropertyOp57
 70
     1
102
RTVSPost2010Prop28
280
     0
102
RTVSPost2010PropOp28
 70
     1
102
RTVSPost2010Prop29
280
     1
102
RTVSPost2010PropOp29
 70
     1
102
RTVSPost2010Prop30
280
     1
102
RTVSPost2010PropOp30
 70
     1
102
RTVSPost2010Prop31
280
     0
102
RTVSPost2010PropOp31
 70
     1
102
RTVSPost2010Prop32
280
     0
102
RTVSPost2010PropOp32
 70
     1
102
RTVSPost2010Prop33
280
     0
102
RTVSPost2010PropOp33
 70
     1
102
RTVSPost2010Prop34
280
     0
102
RTVSPost2010PropOp34
 70
     1
102
RTVSPost2010Prop35
280
     0
102
RTVSPost2010PropOp35
 70
     1
102
RTVSPost2010Prop36
280
     0
102
RTVSPost2010PropOp36
 70
     1
102
RTVSPost2010Prop37
 90
       50
102
RTVSPost2010PropOp37
 70
     1
102
RTVSPost2010Prop38
140
0.0
102
RTVSPost2010PropOp38
 70
     1
102
RTVSPost2010Prop39
140
1.0
102
RTVSPost2010PropOp39
 70
     1
102
RTVSPost2010Prop40
 90
        0
102
RTVSPost2010PropOp40
 70
     1
102
RTVSPost2010Prop41ColorIndex
 90
       18
102
RTVSPost2010Prop41ColorRGB
 90
        0
102
RTVSPost2010PropOp41
 70
     1
102
RTVSPost2010Prop42
 90
       50
102
RTVSPost2010PropOp42
 70
     1
102
RTVSPost2010Prop43
 90
        3
102
RTVSPost2010PropOp43
 70
     1
102
RTVSPost2010Prop44ColorIndex
 90
        5
102
RTVSPost2010Prop44ColorRGB
 90
      255
102
RTVSPost2010PropOp44
 70
     1
102
RTVSPost2010Prop45
280
     0
102
RTVSPost2010PropOp45
 70
     1
102
RTVSPost2010Prop46
 90
       50
102
RTVSPost2010PropOp46
 70
     1
102
RTVSPost2010Prop47
 90
       50
102
RTVSPost2010PropOp47
 70
     1
102
RTVSPost2010Prop48
 90
       50
102
RTVSPost2010PropOp48
 70
     1
102
RTVSPost2010Prop49
280
     0
102
RTVSPost2010PropOp49
 70
     1
102
RTVSPost2010Prop50
 90
       50
102
RTVSPost2010PropOp50
 70
     1
102
RTVSPost2010Prop51ColorIndex
 90
      256
102
RTVSPost2010Prop51ColorRGB
 90
-16777216
102
RTVSPost2010PropOp51
 70
     0
102
RTVSPost2010Prop52
140
1.0
102
RTVSPost2010PropOp52
 70
     0
102
RTVSPost2010Prop53
 90
        2
102
RTVSPost2010PropOp53
 70
     1
102
RTVSPost2010Prop54
  1
strokes_ogs.tif
102
RTVSPost2010PropOp54
 70
     1
102
RTVSPost2010Prop55
280
     0
102
RTVSPost2010PropOp55
 70
     1
102
RTVSPost2010Prop56
140
1.0
102
RTVSPost2010PropOp56
 70
     1
102
RTVSPost2010Prop57
140
1.0
102
RTVSPost2010PropOp57
 70
     1
  0
XRECORD
  5
431
102
{ACAD_REACTORS
330
430
102
}
330
430
100
AcDbXrecord
280
     1
102
RTVSPropertyOp0
 70
     1
102
RTVSPropertyOp1
 70
     1
102
RTVSPropertyOp2
 70
     1
102
RTVSPropertyOp3
 70
     1
102
RTVSPropertyOp4
 70
     1
102
RTVSPropertyOp5
 70
     1
102
RTVSPropertyOp6
 70
     1
102
RTVSPropertyOp7
 70
     1
102
RTVSPropertyOp8
 70
     1
102
RTVSPropertyOp9
 70
     1
102
RTVSPropertyOp10
 70
     1
102
RTVSPropertyOp11
 70
     1
102
RTVSPropertyOp12
 70
     1
102
RTVSPropertyOp13
 70
     1
102
RTVSPropertyOp14
 70
     1
102
RTVSPropertyOp15
 70
     1
102
RTVSPropertyOp16
 70
     1
102
RTVSPropertyOp17
 70
     1
102
RTVSPropertyOp18
 70
     1
102
RTVSPropertyOp19
 70
     1
102
RTVSPropertyOp20
 70
     1
102
RTVSPropertyOp21
 70
     1
102
RTVSPropertyOp22
 70
     1
102
RTVSPropertyOp23
 70
     1
102
RTVSPropertyOp24
 70
     1
102
RTVSPropertyOp25
 70
     1
102
RTVSPropertyOp26
 70
     1
102
RTVSPropertyOp27
 70
     1
102
RTVSPropertyOp28
 70
     1
102
RTVSPropertyOp29
 70
     1
102
RTVSPropertyOp30
 70
     1
102
RTVSPropertyOp31
 70
     1
102
RTVSPropertyOp32
 70
     1
102
RTVSPropertyOp33
 70
     1
102
RTVSPropertyOp34
 70
     1
102
RTVSPropertyOp35
 70
     1
102
RTVSPropertyOp36
 70
     1
102
RTVSPropertyOp37
 70
     1
102
RTVSPropertyOp38
 70
     1
102
RTVSPropertyOp39
 70
     1
102
RTVSPropertyOp40
 70
     1
102
RTVSPropertyOp41
 70
     1
102
RTVSPropertyOp42
 70
     1
102
RTVSPropertyOp43
 70
     1
102
RTVSPropertyOp44
 70
     1
102
RTVSPropertyOp45
 70
     1
102
RTVSPropertyOp46
 70
     1
102
RTVSPropertyOp47
 70
     1
102
RTVSPropertyOp48
 70
     1
102
RTVSPropertyOp49
 70
     1
102
RTVSPropertyOp50
 70
     1
102
RTVSPropertyOp51
 70
     0
102
RTVSPropertyOp52
 70
     0
102
RTVSPropertyOp53
 70
     1
102
RTVSPropertyOp54
 70
     1
102
RTVSPropertyOp55
 70
     1
102
RTVSPropertyOp56
 70
     1
102
RTVSPropertyOp57
 70
     1
102
RTVSPost2010Prop28
280
     0
102
RTVSPost2010PropOp28
 70
     1
102
RTVSPost2010Prop29
280
     1
102
RTVSPost2010PropOp29
 70
     1
102
RTVSPost2010Prop30
280
     1
102
RTVSPost2010PropOp30
 70
     1
102
RTVSPost2010Prop31
280
     0
102
RTVSPost2010PropOp31
 70
     1
102
RTVSPost2010Prop32
280
     0
102
RTVSPost2010PropOp32
 70
     1
102
RTVSPost2010Prop33
280
     0
102
RTVSPost2010PropOp33
 70
     1
102
RTVSPost2010Prop34
280
     0
102
RTVSPost2010PropOp34
 70
     1
102
RTVSPost2010Prop35
280
     0
102
RTVSPost2010PropOp35
 70
     1
102
RTVSPost2010Prop36
280
     0
102
RTVSPost2010PropOp36
 70
     1
102
RTVSPost2010Prop37
 90
       50
102
RTVSPost2010PropOp37
 70
     1
102
RTVSPost2010Prop38
140
0.0
102
RTVSPost2010PropOp38
 70
     1
102
RTVSPost2010Prop39
140
1.0
102
RTVSPost2010PropOp39
 70
     1
102
RTVSPost2010Prop40
 90
        0
102
RTVSPost2010PropOp40
 70
     1
102
RTVSPost2010Prop41ColorIndex
 90
       18
102
RTVSPost2010Prop41ColorRGB
 90
        0
102
RTVSPost2010PropOp41
 70
     1
102
RTVSPost2010Prop42
 90
       50
102
RTVSPost2010PropOp42
 70
     1
102
RTVSPost2010Prop43
 90
        3
102
RTVSPost2010PropOp43
 70
     1
102
RTVSPost2010Prop44ColorIndex
 90
        5
102
RTVSPost2010Prop44ColorRGB
 90
      255
102
RTVSPost2010PropOp44
 70
     1
102
RTVSPost2010Prop45
280
     0
102
RTVSPost2010PropOp45
 70
     1
102
RTVSPost2010Prop46
 90
       50
102
RTVSPost2010PropOp46
 70
     1
102
RTVSPost2010Prop47
 90
       50
102
RTVSPost2010PropOp47
 70
     1
102
RTVSPost2010Prop48
 90
       50
102
RTVSPost2010PropOp48
 70
     1
102
RTVSPost2010Prop49
280
     0
102
RTVSPost2010PropOp49
 70
     1
102
RTVSPost2010Prop50
 90
       50
102
RTVSPost2010PropOp50
 70
     1
102
RTVSPost2010Prop51ColorIndex
 90
      256
102
RTVSPost2010Prop51ColorRGB
 90
-16777216
102
RTVSPost2010PropOp51
 70
     0
102
RTVSPost2010Prop52
140
1.0
102
RTVSPost2010PropOp52
 70
     0
102
RTVSPost2010Prop53
 90
        2
102
RTVSPost2010PropOp53
 70
     1
102
RTVSPost2010Prop54
  1
strokes_ogs.tif
102
RTVSPost2010PropOp54
 70
     1
102
RTVSPost2010Prop55
280
     0
102
RTVSPost2010PropOp55
 70
     1
102
RTVSPost2010Prop56
140
1.0
102
RTVSPost2010PropOp56
 70
     1
102
RTVSPost2010Prop57
140
1.0
102
RTVSPost2010PropOp57
 70
     1
  0
XRECORD
  5
42B
102
{ACAD_REACTORS
330
42A
102
}
330
42A
100
AcDbXrecord
280
     1
102
RTVSPropertyOp0
 70
     1
102
RTVSPropertyOp1
 70
     1
102
RTVSPropertyOp2
 70
     1
102
RTVSPropertyOp3
 70
     1
102
RTVSPropertyOp4
 70
     1
102
RTVSPropertyOp5
 70
     1
102
RTVSPropertyOp6
 70
     1
102
RTVSPropertyOp7
 70
     1
102
RTVSPropertyOp8
 70
     1
102
RTVSPropertyOp9
 70
     1
102
RTVSPropertyOp10
 70
     1
102
RTVSPropertyOp11
 70
     1
102
RTVSPropertyOp12
 70
     1
102
RTVSPropertyOp13
 70
     1
102
RTVSPropertyOp14
 70
     1
102
RTVSPropertyOp15
 70
     1
102
RTVSPropertyOp16
 70
     1
102
RTVSPropertyOp17
 70
     1
102
RTVSPropertyOp18
 70
     1
102
RTVSPropertyOp19
 70
     1
102
RTVSPropertyOp20
 70
     1
102
RTVSPropertyOp21
 70
     1
102
RTVSPropertyOp22
 70
     1
102
RTVSPropertyOp23
 70
     1
102
RTVSPropertyOp24
 70
     1
102
RTVSPropertyOp25
 70
     1
102
RTVSPropertyOp26
 70
     1
102
RTVSPropertyOp27
 70
     1
102
RTVSPropertyOp28
 70
     1
102
RTVSPropertyOp29
 70
     1
102
RTVSPropertyOp30
 70
     1
102
RTVSPropertyOp31
 70
     1
102
RTVSPropertyOp32
 70
     1
102
RTVSPropertyOp33
 70
     1
102
RTVSPropertyOp34
 70
     1
102
RTVSPropertyOp35
 70
     1
102
RTVSPropertyOp36
 70
     1
102
RTVSPropertyOp37
 70
     1
102
RTVSPropertyOp38
 70
     1
102
RTVSPropertyOp39
 70
     1
102
RTVSPropertyOp40
 70
     1
102
RTVSPropertyOp41
 70
     1
102
RTVSPropertyOp42
 70
     1
102
RTVSPropertyOp43
 70
     1
102
RTVSPropertyOp44
 70
     1
102
RTVSPropertyOp45
 70
     1
102
RTVSPropertyOp46
 70
     1
102
RTVSPropertyOp47
 70
     1
102
RTVSPropertyOp48
 70
     1
102
RTVSPropertyOp49
 70
     1
102
RTVSPropertyOp50
 70
     1
102
RTVSPropertyOp51
 70
     0
102
RTVSPropertyOp52
 70
     0
102
RTVSPropertyOp53
 70
     1
102
RTVSPropertyOp54
 70
     1
102
RTVSPropertyOp55
 70
     1
102
RTVSPropertyOp56
 70
     1
102
RTVSPropertyOp57
 70
     1
102
RTVSPost2010Prop28
280
     0
102
RTVSPost2010PropOp28
 70
     1
102
RTVSPost2010Prop29
280
     1
102
RTVSPost2010PropOp29
 70
     1
102
RTVSPost2010Prop30
280
     1
102
RTVSPost2010PropOp30
 70
     1
102
RTVSPost2010Prop31
280
     0
102
RTVSPost2010PropOp31
 70
     1
102
RTVSPost2010Prop32
280
     0
102
RTVSPost2010PropOp32
 70
     1
102
RTVSPost2010Prop33
280
     0
102
RTVSPost2010PropOp33
 70
     1
102
RTVSPost2010Prop34
280
     0
102
RTVSPost2010PropOp34
 70
     1
102
RTVSPost2010Prop35
280
     0
102
RTVSPost2010PropOp35
 70
     1
102
RTVSPost2010Prop36
280
     0
102
RTVSPost2010PropOp36
 70
     1
102
RTVSPost2010Prop37
 90
       50
102
RTVSPost2010PropOp37
 70
     1
102
RTVSPost2010Prop38
140
0.0
102
RTVSPost2010PropOp38
 70
     1
102
RTVSPost2010Prop39
140
1.0
102
RTVSPost2010PropOp39
 70
     1
102
RTVSPost2010Prop40
 90
        0
102
RTVSPost2010PropOp40
 70
     1
102
RTVSPost2010Prop41ColorIndex
 90
       18
102
RTVSPost2010Prop41ColorRGB
 90
        0
102
RTVSPost2010PropOp41
 70
     1
102
RTVSPost2010Prop42
 90
       50
102
RTVSPost2010PropOp42
 70
     1
102
RTVSPost2010Prop43
 90
        3
102
RTVSPost2010PropOp43
 70
     1
102
RTVSPost2010Prop44ColorIndex
 90
        5
102
RTVSPost2010Prop44ColorRGB
 90
      255
102
RTVSPost2010PropOp44
 70
     1
102
RTVSPost2010Prop45
280
     0
102
RTVSPost2010PropOp45
 70
     1
102
RTVSPost2010Prop46
 90
       50
102
RTVSPost2010PropOp46
 70
     1
102
RTVSPost2010Prop47
 90
       50
102
RTVSPost2010PropOp47
 70
     1
102
RTVSPost2010Prop48
 90
       50
102
RTVSPost2010PropOp48
 70
     1
102
RTVSPost2010Prop49
280
     0
102
RTVSPost2010PropOp49
 70
     1
102
RTVSPost2010Prop50
 90
       50
102
RTVSPost2010PropOp50
 70
     1
102
RTVSPost2010Prop51ColorIndex
 90
      256
102
RTVSPost2010Prop51ColorRGB
 90
-16777216
102
RTVSPost2010PropOp51
 70
     0
102
RTVSPost2010Prop52
140
1.0
102
RTVSPost2010PropOp52
 70
     0
102
RTVSPost2010Prop53
 90
        2
102
RTVSPost2010PropOp53
 70
     1
102
RTVSPost2010Prop54
  1
strokes_ogs.tif
102
RTVSPost2010PropOp54
 70
     1
102
RTVSPost2010Prop55
280
     0
102
RTVSPost2010PropOp55
 70
     1
102
RTVSPost2010Prop56
140
1.0
102
RTVSPost2010PropOp56
 70
     1
102
RTVSPost2010Prop57
140
1.0
102
RTVSPost2010PropOp57
 70
     1
  0
XRECORD
  5
42D
102
{ACAD_REACTORS
330
42C
102
}
330
42C
100
AcDbXrecord
280
     1
102
RTVSPropertyOp0
 70
     1
102
RTVSPropertyOp1
 70
     1
102
RTVSPropertyOp2
 70
     1
102
RTVSPropertyOp3
 70
     1
102
RTVSPropertyOp4
 70
     1
102
RTVSPropertyOp5
 70
     1
102
RTVSPropertyOp6
 70
     1
102
RTVSPropertyOp7
 70
     1
102
RTVSPropertyOp8
 70
     1
102
RTVSPropertyOp9
 70
     1
102
RTVSPropertyOp10
 70
     1
102
RTVSPropertyOp11
 70
     1
102
RTVSPropertyOp12
 70
     1
102
RTVSPropertyOp13
 70
     1
102
RTVSPropertyOp14
 70
     1
102
RTVSPropertyOp15
 70
     1
102
RTVSPropertyOp16
 70
     1
102
RTVSPropertyOp17
 70
     1
102
RTVSPropertyOp18
 70
     1
102
RTVSPropertyOp19
 70
     1
102
RTVSPropertyOp20
 70
     1
102
RTVSPropertyOp21
 70
     1
102
RTVSPropertyOp22
 70
     1
102
RTVSPropertyOp23
 70
     1
102
RTVSPropertyOp24
 70
     1
102
RTVSPropertyOp25
 70
     1
102
RTVSPropertyOp26
 70
     1
102
RTVSPropertyOp27
 70
     1
102
RTVSPropertyOp28
 70
     1
102
RTVSPropertyOp29
 70
     1
102
RTVSPropertyOp30
 70
     1
102
RTVSPropertyOp31
 70
     1
102
RTVSPropertyOp32
 70
     1
102
RTVSPropertyOp33
 70
     1
102
RTVSPropertyOp34
 70
     1
102
RTVSPropertyOp35
 70
     1
102
RTVSPropertyOp36
 70
     1
102
RTVSPropertyOp37
 70
     1
102
RTVSPropertyOp38
 70
     1
102
RTVSPropertyOp39
 70
     1
102
RTVSPropertyOp40
 70
     1
102
RTVSPropertyOp41
 70
     1
102
RTVSPropertyOp42
 70
     1
102
RTVSPropertyOp43
 70
     1
102
RTVSPropertyOp44
 70
     1
102
RTVSPropertyOp45
 70
     1
102
RTVSPropertyOp46
 70
     1
102
RTVSPropertyOp47
 70
     1
102
RTVSPropertyOp48
 70
     1
102
RTVSPropertyOp49
 70
     1
102
RTVSPropertyOp50
 70
     1
102
RTVSPropertyOp51
 70
     0
102
RTVSPropertyOp52
 70
     0
102
RTVSPropertyOp53
 70
     1
102
RTVSPropertyOp54
 70
     1
102
RTVSPropertyOp55
 70
     1
102
RTVSPropertyOp56
 70
     1
102
RTVSPropertyOp57
 70
     1
102
RTVSPost2010Prop28
280
     0
102
RTVSPost2010PropOp28
 70
     1
102
RTVSPost2010Prop29
280
     1
102
RTVSPost2010PropOp29
 70
     1
102
RTVSPost2010Prop30
280
     1
102
RTVSPost2010PropOp30
 70
     1
102
RTVSPost2010Prop31
280
     0
102
RTVSPost2010PropOp31
 70
     1
102
RTVSPost2010Prop32
280
     0
102
RTVSPost2010PropOp32
 70
     1
102
RTVSPost2010Prop33
280
     0
102
RTVSPost2010PropOp33
 70
     1
102
RTVSPost2010Prop34
280
     0
102
RTVSPost2010PropOp34
 70
     1
102
RTVSPost2010Prop35
280
     0
102
RTVSPost2010PropOp35
 70
     1
102
RTVSPost2010Prop36
280
     0
102
RTVSPost2010PropOp36
 70
     1
102
RTVSPost2010Prop37
 90
       50
102
RTVSPost2010PropOp37
 70
     1
102
RTVSPost2010Prop38
140
0.0
102
RTVSPost2010PropOp38
 70
     1
102
RTVSPost2010Prop39
140
1.0
102
RTVSPost2010PropOp39
 70
     1
102
RTVSPost2010Prop40
 90
        0
102
RTVSPost2010PropOp40
 70
     1
102
RTVSPost2010Prop41ColorIndex
 90
       18
102
RTVSPost2010Prop41ColorRGB
 90
        0
102
RTVSPost2010PropOp41
 70
     1
102
RTVSPost2010Prop42
 90
       50
102
RTVSPost2010PropOp42
 70
     1
102
RTVSPost2010Prop43
 90
        3
102
RTVSPost2010PropOp43
 70
     1
102
RTVSPost2010Prop44ColorIndex
 90
        5
102
RTVSPost2010Prop44ColorRGB
 90
      255
102
RTVSPost2010PropOp44
 70
     1
102
RTVSPost2010Prop45
280
     0
102
RTVSPost2010PropOp45
 70
     1
102
RTVSPost2010Prop46
 90
       50
102
RTVSPost2010PropOp46
 70
     1
102
RTVSPost2010Prop47
 90
       50
102
RTVSPost2010PropOp47
 70
     1
102
RTVSPost2010Prop48
 90
       50
102
RTVSPost2010PropOp48
 70
     1
102
RTVSPost2010Prop49
280
     0
102
RTVSPost2010PropOp49
 70
     1
102
RTVSPost2010Prop50
 90
       50
102
RTVSPost2010PropOp50
 70
     1
102
RTVSPost2010Prop51ColorIndex
 90
      256
102
RTVSPost2010Prop51ColorRGB
 90
-16777216
102
RTVSPost2010PropOp51
 70
     0
102
RTVSPost2010Prop52
140
1.0
102
RTVSPost2010PropOp52
 70
     0
102
RTVSPost2010Prop53
 90
        2
102
RTVSPost2010PropOp53
 70
     1
102
RTVSPost2010Prop54
  1
strokes_ogs.tif
102
RTVSPost2010PropOp54
 70
     1
102
RTVSPost2010Prop55
280
     0
102
RTVSPost2010PropOp55
 70
     1
102
RTVSPost2010Prop56
140
1.0
102
RTVSPost2010PropOp56
 70
     1
102
RTVSPost2010Prop57
140
1.0
102
RTVSPost2010PropOp57
 70
     1
  0
XRECORD
  5
41D
102
{ACAD_REACTORS
330
41C
102
}
330
41C
100
AcDbXrecord
280
     1
102
RTVSPropertyOp0
 70
     1
102
RTVSPropertyOp1
 70
     1
102
RTVSPropertyOp2
 70
     1
102
RTVSPropertyOp3
 70
     1
102
RTVSPropertyOp4
 70
     1
102
RTVSPropertyOp5
 70
     1
102
RTVSPropertyOp6
 70
     1
102
RTVSPropertyOp7
 70
     1
102
RTVSPropertyOp8
 70
     1
102
RTVSPropertyOp9
 70
     1
102
RTVSPropertyOp10
 70
     1
102
RTVSPropertyOp11
 70
     1
102
RTVSPropertyOp12
 70
     1
102
RTVSPropertyOp13
 70
     1
102
RTVSPropertyOp14
 70
     1
102
RTVSPropertyOp15
 70
     1
102
RTVSPropertyOp16
 70
     1
102
RTVSPropertyOp17
 70
     1
102
RTVSPropertyOp18
 70
     1
102
RTVSPropertyOp19
 70
     1
102
RTVSPropertyOp20
 70
     1
102
RTVSPropertyOp21
 70
     1
102
RTVSPropertyOp22
 70
     1
102
RTVSPropertyOp23
 70
     1
102
RTVSPropertyOp24
 70
     1
102
RTVSPropertyOp25
 70
     1
102
RTVSPropertyOp26
 70
     1
102
RTVSPropertyOp27
 70
     1
102
RTVSPropertyOp28
 70
     1
102
RTVSPropertyOp29
 70
     1
102
RTVSPropertyOp30
 70
     1
102
RTVSPropertyOp31
 70
     1
102
RTVSPropertyOp32
 70
     1
102
RTVSPropertyOp33
 70
     1
102
RTVSPropertyOp34
 70
     1
102
RTVSPropertyOp35
 70
     1
102
RTVSPropertyOp36
 70
     1
102
RTVSPropertyOp37
 70
     1
102
RTVSPropertyOp38
 70
     1
102
RTVSPropertyOp39
 70
     1
102
RTVSPropertyOp40
 70
     1
102
RTVSPropertyOp41
 70
     1
102
RTVSPropertyOp42
 70
     1
102
RTVSPropertyOp43
 70
     1
102
RTVSPropertyOp44
 70
     1
102
RTVSPropertyOp45
 70
     1
102
RTVSPropertyOp46
 70
     1
102
RTVSPropertyOp47
 70
     1
102
RTVSPropertyOp48
 70
     1
102
RTVSPropertyOp49
 70
     1
102
RTVSPropertyOp50
 70
     1
102
RTVSPropertyOp51
 70
     0
102
RTVSPropertyOp52
 70
     0
102
RTVSPropertyOp53
 70
     1
102
RTVSPropertyOp54
 70
     1
102
RTVSPropertyOp55
 70
     1
102
RTVSPropertyOp56
 70
     1
102
RTVSPropertyOp57
 70
     1
102
RTVSPost2010Prop28
280
     0
102
RTVSPost2010PropOp28
 70
     1
102
RTVSPost2010Prop29
280
     1
102
RTVSPost2010PropOp29
 70
     1
102
RTVSPost2010Prop30
280
     1
102
RTVSPost2010PropOp30
 70
     1
102
RTVSPost2010Prop31
280
     0
102
RTVSPost2010PropOp31
 70
     1
102
RTVSPost2010Prop32
280
     0
102
RTVSPost2010PropOp32
 70
     1
102
RTVSPost2010Prop33
280
     0
102
RTVSPost2010PropOp33
 70
     1
102
RTVSPost2010Prop34
280
     0
102
RTVSPost2010PropOp34
 70
     1
102
RTVSPost2010Prop35
280
     0
102
RTVSPost2010PropOp35
 70
     1
102
RTVSPost2010Prop36
280
     0
102
RTVSPost2010PropOp36
 70
     1
102
RTVSPost2010Prop37
 90
       50
102
RTVSPost2010PropOp37
 70
     1
102
RTVSPost2010Prop38
140
0.0
102
RTVSPost2010PropOp38
 70
     1
102
RTVSPost2010Prop39
140
1.0
102
RTVSPost2010PropOp39
 70
     1
102
RTVSPost2010Prop40
 90
        0
102
RTVSPost2010PropOp40
 70
     1
102
RTVSPost2010Prop41ColorIndex
 90
       18
102
RTVSPost2010Prop41ColorRGB
 90
        0
102
RTVSPost2010PropOp41
 70
     1
102
RTVSPost2010Prop42
 90
       50
102
RTVSPost2010PropOp42
 70
     1
102
RTVSPost2010Prop43
 90
        3
102
RTVSPost2010PropOp43
 70
     1
102
RTVSPost2010Prop44ColorIndex
 90
        5
102
RTVSPost2010Prop44ColorRGB
 90
      255
102
RTVSPost2010PropOp44
 70
     1
102
RTVSPost2010Prop45
280
     0
102
RTVSPost2010PropOp45
 70
     1
102
RTVSPost2010Prop46
 90
       50
102
RTVSPost2010PropOp46
 70
     1
102
RTVSPost2010Prop47
 90
       50
102
RTVSPost2010PropOp47
 70
     1
102
RTVSPost2010Prop48
 90
       50
102
RTVSPost2010PropOp48
 70
     1
102
RTVSPost2010Prop49
280
     0
102
RTVSPost2010PropOp49
 70
     1
102
RTVSPost2010Prop50
 90
       50
102
RTVSPost2010PropOp50
 70
     1
102
RTVSPost2010Prop51ColorIndex
 90
      256
102
RTVSPost2010Prop51ColorRGB
 90
-16777216
102
RTVSPost2010PropOp51
 70
     0
102
RTVSPost2010Prop52
140
1.0
102
RTVSPost2010PropOp52
 70
     0
102
RTVSPost2010Prop53
 90
        2
102
RTVSPost2010PropOp53
 70
     1
102
RTVSPost2010Prop54
  1
strokes_ogs.tif
102
RTVSPost2010PropOp54
 70
     1
102
RTVSPost2010Prop55
280
     0
102
RTVSPost2010PropOp55
 70
     1
102
RTVSPost2010Prop56
140
1.0
102
RTVSPost2010PropOp56
 70
     1
102
RTVSPost2010Prop57
140
1.0
102
RTVSPost2010PropOp57
 70
     1
  0
XRECORD
  5
40F
102
{ACAD_REACTORS
330
40E
102
}
330
40E
100
AcDbXrecord
280
     1
102
RTVSPropertyOp0
 70
     1
102
RTVSPropertyOp1
 70
     1
102
RTVSPropertyOp2
 70
     1
102
RTVSPropertyOp3
 70
     1
102
RTVSPropertyOp4
 70
     1
102
RTVSPropertyOp5
 70
     1
102
RTVSPropertyOp6
 70
     1
102
RTVSPropertyOp7
 70
     1
102
RTVSPropertyOp8
 70
     1
102
RTVSPropertyOp9
 70
     1
102
RTVSPropertyOp10
 70
     1
102
RTVSPropertyOp11
 70
     1
102
RTVSPropertyOp12
 70
     1
102
RTVSPropertyOp13
 70
     1
102
RTVSPropertyOp14
 70
     1
102
RTVSPropertyOp15
 70
     1
102
RTVSPropertyOp16
 70
     1
102
RTVSPropertyOp17
 70
     1
102
RTVSPropertyOp18
 70
     1
102
RTVSPropertyOp19
 70
     1
102
RTVSPropertyOp20
 70
     1
102
RTVSPropertyOp21
 70
     1
102
RTVSPropertyOp22
 70
     1
102
RTVSPropertyOp23
 70
     1
102
RTVSPropertyOp24
 70
     1
102
RTVSPropertyOp25
 70
     1
102
RTVSPropertyOp26
 70
     1
102
RTVSPropertyOp27
 70
     1
102
RTVSPropertyOp28
 70
     1
102
RTVSPropertyOp29
 70
     1
102
RTVSPropertyOp30
 70
     1
102
RTVSPropertyOp31
 70
     1
102
RTVSPropertyOp32
 70
     1
102
RTVSPropertyOp33
 70
     1
102
RTVSPropertyOp34
 70
     1
102
RTVSPropertyOp35
 70
     1
102
RTVSPropertyOp36
 70
     1
102
RTVSPropertyOp37
 70
     1
102
RTVSPropertyOp38
 70
     1
102
RTVSPropertyOp39
 70
     1
102
RTVSPropertyOp40
 70
     1
102
RTVSPropertyOp41
 70
     1
102
RTVSPropertyOp42
 70
     1
102
RTVSPropertyOp43
 70
     1
102
RTVSPropertyOp44
 70
     1
102
RTVSPropertyOp45
 70
     1
102
RTVSPropertyOp46
 70
     1
102
RTVSPropertyOp47
 70
     1
102
RTVSPropertyOp48
 70
     1
102
RTVSPropertyOp49
 70
     1
102
RTVSPropertyOp50
 70
     1
102
RTVSPropertyOp51
 70
     0
102
RTVSPropertyOp52
 70
     0
102
RTVSPropertyOp53
 70
     1
102
RTVSPropertyOp54
 70
     1
102
RTVSPropertyOp55
 70
     1
102
RTVSPropertyOp56
 70
     1
102
RTVSPropertyOp57
 70
     1
102
RTVSPost2010Prop28
280
     0
102
RTVSPost2010PropOp28
 70
     1
102
RTVSPost2010Prop29
280
     1
102
RTVSPost2010PropOp29
 70
     1
102
RTVSPost2010Prop30
280
     1
102
RTVSPost2010PropOp30
 70
     1
102
RTVSPost2010Prop31
280
     0
102
RTVSPost2010PropOp31
 70
     1
102
RTVSPost2010Prop32
280
     0
102
RTVSPost2010PropOp32
 70
     1
102
RTVSPost2010Prop33
280
     0
102
RTVSPost2010PropOp33
 70
     1
102
RTVSPost2010Prop34
280
     0
102
RTVSPost2010PropOp34
 70
     1
102
RTVSPost2010Prop35
280
     0
102
RTVSPost2010PropOp35
 70
     1
102
RTVSPost2010Prop36
280
     0
102
RTVSPost2010PropOp36
 70
     1
102
RTVSPost2010Prop37
 90
       50
102
RTVSPost2010PropOp37
 70
     1
102
RTVSPost2010Prop38
140
0.0
102
RTVSPost2010PropOp38
 70
     1
102
RTVSPost2010Prop39
140
1.0
102
RTVSPost2010PropOp39
 70
     1
102
RTVSPost2010Prop40
 90
        0
102
RTVSPost2010PropOp40
 70
     1
102
RTVSPost2010Prop41ColorIndex
 90
       18
102
RTVSPost2010Prop41ColorRGB
 90
        0
102
RTVSPost2010PropOp41
 70
     1
102
RTVSPost2010Prop42
 90
       50
102
RTVSPost2010PropOp42
 70
     1
102
RTVSPost2010Prop43
 90
        3
102
RTVSPost2010PropOp43
 70
     1
102
RTVSPost2010Prop44ColorIndex
 90
        5
102
RTVSPost2010Prop44ColorRGB
 90
      255
102
RTVSPost2010PropOp44
 70
     1
102
RTVSPost2010Prop45
280
     0
102
RTVSPost2010PropOp45
 70
     1
102
RTVSPost2010Prop46
 90
       50
102
RTVSPost2010PropOp46
 70
     1
102
RTVSPost2010Prop47
 90
       50
102
RTVSPost2010PropOp47
 70
     1
102
RTVSPost2010Prop48
 90
       50
102
RTVSPost2010PropOp48
 70
     1
102
RTVSPost2010Prop49
280
     0
102
RTVSPost2010PropOp49
 70
     1
102
RTVSPost2010Prop50
 90
       50
102
RTVSPost2010PropOp50
 70
     1
102
RTVSPost2010Prop51ColorIndex
 90
      256
102
RTVSPost2010Prop51ColorRGB
 90
-16777216
102
RTVSPost2010PropOp51
 70
     0
102
RTVSPost2010Prop52
140
1.0
102
RTVSPost2010PropOp52
 70
     0
102
RTVSPost2010Prop53
 90
        2
102
RTVSPost2010PropOp53
 70
     1
102
RTVSPost2010Prop54
  1
strokes_ogs.tif
102
RTVSPost2010PropOp54
 70
     1
102
RTVSPost2010Prop55
280
     0
102
RTVSPost2010PropOp55
 70
     1
102
RTVSPost2010Prop56
140
1.0
102
RTVSPost2010PropOp56
 70
     1
102
RTVSPost2010Prop57
140
1.0
102
RTVSPost2010PropOp57
 70
     1
  0
XRECORD
  5
42F
102
{ACAD_REACTORS
330
42E
102
}
330
42E
100
AcDbXrecord
280
     1
102
RTVSPropertyOp0
 70
     1
102
RTVSPropertyOp1
 70
     1
102
RTVSPropertyOp2
 70
     1
102
RTVSPropertyOp3
 70
     1
102
RTVSPropertyOp4
 70
     1
102
RTVSPropertyOp5
 70
     1
102
RTVSPropertyOp6
 70
     1
102
RTVSPropertyOp7
 70
     1
102
RTVSPropertyOp8
 70
     1
102
RTVSPropertyOp9
 70
     1
102
RTVSPropertyOp10
 70
     1
102
RTVSPropertyOp11
 70
     1
102
RTVSPropertyOp12
 70
     1
102
RTVSPropertyOp13
 70
     1
102
RTVSPropertyOp14
 70
     1
102
RTVSPropertyOp15
 70
     1
102
RTVSPropertyOp16
 70
     1
102
RTVSPropertyOp17
 70
     1
102
RTVSPropertyOp18
 70
     1
102
RTVSPropertyOp19
 70
     1
102
RTVSPropertyOp20
 70
     1
102
RTVSPropertyOp21
 70
     1
102
RTVSPropertyOp22
 70
     1
102
RTVSPropertyOp23
 70
     1
102
RTVSPropertyOp24
 70
     1
102
RTVSPropertyOp25
 70
     1
102
RTVSPropertyOp26
 70
     1
102
RTVSPropertyOp27
 70
     1
102
RTVSPropertyOp28
 70
     1
102
RTVSPropertyOp29
 70
     1
102
RTVSPropertyOp30
 70
     1
102
RTVSPropertyOp31
 70
     1
102
RTVSPropertyOp32
 70
     1
102
RTVSPropertyOp33
 70
     1
102
RTVSPropertyOp34
 70
     1
102
RTVSPropertyOp35
 70
     1
102
RTVSPropertyOp36
 70
     1
102
RTVSPropertyOp37
 70
     1
102
RTVSPropertyOp38
 70
     1
102
RTVSPropertyOp39
 70
     1
102
RTVSPropertyOp40
 70
     1
102
RTVSPropertyOp41
 70
     1
102
RTVSPropertyOp42
 70
     1
102
RTVSPropertyOp43
 70
     1
102
RTVSPropertyOp44
 70
     1
102
RTVSPropertyOp45
 70
     1
102
RTVSPropertyOp46
 70
     1
102
RTVSPropertyOp47
 70
     1
102
RTVSPropertyOp48
 70
     1
102
RTVSPropertyOp49
 70
     1
102
RTVSPropertyOp50
 70
     1
102
RTVSPropertyOp51
 70
     0
102
RTVSPropertyOp52
 70
     0
102
RTVSPropertyOp53
 70
     1
102
RTVSPropertyOp54
 70
     1
102
RTVSPropertyOp55
 70
     1
102
RTVSPropertyOp56
 70
     1
102
RTVSPropertyOp57
 70
     1
102
RTVSPost2010Prop28
280
     0
102
RTVSPost2010PropOp28
 70
     1
102
RTVSPost2010Prop29
280
     1
102
RTVSPost2010PropOp29
 70
     1
102
RTVSPost2010Prop30
280
     1
102
RTVSPost2010PropOp30
 70
     1
102
RTVSPost2010Prop31
280
     0
102
RTVSPost2010PropOp31
 70
     1
102
RTVSPost2010Prop32
280
     0
102
RTVSPost2010PropOp32
 70
     1
102
RTVSPost2010Prop33
280
     0
102
RTVSPost2010PropOp33
 70
     1
102
RTVSPost2010Prop34
280
     0
102
RTVSPost2010PropOp34
 70
     1
102
RTVSPost2010Prop35
280
     0
102
RTVSPost2010PropOp35
 70
     1
102
RTVSPost2010Prop36
280
     0
102
RTVSPost2010PropOp36
 70
     1
102
RTVSPost2010Prop37
 90
       50
102
RTVSPost2010PropOp37
 70
     1
102
RTVSPost2010Prop38
140
0.0
102
RTVSPost2010PropOp38
 70
     1
102
RTVSPost2010Prop39
140
1.0
102
RTVSPost2010PropOp39
 70
     1
102
RTVSPost2010Prop40
 90
        0
102
RTVSPost2010PropOp40
 70
     1
102
RTVSPost2010Prop41ColorIndex
 90
       18
102
RTVSPost2010Prop41ColorRGB
 90
        0
102
RTVSPost2010PropOp41
 70
     1
102
RTVSPost2010Prop42
 90
       50
102
RTVSPost2010PropOp42
 70
     1
102
RTVSPost2010Prop43
 90
        3
102
RTVSPost2010PropOp43
 70
     1
102
RTVSPost2010Prop44ColorIndex
 90
        5
102
RTVSPost2010Prop44ColorRGB
 90
      255
102
RTVSPost2010PropOp44
 70
     1
102
RTVSPost2010Prop45
280
     0
102
RTVSPost2010PropOp45
 70
     1
102
RTVSPost2010Prop46
 90
       50
102
RTVSPost2010PropOp46
 70
     1
102
RTVSPost2010Prop47
 90
       50
102
RTVSPost2010PropOp47
 70
     1
102
RTVSPost2010Prop48
 90
       50
102
RTVSPost2010PropOp48
 70
     1
102
RTVSPost2010Prop49
280
     0
102
RTVSPost2010PropOp49
 70
     1
102
RTVSPost2010Prop50
 90
       50
102
RTVSPost2010PropOp50
 70
     1
102
RTVSPost2010Prop51ColorIndex
 90
      256
102
RTVSPost2010Prop51ColorRGB
 90
-16777216
102
RTVSPost2010PropOp51
 70
     0
102
RTVSPost2010Prop52
140
1.0
102
RTVSPost2010PropOp52
 70
     0
102
RTVSPost2010Prop53
 90
        2
102
RTVSPost2010PropOp53
 70
     1
102
RTVSPost2010Prop54
  1
strokes_ogs.tif
102
RTVSPost2010PropOp54
 70
     1
102
RTVSPost2010Prop55
280
     0
102
RTVSPost2010PropOp55
 70
     1
102
RTVSPost2010Prop56
140
1.0
102
RTVSPost2010PropOp56
 70
     1
102
RTVSPost2010Prop57
140
1.0
102
RTVSPost2010PropOp57
 70
     1
  0
ENDSEC
  0
EOF
