  0
SECTION
  2
HEADER
  9
$ACADVER
  1
AC1015
  9
$ACADMAINTVER
 70
     6
  9
$DWGCODEPAGE
  3
ANSI_1252
  9
$INSBASE
 10
0.0
 20
0.0
 30
0.0
  9
$EXTMIN
 10
0.0
 20
0.0
 30
0.0
  9
$EXTMAX
 10
210.0
 20
297.0
 30
0.0
  9
$LIMMIN
 10
0.0
 20
0.0
  9
$LIMMAX
 10
210.0
 20
297.0
  9
$ORTHOMODE
 70
     0
  9
$REGENMODE
 70
     1
  9
$FILLMODE
 70
     1
  9
$QTEXTMODE
 70
     0
  9
$MIRRTEXT
 70
     1
  9
$LTSCALE
 40
1.0
  9
$ATTMODE
 70
     1
  9
$TEXTSIZE
 40
2.0
  9
$TRACEWID
 40
1.0
  9
$TEXTSTYLE
  7
Standard
  9
$CLAYER
  8
0
  9
$CELTYPE
  6
ByLayer
  9
$CECOLOR
 62
   256
  9
$CELTSCALE
 40
1.0
  9
$DISPSILH
 70
     0
  9
$DIMSCALE
 40
1.0
  9
$DIMASZ
 40
2.5
  9
$DIMEXO
 40
0.625
  9
$DIMDLI
 40
3.75
  9
$DIMRND
 40
0.0
  9
$DIMDLE
 40
0.0
  9
$DIMEXE
 40
1.25
  9
$DIMTP
 40
0.0
  9
$DIMTM
 40
0.0
  9
$DIMTXT
 40
2.5
  9
$DIMCEN
 40
2.5
  9
$DIMTSZ
 40
0.0
  9
$DIMTOL
 70
     0
  9
$DIMLIM
 70
     0
  9
$DIMTIH
 70
     0
  9
$DIMTOH
 70
     0
  9
$DIMSE1
 70
     0
  9
$DIMSE2
 70
     0
  9
$DIMTAD
 70
     1
  9
$DIMZIN
 70
     8
  9
$DIMBLK
  1

  9
$DIMASO
 70
     1
  9
$DIMSHO
 70
     1
  9
$DIMPOST
  1

  9
$DIMAPOST
  1

  9
$DIMALT
 70
     0
  9
$DIMALTD
 70
     3
  9
$DIMALTF
 40
0.03937007874016
  9
$DIMLFAC
 40
1.0
  9
$DIMTOFL
 70
     1
  9
$DIMTVP
 40
0.0
  9
$DIMTIX
 70
     0
  9
$DIMSOXD
 70
     0
  9
$DIMSAH
 70
     0
  9
$DIMBLK1
  1

  9
$DIMBLK2
  1

  9
$DIMSTYLE
  2
ISO-25
  9
$DIMCLRD
 70
     0
  9
$DIMCLRE
 70
     0
  9
$DIMCLRT
 70
     0
  9
$DIMTFAC
 40
1.0
  9
$DIMGAP
 40
0.625
  9
$DIMJUST
 70
     0
  9
$DIMSD1
 70
     0
  9
$DIMSD2
 70
     0
  9
$DIMTOLJ
 70
     0
  9
$DIMTZIN
 70
     8
  9
$DIMALTZ
 70
     0
  9
$DIMALTTZ
 70
     0
  9
$DIMUPT
 70
     0
  9
$DIMDEC
 70
     2
  9
$DIMTDEC
 70
     2
  9
$DIMALTU
 70
     2
  9
$DIMALTTD
 70
     3
  9
$DIMTXSTY
  7
Standard
  9
$DIMAUNIT
 70
     0
  9
$DIMADEC
 70
     0
  9
$DIMALTRND
 40
0.0
  9
$DIMAZIN
 70
     0
  9
$DIMDSEP
 70
    44
  9
$DIMATFIT
 70
     3
  9
$DIMFRAC
 70
     0
  9
$DIMLDRBLK
  1

  9
$DIMLUNIT
 70
     2
  9
$DIMLWD
 70
    -2
  9
$DIMLWE
 70
    -2
  9
$DIMTMOVE
 70
     0
  9
$LUNITS
 70
     2
  9
$LUPREC
 70
     4
  9
$SKETCHINC
 40
1.0
  9
$FILLETRAD
 40
10.0
  9
$AUNITS
 70
     0
  9
$AUPREC
 70
     0
  9
$MENU
  1
.
  9
$ELEVATION
 40
0.0
  9
$PELEVATION
 40
0.0
  9
$THICKNESS
 40
0.0
  9
$LIMCHECK
 70
     0
  9
$CHAMFERA
 40
0.0
  9
$CHAMFERB
 40
0.0
  9
$CHAMFERC
 40
0.0
  9
$CHAMFERD
 40
0.0
  9
$SKPOLY
 70
     0
  9
$TDCREATE
 40
2459362.483649387
  9
$TDUCREATE
 40
2459362.44198272
  9
$TDUPDATE
 40
2460396.621401678
  9
$TDUUPDATE
 40
2460396.579735012
  9
$TDINDWG
 40
0.0000000116
  9
$TDUSRTIMER
 40
0.0000000116
  9
$USRTIMER
 70
     1
  9
$ANGBASE
 50
0.0
  9
$ANGDIR
 70
     0
  9
$PDMODE
 70
     0
  9
$PDSIZE
 40
0.0
  9
$PLINEWID
 40
0.0
  9
$SPLFRAME
 70
     0
  9
$SPLINETYPE
 70
     6
  9
$SPLINESEGS
 70
     8
  9
$HANDSEED
  5
31C
  9
$SURFTAB1
 70
     6
  9
$SURFTAB2
 70
     6
  9
$SURFTYPE
 70
     6
  9
$SURFU
 70
     6
  9
$SURFV
 70
     6
  9
$UCSBASE
  2

  9
$UCSNAME
  2

  9
$UCSORG
 10
0.0
 20
0.0
 30
0.0
  9
$UCSXDIR
 10
1.0
 20
0.0
 30
0.0
  9
$UCSYDIR
 10
0.0
 20
1.0
 30
0.0
  9
$UCSORTHOREF
  2

  9
$UCSORTHOVIEW
 70
     0
  9
$UCSORGTOP
 10
0.0
 20
0.0
 30
0.0
  9
$UCSORGBOTTOM
 10
0.0
 20
0.0
 30
0.0
  9
$UCSORGLEFT
 10
0.0
 20
0.0
 30
0.0
  9
$UCSORGRIGHT
 10
0.0
 20
0.0
 30
0.0
  9
$UCSORGFRONT
 10
0.0
 20
0.0
 30
0.0
  9
$UCSORGBACK
 10
0.0
 20
0.0
 30
0.0
  9
$PUCSBASE
  2

  9
$PUCSNAME
  2

  9
$PUCSORG
 10
0.0
 20
0.0
 30
0.0
  9
$PUCSXDIR
 10
1.0
 20
0.0
 30
0.0
  9
$PUCSYDIR
 10
0.0
 20
1.0
 30
0.0
  9
$PUCSORTHOREF
  2

  9
$PUCSORTHOVIEW
 70
     0
  9
$PUCSORGTOP
 10
0.0
 20
0.0
 30
0.0
  9
$PUCSORGBOTTOM
 10
0.0
 20
0.0
 30
0.0
  9
$PUCSORGLEFT
 10
0.0
 20
0.0
 30
0.0
  9
$PUCSORGRIGHT
 10
0.0
 20
0.0
 30
0.0
  9
$PUCSORGFRONT
 10
0.0
 20
0.0
 30
0.0
  9
$PUCSORGBACK
 10
0.0
 20
0.0
 30
0.0
  9
$USERI1
 70
     0
  9
$USERI2
 70
     0
  9
$USERI3
 70
     0
  9
$USERI4
 70
     0
  9
$USERI5
 70
     0
  9
$USERR1
 40
0.0
  9
$USERR2
 40
0.0
  9
$USERR3
 40
0.0
  9
$USERR4
 40
0.0
  9
$USERR5
 40
0.0
  9
$WORLDVIEW
 70
     1
  9
$SHADEDGE
 70
     3
  9
$SHADEDIF
 70
    70
  9
$TILEMODE
 70
     1
  9
$MAXACTVP
 70
    64
  9
$PINSBASE
 10
0.0
 20
0.0
 30
0.0
  9
$PLIMCHECK
 70
     0
  9
$PEXTMIN
 10
0.0
 20
0.0
 30
0.0
  9
$PEXTMAX
 10
210.0
 20
297.0
 30
0.0
  9
$PLIMMIN
 10
0.0
 20
0.0
  9
$PLIMMAX
 10
210.0
 20
297.0
  9
$UNITMODE
 70
     0
  9
$VISRETAIN
 70
     1
  9
$PLINEGEN
 70
     0
  9
$PSLTSCALE
 70
     1
  9
$TREEDEPTH
 70
  3020
  9
$CMLSTYLE
  2
Standard
  9
$CMLJUST
 70
     0
  9
$CMLSCALE
 40
20.0
  9
$PROXYGRAPHICS
 70
     1
  9
$MEASUREMENT
 70
     1
  9
$CELWEIGHT
370
    -1
  9
$ENDCAPS
280
     0
  9
$JOINSTYLE
280
     0
  9
$LWDISPLAY
290
     0
  9
$INSUNITS
 70
     4
  9
$HYPERLINKBASE
  1

  9
$STYLESHEET
  1

  9
$XEDIT
290
     1
  9
$CEPSNTYPE
380
     0
  9
$PSTYLEMODE
290
     1
  9
$FINGERPRINTGUID
  2
{27E4AF7A-065C-4CF2-B914-228536FE0A0E}
  9
$VERSIONGUID
  2
{FAEB1C32-E019-11D5-929B-00C0DF256EC4}
  9
$EXTNAMES
290
     1
  9
$PSVPSCALE
 40
0.0
  9
$OLESTARTUP
290
     0
  0
ENDSEC
  0
SECTION
  2
CLASSES
  0
CLASS
  1
ACDBDICTIONARYWDFLT
  2
AcDbDictionaryWithDefault
  3
ObjectDBX Classes
 90
        0
280
     0
281
     0
  0
CLASS
  1
VISUALSTYLE
  2
AcDbVisualStyle
  3
ObjectDBX Classes
 90
     4095
280
     0
281
     0
  0
CLASS
  1
MATERIAL
  2
AcDbMaterial
  3
ObjectDBX Classes
 90
     1153
280
     0
281
     0
  0
CLASS
  1
SCALE
  2
AcDbScale
  3
ObjectDBX Classes
 90
     1153
280
     0
281
     0
  0
CLASS
  1
TABLESTYLE
  2
AcDbTableStyle
  3
ObjectDBX Classes
 90
     4095
280
     0
281
     0
  0
CLASS
  1
MLEADERSTYLE
  2
AcDbMLeaderStyle
  3
ACDB_MLEADERSTYLE_CLASS
 90
     4095
280
     0
281
     0
  0
CLASS
  1
SUN
  2
AcDbSun
  3
SCENEOE
 90
     1153
280
     0
281
     0
  0
CLASS
  1
DICTIONARYVAR
  2
AcDbDictionaryVar
  3
ObjectDBX Classes
 90
        0
280
     0
281
     0
  0
CLASS
  1
CELLSTYLEMAP
  2
AcDbCellStyleMap
  3
ObjectDBX Classes
 90
     1152
280
     0
281
     0
  0
CLASS
  1
ACDBPLACEHOLDER
  2
AcDbPlaceHolder
  3
ObjectDBX Classes
 90
        0
280
     0
281
     0
  0
CLASS
  1
LAYOUT
  2
AcDbLayout
  3
ObjectDBX Classes
 90
        0
280
     0
281
     0
  0
ENDSEC
  0
SECTION
  2
TABLES
  0
TABLE
  2
VPORT
  5
8
102
{ACAD_XDICTIONARY
360
2E0
102
}
330
0
100
AcDbSymbolTable
 70
     1
  0
VPORT
  5
29
330
8
100
AcDbSymbolTableRecord
100
AcDbViewportTableRecord
  2
*Active
 70
     0
 10
0.0
 20
0.0
 11
1.0
 21
1.0
 12
344.1869158878504
 22
148.5
 13
0.0
 23
0.0
 14
10.0
 24
10.0
 15
10.0
 25
10.0
 16
0.0
 26
0.0
 36
1.0
 17
0.0
 27
0.0
 37
0.0
 40
297.0
 41
1.972972972850329
 42
50.0
 43
0.0
 44
0.0
 50
0.0
 51
0.0
 71
     0
 72
   100
 73
     1
 74
     3
 75
     0
 76
     0
 77
     0
 78
     0
281
     0
 65
     1
110
0.0
120
0.0
130
0.0
111
1.0
121
0.0
131
0.0
112
0.0
122
1.0
132
0.0
 79
     0
146
0.0
  0
ENDTAB
  0
TABLE
  2
LTYPE
  5
5
330
0
100
AcDbSymbolTable
 70
     1
  0
LTYPE
  5
14
330
5
100
AcDbSymbolTableRecord
100
AcDbLinetypeTableRecord
  2
ByBlock
 70
     0
  3

 72
    65
 73
     0
 40
0.0
  0
LTYPE
  5
15
330
5
100
AcDbSymbolTableRecord
100
AcDbLinetypeTableRecord
  2
ByLayer
 70
     0
  3

 72
    65
 73
     0
 40
0.0
  0
LTYPE
  5
16
330
5
100
AcDbSymbolTableRecord
100
AcDbLinetypeTableRecord
  2
Continuous
 70
     0
  3
Solid line
 72
    65
 73
     0
 40
0.0
  0
ENDTAB
  0
TABLE
  2
LAYER
  5
2
330
0
100
AcDbSymbolTable
 70
     8
  0
LAYER
  5
10
330
2
100
AcDbSymbolTableRecord
100
AcDbLayerTableRecord
  2
0
 70
     0
 62
     7
  6
Continuous
370
    -3
390
F
  0
LAYER
  5
6E
330
2
100
AcDbSymbolTableRecord
100
AcDbLayerTableRecord
  2
Default
 70
     0
 62
     7
  6
Continuous
370
    -3
390
F
  0
LAYER
  5
71
330
2
100
AcDbSymbolTableRecord
100
AcDbLayerTableRecord
  2
DV1_0
 70
     0
 62
     7
  6
Continuous
370
    -3
390
F
  0
LAYER
  5
FC
330
2
100
AcDbSymbolTableRecord
100
AcDbLayerTableRecord
  2
DV2_0
 70
     0
 62
     7
  6
Continuous
370
    -3
390
F
  0
LAYER
  5
127
330
2
100
AcDbSymbolTableRecord
100
AcDbLayerTableRecord
  2
DV3_0
 70
     0
 62
     7
  6
Continuous
370
    -3
390
F
  0
LAYER
  5
1AF
330
2
100
AcDbSymbolTableRecord
100
AcDbLayerTableRecord
  2
DV4_0
 70
     0
 62
     7
  6
Continuous
370
    -3
390
F
  0
LAYER
  5
27B
330
2
100
AcDbSymbolTableRecord
100
AcDbLayerTableRecord
  2
Predeterminado
 70
     0
 62
     7
  6
Continuous
370
    -3
390
F
  0
LAYER
  5
295
330
2
100
AcDbSymbolTableRecord
100
AcDbLayerTableRecord
  2
D
 70
     0
 62
     7
  6
Continuous
370
    -3
390
F
  0
ENDTAB
  0
TABLE
  2
STYLE
  5
3
330
0
100
AcDbSymbolTable
 70
     4
  0
STYLE
  5
11
330
3
100
AcDbSymbolTableRecord
100
AcDbTextStyleTableRecord
  2
Standard
 70
     0
 40
0.0
 41
1.0
 50
0.0
 71
     0
 42
2.0
  3
txt
  4

  0
STYLE
  5
263
330
3
100
AcDbSymbolTableRecord
100
AcDbTextStyleTableRecord
  2
SEACAD_Solid_Edge_ANSI
 70
     0
 40
0.0
 41
1.0
 50
0.0
 71
     0
 42
2.5
  3
seans.ttf
  4

1001
ACAD
1000
Solid Edge ANSI
1071
        0
  0
STYLE
  5
2D7
330
3
100
AcDbSymbolTableRecord
100
AcDbTextStyleTableRecord
  2
MtXpl_Arial
 70
     0
 40
0.2
 41
1.0
 50
0.0
 71
     0
 42
2.0
  3
arialbd.ttf
  4

1001
ACAD
1000
Arial
1071
 33554466
  0
STYLE
  5
2D8
330
3
100
AcDbSymbolTableRecord
100
AcDbTextStyleTableRecord
  2
MtXpl_Arial1
 70
     0
 40
0.2
 41
1.0
 50
0.0
 71
     0
 42
2.0
  3

  4

1001
ACAD
1000
Arial
1071
       34
  0
ENDTAB
  0
TABLE
  2
VIEW
  5
6
330
0
100
AcDbSymbolTable
 70
     0
  0
ENDTAB
  0
TABLE
  2
UCS
  5
7
330
0
100
AcDbSymbolTable
 70
     0
  0
ENDTAB
  0
TABLE
  2
APPID
  5
9
330
0
100
AcDbSymbolTable
 70
     2
  0
APPID
  5
12
330
9
100
AcDbSymbolTableRecord
100
AcDbRegAppTableRecord
  2
ACAD
 70
     0
  0
APPID
  5
2CE
330
9
100
AcDbSymbolTableRecord
100
AcDbRegAppTableRecord
  2
ACAD_MLEADERVER
 70
     0
  0
ENDTAB
  0
TABLE
  2
DIMSTYLE
  5
A
330
0
100
AcDbSymbolTable
 70
     1
100
AcDbDimStyleTable
  0
DIMSTYLE
105
27
330
A
100
AcDbSymbolTableRecord
100
AcDbDimStyleTableRecord
  2
ISO-25
 70
     0
 41
2.5
 42
0.625
 43
3.75
 44
1.25
 73
     0
 74
     0
 77
     1
 78
     8
140
2.5
141
2.5
143
0.03937007874016
147
0.625
171
     3
172
     1
178
     0
271
     2
272
     2
274
     3
278
    44
283
     0
284
     8
340
11
  0
ENDTAB
  0
TABLE
  2
BLOCK_RECORD
  5
1
330
0
100
AcDbSymbolTable
 70
    10
  0
BLOCK_RECORD
  5
1F
330
1
100
AcDbSymbolTableRecord
100
AcDbBlockTableRecord
  2
*Model_Space
340
22
  0
BLOCK_RECORD
  5
1B
330
1
100
AcDbSymbolTableRecord
100
AcDbBlockTableRecord
  2
*Paper_Space
340
1E
  0
BLOCK_RECORD
  5
6F
330
1
100
AcDbSymbolTableRecord
100
AcDbBlockTableRecord
  2
SE
340
0
102
{BLKREFS
331
70
102
}
  0
BLOCK_RECORD
  5
FA
330
1
100
AcDbSymbolTableRecord
100
AcDbBlockTableRecord
  2
SE1
340
0
102
{BLKREFS
331
FB
102
}
  0
BLOCK_RECORD
  5
125
330
1
100
AcDbSymbolTableRecord
100
AcDbBlockTableRecord
  2
SE2
340
0
102
{BLKREFS
331
126
102
}
  0
BLOCK_RECORD
  5
1AD
330
1
100
AcDbSymbolTableRecord
100
AcDbBlockTableRecord
  2
SE3
340
0
102
{BLKREFS
331
1AE
102
}
  0
BLOCK_RECORD
  5
25C
330
1
100
AcDbSymbolTableRecord
100
AcDbBlockTableRecord
  2
GDimGGroup
340
0
102
{BLKREFS
331
25D
102
}
  0
BLOCK_RECORD
  5
267
330
1
100
AcDbSymbolTableRecord
100
AcDbBlockTableRecord
  2
GDimGGroup1
340
0
102
{BLKREFS
331
268
102
}
  0
BLOCK_RECORD
  5
271
330
1
100
AcDbSymbolTableRecord
100
AcDbBlockTableRecord
  2
GDimGGroup2
340
0
102
{BLKREFS
331
272
102
}
  0
BLOCK_RECORD
  5
283
330
1
100
AcDbSymbolTableRecord
100
AcDbBlockTableRecord
  2
SEANNOT_GROUP
340
0
102
{BLKREFS
331
284
102
}
  0
BLOCK_RECORD
  5
28B
330
1
100
AcDbSymbolTableRecord
100
AcDbBlockTableRecord
  2
SEANNOT_GROUP1
340
0
102
{BLKREFS
331
28C
102
}
  0
BLOCK_RECORD
  5
290
330
1
100
AcDbSymbolTableRecord
100
AcDbBlockTableRecord
  2
SEANNOT_GROUP2
340
0
102
{BLKREFS
331
291
102
}
  0
ENDTAB
  0
ENDSEC
  0
SECTION
  2
BLOCKS
  0
BLOCK
  5
20
330
1F
100
AcDbEntity
  8
0
100
AcDbBlockBegin
  2
*Model_Space
 70
     0
 10
0.0
 20
0.0
 30
0.0
  3
*Model_Space
  1

  0
ENDBLK
  5
21
330
1F
100
AcDbEntity
  8
0
100
AcDbBlockEnd
  0
BLOCK
  5
1C
330
1B
100
AcDbEntity
 67
     1
  8
0
100
AcDbBlockBegin
  2
*Paper_Space
 70
     0
 10
0.0
 20
0.0
 30
0.0
  3
*Paper_Space
  1

  0
ENDBLK
  5
1D
330
1B
100
AcDbEntity
 67
     1
  8
0
100
AcDbBlockEnd
  0
BLOCK
  5
F8
330
6F
100
AcDbEntity
  8
0
100
AcDbBlockBegin
  2
SE
 70
     0
 10
0.0
 20
0.0
 30
0.0
  3
SE
  1

  0
LINE
  5
72
330
6F
100
AcDbEntity
  8
DV1_0
 62
     7
370
    35
100
AcDbLine
 10
46.63723110762435
 20
220.0911368288137
 30
0.0
 11
46.63723110762435
 21
220.0511368288137
 31
0.0
  0
LINE
  5
73
330
6F
100
AcDbEntity
  8
DV1_0
 62
     7
370
    25
100
AcDbLine
 10
46.15723110762435
 20
220.0911368288137
 30
0.0
 11
46.15723110762435
 21
219.8511368288124
 31
0.0
  0
LINE
  5
74
330
6F
100
AcDbEntity
  8
DV1_0
 62
     7
370
    25
100
AcDbLine
 10
43.11723110762436
 20
220.0911368288137
 30
0.0
 11
43.11723110762436
 21
219.8511368288124
 31
0.0
  0
LINE
  5
75
330
6F
100
AcDbEntity
  8
DV1_0
 62
     7
370
    35
100
AcDbLine
 10
42.63723110762435
 20
220.0911368288137
 30
0.0
 11
42.63723110762435
 21
219.8511368288138
 31
0.0
  0
LINE
  5
76
330
6F
100
AcDbEntity
  8
DV1_0
 62
     7
370
    35
100
AcDbLine
 10
82.63723110762433
 20
220.0911368288137
 30
0.0
 11
82.63723110762433
 21
220.0511368288137
 31
0.0
  0
LINE
  5
77
330
6F
100
AcDbEntity
  8
DV1_0
 62
     7
370
    25
100
AcDbLine
 10
83.11723110762432
 20
220.0911368288137
 30
0.0
 11
83.11723110762432
 21
219.8511368288138
 31
0.0
  0
LINE
  5
78
330
6F
100
AcDbEntity
  8
DV1_0
 62
     7
370
    25
100
AcDbLine
 10
86.15723110762433
 20
220.0911368288137
 30
0.0
 11
86.15723110762433
 21
219.8511368288138
 31
0.0
  0
LINE
  5
79
330
6F
100
AcDbEntity
  8
DV1_0
 62
     7
370
    35
100
AcDbLine
 10
86.63723110762433
 20
220.0911368288137
 30
0.0
 11
86.63723110762433
 21
219.8511368288137
 31
0.0
  0
LINE
  5
7A
330
6F
100
AcDbEntity
  8
DV1_0
 62
     7
370
    35
100
AcDbLine
 10
86.63723110762433
 20
135.0511368288137
 30
0.0
 11
86.39723110762434
 21
135.0511368288137
 31
0.0
  0
LINE
  5
7B
330
6F
100
AcDbEntity
  8
DV1_0
 62
     7
370
    35
100
AcDbLine
 10
82.87723110762434
 20
135.0511368288137
 30
0.0
 11
86.39723110762432
 21
135.0511368288137
 31
0.0
  0
LINE
  5
7C
330
6F
100
AcDbEntity
  8
DV1_0
 62
     7
370
    35
100
AcDbLine
 10
82.87723110762433
 20
135.5311368288137
 30
0.0
 11
82.87723110762433
 21
135.0511368288137
 31
0.0
  0
LINE
  5
7D
330
6F
100
AcDbEntity
  8
DV1_0
 62
     7
370
    35
100
AcDbLine
 10
86.39723110762431
 20
135.5311368288137
 30
0.0
 11
86.39723110762431
 21
135.0511368288137
 31
0.0
  0
LINE
  5
7E
330
6F
100
AcDbEntity
  8
DV1_0
 62
     7
370
    35
100
AcDbLine
 10
86.63723110762432
 20
135.0511368288137
 30
0.0
 11
86.63723110762432
 21
135.5311368288137
 31
0.0
  0
LINE
  5
7F
330
6F
100
AcDbEntity
  8
DV1_0
 62
     7
370
    35
100
AcDbLine
 10
82.63723110762443
 20
220.0511368288137
 30
0.0
 11
82.63723110762443
 21
219.8511368288137
 31
0.0
  0
LINE
  5
80
330
6F
100
AcDbEntity
  8
DV1_0
 62
     7
370
    35
100
AcDbLine
 10
79.42735021643935
 20
219.8025264832118
 30
0.0
 11
79.42735021643935
 21
220.0511368288137
 31
0.0
  0
LINE
  5
81
330
6F
100
AcDbEntity
  8
DV1_0
 62
     7
370
    35
100
AcDbLine
 10
80.22735021643938
 20
220.0511368288137
 30
0.0
 11
82.63723110762444
 21
220.0511368288137
 31
0.0
  0
LINE
  5
82
330
6F
100
AcDbEntity
  8
DV1_0
 62
     7
370
    25
100
AcDbLine
 10
80.22735021643938
 20
220.0511368288137
 30
0.0
 11
80.22735021643938
 21
219.8511368288138
 31
0.0
  0
LINE
  5
83
330
6F
100
AcDbEntity
  8
DV1_0
 62
     7
370
    35
100
AcDbLine
 10
79.42735021643938
 20
220.0511368288137
 30
0.0
 11
80.22735021643938
 21
220.0511368288137
 31
0.0
  0
LINE
  5
84
330
6F
100
AcDbEntity
  8
DV1_0
 62
     7
370
    35
100
AcDbLine
 10
46.63723110762427
 20
219.8511368288137
 30
0.0
 11
46.63723110762427
 21
220.0511368288137
 31
0.0
  0
LINE
  5
85
330
6F
100
AcDbEntity
  8
DV1_0
 62
     7
370
    35
100
AcDbLine
 10
49.84711199880935
 20
220.0511368288137
 30
0.0
 11
49.84711199880935
 21
219.8074720484878
 31
0.0
  0
LINE
  5
86
330
6F
100
AcDbEntity
  8
DV1_0
 62
     7
370
    25
100
AcDbLine
 10
49.04711199880933
 20
219.8511368288124
 30
0.0
 11
49.04711199880933
 21
220.0511368288137
 31
0.0
  0
LINE
  5
87
330
6F
100
AcDbEntity
  8
DV1_0
 62
     7
370
    35
100
AcDbLine
 10
49.04711199880932
 20
220.0511368288137
 30
0.0
 11
46.63723110762427
 21
220.0511368288137
 31
0.0
  0
LINE
  5
88
330
6F
100
AcDbEntity
  8
DV1_0
 62
     7
370
    35
100
AcDbLine
 10
49.04711199880932
 20
220.0511368288137
 30
0.0
 11
49.84711199880931
 21
220.0511368288137
 31
0.0
  0
LINE
  5
89
330
6F
100
AcDbEntity
  8
DV1_0
 62
     7
370
    35
100
AcDbLine
 10
47.52217155321678
 20
220.0911368288137
 30
0.0
 11
47.52217155321678
 21
220.0511368288137
 31
0.0
  0
LINE
  5
8A
330
6F
100
AcDbEntity
  8
DV1_0
 62
     7
370
    35
100
AcDbLine
 10
48.32217155321678
 20
220.0511368288137
 30
0.0
 11
48.32217155321678
 21
220.0911368288137
 31
0.0
  0
LINE
  5
8B
330
6F
100
AcDbEntity
  8
DV1_0
 62
     7
370
    35
100
AcDbLine
 10
80.95229066203191
 20
220.0911368288137
 30
0.0
 11
80.95229066203191
 21
220.0511368288137
 31
0.0
  0
LINE
  5
8C
330
6F
100
AcDbEntity
  8
DV1_0
 62
     7
370
    35
100
AcDbLine
 10
81.75229066203192
 20
220.0511368288137
 30
0.0
 11
81.75229066203192
 21
220.0911368288137
 31
0.0
  0
LINE
  5
8D
330
6F
100
AcDbEntity
  8
DV1_0
 62
     7
370
    25
100
AcDbLine
 10
85.12050596142555
 20
134.9268054587856
 30
0.0
 11
86.23395625382321
 21
134.9268054587856
 31
0.0
  0
LINE
  5
8E
330
6F
100
AcDbEntity
  8
DV1_0
 62
     7
370
    25
100
AcDbLine
 10
85.11723110762438
 20
134.9365044615291
 30
0.0
 11
86.23723110762437
 21
134.9365044615291
 31
0.0
  0
LINE
  5
8F
330
6F
100
AcDbEntity
  8
DV1_0
 62
     7
370
    25
100
AcDbLine
 10
85.45617847604544
 20
134.6993334493891
 30
0.0
 11
85.45617847604544
 21
134.6869563307019
 31
0.0
  0
ELLIPSE
  5
90
330
6F
100
AcDbEntity
  8
DV1_0
 62
     7
370
    35
100
AcDbEllipse
 10
85.56670479183497
 20
135.3511368288138
 30
0.0
 11
2.264854970235320E-13
 21
0.6641804981118775
 31
0.0
210
0.0
220
0.0
230
1.0
 40
0.8660254037843848
 41
2.948236293789344
 42
3.334949013390832
  0
ELLIPSE
  5
91
330
6F
100
AcDbEntity
  8
DV1_0
 62
     7
370
    35
100
AcDbEllipse
 10
85.7877574234138
 20
135.3511368288134
 30
0.0
 11
-2.309263891220326E-13
 21
0.6641804981114908
 31
0.0
210
0.0
220
0.0
230
1.0
 40
0.8660254037846253
 41
2.948236293788603
 42
3.33494901339038
  0
LINE
  5
92
330
6F
100
AcDbEntity
  8
DV1_0
 62
     7
370
    25
100
AcDbLine
 10
85.89828373920334
 20
134.6993334493891
 30
0.0
 11
85.89828373920334
 21
134.6869563307019
 31
0.0
  0
ARC
  5
93
330
6F
100
AcDbEntity
  8
DV1_0
 62
     7
370
    35
100
AcDbCircle
 10
85.13323110762438
 20
134.9365044615291
 30
0.0
 40
0.0159999999999982
100
AcDbArc
 50
180.0
 51
217.3143543297595
  0
ARC
  5
94
330
6F
100
AcDbEntity
  8
DV1_0
 62
     7
370
    35
100
AcDbCircle
 10
86.22123110762439
 20
134.9365044615291
 30
0.0
 40
0.0159999999999986
100
AcDbArc
 50
322.6856456702096
 51
0.0
  0
LINE
  5
95
330
6F
100
AcDbEntity
  8
DV1_0
 62
     7
370
    35
100
AcDbLine
 10
85.11723110762438
 20
135.0511368288137
 30
0.0
 11
85.11723110762438
 21
134.9365044615291
 31
0.0
  0
LINE
  5
96
330
6F
100
AcDbEntity
  8
DV1_0
 62
     7
370
    35
100
AcDbLine
 10
86.23723110762438
 20
134.9365044615291
 30
0.0
 11
86.23723110762438
 21
135.0511368288137
 31
0.0
  0
ARC
  5
97
330
6F
100
AcDbEntity
  8
DV1_0
 62
     7
370
    35
100
AcDbCircle
 10
85.67723110762438
 20
135.3511368288137
 30
0.0
 40
0.7000000000000002
100
AcDbArc
 50
288.4084801705865
 51
322.6856456702466
  0
ARC
  5
98
330
6F
100
AcDbEntity
  8
DV1_0
 62
     7
370
    35
100
AcDbCircle
 10
85.67723110762438
 20
135.3511368288137
 30
0.0
 40
0.7000000000000001
100
AcDbArc
 50
217.3143543297534
 51
251.5915198294146
  0
ARC
  5
99
330
6F
100
AcDbEntity
  8
DV1_0
 62
     7
370
    35
100
AcDbCircle
 10
85.89323110762439
 20
134.7021375992302
 30
0.0
 40
0.0159999999999982
100
AcDbArc
 50
205.2174271978618
 51
288.4084801706246
  0
ARC
  5
9A
330
6F
100
AcDbEntity
  8
DV1_0
 62
     7
370
    35
100
AcDbCircle
 10
85.46123110762439
 20
134.7021375992302
 30
0.0
 40
0.0160000000000007
100
AcDbArc
 50
251.5915198293754
 51
334.7825726707414
  0
ARC
  5
9B
330
6F
100
AcDbEntity
  8
DV1_0
 62
     7
370
    35
100
AcDbCircle
 10
64.6372229003599
 20
228.9118998747809
 30
0.0
 40
17.22073979968617
100
AcDbArc
 50
213.0655975123578
 51
264.3543769936801
  0
ARC
  5
9C
330
6F
100
AcDbEntity
  8
DV1_0
 62
     7
370
    35
100
AcDbCircle
 10
64.6372229003599
 20
228.9118998747809
 30
0.0
 40
17.22073979968617
100
AcDbArc
 50
282.7448925899303
 51
326.9345516468478
  0
ARC
  5
9D
330
6F
100
AcDbEntity
  8
DV1_0
 62
     7
370
    35
100
AcDbCircle
 10
79.67170938090631
 20
219.1415334114343
 30
0.0
 40
0.7097122461608106
100
AcDbArc
 50
90.99732923706424
 51
148.1238863113211
  0
ARC
  5
9E
330
6F
100
AcDbEntity
  8
DV1_0
 62
     7
370
    35
100
AcDbCircle
 10
49.6027349901873
 20
219.1415260205886
 30
0.0
 40
0.7097182948523371
100
AcDbArc
 50
31.87294097604015
 51
89.00255259565851
  0
LINE
  5
9F
330
6F
100
AcDbEntity
  8
DV1_0
 62
     7
370
    35
100
AcDbLine
 10
79.7584314265077
 20
219.8511368288138
 30
0.0
 11
86.46700820884902
 21
219.8511368288138
 31
0.0
  0
ARC
  5
A0
330
6F
100
AcDbEntity
  8
DV1_0
 62
     7
370
    35
100
AcDbCircle
 10
79.77066895818393
 20
219.1418093649448
 30
0.0
 40
0.709432519535931
100
AcDbArc
 50
90.98838673764061
 51
147.9440299458377
  0
ARC
  5
A1
330
6F
100
AcDbEntity
  8
DV1_0
 62
     7
370
    35
100
AcDbCircle
 10
64.6372228525432
 20
229.0980169207893
 30
0.0
 40
17.40558843679079
100
AcDbArc
 50
213.3931960186527
 51
326.6069517795034
  0
ARC
  5
A2
330
6F
100
AcDbEntity
  8
DV1_0
 62
     7
370
    35
100
AcDbCircle
 10
49.50377564868139
 20
219.1418070575534
 30
0.0
 40
0.7094357240285815
100
AcDbArc
 50
32.05245576380746
 51
89.01150608878017
  0
LINE
  5
A3
330
6F
100
AcDbEntity
  8
DV1_0
 62
     7
370
    35
100
AcDbLine
 10
42.80745400639946
 20
219.8511368288138
 30
0.0
 11
49.51601456246102
 21
219.8511368288138
 31
0.0
  0
LINE
  5
A4
330
6F
100
AcDbEntity
  8
DV1_0
 62
     7
370
    25
100
AcDbLine
 10
42.80745400639946
 20
219.8511368288138
 30
0.0
 11
42.80745400639945
 21
135.5311368288138
 31
0.0
  0
LINE
  5
A5
330
6F
100
AcDbEntity
  8
DV1_0
 62
     7
370
    35
100
AcDbLine
 10
42.80745400639945
 20
135.5311368288138
 30
0.0
 11
86.46700820884902
 21
135.5311368288138
 31
0.0
  0
LINE
  5
A6
330
6F
100
AcDbEntity
  8
DV1_0
 62
     7
370
    25
100
AcDbLine
 10
86.46700820884901
 20
219.8511368288138
 30
0.0
 11
86.46700820884901
 21
135.5311368288138
 31
0.0
  0
LINE
  5
A7
330
6F
100
AcDbEntity
  8
DV1_0
 62
     7
370
    35
100
AcDbLine
 10
49.51601456246071
 20
219.8511372031961
 30
0.0
 11
49.61508966832757
 21
219.8511372031961
 31
0.0
  0
LINE
  5
A8
330
6F
100
AcDbEntity
  8
DV1_0
 62
     7
370
    35
100
AcDbLine
 10
79.65935627155773
 20
219.8511368288138
 30
0.0
 11
79.75843142650184
 21
219.8511368288138
 31
0.0
  0
LINE
  5
A9
330
6F
100
AcDbEntity
  8
DV1_0
 62
     7
370
    35
100
AcDbLine
 10
42.63723110762422
 20
135.5311368288138
 30
0.0
 11
42.80745400639944
 21
135.5311368288138
 31
0.0
  0
LINE
  5
AA
330
6F
100
AcDbEntity
  8
DV1_0
 62
     7
370
    35
100
AcDbLine
 10
86.46700820884901
 20
135.5311368288138
 30
0.0
 11
86.63723110762423
 21
135.5311368288138
 31
0.0
  0
LINE
  5
AB
330
6F
100
AcDbEntity
  8
DV1_0
 62
     7
370
    35
100
AcDbLine
 10
42.63723110762422
 20
219.8511368288138
 30
0.0
 11
42.63723110762422
 21
135.5311368288138
 31
0.0
  0
LINE
  5
AC
330
6F
100
AcDbEntity
  8
DV1_0
 62
     7
370
    35
100
AcDbLine
 10
42.63723110762422
 20
219.8511368288138
 30
0.0
 11
42.80745400639945
 21
219.8511368288138
 31
0.0
  0
LINE
  5
AD
330
6F
100
AcDbEntity
  8
DV1_0
 62
     7
370
    35
100
AcDbLine
 10
86.46700820884901
 20
219.8511368288138
 30
0.0
 11
86.63723110762425
 21
219.8511368288138
 31
0.0
  0
LINE
  5
AE
330
6F
100
AcDbEntity
  8
DV1_0
 62
     7
370
    35
100
AcDbLine
 10
86.63723110762425
 20
219.8511368288138
 30
0.0
 11
86.63723110762423
 21
135.5311368288138
 31
0.0
  0
LINE
  5
AF
330
6F
100
AcDbEntity
  8
DV1_0
 62
     7
370
    25
100
AcDbLine
 10
79.16940090523744
 20
219.5183409777455
 30
0.0
 11
79.06902742413457
 21
219.5163213888723
 31
0.0
  0
LINE
  5
B0
330
6F
100
AcDbEntity
  8
DV1_0
 62
     7
370
    25
100
AcDbLine
 10
50.20544402552427
 20
219.5162847513571
 30
0.0
 11
50.10506761828557
 21
219.5183019957865
 31
0.0
  0
ARC
  5
B1
330
6F
100
AcDbEntity
  8
DV1_0
 62
     7
370
    35
100
AcDbCircle
 10
49.70160085108716
 20
219.3231368288118
 30
0.0
 40
0.5280000000005981
100
AcDbArc
 50
32.70050975671996
 51
89.99999999997148
  0
LINE
  5
B2
330
6F
100
AcDbEntity
  8
DV1_0
 62
     7
370
    35
100
AcDbLine
 10
49.61508966832768
 20
219.8511368288124
 30
0.0
 11
49.7016008510873
 21
219.8511368288124
 31
0.0
  0
LINE
  5
B3
330
6F
100
AcDbEntity
  8
DV1_0
 62
     7
370
    35
100
AcDbLine
 10
79.57286136416154
 20
219.8511368288138
 30
0.0
 11
79.65945588697178
 21
219.8511368288138
 31
0.0
  0
ARC
  5
B4
330
6F
100
AcDbEntity
  8
DV1_0
 62
     7
370
    35
100
AcDbCircle
 10
79.57286136416155
 20
219.3231368288137
 30
0.0
 40
0.5280000000000192
100
AcDbArc
 50
90.00000000000153
 51
147.2994902434856
  0
ARC
  5
B5
330
6F
100
AcDbEntity
  8
DV1_0
 62
     7
370
    35
100
AcDbCircle
 10
64.63723110762409
 20
228.9118286891073
 30
0.0
 40
17.22069186029374
100
AcDbArc
 50
212.7005097565124
 51
242.0983841212532
  0
ARC
  5
B6
330
6F
100
AcDbEntity
  8
DV1_0
 62
     7
370
    35
100
AcDbCircle
 10
64.63723110762409
 20
228.9118286891072
 30
0.0
 40
17.22069186029363
100
AcDbArc
 50
298.361032476263
 51
327.299490243488
  0
ARC
  5
B7
330
6F
100
AcDbEntity
  8
DV1_0
 62
     7
370
    35
100
AcDbCircle
 10
64.6372345245196
 20
228.911888684366
 30
0.0
 40
17.22072824907956
100
AcDbArc
 50
324.6712707243026
 51
327.4510515711897
  0
ARC
  5
B8
330
6F
100
AcDbEntity
  8
DV1_0
 62
     7
370
    35
100
AcDbCircle
 10
64.6372345245196
 20
228.911888684366
 30
0.0
 40
17.22072824907956
100
AcDbArc
 50
212.5488801379519
 51
215.2296907154098
  0
ARC
  5
B9
330
6F
100
AcDbEntity
  8
DV1_0
 62
     7
370
    35
100
AcDbCircle
 10
49.75747798398163
 20
219.4251616970405
 30
0.0
 40
0.4260379830105641
100
AcDbArc
 50
31.34949557139844
 51
77.77909841108435
  0
ARC
  5
BA
330
6F
100
AcDbEntity
  8
DV1_0
 62
     7
370
    35
100
AcDbCircle
 10
79.516991282812
 20
219.4251587540048
 30
0.0
 40
0.4260401301385643
100
AcDbArc
 50
102.2785347800662
 51
148.6529413949445
  0
LINE
  5
BB
330
6F
100
AcDbEntity
  8
DV1_0
 62
     7
370
    35
100
AcDbLine
 10
78.15723110762436
 20
134.9711368288137
 30
0.0
 11
79.11723110762436
 21
134.9711368288137
 31
0.0
  0
LINE
  5
BC
330
6F
100
AcDbEntity
  8
DV1_0
 62
     7
370
    35
100
AcDbLine
 10
79.11723110762436
 20
134.9711368288137
 30
0.0
 11
79.11723110762436
 21
135.1311368288137
 31
0.0
  0
LINE
  5
BD
330
6F
100
AcDbEntity
  8
DV1_0
 62
     7
370
    35
100
AcDbLine
 10
78.15723110762436
 20
135.1311368288137
 30
0.0
 11
78.15723110762436
 21
134.9711368288137
 31
0.0
  0
LINE
  5
BE
330
6F
100
AcDbEntity
  8
DV1_0
 62
     7
370
    25
100
AcDbLine
 10
77.95723110762437
 20
135.1911368288137
 30
0.0
 11
79.31723110762435
 21
135.1911368288137
 31
0.0
  0
LINE
  5
BF
330
6F
100
AcDbEntity
  8
DV1_0
 62
     7
370
    35
100
AcDbLine
 10
78.01723110762435
 20
135.1311368288137
 30
0.0
 11
79.25723110762435
 21
135.1311368288137
 31
0.0
  0
LINE
  5
C0
330
6F
100
AcDbEntity
  8
DV1_0
 62
     7
370
    35
100
AcDbLine
 10
77.87965869845613
 20
135.2911368288137
 30
0.0
 11
79.39480351679258
 21
135.2911368288137
 31
0.0
  0
SPLINE
  5
C1
330
6F
100
AcDbEntity
  8
DV1_0
 62
     7
370
    35
100
AcDbSpline
210
0.0
220
0.0
230
1.0
 70
     8
 71
     3
 72
    22
 73
    18
 74
     0
 42
0.000000001
 43
0.0000000001
 40
0.0
 40
0.0
 40
0.0
 40
0.0
 40
0.0625
 40
0.0625
 40
0.1249999999999999
 40
0.1249999999999999
 40
0.2499999999999998
 40
0.2499999999999998
 40
0.4999999999999999
 40
0.4999999999999999
 40
0.7499999999999999
 40
0.7499999999999999
 40
0.875
 40
0.875
 40
0.9375
 40
0.9375
 40
1.0
 40
1.0
 40
1.0
 40
1.0
 10
79.07601731220848
 20
135.4111368288137
 30
0.0
 10
79.07601731220848
 20
135.3903763019189
 30
0.0
 10
79.06465593232285
 20
135.3712910513039
 30
0.0
 10
79.0350642389687
 20
135.343199992
 30
0.0
 10
79.01686972904506
 20
135.3330397172063
 30
0.0
 10
78.96045852253481
 20
135.3094691295442
 30
0.0
 10
78.9201132510867
 20
135.3024385500042
 30
0.0
 10
78.79974338922206
 20
135.2893957714297
 30
0.0
 10
78.71816570516185
 20
135.2911610417358
 30
0.0
 10
78.5559770005283
 20
135.2911617315737
 30
0.0
 10
78.47478783698662
 20
135.2893357531873
 30
0.0
 10
78.35357943617124
 20
135.3025484426139
 30
0.0
 10
78.31310900248555
 20
135.3097457774848
 30
0.0
 10
78.25727248136096
 20
135.3332230261957
 30
0.0
 10
78.23911451380604
 20
135.3433759125714
 30
0.0
 10
78.20953424538477
 20
135.3716442223508
 30
0.0
 10
78.19844490304024
 20
135.3904953993606
 30
0.0
 10
78.19844490304024
 20
135.4111368288137
 30
0.0
  0
SPLINE
  5
C2
330
6F
100
AcDbEntity
  8
DV1_0
 62
     7
370
    35
100
AcDbSpline
210
0.0
220
0.0
230
1.0
 70
     8
 71
     3
 72
    22
 73
    18
 74
     0
 42
0.000000001
 43
0.0000000001
 40
0.0
 40
0.0
 40
0.0
 40
0.0
 40
0.0625
 40
0.0625
 40
0.1249999999999999
 40
0.1249999999999999
 40
0.2499999999999999
 40
0.2499999999999999
 40
0.4999999999999999
 40
0.4999999999999999
 40
0.7499999999999999
 40
0.7499999999999999
 40
0.875
 40
0.875
 40
0.9374999999999999
 40
0.9374999999999999
 40
1.0
 40
1.0
 40
1.0
 40
1.0
 10
78.19844490304024
 20
135.4111368288137
 30
0.0
 10
78.19844490304024
 20
135.3903644797812
 30
0.0
 10
78.19275794598232
 20
135.3712706590418
 30
0.0
 10
78.17794935324291
 20
135.3431724021869
 30
0.0
 10
78.16884562343063
 20
135.3330122459387
 30
0.0
 10
78.14062010714377
 20
135.3094435642469
 30
0.0
 10
78.1204362976765
 20
135.302418998373
 30
0.0
 10
78.06021545352763
 20
135.2893903480314
 30
0.0
 10
78.01940518784248
 20
135.2911604636611
 30
0.0
 10
77.93827017382537
 20
135.2911623138515
 30
0.0
 10
77.89758454973529
 20
135.2893521293067
 30
0.0
 10
77.83708954821473
 20
135.3025968893484
 30
0.0
 10
77.81706738544149
 20
135.3096432892894
 30
0.0
 10
77.78888691645187
 20
135.3333982484723
 30
0.0
 10
77.77986622902841
 20
135.3435885311102
 30
0.0
 10
77.76523976710764
 20
135.3716054880178
 30
0.0
 10
77.75965869845614
 20
135.3905207370389
 30
0.0
 10
77.75965869845614
 20
135.4111368288137
 30
0.0
  0
LINE
  5
C3
330
6F
100
AcDbEntity
  8
DV1_0
 62
     7
370
    35
100
AcDbLine
 10
77.75965869845614
 20
135.5311368288138
 30
0.0
 11
77.75965869845614
 21
135.4111368288137
 31
0.0
  0
LINE
  5
C4
330
6F
100
AcDbEntity
  8
DV1_0
 62
     7
370
    35
100
AcDbLine
 10
78.19844490304024
 20
135.5311368288138
 30
0.0
 11
78.19844490304024
 21
135.4111368288137
 31
0.0
  0
LINE
  5
C5
330
6F
100
AcDbEntity
  8
DV1_0
 62
     7
370
    35
100
AcDbLine
 10
79.07601731220848
 20
135.5311368288138
 30
0.0
 11
79.07601731220848
 21
135.4111368288137
 31
0.0
  0
SPLINE
  5
C6
330
6F
100
AcDbEntity
  8
DV1_0
 62
     7
370
    35
100
AcDbSpline
210
0.0
220
0.0
230
1.0
 70
     8
 71
     3
 72
    22
 73
    18
 74
     0
 42
0.000000001
 43
0.0000000001
 40
0.0
 40
0.0
 40
0.0
 40
0.0
 40
0.0624999999999999
 40
0.0624999999999999
 40
0.1249999999999998
 40
0.1249999999999998
 40
0.2499999999999998
 40
0.2499999999999998
 40
0.4999999999999997
 40
0.4999999999999997
 40
0.7499999999999996
 40
0.7499999999999996
 40
0.8749999999999996
 40
0.8749999999999996
 40
0.9374999999999998
 40
0.9374999999999998
 40
1.0
 40
1.0
 40
1.0
 40
1.0
 10
79.5148035167926
 20
135.4111368288137
 30
0.0
 10
79.5148035167926
 20
135.3903644797812
 30
0.0
 10
79.50911655973466
 20
135.3712706590418
 30
0.0
 10
79.49430796699527
 20
135.3431724021869
 30
0.0
 10
79.48520423718298
 20
135.3330122459387
 30
0.0
 10
79.45697872089612
 20
135.3094435642469
 30
0.0
 10
79.43679491142885
 20
135.302418998373
 30
0.0
 10
79.37657406727998
 20
135.2893903480314
 30
0.0
 10
79.33576380159482
 20
135.2911604636611
 30
0.0
 10
79.25462878757773
 20
135.2911623138515
 30
0.0
 10
79.21394316348764
 20
135.2893521293067
 30
0.0
 10
79.15344816196708
 20
135.3025968893484
 30
0.0
 10
79.13342599919383
 20
135.3096432892894
 30
0.0
 10
79.10524553020421
 20
135.3333982484723
 30
0.0
 10
79.09622484278076
 20
135.3435885311102
 30
0.0
 10
79.08159838086
 20
135.3716054880178
 30
0.0
 10
79.07601731220848
 20
135.3905207370389
 30
0.0
 10
79.07601731220848
 20
135.4111368288137
 30
0.0
  0
LINE
  5
C7
330
6F
100
AcDbEntity
  8
DV1_0
 62
     7
370
    35
100
AcDbLine
 10
79.5148035167926
 20
135.5311368288138
 30
0.0
 11
79.5148035167926
 21
135.4111368288137
 31
0.0
  0
ARC
  5
C8
330
6F
100
AcDbEntity
  8
DV1_0
 62
     7
370
    35
100
AcDbCircle
 10
79.25723110762436
 20
135.1911368288137
 30
0.0
 40
0.0600000000000001
100
AcDbArc
 50
270.0
 51
0.0
  0
ARC
  5
C9
330
6F
100
AcDbEntity
  8
DV1_0
 62
     7
370
    35
100
AcDbCircle
 10
78.01723110762435
 20
135.1911368288137
 30
0.0
 40
0.0600000000000001
100
AcDbArc
 50
180.0
 51
270.0
  0
LINE
  5
CA
330
6F
100
AcDbEntity
  8
DV1_0
 62
     7
370
    35
100
AcDbLine
 10
77.95723110762435
 20
135.2911368288137
 30
0.0
 11
77.95723110762435
 21
135.1911368288137
 31
0.0
  0
LINE
  5
CB
330
6F
100
AcDbEntity
  8
DV1_0
 62
     7
370
    35
100
AcDbLine
 10
79.31723110762435
 20
135.1911368288137
 30
0.0
 11
79.31723110762435
 21
135.2911368288137
 31
0.0
  0
ARC
  5
CC
330
6F
100
AcDbEntity
  8
DV1_0
 62
     7
370
    35
100
AcDbCircle
 10
79.39480351679259
 20
135.4111368288137
 30
0.0
 40
0.1199999999999999
100
AcDbArc
 50
270.0
 51
323.2735121544047
  0
ARC
  5
CD
330
6F
100
AcDbEntity
  8
DV1_0
 62
     7
370
    35
100
AcDbCircle
 10
79.39480351679259
 20
135.4111368288137
 30
0.0
 40
0.1199999999999999
100
AcDbArc
 50
339.6968360905743
 51
6.020723367200098
  0
ARC
  5
CE
330
6F
100
AcDbEntity
  8
DV1_0
 62
     7
370
    35
100
AcDbCircle
 10
77.87965869845613
 20
135.4111368288137
 30
0.0
 40
0.1200000000000015
100
AcDbArc
 50
221.1392982306619
 51
270.0
  0
LINE
  5
CF
330
6F
100
AcDbEntity
  8
DV1_0
 62
     7
370
    35
100
AcDbLine
 10
76.83723110762436
 20
133.1311368288137
 30
0.0
 11
52.43723110762435
 21
133.1311368288137
 31
0.0
  0
LINE
  5
D0
330
6F
100
AcDbEntity
  8
DV1_0
 62
     7
370
    35
100
AcDbLine
 10
76.83723110762436
 20
133.1311368288137
 30
0.0
 11
76.83723110762436
 21
135.5311368288138
 31
0.0
  0
LINE
  5
D1
330
6F
100
AcDbEntity
  8
DV1_0
 62
     7
370
    35
100
AcDbLine
 10
52.43723110762435
 20
135.5311368288138
 30
0.0
 11
52.43723110762435
 21
133.1311368288137
 31
0.0
  0
ARC
  5
D2
330
6F
100
AcDbEntity
  8
DV1_0
 62
     7
370
    35
100
AcDbCircle
 10
64.63723101861888
 20
197.0816127842632
 30
0.0
 40
32.76952404461245
100
AcDbArc
 50
48.55617049548526
 51
89.96006985673971
  0
ARC
  5
D3
330
6F
100
AcDbEntity
  8
DV1_0
 62
     7
370
    35
100
AcDbCircle
 10
64.63723110756902
 20
197.0816128557195
 30
0.0
 40
32.76952397309424
100
AcDbArc
 50
89.96007001217723
 51
89.99999999990352
  0
LINE
  5
D4
330
6F
100
AcDbEntity
  8
DV1_0
 62
     7
370
    35
100
AcDbLine
 10
64.6248429119986
 20
229.851134487196
 30
0.0
 11
64.63723110762419
 21
229.8511368288137
 31
0.0
  0
ARC
  5
D5
330
6F
100
AcDbEntity
  8
DV1_0
 62
     7
370
    35
100
AcDbCircle
 10
64.63723110762432
 20
197.08161301929
 30
0.0
 40
32.76952380952366
100
AcDbArc
 50
90.02166010547388
 51
131.4438296598499
  0
ARC
  5
D6
330
6F
100
AcDbEntity
  8
DV1_0
 62
     7
370
    35
100
AcDbCircle
 10
64.63723110762447
 20
197.0816130192898
 30
0.0
 40
33.00952380952397
100
AcDbArc
 50
90.00407762847331
 51
131.4438296598498
  0
LINE
  5
D7
330
6F
100
AcDbEntity
  8
DV1_0
 62
     7
370
    35
100
AcDbLine
 10
64.63488188443202
 20
230.0911367452189
 30
0.0
 11
64.63723110762425
 21
230.0911368288137
 31
0.0
  0
LINE
  5
D8
330
6F
100
AcDbEntity
  8
DV1_0
 62
     7
370
    35
100
AcDbLine
 10
64.63723110762425
 20
230.0911368288138
 30
0.0
 11
64.64372732724317
 21
230.0911361895911
 31
0.0
  0
ARC
  5
D9
330
6F
100
AcDbEntity
  8
DV1_0
 62
     7
370
    35
100
AcDbCircle
 10
64.63723110762444
 20
197.0816130192899
 30
0.0
 40
33.00952380952378
100
AcDbArc
 50
48.55617034015018
 51
89.98872428540648
  0
LINE
  5
DA
330
6F
100
AcDbEntity
  8
DV1_0
 62
     7
370
    35
100
AcDbLine
 10
86.6372311076244
 20
221.4898929422625
 30
0.0
 11
86.6372311076244
 21
220.0911368288137
 31
0.0
  0
LINE
  5
DB
330
6F
100
AcDbEntity
  8
DV1_0
 62
     7
370
    35
100
AcDbLine
 10
86.6372311076244
 20
220.0911368288137
 30
0.0
 11
86.47723110762442
 21
220.0911368288137
 31
0.0
  0
LINE
  5
DC
330
6F
100
AcDbEntity
  8
DV1_0
 62
     7
370
    35
100
AcDbLine
 10
42.63723110762437
 20
220.0911368288137
 30
0.0
 11
42.79723110762446
 21
220.0911368288137
 31
0.0
  0
LINE
  5
DD
330
6F
100
AcDbEntity
  8
DV1_0
 62
     7
370
    35
100
AcDbLine
 10
42.63723110762439
 20
221.4898929422625
 30
0.0
 11
42.63723110762439
 21
220.0911368288137
 31
0.0
  0
ARC
  5
DE
330
6F
100
AcDbEntity
  8
DV1_0
 62
     7
370
    35
100
AcDbCircle
 10
43.08523110762444
 20
221.4898929422624
 30
0.0
 40
0.4480000000000818
100
AcDbArc
 50
131.4438296598511
 51
179.9999999999891
  0
ARC
  5
DF
330
6F
100
AcDbEntity
  8
DV1_0
 62
     7
370
    35
100
AcDbCircle
 10
86.1892311076244
 20
221.4898929422625
 30
0.0
 40
0.4480000000000012
100
AcDbArc
 50
0.0
 51
48.55617034014438
  0
LINE
  5
E0
330
6F
100
AcDbEntity
  8
DV1_0
 62
     7
370
    25
100
AcDbLine
 10
86.6372311076244
 20
221.4898929422625
 30
0.0
 11
86.47723110762443
 21
221.4898929422625
 31
0.0
  0
LINE
  5
E1
330
6F
100
AcDbEntity
  8
DV1_0
 62
     7
370
    25
100
AcDbLine
 10
42.63723110762435
 20
221.4898929422625
 30
0.0
 11
42.79723110762433
 21
221.4898929422625
 31
0.0
  0
LINE
  5
E2
330
6F
100
AcDbEntity
  8
DV1_0
 62
     7
370
    35
100
AcDbLine
 10
86.48575580519326
 20
221.8257159666841
 30
0.0
 11
86.32690328863852
 21
221.6458107750297
 31
0.0
  0
LINE
  5
E3
330
6F
100
AcDbEntity
  8
DV1_0
 62
     7
370
    25
100
AcDbLine
 10
64.6372311076244
 20
230.0911368288138
 30
0.0
 11
64.6372311076244
 21
229.8511368288137
 31
0.0
  0
LINE
  5
E4
330
6F
100
AcDbEntity
  8
DV1_0
 62
     7
370
    35
100
AcDbLine
 10
42.78870641005553
 20
221.8257159666841
 30
0.0
 11
42.94755892661028
 21
221.6458107750297
 31
0.0
  0
ARC
  5
E5
330
6F
100
AcDbEntity
  8
DV1_0
 62
     7
370
    35
100
AcDbCircle
 10
64.62498557657673
 20
197.4383619066616
 30
0.0
 40
32.41277957395835
100
AcDbArc
 50
86.01347905868874
 51
86.08443158903594
  0
ARC
  5
E6
330
6F
100
AcDbEntity
  8
DV1_0
 62
     7
370
    35
100
AcDbCircle
 10
64.65209697753399
 20
197.4315529910405
 30
0.0
 40
32.41959141402022
100
AcDbArc
 50
93.91937081639749
 51
93.99030801613333
  0
LINE
  5
E7
330
6F
100
AcDbEntity
  8
DV1_0
 62
     7
370
    35
100
AcDbLine
 10
79.46562925049625
 20
221.2894922705192
 30
0.0
 11
79.52886345271455
 21
220.0911368288137
 31
0.0
  0
LINE
  5
E8
330
6F
100
AcDbEntity
  8
DV1_0
 62
     7
370
    35
100
AcDbLine
 10
79.52886345271449
 20
220.0911368288137
 30
0.0
 11
86.47723110762442
 21
220.0911368288137
 31
0.0
  0
LINE
  5
E9
330
6F
100
AcDbEntity
  8
DV1_0
 62
     7
370
    35
100
AcDbLine
 10
86.47723110762442
 20
221.5122513798189
 30
0.0
 11
86.47723110762442
 21
220.0911368288138
 31
0.0
  0
ARC
  5
EA
330
6F
100
AcDbEntity
  8
DV1_0
 62
     7
370
    35
100
AcDbCircle
 10
64.63723110762442
 20
197.0816130192896
 30
0.0
 40
32.76952380952406
100
AcDbArc
 50
48.20457726521062
 51
131.7954227347894
  0
LINE
  5
EB
330
6F
100
AcDbEntity
  8
DV1_0
 62
     7
370
    35
100
AcDbLine
 10
42.79723110762433
 20
220.0911368288137
 30
0.0
 11
42.79723110762433
 21
221.5122513798189
 31
0.0
  0
LINE
  5
EC
330
6F
100
AcDbEntity
  8
DV1_0
 62
     7
370
    35
100
AcDbLine
 10
42.79723110762446
 20
220.0911368288137
 30
0.0
 11
49.74559876253434
 21
220.0911368288137
 31
0.0
  0
LINE
  5
ED
330
6F
100
AcDbEntity
  8
DV1_0
 62
     7
370
    35
100
AcDbLine
 10
49.74559876253427
 20
220.0911368288137
 30
0.0
 11
49.80883296475252
 21
221.2894922705192
 31
0.0
  0
ARC
  5
EE
330
6F
100
AcDbEntity
  8
DV1_0
 62
     7
370
    35
100
AcDbCircle
 10
64.63723110762439
 20
207.3109132665744
 30
0.0
 40
20.37847056216564
100
AcDbArc
 50
43.31023809863137
 51
136.6897619013687
  0
LINE
  5
EF
330
6F
100
AcDbEntity
  8
DV1_0
 62
     7
370
    35
100
AcDbLine
 10
79.36454706894787
 20
221.2894922705192
 30
0.0
 11
79.42735021643942
 21
220.0911368288137
 31
0.0
  0
ARC
  5
F0
330
6F
100
AcDbEntity
  8
DV1_0
 62
     7
370
    35
100
AcDbCircle
 10
64.63723111787408
 20
207.5446613880719
 30
0.0
 40
20.14483087816402
100
AcDbArc
 50
43.02368534828896
 51
85.95294895034947
  0
ARC
  5
F1
330
6F
100
AcDbEntity
  8
DV1_0
 62
     7
370
    35
100
AcDbCircle
 10
64.63723109369703
 20
207.5446613849649
 30
0.0
 40
20.14483087759523
100
AcDbArc
 50
94.92038747181331
 51
136.9763146381137
  0
LINE
  5
F2
330
6F
100
AcDbEntity
  8
DV1_0
 62
     7
370
    35
100
AcDbLine
 10
49.84711199880937
 20
220.0911368288137
 30
0.0
 11
49.90991514630096
 21
221.2894922705192
 31
0.0
  0
LINE
  5
F3
330
6F
100
AcDbEntity
  8
DV1_0
 62
     7
370
    35
100
AcDbLine
 10
79.42735021643944
 20
220.0911368288137
 30
0.0
 11
79.52886345271453
 21
220.0911368288138
 31
0.0
  0
LINE
  5
F4
330
6F
100
AcDbEntity
  8
DV1_0
 62
     7
370
    35
100
AcDbLine
 10
49.84711199880937
 20
220.0911368288137
 30
0.0
 11
49.74559876253427
 21
220.0911368288137
 31
0.0
  0
LINE
  5
F5
330
6F
100
AcDbEntity
  8
DV1_0
 62
     7
370
    35
100
AcDbLine
 10
79.36454706894784
 20
221.2894922705191
 30
0.0
 11
79.46562925049625
 21
221.2894922705191
 31
0.0
  0
LINE
  5
F6
330
6F
100
AcDbEntity
  8
DV1_0
 62
     7
370
    35
100
AcDbLine
 10
49.90991514630097
 20
221.2894922705192
 30
0.0
 11
49.80883296475254
 21
221.2894922705192
 31
0.0
  0
LINE
  5
F7
330
6F
100
AcDbEntity
  8
DV1_0
 62
     7
370
    35
100
AcDbLine
 10
59.12946232662495
 20
226.920652414546
 30
0.0
 11
70.14520988580074
 21
226.920652414546
 31
0.0
  0
ENDBLK
  5
F9
330
6F
100
AcDbEntity
  8
0
100
AcDbBlockEnd
  0
BLOCK
  5
123
330
FA
100
AcDbEntity
  8
0
100
AcDbBlockBegin
  2
SE1
 70
     0
 10
0.0
 20
0.0
 30
0.0
  3
SE1
  1

  0
ARC
  5
FD
330
FA
100
AcDbEntity
  8
DV2_0
 62
     7
370
    35
100
AcDbCircle
 10
64.60451439496104
 20
70.61710926567618
 30
0.0
 40
4.10013671803116
100
AcDbArc
 50
89.52114963518838
 51
270.457191936971
  0
ARC
  5
FE
330
FA
100
AcDbEntity
  8
DV2_0
 62
     7
370
    35
100
AcDbCircle
 10
64.63722020478458
 20
55.44998416668788
 30
0.0
 40
35.20711891323129
100
AcDbArc
 50
89.99998225680697
 51
128.357837284437
  0
LINE
  5
FF
330
FA
100
AcDbEntity
  8
DV2_0
 62
     7
370
    25
100
AcDbLine
 10
42.78870641005555
 20
83.0576582290196
 30
0.0
 11
42.78870641005555
 21
67.3765479308153
 31
0.0
  0
ARC
  5
100
330
FA
100
AcDbEntity
  8
DV2_0
 62
     7
370
    35
100
AcDbCircle
 10
64.63720858252721
 20
94.9841885852113
 30
0.0
 40
35.20708550395444
100
AcDbArc
 50
231.6421438078616
 51
269.9962135468118
  0
LINE
  5
101
330
FA
100
AcDbEntity
  8
DV2_0
 62
     7
370
    35
100
AcDbLine
 10
64.63488188443202
 20
59.77710315813803
 30
0.0
 11
64.63723110762425
 21
59.77710308115123
 31
0.0
  0
LINE
  5
102
330
FA
100
AcDbEntity
  8
DV2_0
 62
     7
370
    35
100
AcDbLine
 10
64.63723110762425
 20
59.77710308115123
 30
0.0
 11
64.64372732724317
 21
59.777103677966
 31
0.0
  0
ARC
  5
103
330
FA
100
AcDbEntity
  8
DV2_0
 62
     7
370
    35
100
AcDbCircle
 10
64.63724084095159
 20
94.98422535793095
 30
0.0
 40
35.20712227749327
100
AcDbArc
 50
270.0105560541855
 51
308.3578353787397
  0
LINE
  5
104
330
FA
100
AcDbEntity
  8
DV2_0
 62
     7
370
    25
100
AcDbLine
 10
86.48575580519326
 20
83.0576582290196
 30
0.0
 11
86.48575580519326
 21
67.37654793081533
 31
0.0
  0
ARC
  5
105
330
FA
100
AcDbEntity
  8
DV2_0
 62
     7
370
    35
100
AcDbCircle
 10
64.63725372244241
 20
55.45001783881125
 30
0.0
 40
35.2070852411135
100
AcDbArc
 50
51.64214365554958
 51
90.00003680320643
  0
ARC
  5
106
330
FA
100
AcDbEntity
  8
DV2_0
 62
     7
370
    35
100
AcDbCircle
 10
64.66993651029713
 20
70.61709690054043
 30
0.0
 40
4.100124263057247
100
AcDbArc
 50
269.5429647267976
 51
90.43537684536153
  0
LINE
  5
107
330
FA
100
AcDbEntity
  8
DV2_0
 62
     7
370
    35
100
AcDbLine
 10
86.6372311076244
 20
82.93710307991745
 30
0.0
 11
86.6372311076244
 21
67.49710307991745
 31
0.0
  0
LINE
  5
108
330
FA
100
AcDbEntity
  8
DV2_0
 62
     7
370
    35
100
AcDbLine
 10
42.63723110762439
 20
82.93710307991746
 30
0.0
 11
42.63723110762439
 21
67.49710307991742
 31
0.0
  0
ARC
  5
109
330
FA
100
AcDbEntity
  8
DV2_0
 62
     7
370
    35
100
AcDbCircle
 10
64.54618501168854
 20
55.56435054687
 30
0.0
 40
35.06094468786976
100
AcDbArc
 50
128.357162649619
 51
128.6735284847195
  0
ARC
  5
10A
330
FA
100
AcDbEntity
  8
DV2_0
 62
     7
370
    35
100
AcDbCircle
 10
64.5844109097363
 20
94.91788574284075
 30
0.0
 40
35.12232940898864
100
AcDbArc
 50
231.3267479786976
 51
231.6425608869822
  0
ARC
  5
10B
330
FA
100
AcDbEntity
  8
DV2_0
 62
     7
370
    35
100
AcDbCircle
 10
64.69005166802884
 20
55.51632087250064
 30
0.0
 40
35.12232882683597
100
AcDbArc
 50
51.32674797606873
 51
51.64256088958791
  0
ARC
  5
10C
330
FA
100
AcDbEntity
  8
DV2_0
 62
     7
370
    35
100
AcDbCircle
 10
64.72827757151936
 20
94.86985515062865
 30
0.0
 40
35.06094409698397
100
AcDbArc
 50
308.3571626469557
 51
308.673528487388
  0
ARC
  5
10D
330
FA
100
AcDbEntity
  8
DV2_0
 62
     7
370
    35
100
AcDbCircle
 10
64.63822445407989
 20
95.34190831618469
 30
0.0
 40
35.56480617517239
100
AcDbArc
 50
269.6808653648968
 51
270.0131615189763
  0
ARC
  5
10E
330
FA
100
AcDbEntity
  8
DV2_0
 62
     7
370
    35
100
AcDbCircle
 10
64.63723110762444
 20
55.44995282085018
 30
0.0
 40
35.20715025906735
100
AcDbArc
 50
51.65987006858539
 51
51.80700438565916
  0
ARC
  5
10F
330
FA
100
AcDbEntity
  8
DV2_0
 62
     7
370
    35
100
AcDbCircle
 10
64.63723110762444
 20
55.44995282085018
 30
0.0
 40
35.20715025906735
100
AcDbArc
 50
87.93941085422615
 51
90.00052873896517
  0
ARC
  5
110
330
FA
100
AcDbEntity
  8
DV2_0
 62
     7
370
    35
100
AcDbCircle
 10
64.63723110762444
 20
55.44995282085018
 30
0.0
 40
35.20715025906735
100
AcDbArc
 50
126.4406088341578
 51
128.3401299314148
  0
ARC
  5
111
330
FA
100
AcDbEntity
  8
DV2_0
 62
     7
370
    35
100
AcDbCircle
 10
64.63723110762437
 20
94.98425333898471
 30
0.0
 40
35.20715025906735
100
AcDbArc
 50
231.6598700685853
 51
231.8068717133664
  0
ARC
  5
112
330
FA
100
AcDbEntity
  8
DV2_0
 62
     7
370
    35
100
AcDbCircle
 10
64.63723110762437
 20
94.98425333898471
 30
0.0
 40
35.20715025906735
100
AcDbArc
 50
268.6661584762697
 51
269.804049238367
  0
ARC
  5
113
330
FA
100
AcDbEntity
  8
DV2_0
 62
     7
370
    35
100
AcDbCircle
 10
64.63723110762437
 20
94.98425333898471
 30
0.0
 40
35.20715025906735
100
AcDbArc
 50
269.9899215104034
 51
270.7457725948427
  0
ARC
  5
114
330
FA
100
AcDbEntity
  8
DV2_0
 62
     7
370
    35
100
AcDbCircle
 10
64.63723110762437
 20
94.98425333898471
 30
0.0
 40
35.20715025906735
100
AcDbArc
 50
306.4408616087307
 51
308.3401299314148
  0
LINE
  5
115
330
FA
100
AcDbEntity
  8
DV2_0
 62
     7
370
    35
100
AcDbLine
 10
62.43723110762442
 20
74.06767166518352
 30
0.0
 11
62.43723110762442
 21
74.02932864692801
 31
0.0
  0
LINE
  5
116
330
FA
100
AcDbEntity
  8
DV2_0
 62
     7
370
    35
100
AcDbLine
 10
62.43723110762442
 20
67.20478765563085
 30
0.0
 11
62.43723110762442
 21
67.16657364735035
 31
0.0
  0
LINE
  5
117
330
FA
100
AcDbEntity
  8
DV2_0
 62
     7
370
    35
100
AcDbLine
 10
66.83723110762445
 20
67.16662239230786
 30
0.0
 11
66.83723110762445
 21
67.20487751290692
 31
0.0
  0
LINE
  5
118
330
FA
100
AcDbEntity
  8
DV2_0
 62
     7
370
    35
100
AcDbLine
 10
66.83723110762445
 20
74.02941850422457
 30
0.0
 11
66.83723110762445
 21
74.06779507448465
 31
0.0
  0
LINE
  5
119
330
FA
100
AcDbEntity
  8
DV2_0
 62
     7
370
    35
100
AcDbLine
 10
67.0372311076244
 20
69.41710307991744
 30
0.0
 11
67.0372311076244
 21
71.81710307991744
 31
0.0
  0
ARC
  5
11A
330
FA
100
AcDbEntity
  8
DV2_0
 62
     7
370
    35
100
AcDbCircle
 10
68.43715884571799
 20
71.81714955364528
 30
0.0
 40
1.399927738864982
100
AcDbArc
 50
114.5056049275469
 51
180.0019020613634
  0
ARC
  5
11B
330
FA
100
AcDbEntity
  8
DV2_0
 62
     7
370
    35
100
AcDbCircle
 10
64.63723196266669
 20
70.6170787556646
 30
0.0
 40
4.060024324252942
100
AcDbArc
 50
37.54106274231341
 51
90.00001206650761
  0
ARC
  5
11C
330
FA
100
AcDbEntity
  8
DV2_0
 62
     7
370
    35
100
AcDbCircle
 10
64.63723117472027
 20
70.61710311730332
 30
0.0
 40
4.059999962614121
100
AcDbArc
 50
90.00000094687442
 51
142.4591843109687
  0
ARC
  5
11D
330
FA
100
AcDbEntity
  8
DV2_0
 62
     7
370
    35
100
AcDbCircle
 10
60.83730285935724
 20
71.8171492251568
 30
0.0
 40
1.399928249027693
100
AcDbArc
 50
359.9981113835929
 51
65.4939511079707
  0
LINE
  5
11E
330
FA
100
AcDbEntity
  8
DV2_0
 62
     7
370
    35
100
AcDbLine
 10
62.2372311076244
 20
71.81710307991744
 30
0.0
 11
62.2372311076244
 21
69.41710307991745
 31
0.0
  0
ARC
  5
11F
330
FA
100
AcDbEntity
  8
DV2_0
 62
     7
370
    35
100
AcDbCircle
 10
60.83730336952527
 20
69.41705660619319
 30
0.0
 40
1.399927738870526
100
AcDbArc
 50
294.5056049276933
 51
0.001902061217424
  0
ARC
  5
120
330
FA
100
AcDbEntity
  8
DV2_0
 62
     7
370
    35
100
AcDbCircle
 10
64.63723025258211
 20
70.61712740417029
 30
0.0
 40
4.060024324252935
100
AcDbArc
 50
217.5410627423132
 51
270.0000120665076
  0
ARC
  5
121
330
FA
100
AcDbEntity
  8
DV2_0
 62
     7
370
    35
100
AcDbCircle
 10
64.63723104052855
 20
70.61710304253157
 30
0.0
 40
4.059999962614114
100
AcDbArc
 50
270.0000009468742
 51
322.4591843109687
  0
ARC
  5
122
330
FA
100
AcDbEntity
  8
DV2_0
 62
     7
370
    35
100
AcDbCircle
 10
68.43716065853256
 20
69.4170577724374
 30
0.0
 40
1.399929551641326
100
AcDbArc
 50
179.998145672842
 51
245.493916818723
  0
ENDBLK
  5
124
330
FA
100
AcDbEntity
  8
0
100
AcDbBlockEnd
  0
BLOCK
  5
1AB
330
125
100
AcDbEntity
  8
0
100
AcDbBlockBegin
  2
SE2
 70
     0
 10
0.0
 20
0.0
 30
0.0
  3
SE2
  1

  0
CIRCLE
  5
128
330
125
100
AcDbEntity
  8
DV3_0
 62
     7
370
    35
100
AcDbCircle
 10
150.1993166329412
 20
201.9711368288137
 30
0.0
 40
0.8800000000000011
  0
LINE
  5
129
330
125
100
AcDbEntity
  8
DV3_0
 62
     7
370
    35
100
AcDbLine
 10
147.8793166329412
 20
220.0911368288137
 30
0.0
 11
154.9193166329412
 21
220.0911368288137
 31
0.0
  0
LINE
  5
12A
330
125
100
AcDbEntity
  8
DV3_0
 62
     7
370
    35
100
AcDbLine
 10
154.9193166329412
 20
135.5311368288137
 30
0.0
 11
155.3993166329412
 21
135.5311368288137
 31
0.0
  0
LINE
  5
12B
330
125
100
AcDbEntity
  8
DV3_0
 62
     7
370
    35
100
AcDbLine
 10
147.8793166329412
 20
135.5311368288137
 30
0.0
 11
154.9193166329412
 21
135.5311368288137
 31
0.0
  0
LINE
  5
12C
330
125
100
AcDbEntity
  8
DV3_0
 62
     7
370
    35
100
AcDbLine
 10
147.3993166329412
 20
135.5311368288137
 30
0.0
 11
147.8793166329412
 21
135.5311368288137
 31
0.0
  0
LINE
  5
12D
330
125
100
AcDbEntity
  8
DV3_0
 62
     7
370
    35
100
AcDbLine
 10
155.3993166329412
 20
220.0911368288137
 30
0.0
 11
155.3993166329412
 21
219.8511368288138
 31
0.0
  0
LINE
  5
12E
330
125
100
AcDbEntity
  8
DV3_0
 62
     7
370
    25
100
AcDbLine
 10
154.9193166329412
 20
220.0911368288137
 30
0.0
 11
154.9193166329412
 21
135.5311368288137
 31
0.0
  0
LINE
  5
12F
330
125
100
AcDbEntity
  8
DV3_0
 62
     7
370
    35
100
AcDbLine
 10
147.3993166329412
 20
220.0911368288137
 30
0.0
 11
147.3993166329412
 21
135.5311368288137
 31
0.0
  0
LINE
  5
130
330
125
100
AcDbEntity
  8
DV3_0
 62
     7
370
    25
100
AcDbLine
 10
147.8793166329412
 20
220.0911368288137
 30
0.0
 11
147.8793166329412
 21
135.5311368288137
 31
0.0
  0
LINE
  5
131
330
125
100
AcDbEntity
  8
DV3_0
 62
     7
370
    25
100
AcDbLine
 10
147.2793166329412
 20
137.6591368288137
 30
0.0
 11
147.3593166329411
 21
137.6591368288137
 31
0.0
  0
LINE
  5
132
330
125
100
AcDbEntity
  8
DV3_0
 62
     7
370
    35
100
AcDbLine
 10
147.3593166329411
 20
141.1311368288137
 30
0.0
 11
147.3593166329411
 21
137.6591368288137
 31
0.0
  0
LINE
  5
133
330
125
100
AcDbEntity
  8
DV3_0
 62
     7
370
    35
100
AcDbLine
 10
147.3593166329411
 20
137.1311368288137
 30
0.0
 11
147.3593166329411
 21
137.6591368288137
 31
0.0
  0
ARC
  5
134
330
125
100
AcDbEntity
  8
DV3_0
 62
     7
370
    35
100
AcDbCircle
 10
211.2529606632842
 20
234.0463400950282
 30
0.0
 40
49.72249953206519
100
AcDbArc
 50
196.9886551585628
 51
206.7179811547228
  0
SPLINE
  5
135
330
125
100
AcDbEntity
  8
DV3_0
 62
     7
370
    35
100
AcDbSpline
210
0.0
220
0.0
230
1.0
 70
     8
 71
     3
 72
    18
 73
    14
 74
     0
 42
0.000000001
 43
0.0000000001
 40
0.0
 40
0.0
 40
0.0
 40
0.0
 40
0.2500000000000031
 40
0.2500000000000031
 40
0.375000000000006
 40
0.375000000000006
 40
0.5000000000000089
 40
0.5000000000000089
 40
0.6250000000000119
 40
0.6250000000000119
 40
0.7500000000000148
 40
0.7500000000000148
 40
1.0
 40
1.0
 40
1.0
 40
1.0
 10
163.7002132530382
 20
219.5183013697406
 30
0.0
 10
163.6848609314312
 20
219.5700084035605
 30
0.0
 10
163.6672502912293
 20
219.6162983983545
 30
0.0
 10
163.6374870970438
 20
219.6778961306894
 30
0.0
 10
163.6269502003052
 20
219.6971909348097
 30
0.0
 10
163.6049218566086
 20
219.7326420270905
 30
0.0
 10
163.5935406766104
 20
219.7486442534305
 30
0.0
 10
163.570056200976
 20
219.7773131551537
 30
0.0
 10
163.5579528739353
 20
219.7899795542687
 30
0.0
 10
163.5330073359791
 20
219.8119452981637
 30
0.0
 10
163.5200846801019
 20
219.8212848471689
 30
0.0
 10
163.4808130606355
 20
219.8436397226494
 30
0.0
 10
163.4540544054441
 20
219.8511374909646
 30
0.0
 10
163.4266979722295
 20
219.8511372031961
 30
0.0
  0
LINE
  5
136
330
125
100
AcDbEntity
  8
DV3_0
 62
     7
370
    35
100
AcDbLine
 10
159.2546981382757
 20
219.8511368288138
 30
0.0
 11
163.4266979722294
 21
219.8511368288138
 31
0.0
  0
LINE
  5
137
330
125
100
AcDbEntity
  8
DV3_0
 62
     7
370
    25
100
AcDbLine
 10
159.2546981382757
 20
219.8511368288138
 30
0.0
 11
159.2546981382757
 21
135.5311368288138
 31
0.0
  0
LINE
  5
138
330
125
100
AcDbEntity
  8
DV3_0
 62
     7
370
    35
100
AcDbLine
 10
159.2546981382757
 20
135.5311368288138
 30
0.0
 11
166.8393166329412
 21
135.5311368288138
 31
0.0
  0
LINE
  5
139
330
125
100
AcDbEntity
  8
DV3_0
 62
     7
370
    35
100
AcDbLine
 10
155.3993166329412
 20
135.5311368288138
 30
0.0
 11
155.8473166329412
 21
135.5311368288138
 31
0.0
  0
LINE
  5
13A
330
125
100
AcDbEntity
  8
DV3_0
 62
     7
370
    35
100
AcDbLine
 10
155.8473166329412
 20
135.5311368288138
 30
0.0
 11
158.903210041699
 21
135.5311368288138
 31
0.0
  0
LINE
  5
13B
330
125
100
AcDbEntity
  8
DV3_0
 62
     7
370
    35
100
AcDbLine
 10
158.903210041699
 20
135.5311368288138
 30
0.0
 11
159.2546981382757
 21
135.5311368288138
 31
0.0
  0
LINE
  5
13C
330
125
100
AcDbEntity
  8
DV3_0
 62
     7
370
    35
100
AcDbLine
 10
155.3993166329412
 20
219.8511368288138
 30
0.0
 11
155.3993166329412
 21
135.5311368288138
 31
0.0
  0
LINE
  5
13D
330
125
100
AcDbEntity
  8
DV3_0
 62
     7
370
    35
100
AcDbLine
 10
155.3993166329412
 20
219.8511368288138
 30
0.0
 11
155.8473166329412
 21
219.8511368288138
 31
0.0
  0
LINE
  5
13E
330
125
100
AcDbEntity
  8
DV3_0
 62
     7
370
    25
100
AcDbLine
 10
155.8473166329412
 20
219.8511368288138
 30
0.0
 11
155.8473166329412
 21
135.5311368288138
 31
0.0
  0
LINE
  5
13F
330
125
100
AcDbEntity
  8
DV3_0
 62
     7
370
    35
100
AcDbLine
 10
155.8473166329412
 20
219.8511368288138
 30
0.0
 11
158.903210041699
 21
219.8511368288138
 31
0.0
  0
LINE
  5
140
330
125
100
AcDbEntity
  8
DV3_0
 62
     7
370
    25
100
AcDbLine
 10
158.903210041699
 20
219.8511368288138
 30
0.0
 11
158.903210041699
 21
135.5311368288138
 31
0.0
  0
LINE
  5
141
330
125
100
AcDbEntity
  8
DV3_0
 62
     7
370
    35
100
AcDbLine
 10
158.903210041699
 20
219.8511368288138
 30
0.0
 11
159.2546981382757
 21
219.8511368288138
 31
0.0
  0
LINE
  5
142
330
125
100
AcDbEntity
  8
DV3_0
 62
     7
370
    35
100
AcDbLine
 10
166.8393166329412
 20
135.5311368288138
 30
0.0
 11
166.8393166329412
 21
211.6922527296219
 31
0.0
  0
CIRCLE
  5
143
330
125
100
AcDbEntity
  8
DV3_0
 62
     7
370
    35
100
AcDbCircle
 10
150.1993166329412
 20
201.971136828814
 30
0.0
 40
0.5600000000000176
  0
LINE
  5
144
330
125
100
AcDbEntity
  8
DV3_0
 62
     7
370
    35
100
AcDbLine
 10
149.8753166329412
 20
202.2951368288133
 30
0.0
 11
149.8753166329412
 21
201.6471368288133
 31
0.0
  0
LINE
  5
145
330
125
100
AcDbEntity
  8
DV3_0
 62
     7
370
    35
100
AcDbLine
 10
150.5233166329412
 20
202.295136828814
 30
0.0
 11
149.8753166329412
 21
202.295136828814
 31
0.0
  0
LINE
  5
146
330
125
100
AcDbEntity
  8
DV3_0
 62
     7
370
    35
100
AcDbLine
 10
150.5233166329412
 20
201.647136828814
 30
0.0
 11
150.5233166329412
 21
202.295136828814
 31
0.0
  0
LINE
  5
147
330
125
100
AcDbEntity
  8
DV3_0
 62
     7
370
    35
100
AcDbLine
 10
149.8753166329412
 20
201.647136828814
 30
0.0
 11
150.5233166329412
 21
201.647136828814
 31
0.0
  0
LINE
  5
148
330
125
100
AcDbEntity
  8
DV3_0
 62
     7
370
    35
100
AcDbLine
 10
147.3993166329412
 20
203.3311368288137
 30
0.0
 11
146.9193166329412
 21
203.3311368288137
 31
0.0
  0
LINE
  5
149
330
125
100
AcDbEntity
  8
DV3_0
 62
     7
370
    35
100
AcDbLine
 10
146.9193166329412
 20
202.3711368288137
 30
0.0
 11
147.3993166329412
 21
202.3711368288137
 31
0.0
  0
CIRCLE
  5
14A
330
125
100
AcDbEntity
  8
DV3_0
 62
     7
370
    35
100
AcDbCircle
 10
150.1993166329412
 20
201.9711368288137
 30
0.0
 40
0.6000000000000001
  0
LINE
  5
14B
330
125
100
AcDbEntity
  8
DV3_0
 62
     7
370
    35
100
AcDbLine
 10
139.3014540148939
 20
219.8511368288137
 30
0.0
 11
143.5439351276067
 21
219.8511368288137
 31
0.0
  0
SPLINE
  5
14C
330
125
100
AcDbEntity
  8
DV3_0
 62
     7
370
    35
100
AcDbSpline
210
0.0
220
0.0
230
1.0
 70
     8
 71
     3
 72
    18
 73
    14
 74
     0
 42
0.000000001
 43
0.0000000001
 40
0.0
 40
0.0
 40
0.0
 40
0.0
 40
0.249999999999964
 40
0.249999999999964
 40
0.3749999999999597
 40
0.3749999999999597
 40
0.4999999999999555
 40
0.4999999999999555
 40
0.6249999999999513
 40
0.6249999999999513
 40
0.7499999999999469
 40
0.7499999999999469
 40
1.0
 40
1.0
 40
1.0
 40
1.0
 10
139.3014540148951
 20
219.8511365204283
 30
0.0
 10
139.2850519468649
 20
219.8511362845871
 30
0.0
 10
139.2690390248799
 20
219.8465547244182
 30
0.0
 10
139.2455760098548
 20
219.8330494458889
 30
0.0
 10
139.2378086239549
 20
219.8273933865646
 30
0.0
 10
139.2226553745474
 20
219.8139130449005
 30
0.0
 10
139.2153285027398
 20
219.806155762911
 30
0.0
 10
139.2011550246152
 20
219.7886703083833
 30
0.0
 10
139.1943084626087
 20
219.7789419909811
 30
0.0
 10
139.181096648261
 20
219.757492116325
 30
0.0
 10
139.1746946149581
 20
219.7456872942501
 30
0.0
 10
139.1565880765222
 20
219.7078790958707
 30
0.0
 10
139.1459333033319
 20
219.6795479092479
 30
0.0
 10
139.136696625966
 20
219.6480421979998
 30
0.0
  0
ARC
  5
14D
330
125
100
AcDbEntity
  8
DV3_0
 62
     7
370
    35
100
AcDbCircle
 10
91.70978941218813
 20
233.9738688806336
 30
0.0
 40
49.54332283976471
100
AcDbArc
 50
333.2715486428132
 51
343.1924724986471
  0
LINE
  5
14E
330
125
100
AcDbEntity
  8
DV3_0
 62
     7
370
    35
100
AcDbLine
 10
143.5439351276067
 20
135.7711368288137
 30
0.0
 11
135.9593166329412
 21
135.7711368288137
 31
0.0
  0
LINE
  5
14F
330
125
100
AcDbEntity
  8
DV3_0
 62
     7
370
    25
100
AcDbLine
 10
143.5439351276067
 20
219.8511368288137
 30
0.0
 11
143.5439351276067
 21
135.7711368288137
 31
0.0
  0
LINE
  5
150
330
125
100
AcDbEntity
  8
DV3_0
 62
     7
370
    35
100
AcDbLine
 10
143.5439351276067
 20
135.7711368288137
 30
0.0
 11
143.8954232241834
 21
135.7711368288137
 31
0.0
  0
LINE
  5
151
330
125
100
AcDbEntity
  8
DV3_0
 62
     7
370
    35
100
AcDbLine
 10
143.8954232241834
 20
135.7711368288137
 30
0.0
 11
146.4713166329412
 21
135.7711368288137
 31
0.0
  0
LINE
  5
152
330
125
100
AcDbEntity
  8
DV3_0
 62
     7
370
    35
100
AcDbLine
 10
146.4713166329412
 20
135.7711368288137
 30
0.0
 11
146.9193166329412
 21
135.7711368288137
 31
0.0
  0
LINE
  5
153
330
125
100
AcDbEntity
  8
DV3_0
 62
     7
370
    35
100
AcDbLine
 10
146.9193166329412
 20
219.8511368288137
 30
0.0
 11
146.9193166329412
 21
135.7711368288137
 31
0.0
  0
LINE
  5
154
330
125
100
AcDbEntity
  8
DV3_0
 62
     7
370
    35
100
AcDbLine
 10
143.5439351276067
 20
219.8511368288137
 30
0.0
 11
143.8954232241834
 21
219.8511368288137
 31
0.0
  0
LINE
  5
155
330
125
100
AcDbEntity
  8
DV3_0
 62
     7
370
    25
100
AcDbLine
 10
143.8954232241834
 20
219.8511368288137
 30
0.0
 11
143.8954232241834
 21
135.7711368288137
 31
0.0
  0
LINE
  5
156
330
125
100
AcDbEntity
  8
DV3_0
 62
     7
370
    35
100
AcDbLine
 10
143.8954232241834
 20
219.8511368288137
 30
0.0
 11
146.4713166329412
 21
219.8511368288137
 31
0.0
  0
LINE
  5
157
330
125
100
AcDbEntity
  8
DV3_0
 62
     7
370
    25
100
AcDbLine
 10
146.4713166329412
 20
219.8511368288137
 30
0.0
 11
146.4713166329412
 21
135.7711368288137
 31
0.0
  0
LINE
  5
158
330
125
100
AcDbEntity
  8
DV3_0
 62
     7
370
    35
100
AcDbLine
 10
146.4713166329412
 20
219.8511368288137
 30
0.0
 11
146.9193166329412
 21
219.8511368288137
 31
0.0
  0
LINE
  5
159
330
125
100
AcDbEntity
  8
DV3_0
 62
     7
370
    35
100
AcDbLine
 10
135.9593166329412
 20
211.6922652465979
 30
0.0
 11
135.9593166329412
 21
135.7711368288137
 31
0.0
  0
LINE
  5
15A
330
125
100
AcDbEntity
  8
DV3_0
 62
     7
370
    35
100
AcDbLine
 10
147.2793166329412
 20
218.9711368288137
 30
0.0
 11
146.9193166329412
 21
219.3311368288137
 31
0.0
  0
LINE
  5
15B
330
125
100
AcDbEntity
  8
DV3_0
 62
     7
370
    35
100
AcDbLine
 10
147.2793166329412
 20
218.9711368288137
 30
0.0
 11
147.2793166329412
 21
203.3311368288137
 31
0.0
  0
LINE
  5
15C
330
125
100
AcDbEntity
  8
DV3_0
 62
     7
370
    35
100
AcDbLine
 10
147.2793166329412
 20
202.3711368288136
 30
0.0
 11
147.2793166329412
 21
136.6511368288136
 31
0.0
  0
LINE
  5
15D
330
125
100
AcDbEntity
  8
DV3_0
 62
     7
370
    35
100
AcDbLine
 10
146.9193166329412
 20
136.2911368288137
 30
0.0
 11
147.2793166329412
 21
136.6511368288137
 31
0.0
  0
LINE
  5
15E
330
125
100
AcDbEntity
  8
DV3_0
 62
     7
370
    35
100
AcDbLine
 10
146.9593166329412
 20
210.9711368288137
 30
0.0
 11
146.9193166329412
 21
210.9711368288137
 31
0.0
  0
LINE
  5
15F
330
125
100
AcDbEntity
  8
DV3_0
 62
     7
370
    35
100
AcDbLine
 10
146.9593166329412
 20
215.9311368288137
 30
0.0
 11
146.9593166329412
 21
210.9711368288137
 31
0.0
  0
LINE
  5
160
330
125
100
AcDbEntity
  8
DV3_0
 62
     7
370
    35
100
AcDbLine
 10
146.9193166329412
 20
215.9311368288137
 30
0.0
 11
146.9593166329412
 21
215.9311368288137
 31
0.0
  0
LINE
  5
161
330
125
100
AcDbEntity
  8
DV3_0
 62
     7
370
    35
100
AcDbLine
 10
146.959316632941
 20
187.2111368288137
 30
0.0
 11
146.9193166329412
 21
187.2111368288137
 31
0.0
  0
LINE
  5
162
330
125
100
AcDbEntity
  8
DV3_0
 62
     7
370
    35
100
AcDbLine
 10
146.959316632941
 20
192.1711368288137
 30
0.0
 11
146.959316632941
 21
187.2111368288137
 31
0.0
  0
LINE
  5
163
330
125
100
AcDbEntity
  8
DV3_0
 62
     7
370
    35
100
AcDbLine
 10
146.9193166329412
 20
192.1711368288137
 30
0.0
 11
146.959316632941
 21
192.1711368288137
 31
0.0
  0
LINE
  5
164
330
125
100
AcDbEntity
  8
DV3_0
 62
     7
370
    35
100
AcDbLine
 10
146.9593166329408
 20
163.4511368288136
 30
0.0
 11
146.9193166329412
 21
163.4511368288136
 31
0.0
  0
LINE
  5
165
330
125
100
AcDbEntity
  8
DV3_0
 62
     7
370
    35
100
AcDbLine
 10
146.9593166329408
 20
168.4111368288137
 30
0.0
 11
146.9593166329408
 21
163.4511368288137
 31
0.0
  0
LINE
  5
166
330
125
100
AcDbEntity
  8
DV3_0
 62
     7
370
    35
100
AcDbLine
 10
146.9193166329412
 20
168.4111368288137
 30
0.0
 11
146.9593166329408
 21
168.4111368288137
 31
0.0
  0
LINE
  5
167
330
125
100
AcDbEntity
  8
DV3_0
 62
     7
370
    35
100
AcDbLine
 10
146.9593166329407
 20
139.6911368288137
 30
0.0
 11
146.9193166329412
 21
139.6911368288137
 31
0.0
  0
LINE
  5
168
330
125
100
AcDbEntity
  8
DV3_0
 62
     7
370
    35
100
AcDbLine
 10
146.9593166329407
 20
144.6511368288136
 30
0.0
 11
146.9593166329407
 21
139.6911368288136
 31
0.0
  0
LINE
  5
169
330
125
100
AcDbEntity
  8
DV3_0
 62
     7
370
    35
100
AcDbLine
 10
146.9193166329412
 20
144.6511368288136
 30
0.0
 11
146.9593166329407
 21
144.6511368288136
 31
0.0
  0
LINE
  5
16A
330
125
100
AcDbEntity
  8
DV3_0
 62
     7
370
    35
100
AcDbLine
 10
139.1993330263948
 20
133.1311368288137
 30
0.0
 11
139.1993330263948
 21
135.7711368288137
 31
0.0
  0
LINE
  5
16B
330
125
100
AcDbEntity
  8
DV3_0
 62
     7
370
    35
100
AcDbLine
 10
139.1993330263948
 20
133.1311368288137
 30
0.0
 11
163.5993166329412
 21
133.1311368288137
 31
0.0
  0
LINE
  5
16C
330
125
100
AcDbEntity
  8
DV3_0
 62
     7
370
    35
100
AcDbLine
 10
147.2793166329412
 20
137.1311368288137
 30
0.0
 11
147.3993166329412
 21
137.1311368288137
 31
0.0
  0
LINE
  5
16D
330
125
100
AcDbEntity
  8
DV3_0
 62
     7
370
    35
100
AcDbLine
 10
163.5993166329412
 20
133.1311368288137
 30
0.0
 11
163.5993166329412
 21
135.5311368288138
 31
0.0
  0
LINE
  5
16E
330
125
100
AcDbEntity
  8
DV3_0
 62
     7
370
    25
100
AcDbLine
 10
147.3993166329412
 20
211.2911368288137
 30
0.0
 11
147.2793166329412
 21
211.2911368288137
 31
0.0
  0
LINE
  5
16F
330
125
100
AcDbEntity
  8
DV3_0
 62
     7
370
    25
100
AcDbLine
 10
146.9593166329412
 20
211.2911368288137
 30
0.0
 11
146.9193166329412
 21
211.2911368288137
 31
0.0
  0
LINE
  5
170
330
125
100
AcDbEntity
  8
DV3_0
 62
     7
370
    25
100
AcDbLine
 10
146.9193166329412
 20
141.9311368288137
 30
0.0
 11
146.9593166329407
 21
141.9311368288137
 31
0.0
  0
LINE
  5
171
330
125
100
AcDbEntity
  8
DV3_0
 62
     7
370
    25
100
AcDbLine
 10
147.2793166329412
 20
141.9311368288137
 30
0.0
 11
147.3993166329412
 21
141.9311368288137
 31
0.0
  0
LINE
  5
172
330
125
100
AcDbEntity
  8
DV3_0
 62
     7
370
    35
100
AcDbLine
 10
146.9193166329412
 20
211.3711368288137
 30
0.0
 11
146.9593166329412
 21
211.3711368288137
 31
0.0
  0
LINE
  5
173
330
125
100
AcDbEntity
  8
DV3_0
 62
     7
370
    35
100
AcDbLine
 10
147.2793166329412
 20
211.3711368288137
 30
0.0
 11
147.3993166329412
 21
211.3711368288137
 31
0.0
  0
LINE
  5
174
330
125
100
AcDbEntity
  8
DV3_0
 62
     7
370
    35
100
AcDbLine
 10
147.3993166329411
 20
141.1311368288137
 30
0.0
 11
147.2793166329411
 21
141.1311368288137
 31
0.0
  0
LINE
  5
175
330
125
100
AcDbEntity
  8
DV3_0
 62
     7
370
    35
100
AcDbLine
 10
146.9593166329406
 20
141.1311368288137
 30
0.0
 11
146.9193166329407
 21
141.1311368288137
 31
0.0
  0
ARC
  5
176
330
125
100
AcDbEntity
  8
DV3_0
 62
     7
370
    35
100
AcDbCircle
 10
155.9993166340478
 20
262.3730121404756
 30
0.0
 40
32.54119656110712
100
AcDbArc
 50
262.7618309186327
 51
277.2381695898146
  0
ARC
  5
177
330
125
100
AcDbEntity
  8
DV3_0
 62
     7
370
    35
100
AcDbCircle
 10
-223.6290834249334
 20
-110.8070729468618
 30
0.0
 40
495.3300246742066
100
AcDbArc
 50
42.15777843906946
 51
43.45146568370076
  0
LINE
  5
178
330
125
100
AcDbEntity
  8
DV3_0
 62
     7
370
    35
100
AcDbLine
 10
166.8393166095127
 20
229.8511368288137
 30
0.0
 11
166.8393106898806
 21
229.8511305280899
 31
0.0
  0
LINE
  5
179
330
125
100
AcDbEntity
  8
DV3_0
 62
     7
370
    35
100
AcDbLine
 10
166.839314425788
 20
229.851134487196
 30
0.0
 11
166.8393166095127
 21
229.8511368288137
 31
0.0
  0
ARC
  5
17A
330
125
100
AcDbEntity
  8
DV3_0
 62
     7
370
    35
100
AcDbCircle
 10
534.3730369730752
 20
-118.1657113033578
 30
0.0
 40
506.1588309646215
100
AcDbArc
 50
136.5623738411587
 51
137.8283823250418
  0
ARC
  5
17B
330
125
100
AcDbEntity
  8
DV3_0
 62
     7
370
    35
100
AcDbCircle
 10
-228.7051827283887
 20
-112.8172487559755
 30
0.0
 40
500.566037600251
100
AcDbArc
 50
41.95364162270953
 51
43.23885154631556
  0
LINE
  5
17C
330
125
100
AcDbEntity
  8
DV3_0
 62
     7
370
    25
100
AcDbLine
 10
143.5587614838391
 20
221.8257159666842
 30
0.0
 11
159.2398717820434
 21
221.8257159666842
 31
0.0
  0
ARC
  5
17D
330
125
100
AcDbEntity
  8
DV3_0
 62
     7
370
    35
100
AcDbCircle
 10
530.2287821752745
 20
-111.6449492192288
 30
0.0
 40
498.8340968441232
100
AcDbArc
 50
136.7589172613679
 51
138.048589579835
  0
LINE
  5
17E
330
125
100
AcDbEntity
  8
DV3_0
 62
     7
370
    35
100
AcDbLine
 10
166.8393166317075
 20
230.0911368288138
 30
0.0
 11
166.8393160348927
 21
230.0911361895911
 31
0.0
  0
ARC
  5
17F
330
125
100
AcDbEntity
  8
DV3_0
 62
     7
370
    35
100
AcDbCircle
 10
155.999316634075
 20
262.3668928822223
 30
0.0
 40
32.53512607643996
100
AcDbArc
 50
262.7604731704067
 51
262.8289909127036
  0
SPLINE
  5
180
330
125
100
AcDbEntity
  8
DV3_0
 62
     7
370
    35
100
AcDbSpline
210
0.0
220
0.0
230
1.0
 70
     8
 71
     3
 72
    14
 73
    10
 74
     0
 42
0.000000001
 43
0.0000000001
 40
0.0
 40
0.0
 40
0.0
 40
0.0
 40
0.25
 40
0.25
 40
0.5
 40
0.5
 40
0.75
 40
0.75
 40
1.0
 40
1.0
 40
1.0
 40
1.0
 10
143.5587614838391
 20
221.6458107750297
 30
0.0
 10
143.5760143484986
 20
221.6368734997557
 30
0.0
 10
143.5919795800693
 20
221.6268905309978
 30
0.0
 10
143.6209823030273
 20
221.6046011984291
 30
0.0
 10
143.6341415221904
 20
221.5921205327503
 30
0.0
 10
143.6557732390792
 20
221.5654989155012
 30
0.0
 10
143.6644343727605
 20
221.5511914087233
 30
0.0
 10
143.6762649663274
 20
221.5210648952217
 30
0.0
 10
143.6793166329413
 20
221.5056587174716
 30
0.0
 10
143.6793166329413
 20
221.4898929422625
 30
0.0
  0
SPLINE
  5
181
330
125
100
AcDbEntity
  8
DV3_0
 62
     7
370
    35
100
AcDbSpline
210
0.0
220
0.0
230
1.0
 70
     8
 71
     3
 72
    16
 73
    12
 74
     0
 42
0.000000001
 43
0.0000000001
 40
0.0
 40
0.0
 40
0.0
 40
0.0
 40
0.25
 40
0.25
 40
0.375
 40
0.375
 40
0.5
 40
0.5
 40
0.75
 40
0.75
 40
1.0
 40
1.0
 40
1.0
 40
1.0
 10
159.1193166329413
 20
221.4898929422625
 30
0.0
 10
159.1193166329413
 20
221.5056578976303
 30
0.0
 10
159.1223672310425
 20
221.5210143384857
 30
0.0
 10
159.131159437774
 20
221.5434750435403
 30
0.0
 10
159.1348335552501
 20
221.5509092909278
 30
0.0
 10
159.1433580362423
 20
221.5651929884246
 30
0.0
 10
159.1482153217793
 20
221.5720832858818
 30
0.0
 10
159.1644304756069
 20
221.592057552296
 30
0.0
 10
159.1775758994219
 20
221.6045383164275
 30
0.0
 10
159.2066314268458
 20
221.6268786008859
 30
0.0
 10
159.2226150648604
 20
221.6368715040834
 30
0.0
 10
159.2398717820434
 20
221.6458107750297
 30
0.0
  0
LINE
  5
182
330
125
100
AcDbEntity
  8
DV3_0
 62
     7
370
    35
100
AcDbLine
 10
143.6793166329413
 20
220.0911368288137
 30
0.0
 11
159.1193166329413
 21
220.0911368288137
 31
0.0
  0
LINE
  5
183
330
125
100
AcDbEntity
  8
DV3_0
 62
     7
370
    35
100
AcDbLine
 10
143.6793166329413
 20
221.4898929422625
 30
0.0
 11
143.6793166329413
 21
220.0911368288137
 31
0.0
  0
LINE
  5
184
330
125
100
AcDbEntity
  8
DV3_0
 62
     7
370
    35
100
AcDbLine
 10
159.1193166329413
 20
221.4898929422625
 30
0.0
 11
159.1193166329413
 21
220.0911368288137
 31
0.0
  0
LINE
  5
185
330
125
100
AcDbEntity
  8
DV3_0
 62
     7
370
    25
100
AcDbLine
 10
143.6793166329413
 20
221.4898929422625
 30
0.0
 11
159.1193166329413
 21
221.4898929422625
 31
0.0
  0
ARC
  5
186
330
125
100
AcDbEntity
  8
DV3_0
 62
     7
370
    35
100
AcDbCircle
 10
143.1720767195247
 20
221.4973520510153
 30
0.0
 40
0.5072947546212642
100
AcDbArc
 50
359.1575098150632
 51
40.33715913877143
  0
ARC
  5
187
330
125
100
AcDbEntity
  8
DV3_0
 62
     7
370
    35
100
AcDbCircle
 10
159.6254740656354
 20
221.4977406444572
 30
0.0
 40
0.5062182662658044
100
AcDbArc
 50
139.6170615842769
 51
180.8882694618964
  0
LINE
  5
188
330
125
100
AcDbEntity
  8
DV3_0
 62
     7
370
    35
100
AcDbLine
 10
166.8393166329413
 20
230.0911368288138
 30
0.0
 11
166.8393166329413
 21
229.8511368288137
 31
0.0
  0
LINE
  5
189
330
125
100
AcDbEntity
  8
DV3_0
 62
     7
370
    35
100
AcDbLine
 10
159.2398717820434
 20
221.8257159666841
 30
0.0
 11
159.2398717820434
 21
221.6458107750297
 31
0.0
  0
LINE
  5
18A
330
125
100
AcDbEntity
  8
DV3_0
 62
     7
370
    35
100
AcDbLine
 10
143.5587614838391
 20
221.8257159666841
 30
0.0
 11
143.5587614838391
 21
221.6458107750296
 31
0.0
  0
LINE
  5
18B
330
125
100
AcDbEntity
  8
DV3_0
 62
     7
370
    35
100
AcDbLine
 10
135.9593166329413
 20
230.0911368288137
 30
0.0
 11
135.9593166329413
 21
229.8511368288137
 31
0.0
  0
LINE
  5
18C
330
125
100
AcDbEntity
  8
DV3_0
 62
     7
370
    35
100
AcDbLine
 10
151.8992150811189
 20
230.0911368288137
 30
0.0
 11
135.9589033926883
 21
230.0911368288137
 31
0.0
  0
LINE
  5
18D
330
125
100
AcDbEntity
  8
DV3_0
 62
     7
370
    35
100
AcDbLine
 10
166.8393163333001
 20
230.0911368288137
 30
0.0
 11
160.0993166329413
 21
230.0911368288137
 31
0.0
  0
SPLINE
  5
18E
330
125
100
AcDbEntity
  8
DV3_0
 62
     7
370
    35
100
AcDbSpline
210
0.0
220
0.0
230
1.0
 70
    12
 71
     3
 72
     8
 73
     4
 74
     0
 42
0.000000001
 43
0.0000000001
 40
0.0
 40
0.0
 40
0.0
 40
0.0
 40
1.0
 40
1.0
 40
1.0
 40
1.0
 10
139.234319487222
 20
221.2894922705192
 30
0.0
 41
1.0
 10
139.2441120661277
 20
220.8898562963901
 30
0.0
 41
0.9999996729103753
 10
139.2539255295787
 20
220.4904043518317
 30
0.0
 41
0.9999996729103753
 10
139.2637598679454
 20
220.0911368288138
 30
0.0
 41
1.0
  0
LINE
  5
18F
330
125
100
AcDbEntity
  8
DV3_0
 62
     7
370
    35
100
AcDbLine
 10
139.2637598679455
 20
220.0911368288137
 30
0.0
 11
143.5520172439612
 21
220.0911368288137
 31
0.0
  0
LINE
  5
190
330
125
100
AcDbEntity
  8
DV3_0
 62
     7
370
    35
100
AcDbLine
 10
143.5520172439612
 20
221.5122513798189
 30
0.0
 11
143.5520172439612
 21
220.0911368288138
 31
0.0
  0
ARC
  5
191
330
125
100
AcDbEntity
  8
DV3_0
 62
     7
370
    35
100
AcDbCircle
 10
-197.874178721879
 20
-81.73616747086088
 30
0.0
 40
456.6524398567709
100
AcDbArc
 50
41.61088913563124
 51
43.02592594814854
  0
ARC
  5
192
330
125
100
AcDbEntity
  8
DV3_0
 62
     7
370
    35
100
AcDbCircle
 10
81.58044792704752
 20
195.8248424686104
 30
0.0
 40
63.02711555680575
100
AcDbArc
 50
23.83016174189797
 51
30.36923039170626
  0
LINE
  5
193
330
125
100
AcDbEntity
  8
DV3_0
 62
     7
370
    35
100
AcDbLine
 10
143.5520172439612
 20
220.0911368288138
 30
0.0
 11
143.6793166329413
 21
220.0911368288138
 31
0.0
  0
LINE
  5
194
330
125
100
AcDbEntity
  8
DV3_0
 62
     7
370
    35
100
AcDbLine
 10
143.5520172439612
 20
221.5122513798189
 30
0.0
 11
143.6768250608795
 21
221.5122513798189
 31
0.0
  0
LINE
  5
195
330
125
100
AcDbEntity
  8
DV3_0
 62
     7
370
    35
100
AcDbLine
 10
135.9593166329413
 20
229.8514441987427
 30
0.0
 11
135.9593166329413
 21
227.6883013648085
 31
0.0
  0
LINE
  5
196
330
125
100
AcDbEntity
  8
DV3_0
 62
     7
370
    35
100
AcDbLine
 10
135.9678145710528
 20
229.8511368957321
 30
0.0
 11
135.9593165788346
 21
229.8511368957321
 31
0.0
  0
ARC
  5
197
330
125
100
AcDbEntity
  8
DV3_0
 62
     7
370
    35
100
AcDbCircle
 10
500.6728119782184
 20
-81.73616746217377
 30
0.0
 40
456.6524398438665
100
AcDbArc
 50
136.9740740518313
 51
138.3891108643886
  0
LINE
  5
198
330
125
100
AcDbEntity
  8
DV3_0
 62
     7
370
    35
100
AcDbLine
 10
159.2466160219214
 20
220.0911368288137
 30
0.0
 11
159.2466160219214
 21
221.5122513798189
 31
0.0
  0
LINE
  5
199
330
125
100
AcDbEntity
  8
DV3_0
 62
     7
370
    35
100
AcDbLine
 10
159.2466160219213
 20
220.0911368288137
 30
0.0
 11
163.5348733979371
 21
220.0911368288137
 31
0.0
  0
SPLINE
  5
19A
330
125
100
AcDbEntity
  8
DV3_0
 62
     7
370
    35
100
AcDbSpline
210
0.0
220
0.0
230
1.0
 70
    12
 71
     3
 72
     8
 73
     4
 74
     0
 42
0.000000001
 43
0.0000000001
 40
0.0
 40
0.0
 40
0.0
 40
0.0
 40
1.0
 40
1.0
 40
1.0
 40
1.0
 10
163.5348733979372
 20
220.0911368288137
 30
0.0
 41
1.0
 10
163.5447077363038
 20
220.4904043518321
 30
0.0
 41
0.9999996729103753
 10
163.5545211997549
 20
220.8898562963904
 30
0.0
 41
0.9999996729103753
 10
163.5643137786606
 20
221.2894922705192
 30
0.0
 41
1.0
  0
ARC
  5
19B
330
125
100
AcDbEntity
  8
DV3_0
 62
     7
370
    35
100
AcDbCircle
 10
221.218185338835
 20
195.8248424686105
 30
0.0
 40
63.02711555680573
100
AcDbArc
 50
149.6307696082937
 51
156.1698382581021
  0
LINE
  5
19C
330
125
100
AcDbEntity
  8
DV3_0
 62
     7
370
    35
100
AcDbLine
 10
159.2466160219214
 20
220.0911368288137
 30
0.0
 11
159.1193166329413
 21
220.0911368288137
 31
0.0
  0
LINE
  5
19D
330
125
100
AcDbEntity
  8
DV3_0
 62
     7
370
    35
100
AcDbLine
 10
159.2466160219214
 20
221.5122513798189
 30
0.0
 11
159.121798371379
 21
221.5122513798189
 31
0.0
  0
LINE
  5
19E
330
125
100
AcDbEntity
  8
DV3_0
 62
     7
370
    35
100
AcDbLine
 10
166.8393166329413
 20
227.6883013648085
 30
0.0
 11
166.8393166329413
 21
229.8514441987427
 31
0.0
  0
LINE
  5
19F
330
125
100
AcDbEntity
  8
DV3_0
 62
     7
370
    35
100
AcDbLine
 10
146.4393166329413
 20
219.8511368288124
 30
0.0
 11
146.4393166329413
 21
220.0911368288137
 31
0.0
  0
LINE
  5
1A0
330
125
100
AcDbEntity
  8
DV3_0
 62
     7
370
    35
100
AcDbLine
 10
145.4793166329413
 20
220.0911368288137
 30
0.0
 11
145.4793166329413
 21
219.8511368288124
 31
0.0
  0
ARC
  5
1A1
330
125
100
AcDbEntity
  8
DV3_0
 62
     7
370
    35
100
AcDbCircle
 10
156.0643771461373
 20
263.5991218639276
 30
0.0
 40
33.76094171303496
100
AcDbArc
 50
262.9818124869125
 51
265.6871107319687
  0
ARC
  5
1A2
330
125
100
AcDbEntity
  8
DV3_0
 62
     7
370
    35
100
AcDbCircle
 10
154.5767465731992
 20
222.4271712435873
 30
0.0
 40
7.579870830702138
100
AcDbArc
 50
88.3173646909855
 51
97.97237743272422
  0
LINE
  5
1A3
330
125
100
AcDbEntity
  8
DV3_0
 62
     7
370
    35
100
AcDbLine
 10
154.7993166329413
 20
230.0037736733466
 30
0.0
 11
157.1993166329413
 21
230.0037736733466
 31
0.0
  0
ARC
  5
1A4
330
125
100
AcDbEntity
  8
DV3_0
 62
     7
370
    35
100
AcDbCircle
 10
157.415886739009
 20
222.318005222617
 30
0.0
 40
7.688819108879623
100
AcDbArc
 50
82.09613798490118
 51
91.61405727282526
  0
ARC
  5
1A5
330
125
100
AcDbEntity
  8
DV3_0
 62
     7
370
    35
100
AcDbCircle
 10
155.9367108851207
 20
263.5741068372748
 30
0.0
 40
33.73581418521666
100
AcDbArc
 50
274.3119342307599
 51
277.0192406247936
  0
LINE
  5
1A6
330
125
100
AcDbEntity
  8
DV3_0
 62
     7
370
    25
100
AcDbLine
 10
154.7993166329413
 20
230.0037736733466
 30
0.0
 11
154.7993166329413
 21
229.8441971300725
 31
0.0
  0
LINE
  5
1A7
330
125
100
AcDbEntity
  8
DV3_0
 62
     7
370
    25
100
AcDbLine
 10
157.1993166329413
 20
230.0037736733466
 30
0.0
 11
157.1993166329413
 21
229.8441971300725
 31
0.0
  0
LINE
  5
1A8
330
125
100
AcDbEntity
  8
DV3_0
 62
     7
370
    35
100
AcDbLine
 10
160.0603984176188
 20
230.0911368288137
 30
0.0
 11
151.9382348482639
 21
230.0911368288137
 31
0.0
  0
LINE
  5
1A9
330
125
100
AcDbEntity
  8
DV3_0
 62
     7
370
    35
100
AcDbLine
 10
155.1873166329413
 20
229.8430363549303
 30
0.0
 11
155.1873166329413
 21
229.8441971300725
 31
0.0
  0
LINE
  5
1AA
330
125
100
AcDbEntity
  8
DV3_0
 62
     7
370
    35
100
AcDbLine
 10
156.8113166329413
 20
229.8441971300725
 30
0.0
 11
156.8113166329413
 21
229.8430355866134
 31
0.0
  0
ENDBLK
  5
1AC
330
125
100
AcDbEntity
  8
0
100
AcDbBlockEnd
  0
BLOCK
  5
25A
330
1AD
100
AcDbEntity
  8
0
100
AcDbBlockBegin
  2
SE3
 70
     0
 10
0.0
 20
0.0
 30
0.0
  3
SE3
  1

  0
ELLIPSE
  5
1B0
330
1AD
100
AcDbEntity
  8
DV4_0
 62
     7
370
    35
100
AcDbEllipse
 10
132.4689528247221
 20
79.86238827804695
 30
0.0
 11
-0.4399999999999993
 21
0.7621023553303031
 31
0.0
210
0.0
220
0.0
230
1.0
 40
0.5773502691896284
 41
0.1940630974178319
 42
2.947529556172003
  0
ELLIPSE
  5
1B1
330
1AD
100
AcDbEntity
  8
DV4_0
 62
     7
370
    35
100
AcDbEllipse
 10
132.2992471972373
 20
79.76440868833562
 30
0.0
 11
-0.4400000000000001
 21
0.7621023553303026
 31
0.0
210
0.0
220
0.0
230
1.0
 40
0.5773502691896267
 41
0.0
 42
6.283185307179586
  0
LINE
  5
1B2
330
1AD
100
AcDbEntity
  8
DV4_0
 62
     7
370
    35
100
AcDbLine
 10
130.6587594648845
 20
95.50646276862219
 30
0.0
 11
135.6367912044378
 21
92.63239480375658
 31
0.0
  0
ELLIPSE
  5
1B3
330
1AD
100
AcDbEntity
  8
DV4_0
 62
     7
370
    35
100
AcDbEllipse
 10
135.9762024594074
 20
23.78540309993072
 30
0.0
 11
-0.4799999999999984
 21
9.367506770274760E-16
 31
0.0
210
0.0
220
0.0
230
1.0
 40
0.5773502691896266
 41
0.7853981633974314
 42
1.967737680002716
  0
LINE
  5
1B4
330
1AD
100
AcDbEntity
  8
DV4_0
 62
     7
370
    35
100
AcDbLine
 10
130.6587594648845
 20
26.46351188537367
 30
0.0
 11
135.6367912044378
 21
23.58944392050807
 31
0.0
  0
ELLIPSE
  5
1B5
330
1AD
100
AcDbEntity
  8
DV4_0
 62
     7
370
    35
100
AcDbEllipse
 10
130.9981707198541
 20
26.65947106479632
 30
0.0
 11
0.4800000000000047
 21
2.688821387764051E-15
 31
0.0
210
0.0
220
0.0
230
1.0
 40
0.5773502691896206
 41
3.141592653589783
 42
3.926990816987149
  0
LINE
  5
1B6
330
1AD
100
AcDbEntity
  8
DV4_0
 62
     7
370
    25
100
AcDbLine
 10
135.6367912044378
 20
92.63239480375658
 30
0.0
 11
135.6367912044378
 21
23.58944392050806
 31
0.0
  0
LINE
  5
1B7
330
1AD
100
AcDbEntity
  8
DV4_0
 62
     7
370
    25
100
AcDbLine
 10
130.6587594648845
 20
95.50646276862219
 30
0.0
 11
130.6587594648845
 21
26.46351188537366
 31
0.0
  0
LINE
  5
1B8
330
1AD
100
AcDbEntity
  8
DV4_0
 62
     7
370
    35
100
AcDbLine
 10
130.5181707198541
 20
95.58763171841062
 30
0.0
 11
130.5181707198541
 21
26.65947106479632
 31
0.0
  0
LINE
  5
1B9
330
1AD
100
AcDbEntity
  8
DV4_0
 62
     7
370
    35
100
AcDbLine
 10
161.9977320070723
 20
103.3121700822913
 30
0.0
 11
161.9977320070723
 21
102.4574100914855
 31
0.0
  0
LINE
  5
1BA
330
1AD
100
AcDbEntity
  8
DV4_0
 62
     7
370
    35
100
AcDbLine
 10
162.550200461425
 20
102.993202271452
 30
0.0
 11
161.9977320070723
 21
103.3121700822912
 31
0.0
  0
LINE
  5
1BB
330
1AD
100
AcDbEntity
  8
DV4_0
 62
     7
370
    35
100
AcDbLine
 10
162.1674376345571
 20
102.3594305017741
 30
0.0
 11
162.1674376345571
 21
103.2141904925799
 31
0.0
  0
SPLINE
  5
1BC
330
1AD
100
AcDbEntity
  8
DV4_0
 62
     7
370
    35
100
AcDbSpline
210
0.0
220
0.0
230
1.0
 70
     8
 71
     3
 72
    34
 73
    30
 74
     0
 42
0.000000001
 43
0.0000000001
 40
0.0
 40
0.0
 40
0.0
 40
0.0
 40
0.0104403380926388
 40
0.0208970373170939
 40
0.0313741993466727
 40
0.0418759018747851
 40
0.0524061940826945
 40
0.0629690922695354
 40
0.0941546792284871
 40
0.1254391911408803
 40
0.1565279961013938
 40
0.1876065246802245
 40
0.2502663515575116
 40
0.3125116704562084
 40
0.3745474608209823
 40
0.4372603662898822
 40
0.4994842276488476
 40
0.5618301008878975
 40
0.6245308667521324
 40
0.6868440522097532
 40
0.7496149632436473
 40
0.8120021268453946
 40
0.8432850623727693
 40
0.8745767002425255
 40
0.9060138225691797
 40
0.9373420933649086
 40
0.9583219726297968
 40
0.9791972745501429
 40
1.0
 40
1.0
 40
1.0
 40
1.0
 10
147.0432027917394
 20
91.75695340738356
 30
0.0
 10
147.1097451689947
 20
91.69118350872658
 30
0.0
 10
147.2429342025617
 20
91.55954064291316
 30
0.0
 10
147.4491946127887
 20
91.36879016909141
 30
0.0
 10
147.6602881859533
 20
91.18287174334083
 30
0.0
 10
147.8766238248746
 20
91.00233470428776
 30
0.0
 10
148.0980263105991
 20
90.8271124815672
 30
0.0
 10
148.4715290377902
 20
90.54700113663355
 30
0.0
 10
149.0125069338771
 20
90.18317827741505
 30
0.0
 10
149.7381527623571
 20
89.7728703751334
 30
0.0
 10
150.4912099229576
 20
89.42070996000167
 30
0.0
 10
151.5293461232478
 20
89.03082483108469
 30
0.0
 10
152.8782905515679
 20
88.70070700528635
 30
0.0
 10
154.5415950121663
 20
88.57551696772212
 30
0.0
 10
156.216912975869
 20
88.73415349296945
 30
0.0
 10
157.8666439594042
 20
89.18647945925099
 30
0.0
 10
159.4563562611179
 20
89.93342956925257
 30
0.0
 10
160.9498836694472
 20
90.96134153029227
 30
0.0
 10
162.3203435012741
 20
92.24902182511228
 30
0.0
 10
163.5511771676513
 20
93.76798007901805
 30
0.0
 10
164.6280523413652
 20
95.4767731975683
 30
0.0
 10
165.3988795054759
 20
97.03319337731526
 30
0.0
 10
165.9401344311111
 20
98.33537291007265
 30
0.0
 10
166.3111653154787
 20
99.34113640388465
 30
0.0
 10
166.6472509564947
 20
100.369005091694
 30
0.0
 10
166.9164072914339
 20
101.2998792798433
 30
0.0
 10
167.1302634018709
 20
102.1219096015191
 30
0.0
 10
167.3002851188857
 20
102.8302519211646
 30
0.0
 10
167.4020452277579
 20
103.3040220956177
 30
0.0
 10
167.4528366816771
 20
103.5404946805109
 30
0.0
  0
ARC
  5
1BD
330
1AD
100
AcDbEntity
  8
DV4_0
 62
     7
370
    35
100
AcDbCircle
 10
169.5322654335832
 20
103.1512160316799
 30
0.0
 40
2.115552363022369
100
AcDbArc
 50
151.3112753469457
 51
169.3966953926131
  0
ELLIPSE
  5
1BE
330
1AD
100
AcDbEntity
  8
DV4_0
 62
     7
370
    35
100
AcDbEllipse
 10
134.7266385278068
 20
110.9248372975836
 30
0.0
 11
34.96715025910579
 21
-7.760458942129846E-12
 31
0.0
210
0.0
220
0.0
230
1.0
 40
0.5773502691893339
 41
-0.3413408728010037
 42
-0.3395530912989226
  0
ELLIPSE
  5
1BF
330
1AD
100
AcDbEntity
  8
DV4_0
 62
     7
370
    35
100
AcDbEllipse
 10
134.726638527848
 20
110.9248372975706
 30
0.0
 11
34.96715025906013
 21
-2.286869360546007E-8
 31
0.0
210
0.0
220
0.0
230
1.0
 40
0.5773502704170159
 41
4.828995788111921
 42
5.05372933812701
  0
ARC
  5
1C0
330
1AD
100
AcDbEntity
  8
DV4_0
 62
     7
370
    35
100
AcDbCircle
 10
146.6028720090318
 20
91.25862417950422
 30
0.0
 40
0.6649986598171909
100
AcDbArc
 50
48.53572836596807
 51
104.8975277274561
  0
ELLIPSE
  5
1C1
330
1AD
100
AcDbEntity
  8
DV4_0
 62
     7
370
    35
100
AcDbEllipse
 10
134.726638527955
 20
110.9248372975628
 30
0.0
 11
35.20715025895759
 21
2.271516308383071E-11
 31
0.0
210
0.0
220
0.0
230
1.0
 40
0.5773502691904526
 41
5.941717664304718
 42
6.166578499829339
  0
ARC
  5
1C2
330
1AD
100
AcDbEntity
  8
DV4_0
 62
     7
370
    35
100
AcDbCircle
 10
169.7528255338355
 20
103.1039112638144
 30
0.0
 40
2.111231978140403
100
AcDbArc
 50
151.2938032355873
 51
169.3490716853514
  0
SPLINE
  5
1C3
330
1AD
100
AcDbEntity
  8
DV4_0
 62
     7
370
    35
100
AcDbSpline
210
0.0
220
0.0
230
1.0
 70
     8
 71
     3
 72
    56
 73
    52
 74
     0
 42
0.000000001
 43
0.0000000001
 40
0.0
 40
0.0
 40
0.0
 40
0.0
 40
0.0523943044417797
 40
0.0523943044417797
 40
0.1163364242367289
 40
0.1163364242367289
 40
0.1483074841342034
 40
0.1483074841342034
 40
0.180278544031678
 40
0.180278544031678
 40
0.2442206638266272
 40
0.2442206638266272
 40
0.3081627836215763
 40
0.3081627836215763
 40
0.340133843519051
 40
0.340133843519051
 40
0.3721049034165255
 40
0.3721049034165255
 40
0.4360470232114747
 40
0.4360470232114747
 40
0.4999891430064238
 40
0.4999891430064238
 40
0.5159746729551611
 40
0.5159746729551611
 40
0.5319602029038983
 40
0.5319602029038983
 40
0.563931262801373
 40
0.563931262801373
 40
0.6278733825963221
 40
0.6278733825963221
 40
0.6598444424937967
 40
0.6598444424937967
 40
0.6918155023912712
 40
0.6918155023912712
 40
0.7557576221862204
 40
0.7557576221862204
 40
0.787728682083695
 40
0.787728682083695
 40
0.8037142120324322
 40
0.8037142120324322
 40
0.8196997419811696
 40
0.8196997419811696
 40
0.8836418617761187
 40
0.8836418617761187
 40
0.9475839815710679
 40
0.9475839815710679
 40
0.9635695115198053
 40
0.9635695115198053
 40
0.9795550414685424
 40
0.9795550414685424
 40
1.0
 40
1.0
 40
1.0
 40
1.0
 10
147.1263800263615
 20
91.628621741416
 30
0.0
 10
147.4620579521851
 20
91.29445491743203
 30
0.0
 10
147.8169473705585
 20
90.98549850448286
 30
0.0
 10
148.6425894309611
 20
90.35472345537094
 30
0.0
 10
149.1216792011886
 20
90.04507856710562
 30
0.0
 10
149.8747703497299
 20
89.6384830944512
 30
0.0
 10
150.1315677620902
 20
89.5126292013915
 30
0.0
 10
150.6563964225074
 20
89.28108348155924
 30
0.0
 10
150.9251782829502
 20
89.17519596994023
 30
0.0
 10
151.7371060445703
 20
88.89292900392887
 30
0.0
 10
152.2885097667519
 20
88.75033077151085
 30
0.0
 10
153.4073993491953
 20
88.55789976113223
 30
0.0
 10
153.9748989651026
 20
88.50804930989084
 30
0.0
 10
154.8363100332434
 20
88.50757955506639
 30
0.0
 10
155.1251517135773
 20
88.51984534191092
 30
0.0
 10
155.7060533833003
 20
88.5705440963375
 30
0.0
 10
155.9945803521998
 20
88.6086807572531
 30
0.0
 10
156.8532867614136
 20
88.76092146123356
 30
0.0
 10
157.4169156893325
 20
88.91275071409154
 30
0.0
 10
158.5248066622324
 20
89.3179296697892
 30
0.0
 10
159.0690747012272
 20
89.57126082553764
 30
0.0
 10
159.7363299262761
 20
89.95473137608967
 30
0.0
 10
159.8693568856108
 20
90.03493484210459
 30
0.0
 10
160.1319547868026
 20
90.20079535455457
 30
0.0
 10
160.2617323092538
 20
90.2865578081638
 30
0.0
 10
160.646584268117
 20
90.55220253115559
 30
0.0
 10
160.8971804803713
 20
90.74043422800685
 30
0.0
 10
161.6316295342516
 20
91.33772400308106
 30
0.0
 10
162.09817217314
 20
91.77926199412877
 30
0.0
 10
162.7650367100676
 20
92.50552825786166
 30
0.0
 10
162.9818255079302
 20
92.75830584683428
 30
0.0
 10
163.4046012152604
 20
93.2854160844022
 30
0.0
 10
163.6083504319515
 20
93.55696390559399
 30
0.0
 10
164.1976028117638
 20
94.39366572383848
 30
0.0
 10
164.5614655874346
 20
94.9811525127875
 30
0.0
 10
165.068697431622
 20
95.90435536159129
 30
0.0
 10
165.2313303068663
 20
96.21910832917722
 30
0.0
 10
165.4660929673239
 20
96.70164500859383
 30
0.0
 10
165.5428152877982
 20
96.86422643474799
 30
0.0
 10
165.6932673034908
 20
97.19285695501166
 30
0.0
 10
165.7670876963007
 20
97.35912818985278
 30
0.0
 10
166.1267438169816
 20
98.19411261266632
 30
0.0
 10
166.3857952219579
 20
98.87656583727099
 30
0.0
 10
166.8552814637578
 20
100.2677974680139
 30
0.0
 10
167.0656856829668
 20
100.9765839087853
 30
0.0
 10
167.3021989051753
 20
101.8783231721583
 30
0.0
 10
167.3481720751132
 20
102.0594622094764
 30
0.0
 10
167.4375391319996
 20
102.4233186002141
 30
0.0
 10
167.4809628602104
 20
102.6061668275592
 30
0.0
 10
167.5769107735539
 20
103.0239835461709
 30
0.0
 10
167.628508901833
 20
103.2588642948137
 30
0.0
 10
167.6779670158461
 20
103.4941196643515
 30
0.0
  0
ARC
  5
1C4
330
1AD
100
AcDbEntity
  8
DV4_0
 62
     7
370
    35
100
AcDbCircle
 10
146.6873753315526
 20
91.12814499021712
 30
0.0
 40
0.6657342567081942
100
AcDbArc
 50
48.74363523981965
 51
104.8768955188441
  0
ELLIPSE
  5
1C5
330
1AD
100
AcDbEntity
  8
DV4_0
 62
     7
370
    35
100
AcDbEllipse
 10
134.7266385278246
 20
110.9248372976284
 30
0.0
 11
35.20715025911362
 21
-1.630029444754655E-11
 31
0.0
210
0.0
220
0.0
230
1.0
 40
0.5773502691902938
 41
4.82899578773509
 42
5.053856112910996
  0
LINE
  5
1C6
330
1AD
100
AcDbEntity
  8
DV4_0
 62
     7
370
    25
100
AcDbLine
 10
138.8227346319277
 20
90.73601674369529
 30
0.0
 11
138.8227346319277
 21
21.88902503986941
 31
0.0
  0
ELLIPSE
  5
1C7
330
1AD
100
AcDbEntity
  8
DV4_0
 62
     7
370
    35
100
AcDbEllipse
 10
134.726638527845
 20
42.07784559375252
 30
0.0
 11
35.20715025906755
 21
-1.132427485117660E-13
 31
0.0
210
0.0
220
0.0
230
1.0
 40
0.5773502691896256
 41
4.828995787734393
 42
6.166578499829877
  0
LINE
  5
1C8
330
1AD
100
AcDbEntity
  8
DV4_0
 62
     7
370
    25
100
AcDbLine
 10
169.6947014720614
 20
108.5599551092597
 30
0.0
 11
169.6947014720614
 21
39.71296340543381
 31
0.0
  0
SPLINE
  5
1C9
330
1AD
100
AcDbEntity
  8
DV4_0
 62
     7
370
    25
100
AcDbSpline
210
0.0
220
0.0
230
1.0
 70
    12
 71
     2
 72
     6
 73
     3
 74
     0
 42
0.000000001
 43
0.0000000001
 40
0.0
 40
0.0
 40
0.0
 40
1.0
 40
1.0
 40
1.0
 10
146.5164526668168
 20
91.77156362783548
 30
0.0
 41
1.0
 10
146.4741820400512
 20
91.8364176683645
 30
0.0
 41
1.0
 10
146.4319067757599
 20
91.90127070599137
 30
0.0
 41
1.0
  0
LINE
  5
1CA
330
1AD
100
AcDbEntity
  8
DV4_0
 62
     7
370
    25
100
AcDbLine
 10
167.6764169018
 20
104.166787718257
 30
0.0
 11
167.9010761676425
 21
104.1179751559137
 31
0.0
  0
ELLIPSE
  5
1CB
330
1AD
100
AcDbEntity
  8
DV4_0
 62
     7
370
    35
100
AcDbEllipse
 10
136.6097701353504
 20
23.39348474108543
 30
0.0
 11
0.4479999999999897
 21
-3.469446951953615E-17
 31
0.0
210
0.0
220
0.0
230
1.0
 40
0.5773502691896254
 41
3.141592653589793
 42
3.926990816987228
  0
LINE
  5
1CC
330
1AD
100
AcDbEntity
  8
DV4_0
 62
     7
370
    35
100
AcDbLine
 10
136.2929862973789
 20
23.21058950695762
 30
0.0
 11
138.4538292492948
 21
21.96302624699248
 31
0.0
  0
ELLIPSE
  5
1CD
330
1AD
100
AcDbEntity
  8
DV4_0
 62
     7
370
    35
100
AcDbEllipse
 10
138.7706130872663
 20
22.14592148112029
 30
0.0
 11
-0.4480000000000007
 21
2.758210326803124E-15
 31
0.0
210
0.0
220
0.0
230
1.0
 40
0.5773502691896172
 41
0.7853981633974625
 42
1.687403134144614
  0
ELLIPSE
  5
1CE
330
1AD
100
AcDbEntity
  8
DV4_0
 62
     7
370
    35
100
AcDbEllipse
 10
169.2497437835312
 20
39.74305579327466
 30
0.0
 11
-0.4480000000000097
 21
2.983724378680109E-15
 31
0.0
210
0.0
220
0.0
230
1.0
 40
0.5773502691896163
 41
3.024985846240465
 42
3.141592653589793
  0
ELLIPSE
  5
1CF
330
1AD
100
AcDbEntity
  8
DV4_0
 62
     7
370
    35
100
AcDbEllipse
 10
138.7706130872663
 20
90.99291318494618
 30
0.0
 11
0.2079999999999901
 21
-9.306791448615572E-15
 31
0.0
210
0.0
220
0.0
230
1.0
 40
0.577350269189633
 41
3.92699081698745
 42
4.828995787734553
  0
LINE
  5
1D0
330
1AD
100
AcDbEntity
  8
DV4_0
 62
     7
370
    35
100
AcDbLine
 10
138.6066396854214
 20
90.91775198380833
 30
0.0
 11
138.6235348767795
 21
90.90799754052969
 31
0.0
  0
LINE
  5
1D1
330
1AD
100
AcDbEntity
  8
DV4_0
 62
     7
370
    35
100
AcDbLine
 10
138.9743352116383
 20
90.94242106959156
 30
0.0
 11
138.9743352116383
 21
90.88605265277272
 31
0.0
  0
ELLIPSE
  5
1D2
330
1AD
100
AcDbEntity
  8
DV4_0
 62
     7
370
    35
100
AcDbEllipse
 10
136.6097701353504
 20
92.24047644491131
 30
0.0
 11
0.4479999999999935
 21
-1.051242426441945E-14
 31
0.0
210
0.0
220
0.0
230
1.0
 40
0.5773502691896258
 41
2.839022452937246
 42
3.926990816987339
  0
LINE
  5
1D3
330
1AD
100
AcDbEntity
  8
DV4_0
 62
     7
370
    25
100
AcDbLine
 10
136.2929862973789
 20
92.0575812107835
 30
0.0
 11
136.2929862973789
 21
23.21058950695762
 31
0.0
  0
LINE
  5
1D4
330
1AD
100
AcDbEntity
  8
DV4_0
 62
     7
370
    35
100
AcDbLine
 10
136.2929862973789
 20
92.0575812107835
 30
0.0
 11
138.4538292492948
 21
90.81001795081836
 31
0.0
  0
LINE
  5
1D5
330
1AD
100
AcDbEntity
  8
DV4_0
 62
     7
370
    25
100
AcDbLine
 10
138.4538292492948
 20
90.81001795081836
 30
0.0
 11
138.4538292492948
 21
21.96302624699248
 31
0.0
  0
ELLIPSE
  5
1D6
330
1AD
100
AcDbEntity
  8
DV4_0
 62
     7
370
    35
100
AcDbEllipse
 10
138.7706130872663
 20
90.99291318494618
 30
0.0
 11
-0.4479999999999987
 21
1.117161918529064E-14
 31
0.0
210
0.0
220
0.0
230
1.0
 40
0.5773502691896226
 41
0.7853981633974687
 42
1.687403134144562
  0
ELLIPSE
  5
1D7
330
1AD
100
AcDbEntity
  8
DV4_0
 62
     7
370
    35
100
AcDbEllipse
 10
169.2497437835312
 20
108.5900474971005
 30
0.0
 11
-0.4480000000000069
 21
6.331740687315347E-15
 31
0.0
210
0.0
220
0.0
230
1.0
 40
0.577350269189613
 41
3.024985846239978
 42
3.449788329509088
  0
LINE
  5
1D8
330
1AD
100
AcDbEntity
  8
DV4_0
 62
     7
370
    25
100
AcDbLine
 10
167.6779659772743
 20
103.4941198031631
 30
0.0
 11
167.4528366608279
 21
103.5404946830697
 31
0.0
  0
LINE
  5
1D9
330
1AD
100
AcDbEntity
  8
DV4_0
 62
     7
370
    25
100
AcDbLine
 10
147.0432040690762
 20
91.75695448128549
 30
0.0
 11
147.1263808408873
 21
91.62862242955332
 31
0.0
  0
LINE
  5
1DA
330
1AD
100
AcDbEntity
  8
DV4_0
 62
     7
370
    35
100
AcDbLine
 10
136.1617701353505
 20
92.24047644491132
 30
0.0
 11
136.1617701353505
 21
23.39348474108544
 31
0.0
  0
LINE
  5
1DB
330
1AD
100
AcDbEntity
  8
DV4_0
 62
     7
370
    35
100
AcDbLine
 10
169.6977437835313
 20
39.74305579327466
 30
0.0
 11
169.6977437835313
 21
108.5900474971005
 31
0.0
  0
SPLINE
  5
1DC
330
1AD
100
AcDbEntity
  8
DV4_0
 62
     7
370
    35
100
AcDbSpline
210
0.0
220
0.0
230
1.0
 70
     8
 71
     3
 72
    40
 73
    36
 74
     0
 42
0.000000001
 43
0.0000000001
 40
0.0
 40
0.0
 40
0.0
 40
0.0
 40
0.0360013260178555
 40
0.0716456571448034
 40
0.1069330563645778
 40
0.1418635886329465
 40
0.1764373209584156
 40
0.2106543224870056
 40
0.2445146645915049
 40
0.2780184209654357
 40
0.3111656677219849
 40
0.3439564834983206
 40
0.3763909495654857
 40
0.408469149944431
 40
0.4401911715284459
 40
0.4715571042124333
 40
0.5025670410296355
 40
0.533221078296035
 40
0.5635193157633143
 40
0.593461856780638
 40
0.6230488084661918
 40
0.6522802818888654
 40
0.6811563922611296
 40
0.7096772591435765
 40
0.7378430066624199
 40
0.7656537637405006
 40
0.7931096643430467
 40
0.8202108477393146
 40
0.8469574587814077
 40
0.8733496482012599
 40
0.8993875729278386
 40
0.9250713964255993
 40
0.9504012890563438
 40
0.97537742846621
 40
1.0
 40
1.0
 40
1.0
 40
1.0
 10
146.5220795003432
 20
91.91984523843212
 30
0.0
 10
146.5273516122254
 20
91.92190086729617
 30
0.0
 10
146.5378435568876
 20
91.92599174108064
 30
0.0
 10
146.553467913515
 20
91.93140965936897
 30
0.0
 10
146.5688891186959
 20
91.93626968363077
 30
0.0
 10
146.5840909496953
 20
91.94053217507577
 30
0.0
 10
146.5990597749716
 20
91.94421960324068
 30
0.0
 10
146.6137825215295
 20
91.9473391707923
 30
0.0
 10
146.6282471950131
 20
91.94990314753171
 30
0.0
 10
146.6424427234375
 20
91.95192342125176
 30
0.0
 10
146.6563589768934
 20
91.95341285331104
 30
0.0
 10
146.6699867385614
 20
91.9543848409988
 30
0.0
 10
146.6833176865191
 20
91.95485335499102
 30
0.0
 10
146.6963443708575
 20
91.95483285374334
 30
0.0
 10
146.7090601903932
 20
91.95433823268041
 30
0.0
 10
146.7214593680403
 20
91.9533847666581
 30
0.0
 10
146.733536925274
 20
91.95198805672871
 30
0.0
 10
146.7452886557536
 20
91.9501639783724
 30
0.0
 10
146.7567110982567
 20
91.94792863199666
 30
0.0
 10
146.767801509049
 20
91.94529829553653
 30
0.0
 10
146.7785578338098
 20
91.94228937922566
 30
0.0
 10
146.7889786792379
 20
91.93891838254852
 30
0.0
 10
146.7990632844117
 20
91.93520185334279
 30
0.0
 10
146.8088114921308
 20
91.93115634918479
 30
0.0
 10
146.8182237198791
 20
91.92679840054276
 30
0.0
 10
146.8273009321684
 20
91.92214447752609
 30
0.0
 10
146.8360446082331
 20
91.91721095344288
 30
0.0
 10
146.8444567275292
 20
91.91201408990008
 30
0.0
 10
146.8525396912145
 20
91.90656995276181
 30
0.0
 10
146.8602964793476
 20
91.90089459064322
 30
0.0
 10
146.8677299475523
 20
91.89500326234365
 30
0.0
 10
146.8748452728904
 20
91.88891315165502
 30
0.0
 10
146.8816408877416
 20
91.88263334036478
 30
0.0
 10
146.8881414953281
 20
91.87620136431794
 30
0.0
 10
146.8922613984865
 20
91.871734996512
 30
0.0
 10
146.8943066655573
 20
91.86951773201687
 30
0.0
  0
LINE
  5
1DD
330
1AD
100
AcDbEntity
  8
DV4_0
 62
     7
370
    25
100
AcDbLine
 10
146.5220795003427
 20
91.91984523843189
 30
0.0
 11
146.4596369455333
 21
91.95589646426002
 31
0.0
  0
ELLIPSE
  5
1DE
330
1AD
100
AcDbEntity
  8
DV4_0
 62
     7
370
    35
100
AcDbEllipse
 10
138.6946326207061
 20
90.60567033303681
 30
0.0
 11
0.8000000000000036
 21
8.951173136040326E-15
 31
0.0
210
0.0
220
0.0
230
1.0
 40
0.5773502691896203
 41
0.7185398943063763
 42
0.8722205326946035
  0
ELLIPSE
  5
1DF
330
1AD
100
AcDbEntity
  8
DV4_0
 62
     7
370
    35
100
AcDbEllipse
 10
138.6946326207061
 20
90.8669492389337
 30
0.0
 11
0.8000000000000026
 21
-6.245004513516508E-16
 31
0.0
210
0.0
220
0.0
230
1.0
 40
0.5773502691895945
 41
0.1251622916423454
 42
0.2457369178893332
  0
ELLIPSE
  5
1E0
330
1AD
100
AcDbEntity
  8
DV4_0
 62
     7
370
    35
100
AcDbEllipse
 10
134.7266385278733
 20
110.9248372975091
 30
0.0
 11
34.9671502590034
 21
2.493338868703177E-11
 31
0.0
210
0.0
220
0.0
230
1.0
 40
0.57735026918874
 41
4.848990829479664
 42
5.056467343906117
  0
ELLIPSE
  5
1E1
330
1AD
100
AcDbEntity
  8
DV4_0
 62
     7
370
    35
100
AcDbEllipse
 10
134.7266385278897
 20
110.9248372975718
 30
0.0
 11
34.96715025902283
 21
9.530154443382345E-12
 31
0.0
210
0.0
220
0.0
230
1.0
 40
0.5773502691899606
 41
-0.3440783635224083
 42
-0.3395530912996119
  0
LINE
  5
1E2
330
1AD
100
AcDbEntity
  8
DV4_0
 62
     7
370
    25
100
AcDbLine
 10
167.6442503717278
 20
104.1147362768965
 30
0.0
 11
165.3642272626589
 21
105.431108232676
 31
0.0
  0
LINE
  5
1E3
330
1AD
100
AcDbEntity
  8
DV4_0
 62
     7
370
    25
100
AcDbLine
 10
167.3881210187339
 20
103.7016269655456
 30
0.0
 11
164.6711562445482
 21
105.2702673093005
 31
0.0
  0
ARC
  5
1E4
330
1AD
100
AcDbEntity
  8
DV4_0
 62
     7
370
    35
100
AcDbCircle
 10
168.2591984165618
 20
103.447510892308
 30
0.0
 40
0.9073868037856093
100
AcDbArc
 50
132.6652044523907
 51
163.7366533285396
  0
LINE
  5
1E5
330
1AD
100
AcDbEntity
  8
DV4_0
 62
     7
370
    35
100
AcDbLine
 10
167.4902048966271
 20
103.684888393673
 30
0.0
 11
167.3881210187339
 21
103.7016269655456
 31
0.0
  0
SPLINE
  5
1E6
330
1AD
100
AcDbEntity
  8
DV4_0
 62
     7
370
    35
100
AcDbSpline
210
0.0
220
0.0
230
1.0
 70
     8
 71
     3
 72
    25
 73
    21
 74
     0
 42
0.000000001
 43
0.0000000001
 40
0.1154661270093695
 40
0.1154661270093695
 40
0.1154661270093695
 40
0.1154661270093695
 40
0.1308661676428502
 40
0.1501026061374687
 40
0.1686040490451802
 40
0.1863707848076809
 40
0.2034031393906487
 40
0.2197014830209347
 40
0.2352662385031218
 40
0.250097891579806
 40
0.3807985148103314
 40
0.500056665451293
 40
0.6288350007811143
 40
0.749927553652445
 40
0.8132227428056557
 40
0.874949994163141
 40
0.9059012731632734
 40
0.9374770133835832
 40
0.9652223104575477
 40
1.0
 40
1.0
 40
1.0
 40
1.0
 10
162.5417131928893
 20
104.4674016378613
 30
0.0
 10
162.5445166693852
 20
104.3742506591183
 30
0.0
 10
162.5499039193333
 20
104.1649373287846
 30
0.0
 10
162.5549499955247
 20
103.8445331966063
 30
0.0
 10
162.5564557359455
 20
103.510740069544
 30
0.0
 10
162.5543133797835
 20
103.1910733700178
 30
0.0
 10
162.5488335976636
 20
102.8854717222372
 30
0.0
 10
162.5402991783192
 20
102.5938651735464
 30
0.0
 10
162.5290124099218
 20
102.3161723083327
 30
0.0
 10
162.4787578421274
 20
101.360877464308
 30
0.0
 10
162.3112729354767
 20
99.81221383057284
 30
0.0
 10
161.8440551526292
 20
97.69149027525634
 30
0.0
 10
161.1379385219492
 20
95.75605621156326
 30
0.0
 10
160.3103697111839
 20
94.27703397602409
 30
0.0
 10
159.5251420316218
 20
93.2431057241673
 30
0.0
 10
158.9704995180748
 20
92.6495402017144
 30
0.0
 10
158.4953374860285
 20
92.21797027876413
 30
0.0
 10
158.1361038806108
 20
91.92488054088054
 30
0.0
 10
157.7452151441091
 20
91.64058344066375
 30
0.0
 10
157.476985080046
 20
91.46967787100924
 30
0.0
 10
157.3277852033484
 20
91.37461362081615
 30
0.0
  0
ELLIPSE
  5
1E7
330
1AD
100
AcDbEntity
  8
DV4_0
 62
     7
370
    35
100
AcDbEllipse
 10
157.1890017882046
 20
105.354210427328
 30
0.0
 11
-8.610345930018976
 21
-14.91355734322792
 31
0.0
210
0.0
220
0.0
230
1.0
 40
0.5773502692109695
 41
0.7740005929645006
 42
0.7967956854722825
  0
SPLINE
  5
1E8
330
1AD
100
AcDbEntity
  8
DV4_0
 62
     7
370
    35
100
AcDbSpline
210
0.0
220
0.0
230
1.0
 70
     8
 71
     3
 72
    18
 73
    14
 74
     0
 42
0.000000001
 43
0.0000000001
 40
0.0
 40
0.0
 40
0.0
 40
0.0
 40
0.0182112157515083
 40
0.0347014166859266
 40
0.0494724947950707
 40
0.0625270968237875
 40
0.0941216892204763
 40
0.1250545568141645
 40
0.1867883923587967
 40
0.2500687470556068
 40
0.3711435959040749
 40
0.499944390514471
 40
0.6124140607309769
 40
0.6124140607309769
 40
0.6124140607309769
 40
0.6124140607309769
 10
157.0502183739188
 20
91.21436033712688
 30
0.0
 10
156.967686266784
 20
91.17076332305446
 30
0.0
 10
156.8104215855714
 20
91.08768934423655
 30
0.0
 10
156.5838855959933
 20
90.97694869486992
 30
0.0
 10
156.379106797576
 20
90.8826322113961
 30
0.0
 10
156.1007265866755
 20
90.76359934860433
 30
0.0
 10
155.7396062265397
 20
90.62683474498874
 30
0.0
 10
155.1338157247227
 20
90.43437809218425
 30
0.0
 10
154.3499858344614
 20
90.25525748852328
 30
0.0
 10
153.0785799030031
 20
90.1016653096468
 30
0.0
 10
151.4133354801128
 20
90.14140508473044
 30
0.0
 10
149.4720258998433
 20
90.52018287966115
 30
0.0
 10
148.1964165415715
 20
90.95798721794557
 30
0.0
 10
147.6093577775828
 20
91.19700976741971
 30
0.0
  0
SPLINE
  5
1E9
330
1AD
100
AcDbEntity
  8
DV4_0
 62
     7
370
    35
100
AcDbSpline
210
0.0
220
0.0
230
1.0
 70
     8
 71
     3
 72
    25
 73
    21
 74
     0
 42
0.000000001
 43
0.0000000001
 40
0.0217564896403917
 40
0.0217564896403917
 40
0.0217564896403917
 40
0.0217564896403917
 40
0.0441338876242292
 40
0.0707955355700866
 40
0.100520427009591
 40
0.1333085874597209
 40
0.1691600139666953
 40
0.208074682099417
 40
0.2500525503913753
 40
0.3414962179313188
 40
0.4248235639538052
 40
0.5000527153705386
 40
0.6296834910531705
 40
0.7499500146530816
 40
0.8128740798895566
 40
0.874966162901211
 40
0.9035946949322252
 40
0.9339723110472253
 40
0.9661055683967681
 40
1.0
 40
1.0
 40
1.0
 40
1.0
 10
147.1039204499875
 20
91.66281908722885
 30
0.0
 10
147.1765841975956
 20
91.59282723077797
 30
0.0
 10
147.3383454018613
 20
91.44221620333295
 30
0.0
 10
147.60437970127
 20
91.20802545262208
 30
0.0
 10
147.9140795949981
 20
90.95394883405265
 30
0.0
 10
148.2654408983279
 20
90.6872526107492
 30
0.0
 10
148.6609882916718
 20
90.41228018806692
 30
0.0
 10
149.1031074350968
 20
90.13386984676991
 30
0.0
 10
149.7759964613673
 20
89.75501988180315
 30
0.0
 10
150.6574199612191
 20
89.34923236247369
 30
0.0
 10
151.7147532235083
 20
88.99580783611094
 30
0.0
 10
152.9679838756105
 20
88.71274387203651
 30
0.0
 10
154.4161892508167
 20
88.58451025908836
 30
0.0
 10
155.8203795951208
 20
88.69796119678854
 30
0.0
 10
156.907608373567
 20
88.92839120662585
 30
0.0
 10
157.5802322554893
 20
89.13300812241388
 30
0.0
 10
158.1020907241692
 20
89.32913400938261
 30
0.0
 10
158.4902654457193
 20
89.49412064926106
 30
0.0
 10
158.8969366614313
 20
89.68546983309943
 30
0.0
 10
159.1718414003475
 20
89.83249328414945
 30
0.0
 10
159.312960073716
 20
89.90796580764263
 30
0.0
  0
ELLIPSE
  5
1EA
330
1AD
100
AcDbEntity
  8
DV4_0
 62
     7
370
    35
100
AcDbEllipse
 10
159.4517434881465
 20
104.0478149646386
 30
0.0
 11
-8.610345930006179
 21
-14.91355635345084
 31
0.0
210
0.0
220
0.0
230
1.0
 40
0.5773502692026939
 41
0.774000625764498
 42
0.7967957190289194
  0
SPLINE
  5
1EB
330
1AD
100
AcDbEntity
  8
DV4_0
 62
     7
370
    35
100
AcDbSpline
210
0.0
220
0.0
230
1.0
 70
     8
 71
     3
 72
    25
 73
    21
 74
     0
 42
0.000000001
 43
0.0000000001
 40
0.0
 40
0.0
 40
0.0
 40
0.0
 40
0.0197811764384396
 40
0.0389218081248538
 40
0.0574227866999494
 40
0.0752850998796123
 40
0.092509845534602
 40
0.1090982484109345
 40
0.1250516800983362
 40
0.1871968972849148
 40
0.2500827173400342
 40
0.3704056823106073
 40
0.5000052271123031
 40
0.6119541034368884
 40
0.7499340633508373
 40
0.7998964394453182
 40
0.8749616749459953
 40
0.9136500900644123
 40
0.9553292501631185
 40
1.0
 40
1.0
 40
1.0
 40
1.0
 10
159.5905269031452
 20
90.06821909133167
 30
0.0
 10
159.670318080757
 20
90.11733238647068
 30
0.0
 10
159.8273166755941
 20
90.21396861312421
 30
0.0
 10
160.0568114194794
 20
90.36433051446582
 30
0.0
 10
160.2768738497382
 20
90.51499702232397
 30
0.0
 10
160.4873228539828
 20
90.66596679218259
 30
0.0
 10
160.6881422102043
 20
90.81658598055235
 30
0.0
 10
160.879344267906
 20
90.96637704849516
 30
0.0
 10
161.2382519713194
 20
91.26025929050213
 30
0.0
 10
161.7570962317348
 20
91.72836531138888
 30
0.0
 10
162.6153371887354
 20
92.62118962789283
 30
0.0
 10
163.6193417876492
 20
93.89810955726846
 30
0.0
 10
164.6349139315365
 20
95.55723864046203
 30
0.0
 10
165.5441685644443
 20
97.44572707319651
 30
0.0
 10
166.148652865178
 20
99.03418656747608
 30
0.0
 10
166.6034666563812
 20
100.4696642081883
 30
0.0
 10
166.857298358097
 20
101.3789834382219
 30
0.0
 10
167.0736467689865
 20
102.2516023860754
 30
0.0
 10
167.2369681537606
 20
102.9575083654577
 30
0.0
 10
167.3365863078716
 20
103.4479239549576
 30
0.0
 10
167.3881210187339
 20
103.7016269655456
 30
0.0
  0
LINE
  5
1EC
330
1AD
100
AcDbEntity
  8
DV4_0
 62
     7
370
    35
100
AcDbLine
 10
146.8452031157184
 20
91.9118614216477
 30
0.0
 11
146.6875069655862
 21
92.0029073363767
 31
0.0
  0
ELLIPSE
  5
1ED
330
1AD
100
AcDbEntity
  8
DV4_0
 62
     7
370
    35
100
AcDbEllipse
 10
132.8366483509391
 20
80.07467738908841
 30
0.0
 11
0.2800000000000092
 21
-0.4849742261193036
 31
0.0
210
0.0
220
0.0
230
1.0
 40
0.5773502691896253
 41
3.756460121690786
 42
5.668317839071365
  0
ELLIPSE
  5
1EE
330
1AD
100
AcDbEntity
  8
DV4_0
 62
     7
370
    35
100
AcDbEllipse
 10
132.8366483509391
 20
80.07467738908818
 30
0.0
 11
0.3000000000000023
 21
-0.5196152422706597
 31
0.0
210
0.0
220
0.0
230
1.0
 40
0.5773502691896235
 41
3.753425996919184
 42
5.671351963863978
  0
ELLIPSE
  5
1EF
330
1AD
100
AcDbEntity
  8
DV4_0
 62
     7
370
    35
100
AcDbEllipse
 10
132.6669427234543
 20
79.97669779937685
 30
0.0
 11
0.3000000000000023
 21
-0.5196152422706597
 31
0.0
210
0.0
220
0.0
230
1.0
 40
0.5773502691896257
 41
3.285321450029443
 42
6.139456510709456
  0
ELLIPSE
  5
1F0
330
1AD
100
AcDbEntity
  8
DV4_0
 62
     7
370
    35
100
AcDbEllipse
 10
162.681610513672
 20
94.78502669636744
 30
0.0
 11
-35.20715025905425
 21
-3.301803275235216E-12
 31
0.0
210
0.0
220
0.0
230
1.0
 40
0.5773502691897199
 41
-0.1191303871890952
 42
-0.116606807349779
  0
ELLIPSE
  5
1F1
330
1AD
100
AcDbEntity
  8
DV4_0
 62
     7
370
    35
100
AcDbEllipse
 10
128.1585052579991
 20
28.46878397243973
 30
0.0
 11
0.4480000000000153
 21
6.088879400678594E-15
 31
0.0
210
0.0
220
0.0
230
1.0
 40
0.5773502691896077
 41
3.141592653589793
 42
3.926990816987187
  0
LINE
  5
1F2
330
1AD
100
AcDbEntity
  8
DV4_0
 62
     7
370
    35
100
AcDbLine
 10
127.8417214200275
 20
28.28588873831192
 30
0.0
 11
129.6631531169738
 21
27.23428465776943
 31
0.0
  0
ELLIPSE
  5
1F3
330
1AD
100
AcDbEntity
  8
DV4_0
 62
     7
370
    35
100
AcDbEllipse
 10
129.9799369549454
 20
27.41717989189724
 30
0.0
 11
-0.4480000000000003
 21
-2.931682674400805E-15
 31
0.0
210
0.0
220
0.0
230
1.0
 40
0.5773502691896274
 41
0.7853981633974545
 42
2.356194490192332
  0
LINE
  5
1F4
330
1AD
100
AcDbEntity
  8
DV4_0
 62
     7
370
    35
100
AcDbLine
 10
130.296720792917
 20
27.23428465776943
 30
0.0
 11
130.5181707198541
 21
27.36213883269858
 31
0.0
  0
LINE
  5
1F5
330
1AD
100
AcDbEntity
  8
DV4_0
 62
     7
370
    25
100
AcDbLine
 10
130.296720792917
 20
95.71548589333979
 30
0.0
 11
130.296720792917
 21
27.23428465776942
 31
0.0
  0
ELLIPSE
  5
1F6
330
1AD
100
AcDbEntity
  8
DV4_0
 62
     7
370
    35
100
AcDbEllipse
 10
128.1585052579991
 20
97.11981649684294
 30
0.0
 11
0.4480000000000184
 21
-2.700964452095889E-14
 31
0.0
210
0.0
220
0.0
230
1.0
 40
0.577350269189584
 41
3.024985846240057
 42
3.926990816987237
  0
LINE
  5
1F7
330
1AD
100
AcDbEntity
  8
DV4_0
 62
     7
370
    25
100
AcDbLine
 10
127.8417214200275
 20
96.93692126271515
 30
0.0
 11
127.8417214200275
 21
28.28588873831191
 31
0.0
  0
LINE
  5
1F8
330
1AD
100
AcDbEntity
  8
DV4_0
 62
     7
370
    35
100
AcDbLine
 10
127.8417214200275
 20
96.93692126271515
 30
0.0
 11
129.6631531169738
 21
95.88531718217266
 31
0.0
  0
LINE
  5
1F9
330
1AD
100
AcDbEntity
  8
DV4_0
 62
     7
370
    25
100
AcDbLine
 10
129.6631531169738
 20
95.88531718217267
 30
0.0
 11
129.6631531169738
 21
27.23428465776942
 31
0.0
  0
ELLIPSE
  5
1FA
330
1AD
100
AcDbEntity
  8
DV4_0
 62
     7
370
    35
100
AcDbEllipse
 10
129.9799369549454
 20
96.06821241630048
 30
0.0
 11
-0.4480000000000011
 21
-6.522560269672795E-15
 31
0.0
210
0.0
220
0.0
230
1.0
 40
0.5773502691896311
 41
0.7853981633974509
 42
1.873366527447552
  0
LINE
  5
1FB
330
1AD
100
AcDbEntity
  8
DV4_0
 62
     7
370
    35
100
AcDbLine
 10
127.7105052579991
 20
97.11981649684296
 30
0.0
 11
127.7105052579991
 21
28.46878397243972
 31
0.0
  0
LINE
  5
1FC
330
1AD
100
AcDbEntity
  8
DV4_0
 62
     7
370
    25
100
AcDbLine
 10
160.3122275334069
 20
103.3381605100061
 30
0.0
 11
162.5153733099392
 21
102.0661737028612
 31
0.0
  0
LINE
  5
1FD
330
1AD
100
AcDbEntity
  8
DV4_0
 62
     7
370
    25
100
AcDbLine
 10
162.5187199106539
 20
102.129561268512
 30
0.0
 11
160.3697045141209
 21
103.3702958861929
 31
0.0
  0
LINE
  5
1FE
330
1AD
100
AcDbEntity
  8
DV4_0
 62
     7
370
    25
100
AcDbLine
 10
153.5281332080025
 20
98.88600859530032
 30
0.0
 11
153.5281332080025
 21
90.16937950102582
 31
0.0
  0
LINE
  5
1FF
330
1AD
100
AcDbEntity
  8
DV4_0
 62
     7
370
    25
100
AcDbLine
 10
162.506306727456
 20
101.9407688437501
 30
0.0
 11
160.197273571979
 21
103.2738897576326
 31
0.0
  0
LINE
  5
200
330
1AD
100
AcDbEntity
  8
DV4_0
 62
     7
370
    25
100
AcDbLine
 10
154.081984170774
 20
90.23293914347698
 30
0.0
 11
154.081984170774
 21
99.29909913624068
 31
0.0
  0
LINE
  5
201
330
1AD
100
AcDbEntity
  8
DV4_0
 62
     7
370
    35
100
AcDbLine
 10
162.5201061180578
 20
102.1558172578903
 30
0.0
 11
160.3935122590569
 21
103.3836067948415
 31
0.0
  0
SPLINE
  5
202
330
1AD
100
AcDbEntity
  8
DV4_0
 62
     7
370
    35
100
AcDbSpline
210
0.0
220
0.0
230
1.0
 70
     8
 71
     3
 72
     8
 73
     4
 74
     0
 42
0.000000001
 43
0.0000000001
 40
0.2089525119420043
 40
0.2089525119420043
 40
0.2089525119420043
 40
0.2089525119420043
 40
0.2448606716345899
 40
0.2448606716345899
 40
0.2448606716345899
 40
0.2448606716345899
 10
147.8912563602537
 20
109.3699243035743
 30
0.0
 10
147.8713496814785
 20
109.2740541616509
 30
0.0
 10
147.8600221760186
 20
109.1772759517375
 30
0.0
 10
147.857405109227
 20
109.0803929744303
 30
0.0
  0
LINE
  5
203
330
1AD
100
AcDbEntity
  8
DV4_0
 62
     7
370
    25
100
AcDbLine
 10
149.058772605602
 20
110.9775528672361
 30
0.0
 11
149.0587740210865
 21
111.0123654142687
 31
0.0
  0
SPLINE
  5
204
330
1AD
100
AcDbEntity
  8
DV4_0
 62
     7
370
    35
100
AcDbSpline
210
0.0
220
0.0
230
1.0
 70
     8
 71
     3
 72
    68
 73
    64
 74
     0
 42
0.000000001
 43
0.0000000001
 40
0.0
 40
0.0
 40
0.0
 40
0.0
 40
0.0624999999999999
 40
0.0624999999999999
 40
0.0781249999999999
 40
0.0781249999999999
 40
0.09375
 40
0.09375
 40
0.1250000000000001
 40
0.1250000000000001
 40
0.1562499999999999
 40
0.1562499999999999
 40
0.1718749999999999
 40
0.1718749999999999
 40
0.1875
 40
0.1875
 40
0.2499999999999999
 40
0.2499999999999999
 40
0.28125
 40
0.28125
 40
0.2968750000000001
 40
0.2968750000000001
 40
0.3125000000000001
 40
0.3125000000000001
 40
0.375
 40
0.375
 40
0.4062500000000001
 40
0.4062500000000001
 40
0.4374999999999999
 40
0.4374999999999999
 40
0.5000000000000001
 40
0.5000000000000001
 40
0.5624999999999999
 40
0.5624999999999999
 40
0.5937499999999998
 40
0.5937499999999998
 40
0.609375
 40
0.609375
 40
0.625
 40
0.625
 40
0.6875000000000001
 40
0.6875000000000001
 40
0.703125
 40
0.703125
 40
0.71875
 40
0.71875
 40
0.7499999999999999
 40
0.7499999999999999
 40
0.8125
 40
0.8125
 40
0.8281249999999999
 40
0.8281249999999999
 40
0.8437500000000002
 40
0.8437500000000002
 40
0.8750000000000001
 40
0.8750000000000001
 40
0.90625
 40
0.90625
 40
0.9218749999999999
 40
0.9218749999999999
 40
0.9374999999999999
 40
0.9374999999999999
 40
1.0
 40
1.0
 40
1.0
 40
1.0
 10
149.0587740210865
 20
111.0123654142687
 30
0.0
 10
148.8680295647641
 20
110.902331409496
 30
0.0
 10
148.6966800238514
 20
110.7795979201512
 30
0.0
 10
148.5073404718499
 20
110.6101022470076
 30
0.0
 10
148.4706428018178
 20
110.5753024197834
 30
0.0
 10
148.4005077829217
 20
110.5047764664676
 30
0.0
 10
148.3670023830225
 20
110.468999482016
 30
0.0
 10
148.2710857776737
 20
110.3601733262672
 30
0.0
 10
148.2132632479425
 20
110.2856316550468
 30
0.0
 10
148.1096763528664
 20
110.1327453828578
 30
0.0
 10
148.0639120036469
 20
110.054400555924
 30
0.0
 10
148.0044336715675
 20
109.9341016137692
 30
0.0
 10
147.9861383195522
 20
109.8935377150005
 30
0.0
 10
147.9526644363459
 20
109.8114854701025
 30
0.0
 10
147.9374888932824
 20
109.7699710504785
 30
0.0
 10
147.8702487384992
 20
109.5624283329174
 30
0.0
 10
147.8430516558586
 20
109.3946914981303
 30
0.0
 10
147.8412010265675
 20
109.1416877332456
 30
0.0
 10
147.8471220136038
 20
109.0571178799657
 30
0.0
 10
147.8661301153767
 20
108.9300440369024
 30
0.0
 10
147.8741529419162
 20
108.8877432035751
 30
0.0
 10
147.893395576743
 20
108.8040033564092
 30
0.0
 10
147.9046298578572
 20
108.7624587694934
 30
0.0
 10
147.9687441890476
 20
108.5563943757656
 30
0.0
 10
148.0452237377671
 20
108.3968113938085
 30
0.0
 10
148.1981880464405
 20
108.1664009396969
 30
0.0
 10
148.25595838039
 20
108.0907426765898
 30
0.0
 10
148.38226891564
 20
107.9456091023631
 30
0.0
 10
148.4509079307653
 20
107.8758679380476
 30
0.0
 10
148.6729246087521
 20
107.6750798622627
 30
0.0
 10
148.8422830895493
 20
107.5523786362724
 30
0.0
 10
149.2253594829473
 20
107.3307546592561
 30
0.0
 10
149.4326613125777
 20
107.235533906755
 30
0.0
 10
149.766286758366
 20
107.114889041321
 30
0.0
 10
149.8813022995905
 20
107.078394953272
 30
0.0
 10
150.0596674659655
 20
107.0292889537502
 30
0.0
 10
150.1202379343828
 20
107.0138285903606
 30
0.0
 10
150.242705063767
 20
106.9849708628238
 30
0.0
 10
150.3044140412659
 20
106.971611577968
 30
0.0
 10
150.6152901733797
 20
106.9100110315598
 30
0.0
 10
150.8713831339025
 20
106.8772227645071
 30
0.0
 10
151.2007111022851
 20
106.8558413841208
 30
0.0
 10
151.2670415132941
 20
106.8525535955501
 30
0.0
 10
151.4006485899028
 20
106.8479630747257
 30
0.0
 10
151.4681123575063
 20
106.8466617119498
 30
0.0
 10
151.6701571228076
 20
106.8457632873979
 30
0.0
 10
151.8045255339597
 20
106.8491323118833
 30
0.0
 10
152.2066977647994
 20
106.8704965006839
 30
0.0
 10
152.4735774111028
 20
106.8996424797423
 30
0.0
 10
152.8056630201515
 20
106.9542513847102
 30
0.0
 10
152.8721435524236
 20
106.9661214414971
 30
0.0
 10
153.0035670124896
 20
106.9914390704699
 30
0.0
 10
153.0686501255403
 20
107.0049057387206
 30
0.0
 10
153.2620476745355
 20
107.0476561645512
 30
0.0
 10
153.3885147572248
 20
107.0792839884955
 30
0.0
 10
153.6365891114363
 20
107.1485675870527
 30
0.0
 10
153.7581964064094
 20
107.1862235414765
 30
0.0
 10
153.9369071634051
 20
107.2472103428484
 30
0.0
 10
153.9958596047709
 20
107.2682913106685
 30
0.0
 10
154.1125054921758
 20
107.311973747024
 30
0.0
 10
154.1702416551088
 20
107.3345980279987
 30
0.0
 10
154.4530474868355
 20
107.4504604466748
 30
0.0
 10
154.6628172843655
 20
107.5525896026833
 30
0.0
 10
154.8559535170883
 20
107.664096858636
 30
0.0
  0
SPLINE
  5
205
330
1AD
100
AcDbEntity
  8
DV4_0
 62
     7
370
    35
100
AcDbSpline
210
0.0
220
0.0
230
1.0
 70
     8
 71
     3
 72
    34
 73
    30
 74
     0
 42
0.000000001
 43
0.0000000001
 40
0.0
 40
0.0
 40
0.0
 40
0.0
 40
0.1241989156552207
 40
0.1241989156552207
 40
0.1554775258103914
 40
0.1554775258103914
 40
0.186756135965562
 40
0.186756135965562
 40
0.2493133562759034
 40
0.2493133562759034
 40
0.3744277968965863
 40
0.3744277968965863
 40
0.4369850172069277
 40
0.4369850172069277
 40
0.4682636273620983
 40
0.4682636273620983
 40
0.499542237517269
 40
0.499542237517269
 40
0.6246566781379517
 40
0.6246566781379517
 40
0.7497711187586346
 40
0.7497711187586346
 40
0.7810497289138051
 40
0.7810497289138051
 40
0.8123283390689761
 40
0.8123283390689761
 40
0.8748855593793171
 40
0.8748855593793171
 40
1.0
 40
1.0
 40
1.0
 40
1.0
 10
159.6379963988217
 20
104.7258640949403
 30
0.0
 10
160.367758986195
 20
105.1471603094526
 30
0.0
 10
161.0670238993226
 20
105.5486497278403
 30
0.0
 10
161.9031019068933
 20
106.0256478414357
 30
0.0
 10
162.0694268723851
 20
106.1203759452214
 30
0.0
 10
162.3956065764606
 20
106.305814723923
 30
0.0
 10
162.5557728006722
 20
106.3967034236982
 30
0.0
 10
163.0276856711654
 20
106.6639845299991
 30
0.0
 10
163.3308521946556
 20
106.8349959577041
 30
0.0
 10
164.2072848890043
 20
107.3272039947275
 30
0.0
 10
164.747555895883
 20
107.6276277237086
 30
0.0
 10
165.4954898025811
 20
108.0384280657341
 30
0.0
 10
165.7343700538168
 20
108.1687084307159
 30
0.0
 10
166.0773335980823
 20
108.3542489000331
 30
0.0
 10
166.1892368612629
 20
108.4145245416183
 30
0.0
 10
166.4072214235391
 20
108.5313931990526
 30
0.0
 10
166.5132201622683
 20
108.5879428369558
 30
0.0
 10
167.0286998170079
 20
108.8615100532308
 30
0.0
 10
167.3947724824288
 20
109.0510776911745
 30
0.0
 10
168.0435617816157
 20
109.37624679182
 30
0.0
 10
168.3262430708934
 20
109.5118313275231
 30
0.0
 10
168.6315162586312
 20
109.6491609216236
 30
0.0
 10
168.6901615579206
 20
109.6750148886941
 30
0.0
 10
168.8027148791006
 20
109.7235217940356
 30
0.0
 10
168.856659855981
 20
109.7461896138886
 30
0.0
 10
169.0112014974188
 20
109.8092951949765
 30
0.0
 10
169.1044638241046
 20
109.8448250070473
 30
0.0
 10
169.3565148197349
 20
109.9323989746176
 30
0.0
 10
169.4876225243177
 20
109.965485020953
 30
0.0
 10
169.5851485158709
 20
109.9741554906492
 30
0.0
  0
LINE
  5
206
330
1AD
100
AcDbEntity
  8
DV4_0
 62
     7
370
    35
100
AcDbLine
 10
159.621853205719
 20
104.7165442110515
 30
0.0
 11
159.6379963988217
 21
104.7258640949403
 31
0.0
  0
LINE
  5
207
330
1AD
100
AcDbEntity
  8
DV4_0
 62
     7
370
    35
100
AcDbLine
 10
159.6130918844589
 20
104.7114857309444
 30
0.0
 11
159.621853205719
 21
104.7165442110515
 31
0.0
  0
ARC
  5
208
330
1AD
100
AcDbEntity
  8
DV4_0
 62
     7
370
    35
100
AcDbCircle
 10
484.5248129256001
 20
-459.1242761148043
 30
0.0
 40
650.752174645688
100
AcDbArc
 50
119.9528008873201
 51
122.0797050041241
  0
SPLINE
  5
209
330
1AD
100
AcDbEntity
  8
DV4_0
 62
     7
370
    35
100
AcDbSpline
210
0.0
220
0.0
230
1.0
 70
     8
 71
     3
 72
    18
 73
    14
 74
     0
 42
0.000000001
 43
0.0000000001
 40
0.3206611980459481
 40
0.3206611980459481
 40
0.3206611980459481
 40
0.3206611980459481
 40
0.3437361924834735
 40
0.3748902715029073
 40
0.4060564388175795
 40
0.4374806982389234
 40
0.4997557721829989
 40
0.5310658273267708
 40
0.5624341759602878
 40
0.6246704090794363
 40
0.6561031867167043
 40
0.6873030588399184
 40
0.7112231330493619
 40
0.7112231330493619
 40
0.7112231330493619
 40
0.7112231330493619
 10
155.9565163146501
 20
109.5123133640286
 30
0.0
 10
155.9347607809733
 20
109.5634649579402
 30
0.0
 10
155.875410983871
 20
109.6829339498915
 30
0.0
 10
155.7520724914667
 20
109.8677531757922
 30
0.0
 10
155.5801668489026
 20
110.0648901513608
 30
0.0
 10
155.3047664764146
 20
110.3176468478655
 30
0.0
 10
154.9619820891269
 20
110.5536454768005
 30
0.0
 10
154.5641725398424
 20
110.7647926908055
 30
0.0
 10
154.1330760230431
 20
110.9576591383977
 30
0.0
 10
153.6564070697231
 20
111.1206115612578
 30
0.0
 10
153.1516331160579
 20
111.246443815385
 30
0.0
 10
152.7912353562623
 20
111.3155960564175
 30
0.0
 10
152.557521429402
 20
111.3488579631582
 30
0.0
 10
152.4556084010222
 20
111.3611825993188
 30
0.0
  0
SPLINE
  5
20A
330
1AD
100
AcDbEntity
  8
DV4_0
 62
     7
370
    35
100
AcDbSpline
210
0.0
220
0.0
230
1.0
 70
     8
 71
     3
 72
    27
 73
    23
 74
     0
 42
0.000000001
 43
0.0000000001
 40
0.0
 40
0.0
 40
0.0
 40
0.0
 40
0.0179035675553625
 40
0.0358153776285649
 40
0.0537384079288934
 40
0.0716756305777171
 40
0.0896300106483133
 40
0.1076045047230931
 40
0.1256020594716738
 40
0.1881043251003943
 40
0.2511731440043568
 40
0.3134502968703818
 40
0.3766291780884094
 40
0.5018394109190817
 40
0.6258939692456529
 40
0.6870594108139535
 40
0.7498321360347405
 40
0.8113328398991005
 40
0.8746983129932983
 40
0.9154915228380097
 40
0.9572564141510036
 40
1.0
 40
1.0
 40
1.0
 40
1.0
 10
137.786395819245
 20
117.5192105904337
 30
0.0
 10
137.6797517920541
 20
117.4566879194088
 30
0.0
 10
137.4664146404577
 20
117.3316137929153
 30
0.0
 10
137.1516882781665
 20
117.1345089100399
 30
0.0
 10
136.8408371422387
 20
116.9304572773617
 30
0.0
 10
136.534299941452
 20
116.7188087129659
 30
0.0
 10
136.2320371932846
 20
116.4997814364349
 30
0.0
 10
135.9341343007829
 20
116.2733584529311
 30
0.0
 10
135.3989044179813
 20
115.8470430193542
 30
0.0
 10
134.6474767797035
 20
115.1839342479909
 30
0.0
 10
133.7268516277061
 20
114.2368456076014
 30
0.0
 10
132.8678163897677
 20
113.2120426759863
 30
0.0
 10
131.8139307425423
 20
111.7585159324284
 30
0.0
 10
130.6667841042959
 20
109.7897917961193
 30
0.0
 10
129.7453263428113
 20
107.6676953694832
 30
0.0
 10
129.133752942271
 20
105.8952368106848
 30
0.0
 10
128.7366772587586
 20
104.5351927556919
 30
0.0
 10
128.3943078665102
 20
103.1284058136817
 30
0.0
 10
128.1424864873319
 20
101.8627071861068
 30
0.0
 10
127.9570520183868
 20
100.7326834737448
 30
0.0
 10
127.8198798280279
 20
99.75359013662008
 30
0.0
 10
127.7474228738671
 20
99.08606657442235
 30
0.0
 10
127.7107748339954
 20
98.74843949078274
 30
0.0
  0
LINE
  5
20B
330
1AD
100
AcDbEntity
  8
DV4_0
 62
     7
370
    25
100
AcDbLine
 10
127.7107748339954
 20
98.74843949078277
 30
0.0
 11
138.7989942623899
 21
92.3466530189656
 31
0.0
  0
ARC
  5
20C
330
1AD
100
AcDbEntity
  8
DV4_0
 62
     7
370
    35
100
AcDbCircle
 10
468.3829769960483
 20
-430.2709933327826
 30
0.0
 40
617.8630964484134
100
AcDbArc
 50
119.9819308351873
 51
122.2372012387503
  0
LINE
  5
20D
330
1AD
100
AcDbEntity
  8
DV4_0
 62
     7
370
    35
100
AcDbLine
 10
159.6201920153254
 20
104.911544278236
 30
0.0
 11
159.6218532214131
 21
104.9125033814133
 31
0.0
  0
LINE
  5
20E
330
1AD
100
AcDbEntity
  8
DV4_0
 62
     7
370
    35
100
AcDbLine
 10
159.6218532214131
 20
104.9125033814133
 30
0.0
 11
159.6264463203459
 21
104.9151551736926
 31
0.0
  0
SPLINE
  5
20F
330
1AD
100
AcDbEntity
  8
DV4_0
 62
     7
370
    35
100
AcDbSpline
210
0.0
220
0.0
230
1.0
 70
     8
 71
     3
 72
    27
 73
    23
 74
     0
 42
0.000000001
 43
0.0000000001
 40
0.0
 40
0.0
 40
0.0
 40
0.0
 40
0.017903460493234
 40
0.0358152072518653
 40
0.0537382163742265
 40
0.07167545835279
 40
0.0896298966157162
 40
0.1076044860858357
 40
0.1256021717604938
 40
0.1881044093090328
 40
0.2511733354897132
 40
0.3134504415176049
 40
0.3766297263882628
 40
0.5018408377214861
 40
0.625896584245525
 40
0.6870617749597309
 40
0.7498340746884574
 40
0.8113339410483708
 40
0.8746981685197085
 40
0.9154916381415305
 40
0.9572565789224482
 40
1.0
 40
1.0
 40
1.0
 40
1.0
 10
159.626446320346
 20
104.9151551736926
 30
0.0
 10
159.7330426550079
 20
104.9766668547427
 30
0.0
 10
159.9462846603539
 20
105.0997186863176
 30
0.0
 10
160.2608694312398
 20
105.2808475172079
 30
0.0
 10
160.5715803474635
 20
105.4594417716396
 30
0.0
 10
160.8779787954171
 20
105.6352175587031
 30
0.0
 10
161.1801042902463
 20
105.8082043076958
 30
0.0
 10
161.4778714914656
 20
105.97835039166
 30
0.0
 10
162.0128539668068
 20
106.2834069818721
 30
0.0
 10
162.763929320876
 20
106.7095783010995
 30
0.0
 10
163.6841162576588
 20
107.2270844206482
 30
0.0
 10
164.5427406515325
 20
107.7050558614699
 30
0.0
 10
165.5961233370024
 20
108.2841788314403
 30
0.0
 10
166.7427278764
 20
108.8997055842382
 30
0.0
 10
167.6637599126583
 20
109.3709570934714
 30
0.0
 10
168.2750588430293
 20
109.6663537314641
 30
0.0
 10
168.671958523024
 20
109.8475095332379
 30
0.0
 10
169.0141818482161
 20
109.9912819784377
 30
0.0
 10
169.2659036899925
 20
110.08398791095
 30
0.0
 10
169.4512714997781
 20
110.1406100263913
 30
0.0
 10
169.588399147059
 20
110.1737971933237
 30
0.0
 10
169.6608362828522
 20
110.1818338687821
 30
0.0
 10
169.6974742075353
 20
110.1858987328455
 30
0.0
  0
LINE
  5
210
330
1AD
100
AcDbEntity
  8
DV4_0
 62
     7
370
    25
100
AcDbLine
 10
158.6092547791408
 20
116.5876852046627
 30
0.0
 11
169.6974742075353
 21
110.1858987328455
 31
0.0
  0
SPLINE
  5
211
330
1AD
100
AcDbEntity
  8
DV4_0
 62
     7
370
    35
100
AcDbSpline
210
0.0
220
0.0
230
1.0
 70
     8
 71
     3
 72
    27
 73
    23
 74
     0
 42
0.000000001
 43
0.0000000001
 40
0.0
 40
0.0
 40
0.0
 40
0.0
 40
0.021446916692593
 40
0.0426494343521966
 40
0.0636083790753756
 40
0.0843246060990047
 40
0.1047990010772743
 40
0.1250324814221934
 40
0.1884742238807579
 40
0.2500482429894389
 40
0.3133744641198853
 40
0.3750696753268647
 40
0.5000389843905604
 40
0.6249964529695806
 40
0.6879366688975046
 40
0.74998861458682
 40
0.8127693011640414
 40
0.874991325151786
 40
0.9063229177502279
 40
0.9375911297185082
 40
0.9688115901685569
 40
1.0
 40
1.0
 40
1.0
 40
1.0
 10
158.6092547791408
 20
116.5876852046628
 30
0.0
 10
158.4609718133806
 20
116.661379736517
 30
0.0
 10
158.1660956451934
 20
116.8079290118038
 30
0.0
 10
157.7238823771114
 20
117.0181344497289
 30
0.0
 10
157.2851068780423
 20
117.2198075663826
 30
0.0
 10
156.8497100785851
 20
117.4124789977833
 30
0.0
 10
156.4178518572317
 20
117.5964238582405
 30
0.0
 10
155.6831460050292
 20
117.8971876606423
 30
0.0
 10
154.6516974057071
 20
118.2842679153675
 30
0.0
 10
153.3037940077787
 20
118.7198182919043
 30
0.0
 10
151.9606477302896
 20
119.0820561069282
 30
0.0
 10
150.1552198887394
 20
119.4694129435842
 30
0.0
 10
147.9004988744338
 20
119.7608314137672
 30
0.0
 10
145.6597413293205
 20
119.7708623471302
 30
0.0
 10
143.9048314748302
 20
119.5969961470601
 30
0.0
 10
142.608901285767
 20
119.3732960974508
 30
0.0
 10
141.346150183687
 20
119.0562492838823
 30
0.0
 10
140.3191575183502
 20
118.7117502041972
 30
0.0
 10
139.5191487255449
 20
118.3895774759651
 30
0.0
 10
138.9287349763237
 20
118.1233290281154
 30
0.0
 10
138.3496526686774
 20
117.8357373471099
 30
0.0
 10
137.9740838101703
 20
117.6246833797917
 30
0.0
 10
137.786395819245
 20
117.5192105904337
 30
0.0
  0
SPLINE
  5
212
330
1AD
100
AcDbEntity
  8
DV4_0
 62
     7
370
    35
100
AcDbSpline
210
0.0
220
0.0
230
1.0
 70
     8
 71
     3
 72
    68
 73
    64
 74
     0
 42
0.000000001
 43
0.0000000001
 40
0.0
 40
0.0
 40
0.0
 40
0.0
 40
0.0625
 40
0.0625
 40
0.09375
 40
0.09375
 40
0.109375
 40
0.109375
 40
0.125
 40
0.125
 40
0.1875
 40
0.1875
 40
0.203125
 40
0.203125
 40
0.21875
 40
0.21875
 40
0.25
 40
0.25
 40
0.3125
 40
0.3125
 40
0.328125
 40
0.328125
 40
0.34375
 40
0.34375
 40
0.375
 40
0.375
 40
0.40625
 40
0.40625
 40
0.421875
 40
0.421875
 40
0.4374999999999999
 40
0.4374999999999999
 40
0.5
 40
0.5
 40
0.53125
 40
0.53125
 40
0.546875
 40
0.546875
 40
0.5625
 40
0.5625
 40
0.625
 40
0.625
 40
0.65625
 40
0.65625
 40
0.6875
 40
0.6875
 40
0.75
 40
0.75
 40
0.8125
 40
0.8125
 40
0.84375
 40
0.84375
 40
0.859375
 40
0.859375
 40
0.8749999999999999
 40
0.8749999999999999
 40
0.9375
 40
0.9375
 40
0.953125
 40
0.953125
 40
0.9687499999999999
 40
0.9687499999999999
 40
1.0
 40
1.0
 40
1.0
 40
1.0
 10
154.8559535170883
 20
107.664096858636
 30
0.0
 10
155.049089749811
 20
107.7756041145888
 30
0.0
 10
155.2201285604623
 20
107.8933336703693
 30
0.0
 10
155.4449311910286
 20
108.0790987050245
 30
0.0
 10
155.5145333375463
 20
108.1425645131903
 30
0.0
 10
155.6107599213156
 20
108.2402024113393
 30
0.0
 10
155.6415303719877
 20
108.2732252973034
 30
0.0
 10
155.6999997708014
 20
108.3397978291771
 30
0.0
 10
155.727599356418
 20
108.3732251775579
 30
0.0
 10
155.8575909088898
 20
108.5410957658565
 30
0.0
 10
155.9361936489371
 20
108.6777041417394
 30
0.0
 10
156.0030235527035
 20
108.8521654280981
 30
0.0
 10
156.0148040714361
 20
108.8872450757287
 30
0.0
 10
156.0351436915794
 20
108.9578095924804
 30
0.0
 10
156.0437191258024
 20
108.9933939421541
 30
0.0
 10
156.064345990741
 20
109.0999243342905
 30
0.0
 10
156.0713569253875
 20
109.1706315291415
 30
0.0
 10
156.0727800381719
 20
109.3821478238629
 30
0.0
 10
156.0477716110402
 20
109.5223542810772
 30
0.0
 10
155.9831842731055
 20
109.6976088431638
 30
0.0
 10
155.9685399908281
 20
109.7327434863844
 30
0.0
 10
155.9361546618844
 20
109.8023296630627
 30
0.0
 10
155.9183995433409
 20
109.8368420099293
 30
0.0
 10
155.8605282455324
 20
109.9395849076854
 30
0.0
 10
155.815817053781
 20
110.0070240066642
 30
0.0
 10
155.7142917721386
 20
110.1399758513939
 30
0.0
 10
155.65747774017
 20
110.2054883812412
 30
0.0
 10
155.5630332791927
 20
110.3023884414768
 30
0.0
 10
155.5300118138695
 20
110.3344597057711
 30
0.0
 10
155.4608296918589
 20
110.3981496967578
 30
0.0
 10
155.4246054647832
 20
110.4298128999595
 30
0.0
 10
155.2375954022388
 20
110.5852761012125
 30
0.0
 10
155.0679649599681
 20
110.7019505646454
 30
0.0
 10
154.7842132005568
 20
110.8659350948524
 30
0.0
 10
154.6847098955834
 20
110.9187404950169
 30
0.0
 10
154.5278413027642
 20
110.9950606386338
 30
0.0
 10
154.4743116223409
 20
111.0199951570921
 30
0.0
 10
154.3659124236305
 20
111.068335311441
 30
0.0
 10
154.3108976234924
 20
111.0918131900053
 30
0.0
 10
154.0318137495798
 20
111.2057771966633
 30
0.0
 10
153.7958308585438
 20
111.2861073388622
 30
0.0
 10
153.4226316259338
 20
111.389565190741
 30
0.0
 10
153.2943436717244
 20
111.4213076290392
 30
0.0
 10
153.0362455866375
 20
111.4775800672942
 30
0.0
 10
152.9060610547209
 20
111.5022524122608
 30
0.0
 10
152.5121600877678
 20
111.5658540731499
 30
0.0
 10
152.2448809021089
 20
111.5944951599862
 30
0.0
 10
151.7019815225932
 20
111.621414870893
 30
0.0
 10
151.4348627777625
 20
111.6192842280176
 30
0.0
 10
151.0403500358881
 20
111.5924550744596
 30
0.0
 10
150.9098812466147
 20
111.579546610234
 30
0.0
 10
150.7157601532969
 20
111.5539568292739
 30
0.0
 10
150.6511787076767
 20
111.5443637249612
 30
0.0
 10
150.5232063698606
 20
111.5231385342379
 30
0.0
 10
150.4600298767323
 20
111.5115473055615
 30
0.0
 10
150.1481147749107
 20
111.448747522888
 30
0.0
 10
149.9111640956472
 20
111.3831277586574
 30
0.0
 10
149.6305917004242
 20
111.2814422668329
 30
0.0
 10
149.5752651224053
 20
111.2601146246199
 30
0.0
 10
149.4662140756862
 20
111.2154362730076
 30
0.0
 10
149.4123435091594
 20
111.1920163077131
 30
0.0
 10
149.2544019967715
 20
111.1192065865943
 30
0.0
 10
149.1541462492477
 20
111.067382416655
 30
0.0
 10
149.0587740210865
 20
111.0123654142687
 30
0.0
  0
LINE
  5
213
330
1AD
100
AcDbEntity
  8
DV4_0
 62
     7
370
    35
100
AcDbLine
 10
169.7193380576295
 20
110.022756348401
 30
0.0
 11
169.7193380576295
 21
108.8806767642184
 31
0.0
  0
LINE
  5
214
330
1AD
100
AcDbEntity
  8
DV4_0
 62
     7
370
    35
100
AcDbLine
 10
169.7193380576295
 20
108.8806767642184
 30
0.0
 11
169.6962152338284
 21
108.8673267956724
 31
0.0
  0
LINE
  5
215
330
1AD
100
AcDbEntity
  8
DV4_0
 62
     7
370
    25
100
AcDbLine
 10
169.4962585279338
 20
109.9555921954989
 30
0.0
 11
169.532321862325
 21
109.9347710196802
 31
0.0
  0
SPLINE
  5
216
330
1AD
100
AcDbEntity
  8
DV4_0
 62
     7
370
    35
100
AcDbSpline
210
0.0
220
0.0
230
1.0
 70
     8
 71
     3
 72
    16
 73
    12
 74
     0
 42
0.000000001
 43
0.0000000001
 40
0.0
 40
0.0
 40
0.0
 40
0.0
 40
0.25
 40
0.25
 40
0.375
 40
0.375
 40
0.5
 40
0.5
 40
0.75
 40
0.75
 40
1.0
 40
1.0
 40
1.0
 40
1.0
 10
138.7763453129062
 20
92.15781115770234
 30
0.0
 10
138.7763453129062
 20
92.17068318985872
 30
0.0
 10
138.7797532346939
 20
92.18269843295451
 30
0.0
 10
138.7895796718393
 20
92.19953201123279
 30
0.0
 10
138.7936864640178
 20
92.20497320201906
 30
0.0
 10
138.803217231767
 20
92.21517817392937
 30
0.0
 10
138.8086489378169
 20
92.2199741181613
 30
0.0
 10
138.8267872794753
 20
92.23351559717469
 30
0.0
 10
138.8414987730339
 20
92.24146658958188
 30
0.0
 10
138.8740435390144
 20
92.25477334605999
 30
0.0
 10
138.8919588704927
 20
92.26022535301631
 30
0.0
 10
138.9113199540542
 20
92.26461231340792
 30
0.0
  0
LINE
  5
217
330
1AD
100
AcDbEntity
  8
DV4_0
 62
     7
370
    35
100
AcDbLine
 10
138.7763453129062
 20
92.15781115770237
 30
0.0
 11
138.7763453129062
 21
91.01573157351969
 31
0.0
  0
LINE
  5
218
330
1AD
100
AcDbEntity
  8
DV4_0
 62
     7
370
    35
100
AcDbLine
 10
127.6889109839011
 20
97.22110558857042
 30
0.0
 11
138.6066396854214
 21
90.91775198380836
 31
0.0
  0
LINE
  5
219
330
1AD
100
AcDbEntity
  8
DV4_0
 62
     7
370
    35
100
AcDbLine
 10
138.6066396854214
 20
90.91775198380836
 30
0.0
 11
138.7763453129062
 21
91.01573157351969
 31
0.0
  0
LINE
  5
21A
330
1AD
100
AcDbEntity
  8
DV4_0
 62
     7
370
    35
100
AcDbLine
 10
127.6889109839011
 20
98.36318517275309
 30
0.0
 11
127.6889109839011
 21
97.22110558857045
 31
0.0
  0
LINE
  5
21B
330
1AD
100
AcDbEntity
  8
DV4_0
 62
     7
370
    35
100
AcDbLine
 10
138.6066396854214
 20
92.05983156799103
 30
0.0
 11
138.6066396854214
 21
90.91775198380834
 31
0.0
  0
LINE
  5
21C
330
1AD
100
AcDbEntity
  8
DV4_0
 62
     7
370
    25
100
AcDbLine
 10
127.6889109839011
 20
98.3631851727531
 30
0.0
 11
138.6066396854214
 21
92.05983156799104
 31
0.0
  0
ARC
  5
21D
330
1AD
100
AcDbEntity
  8
DV4_0
 62
     7
370
    35
100
AcDbCircle
 10
131.7502839422966
 20
98.32594278475871
 30
0.0
 40
4.061543709311729
100
AcDbArc
 50
174.0290807291209
 51
179.4746180991712
  0
ARC
  5
21E
330
1AD
100
AcDbEntity
  8
DV4_0
 62
     7
370
    35
100
AcDbCircle
 10
138.9655800284987
 20
92.0270222930653
 30
0.0
 40
0.3604367051364552
100
AcDbArc
 50
117.5277126225647
 51
174.7773390605823
  0
SPLINE
  5
21F
330
1AD
100
AcDbEntity
  8
DV4_0
 62
     7
370
    35
100
AcDbSpline
210
0.0
220
0.0
230
1.0
 70
     8
 71
     3
 72
     8
 73
     4
 74
     0
 42
0.000000001
 43
0.0000000001
 40
0.9218769144432272
 40
0.9218769144432272
 40
0.9218769144432272
 40
0.9218769144432272
 40
1.0
 40
1.0
 40
1.0
 40
1.0
 10
158.6344428128398
 20
116.5741190763599
 30
0.0
 10
158.6261898254279
 20
116.5788052481879
 30
0.0
 10
158.6177223022844
 20
116.5832452264253
 30
0.0
 10
158.6092547791408
 20
116.5876852046628
 30
0.0
  0
SPLINE
  5
220
330
1AD
100
AcDbEntity
  8
DV4_0
 62
     7
370
    35
100
AcDbSpline
210
0.0
220
0.0
230
1.0
 70
     8
 71
     3
 72
    14
 73
    10
 74
     0
 42
0.000000001
 43
0.0000000001
 40
0.2492049020638849
 40
0.2492049020638849
 40
0.2492049020638849
 40
0.2492049020638849
 40
0.3771908836467145
 40
0.4992265575912233
 40
0.6262187734859496
 40
0.7490199603046748
 40
0.8334248383463054
 40
0.9169881395786332
 40
1.0
 40
1.0
 40
1.0
 40
1.0
 10
169.7062623728649
 20
110.1770948063038
 30
0.0
 10
169.7076226634607
 20
110.1738956133609
 30
0.0
 10
169.7101274363721
 20
110.1658697901986
 30
0.0
 10
169.7133536781329
 20
110.1482990796305
 30
0.0
 10
169.715948223451
 20
110.1254007328044
 30
0.0
 10
169.7176672710377
 20
110.0998142037424
 30
0.0
 10
169.7186847266503
 20
110.0740362199611
 30
0.0
 10
169.7192373696404
 20
110.0496170569617
 30
0.0
 10
169.7193045691203
 20
110.0316901357884
 30
0.0
 10
169.7193380576295
 20
110.022756348401
 30
0.0
  0
LINE
  5
221
330
1AD
100
AcDbEntity
  8
DV4_0
 62
     7
370
    25
100
AcDbLine
 10
169.7193380576295
 20
110.022756348401
 30
0.0
 11
169.5633231900911
 21
109.9326811226302
 31
0.0
  0
LINE
  5
222
330
1AD
100
AcDbEntity
  8
DV4_0
 62
     7
370
    25
100
AcDbLine
 10
138.6066396854214
 20
92.05983156799103
 30
0.0
 11
138.7763453129062
 21
92.15781115770235
 31
0.0
  0
LINE
  5
223
330
1AD
100
AcDbEntity
  8
DV4_0
 62
     7
370
    35
100
AcDbLine
 10
169.6974742075353
 20
110.1858987328455
 30
0.0
 11
169.5851485158709
 21
109.9741554906492
 31
0.0
  0
LINE
  5
224
330
1AD
100
AcDbEntity
  8
DV4_0
 62
     7
370
    25
100
AcDbLine
 10
159.6218532222856
 20
104.9125033809096
 30
0.0
 11
159.6218532222856
 21
104.7165442014869
 31
0.0
  0
LINE
  5
225
330
1AD
100
AcDbEntity
  8
DV4_0
 62
     7
370
    35
100
AcDbLine
 10
138.7989942623898
 20
92.3466530189656
 30
0.0
 11
138.9113199540542
 21
92.26461231340794
 31
0.0
  0
LINE
  5
226
330
1AD
100
AcDbEntity
  8
DV4_0
 62
     7
370
    35
100
AcDbLine
 10
169.7120916105807
 20
110.1784554594936
 30
0.0
 11
158.6234013176007
 21
116.580513785106
 31
0.0
  0
SPLINE
  5
227
330
1AD
100
AcDbEntity
  8
DV4_0
 62
     7
370
    35
100
AcDbSpline
210
0.0
220
0.0
230
1.0
 70
    12
 71
     3
 72
     8
 73
     4
 74
     0
 42
0.000000001
 43
0.0000000001
 40
0.0
 40
0.0
 40
0.0
 40
0.0
 40
1.0
 40
1.0
 40
1.0
 40
1.0
 10
167.7913373765771
 20
105.1166732011903
 30
0.0
 41
1.0
 10
167.7993242934565
 20
104.8029786505034
 30
0.0
 41
0.9999996729103753
 10
167.8072895761756
 20
104.4894389210034
 30
0.0
 41
0.9999996729103753
 10
167.8152332169184
 20
104.1760543203571
 30
0.0
 41
1.0
  0
ELLIPSE
  5
228
330
1AD
100
AcDbEntity
  8
DV4_0
 62
     7
370
    35
100
AcDbEllipse
 10
134.7266385278618
 20
111.1207964769987
 30
0.0
 11
35.20715025905097
 21
3.539391002505000E-12
 31
0.0
210
0.0
220
0.0
230
1.0
 40
0.5773502691897516
 41
5.934509598242098
 42
6.166948646727668
  0
LINE
  5
229
330
1AD
100
AcDbEntity
  8
DV4_0
 62
     7
370
    35
100
AcDbLine
 10
169.6962152338284
 20
109.9237224518183
 30
0.0
 11
169.6962152338284
 21
108.763387279816
 31
0.0
  0
SPLINE
  5
22A
330
1AD
100
AcDbEntity
  8
DV4_0
 62
     7
370
    35
100
AcDbSpline
210
0.0
220
0.0
230
1.0
 70
     8
 71
     3
 72
    58
 73
    54
 74
     0
 42
0.000000001
 43
0.0000000001
 40
0.0
 40
0.0
 40
0.0
 40
0.0
 40
0.0625
 40
0.0625
 40
0.125
 40
0.125
 40
0.1875
 40
0.1875
 40
0.203125
 40
0.203125
 40
0.21875
 40
0.21875
 40
0.25
 40
0.25
 40
0.3125
 40
0.3125
 40
0.375
 40
0.375
 40
0.3906249999999999
 40
0.3906249999999999
 40
0.4062499999999999
 40
0.4062499999999999
 40
0.4374999999999999
 40
0.4374999999999999
 40
0.5
 40
0.5
 40
0.5625
 40
0.5625
 40
0.578125
 40
0.578125
 40
0.5937500000000001
 40
0.5937500000000001
 40
0.625
 40
0.625
 40
0.6875
 40
0.6875
 40
0.71875
 40
0.71875
 40
0.734375
 40
0.734375
 40
0.75
 40
0.75
 40
0.8124999999999999
 40
0.8124999999999999
 40
0.8749999999999999
 40
0.8749999999999999
 40
0.890625
 40
0.890625
 40
0.9062499999999999
 40
0.9062499999999999
 40
0.9375
 40
0.9375
 40
1.0
 40
1.0
 40
1.0
 40
1.0
 10
138.8097910316
 20
92.09143712435667
 30
0.0
 10
139.674802027091
 20
92.64833595571851
 30
0.0
 10
140.5466140623759
 20
93.2031491292533
 30
0.0
 10
142.3031238530286
 20
94.31073181612472
 30
0.0
 10
143.1878283829776
 20
94.86349506781731
 30
0.0
 10
144.9700685059358
 20
95.96863438680218
 30
0.0
 10
145.8676026346526
 20
96.52100409651537
 30
0.0
 10
146.9978744313879
 20
97.21210379246237
 30
0.0
 10
147.2243480719766
 20
97.35035525414521
 30
0.0
 10
147.6781489252321
 20
97.62694232868478
 30
0.0
 10
147.9057719120661
 20
97.76545729841386
 30
0.0
 10
148.5864604250922
 20
98.1790428594459
 30
0.0
 10
149.0380383087828
 20
98.45257978555443
 30
0.0
 10
150.3858764061166
 20
99.26669007066232
 30
0.0
 10
151.2752553991861
 20
99.80078563788173
 30
0.0
 10
153.0340288238692
 20
100.8514611263681
 30
0.0
 10
153.9034316189527
 20
101.3680449122579
 30
0.0
 10
154.9763398066547
 20
102.0022046755502
 30
0.0
 10
155.190405037831
 20
102.1285607056675
 30
0.0
 10
155.6163453802307
 20
102.3796388546845
 30
0.0
 10
155.8273681463068
 20
102.503858849437
 30
0.0
 10
156.4546247198961
 20
102.8725946024089
 30
0.0
 10
156.8650496843052
 20
103.1131887267606
 30
0.0
 10
158.0732247172208
 20
103.8194496938338
 30
0.0
 10
158.8479206893012
 20
104.2696351894642
 30
0.0
 10
160.3354407174923
 20
105.1286098524603
 30
0.0
 10
161.0482694234809
 20
105.5374027347156
 30
0.0
 10
161.8994594287524
 20
106.0216379851821
 30
0.0
 10
162.0677332941661
 20
106.1171609459024
 30
0.0
 10
162.3977329024441
 20
106.3040704271789
 30
0.0
 10
162.5597914828922
 20
106.3956466002015
 30
0.0
 10
163.0373295095927
 20
106.6648481805279
 30
0.0
 10
163.3441769706594
 20
106.8369508352385
 30
0.0
 10
164.2314499826541
 20
107.3318723021846
 30
0.0
 10
164.778678469002
 20
107.6333605551287
 30
0.0
 10
165.5366517252727
 20
108.0446210589283
 30
0.0
 10
165.778812121538
 20
108.1748647291602
 30
0.0
 10
166.1265960646236
 20
108.3600565688129
 30
0.0
 10
166.2401006251843
 20
108.4201712849823
 30
0.0
 10
166.461002030872
 20
108.5364933795205
 30
0.0
 10
166.5684384309854
 20
108.5927229617972
 30
0.0
 10
167.0910065188261
 20
108.8644575308817
 30
0.0
 10
167.4624312101748
 20
109.0518189251796
 30
0.0
 10
168.1213709415698
 20
109.371076970601
 30
0.0
 10
168.4088500971055
 20
109.5029568346864
 30
0.0
 10
168.7198183234226
 20
109.6346522525143
 30
0.0
 10
168.7795875060996
 20
109.6593289899692
 30
0.0
 10
168.8943594474075
 20
109.7053780254304
 30
0.0
 10
168.9493935855904
 20
109.726761295213
 30
0.0
 10
169.107027372607
 20
109.7858171421812
 30
0.0
 10
169.2022945902754
 20
109.8184563614692
 30
0.0
 10
169.4602214727365
 20
109.8967669524128
 30
0.0
 10
169.5950610269677
 20
109.9228925844713
 30
0.0
 10
169.6962152338284
 20
109.9237224518183
 30
0.0
  0
LINE
  5
22B
330
1AD
100
AcDbEntity
  8
DV4_0
 62
     7
370
    35
100
AcDbLine
 10
138.8097910316
 20
90.93110195235435
 30
0.0
 11
138.8097910316
 21
92.09143712435667
 31
0.0
  0
ELLIPSE
  5
22C
330
1AD
100
AcDbEntity
  8
DV4_0
 62
     7
370
    35
100
AcDbEllipse
 10
134.7266385278772
 20
111.1207964769219
 30
0.0
 11
35.20715025899423
 21
2.609912286288818E-11
 31
0.0
210
0.0
220
0.0
230
1.0
 40
0.5773502691885743
 41
4.82862564083543
 42
5.061064689321402
  0
SPLINE
  5
22D
330
1AD
100
AcDbEntity
  8
DV4_0
 62
     7
370
    35
100
AcDbSpline
210
0.0
220
0.0
230
1.0
 70
    12
 71
     3
 72
     8
 73
     4
 74
     0
 42
0.000000001
 43
0.0000000001
 40
0.0
 40
0.0
 40
0.0
 40
0.0
 40
1.0
 40
1.0
 40
1.0
 40
1.0
 10
146.7552847886181
 20
92.01708742615821
 30
0.0
 41
1.0
 10
146.777136284056
 20
92.34767425669942
 30
0.0
 41
0.9999996729103753
 10
146.7989798998814
 20
92.67842416179828
 30
0.0
 41
0.9999996729103753
 10
146.8208156146597
 20
93.00933681690043
 30
0.0
 41
1.0
  0
SPLINE
  5
22E
330
1AD
100
AcDbEntity
  8
DV4_0
 62
     7
370
    35
100
AcDbSpline
210
0.0
220
0.0
230
1.0
 70
     8
 71
     3
 72
    33
 73
    29
 74
     0
 42
0.000000001
 43
0.0000000001
 40
0.0
 40
0.0
 40
0.0
 40
0.0
 40
0.0125536116328599
 40
0.0251087219718924
 40
0.0376694290427925
 40
0.0502398253949358
 40
0.062823994121774
 40
0.0942092459303364
 40
0.1255492490713696
 40
0.1569795933099528
 40
0.1882920131855364
 40
0.2510886086556146
 40
0.3138796867511076
 40
0.3766021715020794
 40
0.4392859692177737
 40
0.5014292527191941
 40
0.5634878239363547
 40
0.6260545375781668
 40
0.6881788101569918
 40
0.7503700107486121
 40
0.812914958940597
 40
0.8750381378771377
 40
0.9061405301078074
 40
0.9372905028142126
 40
0.9529497503740875
 40
0.9686287551496908
 40
0.9843354444917565
 40
1.0
 40
1.0
 40
1.0
 40
1.0
 10
146.8208156146597
 20
93.00933681690043
 30
0.0
 10
146.9173304641729
 20
93.11009830242226
 30
0.0
 10
147.1103716855728
 20
93.3116333028216
 30
0.0
 10
147.4050294444274
 20
93.61140171737605
 30
0.0
 10
147.7032974479538
 20
93.90937711814983
 30
0.0
 10
148.0054751786348
 20
94.20544998755118
 30
0.0
 10
148.4635500767214
 20
94.64613568277892
 30
0.0
 10
149.0850445155665
 20
95.2257575097208
 30
0.0
 10
149.8794309823065
 20
95.93647606819945
 30
0.0
 10
150.6877402919482
 20
96.6322200494534
 30
0.0
 10
151.7818396726259
 20
97.5399346673518
 30
0.0
 10
153.172043997406
 20
98.63432323678143
 30
0.0
 10
154.8510244716209
 20
99.87220849532764
 30
0.0
 10
156.5138010648557
 20
101.0218006014892
 30
0.0
 10
158.1288216946885
 20
102.0661659856301
 30
0.0
 10
159.6703743974211
 20
102.9920426172486
 30
0.0
 10
161.1202878841079
 20
103.7899298086019
 30
0.0
 10
162.4599620425703
 20
104.4486558135144
 30
0.0
 10
163.6765776643863
 20
104.9599292359811
 30
0.0
 10
164.7618538656552
 20
105.3178243095368
 30
0.0
 10
165.7133191988408
 20
105.5180697185182
 30
0.0
 10
166.3971532541106
 20
105.5513443254356
 30
0.0
 10
166.8805263992137
 20
105.4969829950721
 30
0.0
 10
167.1580664598341
 20
105.428634092243
 30
0.0
 10
167.3659751750479
 20
105.3530512991163
 30
0.0
 10
167.5151103132869
 20
105.2853489312514
 30
0.0
 10
167.6576411837219
 20
105.2078220122581
 30
0.0
 10
167.7468118998497
 20
105.1470289217181
 30
0.0
 10
167.7913373765771
 20
105.1166732011903
 30
0.0
  0
SPLINE
  5
22F
330
1AD
100
AcDbEntity
  8
DV4_0
 62
     7
370
    35
100
AcDbSpline
210
0.0
220
0.0
230
1.0
 70
    12
 71
     3
 72
     8
 73
     4
 74
     0
 42
0.000000001
 43
0.0000000001
 40
0.0
 40
0.0
 40
0.0
 40
0.0
 40
1.0
 40
1.0
 40
1.0
 40
1.0
 10
167.5659420331511
 20
105.1642720077645
 30
0.0
 41
1.0
 10
167.5738745048385
 20
104.8504915187011
 30
0.0
 41
0.9999996729103753
 10
167.5817854898414
 20
104.5368658197269
 30
0.0
 41
0.9999996729103753
 10
167.589674980397
 20
104.2233952185931
 30
0.0
 41
1.0
  0
SPLINE
  5
230
330
1AD
100
AcDbEntity
  8
DV4_0
 62
     7
370
    35
100
AcDbSpline
210
0.0
220
0.0
230
1.0
 70
     8
 71
     3
 72
    10
 73
     6
 74
     0
 42
0.000000001
 43
0.0000000001
 40
0.8660140947816879
 40
0.8660140947816879
 40
0.8660140947816879
 40
0.8660140947816879
 40
0.8748078716868243
 40
0.8748078716868243
 40
1.0
 40
1.0
 40
1.0
 40
1.0
 10
166.940455891737
 20
105.4766104032062
 30
0.0
 10
166.9555288741591
 20
105.4719227188443
 30
0.0
 10
166.9705097723817
 20
105.4670964844819
 30
0.0
 10
167.1973736379047
 20
105.3914446654412
 30
0.0
 10
167.3910725402318
 20
105.2921797266794
 30
0.0
 10
167.5659420331511
 20
105.1642720077645
 30
0.0
  0
LINE
  5
231
330
1AD
100
AcDbEntity
  8
DV4_0
 62
     7
370
    35
100
AcDbLine
 10
138.7819570094286
 20
91.068731003563
 30
0.0
 11
138.7819570094286
 21
92.2290661755653
 31
0.0
  0
SPLINE
  5
232
330
1AD
100
AcDbEntity
  8
DV4_0
 62
     7
370
    35
100
AcDbSpline
210
0.0
220
0.0
230
1.0
 70
     8
 71
     3
 72
     8
 73
     4
 74
     0
 42
0.000000001
 43
0.0000000001
 40
0.9751179618247252
 40
0.9751179618247252
 40
0.9751179618247252
 40
0.9751179618247252
 40
1.0
 40
1.0
 40
1.0
 40
1.0
 10
169.393487287051
 20
109.9376888610544
 30
0.0
 10
169.4156115431272
 20
109.938887459418
 30
0.0
 10
169.4367231338324
 20
109.9393399457148
 30
0.0
 10
169.4578347245376
 20
109.9397924320115
 30
0.0
  0
LINE
  5
233
330
1AD
100
AcDbEntity
  8
DV4_0
 62
     7
370
    35
100
AcDbLine
 10
167.589674980397
 20
104.2233952185931
 30
0.0
 11
167.8152332169184
 21
104.1760543203571
 31
0.0
  0
LINE
  5
234
330
1AD
100
AcDbEntity
  8
DV4_0
 62
     7
370
    35
100
AcDbLine
 10
138.8097910316
 20
90.9311019523544
 30
0.0
 11
138.7819570094287
 21
91.06873100356299
 31
0.0
  0
LINE
  5
235
330
1AD
100
AcDbEntity
  8
DV4_0
 62
     7
370
    35
100
AcDbLine
 10
138.8097910316
 20
92.09143712435667
 30
0.0
 11
138.7819570094286
 21
92.22906617556534
 31
0.0
  0
LINE
  5
236
330
1AD
100
AcDbEntity
  8
DV4_0
 62
     7
370
    35
100
AcDbLine
 10
169.6962152338284
 20
109.9237224518183
 30
0.0
 11
169.4578347245376
 21
109.9397924320115
 31
0.0
  0
LINE
  5
237
330
1AD
100
AcDbEntity
  8
DV4_0
 62
     7
370
    35
100
AcDbLine
 10
167.5659420331511
 20
105.1642720077644
 30
0.0
 11
167.7913373765771
 21
105.1166732011903
 31
0.0
  0
LINE
  5
238
330
1AD
100
AcDbEntity
  8
DV4_0
 62
     7
370
    35
100
AcDbLine
 10
167.4502607182135
 20
104.3038860803936
 30
0.0
 11
166.6281103822019
 21
104.7785547982043
 31
0.0
  0
LINE
  5
239
330
1AD
100
AcDbEntity
  8
DV4_0
 62
     7
370
    35
100
AcDbLine
 10
167.4267067456448
 20
105.2453550598756
 30
0.0
 11
167.4502607182135
 21
104.3038860803936
 31
0.0
  0
LINE
  5
23A
330
1AD
100
AcDbEntity
  8
DV4_0
 62
     7
370
    25
100
AcDbLine
 10
166.6123773230135
 20
105.1161177865616
 30
0.0
 11
165.9346116082906
 21
105.5074260044044
 31
0.0
  0
LINE
  5
23B
330
1AD
100
AcDbEntity
  8
DV4_0
 62
     7
370
    35
100
AcDbLine
 10
166.6281103822018
 20
104.7785547982043
 30
0.0
 11
166.6123773230134
 21
105.1161177865616
 31
0.0
  0
LINE
  5
23C
330
1AD
100
AcDbEntity
  8
DV4_0
 62
     7
370
    35
100
AcDbLine
 10
167.5854743444818
 20
104.3901341958523
 30
0.0
 11
167.4502607182134
 21
104.3038860803936
 31
0.0
  0
SPLINE
  5
23D
330
1AD
100
AcDbEntity
  8
DV4_0
 62
     7
370
    35
100
AcDbSpline
210
0.0
220
0.0
230
1.0
 70
     8
 71
     3
 72
    10
 73
     6
 74
     0
 42
0.000000001
 43
0.0000000001
 40
0.6549681996713428
 40
0.6549681996713428
 40
0.6549681996713428
 40
0.6549681996713428
 40
0.7497831598339706
 40
0.8801607169492845
 40
1.0
 40
1.0
 40
1.0
 40
1.0
 10
166.6175609346324
 20
104.9876724680923
 30
0.0
 10
166.6097068950794
 20
104.996248872703
 30
0.0
 10
166.5929324635896
 20
105.0193782155608
 30
0.0
 10
166.5740042105131
 20
105.063750750747
 30
0.0
 10
166.5682306533066
 20
105.1037742996244
 30
0.0
 10
166.5654654559049
 20
105.122943246844
 30
0.0
  0
LINE
  5
23E
330
1AD
100
AcDbEntity
  8
DV4_0
 62
     7
370
    35
100
AcDbLine
 10
166.6133207074784
 20
105.0953140044659
 30
0.0
 11
166.5654654559049
 21
105.122943246844
 31
0.0
  0
LINE
  5
23F
330
1AD
100
AcDbEntity
  8
DV4_0
 62
     7
370
    35
100
AcDbLine
 10
166.6133207021387
 20
105.0953140557335
 30
0.0
 11
166.6123773230135
 21
105.1161177865616
 31
0.0
  0
LINE
  5
240
330
1AD
100
AcDbEntity
  8
DV4_0
 62
     7
370
    35
100
AcDbLine
 10
165.7391290957762
 20
105.487415203505
 30
0.0
 11
166.6187414758969
 21
104.9795707590598
 31
0.0
  0
LINE
  5
241
330
1AD
100
AcDbEntity
  8
DV4_0
 62
     7
370
    35
100
AcDbLine
 10
148.9785512540001
 20
108.8088401623094
 30
0.0
 11
151.4014230046146
 21
107.4099945048802
 31
0.0
  0
SPLINE
  5
242
330
1AD
100
AcDbEntity
  8
DV4_0
 62
     7
370
    35
100
AcDbSpline
210
0.0
220
0.0
230
1.0
 70
     8
 71
     3
 72
    10
 73
     6
 74
     0
 42
0.000000001
 43
0.0000000001
 40
0.8126704356641079
 40
0.8126704356641079
 40
0.8126704356641079
 40
0.8126704356641079
 40
0.875
 40
0.875
 40
1.0
 40
1.0
 40
1.0
 40
1.0
 10
152.3995322023993
 20
111.250082780678
 30
0.0
 10
152.4041859322308
 20
111.2670406141574
 30
0.0
 10
152.4100208934699
 20
111.2838710147857
 30
0.0
 10
152.4311703165429
 20
111.3340512628897
 30
0.0
 10
152.4499230407198
 20
111.3664240354605
 30
0.0
 10
152.4728543287832
 20
111.3972597042141
 30
0.0
  0
SPLINE
  5
243
330
1AD
100
AcDbEntity
  8
DV4_0
 62
     7
370
    35
100
AcDbSpline
210
0.0
220
0.0
230
1.0
 70
     8
 71
     3
 72
    10
 73
     6
 74
     0
 42
0.000000001
 43
0.0000000001
 40
0.2109394767707322
 40
0.2109394767707322
 40
0.2109394767707322
 40
0.2109394767707322
 40
0.2499323848415988
 40
0.3123217437131265
 40
0.3300218480698004
 40
0.3300218480698004
 40
0.3300218480698004
 40
0.3300218480698004
 10
155.999706287076
 20
108.9666429835269
 30
0.0
 10
155.9968188720734
 20
108.9413241396868
 30
0.0
 10
155.9870808091279
 20
108.8755438804827
 30
0.0
 10
155.9688511590202
 20
108.7985129186294
 30
0.0
 10
155.9530137355661
 20
108.7469117898589
 30
0.0
 10
155.9493391627267
 20
108.7355186345545
 30
0.0
  0
SPLINE
  5
244
330
1AD
100
AcDbEntity
  8
DV4_0
 62
     7
370
    35
100
AcDbSpline
210
0.0
220
0.0
230
1.0
 70
     8
 71
     3
 72
    20
 73
    16
 74
     0
 42
0.000000001
 43
0.0000000001
 40
0.0
 40
0.0
 40
0.0
 40
0.0
 40
0.25
 40
0.25
 40
0.3125
 40
0.3125
 40
0.375
 40
0.375
 40
0.5
 40
0.5
 40
0.5625
 40
0.5625
 40
0.625
 40
0.625
 40
0.6591279766679805
 40
0.6591279766679805
 40
0.6591279766679805
 40
0.6591279766679805
 10
151.1165133544734
 20
107.6713447391047
 30
0.0
 10
151.2118075348574
 20
107.6163266184078
 30
0.0
 10
151.2914144622752
 20
107.5537535837238
 30
0.0
 10
151.3716881600087
 20
107.4662451875131
 30
0.0
 10
151.3868181705944
 20
107.4481932409421
 30
0.0
 10
151.4147463066002
 20
107.4115209292879
 30
0.0
 10
151.4275412500505
 20
107.3929230775222
 30
0.0
 10
151.4625037668454
 20
107.3363543731876
 30
0.0
 10
151.4812658695066
 20
107.2976125693268
 30
0.0
 10
151.5026099150056
 20
107.2379174332116
 30
0.0
 10
151.5085871861165
 20
107.2177542728049
 30
0.0
 10
151.5182175404794
 20
107.176878703859
 30
0.0
 10
151.5218647256736
 20
107.1561293342136
 30
0.0
 10
151.5256092512924
 20
107.1241276500099
 30
0.0
 10
151.5265748646509
 20
107.1128165127819
 30
0.0
 10
151.5271860245768
 20
107.101496277758
 30
0.0
  0
LINE
  5
245
330
1AD
100
AcDbEntity
  8
DV4_0
 62
     7
370
    35
100
AcDbLine
 10
149.4194570796257
 20
108.651140636218
 30
0.0
 11
151.1165133544734
 21
107.6713447391047
 31
0.0
  0
ARC
  5
246
330
1AD
100
AcDbEntity
  8
DV4_0
 62
     7
370
    35
100
AcDbCircle
 10
148.5190659328485
 20
106.882966738079
 30
0.0
 40
1.984223563829109
100
AcDbArc
 50
63.01385355033651
 51
106.9012358988665
  0
SPLINE
  5
247
330
1AD
100
AcDbEntity
  8
DV4_0
 62
     7
370
    35
100
AcDbSpline
210
0.0
220
0.0
230
1.0
 70
     8
 71
     3
 72
    14
 73
    10
 74
     0
 42
0.000000001
 43
0.0000000001
 40
0.0
 40
0.0
 40
0.0
 40
0.0
 40
0.0156914391135267
 40
0.0313735004316883
 40
0.047049375391821
 40
0.0627222592103656
 40
0.0783953489331104
 40
0.0940718414798165
 40
0.1032535506943916
 40
0.1032535506943916
 40
0.1032535506943916
 40
0.1032535506943916
 10
147.9422068380941
 20
108.7814863550579
 30
0.0
 10
147.9397280863936
 20
108.7935110093443
 30
0.0
 10
147.9347720643882
 20
108.8175531315306
 30
0.0
 10
147.9283836591044
 20
108.8537050573763
 30
0.0
 10
147.9227647454469
 20
108.8899024892235
 30
0.0
 10
147.917990127159
 20
108.9261513453728
 30
0.0
 10
147.9140399011587
 20
108.9624479089837
 30
0.0
 10
147.9113508936013
 20
108.9937671774261
 30
0.0
 10
147.9100491860699
 20
109.0129879307561
 30
0.0
 10
147.9096157935438
 20
109.0200887162817
 30
0.0
  0
LINE
  5
248
330
1AD
100
AcDbEntity
  8
DV4_0
 62
     7
370
    35
100
AcDbLine
 10
154.502400126495
 20
109.7564810803566
 30
0.0
 11
152.8053438516473
 21
110.7362769774698
 31
0.0
  0
SPLINE
  5
249
330
1AD
100
AcDbEntity
  8
DV4_0
 62
     7
370
    35
100
AcDbSpline
210
0.0
220
0.0
230
1.0
 70
     8
 71
     3
 72
    29
 73
    25
 74
     0
 42
0.000000001
 43
0.0000000001
 40
0.0
 40
0.0
 40
0.0
 40
0.0
 40
0.0210127669293751
 40
0.0419656843578633
 40
0.062870683590474
 40
0.0837397781199198
 40
0.1045850435165152
 40
0.1254185967862104
 40
0.146252575370182
 40
0.1670991159666794
 40
0.1879703333593311
 40
0.208878299436034
 40
0.2298350225787134
 40
0.2508524275967265
 40
0.3754092237810359
 40
0.5000090939921794
 40
0.6245470973081055
 40
0.7491541225936318
 40
0.7910944278120696
 40
0.8328542477409056
 40
0.8745289078272088
 40
0.9162143177456772
 40
0.9580063131582229
 40
1.0
 40
1.0
 40
1.0
 40
1.0
 10
152.8053438516473
 20
110.7362769774699
 30
0.0
 10
152.797464919332
 20
110.7408836140749
 30
0.0
 10
152.7817294958282
 20
110.7500837664571
 30
0.0
 10
152.7588821046297
 20
110.7642109271909
 30
0.0
 10
152.7366383930945
 20
110.7785488512242
 30
0.0
 10
152.7150491382691
 20
110.7931224415362
 30
0.0
 10
152.6941007982921
 20
110.8079248277106
 30
0.0
 10
152.6737970082088
 20
110.8229575628967
 30
0.0
 10
152.6541368025991
 20
110.8382198894412
 30
0.0
 10
152.6351204433304
 20
110.8537115867756
 30
0.0
 10
152.6167478438695
 20
110.8694322954039
 30
0.0
 10
152.5990190490409
 20
110.8853813764542
 30
0.0
 10
152.5819338894987
 20
110.9015591539191
 30
0.0
 10
152.5385187254549
 20
110.9448737423935
 30
0.0
 10
152.4783972636176
 20
111.0177934162732
 30
0.0
 10
152.4224606224659
 20
111.1225532953888
 30
0.0
 10
152.3939256022112
 20
111.2288820928138
 30
0.0
 10
152.3941690367853
 20
111.3111130786331
 30
0.0
 10
152.4047010901687
 20
111.3687190184559
 30
0.0
 10
152.4141972464473
 20
111.4029574683819
 30
0.0
 10
152.4268083642024
 20
111.436601694922
 30
0.0
 10
152.4426032563396
 20
111.4696257640004
 30
0.0
 10
152.4613159561756
 20
111.5020969239137
 30
0.0
 10
152.4763519556586
 20
111.5231132635634
 30
0.0
 10
152.4838880529566
 20
111.5336467289725
 30
0.0
  0
ARC
  5
24A
330
1AD
100
AcDbEntity
  8
DV4_0
 62
     7
370
    35
100
AcDbCircle
 10
151.6088448937417
 20
106.0631305492104
 30
0.0
 40
5.540058465713863
100
AcDbArc
 50
80.91216818141197
 51
117.089977889446
  0
SPLINE
  5
24B
330
1AD
100
AcDbEntity
  8
DV4_0
 62
     7
370
    35
100
AcDbSpline
210
0.0
220
0.0
230
1.0
 70
     8
 71
     3
 72
    28
 73
    24
 74
     0
 42
0.000000001
 43
0.0000000001
 40
0.0
 40
0.0
 40
0.0
 40
0.0
 40
0.0026479077857892
 40
0.0026479077857892
 40
0.0460110422298854
 40
0.0460110422298854
 40
0.1327373111180777
 40
0.1327373111180777
 40
0.3061898488944621
 40
0.3061898488944621
 40
0.3929161177826542
 40
0.3929161177826542
 40
0.4796423866708465
 40
0.4796423866708465
 40
0.6530949244472312
 40
0.6530949244472312
 40
0.6964580588913273
 40
0.6964580588913273
 40
0.7398211933354234
 40
0.7398211933354234
 40
0.8265474622236155
 40
0.8265474622236155
 40
1.0
 40
1.0
 40
1.0
 40
1.0
 10
147.9311731467272
 20
108.9051327552259
 30
0.0
 10
147.9307443151127
 20
108.9071846039247
 30
0.0
 10
147.930319606143
 20
108.9092363362144
 30
0.0
 10
147.9230116584128
 20
108.9448846134372
 30
0.0
 10
147.9172155204319
 20
108.9784867349589
 30
0.0
 10
147.9030501079226
 20
109.0792909875176
 30
0.0
 10
147.8978987071182
 20
109.1464909870515
 30
0.0
 10
147.895109708643
 20
109.3479387356284
 30
0.0
 10
147.9100560702416
 20
109.4820363926548
 30
0.0
 10
147.9583051089375
 20
109.6822930058516
 30
0.0
 10
147.9788252695953
 20
109.7491119103987
 30
0.0
 10
148.0279149030246
 20
109.8800982676097
 30
0.0
 10
148.0565133587867
 20
109.9445050407885
 30
0.0
 10
148.1542247088551
 20
110.134407500717
 30
0.0
 10
148.2351789298231
 20
110.2566022542631
 30
0.0
 10
148.3564666387197
 20
110.4033985935891
 30
0.0
 10
148.3817348885566
 20
110.4324591627903
 30
0.0
 10
148.4343257349339
 20
110.4899662130371
 30
0.0
 10
148.4617009247371
 20
110.5184602741466
 30
0.0
 10
148.5462231372431
 20
110.6022754177922
 30
0.0
 10
148.6059299661102
 20
110.6561344419032
 30
0.0
 10
148.7948702972647
 20
110.811754805924
 30
0.0
 10
148.933866011433
 20
110.9075901458139
 30
0.0
 10
149.0859621826061
 20
110.9954029088212
 30
0.0
  0
ARC
  5
24C
330
1AD
100
AcDbEntity
  8
DV4_0
 62
     7
370
    35
100
AcDbCircle
 10
148.5118658724532
 20
107.0049297958413
 30
0.0
 40
1.986951264768479
100
AcDbArc
 50
63.08707469595451
 51
106.9928958644972
  0
LINE
  5
24D
330
1AD
100
AcDbEntity
  8
DV4_0
 62
     7
370
    35
100
AcDbLine
 10
149.4112313019519
 20
108.7766851832433
 30
0.0
 11
151.1082875767996
 21
107.79688928613
 31
0.0
  0
SPLINE
  5
24E
330
1AD
100
AcDbEntity
  8
DV4_0
 62
     7
370
    35
100
AcDbSpline
210
0.0
220
0.0
230
1.0
 70
     8
 71
     3
 72
    29
 73
    25
 74
     0
 42
0.000000001
 43
0.0000000001
 40
0.0
 40
0.0
 40
0.0
 40
0.0
 40
0.0210127669338947
 40
0.0419656843660786
 40
0.0628706836015587
 40
0.0837397781330491
 40
0.1045850435308697
 40
0.125418596800968
 40
0.1462525753845305
 40
0.1670991159798117
 40
0.1879703333704462
 40
0.2088782994443449
 40
0.2298350225834351
 40
0.2508524275970925
 40
0.3754092238065203
 40
0.500009093992418
 40
0.6245470973101654
 40
0.7491541225934335
 40
0.7910944278072153
 40
0.8328542477332186
 40
0.8745289078185681
 40
0.9162143177379924
 40
0.9580063131534149
 40
1.0
 40
1.0
 40
1.0
 40
1.0
 10
151.1082875767996
 20
107.79688928613
 30
0.0
 10
151.1161665091166
 20
107.7922735711059
 30
0.0
 10
151.1319019326235
 20
107.7830552877433
 30
0.0
 10
151.1547493238261
 20
107.7687808578429
 30
0.0
 10
151.1769930353646
 20
107.7542075118556
 30
0.0
 10
151.1985822901925
 20
107.7393015657228
 30
0.0
 10
151.2195306301708
 20
107.7240718423202
 30
0.0
 10
151.2398344202546
 20
107.708515754732
 30
0.0
 10
151.2594946258638
 20
107.692633705855
 30
0.0
 10
151.2785109851312
 20
107.6764252630331
 30
0.0
 10
151.2968835845898
 20
107.6598900855585
 30
0.0
 10
151.3146123794151
 20
107.6430280357041
 30
0.0
 10
151.3316975389533
 20
107.6258378022962
 30
0.0
 10
151.3751127029962
 20
107.5795852833329
 30
0.0
 10
151.4352341648333
 20
107.5004423537483
 30
0.0
 10
151.4911708059851
 20
107.3834444207587
 30
0.0
 10
151.5197058262287
 20
107.2612360272998
 30
0.0
 10
151.5194623916601
 20
107.1636579144316
 30
0.0
 10
151.5089303382809
 20
107.0936932804295
 30
0.0
 10
151.4994341820038
 20
107.0515922342047
 30
0.0
 10
151.4868230642492
 20
107.0096831088773
 30
0.0
 10
151.4710281721114
 20
106.9679679582596
 30
0.0
 10
151.4523154722737
 20
106.9264004613836
 30
0.0
 10
151.4372794727892
 20
106.8989713036733
 30
0.0
 10
151.4297433754903
 20
106.8852237106687
 30
0.0
  0
ARC
  5
24F
330
1AD
100
AcDbEntity
  8
DV4_0
 62
     7
370
    35
100
AcDbCircle
 10
151.648997693699
 20
113.6056631760763
 30
0.0
 40
6.724015099942976
100
AcDbArc
 50
268.1313881478137
 51
298.2119228955461
  0
SPLINE
  5
250
330
1AD
100
AcDbEntity
  8
DV4_0
 62
     7
370
    35
100
AcDbSpline
210
0.0
220
0.0
230
1.0
 70
     8
 71
     3
 72
    28
 73
    24
 74
     0
 42
0.000000001
 43
0.0000000001
 40
0.0
 40
0.0
 40
0.0
 40
0.0
 40
0.002647907785789
 40
0.002647907785789
 40
0.0460110422298851
 40
0.0460110422298851
 40
0.1327373111180774
 40
0.1327373111180774
 40
0.3061898488944618
 40
0.3061898488944618
 40
0.3929161177826542
 40
0.3929161177826542
 40
0.4796423866708465
 40
0.4796423866708465
 40
0.6530949244472309
 40
0.6530949244472309
 40
0.6964580588913271
 40
0.6964580588913271
 40
0.7398211933354233
 40
0.7398211933354233
 40
0.8265474622236155
 40
0.8265474622236155
 40
1.0
 40
1.0
 40
1.0
 40
1.0
 10
155.9824582817197
 20
109.5137392161041
 30
0.0
 10
155.9828871133342
 20
109.5120094188242
 30
0.0
 10
155.9833118223038
 20
109.5102798632726
 30
0.0
 10
155.9906197700341
 20
109.4802317679978
 30
0.0
 10
155.996415908015
 20
109.4519459074656
 30
0.0
 10
156.0105813205244
 20
109.3671661240383
 30
0.0
 10
156.0157327213287
 20
109.3107498506266
 30
0.0
 10
156.0185217198038
 20
109.1416498623494
 30
0.0
 10
156.0035753582053
 20
109.0291153122279
 30
0.0
 10
155.9553263195093
 20
108.8599855805208
 30
0.0
 10
155.9348061588516
 20
108.8033691264778
 30
0.0
 10
155.8857165254223
 20
108.6918399044692
 30
0.0
 10
155.8571180696602
 20
108.6367264409615
 30
0.0
 10
155.7594067195917
 20
108.473166961243
 30
0.0
 10
155.6784524986238
 20
108.3664865609349
 30
0.0
 10
155.5571647897272
 20
108.2357622481712
 30
0.0
 10
155.5318965398903
 20
108.2097499249719
 30
0.0
 10
155.4793056935129
 20
108.1579872186414
 30
0.0
 10
155.4519305037098
 20
108.1321929698367
 30
0.0
 10
155.3674082912038
 20
108.0558575984861
 30
0.0
 10
155.3077014623367
 20
108.0061811645716
 30
0.0
 10
155.1187611311822
 20
107.8606421381162
 30
0.0
 10
154.9797654170139
 20
107.7682395579863
 30
0.0
 10
154.8276692458408
 20
107.6804267902546
 30
0.0
  0
ARC
  5
251
330
1AD
100
AcDbEntity
  8
DV4_0
 62
     7
370
    35
100
AcDbCircle
 10
155.6205082548033
 20
111.9403531438112
 30
0.0
 40
2.453459389540884
100
AcDbArc
 50
242.8882679792817
 51
278.4836048142351
  0
LINE
  5
252
330
1AD
100
AcDbEntity
  8
DV4_0
 62
     7
370
    25
100
AcDbLine
 10
154.8276692458408
 20
107.6804267902546
 30
0.0
 11
154.8276692458408
 21
107.6503041667318
 31
0.0
  0
LINE
  5
253
330
1AD
100
AcDbEntity
  8
DV4_0
 62
     7
370
    35
100
AcDbLine
 10
152.4838880529566
 20
111.5336467289725
 30
0.0
 11
152.4728543287832
 21
111.3972597042141
 31
0.0
  0
LINE
  5
254
330
1AD
100
AcDbEntity
  8
DV4_0
 62
     7
370
    35
100
AcDbLine
 10
151.4297433754903
 20
106.8852237106687
 30
0.0
 11
151.4321369798989
 21
106.8584004450447
 31
0.0
  0
LINE
  5
255
330
1AD
100
AcDbEntity
  8
DV4_0
 62
     7
370
    35
100
AcDbLine
 10
147.9311731467272
 20
108.9051327552259
 30
0.0
 11
147.9422068380941
 21
108.7814863550579
 31
0.0
  0
LINE
  5
256
330
1AD
100
AcDbEntity
  8
DV4_0
 62
     7
370
    25
100
AcDbLine
 10
149.4112313019519
 20
108.7766851832433
 30
0.0
 11
149.4194570796257
 21
108.651140636218
 31
0.0
  0
LINE
  5
257
330
1AD
100
AcDbEntity
  8
DV4_0
 62
     7
370
    25
100
AcDbLine
 10
151.1082875767996
 20
107.79688928613
 30
0.0
 11
151.1165133544734
 21
107.6713447391047
 31
0.0
  0
SPLINE
  5
258
330
1AD
100
AcDbEntity
  8
DV4_0
 62
     7
370
    35
100
AcDbSpline
210
0.0
220
0.0
230
1.0
 70
     8
 71
     3
 72
     8
 73
     4
 74
     0
 42
0.000000001
 43
0.0000000001
 40
0.0
 40
0.0
 40
0.0
 40
0.0
 40
1.0
 40
1.0
 40
1.0
 40
1.0
 10
155.9996570237687
 20
108.9658840180104
 30
0.0
 10
156.0028668213134
 20
109.0125147617493
 30
0.0
 10
156.006080021291
 20
109.0591476619719
 30
0.0
 10
156.0092966237016
 20
109.105782718678
 30
0.0
  0
SPLINE
  5
259
330
1AD
100
AcDbEntity
  8
DV4_0
 62
     7
370
    35
100
AcDbSpline
210
0.0
220
0.0
230
1.0
 70
     8
 71
     3
 72
     8
 73
     4
 74
     0
 42
0.000000001
 43
0.0000000001
 40
0.0
 40
0.0
 40
0.0
 40
0.0
 40
1.0
 40
1.0
 40
1.0
 40
1.0
 10
147.8995781964496
 20
109.14148256101
 30
0.0
 10
147.9029494516011
 20
109.1007481890411
 30
0.0
 10
147.9063175934092
 20
109.0600107777333
 30
0.0
 10
147.909682621874
 20
109.0192703270868
 30
0.0
  0
ENDBLK
  5
25B
330
1AD
100
AcDbEntity
  8
0
100
AcDbBlockEnd
  0
BLOCK
  5
265
330
25C
100
AcDbEntity
  8
0
100
AcDbBlockBegin
  2
GDimGGroup
 70
     0
 10
0.0
 20
0.0
 30
0.0
  3
GDimGGroup
  1

  0
LWPOLYLINE
  5
25E
330
25C
100
AcDbEntity
  8
Default
 62
     7
370
    25
100
AcDbPolyline
 90
        4
 70
     0
 43
0.0
 10
45.63723113370126
 20
246.2396450189042
 10
45.63723113370126
 20
245.2396450102119
 10
42.63723110762422
 20
245.7396450145581
 10
45.63723113370126
 20
246.2396450189042
  0
LWPOLYLINE
  5
25F
330
25C
100
AcDbEntity
  8
Default
 62
     7
370
    25
100
AcDbPolyline
 90
        4
 70
     0
 43
0.0
 10
83.63723084312862
 20
246.2396450189042
 10
83.63723084312862
 20
245.2396450102119
 10
86.63723086920565
 20
245.7396450145581
 10
83.63723084312862
 20
246.2396450189042
  0
LINE
  5
260
330
25C
100
AcDbEntity
  8
Default
 62
     7
370
    25
100
AcDbLine
 10
42.63723110762422
 20
219.8511368288138
 30
0.0
 11
42.63723110762422
 21
247.2396450275966
 31
0.0
  0
LINE
  5
261
330
25C
100
AcDbEntity
  8
Default
 62
     7
370
    25
100
AcDbLine
 10
86.63723110762425
 20
219.8511368288138
 30
0.0
 11
86.63723110762425
 21
247.2396450275966
 31
0.0
  0
LINE
  5
262
330
25C
100
AcDbEntity
  8
Default
 62
     7
370
    25
100
AcDbLine
 10
42.63723110762422
 20
245.7396450145581
 30
0.0
 11
86.63723086920564
 21
245.7396450145581
 31
0.0
  0
TEXT
  5
264
330
25C
100
AcDbEntity
  8
Default
 62
     7
370
    25
100
AcDbText
 10
61.11549185798016
 20
246.4896450145581
 30
0.0
 40
3.0
  1
550
  7
SEACAD_Solid_Edge_ANSI
 11
61.11549185798016
 21
249.4896450145581
 31
0.0
100
AcDbText
 73
     3
  0
ENDBLK
  5
266
330
25C
100
AcDbEntity
  8
0
100
AcDbBlockEnd
  0
BLOCK
  5
26F
330
267
100
AcDbEntity
  8
0
100
AcDbBlockBegin
  2
GDimGGroup1
 70
     0
 10
0.0
 20
0.0
 30
0.0
  3
GDimGGroup1
  1

  0
LWPOLYLINE
  5
269
330
267
100
AcDbEntity
  8
Default
 62
     7
370
    25
100
AcDbPolyline
 90
        4
 70
     0
 43
0.0
 10
185.4414783225158
 20
227.0911368027367
 10
184.4414783138235
 20
227.0911368027367
 10
184.9414783181696
 20
230.0911368288137
 10
185.4414783225158
 20
227.0911368027367
  0
LWPOLYLINE
  5
26A
330
267
100
AcDbEntity
  8
Default
 62
     7
370
    25
100
AcDbPolyline
 90
        4
 70
     0
 43
0.0
 10
185.4414783225158
 20
136.1311361610927
 10
184.4414783138235
 20
136.1311361610927
 10
184.9414783181696
 20
133.1311361350157
 10
185.4414783225158
 20
136.1311361610927
  0
LINE
  5
26B
330
267
100
AcDbEntity
  8
Default
 62
     7
370
    25
100
AcDbLine
 10
166.8393162662237
 20
230.0911368288137
 30
0.0
 11
186.4414783312081
 21
230.0911368288137
 31
0.0
  0
LINE
  5
26C
330
267
100
AcDbEntity
  8
Default
 62
     7
370
    25
100
AcDbLine
 10
163.5993166329412
 20
133.1311368288137
 30
0.0
 11
186.4414783312081
 21
133.1311368288137
 31
0.0
  0
LINE
  5
26D
330
267
100
AcDbEntity
  8
Default
 62
     7
370
    25
100
AcDbLine
 10
184.9414783181696
 20
230.0911368288137
 30
0.0
 11
184.9414783181696
 21
133.1311361350157
 31
0.0
  0
TEXT
  5
26E
330
267
100
AcDbEntity
  8
Default
 62
     7
370
    25
100
AcDbText
 10
184.1914783181696
 20
176.9154843080016
 30
0.0
 40
3.0
  1
1210
 50
90.0
  7
SEACAD_Solid_Edge_ANSI
 11
181.1914783181696
 21
176.9154843080016
 31
0.0
100
AcDbText
 73
     3
  0
ENDBLK
  5
270
330
267
100
AcDbEntity
  8
0
100
AcDbBlockEnd
  0
BLOCK
  5
279
330
271
100
AcDbEntity
  8
0
100
AcDbBlockBegin
  2
GDimGGroup2
 70
     0
 10
0.0
 20
0.0
 30
0.0
  3
GDimGGroup2
  1

  0
LWPOLYLINE
  5
273
330
271
100
AcDbEntity
  8
Default
 62
     7
370
    25
100
AcDbPolyline
 90
        4
 70
     0
 43
0.0
 10
100.6102239195973
 20
87.65710305384044
 10
99.61022391090496
 20
87.65710305384044
 10
100.1102239152511
 20
90.65710307991748
 10
100.6102239195973
 20
87.65710305384044
  0
LWPOLYLINE
  5
274
330
271
100
AcDbEntity
  8
Default
 62
     7
370
    25
100
AcDbPolyline
 90
        4
 70
     0
 43
0.0
 10
100.6102239195973
 20
62.77710452637319
 10
99.61022391090496
 20
62.77710452637319
 10
100.1102239152511
 20
59.77710450029616
 10
100.6102239195973
 20
62.77710452637319
  0
LINE
  5
275
330
271
100
AcDbEntity
  8
Default
 62
     7
370
    25
100
AcDbLine
 10
64.63723110762442
 20
90.65710307991748
 30
0.0
 11
101.6102239282897
 21
90.65710307991748
 31
0.0
  0
LINE
  5
276
330
271
100
AcDbEntity
  8
Default
 62
     7
370
    25
100
AcDbLine
 10
64.64372732724316
 20
59.777103677966
 30
0.0
 11
101.6102239282897
 21
59.777103677966
 31
0.0
  0
LINE
  5
277
330
271
100
AcDbEntity
  8
Default
 62
     7
370
    25
100
AcDbLine
 10
100.1102239152511
 20
90.65710307991748
 30
0.0
 11
100.1102239152511
 21
59.77710450029616
 31
0.0
  0
TEXT
  5
278
330
271
100
AcDbEntity
  8
Default
 62
     7
370
    25
100
AcDbText
 10
99.36022391525114
 20
71.69536465967204
 30
0.0
 40
3.0
  1
385
 50
90.0
  7
SEACAD_Solid_Edge_ANSI
 11
96.36022391525114
 21
71.69536465967204
 31
0.0
100
AcDbText
 73
     3
  0
ENDBLK
  5
27A
330
271
100
AcDbEntity
  8
0
100
AcDbBlockEnd
  0
BLOCK
  5
289
330
283
100
AcDbEntity
  8
0
100
AcDbBlockBegin
  2
SEANNOT_GROUP
 70
     0
 10
0.0
 20
0.0
 30
0.0
  3
SEANNOT_GROUP
  1

  0
TEXT
  5
285
330
283
100
AcDbEntity
  8
Predeterminado
 62
     7
370
     5
100
AcDbText
 10
202.5201921067479
 20
12.7403379754914
 30
0.0
 40
1.5
  1
V 
 50
90.0
  7
SEACAD_Solid_Edge_ANSI
 11
201.0201921067479
 21
12.7403379754914
 31
0.0
100
AcDbText
 73
     3
  0
TEXT
  5
286
330
283
100
AcDbEntity
  8
Predeterminado
 62
     7
370
     5
100
AcDbText
 10
202.5201921067479
 20
14.6528379754914
 30
0.0
 40
1.5
  1
01
 50
90.0
  7
SEACAD_Solid_Edge_ANSI
 11
201.0201921067479
 21
14.6528379754914
 31
0.0
100
AcDbText
 73
     3
  0
TEXT
  5
287
330
283
100
AcDbEntity
  8
Predeterminado
 62
     7
370
     5
100
AcDbText
 10
202.5201921067479
 20
16.7153379754914
 30
0.0
 40
1.5
  1
  
 50
90.0
  7
SEACAD_Solid_Edge_ANSI
 11
201.0201921067479
 21
16.7153379754914
 31
0.0
100
AcDbText
 73
     3
  0
TEXT
  5
288
330
283
100
AcDbEntity
  8
Predeterminado
 62
     7
370
     5
100
AcDbText
 10
202.5201921067479
 20
17.7653379754914
 30
0.0
 40
1.5
  1
02/02/2021
 50
90.0
  7
SEACAD_Solid_Edge_ANSI
 11
201.0201921067479
 21
17.7653379754914
 31
0.0
100
AcDbText
 73
     3
  0
ENDBLK
  5
28A
330
283
100
AcDbEntity
  8
0
100
AcDbBlockEnd
  0
BLOCK
  5
28E
330
28B
100
AcDbEntity
  8
0
100
AcDbBlockBegin
  2
SEANNOT_GROUP1
 70
     0
 10
0.0
 20
0.0
 30
0.0
  3
SEANNOT_GROUP1
  1

  0
TEXT
  5
28D
330
28B
100
AcDbEntity
  8
Predeterminado
 62
     7
370
     5
100
AcDbText
 10
98.61902907818069
 20
275.956987846381
 30
0.0
 40
6.0
  1
Loma
  7
SEACAD_Solid_Edge_ANSI
 11
98.61902907818069
 21
281.956987846381
 31
0.0
100
AcDbText
 73
     3
  0
ENDBLK
  5
28F
330
28B
100
AcDbEntity
  8
0
100
AcDbBlockEnd
  0
BLOCK
  5
293
330
290
100
AcDbEntity
  8
0
100
AcDbBlockBegin
  2
SEANNOT_GROUP2
 70
     0
 10
0.0
 20
0.0
 30
0.0
  3
SEANNOT_GROUP2
  1

  0
TEXT
  5
292
330
290
100
AcDbEntity
  8
Predeterminado
 62
     7
370
     5
100
AcDbText
 10
114.5884815359442
 20
271.5157094542311
 30
0.0
 40
3.0
  1
PA689
  7
SEACAD_Solid_Edge_ANSI
 11
114.5884815359442
 21
274.5157094542311
 31
0.0
100
AcDbText
 73
     3
  0
ENDBLK
  5
294
330
290
100
AcDbEntity
  8
0
100
AcDbBlockEnd
  0
ENDSEC
  0
SECTION
  2
ENTITIES
  0
INSERT
  5
70
330
1F
100
AcDbEntity
  8
Default
100
AcDbBlockReference
  2
SE
 10
0.0
 20
0.0
 30
0.0
  0
INSERT
  5
FB
330
1F
100
AcDbEntity
  8
Default
100
AcDbBlockReference
  2
SE1
 10
0.0
 20
0.0
 30
0.0
  0
INSERT
  5
126
330
1F
100
AcDbEntity
  8
Default
100
AcDbBlockReference
  2
SE2
 10
0.0
 20
0.0
 30
0.0
  0
INSERT
  5
1AE
330
1F
100
AcDbEntity
  8
Default
100
AcDbBlockReference
  2
SE3
 10
0.0
 20
0.0
 30
0.0
  0
INSERT
  5
25D
330
1F
100
AcDbEntity
  8
Default
100
AcDbBlockReference
  2
GDimGGroup
 10
0.0
 20
0.0
 30
0.0
  0
INSERT
  5
268
330
1F
100
AcDbEntity
  8
Default
100
AcDbBlockReference
  2
GDimGGroup1
 10
0.0
 20
0.0
 30
0.0
  0
INSERT
  5
272
330
1F
100
AcDbEntity
  8
Default
100
AcDbBlockReference
  2
GDimGGroup2
 10
0.0
 20
0.0
 30
0.0
  0
LINE
  5
27C
330
1F
100
AcDbEntity
  8
Predeterminado
 62
     7
370
    35
100
AcDbLine
 10
199.9270202384685
 20
10.03236327681463
 30
0.0
 11
19.92702023846866
 21
10.03236327681461
 31
0.0
  0
LINE
  5
27D
330
1F
100
AcDbEntity
  8
Predeterminado
 62
     7
370
    35
100
AcDbLine
 10
199.9270202384685
 20
10.03236327681463
 30
0.0
 11
199.9270202384685
 21
287.0323632768146
 31
0.0
  0
LINE
  5
27E
330
1F
100
AcDbEntity
  8
Predeterminado
 62
     7
370
    35
100
AcDbLine
 10
199.9270202384685
 20
287.0323632768146
 30
0.0
 11
19.92702023846866
 21
287.0323632768146
 31
0.0
  0
LINE
  5
27F
330
1F
100
AcDbEntity
  8
Predeterminado
 62
     7
370
    35
100
AcDbLine
 10
19.92702023846865
 20
287.0323632768146
 30
0.0
 11
19.92702023846865
 21
10.03236327681464
 31
0.0
  0
LINE
  5
280
330
1F
100
AcDbEntity
  8
Predeterminado
 62
     7
370
    35
100
AcDbLine
 10
19.92702023846865
 20
267.0323632768146
 30
0.0
 11
199.9270202384685
 21
267.0323632768146
 31
0.0
  0
LINE
  5
281
330
1F
100
AcDbEntity
  8
Predeterminado
 62
     7
370
    35
100
AcDbLine
 10
64.9270202384685
 20
271.0323632768146
 30
0.0
 11
64.9270202384685
 21
283.0323632768146
 31
0.0
  0
LINE
  5
282
330
1F
100
AcDbEntity
  8
Predeterminado
 62
     7
370
    35
100
AcDbLine
 10
154.9270202384685
 20
271.0323632768146
 30
0.0
 11
154.9270202384685
 21
283.0323632768146
 31
0.0
  0
INSERT
  5
284
330
1F
100
AcDbEntity
  8
Predeterminado
100
AcDbBlockReference
  2
SEANNOT_GROUP
 10
0.0
 20
0.0
 30
0.0
  0
INSERT
  5
28C
330
1F
100
AcDbEntity
  8
Predeterminado
100
AcDbBlockReference
  2
SEANNOT_GROUP1
 10
0.0
 20
0.0
 30
0.0
  0
INSERT
  5
291
330
1F
100
AcDbEntity
  8
Predeterminado
100
AcDbBlockReference
  2
SEANNOT_GROUP2
 10
0.0
 20
0.0
 30
0.0
  0
MTEXT
  5
296
102
{ACAD_XDICTIONARY
360
2DE
102
}
330
1F
100
AcDbEntity
  8
D
100
AcDbMText
 10
26.00429443831315
 20
282.691347141335
 30
0.0
 40
6.0
 41
46.75465178080735
 71
     1
 72
     1
  1
{\C7;BENITO}\P{\fArial|b1|i0|c0|p34;\C7;–}{\C7;Urban}\P
 73
     1
 44
1.0
1001
ACAD
1000
ACAD_MTEXT_DEFINED_HEIGHT_BEGIN
1070
    46
1040
17.79999999999998
1000
ACAD_MTEXT_DEFINED_HEIGHT_END
  0
MTEXT
  5
297
330
1F
100
AcDbEntity
  8
Predeterminado
100
AcDbMText
 10
163.8089186942272
 20
280.4449025454284
 30
0.0
 40
2.5
 41
32.175011
 71
     1
 72
     1
  1
{\fSolid Edge ANSI|b0||i0||c0|p34;\C7;\H2.5;\W1.;T +34 938 521 000\P}{\fSolid Edge ANSI|b0||i0||c0|p34;\C7;\H2.5;\W1.;www.benito.com\P}
 73
     1
 44
1.0
1001
ACAD
1000
ACAD_MTEXT_DEFINED_HEIGHT_BEGIN
1070
    46
1040
9.000010000000009
1000
ACAD_MTEXT_DEFINED_HEIGHT_END
  0
MTEXT
  5
298
330
1F
100
AcDbEntity
  8
Predeterminado
100
AcDbMText
 10
150.6598696583449
 20
8.07143559968931
 30
0.0
 40
2.0
 41
54.23001100000002
 71
     1
 72
     1
  1
{\fSolid Edge ANSI|b0||i0||c0|p34;\C7;\H2.;\W1.;BENITO –Urban –Light –Play –Covers}
 73
     1
 44
1.0
1001
ACAD
1000
ACAD_MTEXT_DEFINED_HEIGHT_BEGIN
1070
    46
1040
3.60001
1000
ACAD_MTEXT_DEFINED_HEIGHT_END
  0
ENDSEC
  0
SECTION
  2
OBJECTS
  0
DICTIONARY
  5
C
330
0
100
AcDbDictionary
281
     1
  3
ACAD_GROUP
350
D
  3
ACAD_LAYOUT
350
1A
  3
ACAD_MATERIAL
350
43
  3
ACAD_MLEADERSTYLE
350
6B
  3
ACAD_MLINESTYLE
350
17
  3
ACAD_PLOTSETTINGS
350
19
  3
ACAD_PLOTSTYLENAME
350
E
  3
ACAD_SCALELIST
350
47
  3
ACAD_TABLESTYLE
350
69
  3
ACAD_VISUALSTYLE
350
2A
  3
ACDB_RECOMPOSE_DATA
350
31B
  3
AcDbVariableDictionary
350
299
  3
DWGPROPS
350
2DD
  0
DICTIONARY
  5
2E0
330
8
100
AcDbDictionary
280
     1
281
     1
  3
ACAD_XREC_ROUNDTRIP
360
2E1
  0
DICTIONARY
  5
2DE
330
296
100
AcDbDictionary
280
     1
281
     1
  3
ACAD_MTEXT_RT
360
2DF
  0
DICTIONARY
  5
D
102
{ACAD_REACTORS
330
C
102
}
330
C
100
AcDbDictionary
281
     1
  0
DICTIONARY
  5
1A
102
{ACAD_REACTORS
330
C
102
}
330
C
100
AcDbDictionary
281
     1
  3
Layout1
350
1E
  3
Model
350
22
  0
DICTIONARY
  5
43
102
{ACAD_REACTORS
330
C
102
}
330
C
100
AcDbDictionary
281
     1
  3
ByBlock
350
45
  3
ByLayer
350
44
  3
Global
350
46
  0
DICTIONARY
  5
6B
102
{ACAD_REACTORS
330
C
102
}
330
C
100
AcDbDictionary
281
     1
  3
Standard
350
6C
  0
DICTIONARY
  5
17
102
{ACAD_REACTORS
330
C
102
}
330
C
100
AcDbDictionary
281
     1
  3
Standard
350
18
  0
DICTIONARY
  5
19
102
{ACAD_REACTORS
330
C
102
}
330
C
100
AcDbDictionary
281
     1
  0
ACDBDICTIONARYWDFLT
  5
E
102
{ACAD_REACTORS
330
C
102
}
330
C
100
AcDbDictionary
281
     1
  3
Normal
350
F
100
AcDbDictionaryWithDefault
340
F
  0
DICTIONARY
  5
47
102
{ACAD_REACTORS
330
C
102
}
330
C
100
AcDbDictionary
281
     1
  3
A0
350
48
  3
A1
350
49
  3
A2
350
4A
  3
A3
350
4B
  3
A4
350
4C
  3
A5
350
4D
  3
A6
350
4E
  3
A7
350
4F
  3
A8
350
50
  3
A9
350
51
  3
B0
350
52
  3
B1
350
53
  3
B2
350
54
  3
B3
350
55
  3
B4
350
56
  3
B5
350
57
  3
B6
350
58
  3
B7
350
59
  3
B8
350
5A
  3
B9
350
5B
  3
C0
350
5C
  3
C1
350
5D
  3
C2
350
5E
  3
C3
350
5F
  3
C4
350
60
  3
C5
350
61
  3
C6
350
62
  3
C7
350
63
  3
C8
350
64
  3
C9
350
65
  3
D0
350
66
  3
D1
350
67
  3
D2
350
68
  0
DICTIONARY
  5
69
102
{ACAD_REACTORS
330
C
102
}
330
C
100
AcDbDictionary
281
     1
  3
Standard
350
6A
  0
DICTIONARY
  5
2A
102
{ACAD_REACTORS
330
C
102
}
330
C
100
AcDbDictionary
281
     1
  3
2dWireframe
350
2F
  3
Basic
350
32
  3
Brighten
350
36
  3
ColorChange
350
3A
  3
Conceptual
350
34
  3
Dim
350
35
  3
EdgeColorOff
350
3D
  3
Facepattern
350
39
  3
Flat
350
2B
  3
FlatWithEdges
350
2C
  3
Gouraud
350
2D
  3
GouraudWithEdges
350
2E
  3
Hidden
350
31
  3
JitterOff
350
3B
  3
Linepattern
350
38
  3
OverhangOff
350
3C
  3
Realistic
350
33
  3
Shaded
350
42
  3
Shaded with edges
350
41
  3
Shades of Gray
350
3E
  3
Sketchy
350
3F
  3
Thicken
350
37
  3
Wireframe
350
30
  3
X-Ray
350
40
  0
XRECORD
  5
31B
102
{ACAD_REACTORS
330
C
102
}
330
C
100
AcDbXrecord
280
     1
 90
        1
330
296
  0
DICTIONARY
  5
299
102
{ACAD_REACTORS
330
C
102
}
330
C
100
AcDbDictionary
281
     1
  3
CANNOSCALE
350
29A
  3
CMLEADERSTYLE
350
2D3
  3
CTABLESTYLE
350
2D2
  3
DIMASSOC
350
2DB
  3
HIDETEXT
350
2DC
  3
MSLTSCALE
350
2E2
  3
PSOLHEIGHT
350
2DA
  3
PSOLWIDTH
350
2D9
  3
SECTIONTHICKNESSINC
350
2D6
  3
XCLIPFRAME
350
29B
  0
XRECORD
  5
2DD
102
{ACAD_REACTORS
330
C
102
}
330
C
100
AcDbXrecord
280
     1
  1
DWGPROPS COOKIE
  2

  3

  4

  6

  7

  8
acae2
  9

300
=
301
=
302
=
303
=
304
=
305
=
306
=
307
=
308
=
309
=
 40
0.0
 41
2459362.44198272
 42
2460396.579735012
  1

 90
        0
  0
XRECORD
  5
2E1
102
{ACAD_REACTORS
330
2E0
102
}
330
2E0
100
AcDbXrecord
280
     1
102
VTR_0.000_0.000_1.000_1.000_VISUALSTYLE
340
2F
102
VTR_0.000_0.000_1.000_1.000_GRIDDISPLAY
 70
     3
102
VTR_0.000_0.000_1.000_1.000_GRIDMAJOR
 70
     5
102
VTR_0.000_0.000_1.000_1.000_DEFAULTLIGHTING
280
     1
102
VTR_0.000_0.000_1.000_1.000_DEFAULTLIGHTINGTYPE
 70
     1
102
VTR_0.000_0.000_1.000_1.000_BRIGHTNESS
141
0.0
102
VTR_0.000_0.000_1.000_1.000_CONTRAST
142
0.0
  0
XRECORD
  5
2DF
102
{ACAD_REACTORS
330
2DE
102
}
330
2DE
100
AcDbXrecord
280
     1
 40
129076.0
  1
{\fSolid Edge ANSI|b1||i0||c0|p34;\C7;\H6.;\W1.;\pxsa0.8;BENITO\P}{\fSolid Edge ANSI|b1||i0||c0|p34;\C7;\H6.;\W1.;\pxse0.8333333333;–Urban\P}
  0
LAYOUT
  5
1E
102
{ACAD_REACTORS
330
1A
102
}
330
1A
100
AcDbPlotSettings
  1

  2
none_device
  4

  6

 40
0.0
 41
0.0
 42
0.0
 43
0.0
 44
0.0
 45
0.0
 46
0.0
 47
0.0
 48
0.0
 49
0.0
140
0.0
141
0.0
142
1.0
143
1.0
 70
   688
 72
     1
 73
     0
 74
     5
  7

 75
    16
147
1.0
148
0.0
149
0.0
100
AcDbLayout
  1
Layout1
 70
     1
 71
     1
 10
0.0
 20
0.0
 11
210.0
 21
297.0
 12
0.0
 22
0.0
 32
0.0
 14
0.0
 24
0.0
 34
0.0
 15
210.0
 25
297.0
 35
0.0
146
0.0
 13
0.0
 23
0.0
 33
0.0
 16
1.0
 26
0.0
 36
0.0
 17
0.0
 27
1.0
 37
0.0
 76
     0
330
1B
  0
LAYOUT
  5
22
102
{ACAD_REACTORS
330
1A
102
}
330
1A
100
AcDbPlotSettings
  1

  2
none_device
  4
Letter_(8.50_x_11.00_Inches)
  6

 40
6.35
 41
6.35
 42
6.35000508
 43
6.35000508
 44
215.9
 45
279.4
 46
0.0
 47
0.0
 48
0.0
 49
0.0
140
0.0
141
0.0
142
1.0
143
1.0
 70
  1712
 72
     1
 73
     0
 74
     0
  7

 75
     0
147
1.0
148
0.0
149
0.0
100
AcDbLayout
  1
Model
 70
     1
 71
     0
 10
0.0
 20
0.0
 11
210.0
 21
297.0
 12
0.0
 22
0.0
 32
0.0
 14
0.0
 24
0.0
 34
0.0
 15
210.0
 25
297.0
 35
0.0
146
0.0
 13
0.0
 23
0.0
 33
0.0
 16
1.0
 26
0.0
 36
0.0
 17
0.0
 27
1.0
 37
0.0
 76
     0
330
1F
331
29
  0
MATERIAL
  5
45
102
{ACAD_REACTORS
330
43
102
}
102
{ACAD_XDICTIONARY
360
315
102
}
330
43
100
AcDbMaterial
  1
ByBlock
  0
MATERIAL
  5
44
102
{ACAD_REACTORS
330
43
102
}
102
{ACAD_XDICTIONARY
360
313
102
}
330
43
100
AcDbMaterial
  1
ByLayer
  0
MATERIAL
  5
46
102
{ACAD_REACTORS
330
43
102
}
102
{ACAD_XDICTIONARY
360
317
102
}
330
43
100
AcDbMaterial
  1
Global
  0
MLEADERSTYLE
  5
6C
102
{ACAD_REACTORS
330
6B
102
}
102
{ACAD_XDICTIONARY
360
319
102
}
330
6B
100
AcDbMLeaderStyle
170
     2
171
     1
172
     0
 90
        2
 40
0.0
 41
0.0
173
     1
 91
-1056964608
340
14
 92
       -2
290
     1
 42
2.0
291
     1
 43
8.0
  3
Standard
341
0
 44
4.0
300

342
11
174
     1
178
     6
175
     1
176
     0
 93
-1056964608
 45
4.0
292
     0
297
     0
 46
4.0
343
0
 94
-1056964608
 47
1.0
 49
1.0
140
1.0
293
     1
141
0.0
294
     1
177
     0
142
1.0
295
     0
296
     0
143
3.75
1001
ACAD_MLEADERVER
1070
     2
  0
MLINESTYLE
  5
18
102
{ACAD_REACTORS
330
17
102
}
330
17
100
AcDbMlineStyle
  2
Standard
 70
     0
  3

 62
   256
 51
90.0
 52
90.0
 71
     2
 49
0.5
 62
   256
  6
BYLAYER
 49
-0.5
 62
   256
  6
BYLAYER
  0
ACDBPLACEHOLDER
  5
F
102
{ACAD_REACTORS
330
E
102
}
330
E
  0
SCALE
  5
48
102
{ACAD_REACTORS
330
47
102
}
330
47
100
AcDbScale
 70
     0
300
1:1
140
1.0
141
1.0
290
     1
  0
SCALE
  5
49
102
{ACAD_REACTORS
330
47
102
}
330
47
100
AcDbScale
 70
     0
300
1:2
140
1.0
141
2.0
290
     0
  0
SCALE
  5
4A
102
{ACAD_REACTORS
330
47
102
}
330
47
100
AcDbScale
 70
     0
300
1:4
140
1.0
141
4.0
290
     0
  0
SCALE
  5
4B
102
{ACAD_REACTORS
330
47
102
}
330
47
100
AcDbScale
 70
     0
300
1:5
140
1.0
141
5.0
290
     0
  0
SCALE
  5
4C
102
{ACAD_REACTORS
330
47
102
}
330
47
100
AcDbScale
 70
     0
300
1:8
140
1.0
141
8.0
290
     0
  0
SCALE
  5
4D
102
{ACAD_REACTORS
330
47
102
}
330
47
100
AcDbScale
 70
     0
300
1:10
140
1.0
141
10.0
290
     0
  0
SCALE
  5
4E
102
{ACAD_REACTORS
330
47
102
}
330
47
100
AcDbScale
 70
     0
300
1:16
140
1.0
141
16.0
290
     0
  0
SCALE
  5
4F
102
{ACAD_REACTORS
330
47
102
}
330
47
100
AcDbScale
 70
     0
300
1:20
140
1.0
141
20.0
290
     0
  0
SCALE
  5
50
102
{ACAD_REACTORS
330
47
102
}
330
47
100
AcDbScale
 70
     0
300
1:30
140
1.0
141
30.0
290
     0
  0
SCALE
  5
51
102
{ACAD_REACTORS
330
47
102
}
330
47
100
AcDbScale
 70
     0
300
1:40
140
1.0
141
40.0
290
     0
  0
SCALE
  5
52
102
{ACAD_REACTORS
330
47
102
}
330
47
100
AcDbScale
 70
     0
300
1:50
140
1.0
141
50.0
290
     0
  0
SCALE
  5
53
102
{ACAD_REACTORS
330
47
102
}
330
47
100
AcDbScale
 70
     0
300
1:100
140
1.0
141
100.0
290
     0
  0
SCALE
  5
54
102
{ACAD_REACTORS
330
47
102
}
330
47
100
AcDbScale
 70
     0
300
2:1
140
2.0
141
1.0
290
     0
  0
SCALE
  5
55
102
{ACAD_REACTORS
330
47
102
}
330
47
100
AcDbScale
 70
     0
300
4:1
140
4.0
141
1.0
290
     0
  0
SCALE
  5
56
102
{ACAD_REACTORS
330
47
102
}
330
47
100
AcDbScale
 70
     0
300
8:1
140
8.0
141
1.0
290
     0
  0
SCALE
  5
57
102
{ACAD_REACTORS
330
47
102
}
330
47
100
AcDbScale
 70
     0
300
10:1
140
10.0
141
1.0
290
     0
  0
SCALE
  5
58
102
{ACAD_REACTORS
330
47
102
}
330
47
100
AcDbScale
 70
     0
300
100:1
140
100.0
141
1.0
290
     0
  0
SCALE
  5
59
102
{ACAD_REACTORS
330
47
102
}
330
47
100
AcDbScale
 70
     0
300
1/128" = 1'-0"
140
0.0078125
141
12.0
290
     0
  0
SCALE
  5
5A
102
{ACAD_REACTORS
330
47
102
}
330
47
100
AcDbScale
 70
     0
300
1/64" = 1'-0"
140
0.015625
141
12.0
290
     0
  0
SCALE
  5
5B
102
{ACAD_REACTORS
330
47
102
}
330
47
100
AcDbScale
 70
     0
300
1/32" = 1'-0"
140
0.03125
141
12.0
290
     0
  0
SCALE
  5
5C
102
{ACAD_REACTORS
330
47
102
}
330
47
100
AcDbScale
 70
     0
300
1/16" = 1'-0"
140
0.0625
141
12.0
290
     0
  0
SCALE
  5
5D
102
{ACAD_REACTORS
330
47
102
}
330
47
100
AcDbScale
 70
     0
300
3/32" = 1'-0"
140
0.09375
141
12.0
290
     0
  0
SCALE
  5
5E
102
{ACAD_REACTORS
330
47
102
}
330
47
100
AcDbScale
 70
     0
300
1/8" = 1'-0"
140
0.125
141
12.0
290
     0
  0
SCALE
  5
5F
102
{ACAD_REACTORS
330
47
102
}
330
47
100
AcDbScale
 70
     0
300
3/16" = 1'-0"
140
0.1875
141
12.0
290
     0
  0
SCALE
  5
60
102
{ACAD_REACTORS
330
47
102
}
330
47
100
AcDbScale
 70
     0
300
1/4" = 1'-0"
140
0.25
141
12.0
290
     0
  0
SCALE
  5
61
102
{ACAD_REACTORS
330
47
102
}
330
47
100
AcDbScale
 70
     0
300
3/8" = 1'-0"
140
0.375
141
12.0
290
     0
  0
SCALE
  5
62
102
{ACAD_REACTORS
330
47
102
}
330
47
100
AcDbScale
 70
     0
300
1/2" = 1'-0"
140
0.5
141
12.0
290
     0
  0
SCALE
  5
63
102
{ACAD_REACTORS
330
47
102
}
330
47
100
AcDbScale
 70
     0
300
3/4" = 1'-0"
140
0.75
141
12.0
290
     0
  0
SCALE
  5
64
102
{ACAD_REACTORS
330
47
102
}
330
47
100
AcDbScale
 70
     0
300
1" = 1'-0"
140
1.0
141
12.0
290
     0
  0
SCALE
  5
65
102
{ACAD_REACTORS
330
47
102
}
330
47
100
AcDbScale
 70
     0
300
1-1/2" = 1'-0"
140
1.5
141
12.0
290
     0
  0
SCALE
  5
66
102
{ACAD_REACTORS
330
47
102
}
330
47
100
AcDbScale
 70
     0
300
3" = 1'-0"
140
3.0
141
12.0
290
     0
  0
SCALE
  5
67
102
{ACAD_REACTORS
330
47
102
}
330
47
100
AcDbScale
 70
     0
300
6" = 1'-0"
140
6.0
141
12.0
290
     0
  0
SCALE
  5
68
102
{ACAD_REACTORS
330
47
102
}
330
47
100
AcDbScale
 70
     0
300
1'-0" = 1'-0"
140
12.0
141
12.0
290
     0
  0
TABLESTYLE
  5
6A
102
{ACAD_REACTORS
330
69
102
}
330
69
100
AcDbTableStyle
  3
Standard
 70
     0
 71
     0
 40
0.06
 41
0.06
280
     0
281
     0
  7
Standard
140
4.5
170
     2
 62
     0
 63
   257
283
     0
274
    -2
284
     1
 64
     0
275
    -2
285
     1
 65
     0
276
    -2
286
     1
 66
     0
277
    -2
287
     1
 67
     0
278
    -2
288
     1
 68
     0
279
    -2
289
     1
 69
     0
  7
Standard
140
6.0
170
     5
 62
     0
 63
   257
283
     0
274
    -2
284
     1
 64
     0
275
    -2
285
     1
 65
     0
276
    -2
286
     1
 66
     0
277
    -2
287
     1
 67
     0
278
    -2
288
     1
 68
     0
279
    -2
289
     1
 69
     0
  7
Standard
140
4.5
170
     5
 62
     0
 63
   257
283
     0
274
    -2
284
     1
 64
     0
275
    -2
285
     1
 65
     0
276
    -2
286
     1
 66
     0
277
    -2
287
     1
 67
     0
278
    -2
288
     1
 68
     0
279
    -2
289
     1
 69
     0
  0
VISUALSTYLE
  5
2F
102
{ACAD_REACTORS
330
2A
102
}
102
{ACAD_XDICTIONARY
360
2EB
102
}
330
2A
100
AcDbVisualStyle
  2
2dWireframe
 70
     4
 71
     0
 72
     2
 73
     0
 90
        0
 40
0.6
 41
30.0
 62
     5
 63
     7
 74
     1
 91
        4
 64
     7
 65
   257
 75
     1
175
     1
 42
1.0
 92
        0
 66
   257
 43
1.0
 76
     1
 77
     6
 78
     2
 67
     7
 79
     5
170
     0
171
     0
290
     0
174
     0
 93
        1
 44
0.0
173
     0
291
     0
 45
0.0
1001
ACAD
1000
AcDbSavedByObjectVersion
1070
     0
  0
VISUALSTYLE
  5
32
102
{ACAD_REACTORS
330
2A
102
}
102
{ACAD_XDICTIONARY
360
2F1
102
}
330
2A
100
AcDbVisualStyle
  2
Basic
 70
     7
 71
     1
 72
     0
 73
     1
 90
        0
 40
0.6
 41
30.0
 62
     5
 63
     7
 74
     0
 91
        4
 64
     7
 65
   257
 75
     1
175
     1
 42
1.0
 92
        8
 66
     7
 43
1.0
 76
     1
 77
     6
 78
     2
 67
     7
 79
     5
170
     0
171
     0
290
     0
174
     0
 93
        1
 44
0.0
173
     0
291
     1
 45
0.0
1001
ACAD
1000
AcDbSavedByObjectVersion
1070
     0
  0
VISUALSTYLE
  5
36
102
{ACAD_REACTORS
330
2A
102
}
102
{ACAD_XDICTIONARY
360
2F9
102
}
330
2A
100
AcDbVisualStyle
  2
Brighten
 70
    12
 71
     2
 72
     2
 73
     0
 90
        0
 40
0.6
 41
30.0
 62
     5
 63
     7
 74
     1
 91
        4
 64
     7
 65
   257
 75
     1
175
     1
 42
1.0
 92
        8
 66
     7
 43
1.0
 76
     1
 77
     6
 78
     2
 67
     7
 79
     5
170
     0
171
     0
290
     0
174
     0
 93
        1
 44
50.0
173
     0
291
     1
 45
0.0
1001
ACAD
1000
AcDbSavedByObjectVersion
1070
     0
  0
VISUALSTYLE
  5
3A
102
{ACAD_REACTORS
330
2A
102
}
102
{ACAD_XDICTIONARY
360
301
102
}
330
2A
100
AcDbVisualStyle
  2
ColorChange
 70
    16
 71
     2
 72
     2
 73
     3
 90
        0
 40
0.6
 41
30.0
 62
     5
 63
     8
 74
     1
 91
        4
 64
     7
 65
   257
 75
     1
175
     1
 42
1.0
 92
        8
 66
     8
 43
1.0
 76
     1
 77
     6
 78
     2
 67
     7
 79
     5
170
     0
171
     0
290
     0
174
     0
 93
        1
 44
0.0
173
     0
291
     1
 45
0.0
1001
ACAD
1000
AcDbSavedByObjectVersion
1070
     0
  0
VISUALSTYLE
  5
34
102
{ACAD_REACTORS
330
2A
102
}
102
{ACAD_XDICTIONARY
360
2F5
102
}
330
2A
100
AcDbVisualStyle
  2
Conceptual
 70
     9
 71
     3
 72
     2
 73
     0
 90
        0
 40
0.6
 41
30.0
 62
     5
 63
     7
 74
     2
 91
        2
 64
     7
 65
   257
 75
     1
175
     1
 42
179.0
 92
        8
 66
     7
 43
1.0
 76
     1
 77
     6
 78
     2
 67
     7
 79
     3
170
     0
171
     0
290
     0
174
     0
 93
        1
 44
0.0
173
     0
291
     0
 45
0.0
1001
ACAD
1000
AcDbSavedByObjectVersion
1070
     0
  0
VISUALSTYLE
  5
35
102
{ACAD_REACTORS
330
2A
102
}
102
{ACAD_XDICTIONARY
360
2F7
102
}
330
2A
100
AcDbVisualStyle
  2
Dim
 70
    11
 71
     2
 72
     2
 73
     0
 90
        0
 40
0.6
 41
30.0
 62
     5
 63
     7
 74
     1
 91
        4
 64
     7
 65
   257
 75
     1
175
     1
 42
1.0
 92
        8
 66
     7
 43
1.0
 76
     1
 77
     6
 78
     2
 67
     7
 79
     5
170
     0
171
     0
290
     0
174
     0
 93
        1
 44
-50.0
173
     0
291
     1
 45
0.0
1001
ACAD
1000
AcDbSavedByObjectVersion
1070
     0
  0
VISUALSTYLE
  5
3D
102
{ACAD_REACTORS
330
2A
102
}
102
{ACAD_XDICTIONARY
360
307
102
}
330
2A
100
AcDbVisualStyle
  2
EdgeColorOff
 70
    22
 71
     2
 72
     2
 73
     0
 90
        0
 40
0.6
 41
30.0
 62
     5
 63
     7
 74
     1
 91
        4
 64
     7
 65
   257
 75
     1
175
     1
 42
1.0
 92
        8
 66
     7
 43
1.0
 76
     1
 77
     6
 78
     2
 67
     7
 79
     5
170
     0
171
     0
290
     0
174
     0
 93
        1
 44
0.0
173
     0
291
     1
 45
0.0
1001
ACAD
1000
AcDbSavedByObjectVersion
1070
     0
  0
VISUALSTYLE
  5
39
102
{ACAD_REACTORS
330
2A
102
}
102
{ACAD_XDICTIONARY
360
2FF
102
}
330
2A
100
AcDbVisualStyle
  2
Facepattern
 70
    15
 71
     2
 72
     2
 73
     0
 90
        0
 40
0.6
 41
30.0
 62
     5
 63
     7
 74
     1
 91
        4
 64
     7
 65
   257
 75
     1
175
     1
 42
1.0
 92
        8
 66
     7
 43
1.0
 76
     1
 77
     6
 78
     2
 67
     7
 79
     5
170
     0
171
     0
290
     0
174
     0
 93
        1
 44
0.0
173
     0
291
     1
 45
0.0
1001
ACAD
1000
AcDbSavedByObjectVersion
1070
     0
  0
VISUALSTYLE
  5
2B
102
{ACAD_REACTORS
330
2A
102
}
102
{ACAD_XDICTIONARY
360
2E3
102
}
330
2A
100
AcDbVisualStyle
  2
Flat
 70
     0
 71
     2
 72
     1
 73
     1
 90
        2
 40
0.6
 41
30.0
 62
     5
 63
     7
 74
     0
 91
        0
 64
     7
 65
   257
 75
     1
175
     1
 42
1.0
 92
        8
 66
     7
 43
1.0
 76
     1
 77
     6
 78
     2
 67
     7
 79
     5
170
     0
171
     0
290
     0
174
     0
 93
       13
 44
0.0
173
     0
291
     1
 45
0.0
1001
ACAD
1000
AcDbSavedByObjectVersion
1070
     0
  0
VISUALSTYLE
  5
2C
102
{ACAD_REACTORS
330
2A
102
}
102
{ACAD_XDICTIONARY
360
2E5
102
}
330
2A
100
AcDbVisualStyle
  2
FlatWithEdges
 70
     1
 71
     2
 72
     1
 73
     1
 90
        2
 40
0.6
 41
30.0
 62
     5
 63
     7
 74
     1
 91
        0
 64
     7
 65
   257
 75
     1
175
     1
 42
1.0
 92
        0
 66
   257
 43
1.0
 76
     1
 77
     6
 78
     2
 67
     7
 79
     5
170
     0
171
     0
290
     0
174
     0
 93
       13
 44
0.0
173
     0
291
     1
 45
0.0
1001
ACAD
1000
AcDbSavedByObjectVersion
1070
     0
  0
VISUALSTYLE
  5
2D
102
{ACAD_REACTORS
330
2A
102
}
102
{ACAD_XDICTIONARY
360
2E7
102
}
330
2A
100
AcDbVisualStyle
  2
Gouraud
 70
     2
 71
     2
 72
     2
 73
     1
 90
        2
 40
0.6
 41
30.0
 62
     5
 63
     7
 74
     0
 91
        0
 64
     7
 65
   257
 75
     1
175
     1
 42
1.0
 92
        0
 66
     7
 43
1.0
 76
     1
 77
     6
 78
     2
 67
     7
 79
     5
170
     0
171
     0
290
     0
174
     0
 93
       13
 44
0.0
173
     0
291
     1
 45
0.0
1001
ACAD
1000
AcDbSavedByObjectVersion
1070
     0
  0
VISUALSTYLE
  5
2E
102
{ACAD_REACTORS
330
2A
102
}
102
{ACAD_XDICTIONARY
360
2E9
102
}
330
2A
100
AcDbVisualStyle
  2
GouraudWithEdges
 70
     3
 71
     2
 72
     2
 73
     1
 90
        2
 40
0.6
 41
30.0
 62
     5
 63
     7
 74
     1
 91
        0
 64
     7
 65
   257
 75
     1
175
     1
 42
1.0
 92
        0
 66
   257
 43
1.0
 76
     1
 77
     6
 78
     2
 67
     7
 79
     5
170
     0
171
     0
290
     0
174
     0
 93
       13
 44
0.0
173
     0
291
     1
 45
0.0
1001
ACAD
1000
AcDbSavedByObjectVersion
1070
     0
  0
VISUALSTYLE
  5
31
102
{ACAD_REACTORS
330
2A
102
}
102
{ACAD_XDICTIONARY
360
2EF
102
}
330
2A
100
AcDbVisualStyle
  2
Hidden
 70
     6
 71
     1
 72
     2
 73
     2
 90
        0
 40
0.6
 41
30.0
 62
     5
 63
     7
 74
     2
 91
        2
 64
     7
 65
   257
 75
     2
175
     1
 42
40.0
 92
        0
 66
   257
 43
1.0
 76
     1
 77
     6
 78
     2
 67
     7
 79
     3
170
     0
171
     0
290
     0
174
     0
 93
        1
 44
0.0
173
     0
291
     0
 45
0.0
1001
ACAD
1000
AcDbSavedByObjectVersion
1070
     0
  0
VISUALSTYLE
  5
3B
102
{ACAD_REACTORS
330
2A
102
}
102
{ACAD_XDICTIONARY
360
303
102
}
330
2A
100
AcDbVisualStyle
  2
JitterOff
 70
    20
 71
     2
 72
     2
 73
     0
 90
        0
 40
0.6
 41
30.0
 62
     5
 63
     7
 74
     1
 91
        4
 64
     7
 65
   257
 75
     1
175
     1
 42
1.0
 92
       10
 66
     7
 43
1.0
 76
     1
 77
     6
 78
     2
 67
     7
 79
     5
170
     0
171
     0
290
     0
174
     0
 93
        1
 44
0.0
173
     0
291
     1
 45
0.0
1001
ACAD
1000
AcDbSavedByObjectVersion
1070
     0
  0
VISUALSTYLE
  5
38
102
{ACAD_REACTORS
330
2A
102
}
102
{ACAD_XDICTIONARY
360
2FD
102
}
330
2A
100
AcDbVisualStyle
  2
Linepattern
 70
    14
 71
     2
 72
     2
 73
     0
 90
        0
 40
0.6
 41
30.0
 62
     5
 63
     7
 74
     1
 91
        4
 64
     7
 65
   257
 75
     7
175
     7
 42
1.0
 92
        8
 66
     7
 43
1.0
 76
     1
 77
     6
 78
     2
 67
     7
 79
     5
170
     0
171
     0
290
     0
174
     0
 93
        1
 44
0.0
173
     0
291
     1
 45
0.0
1001
ACAD
1000
AcDbSavedByObjectVersion
1070
     0
  0
VISUALSTYLE
  5
3C
102
{ACAD_REACTORS
330
2A
102
}
102
{ACAD_XDICTIONARY
360
305
102
}
330
2A
100
AcDbVisualStyle
  2
OverhangOff
 70
    21
 71
     2
 72
     2
 73
     0
 90
        0
 40
0.6
 41
30.0
 62
     5
 63
     7
 74
     1
 91
        4
 64
     7
 65
   257
 75
     1
175
     1
 42
1.0
 92
        9
 66
     7
 43
1.0
 76
     1
 77
     6
 78
     2
 67
     7
 79
     5
170
     0
171
     0
290
     0
174
     0
 93
        1
 44
0.0
173
     0
291
     1
 45
0.0
1001
ACAD
1000
AcDbSavedByObjectVersion
1070
     0
  0
VISUALSTYLE
  5
33
102
{ACAD_REACTORS
330
2A
102
}
102
{ACAD_XDICTIONARY
360
2F3
102
}
330
2A
100
AcDbVisualStyle
  2
Realistic
 70
     8
 71
     2
 72
     3
 73
     0
 90
        2
 40
0.6
 41
30.0
 62
     5
 63
     7
 74
     0
 91
        0
 64
     7
 65
   257
 75
     1
175
     1
 42
1.0
 92
        8
 66
   257
 43
1.0
 76
     1
 77
     6
 78
     2
 67
     7
 79
     3
170
     0
171
     0
290
     0
174
     0
 93
       13
 44
0.0
173
     0
291
     0
 45
0.0
1001
ACAD
1000
AcDbSavedByObjectVersion
1070
     0
  0
VISUALSTYLE
  5
42
102
{ACAD_REACTORS
330
2A
102
}
102
{ACAD_XDICTIONARY
360
311
102
}
330
2A
100
AcDbVisualStyle
  2
Shaded
 70
    27
 71
     2
 72
     2
 73
     1
 90
        2
 40
0.6
 41
30.0
 62
     5
 63
     7
 74
     0
 91
        4
 64
     7
 65
   257
 75
     1
175
     1
 42
1.0
 92
        8
 66
   257
 43
1.0
 76
     1
 77
     6
 78
     2
 67
     8
 79
     3
170
     0
171
     0
290
     0
174
     0
 93
        5
 44
0.0
173
     0
291
     0
 45
0.0
1001
ACAD
1000
AcDbSavedByObjectVersion
1070
     0
  0
VISUALSTYLE
  5
41
102
{ACAD_REACTORS
330
2A
102
}
102
{ACAD_XDICTIONARY
360
30F
102
}
330
2A
100
AcDbVisualStyle
  2
Shaded with edges
 70
    26
 71
     2
 72
     2
 73
     1
 90
        2
 40
0.6
 41
30.0
 62
     5
 63
     7
 74
     1
 91
       10
 64
     7
 65
   257
 75
     2
175
     1
 42
1.0
 92
        8
 66
   257
 43
1.0
 76
     1
 77
     6
 78
     2
 67
     7
 79
     3
170
     0
171
     0
290
     0
174
     0
 93
        5
 44
0.0
173
     0
291
     0
 45
0.0
1001
ACAD
1000
AcDbSavedByObjectVersion
1070
     0
  0
VISUALSTYLE
  5
3E
102
{ACAD_REACTORS
330
2A
102
}
102
{ACAD_XDICTIONARY
360
309
102
}
330
2A
100
AcDbVisualStyle
  2
Shades of Gray
 70
    23
 71
     2
 72
     2
 73
     3
 90
        0
 40
0.6
 41
30.0
 62
     5
 63
     7
 74
     2
 91
        2
 64
     7
 65
     7
 75
     1
175
     1
 42
40.0
 92
        8
 66
     7
 43
1.0
 76
     1
 77
     6
 78
     2
 67
     7
 79
     3
170
     0
171
     0
290
     0
174
     0
 93
        1
 44
0.0
173
     0
291
     0
 45
0.0
1001
ACAD
1000
AcDbSavedByObjectVersion
1070
     0
  0
VISUALSTYLE
  5
3F
102
{ACAD_REACTORS
330
2A
102
}
102
{ACAD_XDICTIONARY
360
30B
102
}
330
2A
100
AcDbVisualStyle
  2
Sketchy
 70
    24
 71
     1
 72
     2
 73
     2
 90
        0
 40
0.6
 41
30.0
 62
     5
 63
     7
 74
     2
 91
        2
 64
     7
 65
     7
 75
     1
175
     1
 42
40.0
 92
       11
 66
     7
 43
1.0
 76
     1
 77
     6
 78
     2
 67
     7
 79
     6
170
     0
171
     0
290
     0
174
     0
 93
        1
 44
0.0
173
     0
291
     0
 45
0.0
1001
ACAD
1000
AcDbSavedByObjectVersion
1070
     0
  0
VISUALSTYLE
  5
37
102
{ACAD_REACTORS
330
2A
102
}
102
{ACAD_XDICTIONARY
360
2FB
102
}
330
2A
100
AcDbVisualStyle
  2
Thicken
 70
    13
 71
     2
 72
     2
 73
     0
 90
        0
 40
0.6
 41
30.0
 62
     5
 63
     7
 74
     1
 91
        4
 64
     7
 65
   257
 75
     1
175
     1
 42
1.0
 92
       12
 66
     7
 43
1.0
 76
     1
 77
     6
 78
     2
 67
     7
 79
     5
170
     0
171
     0
290
     0
174
     0
 93
        1
 44
0.0
173
     0
291
     1
 45
0.0
1001
ACAD
1000
AcDbSavedByObjectVersion
1070
     0
  0
VISUALSTYLE
  5
30
102
{ACAD_REACTORS
330
2A
102
}
102
{ACAD_XDICTIONARY
360
2ED
102
}
330
2A
100
AcDbVisualStyle
  2
Wireframe
 70
     5
 71
     0
 72
     2
 73
     0
 90
        0
 40
0.6
 41
30.0
 62
     5
 63
     7
 74
     1
 91
        4
 64
     7
 65
   257
 75
     1
175
     1
 42
1.0
 92
        0
 66
   257
 43
1.0
 76
     1
 77
     6
 78
     2
 67
     7
 79
     3
170
     0
171
     0
290
     0
174
     0
 93
        1
 44
0.0
173
     0
291
     0
 45
0.0
1001
ACAD
1000
AcDbSavedByObjectVersion
1070
     0
  0
VISUALSTYLE
  5
40
102
{ACAD_REACTORS
330
2A
102
}
102
{ACAD_XDICTIONARY
360
30D
102
}
330
2A
100
AcDbVisualStyle
  2
X-Ray
 70
    25
 71
     2
 72
     2
 73
     1
 90
        1
 40
0.5
 41
30.0
 62
     5
 63
     7
 74
     1
 91
        0
 64
     7
 65
   257
 75
     1
175
     1
 42
1.0
 92
        8
 66
     7
 43
1.0
 76
     1
 77
     6
 78
     2
 67
     7
 79
     3
170
     0
171
     0
290
     0
174
     0
 93
       13
 44
0.0
173
     0
291
     0
 45
0.0
1001
ACAD
1000
AcDbSavedByObjectVersion
1070
     0
  0
DICTIONARYVAR
  5
29A
102
{ACAD_REACTORS
330
299
102
}
330
299
100
DictionaryVariables
280
     0
  1
1:1
  0
DICTIONARYVAR
  5
2D3
102
{ACAD_REACTORS
330
299
102
}
330
299
100
DictionaryVariables
280
     0
  1
Standard
  0
DICTIONARYVAR
  5
2D2
102
{ACAD_REACTORS
330
299
102
}
330
299
100
DictionaryVariables
280
     0
  1
Standard
  0
DICTIONARYVAR
  5
2DB
102
{ACAD_REACTORS
330
299
102
}
330
299
100
DictionaryVariables
280
     0
  1
2
  0
DICTIONARYVAR
  5
2DC
102
{ACAD_REACTORS
330
299
102
}
330
299
100
DictionaryVariables
280
     0
  1
1
  0
DICTIONARYVAR
  5
2E2
102
{ACAD_REACTORS
330
299
102
}
330
299
100
DictionaryVariables
280
     0
  1
1
  0
DICTIONARYVAR
  5
2DA
102
{ACAD_REACTORS
330
299
102
}
330
299
100
DictionaryVariables
280
     0
  1
80.000000
  0
DICTIONARYVAR
  5
2D9
102
{ACAD_REACTORS
330
299
102
}
330
299
100
DictionaryVariables
280
     0
  1
5.000000
  0
DICTIONARYVAR
  5
2D6
102
{ACAD_REACTORS
330
299
102
}
330
299
100
DictionaryVariables
280
     0
  1
6.000000
  0
DICTIONARYVAR
  5
29B
102
{ACAD_REACTORS
330
299
102
}
330
299
100
DictionaryVariables
280
     0
  1
2
  0
DICTIONARY
  5
315
330
45
100
AcDbDictionary
280
     1
281
     1
  3
ACAD_XREC_ROUNDTRIP
360
316
  0
DICTIONARY
  5
313
330
44
100
AcDbDictionary
280
     1
281
     1
  3
ACAD_XREC_ROUNDTRIP
360
314
  0
DICTIONARY
  5
317
330
46
100
AcDbDictionary
280
     1
281
     1
  3
ACAD_XREC_ROUNDTRIP
360
318
  0
DICTIONARY
  5
319
330
6C
100
AcDbDictionary
280
     1
281
     1
  3
ACAD_XREC_ROUNDTRIP
360
31A
  0
DICTIONARY
  5
2EB
330
2F
100
AcDbDictionary
280
     1
281
     1
  3
ACAD_XREC_ROUNDTRIP
360
2EC
  0
DICTIONARY
  5
2F1
330
32
100
AcDbDictionary
280
     1
281
     1
  3
ACAD_XREC_ROUNDTRIP
360
2F2
  0
DICTIONARY
  5
2F9
330
36
100
AcDbDictionary
280
     1
281
     1
  3
ACAD_XREC_ROUNDTRIP
360
2FA
  0
DICTIONARY
  5
301
330
3A
100
AcDbDictionary
280
     1
281
     1
  3
ACAD_XREC_ROUNDTRIP
360
302
  0
DICTIONARY
  5
2F5
330
34
100
AcDbDictionary
280
     1
281
     1
  3
ACAD_XREC_ROUNDTRIP
360
2F6
  0
DICTIONARY
  5
2F7
330
35
100
AcDbDictionary
280
     1
281
     1
  3
ACAD_XREC_ROUNDTRIP
360
2F8
  0
DICTIONARY
  5
307
330
3D
100
AcDbDictionary
280
     1
281
     1
  3
ACAD_XREC_ROUNDTRIP
360
308
  0
DICTIONARY
  5
2FF
330
39
100
AcDbDictionary
280
     1
281
     1
  3
ACAD_XREC_ROUNDTRIP
360
300
  0
DICTIONARY
  5
2E3
330
2B
100
AcDbDictionary
280
     1
281
     1
  3
ACAD_XREC_ROUNDTRIP
360
2E4
  0
DICTIONARY
  5
2E5
330
2C
100
AcDbDictionary
280
     1
281
     1
  3
ACAD_XREC_ROUNDTRIP
360
2E6
  0
DICTIONARY
  5
2E7
330
2D
100
AcDbDictionary
280
     1
281
     1
  3
ACAD_XREC_ROUNDTRIP
360
2E8
  0
DICTIONARY
  5
2E9
330
2E
100
AcDbDictionary
280
     1
281
     1
  3
ACAD_XREC_ROUNDTRIP
360
2EA
  0
DICTIONARY
  5
2EF
330
31
100
AcDbDictionary
280
     1
281
     1
  3
ACAD_XREC_ROUNDTRIP
360
2F0
  0
DICTIONARY
  5
303
330
3B
100
AcDbDictionary
280
     1
281
     1
  3
ACAD_XREC_ROUNDTRIP
360
304
  0
DICTIONARY
  5
2FD
330
38
100
AcDbDictionary
280
     1
281
     1
  3
ACAD_XREC_ROUNDTRIP
360
2FE
  0
DICTIONARY
  5
305
330
3C
100
AcDbDictionary
280
     1
281
     1
  3
ACAD_XREC_ROUNDTRIP
360
306
  0
DICTIONARY
  5
2F3
330
33
100
AcDbDictionary
280
     1
281
     1
  3
ACAD_XREC_ROUNDTRIP
360
2F4
  0
DICTIONARY
  5
311
330
42
100
AcDbDictionary
280
     1
281
     1
  3
ACAD_XREC_ROUNDTRIP
360
312
  0
DICTIONARY
  5
30F
330
41
100
AcDbDictionary
280
     1
281
     1
  3
ACAD_XREC_ROUNDTRIP
360
310
  0
DICTIONARY
  5
309
330
3E
100
AcDbDictionary
280
     1
281
     1
  3
ACAD_XREC_ROUNDTRIP
360
30A
  0
DICTIONARY
  5
30B
330
3F
100
AcDbDictionary
280
     1
281
     1
  3
ACAD_XREC_ROUNDTRIP
360
30C
  0
DICTIONARY
  5
2FB
330
37
100
AcDbDictionary
280
     1
281
     1
  3
ACAD_XREC_ROUNDTRIP
360
2FC
  0
DICTIONARY
  5
2ED
330
30
100
AcDbDictionary
280
     1
281
     1
  3
ACAD_XREC_ROUNDTRIP
360
2EE
  0
DICTIONARY
  5
30D
330
40
100
AcDbDictionary
280
     1
281
     1
  3
ACAD_XREC_ROUNDTRIP
360
30E
  0
XRECORD
  5
316
102
{ACAD_REACTORS
330
315
102
}
330
315
100
AcDbXrecord
280
     1
102
MATERIAL
148
0.0
149
0.0
149
0.0
 93
        0
 94
      127
282
     0
 72
     1
 77
     1
171
     1
175
     1
179
     1
273
     0
  0
XRECORD
  5
314
102
{ACAD_REACTORS
330
313
102
}
330
313
100
AcDbXrecord
280
     1
102
MATERIAL
148
0.0
149
0.0
149
0.0
 93
        0
 94
      127
282
     0
 72
     1
 77
     1
171
     1
175
     1
179
     1
273
     0
  0
XRECORD
  5
318
102
{ACAD_REACTORS
330
317
102
}
330
317
100
AcDbXrecord
280
     1
102
MATERIAL
148
0.0
149
0.0
149
0.0
 93
        0
 94
      127
282
     0
 72
     1
 77
     1
171
     1
175
     1
179
     1
273
     0
  0
XRECORD
  5
31A
102
{ACAD_REACTORS
330
319
102
}
330
319
100
AcDbXrecord
280
     1
102
ACAD_ROUNDTRIP_2010_MLEADER_STYLE
  0
XRECORD
  5
2EC
102
{ACAD_REACTORS
330
2EB
102
}
330
2EB
100
AcDbXrecord
280
     1
102
RTVSPropertyOp0
 70
     1
102
RTVSPropertyOp1
 70
     1
102
RTVSPropertyOp2
 70
     1
102
RTVSPropertyOp3
 70
     1
102
RTVSPropertyOp4
 70
     1
102
RTVSPropertyOp5
 70
     1
102
RTVSPropertyOp6
 70
     1
102
RTVSPropertyOp7
 70
     1
102
RTVSPropertyOp8
 70
     1
102
RTVSPropertyOp9
 70
     1
102
RTVSPropertyOp10
 70
     1
102
RTVSPropertyOp11
 70
     1
102
RTVSPropertyOp12
 70
     1
102
RTVSPropertyOp13
 70
     1
102
RTVSPropertyOp14
 70
     1
102
RTVSPropertyOp15
 70
     1
102
RTVSPropertyOp16
 70
     1
102
RTVSPropertyOp17
 70
     1
102
RTVSPropertyOp18
 70
     1
102
RTVSPropertyOp19
 70
     1
102
RTVSPropertyOp20
 70
     1
102
RTVSPropertyOp21
 70
     1
102
RTVSPropertyOp22
 70
     1
102
RTVSPropertyOp23
 70
     1
102
RTVSPropertyOp24
 70
     1
102
RTVSPropertyOp25
 70
     1
102
RTVSPropertyOp26
 70
     1
102
RTVSPropertyOp27
 70
     1
102
RTVSPropertyOp28
 70
     1
102
RTVSPropertyOp29
 70
     1
102
RTVSPropertyOp30
 70
     1
102
RTVSPropertyOp31
 70
     1
102
RTVSPropertyOp32
 70
     1
102
RTVSPropertyOp33
 70
     1
102
RTVSPropertyOp34
 70
     1
102
RTVSPropertyOp35
 70
     1
102
RTVSPropertyOp36
 70
     1
102
RTVSPropertyOp37
 70
     1
102
RTVSPropertyOp38
 70
     1
102
RTVSPropertyOp39
 70
     1
102
RTVSPropertyOp40
 70
     1
102
RTVSPropertyOp41
 70
     1
102
RTVSPropertyOp42
 70
     1
102
RTVSPropertyOp43
 70
     1
102
RTVSPropertyOp44
 70
     1
102
RTVSPropertyOp45
 70
     1
102
RTVSPropertyOp46
 70
     1
102
RTVSPropertyOp47
 70
     1
102
RTVSPropertyOp48
 70
     1
102
RTVSPropertyOp49
 70
     1
102
RTVSPropertyOp50
 70
     1
102
RTVSPropertyOp51
 70
     0
102
RTVSPropertyOp52
 70
     0
102
RTVSPropertyOp53
 70
     1
102
RTVSPropertyOp54
 70
     1
102
RTVSPropertyOp55
 70
     1
102
RTVSPropertyOp56
 70
     1
102
RTVSPropertyOp57
 70
     1
102
RTVSPost2010Prop28
280
     1
102
RTVSPost2010PropOp28
 70
     1
102
RTVSPost2010Prop29
280
     1
102
RTVSPost2010PropOp29
 70
     1
102
RTVSPost2010Prop30
280
     0
102
RTVSPost2010PropOp30
 70
     1
102
RTVSPost2010Prop31
280
     0
102
RTVSPost2010PropOp31
 70
     1
102
RTVSPost2010Prop32
280
     0
102
RTVSPost2010PropOp32
 70
     1
102
RTVSPost2010Prop33
280
     0
102
RTVSPost2010PropOp33
 70
     1
102
RTVSPost2010Prop34
280
     0
102
RTVSPost2010PropOp34
 70
     1
102
RTVSPost2010Prop35
280
     0
102
RTVSPost2010PropOp35
 70
     1
102
RTVSPost2010Prop36
280
     0
102
RTVSPost2010PropOp36
 70
     1
102
RTVSPost2010Prop37
 90
       50
102
RTVSPost2010PropOp37
 70
     1
102
RTVSPost2010Prop38
140
0.0
102
RTVSPost2010PropOp38
 70
     1
102
RTVSPost2010Prop39
140
1.0
102
RTVSPost2010PropOp39
 70
     1
102
RTVSPost2010Prop40
 90
        0
102
RTVSPost2010PropOp40
 70
     1
102
RTVSPost2010Prop41ColorIndex
 90
       18
102
RTVSPost2010Prop41ColorRGB
 90
        0
102
RTVSPost2010PropOp41
 70
     1
102
RTVSPost2010Prop42
 90
       50
102
RTVSPost2010PropOp42
 70
     1
102
RTVSPost2010Prop43
 90
        3
102
RTVSPost2010PropOp43
 70
     1
102
RTVSPost2010Prop44ColorIndex
 90
        5
102
RTVSPost2010Prop44ColorRGB
 90
      255
102
RTVSPost2010PropOp44
 70
     1
102
RTVSPost2010Prop45
280
     0
102
RTVSPost2010PropOp45
 70
     1
102
RTVSPost2010Prop46
 90
       50
102
RTVSPost2010PropOp46
 70
     1
102
RTVSPost2010Prop47
 90
       50
102
RTVSPost2010PropOp47
 70
     1
102
RTVSPost2010Prop48
 90
       50
102
RTVSPost2010PropOp48
 70
     1
102
RTVSPost2010Prop49
280
     0
102
RTVSPost2010PropOp49
 70
     1
102
RTVSPost2010Prop50
 90
       50
102
RTVSPost2010PropOp50
 70
     1
102
RTVSPost2010Prop51ColorIndex
 90
      256
102
RTVSPost2010Prop51ColorRGB
 90
-16777216
102
RTVSPost2010PropOp51
 70
     0
102
RTVSPost2010Prop52
140
1.0
102
RTVSPost2010PropOp52
 70
     0
102
RTVSPost2010Prop53
 90
        2
102
RTVSPost2010PropOp53
 70
     1
102
RTVSPost2010Prop54
  1
strokes_ogs.tif
102
RTVSPost2010PropOp54
 70
     1
102
RTVSPost2010Prop55
280
     0
102
RTVSPost2010PropOp55
 70
     1
102
RTVSPost2010Prop56
140
1.0
102
RTVSPost2010PropOp56
 70
     1
102
RTVSPost2010Prop57
140
1.0
102
RTVSPost2010PropOp57
 70
     1
  0
XRECORD
  5
2F2
102
{ACAD_REACTORS
330
2F1
102
}
330
2F1
100
AcDbXrecord
280
     1
102
RTVSPropertyOp0
 70
     1
102
RTVSPropertyOp1
 70
     1
102
RTVSPropertyOp2
 70
     1
102
RTVSPropertyOp3
 70
     1
102
RTVSPropertyOp4
 70
     1
102
RTVSPropertyOp5
 70
     1
102
RTVSPropertyOp6
 70
     1
102
RTVSPropertyOp7
 70
     1
102
RTVSPropertyOp8
 70
     1
102
RTVSPropertyOp9
 70
     1
102
RTVSPropertyOp10
 70
     1
102
RTVSPropertyOp11
 70
     1
102
RTVSPropertyOp12
 70
     1
102
RTVSPropertyOp13
 70
     1
102
RTVSPropertyOp14
 70
     1
102
RTVSPropertyOp15
 70
     1
102
RTVSPropertyOp16
 70
     1
102
RTVSPropertyOp17
 70
     1
102
RTVSPropertyOp18
 70
     1
102
RTVSPropertyOp19
 70
     1
102
RTVSPropertyOp20
 70
     1
102
RTVSPropertyOp21
 70
     1
102
RTVSPropertyOp22
 70
     1
102
RTVSPropertyOp23
 70
     1
102
RTVSPropertyOp24
 70
     1
102
RTVSPropertyOp25
 70
     1
102
RTVSPropertyOp26
 70
     1
102
RTVSPropertyOp27
 70
     1
102
RTVSPropertyOp28
 70
     1
102
RTVSPropertyOp29
 70
     1
102
RTVSPropertyOp30
 70
     1
102
RTVSPropertyOp31
 70
     1
102
RTVSPropertyOp32
 70
     1
102
RTVSPropertyOp33
 70
     1
102
RTVSPropertyOp34
 70
     1
102
RTVSPropertyOp35
 70
     1
102
RTVSPropertyOp36
 70
     1
102
RTVSPropertyOp37
 70
     1
102
RTVSPropertyOp38
 70
     1
102
RTVSPropertyOp39
 70
     1
102
RTVSPropertyOp40
 70
     1
102
RTVSPropertyOp41
 70
     1
102
RTVSPropertyOp42
 70
     1
102
RTVSPropertyOp43
 70
     1
102
RTVSPropertyOp44
 70
     1
102
RTVSPropertyOp45
 70
     1
102
RTVSPropertyOp46
 70
     1
102
RTVSPropertyOp47
 70
     1
102
RTVSPropertyOp48
 70
     1
102
RTVSPropertyOp49
 70
     1
102
RTVSPropertyOp50
 70
     1
102
RTVSPropertyOp51
 70
     0
102
RTVSPropertyOp52
 70
     0
102
RTVSPropertyOp53
 70
     1
102
RTVSPropertyOp54
 70
     1
102
RTVSPropertyOp55
 70
     1
102
RTVSPropertyOp56
 70
     1
102
RTVSPropertyOp57
 70
     1
102
RTVSPost2010Prop28
280
     0
102
RTVSPost2010PropOp28
 70
     1
102
RTVSPost2010Prop29
280
     1
102
RTVSPost2010PropOp29
 70
     1
102
RTVSPost2010Prop30
280
     1
102
RTVSPost2010PropOp30
 70
     1
102
RTVSPost2010Prop31
280
     0
102
RTVSPost2010PropOp31
 70
     1
102
RTVSPost2010Prop32
280
     0
102
RTVSPost2010PropOp32
 70
     1
102
RTVSPost2010Prop33
280
     0
102
RTVSPost2010PropOp33
 70
     1
102
RTVSPost2010Prop34
280
     0
102
RTVSPost2010PropOp34
 70
     1
102
RTVSPost2010Prop35
280
     0
102
RTVSPost2010PropOp35
 70
     1
102
RTVSPost2010Prop36
280
     0
102
RTVSPost2010PropOp36
 70
     1
102
RTVSPost2010Prop37
 90
       50
102
RTVSPost2010PropOp37
 70
     1
102
RTVSPost2010Prop38
140
0.0
102
RTVSPost2010PropOp38
 70
     1
102
RTVSPost2010Prop39
140
1.0
102
RTVSPost2010PropOp39
 70
     1
102
RTVSPost2010Prop40
 90
        0
102
RTVSPost2010PropOp40
 70
     1
102
RTVSPost2010Prop41ColorIndex
 90
       18
102
RTVSPost2010Prop41ColorRGB
 90
        0
102
RTVSPost2010PropOp41
 70
     1
102
RTVSPost2010Prop42
 90
       50
102
RTVSPost2010PropOp42
 70
     1
102
RTVSPost2010Prop43
 90
        3
102
RTVSPost2010PropOp43
 70
     1
102
RTVSPost2010Prop44ColorIndex
 90
        5
102
RTVSPost2010Prop44ColorRGB
 90
      255
102
RTVSPost2010PropOp44
 70
     1
102
RTVSPost2010Prop45
280
     0
102
RTVSPost2010PropOp45
 70
     1
102
RTVSPost2010Prop46
 90
       50
102
RTVSPost2010PropOp46
 70
     1
102
RTVSPost2010Prop47
 90
       50
102
RTVSPost2010PropOp47
 70
     1
102
RTVSPost2010Prop48
 90
       50
102
RTVSPost2010PropOp48
 70
     1
102
RTVSPost2010Prop49
280
     0
102
RTVSPost2010PropOp49
 70
     1
102
RTVSPost2010Prop50
 90
       50
102
RTVSPost2010PropOp50
 70
     1
102
RTVSPost2010Prop51ColorIndex
 90
      256
102
RTVSPost2010Prop51ColorRGB
 90
-16777216
102
RTVSPost2010PropOp51
 70
     0
102
RTVSPost2010Prop52
140
1.0
102
RTVSPost2010PropOp52
 70
     0
102
RTVSPost2010Prop53
 90
        2
102
RTVSPost2010PropOp53
 70
     1
102
RTVSPost2010Prop54
  1
strokes_ogs.tif
102
RTVSPost2010PropOp54
 70
     1
102
RTVSPost2010Prop55
280
     0
102
RTVSPost2010PropOp55
 70
     1
102
RTVSPost2010Prop56
140
1.0
102
RTVSPost2010PropOp56
 70
     1
102
RTVSPost2010Prop57
140
1.0
102
RTVSPost2010PropOp57
 70
     1
  0
XRECORD
  5
2FA
102
{ACAD_REACTORS
330
2F9
102
}
330
2F9
100
AcDbXrecord
280
     1
102
RTVSPropertyOp0
 70
     1
102
RTVSPropertyOp1
 70
     1
102
RTVSPropertyOp2
 70
     1
102
RTVSPropertyOp3
 70
     1
102
RTVSPropertyOp4
 70
     1
102
RTVSPropertyOp5
 70
     1
102
RTVSPropertyOp6
 70
     1
102
RTVSPropertyOp7
 70
     1
102
RTVSPropertyOp8
 70
     1
102
RTVSPropertyOp9
 70
     1
102
RTVSPropertyOp10
 70
     1
102
RTVSPropertyOp11
 70
     1
102
RTVSPropertyOp12
 70
     1
102
RTVSPropertyOp13
 70
     1
102
RTVSPropertyOp14
 70
     1
102
RTVSPropertyOp15
 70
     1
102
RTVSPropertyOp16
 70
     1
102
RTVSPropertyOp17
 70
     1
102
RTVSPropertyOp18
 70
     1
102
RTVSPropertyOp19
 70
     1
102
RTVSPropertyOp20
 70
     1
102
RTVSPropertyOp21
 70
     1
102
RTVSPropertyOp22
 70
     1
102
RTVSPropertyOp23
 70
     1
102
RTVSPropertyOp24
 70
     1
102
RTVSPropertyOp25
 70
     1
102
RTVSPropertyOp26
 70
     1
102
RTVSPropertyOp27
 70
     1
102
RTVSPropertyOp28
 70
     1
102
RTVSPropertyOp29
 70
     1
102
RTVSPropertyOp30
 70
     1
102
RTVSPropertyOp31
 70
     1
102
RTVSPropertyOp32
 70
     1
102
RTVSPropertyOp33
 70
     1
102
RTVSPropertyOp34
 70
     1
102
RTVSPropertyOp35
 70
     1
102
RTVSPropertyOp36
 70
     1
102
RTVSPropertyOp37
 70
     1
102
RTVSPropertyOp38
 70
     1
102
RTVSPropertyOp39
 70
     1
102
RTVSPropertyOp40
 70
     1
102
RTVSPropertyOp41
 70
     1
102
RTVSPropertyOp42
 70
     1
102
RTVSPropertyOp43
 70
     1
102
RTVSPropertyOp44
 70
     1
102
RTVSPropertyOp45
 70
     1
102
RTVSPropertyOp46
 70
     1
102
RTVSPropertyOp47
 70
     1
102
RTVSPropertyOp48
 70
     1
102
RTVSPropertyOp49
 70
     1
102
RTVSPropertyOp50
 70
     1
102
RTVSPropertyOp51
 70
     0
102
RTVSPropertyOp52
 70
     0
102
RTVSPropertyOp53
 70
     1
102
RTVSPropertyOp54
 70
     1
102
RTVSPropertyOp55
 70
     1
102
RTVSPropertyOp56
 70
     1
102
RTVSPropertyOp57
 70
     1
102
RTVSPost2010Prop28
280
     0
102
RTVSPost2010PropOp28
 70
     1
102
RTVSPost2010Prop29
280
     1
102
RTVSPost2010PropOp29
 70
     1
102
RTVSPost2010Prop30
280
     1
102
RTVSPost2010PropOp30
 70
     1
102
RTVSPost2010Prop31
280
     0
102
RTVSPost2010PropOp31
 70
     1
102
RTVSPost2010Prop32
280
     0
102
RTVSPost2010PropOp32
 70
     1
102
RTVSPost2010Prop33
280
     0
102
RTVSPost2010PropOp33
 70
     1
102
RTVSPost2010Prop34
280
     0
102
RTVSPost2010PropOp34
 70
     1
102
RTVSPost2010Prop35
280
     0
102
RTVSPost2010PropOp35
 70
     1
102
RTVSPost2010Prop36
280
     0
102
RTVSPost2010PropOp36
 70
     1
102
RTVSPost2010Prop37
 90
       50
102
RTVSPost2010PropOp37
 70
     1
102
RTVSPost2010Prop38
140
0.0
102
RTVSPost2010PropOp38
 70
     1
102
RTVSPost2010Prop39
140
1.0
102
RTVSPost2010PropOp39
 70
     1
102
RTVSPost2010Prop40
 90
        0
102
RTVSPost2010PropOp40
 70
     1
102
RTVSPost2010Prop41ColorIndex
 90
       18
102
RTVSPost2010Prop41ColorRGB
 90
        0
102
RTVSPost2010PropOp41
 70
     1
102
RTVSPost2010Prop42
 90
       50
102
RTVSPost2010PropOp42
 70
     1
102
RTVSPost2010Prop43
 90
        3
102
RTVSPost2010PropOp43
 70
     1
102
RTVSPost2010Prop44ColorIndex
 90
        5
102
RTVSPost2010Prop44ColorRGB
 90
      255
102
RTVSPost2010PropOp44
 70
     1
102
RTVSPost2010Prop45
280
     0
102
RTVSPost2010PropOp45
 70
     1
102
RTVSPost2010Prop46
 90
       50
102
RTVSPost2010PropOp46
 70
     1
102
RTVSPost2010Prop47
 90
       50
102
RTVSPost2010PropOp47
 70
     1
102
RTVSPost2010Prop48
 90
       50
102
RTVSPost2010PropOp48
 70
     1
102
RTVSPost2010Prop49
280
     0
102
RTVSPost2010PropOp49
 70
     1
102
RTVSPost2010Prop50
 90
       50
102
RTVSPost2010PropOp50
 70
     1
102
RTVSPost2010Prop51ColorIndex
 90
      256
102
RTVSPost2010Prop51ColorRGB
 90
-16777216
102
RTVSPost2010PropOp51
 70
     0
102
RTVSPost2010Prop52
140
1.0
102
RTVSPost2010PropOp52
 70
     0
102
RTVSPost2010Prop53
 90
        2
102
RTVSPost2010PropOp53
 70
     1
102
RTVSPost2010Prop54
  1
strokes_ogs.tif
102
RTVSPost2010PropOp54
 70
     1
102
RTVSPost2010Prop55
280
     0
102
RTVSPost2010PropOp55
 70
     1
102
RTVSPost2010Prop56
140
1.0
102
RTVSPost2010PropOp56
 70
     1
102
RTVSPost2010Prop57
140
1.0
102
RTVSPost2010PropOp57
 70
     1
  0
XRECORD
  5
302
102
{ACAD_REACTORS
330
301
102
}
330
301
100
AcDbXrecord
280
     1
102
RTVSPropertyOp0
 70
     1
102
RTVSPropertyOp1
 70
     1
102
RTVSPropertyOp2
 70
     1
102
RTVSPropertyOp3
 70
     1
102
RTVSPropertyOp4
 70
     1
102
RTVSPropertyOp5
 70
     1
102
RTVSPropertyOp6
 70
     1
102
RTVSPropertyOp7
 70
     1
102
RTVSPropertyOp8
 70
     1
102
RTVSPropertyOp9
 70
     1
102
RTVSPropertyOp10
 70
     1
102
RTVSPropertyOp11
 70
     1
102
RTVSPropertyOp12
 70
     1
102
RTVSPropertyOp13
 70
     1
102
RTVSPropertyOp14
 70
     1
102
RTVSPropertyOp15
 70
     1
102
RTVSPropertyOp16
 70
     1
102
RTVSPropertyOp17
 70
     1
102
RTVSPropertyOp18
 70
     1
102
RTVSPropertyOp19
 70
     1
102
RTVSPropertyOp20
 70
     1
102
RTVSPropertyOp21
 70
     1
102
RTVSPropertyOp22
 70
     1
102
RTVSPropertyOp23
 70
     1
102
RTVSPropertyOp24
 70
     1
102
RTVSPropertyOp25
 70
     1
102
RTVSPropertyOp26
 70
     1
102
RTVSPropertyOp27
 70
     1
102
RTVSPropertyOp28
 70
     1
102
RTVSPropertyOp29
 70
     1
102
RTVSPropertyOp30
 70
     1
102
RTVSPropertyOp31
 70
     1
102
RTVSPropertyOp32
 70
     1
102
RTVSPropertyOp33
 70
     1
102
RTVSPropertyOp34
 70
     1
102
RTVSPropertyOp35
 70
     1
102
RTVSPropertyOp36
 70
     1
102
RTVSPropertyOp37
 70
     1
102
RTVSPropertyOp38
 70
     1
102
RTVSPropertyOp39
 70
     1
102
RTVSPropertyOp40
 70
     1
102
RTVSPropertyOp41
 70
     1
102
RTVSPropertyOp42
 70
     1
102
RTVSPropertyOp43
 70
     1
102
RTVSPropertyOp44
 70
     1
102
RTVSPropertyOp45
 70
     1
102
RTVSPropertyOp46
 70
     1
102
RTVSPropertyOp47
 70
     1
102
RTVSPropertyOp48
 70
     1
102
RTVSPropertyOp49
 70
     1
102
RTVSPropertyOp50
 70
     1
102
RTVSPropertyOp51
 70
     0
102
RTVSPropertyOp52
 70
     0
102
RTVSPropertyOp53
 70
     1
102
RTVSPropertyOp54
 70
     1
102
RTVSPropertyOp55
 70
     1
102
RTVSPropertyOp56
 70
     1
102
RTVSPropertyOp57
 70
     1
102
RTVSPost2010Prop28
280
     0
102
RTVSPost2010PropOp28
 70
     1
102
RTVSPost2010Prop29
280
     1
102
RTVSPost2010PropOp29
 70
     1
102
RTVSPost2010Prop30
280
     1
102
RTVSPost2010PropOp30
 70
     1
102
RTVSPost2010Prop31
280
     0
102
RTVSPost2010PropOp31
 70
     1
102
RTVSPost2010Prop32
280
     0
102
RTVSPost2010PropOp32
 70
     1
102
RTVSPost2010Prop33
280
     0
102
RTVSPost2010PropOp33
 70
     1
102
RTVSPost2010Prop34
280
     0
102
RTVSPost2010PropOp34
 70
     1
102
RTVSPost2010Prop35
280
     0
102
RTVSPost2010PropOp35
 70
     1
102
RTVSPost2010Prop36
280
     0
102
RTVSPost2010PropOp36
 70
     1
102
RTVSPost2010Prop37
 90
       50
102
RTVSPost2010PropOp37
 70
     1
102
RTVSPost2010Prop38
140
0.0
102
RTVSPost2010PropOp38
 70
     1
102
RTVSPost2010Prop39
140
1.0
102
RTVSPost2010PropOp39
 70
     1
102
RTVSPost2010Prop40
 90
        0
102
RTVSPost2010PropOp40
 70
     1
102
RTVSPost2010Prop41ColorIndex
 90
       18
102
RTVSPost2010Prop41ColorRGB
 90
        0
102
RTVSPost2010PropOp41
 70
     1
102
RTVSPost2010Prop42
 90
       50
102
RTVSPost2010PropOp42
 70
     1
102
RTVSPost2010Prop43
 90
        3
102
RTVSPost2010PropOp43
 70
     1
102
RTVSPost2010Prop44ColorIndex
 90
        5
102
RTVSPost2010Prop44ColorRGB
 90
      255
102
RTVSPost2010PropOp44
 70
     1
102
RTVSPost2010Prop45
280
     0
102
RTVSPost2010PropOp45
 70
     1
102
RTVSPost2010Prop46
 90
       50
102
RTVSPost2010PropOp46
 70
     1
102
RTVSPost2010Prop47
 90
       50
102
RTVSPost2010PropOp47
 70
     1
102
RTVSPost2010Prop48
 90
       50
102
RTVSPost2010PropOp48
 70
     1
102
RTVSPost2010Prop49
280
     0
102
RTVSPost2010PropOp49
 70
     1
102
RTVSPost2010Prop50
 90
       50
102
RTVSPost2010PropOp50
 70
     1
102
RTVSPost2010Prop51ColorIndex
 90
      256
102
RTVSPost2010Prop51ColorRGB
 90
-16777216
102
RTVSPost2010PropOp51
 70
     0
102
RTVSPost2010Prop52
140
1.0
102
RTVSPost2010PropOp52
 70
     0
102
RTVSPost2010Prop53
 90
        2
102
RTVSPost2010PropOp53
 70
     1
102
RTVSPost2010Prop54
  1
strokes_ogs.tif
102
RTVSPost2010PropOp54
 70
     1
102
RTVSPost2010Prop55
280
     0
102
RTVSPost2010PropOp55
 70
     1
102
RTVSPost2010Prop56
140
1.0
102
RTVSPost2010PropOp56
 70
     1
102
RTVSPost2010Prop57
140
1.0
102
RTVSPost2010PropOp57
 70
     1
  0
XRECORD
  5
2F6
102
{ACAD_REACTORS
330
2F5
102
}
330
2F5
100
AcDbXrecord
280
     1
102
RTVSPropertyOp0
 70
     1
102
RTVSPropertyOp1
 70
     1
102
RTVSPropertyOp2
 70
     1
102
RTVSPropertyOp3
 70
     1
102
RTVSPropertyOp4
 70
     1
102
RTVSPropertyOp5
 70
     1
102
RTVSPropertyOp6
 70
     1
102
RTVSPropertyOp7
 70
     1
102
RTVSPropertyOp8
 70
     1
102
RTVSPropertyOp9
 70
     1
102
RTVSPropertyOp10
 70
     1
102
RTVSPropertyOp11
 70
     1
102
RTVSPropertyOp12
 70
     1
102
RTVSPropertyOp13
 70
     1
102
RTVSPropertyOp14
 70
     1
102
RTVSPropertyOp15
 70
     1
102
RTVSPropertyOp16
 70
     1
102
RTVSPropertyOp17
 70
     1
102
RTVSPropertyOp18
 70
     1
102
RTVSPropertyOp19
 70
     1
102
RTVSPropertyOp20
 70
     1
102
RTVSPropertyOp21
 70
     1
102
RTVSPropertyOp22
 70
     1
102
RTVSPropertyOp23
 70
     1
102
RTVSPropertyOp24
 70
     1
102
RTVSPropertyOp25
 70
     1
102
RTVSPropertyOp26
 70
     1
102
RTVSPropertyOp27
 70
     1
102
RTVSPropertyOp28
 70
     1
102
RTVSPropertyOp29
 70
     1
102
RTVSPropertyOp30
 70
     1
102
RTVSPropertyOp31
 70
     1
102
RTVSPropertyOp32
 70
     1
102
RTVSPropertyOp33
 70
     1
102
RTVSPropertyOp34
 70
     1
102
RTVSPropertyOp35
 70
     1
102
RTVSPropertyOp36
 70
     1
102
RTVSPropertyOp37
 70
     1
102
RTVSPropertyOp38
 70
     1
102
RTVSPropertyOp39
 70
     1
102
RTVSPropertyOp40
 70
     1
102
RTVSPropertyOp41
 70
     1
102
RTVSPropertyOp42
 70
     1
102
RTVSPropertyOp43
 70
     1
102
RTVSPropertyOp44
 70
     1
102
RTVSPropertyOp45
 70
     1
102
RTVSPropertyOp46
 70
     1
102
RTVSPropertyOp47
 70
     1
102
RTVSPropertyOp48
 70
     1
102
RTVSPropertyOp49
 70
     1
102
RTVSPropertyOp50
 70
     1
102
RTVSPropertyOp51
 70
     0
102
RTVSPropertyOp52
 70
     0
102
RTVSPropertyOp53
 70
     1
102
RTVSPropertyOp54
 70
     1
102
RTVSPropertyOp55
 70
     1
102
RTVSPropertyOp56
 70
     1
102
RTVSPropertyOp57
 70
     1
102
RTVSPost2010Prop28
280
     0
102
RTVSPost2010PropOp28
 70
     1
102
RTVSPost2010Prop29
280
     1
102
RTVSPost2010PropOp29
 70
     1
102
RTVSPost2010Prop30
280
     1
102
RTVSPost2010PropOp30
 70
     1
102
RTVSPost2010Prop31
280
     0
102
RTVSPost2010PropOp31
 70
     1
102
RTVSPost2010Prop32
280
     0
102
RTVSPost2010PropOp32
 70
     1
102
RTVSPost2010Prop33
280
     0
102
RTVSPost2010PropOp33
 70
     1
102
RTVSPost2010Prop34
280
     0
102
RTVSPost2010PropOp34
 70
     1
102
RTVSPost2010Prop35
280
     0
102
RTVSPost2010PropOp35
 70
     1
102
RTVSPost2010Prop36
280
     0
102
RTVSPost2010PropOp36
 70
     1
102
RTVSPost2010Prop37
 90
       50
102
RTVSPost2010PropOp37
 70
     1
102
RTVSPost2010Prop38
140
0.0
102
RTVSPost2010PropOp38
 70
     1
102
RTVSPost2010Prop39
140
1.0
102
RTVSPost2010PropOp39
 70
     1
102
RTVSPost2010Prop40
 90
        0
102
RTVSPost2010PropOp40
 70
     1
102
RTVSPost2010Prop41ColorIndex
 90
       18
102
RTVSPost2010Prop41ColorRGB
 90
        0
102
RTVSPost2010PropOp41
 70
     1
102
RTVSPost2010Prop42
 90
       50
102
RTVSPost2010PropOp42
 70
     1
102
RTVSPost2010Prop43
 90
        3
102
RTVSPost2010PropOp43
 70
     1
102
RTVSPost2010Prop44ColorIndex
 90
        5
102
RTVSPost2010Prop44ColorRGB
 90
      255
102
RTVSPost2010PropOp44
 70
     1
102
RTVSPost2010Prop45
280
     0
102
RTVSPost2010PropOp45
 70
     1
102
RTVSPost2010Prop46
 90
       50
102
RTVSPost2010PropOp46
 70
     1
102
RTVSPost2010Prop47
 90
       50
102
RTVSPost2010PropOp47
 70
     1
102
RTVSPost2010Prop48
 90
       50
102
RTVSPost2010PropOp48
 70
     1
102
RTVSPost2010Prop49
280
     0
102
RTVSPost2010PropOp49
 70
     1
102
RTVSPost2010Prop50
 90
       50
102
RTVSPost2010PropOp50
 70
     1
102
RTVSPost2010Prop51ColorIndex
 90
      256
102
RTVSPost2010Prop51ColorRGB
 90
-16777216
102
RTVSPost2010PropOp51
 70
     0
102
RTVSPost2010Prop52
140
1.0
102
RTVSPost2010PropOp52
 70
     0
102
RTVSPost2010Prop53
 90
        2
102
RTVSPost2010PropOp53
 70
     1
102
RTVSPost2010Prop54
  1
strokes_ogs.tif
102
RTVSPost2010PropOp54
 70
     1
102
RTVSPost2010Prop55
280
     0
102
RTVSPost2010PropOp55
 70
     1
102
RTVSPost2010Prop56
140
1.0
102
RTVSPost2010PropOp56
 70
     1
102
RTVSPost2010Prop57
140
1.0
102
RTVSPost2010PropOp57
 70
     1
  0
XRECORD
  5
2F8
102
{ACAD_REACTORS
330
2F7
102
}
330
2F7
100
AcDbXrecord
280
     1
102
RTVSPropertyOp0
 70
     1
102
RTVSPropertyOp1
 70
     1
102
RTVSPropertyOp2
 70
     1
102
RTVSPropertyOp3
 70
     1
102
RTVSPropertyOp4
 70
     1
102
RTVSPropertyOp5
 70
     1
102
RTVSPropertyOp6
 70
     1
102
RTVSPropertyOp7
 70
     1
102
RTVSPropertyOp8
 70
     1
102
RTVSPropertyOp9
 70
     1
102
RTVSPropertyOp10
 70
     1
102
RTVSPropertyOp11
 70
     1
102
RTVSPropertyOp12
 70
     1
102
RTVSPropertyOp13
 70
     1
102
RTVSPropertyOp14
 70
     1
102
RTVSPropertyOp15
 70
     1
102
RTVSPropertyOp16
 70
     1
102
RTVSPropertyOp17
 70
     1
102
RTVSPropertyOp18
 70
     1
102
RTVSPropertyOp19
 70
     1
102
RTVSPropertyOp20
 70
     1
102
RTVSPropertyOp21
 70
     1
102
RTVSPropertyOp22
 70
     1
102
RTVSPropertyOp23
 70
     1
102
RTVSPropertyOp24
 70
     1
102
RTVSPropertyOp25
 70
     1
102
RTVSPropertyOp26
 70
     1
102
RTVSPropertyOp27
 70
     1
102
RTVSPropertyOp28
 70
     1
102
RTVSPropertyOp29
 70
     1
102
RTVSPropertyOp30
 70
     1
102
RTVSPropertyOp31
 70
     1
102
RTVSPropertyOp32
 70
     1
102
RTVSPropertyOp33
 70
     1
102
RTVSPropertyOp34
 70
     1
102
RTVSPropertyOp35
 70
     1
102
RTVSPropertyOp36
 70
     1
102
RTVSPropertyOp37
 70
     1
102
RTVSPropertyOp38
 70
     1
102
RTVSPropertyOp39
 70
     1
102
RTVSPropertyOp40
 70
     1
102
RTVSPropertyOp41
 70
     1
102
RTVSPropertyOp42
 70
     1
102
RTVSPropertyOp43
 70
     1
102
RTVSPropertyOp44
 70
     1
102
RTVSPropertyOp45
 70
     1
102
RTVSPropertyOp46
 70
     1
102
RTVSPropertyOp47
 70
     1
102
RTVSPropertyOp48
 70
     1
102
RTVSPropertyOp49
 70
     1
102
RTVSPropertyOp50
 70
     1
102
RTVSPropertyOp51
 70
     0
102
RTVSPropertyOp52
 70
     0
102
RTVSPropertyOp53
 70
     1
102
RTVSPropertyOp54
 70
     1
102
RTVSPropertyOp55
 70
     1
102
RTVSPropertyOp56
 70
     1
102
RTVSPropertyOp57
 70
     1
102
RTVSPost2010Prop28
280
     0
102
RTVSPost2010PropOp28
 70
     1
102
RTVSPost2010Prop29
280
     1
102
RTVSPost2010PropOp29
 70
     1
102
RTVSPost2010Prop30
280
     1
102
RTVSPost2010PropOp30
 70
     1
102
RTVSPost2010Prop31
280
     0
102
RTVSPost2010PropOp31
 70
     1
102
RTVSPost2010Prop32
280
     0
102
RTVSPost2010PropOp32
 70
     1
102
RTVSPost2010Prop33
280
     0
102
RTVSPost2010PropOp33
 70
     1
102
RTVSPost2010Prop34
280
     0
102
RTVSPost2010PropOp34
 70
     1
102
RTVSPost2010Prop35
280
     0
102
RTVSPost2010PropOp35
 70
     1
102
RTVSPost2010Prop36
280
     0
102
RTVSPost2010PropOp36
 70
     1
102
RTVSPost2010Prop37
 90
       50
102
RTVSPost2010PropOp37
 70
     1
102
RTVSPost2010Prop38
140
0.0
102
RTVSPost2010PropOp38
 70
     1
102
RTVSPost2010Prop39
140
1.0
102
RTVSPost2010PropOp39
 70
     1
102
RTVSPost2010Prop40
 90
        0
102
RTVSPost2010PropOp40
 70
     1
102
RTVSPost2010Prop41ColorIndex
 90
       18
102
RTVSPost2010Prop41ColorRGB
 90
        0
102
RTVSPost2010PropOp41
 70
     1
102
RTVSPost2010Prop42
 90
       50
102
RTVSPost2010PropOp42
 70
     1
102
RTVSPost2010Prop43
 90
        3
102
RTVSPost2010PropOp43
 70
     1
102
RTVSPost2010Prop44ColorIndex
 90
        5
102
RTVSPost2010Prop44ColorRGB
 90
      255
102
RTVSPost2010PropOp44
 70
     1
102
RTVSPost2010Prop45
280
     0
102
RTVSPost2010PropOp45
 70
     1
102
RTVSPost2010Prop46
 90
       50
102
RTVSPost2010PropOp46
 70
     1
102
RTVSPost2010Prop47
 90
       50
102
RTVSPost2010PropOp47
 70
     1
102
RTVSPost2010Prop48
 90
       50
102
RTVSPost2010PropOp48
 70
     1
102
RTVSPost2010Prop49
280
     0
102
RTVSPost2010PropOp49
 70
     1
102
RTVSPost2010Prop50
 90
       50
102
RTVSPost2010PropOp50
 70
     1
102
RTVSPost2010Prop51ColorIndex
 90
      256
102
RTVSPost2010Prop51ColorRGB
 90
-16777216
102
RTVSPost2010PropOp51
 70
     0
102
RTVSPost2010Prop52
140
1.0
102
RTVSPost2010PropOp52
 70
     0
102
RTVSPost2010Prop53
 90
        2
102
RTVSPost2010PropOp53
 70
     1
102
RTVSPost2010Prop54
  1
strokes_ogs.tif
102
RTVSPost2010PropOp54
 70
     1
102
RTVSPost2010Prop55
280
     0
102
RTVSPost2010PropOp55
 70
     1
102
RTVSPost2010Prop56
140
1.0
102
RTVSPost2010PropOp56
 70
     1
102
RTVSPost2010Prop57
140
1.0
102
RTVSPost2010PropOp57
 70
     1
  0
XRECORD
  5
308
102
{ACAD_REACTORS
330
307
102
}
330
307
100
AcDbXrecord
280
     1
102
RTVSPropertyOp0
 70
     0
102
RTVSPropertyOp1
 70
     0
102
RTVSPropertyOp2
 70
     0
102
RTVSPropertyOp3
 70
     0
102
RTVSPropertyOp4
 70
     0
102
RTVSPropertyOp5
 70
     0
102
RTVSPropertyOp6
 70
     0
102
RTVSPropertyOp7
 70
     0
102
RTVSPropertyOp8
 70
     0
102
RTVSPropertyOp9
 70
     0
102
RTVSPropertyOp10
 70
     0
102
RTVSPropertyOp11
 70
     0
102
RTVSPropertyOp12
 70
     0
102
RTVSPropertyOp13
 70
     0
102
RTVSPropertyOp14
 70
     2
102
RTVSPropertyOp15
 70
     0
102
RTVSPropertyOp16
 70
     0
102
RTVSPropertyOp17
 70
     0
102
RTVSPropertyOp18
 70
     0
102
RTVSPropertyOp19
 70
     0
102
RTVSPropertyOp20
 70
     0
102
RTVSPropertyOp21
 70
     0
102
RTVSPropertyOp22
 70
     0
102
RTVSPropertyOp23
 70
     0
102
RTVSPropertyOp24
 70
     0
102
RTVSPropertyOp25
 70
     0
102
RTVSPropertyOp26
 70
     0
102
RTVSPropertyOp27
 70
     0
102
RTVSPropertyOp28
 70
     0
102
RTVSPropertyOp29
 70
     0
102
RTVSPropertyOp30
 70
     0
102
RTVSPropertyOp31
 70
     0
102
RTVSPropertyOp32
 70
     0
102
RTVSPropertyOp33
 70
     0
102
RTVSPropertyOp34
 70
     0
102
RTVSPropertyOp35
 70
     0
102
RTVSPropertyOp36
 70
     0
102
RTVSPropertyOp37
 70
     0
102
RTVSPropertyOp38
 70
     0
102
RTVSPropertyOp39
 70
     0
102
RTVSPropertyOp40
 70
     0
102
RTVSPropertyOp41
 70
     0
102
RTVSPropertyOp42
 70
     0
102
RTVSPropertyOp43
 70
     0
102
RTVSPropertyOp44
 70
     0
102
RTVSPropertyOp45
 70
     0
102
RTVSPropertyOp46
 70
     0
102
RTVSPropertyOp47
 70
     0
102
RTVSPropertyOp48
 70
     0
102
RTVSPropertyOp49
 70
     0
102
RTVSPropertyOp50
 70
     0
102
RTVSPropertyOp51
 70
     0
102
RTVSPropertyOp52
 70
     0
102
RTVSPropertyOp53
 70
     0
102
RTVSPropertyOp54
 70
     0
102
RTVSPropertyOp55
 70
     0
102
RTVSPropertyOp56
 70
     0
102
RTVSPropertyOp57
 70
     0
102
RTVSPost2010Prop28
280
     0
102
RTVSPost2010PropOp28
 70
     0
102
RTVSPost2010Prop29
280
     1
102
RTVSPost2010PropOp29
 70
     0
102
RTVSPost2010Prop30
280
     1
102
RTVSPost2010PropOp30
 70
     0
102
RTVSPost2010Prop31
280
     0
102
RTVSPost2010PropOp31
 70
     0
102
RTVSPost2010Prop32
280
     0
102
RTVSPost2010PropOp32
 70
     0
102
RTVSPost2010Prop33
280
     0
102
RTVSPost2010PropOp33
 70
     0
102
RTVSPost2010Prop34
280
     0
102
RTVSPost2010PropOp34
 70
     0
102
RTVSPost2010Prop35
280
     0
102
RTVSPost2010PropOp35
 70
     0
102
RTVSPost2010Prop36
280
     0
102
RTVSPost2010PropOp36
 70
     0
102
RTVSPost2010Prop37
 90
       50
102
RTVSPost2010PropOp37
 70
     0
102
RTVSPost2010Prop38
140
0.0
102
RTVSPost2010PropOp38
 70
     0
102
RTVSPost2010Prop39
140
1.0
102
RTVSPost2010PropOp39
 70
     0
102
RTVSPost2010Prop40
 90
        0
102
RTVSPost2010PropOp40
 70
     0
102
RTVSPost2010Prop41ColorIndex
 90
       18
102
RTVSPost2010Prop41ColorRGB
 90
        0
102
RTVSPost2010PropOp41
 70
     0
102
RTVSPost2010Prop42
 90
       50
102
RTVSPost2010PropOp42
 70
     0
102
RTVSPost2010Prop43
 90
        3
102
RTVSPost2010PropOp43
 70
     0
102
RTVSPost2010Prop44ColorIndex
 90
        5
102
RTVSPost2010Prop44ColorRGB
 90
      255
102
RTVSPost2010PropOp44
 70
     0
102
RTVSPost2010Prop45
280
     0
102
RTVSPost2010PropOp45
 70
     0
102
RTVSPost2010Prop46
 90
       50
102
RTVSPost2010PropOp46
 70
     0
102
RTVSPost2010Prop47
 90
       50
102
RTVSPost2010PropOp47
 70
     0
102
RTVSPost2010Prop48
 90
       50
102
RTVSPost2010PropOp48
 70
     0
102
RTVSPost2010Prop49
280
     0
102
RTVSPost2010PropOp49
 70
     0
102
RTVSPost2010Prop50
 90
       50
102
RTVSPost2010PropOp50
 70
     0
102
RTVSPost2010Prop51ColorIndex
 90
      256
102
RTVSPost2010Prop51ColorRGB
 90
-16777216
102
RTVSPost2010PropOp51
 70
     0
102
RTVSPost2010Prop52
140
1.0
102
RTVSPost2010PropOp52
 70
     0
102
RTVSPost2010Prop53
 90
        2
102
RTVSPost2010PropOp53
 70
     0
102
RTVSPost2010Prop54
  1
strokes_ogs.tif
102
RTVSPost2010PropOp54
 70
     0
102
RTVSPost2010Prop55
280
     0
102
RTVSPost2010PropOp55
 70
     0
102
RTVSPost2010Prop56
140
1.0
102
RTVSPost2010PropOp56
 70
     0
102
RTVSPost2010Prop57
140
1.0
102
RTVSPost2010PropOp57
 70
     0
  0
XRECORD
  5
300
102
{ACAD_REACTORS
330
2FF
102
}
330
2FF
100
AcDbXrecord
280
     1
102
RTVSPropertyOp0
 70
     1
102
RTVSPropertyOp1
 70
     1
102
RTVSPropertyOp2
 70
     1
102
RTVSPropertyOp3
 70
     1
102
RTVSPropertyOp4
 70
     1
102
RTVSPropertyOp5
 70
     1
102
RTVSPropertyOp6
 70
     1
102
RTVSPropertyOp7
 70
     1
102
RTVSPropertyOp8
 70
     1
102
RTVSPropertyOp9
 70
     1
102
RTVSPropertyOp10
 70
     1
102
RTVSPropertyOp11
 70
     1
102
RTVSPropertyOp12
 70
     1
102
RTVSPropertyOp13
 70
     1
102
RTVSPropertyOp14
 70
     1
102
RTVSPropertyOp15
 70
     1
102
RTVSPropertyOp16
 70
     1
102
RTVSPropertyOp17
 70
     1
102
RTVSPropertyOp18
 70
     1
102
RTVSPropertyOp19
 70
     1
102
RTVSPropertyOp20
 70
     1
102
RTVSPropertyOp21
 70
     1
102
RTVSPropertyOp22
 70
     1
102
RTVSPropertyOp23
 70
     1
102
RTVSPropertyOp24
 70
     1
102
RTVSPropertyOp25
 70
     1
102
RTVSPropertyOp26
 70
     1
102
RTVSPropertyOp27
 70
     1
102
RTVSPropertyOp28
 70
     1
102
RTVSPropertyOp29
 70
     1
102
RTVSPropertyOp30
 70
     1
102
RTVSPropertyOp31
 70
     1
102
RTVSPropertyOp32
 70
     1
102
RTVSPropertyOp33
 70
     1
102
RTVSPropertyOp34
 70
     1
102
RTVSPropertyOp35
 70
     1
102
RTVSPropertyOp36
 70
     1
102
RTVSPropertyOp37
 70
     1
102
RTVSPropertyOp38
 70
     1
102
RTVSPropertyOp39
 70
     1
102
RTVSPropertyOp40
 70
     1
102
RTVSPropertyOp41
 70
     1
102
RTVSPropertyOp42
 70
     1
102
RTVSPropertyOp43
 70
     1
102
RTVSPropertyOp44
 70
     1
102
RTVSPropertyOp45
 70
     1
102
RTVSPropertyOp46
 70
     1
102
RTVSPropertyOp47
 70
     1
102
RTVSPropertyOp48
 70
     1
102
RTVSPropertyOp49
 70
     1
102
RTVSPropertyOp50
 70
     1
102
RTVSPropertyOp51
 70
     0
102
RTVSPropertyOp52
 70
     0
102
RTVSPropertyOp53
 70
     1
102
RTVSPropertyOp54
 70
     1
102
RTVSPropertyOp55
 70
     1
102
RTVSPropertyOp56
 70
     1
102
RTVSPropertyOp57
 70
     1
102
RTVSPost2010Prop28
280
     0
102
RTVSPost2010PropOp28
 70
     1
102
RTVSPost2010Prop29
280
     1
102
RTVSPost2010PropOp29
 70
     1
102
RTVSPost2010Prop30
280
     1
102
RTVSPost2010PropOp30
 70
     1
102
RTVSPost2010Prop31
280
     0
102
RTVSPost2010PropOp31
 70
     1
102
RTVSPost2010Prop32
280
     0
102
RTVSPost2010PropOp32
 70
     1
102
RTVSPost2010Prop33
280
     0
102
RTVSPost2010PropOp33
 70
     1
102
RTVSPost2010Prop34
280
     0
102
RTVSPost2010PropOp34
 70
     1
102
RTVSPost2010Prop35
280
     0
102
RTVSPost2010PropOp35
 70
     1
102
RTVSPost2010Prop36
280
     0
102
RTVSPost2010PropOp36
 70
     1
102
RTVSPost2010Prop37
 90
       50
102
RTVSPost2010PropOp37
 70
     1
102
RTVSPost2010Prop38
140
0.0
102
RTVSPost2010PropOp38
 70
     1
102
RTVSPost2010Prop39
140
1.0
102
RTVSPost2010PropOp39
 70
     1
102
RTVSPost2010Prop40
 90
        0
102
RTVSPost2010PropOp40
 70
     1
102
RTVSPost2010Prop41ColorIndex
 90
       18
102
RTVSPost2010Prop41ColorRGB
 90
        0
102
RTVSPost2010PropOp41
 70
     1
102
RTVSPost2010Prop42
 90
       50
102
RTVSPost2010PropOp42
 70
     1
102
RTVSPost2010Prop43
 90
        3
102
RTVSPost2010PropOp43
 70
     1
102
RTVSPost2010Prop44ColorIndex
 90
        5
102
RTVSPost2010Prop44ColorRGB
 90
      255
102
RTVSPost2010PropOp44
 70
     1
102
RTVSPost2010Prop45
280
     0
102
RTVSPost2010PropOp45
 70
     1
102
RTVSPost2010Prop46
 90
       50
102
RTVSPost2010PropOp46
 70
     1
102
RTVSPost2010Prop47
 90
       50
102
RTVSPost2010PropOp47
 70
     1
102
RTVSPost2010Prop48
 90
       50
102
RTVSPost2010PropOp48
 70
     1
102
RTVSPost2010Prop49
280
     0
102
RTVSPost2010PropOp49
 70
     1
102
RTVSPost2010Prop50
 90
       50
102
RTVSPost2010PropOp50
 70
     1
102
RTVSPost2010Prop51ColorIndex
 90
      256
102
RTVSPost2010Prop51ColorRGB
 90
-16777216
102
RTVSPost2010PropOp51
 70
     0
102
RTVSPost2010Prop52
140
1.0
102
RTVSPost2010PropOp52
 70
     0
102
RTVSPost2010Prop53
 90
        2
102
RTVSPost2010PropOp53
 70
     1
102
RTVSPost2010Prop54
  1
strokes_ogs.tif
102
RTVSPost2010PropOp54
 70
     1
102
RTVSPost2010Prop55
280
     0
102
RTVSPost2010PropOp55
 70
     1
102
RTVSPost2010Prop56
140
1.0
102
RTVSPost2010PropOp56
 70
     1
102
RTVSPost2010Prop57
140
1.0
102
RTVSPost2010PropOp57
 70
     1
  0
XRECORD
  5
2E4
102
{ACAD_REACTORS
330
2E3
102
}
330
2E3
100
AcDbXrecord
280
     1
102
RTVSPropertyOp0
 70
     1
102
RTVSPropertyOp1
 70
     1
102
RTVSPropertyOp2
 70
     1
102
RTVSPropertyOp3
 70
     1
102
RTVSPropertyOp4
 70
     1
102
RTVSPropertyOp5
 70
     1
102
RTVSPropertyOp6
 70
     1
102
RTVSPropertyOp7
 70
     1
102
RTVSPropertyOp8
 70
     1
102
RTVSPropertyOp9
 70
     1
102
RTVSPropertyOp10
 70
     1
102
RTVSPropertyOp11
 70
     1
102
RTVSPropertyOp12
 70
     1
102
RTVSPropertyOp13
 70
     1
102
RTVSPropertyOp14
 70
     1
102
RTVSPropertyOp15
 70
     1
102
RTVSPropertyOp16
 70
     1
102
RTVSPropertyOp17
 70
     1
102
RTVSPropertyOp18
 70
     1
102
RTVSPropertyOp19
 70
     1
102
RTVSPropertyOp20
 70
     1
102
RTVSPropertyOp21
 70
     1
102
RTVSPropertyOp22
 70
     1
102
RTVSPropertyOp23
 70
     1
102
RTVSPropertyOp24
 70
     1
102
RTVSPropertyOp25
 70
     1
102
RTVSPropertyOp26
 70
     1
102
RTVSPropertyOp27
 70
     1
102
RTVSPropertyOp28
 70
     1
102
RTVSPropertyOp29
 70
     1
102
RTVSPropertyOp30
 70
     1
102
RTVSPropertyOp31
 70
     1
102
RTVSPropertyOp32
 70
     1
102
RTVSPropertyOp33
 70
     1
102
RTVSPropertyOp34
 70
     1
102
RTVSPropertyOp35
 70
     1
102
RTVSPropertyOp36
 70
     1
102
RTVSPropertyOp37
 70
     1
102
RTVSPropertyOp38
 70
     1
102
RTVSPropertyOp39
 70
     1
102
RTVSPropertyOp40
 70
     1
102
RTVSPropertyOp41
 70
     1
102
RTVSPropertyOp42
 70
     1
102
RTVSPropertyOp43
 70
     1
102
RTVSPropertyOp44
 70
     1
102
RTVSPropertyOp45
 70
     1
102
RTVSPropertyOp46
 70
     1
102
RTVSPropertyOp47
 70
     1
102
RTVSPropertyOp48
 70
     1
102
RTVSPropertyOp49
 70
     1
102
RTVSPropertyOp50
 70
     1
102
RTVSPropertyOp51
 70
     0
102
RTVSPropertyOp52
 70
     0
102
RTVSPropertyOp53
 70
     1
102
RTVSPropertyOp54
 70
     1
102
RTVSPropertyOp55
 70
     1
102
RTVSPropertyOp56
 70
     1
102
RTVSPropertyOp57
 70
     1
102
RTVSPost2010Prop28
280
     0
102
RTVSPost2010PropOp28
 70
     1
102
RTVSPost2010Prop29
280
     1
102
RTVSPost2010PropOp29
 70
     1
102
RTVSPost2010Prop30
280
     1
102
RTVSPost2010PropOp30
 70
     1
102
RTVSPost2010Prop31
280
     0
102
RTVSPost2010PropOp31
 70
     1
102
RTVSPost2010Prop32
280
     0
102
RTVSPost2010PropOp32
 70
     1
102
RTVSPost2010Prop33
280
     0
102
RTVSPost2010PropOp33
 70
     1
102
RTVSPost2010Prop34
280
     0
102
RTVSPost2010PropOp34
 70
     1
102
RTVSPost2010Prop35
280
     0
102
RTVSPost2010PropOp35
 70
     1
102
RTVSPost2010Prop36
280
     0
102
RTVSPost2010PropOp36
 70
     1
102
RTVSPost2010Prop37
 90
       50
102
RTVSPost2010PropOp37
 70
     1
102
RTVSPost2010Prop38
140
0.0
102
RTVSPost2010PropOp38
 70
     1
102
RTVSPost2010Prop39
140
1.0
102
RTVSPost2010PropOp39
 70
     1
102
RTVSPost2010Prop40
 90
        0
102
RTVSPost2010PropOp40
 70
     1
102
RTVSPost2010Prop41ColorIndex
 90
       18
102
RTVSPost2010Prop41ColorRGB
 90
        0
102
RTVSPost2010PropOp41
 70
     1
102
RTVSPost2010Prop42
 90
       50
102
RTVSPost2010PropOp42
 70
     1
102
RTVSPost2010Prop43
 90
        3
102
RTVSPost2010PropOp43
 70
     1
102
RTVSPost2010Prop44ColorIndex
 90
        5
102
RTVSPost2010Prop44ColorRGB
 90
      255
102
RTVSPost2010PropOp44
 70
     1
102
RTVSPost2010Prop45
280
     0
102
RTVSPost2010PropOp45
 70
     1
102
RTVSPost2010Prop46
 90
       50
102
RTVSPost2010PropOp46
 70
     1
102
RTVSPost2010Prop47
 90
       50
102
RTVSPost2010PropOp47
 70
     1
102
RTVSPost2010Prop48
 90
       50
102
RTVSPost2010PropOp48
 70
     1
102
RTVSPost2010Prop49
280
     0
102
RTVSPost2010PropOp49
 70
     1
102
RTVSPost2010Prop50
 90
       50
102
RTVSPost2010PropOp50
 70
     1
102
RTVSPost2010Prop51ColorIndex
 90
      256
102
RTVSPost2010Prop51ColorRGB
 90
-16777216
102
RTVSPost2010PropOp51
 70
     0
102
RTVSPost2010Prop52
140
1.0
102
RTVSPost2010PropOp52
 70
     0
102
RTVSPost2010Prop53
 90
        2
102
RTVSPost2010PropOp53
 70
     1
102
RTVSPost2010Prop54
  1
strokes_ogs.tif
102
RTVSPost2010PropOp54
 70
     1
102
RTVSPost2010Prop55
280
     0
102
RTVSPost2010PropOp55
 70
     1
102
RTVSPost2010Prop56
140
1.0
102
RTVSPost2010PropOp56
 70
     1
102
RTVSPost2010Prop57
140
1.0
102
RTVSPost2010PropOp57
 70
     1
  0
XRECORD
  5
2E6
102
{ACAD_REACTORS
330
2E5
102
}
330
2E5
100
AcDbXrecord
280
     1
102
RTVSPropertyOp0
 70
     1
102
RTVSPropertyOp1
 70
     1
102
RTVSPropertyOp2
 70
     1
102
RTVSPropertyOp3
 70
     1
102
RTVSPropertyOp4
 70
     1
102
RTVSPropertyOp5
 70
     1
102
RTVSPropertyOp6
 70
     1
102
RTVSPropertyOp7
 70
     1
102
RTVSPropertyOp8
 70
     1
102
RTVSPropertyOp9
 70
     1
102
RTVSPropertyOp10
 70
     1
102
RTVSPropertyOp11
 70
     1
102
RTVSPropertyOp12
 70
     1
102
RTVSPropertyOp13
 70
     1
102
RTVSPropertyOp14
 70
     1
102
RTVSPropertyOp15
 70
     1
102
RTVSPropertyOp16
 70
     1
102
RTVSPropertyOp17
 70
     1
102
RTVSPropertyOp18
 70
     1
102
RTVSPropertyOp19
 70
     1
102
RTVSPropertyOp20
 70
     1
102
RTVSPropertyOp21
 70
     1
102
RTVSPropertyOp22
 70
     1
102
RTVSPropertyOp23
 70
     1
102
RTVSPropertyOp24
 70
     1
102
RTVSPropertyOp25
 70
     1
102
RTVSPropertyOp26
 70
     1
102
RTVSPropertyOp27
 70
     1
102
RTVSPropertyOp28
 70
     1
102
RTVSPropertyOp29
 70
     1
102
RTVSPropertyOp30
 70
     1
102
RTVSPropertyOp31
 70
     1
102
RTVSPropertyOp32
 70
     1
102
RTVSPropertyOp33
 70
     1
102
RTVSPropertyOp34
 70
     1
102
RTVSPropertyOp35
 70
     1
102
RTVSPropertyOp36
 70
     1
102
RTVSPropertyOp37
 70
     1
102
RTVSPropertyOp38
 70
     1
102
RTVSPropertyOp39
 70
     1
102
RTVSPropertyOp40
 70
     1
102
RTVSPropertyOp41
 70
     1
102
RTVSPropertyOp42
 70
     1
102
RTVSPropertyOp43
 70
     1
102
RTVSPropertyOp44
 70
     1
102
RTVSPropertyOp45
 70
     1
102
RTVSPropertyOp46
 70
     1
102
RTVSPropertyOp47
 70
     1
102
RTVSPropertyOp48
 70
     1
102
RTVSPropertyOp49
 70
     1
102
RTVSPropertyOp50
 70
     1
102
RTVSPropertyOp51
 70
     0
102
RTVSPropertyOp52
 70
     0
102
RTVSPropertyOp53
 70
     1
102
RTVSPropertyOp54
 70
     1
102
RTVSPropertyOp55
 70
     1
102
RTVSPropertyOp56
 70
     1
102
RTVSPropertyOp57
 70
     1
102
RTVSPost2010Prop28
280
     0
102
RTVSPost2010PropOp28
 70
     1
102
RTVSPost2010Prop29
280
     1
102
RTVSPost2010PropOp29
 70
     1
102
RTVSPost2010Prop30
280
     1
102
RTVSPost2010PropOp30
 70
     1
102
RTVSPost2010Prop31
280
     0
102
RTVSPost2010PropOp31
 70
     1
102
RTVSPost2010Prop32
280
     0
102
RTVSPost2010PropOp32
 70
     1
102
RTVSPost2010Prop33
280
     0
102
RTVSPost2010PropOp33
 70
     1
102
RTVSPost2010Prop34
280
     0
102
RTVSPost2010PropOp34
 70
     1
102
RTVSPost2010Prop35
280
     0
102
RTVSPost2010PropOp35
 70
     1
102
RTVSPost2010Prop36
280
     0
102
RTVSPost2010PropOp36
 70
     1
102
RTVSPost2010Prop37
 90
       50
102
RTVSPost2010PropOp37
 70
     1
102
RTVSPost2010Prop38
140
0.0
102
RTVSPost2010PropOp38
 70
     1
102
RTVSPost2010Prop39
140
1.0
102
RTVSPost2010PropOp39
 70
     1
102
RTVSPost2010Prop40
 90
        0
102
RTVSPost2010PropOp40
 70
     1
102
RTVSPost2010Prop41ColorIndex
 90
       18
102
RTVSPost2010Prop41ColorRGB
 90
        0
102
RTVSPost2010PropOp41
 70
     1
102
RTVSPost2010Prop42
 90
       50
102
RTVSPost2010PropOp42
 70
     1
102
RTVSPost2010Prop43
 90
        3
102
RTVSPost2010PropOp43
 70
     1
102
RTVSPost2010Prop44ColorIndex
 90
        5
102
RTVSPost2010Prop44ColorRGB
 90
      255
102
RTVSPost2010PropOp44
 70
     1
102
RTVSPost2010Prop45
280
     0
102
RTVSPost2010PropOp45
 70
     1
102
RTVSPost2010Prop46
 90
       50
102
RTVSPost2010PropOp46
 70
     1
102
RTVSPost2010Prop47
 90
       50
102
RTVSPost2010PropOp47
 70
     1
102
RTVSPost2010Prop48
 90
       50
102
RTVSPost2010PropOp48
 70
     1
102
RTVSPost2010Prop49
280
     0
102
RTVSPost2010PropOp49
 70
     1
102
RTVSPost2010Prop50
 90
       50
102
RTVSPost2010PropOp50
 70
     1
102
RTVSPost2010Prop51ColorIndex
 90
      256
102
RTVSPost2010Prop51ColorRGB
 90
-16777216
102
RTVSPost2010PropOp51
 70
     0
102
RTVSPost2010Prop52
140
1.0
102
RTVSPost2010PropOp52
 70
     0
102
RTVSPost2010Prop53
 90
        2
102
RTVSPost2010PropOp53
 70
     1
102
RTVSPost2010Prop54
  1
strokes_ogs.tif
102
RTVSPost2010PropOp54
 70
     1
102
RTVSPost2010Prop55
280
     0
102
RTVSPost2010PropOp55
 70
     1
102
RTVSPost2010Prop56
140
1.0
102
RTVSPost2010PropOp56
 70
     1
102
RTVSPost2010Prop57
140
1.0
102
RTVSPost2010PropOp57
 70
     1
  0
XRECORD
  5
2E8
102
{ACAD_REACTORS
330
2E7
102
}
330
2E7
100
AcDbXrecord
280
     1
102
RTVSPropertyOp0
 70
     1
102
RTVSPropertyOp1
 70
     1
102
RTVSPropertyOp2
 70
     1
102
RTVSPropertyOp3
 70
     1
102
RTVSPropertyOp4
 70
     1
102
RTVSPropertyOp5
 70
     1
102
RTVSPropertyOp6
 70
     1
102
RTVSPropertyOp7
 70
     1
102
RTVSPropertyOp8
 70
     1
102
RTVSPropertyOp9
 70
     1
102
RTVSPropertyOp10
 70
     1
102
RTVSPropertyOp11
 70
     1
102
RTVSPropertyOp12
 70
     1
102
RTVSPropertyOp13
 70
     1
102
RTVSPropertyOp14
 70
     1
102
RTVSPropertyOp15
 70
     1
102
RTVSPropertyOp16
 70
     1
102
RTVSPropertyOp17
 70
     1
102
RTVSPropertyOp18
 70
     1
102
RTVSPropertyOp19
 70
     1
102
RTVSPropertyOp20
 70
     1
102
RTVSPropertyOp21
 70
     1
102
RTVSPropertyOp22
 70
     1
102
RTVSPropertyOp23
 70
     1
102
RTVSPropertyOp24
 70
     1
102
RTVSPropertyOp25
 70
     1
102
RTVSPropertyOp26
 70
     1
102
RTVSPropertyOp27
 70
     1
102
RTVSPropertyOp28
 70
     1
102
RTVSPropertyOp29
 70
     1
102
RTVSPropertyOp30
 70
     1
102
RTVSPropertyOp31
 70
     1
102
RTVSPropertyOp32
 70
     1
102
RTVSPropertyOp33
 70
     1
102
RTVSPropertyOp34
 70
     1
102
RTVSPropertyOp35
 70
     1
102
RTVSPropertyOp36
 70
     1
102
RTVSPropertyOp37
 70
     1
102
RTVSPropertyOp38
 70
     1
102
RTVSPropertyOp39
 70
     1
102
RTVSPropertyOp40
 70
     1
102
RTVSPropertyOp41
 70
     1
102
RTVSPropertyOp42
 70
     1
102
RTVSPropertyOp43
 70
     1
102
RTVSPropertyOp44
 70
     1
102
RTVSPropertyOp45
 70
     1
102
RTVSPropertyOp46
 70
     1
102
RTVSPropertyOp47
 70
     1
102
RTVSPropertyOp48
 70
     1
102
RTVSPropertyOp49
 70
     1
102
RTVSPropertyOp50
 70
     1
102
RTVSPropertyOp51
 70
     0
102
RTVSPropertyOp52
 70
     0
102
RTVSPropertyOp53
 70
     1
102
RTVSPropertyOp54
 70
     1
102
RTVSPropertyOp55
 70
     1
102
RTVSPropertyOp56
 70
     1
102
RTVSPropertyOp57
 70
     1
102
RTVSPost2010Prop28
280
     0
102
RTVSPost2010PropOp28
 70
     1
102
RTVSPost2010Prop29
280
     1
102
RTVSPost2010PropOp29
 70
     1
102
RTVSPost2010Prop30
280
     1
102
RTVSPost2010PropOp30
 70
     1
102
RTVSPost2010Prop31
280
     0
102
RTVSPost2010PropOp31
 70
     1
102
RTVSPost2010Prop32
280
     0
102
RTVSPost2010PropOp32
 70
     1
102
RTVSPost2010Prop33
280
     0
102
RTVSPost2010PropOp33
 70
     1
102
RTVSPost2010Prop34
280
     0
102
RTVSPost2010PropOp34
 70
     1
102
RTVSPost2010Prop35
280
     0
102
RTVSPost2010PropOp35
 70
     1
102
RTVSPost2010Prop36
280
     0
102
RTVSPost2010PropOp36
 70
     1
102
RTVSPost2010Prop37
 90
       50
102
RTVSPost2010PropOp37
 70
     1
102
RTVSPost2010Prop38
140
0.0
102
RTVSPost2010PropOp38
 70
     1
102
RTVSPost2010Prop39
140
1.0
102
RTVSPost2010PropOp39
 70
     1
102
RTVSPost2010Prop40
 90
        0
102
RTVSPost2010PropOp40
 70
     1
102
RTVSPost2010Prop41ColorIndex
 90
       18
102
RTVSPost2010Prop41ColorRGB
 90
        0
102
RTVSPost2010PropOp41
 70
     1
102
RTVSPost2010Prop42
 90
       50
102
RTVSPost2010PropOp42
 70
     1
102
RTVSPost2010Prop43
 90
        3
102
RTVSPost2010PropOp43
 70
     1
102
RTVSPost2010Prop44ColorIndex
 90
        5
102
RTVSPost2010Prop44ColorRGB
 90
      255
102
RTVSPost2010PropOp44
 70
     1
102
RTVSPost2010Prop45
280
     0
102
RTVSPost2010PropOp45
 70
     1
102
RTVSPost2010Prop46
 90
       50
102
RTVSPost2010PropOp46
 70
     1
102
RTVSPost2010Prop47
 90
       50
102
RTVSPost2010PropOp47
 70
     1
102
RTVSPost2010Prop48
 90
       50
102
RTVSPost2010PropOp48
 70
     1
102
RTVSPost2010Prop49
280
     0
102
RTVSPost2010PropOp49
 70
     1
102
RTVSPost2010Prop50
 90
       50
102
RTVSPost2010PropOp50
 70
     1
102
RTVSPost2010Prop51ColorIndex
 90
      256
102
RTVSPost2010Prop51ColorRGB
 90
-16777216
102
RTVSPost2010PropOp51
 70
     0
102
RTVSPost2010Prop52
140
1.0
102
RTVSPost2010PropOp52
 70
     0
102
RTVSPost2010Prop53
 90
        2
102
RTVSPost2010PropOp53
 70
     1
102
RTVSPost2010Prop54
  1
strokes_ogs.tif
102
RTVSPost2010PropOp54
 70
     1
102
RTVSPost2010Prop55
280
     0
102
RTVSPost2010PropOp55
 70
     1
102
RTVSPost2010Prop56
140
1.0
102
RTVSPost2010PropOp56
 70
     1
102
RTVSPost2010Prop57
140
1.0
102
RTVSPost2010PropOp57
 70
     1
  0
XRECORD
  5
2EA
102
{ACAD_REACTORS
330
2E9
102
}
330
2E9
100
AcDbXrecord
280
     1
102
RTVSPropertyOp0
 70
     1
102
RTVSPropertyOp1
 70
     1
102
RTVSPropertyOp2
 70
     1
102
RTVSPropertyOp3
 70
     1
102
RTVSPropertyOp4
 70
     1
102
RTVSPropertyOp5
 70
     1
102
RTVSPropertyOp6
 70
     1
102
RTVSPropertyOp7
 70
     1
102
RTVSPropertyOp8
 70
     1
102
RTVSPropertyOp9
 70
     1
102
RTVSPropertyOp10
 70
     1
102
RTVSPropertyOp11
 70
     1
102
RTVSPropertyOp12
 70
     1
102
RTVSPropertyOp13
 70
     1
102
RTVSPropertyOp14
 70
     1
102
RTVSPropertyOp15
 70
     1
102
RTVSPropertyOp16
 70
     1
102
RTVSPropertyOp17
 70
     1
102
RTVSPropertyOp18
 70
     1
102
RTVSPropertyOp19
 70
     1
102
RTVSPropertyOp20
 70
     1
102
RTVSPropertyOp21
 70
     1
102
RTVSPropertyOp22
 70
     1
102
RTVSPropertyOp23
 70
     1
102
RTVSPropertyOp24
 70
     1
102
RTVSPropertyOp25
 70
     1
102
RTVSPropertyOp26
 70
     1
102
RTVSPropertyOp27
 70
     1
102
RTVSPropertyOp28
 70
     1
102
RTVSPropertyOp29
 70
     1
102
RTVSPropertyOp30
 70
     1
102
RTVSPropertyOp31
 70
     1
102
RTVSPropertyOp32
 70
     1
102
RTVSPropertyOp33
 70
     1
102
RTVSPropertyOp34
 70
     1
102
RTVSPropertyOp35
 70
     1
102
RTVSPropertyOp36
 70
     1
102
RTVSPropertyOp37
 70
     1
102
RTVSPropertyOp38
 70
     1
102
RTVSPropertyOp39
 70
     1
102
RTVSPropertyOp40
 70
     1
102
RTVSPropertyOp41
 70
     1
102
RTVSPropertyOp42
 70
     1
102
RTVSPropertyOp43
 70
     1
102
RTVSPropertyOp44
 70
     1
102
RTVSPropertyOp45
 70
     1
102
RTVSPropertyOp46
 70
     1
102
RTVSPropertyOp47
 70
     1
102
RTVSPropertyOp48
 70
     1
102
RTVSPropertyOp49
 70
     1
102
RTVSPropertyOp50
 70
     1
102
RTVSPropertyOp51
 70
     0
102
RTVSPropertyOp52
 70
     0
102
RTVSPropertyOp53
 70
     1
102
RTVSPropertyOp54
 70
     1
102
RTVSPropertyOp55
 70
     1
102
RTVSPropertyOp56
 70
     1
102
RTVSPropertyOp57
 70
     1
102
RTVSPost2010Prop28
280
     0
102
RTVSPost2010PropOp28
 70
     1
102
RTVSPost2010Prop29
280
     1
102
RTVSPost2010PropOp29
 70
     1
102
RTVSPost2010Prop30
280
     1
102
RTVSPost2010PropOp30
 70
     1
102
RTVSPost2010Prop31
280
     0
102
RTVSPost2010PropOp31
 70
     1
102
RTVSPost2010Prop32
280
     0
102
RTVSPost2010PropOp32
 70
     1
102
RTVSPost2010Prop33
280
     0
102
RTVSPost2010PropOp33
 70
     1
102
RTVSPost2010Prop34
280
     0
102
RTVSPost2010PropOp34
 70
     1
102
RTVSPost2010Prop35
280
     0
102
RTVSPost2010PropOp35
 70
     1
102
RTVSPost2010Prop36
280
     0
102
RTVSPost2010PropOp36
 70
     1
102
RTVSPost2010Prop37
 90
       50
102
RTVSPost2010PropOp37
 70
     1
102
RTVSPost2010Prop38
140
0.0
102
RTVSPost2010PropOp38
 70
     1
102
RTVSPost2010Prop39
140
1.0
102
RTVSPost2010PropOp39
 70
     1
102
RTVSPost2010Prop40
 90
        0
102
RTVSPost2010PropOp40
 70
     1
102
RTVSPost2010Prop41ColorIndex
 90
       18
102
RTVSPost2010Prop41ColorRGB
 90
        0
102
RTVSPost2010PropOp41
 70
     1
102
RTVSPost2010Prop42
 90
       50
102
RTVSPost2010PropOp42
 70
     1
102
RTVSPost2010Prop43
 90
        3
102
RTVSPost2010PropOp43
 70
     1
102
RTVSPost2010Prop44ColorIndex
 90
        5
102
RTVSPost2010Prop44ColorRGB
 90
      255
102
RTVSPost2010PropOp44
 70
     1
102
RTVSPost2010Prop45
280
     0
102
RTVSPost2010PropOp45
 70
     1
102
RTVSPost2010Prop46
 90
       50
102
RTVSPost2010PropOp46
 70
     1
102
RTVSPost2010Prop47
 90
       50
102
RTVSPost2010PropOp47
 70
     1
102
RTVSPost2010Prop48
 90
       50
102
RTVSPost2010PropOp48
 70
     1
102
RTVSPost2010Prop49
280
     0
102
RTVSPost2010PropOp49
 70
     1
102
RTVSPost2010Prop50
 90
       50
102
RTVSPost2010PropOp50
 70
     1
102
RTVSPost2010Prop51ColorIndex
 90
      256
102
RTVSPost2010Prop51ColorRGB
 90
-16777216
102
RTVSPost2010PropOp51
 70
     0
102
RTVSPost2010Prop52
140
1.0
102
RTVSPost2010PropOp52
 70
     0
102
RTVSPost2010Prop53
 90
        2
102
RTVSPost2010PropOp53
 70
     1
102
RTVSPost2010Prop54
  1
strokes_ogs.tif
102
RTVSPost2010PropOp54
 70
     1
102
RTVSPost2010Prop55
280
     0
102
RTVSPost2010PropOp55
 70
     1
102
RTVSPost2010Prop56
140
1.0
102
RTVSPost2010PropOp56
 70
     1
102
RTVSPost2010Prop57
140
1.0
102
RTVSPost2010PropOp57
 70
     1
  0
XRECORD
  5
2F0
102
{ACAD_REACTORS
330
2EF
102
}
330
2EF
100
AcDbXrecord
280
     1
102
RTVSPropertyOp0
 70
     1
102
RTVSPropertyOp1
 70
     1
102
RTVSPropertyOp2
 70
     1
102
RTVSPropertyOp3
 70
     1
102
RTVSPropertyOp4
 70
     1
102
RTVSPropertyOp5
 70
     1
102
RTVSPropertyOp6
 70
     1
102
RTVSPropertyOp7
 70
     1
102
RTVSPropertyOp8
 70
     1
102
RTVSPropertyOp9
 70
     1
102
RTVSPropertyOp10
 70
     1
102
RTVSPropertyOp11
 70
     1
102
RTVSPropertyOp12
 70
     1
102
RTVSPropertyOp13
 70
     1
102
RTVSPropertyOp14
 70
     1
102
RTVSPropertyOp15
 70
     1
102
RTVSPropertyOp16
 70
     1
102
RTVSPropertyOp17
 70
     1
102
RTVSPropertyOp18
 70
     1
102
RTVSPropertyOp19
 70
     1
102
RTVSPropertyOp20
 70
     1
102
RTVSPropertyOp21
 70
     1
102
RTVSPropertyOp22
 70
     1
102
RTVSPropertyOp23
 70
     1
102
RTVSPropertyOp24
 70
     1
102
RTVSPropertyOp25
 70
     1
102
RTVSPropertyOp26
 70
     1
102
RTVSPropertyOp27
 70
     1
102
RTVSPropertyOp28
 70
     1
102
RTVSPropertyOp29
 70
     1
102
RTVSPropertyOp30
 70
     1
102
RTVSPropertyOp31
 70
     1
102
RTVSPropertyOp32
 70
     1
102
RTVSPropertyOp33
 70
     1
102
RTVSPropertyOp34
 70
     1
102
RTVSPropertyOp35
 70
     1
102
RTVSPropertyOp36
 70
     1
102
RTVSPropertyOp37
 70
     1
102
RTVSPropertyOp38
 70
     1
102
RTVSPropertyOp39
 70
     1
102
RTVSPropertyOp40
 70
     1
102
RTVSPropertyOp41
 70
     1
102
RTVSPropertyOp42
 70
     1
102
RTVSPropertyOp43
 70
     1
102
RTVSPropertyOp44
 70
     1
102
RTVSPropertyOp45
 70
     1
102
RTVSPropertyOp46
 70
     1
102
RTVSPropertyOp47
 70
     1
102
RTVSPropertyOp48
 70
     1
102
RTVSPropertyOp49
 70
     1
102
RTVSPropertyOp50
 70
     1
102
RTVSPropertyOp51
 70
     0
102
RTVSPropertyOp52
 70
     0
102
RTVSPropertyOp53
 70
     1
102
RTVSPropertyOp54
 70
     1
102
RTVSPropertyOp55
 70
     1
102
RTVSPropertyOp56
 70
     1
102
RTVSPropertyOp57
 70
     1
102
RTVSPost2010Prop28
280
     0
102
RTVSPost2010PropOp28
 70
     1
102
RTVSPost2010Prop29
280
     1
102
RTVSPost2010PropOp29
 70
     1
102
RTVSPost2010Prop30
280
     1
102
RTVSPost2010PropOp30
 70
     1
102
RTVSPost2010Prop31
280
     0
102
RTVSPost2010PropOp31
 70
     1
102
RTVSPost2010Prop32
280
     0
102
RTVSPost2010PropOp32
 70
     1
102
RTVSPost2010Prop33
280
     0
102
RTVSPost2010PropOp33
 70
     1
102
RTVSPost2010Prop34
280
     0
102
RTVSPost2010PropOp34
 70
     1
102
RTVSPost2010Prop35
280
     0
102
RTVSPost2010PropOp35
 70
     1
102
RTVSPost2010Prop36
280
     0
102
RTVSPost2010PropOp36
 70
     1
102
RTVSPost2010Prop37
 90
       50
102
RTVSPost2010PropOp37
 70
     1
102
RTVSPost2010Prop38
140
0.0
102
RTVSPost2010PropOp38
 70
     1
102
RTVSPost2010Prop39
140
1.0
102
RTVSPost2010PropOp39
 70
     1
102
RTVSPost2010Prop40
 90
        0
102
RTVSPost2010PropOp40
 70
     1
102
RTVSPost2010Prop41ColorIndex
 90
       18
102
RTVSPost2010Prop41ColorRGB
 90
        0
102
RTVSPost2010PropOp41
 70
     1
102
RTVSPost2010Prop42
 90
       50
102
RTVSPost2010PropOp42
 70
     1
102
RTVSPost2010Prop43
 90
        3
102
RTVSPost2010PropOp43
 70
     1
102
RTVSPost2010Prop44ColorIndex
 90
        5
102
RTVSPost2010Prop44ColorRGB
 90
      255
102
RTVSPost2010PropOp44
 70
     1
102
RTVSPost2010Prop45
280
     0
102
RTVSPost2010PropOp45
 70
     1
102
RTVSPost2010Prop46
 90
       50
102
RTVSPost2010PropOp46
 70
     1
102
RTVSPost2010Prop47
 90
       50
102
RTVSPost2010PropOp47
 70
     1
102
RTVSPost2010Prop48
 90
       50
102
RTVSPost2010PropOp48
 70
     1
102
RTVSPost2010Prop49
280
     0
102
RTVSPost2010PropOp49
 70
     1
102
RTVSPost2010Prop50
 90
       50
102
RTVSPost2010PropOp50
 70
     1
102
RTVSPost2010Prop51ColorIndex
 90
      256
102
RTVSPost2010Prop51ColorRGB
 90
-16777216
102
RTVSPost2010PropOp51
 70
     0
102
RTVSPost2010Prop52
140
1.0
102
RTVSPost2010PropOp52
 70
     0
102
RTVSPost2010Prop53
 90
        2
102
RTVSPost2010PropOp53
 70
     1
102
RTVSPost2010Prop54
  1
strokes_ogs.tif
102
RTVSPost2010PropOp54
 70
     1
102
RTVSPost2010Prop55
280
     0
102
RTVSPost2010PropOp55
 70
     1
102
RTVSPost2010Prop56
140
1.0
102
RTVSPost2010PropOp56
 70
     1
102
RTVSPost2010Prop57
140
1.0
102
RTVSPost2010PropOp57
 70
     1
  0
XRECORD
  5
304
102
{ACAD_REACTORS
330
303
102
}
330
303
100
AcDbXrecord
280
     1
102
RTVSPropertyOp0
 70
     0
102
RTVSPropertyOp1
 70
     0
102
RTVSPropertyOp2
 70
     0
102
RTVSPropertyOp3
 70
     0
102
RTVSPropertyOp4
 70
     0
102
RTVSPropertyOp5
 70
     0
102
RTVSPropertyOp6
 70
     0
102
RTVSPropertyOp7
 70
     0
102
RTVSPropertyOp8
 70
     0
102
RTVSPropertyOp9
 70
     0
102
RTVSPropertyOp10
 70
     0
102
RTVSPropertyOp11
 70
     0
102
RTVSPropertyOp12
 70
     0
102
RTVSPropertyOp13
 70
     0
102
RTVSPropertyOp14
 70
     2
102
RTVSPropertyOp15
 70
     0
102
RTVSPropertyOp16
 70
     0
102
RTVSPropertyOp17
 70
     0
102
RTVSPropertyOp18
 70
     0
102
RTVSPropertyOp19
 70
     0
102
RTVSPropertyOp20
 70
     0
102
RTVSPropertyOp21
 70
     0
102
RTVSPropertyOp22
 70
     0
102
RTVSPropertyOp23
 70
     0
102
RTVSPropertyOp24
 70
     0
102
RTVSPropertyOp25
 70
     0
102
RTVSPropertyOp26
 70
     0
102
RTVSPropertyOp27
 70
     0
102
RTVSPropertyOp28
 70
     0
102
RTVSPropertyOp29
 70
     0
102
RTVSPropertyOp30
 70
     0
102
RTVSPropertyOp31
 70
     0
102
RTVSPropertyOp32
 70
     0
102
RTVSPropertyOp33
 70
     0
102
RTVSPropertyOp34
 70
     0
102
RTVSPropertyOp35
 70
     0
102
RTVSPropertyOp36
 70
     0
102
RTVSPropertyOp37
 70
     0
102
RTVSPropertyOp38
 70
     0
102
RTVSPropertyOp39
 70
     0
102
RTVSPropertyOp40
 70
     0
102
RTVSPropertyOp41
 70
     0
102
RTVSPropertyOp42
 70
     0
102
RTVSPropertyOp43
 70
     0
102
RTVSPropertyOp44
 70
     0
102
RTVSPropertyOp45
 70
     0
102
RTVSPropertyOp46
 70
     0
102
RTVSPropertyOp47
 70
     0
102
RTVSPropertyOp48
 70
     0
102
RTVSPropertyOp49
 70
     0
102
RTVSPropertyOp50
 70
     0
102
RTVSPropertyOp51
 70
     0
102
RTVSPropertyOp52
 70
     0
102
RTVSPropertyOp53
 70
     0
102
RTVSPropertyOp54
 70
     0
102
RTVSPropertyOp55
 70
     0
102
RTVSPropertyOp56
 70
     0
102
RTVSPropertyOp57
 70
     0
102
RTVSPost2010Prop28
280
     0
102
RTVSPost2010PropOp28
 70
     0
102
RTVSPost2010Prop29
280
     1
102
RTVSPost2010PropOp29
 70
     0
102
RTVSPost2010Prop30
280
     1
102
RTVSPost2010PropOp30
 70
     0
102
RTVSPost2010Prop31
280
     0
102
RTVSPost2010PropOp31
 70
     0
102
RTVSPost2010Prop32
280
     0
102
RTVSPost2010PropOp32
 70
     0
102
RTVSPost2010Prop33
280
     0
102
RTVSPost2010PropOp33
 70
     0
102
RTVSPost2010Prop34
280
     0
102
RTVSPost2010PropOp34
 70
     0
102
RTVSPost2010Prop35
280
     0
102
RTVSPost2010PropOp35
 70
     0
102
RTVSPost2010Prop36
280
     0
102
RTVSPost2010PropOp36
 70
     0
102
RTVSPost2010Prop37
 90
       50
102
RTVSPost2010PropOp37
 70
     0
102
RTVSPost2010Prop38
140
0.0
102
RTVSPost2010PropOp38
 70
     0
102
RTVSPost2010Prop39
140
1.0
102
RTVSPost2010PropOp39
 70
     0
102
RTVSPost2010Prop40
 90
        0
102
RTVSPost2010PropOp40
 70
     0
102
RTVSPost2010Prop41ColorIndex
 90
       18
102
RTVSPost2010Prop41ColorRGB
 90
        0
102
RTVSPost2010PropOp41
 70
     0
102
RTVSPost2010Prop42
 90
       50
102
RTVSPost2010PropOp42
 70
     0
102
RTVSPost2010Prop43
 90
        3
102
RTVSPost2010PropOp43
 70
     0
102
RTVSPost2010Prop44ColorIndex
 90
        5
102
RTVSPost2010Prop44ColorRGB
 90
      255
102
RTVSPost2010PropOp44
 70
     0
102
RTVSPost2010Prop45
280
     0
102
RTVSPost2010PropOp45
 70
     0
102
RTVSPost2010Prop46
 90
       50
102
RTVSPost2010PropOp46
 70
     0
102
RTVSPost2010Prop47
 90
       50
102
RTVSPost2010PropOp47
 70
     0
102
RTVSPost2010Prop48
 90
       50
102
RTVSPost2010PropOp48
 70
     0
102
RTVSPost2010Prop49
280
     0
102
RTVSPost2010PropOp49
 70
     0
102
RTVSPost2010Prop50
 90
       50
102
RTVSPost2010PropOp50
 70
     0
102
RTVSPost2010Prop51ColorIndex
 90
      256
102
RTVSPost2010Prop51ColorRGB
 90
-16777216
102
RTVSPost2010PropOp51
 70
     0
102
RTVSPost2010Prop52
140
1.0
102
RTVSPost2010PropOp52
 70
     0
102
RTVSPost2010Prop53
 90
        2
102
RTVSPost2010PropOp53
 70
     0
102
RTVSPost2010Prop54
  1
strokes_ogs.tif
102
RTVSPost2010PropOp54
 70
     0
102
RTVSPost2010Prop55
280
     0
102
RTVSPost2010PropOp55
 70
     0
102
RTVSPost2010Prop56
140
1.0
102
RTVSPost2010PropOp56
 70
     0
102
RTVSPost2010Prop57
140
1.0
102
RTVSPost2010PropOp57
 70
     0
  0
XRECORD
  5
2FE
102
{ACAD_REACTORS
330
2FD
102
}
330
2FD
100
AcDbXrecord
280
     1
102
RTVSPropertyOp0
 70
     1
102
RTVSPropertyOp1
 70
     1
102
RTVSPropertyOp2
 70
     1
102
RTVSPropertyOp3
 70
     1
102
RTVSPropertyOp4
 70
     1
102
RTVSPropertyOp5
 70
     1
102
RTVSPropertyOp6
 70
     1
102
RTVSPropertyOp7
 70
     1
102
RTVSPropertyOp8
 70
     1
102
RTVSPropertyOp9
 70
     1
102
RTVSPropertyOp10
 70
     1
102
RTVSPropertyOp11
 70
     1
102
RTVSPropertyOp12
 70
     1
102
RTVSPropertyOp13
 70
     1
102
RTVSPropertyOp14
 70
     1
102
RTVSPropertyOp15
 70
     1
102
RTVSPropertyOp16
 70
     1
102
RTVSPropertyOp17
 70
     1
102
RTVSPropertyOp18
 70
     1
102
RTVSPropertyOp19
 70
     1
102
RTVSPropertyOp20
 70
     1
102
RTVSPropertyOp21
 70
     1
102
RTVSPropertyOp22
 70
     1
102
RTVSPropertyOp23
 70
     1
102
RTVSPropertyOp24
 70
     1
102
RTVSPropertyOp25
 70
     1
102
RTVSPropertyOp26
 70
     1
102
RTVSPropertyOp27
 70
     1
102
RTVSPropertyOp28
 70
     1
102
RTVSPropertyOp29
 70
     1
102
RTVSPropertyOp30
 70
     1
102
RTVSPropertyOp31
 70
     1
102
RTVSPropertyOp32
 70
     1
102
RTVSPropertyOp33
 70
     1
102
RTVSPropertyOp34
 70
     1
102
RTVSPropertyOp35
 70
     1
102
RTVSPropertyOp36
 70
     1
102
RTVSPropertyOp37
 70
     1
102
RTVSPropertyOp38
 70
     1
102
RTVSPropertyOp39
 70
     1
102
RTVSPropertyOp40
 70
     1
102
RTVSPropertyOp41
 70
     1
102
RTVSPropertyOp42
 70
     1
102
RTVSPropertyOp43
 70
     1
102
RTVSPropertyOp44
 70
     1
102
RTVSPropertyOp45
 70
     1
102
RTVSPropertyOp46
 70
     1
102
RTVSPropertyOp47
 70
     1
102
RTVSPropertyOp48
 70
     1
102
RTVSPropertyOp49
 70
     1
102
RTVSPropertyOp50
 70
     1
102
RTVSPropertyOp51
 70
     0
102
RTVSPropertyOp52
 70
     0
102
RTVSPropertyOp53
 70
     1
102
RTVSPropertyOp54
 70
     1
102
RTVSPropertyOp55
 70
     1
102
RTVSPropertyOp56
 70
     1
102
RTVSPropertyOp57
 70
     1
102
RTVSPost2010Prop28
280
     0
102
RTVSPost2010PropOp28
 70
     1
102
RTVSPost2010Prop29
280
     1
102
RTVSPost2010PropOp29
 70
     1
102
RTVSPost2010Prop30
280
     1
102
RTVSPost2010PropOp30
 70
     1
102
RTVSPost2010Prop31
280
     0
102
RTVSPost2010PropOp31
 70
     1
102
RTVSPost2010Prop32
280
     0
102
RTVSPost2010PropOp32
 70
     1
102
RTVSPost2010Prop33
280
     0
102
RTVSPost2010PropOp33
 70
     1
102
RTVSPost2010Prop34
280
     0
102
RTVSPost2010PropOp34
 70
     1
102
RTVSPost2010Prop35
280
     0
102
RTVSPost2010PropOp35
 70
     1
102
RTVSPost2010Prop36
280
     0
102
RTVSPost2010PropOp36
 70
     1
102
RTVSPost2010Prop37
 90
       50
102
RTVSPost2010PropOp37
 70
     1
102
RTVSPost2010Prop38
140
0.0
102
RTVSPost2010PropOp38
 70
     1
102
RTVSPost2010Prop39
140
1.0
102
RTVSPost2010PropOp39
 70
     1
102
RTVSPost2010Prop40
 90
        0
102
RTVSPost2010PropOp40
 70
     1
102
RTVSPost2010Prop41ColorIndex
 90
       18
102
RTVSPost2010Prop41ColorRGB
 90
        0
102
RTVSPost2010PropOp41
 70
     1
102
RTVSPost2010Prop42
 90
       50
102
RTVSPost2010PropOp42
 70
     1
102
RTVSPost2010Prop43
 90
        3
102
RTVSPost2010PropOp43
 70
     1
102
RTVSPost2010Prop44ColorIndex
 90
        5
102
RTVSPost2010Prop44ColorRGB
 90
      255
102
RTVSPost2010PropOp44
 70
     1
102
RTVSPost2010Prop45
280
     0
102
RTVSPost2010PropOp45
 70
     1
102
RTVSPost2010Prop46
 90
       50
102
RTVSPost2010PropOp46
 70
     1
102
RTVSPost2010Prop47
 90
       50
102
RTVSPost2010PropOp47
 70
     1
102
RTVSPost2010Prop48
 90
       50
102
RTVSPost2010PropOp48
 70
     1
102
RTVSPost2010Prop49
280
     0
102
RTVSPost2010PropOp49
 70
     1
102
RTVSPost2010Prop50
 90
       50
102
RTVSPost2010PropOp50
 70
     1
102
RTVSPost2010Prop51ColorIndex
 90
      256
102
RTVSPost2010Prop51ColorRGB
 90
-16777216
102
RTVSPost2010PropOp51
 70
     0
102
RTVSPost2010Prop52
140
1.0
102
RTVSPost2010PropOp52
 70
     0
102
RTVSPost2010Prop53
 90
        2
102
RTVSPost2010PropOp53
 70
     1
102
RTVSPost2010Prop54
  1
strokes_ogs.tif
102
RTVSPost2010PropOp54
 70
     1
102
RTVSPost2010Prop55
280
     0
102
RTVSPost2010PropOp55
 70
     1
102
RTVSPost2010Prop56
140
1.0
102
RTVSPost2010PropOp56
 70
     1
102
RTVSPost2010Prop57
140
1.0
102
RTVSPost2010PropOp57
 70
     1
  0
XRECORD
  5
306
102
{ACAD_REACTORS
330
305
102
}
330
305
100
AcDbXrecord
280
     1
102
RTVSPropertyOp0
 70
     0
102
RTVSPropertyOp1
 70
     0
102
RTVSPropertyOp2
 70
     0
102
RTVSPropertyOp3
 70
     0
102
RTVSPropertyOp4
 70
     0
102
RTVSPropertyOp5
 70
     0
102
RTVSPropertyOp6
 70
     0
102
RTVSPropertyOp7
 70
     0
102
RTVSPropertyOp8
 70
     0
102
RTVSPropertyOp9
 70
     0
102
RTVSPropertyOp10
 70
     0
102
RTVSPropertyOp11
 70
     0
102
RTVSPropertyOp12
 70
     0
102
RTVSPropertyOp13
 70
     0
102
RTVSPropertyOp14
 70
     2
102
RTVSPropertyOp15
 70
     0
102
RTVSPropertyOp16
 70
     0
102
RTVSPropertyOp17
 70
     0
102
RTVSPropertyOp18
 70
     0
102
RTVSPropertyOp19
 70
     0
102
RTVSPropertyOp20
 70
     0
102
RTVSPropertyOp21
 70
     0
102
RTVSPropertyOp22
 70
     0
102
RTVSPropertyOp23
 70
     0
102
RTVSPropertyOp24
 70
     0
102
RTVSPropertyOp25
 70
     0
102
RTVSPropertyOp26
 70
     0
102
RTVSPropertyOp27
 70
     0
102
RTVSPropertyOp28
 70
     0
102
RTVSPropertyOp29
 70
     0
102
RTVSPropertyOp30
 70
     0
102
RTVSPropertyOp31
 70
     0
102
RTVSPropertyOp32
 70
     0
102
RTVSPropertyOp33
 70
     0
102
RTVSPropertyOp34
 70
     0
102
RTVSPropertyOp35
 70
     0
102
RTVSPropertyOp36
 70
     0
102
RTVSPropertyOp37
 70
     0
102
RTVSPropertyOp38
 70
     0
102
RTVSPropertyOp39
 70
     0
102
RTVSPropertyOp40
 70
     0
102
RTVSPropertyOp41
 70
     0
102
RTVSPropertyOp42
 70
     0
102
RTVSPropertyOp43
 70
     0
102
RTVSPropertyOp44
 70
     0
102
RTVSPropertyOp45
 70
     0
102
RTVSPropertyOp46
 70
     0
102
RTVSPropertyOp47
 70
     0
102
RTVSPropertyOp48
 70
     0
102
RTVSPropertyOp49
 70
     0
102
RTVSPropertyOp50
 70
     0
102
RTVSPropertyOp51
 70
     0
102
RTVSPropertyOp52
 70
     0
102
RTVSPropertyOp53
 70
     0
102
RTVSPropertyOp54
 70
     0
102
RTVSPropertyOp55
 70
     0
102
RTVSPropertyOp56
 70
     0
102
RTVSPropertyOp57
 70
     0
102
RTVSPost2010Prop28
280
     0
102
RTVSPost2010PropOp28
 70
     0
102
RTVSPost2010Prop29
280
     1
102
RTVSPost2010PropOp29
 70
     0
102
RTVSPost2010Prop30
280
     1
102
RTVSPost2010PropOp30
 70
     0
102
RTVSPost2010Prop31
280
     0
102
RTVSPost2010PropOp31
 70
     0
102
RTVSPost2010Prop32
280
     0
102
RTVSPost2010PropOp32
 70
     0
102
RTVSPost2010Prop33
280
     0
102
RTVSPost2010PropOp33
 70
     0
102
RTVSPost2010Prop34
280
     0
102
RTVSPost2010PropOp34
 70
     0
102
RTVSPost2010Prop35
280
     0
102
RTVSPost2010PropOp35
 70
     0
102
RTVSPost2010Prop36
280
     0
102
RTVSPost2010PropOp36
 70
     0
102
RTVSPost2010Prop37
 90
       50
102
RTVSPost2010PropOp37
 70
     0
102
RTVSPost2010Prop38
140
0.0
102
RTVSPost2010PropOp38
 70
     0
102
RTVSPost2010Prop39
140
1.0
102
RTVSPost2010PropOp39
 70
     0
102
RTVSPost2010Prop40
 90
        0
102
RTVSPost2010PropOp40
 70
     0
102
RTVSPost2010Prop41ColorIndex
 90
       18
102
RTVSPost2010Prop41ColorRGB
 90
        0
102
RTVSPost2010PropOp41
 70
     0
102
RTVSPost2010Prop42
 90
       50
102
RTVSPost2010PropOp42
 70
     0
102
RTVSPost2010Prop43
 90
        3
102
RTVSPost2010PropOp43
 70
     0
102
RTVSPost2010Prop44ColorIndex
 90
        5
102
RTVSPost2010Prop44ColorRGB
 90
      255
102
RTVSPost2010PropOp44
 70
     0
102
RTVSPost2010Prop45
280
     0
102
RTVSPost2010PropOp45
 70
     0
102
RTVSPost2010Prop46
 90
       50
102
RTVSPost2010PropOp46
 70
     0
102
RTVSPost2010Prop47
 90
       50
102
RTVSPost2010PropOp47
 70
     0
102
RTVSPost2010Prop48
 90
       50
102
RTVSPost2010PropOp48
 70
     0
102
RTVSPost2010Prop49
280
     0
102
RTVSPost2010PropOp49
 70
     0
102
RTVSPost2010Prop50
 90
       50
102
RTVSPost2010PropOp50
 70
     0
102
RTVSPost2010Prop51ColorIndex
 90
      256
102
RTVSPost2010Prop51ColorRGB
 90
-16777216
102
RTVSPost2010PropOp51
 70
     0
102
RTVSPost2010Prop52
140
1.0
102
RTVSPost2010PropOp52
 70
     0
102
RTVSPost2010Prop53
 90
        2
102
RTVSPost2010PropOp53
 70
     0
102
RTVSPost2010Prop54
  1
strokes_ogs.tif
102
RTVSPost2010PropOp54
 70
     0
102
RTVSPost2010Prop55
280
     0
102
RTVSPost2010PropOp55
 70
     0
102
RTVSPost2010Prop56
140
1.0
102
RTVSPost2010PropOp56
 70
     0
102
RTVSPost2010Prop57
140
1.0
102
RTVSPost2010PropOp57
 70
     0
  0
XRECORD
  5
2F4
102
{ACAD_REACTORS
330
2F3
102
}
330
2F3
100
AcDbXrecord
280
     1
102
RTVSPropertyOp0
 70
     1
102
RTVSPropertyOp1
 70
     1
102
RTVSPropertyOp2
 70
     1
102
RTVSPropertyOp3
 70
     1
102
RTVSPropertyOp4
 70
     1
102
RTVSPropertyOp5
 70
     1
102
RTVSPropertyOp6
 70
     1
102
RTVSPropertyOp7
 70
     1
102
RTVSPropertyOp8
 70
     1
102
RTVSPropertyOp9
 70
     1
102
RTVSPropertyOp10
 70
     1
102
RTVSPropertyOp11
 70
     1
102
RTVSPropertyOp12
 70
     1
102
RTVSPropertyOp13
 70
     1
102
RTVSPropertyOp14
 70
     1
102
RTVSPropertyOp15
 70
     1
102
RTVSPropertyOp16
 70
     1
102
RTVSPropertyOp17
 70
     1
102
RTVSPropertyOp18
 70
     1
102
RTVSPropertyOp19
 70
     1
102
RTVSPropertyOp20
 70
     1
102
RTVSPropertyOp21
 70
     1
102
RTVSPropertyOp22
 70
     1
102
RTVSPropertyOp23
 70
     1
102
RTVSPropertyOp24
 70
     1
102
RTVSPropertyOp25
 70
     1
102
RTVSPropertyOp26
 70
     1
102
RTVSPropertyOp27
 70
     1
102
RTVSPropertyOp28
 70
     1
102
RTVSPropertyOp29
 70
     1
102
RTVSPropertyOp30
 70
     1
102
RTVSPropertyOp31
 70
     1
102
RTVSPropertyOp32
 70
     1
102
RTVSPropertyOp33
 70
     1
102
RTVSPropertyOp34
 70
     1
102
RTVSPropertyOp35
 70
     1
102
RTVSPropertyOp36
 70
     1
102
RTVSPropertyOp37
 70
     1
102
RTVSPropertyOp38
 70
     1
102
RTVSPropertyOp39
 70
     1
102
RTVSPropertyOp40
 70
     1
102
RTVSPropertyOp41
 70
     1
102
RTVSPropertyOp42
 70
     1
102
RTVSPropertyOp43
 70
     1
102
RTVSPropertyOp44
 70
     1
102
RTVSPropertyOp45
 70
     1
102
RTVSPropertyOp46
 70
     1
102
RTVSPropertyOp47
 70
     1
102
RTVSPropertyOp48
 70
     1
102
RTVSPropertyOp49
 70
     1
102
RTVSPropertyOp50
 70
     1
102
RTVSPropertyOp51
 70
     0
102
RTVSPropertyOp52
 70
     0
102
RTVSPropertyOp53
 70
     1
102
RTVSPropertyOp54
 70
     1
102
RTVSPropertyOp55
 70
     1
102
RTVSPropertyOp56
 70
     1
102
RTVSPropertyOp57
 70
     1
102
RTVSPost2010Prop28
280
     0
102
RTVSPost2010PropOp28
 70
     1
102
RTVSPost2010Prop29
280
     1
102
RTVSPost2010PropOp29
 70
     1
102
RTVSPost2010Prop30
280
     1
102
RTVSPost2010PropOp30
 70
     1
102
RTVSPost2010Prop31
280
     0
102
RTVSPost2010PropOp31
 70
     1
102
RTVSPost2010Prop32
280
     0
102
RTVSPost2010PropOp32
 70
     1
102
RTVSPost2010Prop33
280
     0
102
RTVSPost2010PropOp33
 70
     1
102
RTVSPost2010Prop34
280
     0
102
RTVSPost2010PropOp34
 70
     1
102
RTVSPost2010Prop35
280
     0
102
RTVSPost2010PropOp35
 70
     1
102
RTVSPost2010Prop36
280
     0
102
RTVSPost2010PropOp36
 70
     1
102
RTVSPost2010Prop37
 90
       50
102
RTVSPost2010PropOp37
 70
     1
102
RTVSPost2010Prop38
140
0.0
102
RTVSPost2010PropOp38
 70
     1
102
RTVSPost2010Prop39
140
1.0
102
RTVSPost2010PropOp39
 70
     1
102
RTVSPost2010Prop40
 90
        0
102
RTVSPost2010PropOp40
 70
     1
102
RTVSPost2010Prop41ColorIndex
 90
       18
102
RTVSPost2010Prop41ColorRGB
 90
        0
102
RTVSPost2010PropOp41
 70
     1
102
RTVSPost2010Prop42
 90
       50
102
RTVSPost2010PropOp42
 70
     1
102
RTVSPost2010Prop43
 90
        3
102
RTVSPost2010PropOp43
 70
     1
102
RTVSPost2010Prop44ColorIndex
 90
        5
102
RTVSPost2010Prop44ColorRGB
 90
      255
102
RTVSPost2010PropOp44
 70
     1
102
RTVSPost2010Prop45
280
     0
102
RTVSPost2010PropOp45
 70
     1
102
RTVSPost2010Prop46
 90
       50
102
RTVSPost2010PropOp46
 70
     1
102
RTVSPost2010Prop47
 90
       50
102
RTVSPost2010PropOp47
 70
     1
102
RTVSPost2010Prop48
 90
       50
102
RTVSPost2010PropOp48
 70
     1
102
RTVSPost2010Prop49
280
     0
102
RTVSPost2010PropOp49
 70
     1
102
RTVSPost2010Prop50
 90
       50
102
RTVSPost2010PropOp50
 70
     1
102
RTVSPost2010Prop51ColorIndex
 90
      256
102
RTVSPost2010Prop51ColorRGB
 90
-16777216
102
RTVSPost2010PropOp51
 70
     0
102
RTVSPost2010Prop52
140
1.0
102
RTVSPost2010PropOp52
 70
     0
102
RTVSPost2010Prop53
 90
        2
102
RTVSPost2010PropOp53
 70
     1
102
RTVSPost2010Prop54
  1
strokes_ogs.tif
102
RTVSPost2010PropOp54
 70
     1
102
RTVSPost2010Prop55
280
     0
102
RTVSPost2010PropOp55
 70
     1
102
RTVSPost2010Prop56
140
1.0
102
RTVSPost2010PropOp56
 70
     1
102
RTVSPost2010Prop57
140
1.0
102
RTVSPost2010PropOp57
 70
     1
  0
XRECORD
  5
312
102
{ACAD_REACTORS
330
311
102
}
330
311
100
AcDbXrecord
280
     1
102
RTVSPropertyOp0
 70
     1
102
RTVSPropertyOp1
 70
     1
102
RTVSPropertyOp2
 70
     1
102
RTVSPropertyOp3
 70
     1
102
RTVSPropertyOp4
 70
     1
102
RTVSPropertyOp5
 70
     1
102
RTVSPropertyOp6
 70
     1
102
RTVSPropertyOp7
 70
     1
102
RTVSPropertyOp8
 70
     1
102
RTVSPropertyOp9
 70
     1
102
RTVSPropertyOp10
 70
     1
102
RTVSPropertyOp11
 70
     1
102
RTVSPropertyOp12
 70
     1
102
RTVSPropertyOp13
 70
     1
102
RTVSPropertyOp14
 70
     1
102
RTVSPropertyOp15
 70
     1
102
RTVSPropertyOp16
 70
     1
102
RTVSPropertyOp17
 70
     1
102
RTVSPropertyOp18
 70
     1
102
RTVSPropertyOp19
 70
     1
102
RTVSPropertyOp20
 70
     1
102
RTVSPropertyOp21
 70
     1
102
RTVSPropertyOp22
 70
     1
102
RTVSPropertyOp23
 70
     1
102
RTVSPropertyOp24
 70
     1
102
RTVSPropertyOp25
 70
     1
102
RTVSPropertyOp26
 70
     1
102
RTVSPropertyOp27
 70
     1
102
RTVSPropertyOp28
 70
     1
102
RTVSPropertyOp29
 70
     1
102
RTVSPropertyOp30
 70
     1
102
RTVSPropertyOp31
 70
     1
102
RTVSPropertyOp32
 70
     1
102
RTVSPropertyOp33
 70
     1
102
RTVSPropertyOp34
 70
     1
102
RTVSPropertyOp35
 70
     1
102
RTVSPropertyOp36
 70
     1
102
RTVSPropertyOp37
 70
     1
102
RTVSPropertyOp38
 70
     1
102
RTVSPropertyOp39
 70
     1
102
RTVSPropertyOp40
 70
     1
102
RTVSPropertyOp41
 70
     1
102
RTVSPropertyOp42
 70
     1
102
RTVSPropertyOp43
 70
     1
102
RTVSPropertyOp44
 70
     1
102
RTVSPropertyOp45
 70
     1
102
RTVSPropertyOp46
 70
     1
102
RTVSPropertyOp47
 70
     1
102
RTVSPropertyOp48
 70
     1
102
RTVSPropertyOp49
 70
     1
102
RTVSPropertyOp50
 70
     1
102
RTVSPropertyOp51
 70
     0
102
RTVSPropertyOp52
 70
     0
102
RTVSPropertyOp53
 70
     1
102
RTVSPropertyOp54
 70
     1
102
RTVSPropertyOp55
 70
     1
102
RTVSPropertyOp56
 70
     1
102
RTVSPropertyOp57
 70
     1
102
RTVSPost2010Prop28
280
     0
102
RTVSPost2010PropOp28
 70
     1
102
RTVSPost2010Prop29
280
     1
102
RTVSPost2010PropOp29
 70
     1
102
RTVSPost2010Prop30
280
     1
102
RTVSPost2010PropOp30
 70
     1
102
RTVSPost2010Prop31
280
     0
102
RTVSPost2010PropOp31
 70
     1
102
RTVSPost2010Prop32
280
     0
102
RTVSPost2010PropOp32
 70
     1
102
RTVSPost2010Prop33
280
     0
102
RTVSPost2010PropOp33
 70
     1
102
RTVSPost2010Prop34
280
     0
102
RTVSPost2010PropOp34
 70
     1
102
RTVSPost2010Prop35
280
     0
102
RTVSPost2010PropOp35
 70
     1
102
RTVSPost2010Prop36
280
     0
102
RTVSPost2010PropOp36
 70
     1
102
RTVSPost2010Prop37
 90
       50
102
RTVSPost2010PropOp37
 70
     1
102
RTVSPost2010Prop38
140
0.0
102
RTVSPost2010PropOp38
 70
     1
102
RTVSPost2010Prop39
140
1.0
102
RTVSPost2010PropOp39
 70
     1
102
RTVSPost2010Prop40
 90
        0
102
RTVSPost2010PropOp40
 70
     1
102
RTVSPost2010Prop41ColorIndex
 90
       18
102
RTVSPost2010Prop41ColorRGB
 90
        0
102
RTVSPost2010PropOp41
 70
     1
102
RTVSPost2010Prop42
 90
       50
102
RTVSPost2010PropOp42
 70
     1
102
RTVSPost2010Prop43
 90
        3
102
RTVSPost2010PropOp43
 70
     1
102
RTVSPost2010Prop44ColorIndex
 90
        5
102
RTVSPost2010Prop44ColorRGB
 90
      255
102
RTVSPost2010PropOp44
 70
     1
102
RTVSPost2010Prop45
280
     0
102
RTVSPost2010PropOp45
 70
     1
102
RTVSPost2010Prop46
 90
       50
102
RTVSPost2010PropOp46
 70
     1
102
RTVSPost2010Prop47
 90
       50
102
RTVSPost2010PropOp47
 70
     1
102
RTVSPost2010Prop48
 90
       50
102
RTVSPost2010PropOp48
 70
     1
102
RTVSPost2010Prop49
280
     0
102
RTVSPost2010PropOp49
 70
     1
102
RTVSPost2010Prop50
 90
       50
102
RTVSPost2010PropOp50
 70
     1
102
RTVSPost2010Prop51ColorIndex
 90
      256
102
RTVSPost2010Prop51ColorRGB
 90
-16777216
102
RTVSPost2010PropOp51
 70
     0
102
RTVSPost2010Prop52
140
1.0
102
RTVSPost2010PropOp52
 70
     0
102
RTVSPost2010Prop53
 90
        2
102
RTVSPost2010PropOp53
 70
     1
102
RTVSPost2010Prop54
  1
strokes_ogs.tif
102
RTVSPost2010PropOp54
 70
     1
102
RTVSPost2010Prop55
280
     0
102
RTVSPost2010PropOp55
 70
     1
102
RTVSPost2010Prop56
140
1.0
102
RTVSPost2010PropOp56
 70
     1
102
RTVSPost2010Prop57
140
1.0
102
RTVSPost2010PropOp57
 70
     1
  0
XRECORD
  5
310
102
{ACAD_REACTORS
330
30F
102
}
330
30F
100
AcDbXrecord
280
     1
102
RTVSPropertyOp0
 70
     1
102
RTVSPropertyOp1
 70
     1
102
RTVSPropertyOp2
 70
     1
102
RTVSPropertyOp3
 70
     1
102
RTVSPropertyOp4
 70
     1
102
RTVSPropertyOp5
 70
     1
102
RTVSPropertyOp6
 70
     1
102
RTVSPropertyOp7
 70
     1
102
RTVSPropertyOp8
 70
     1
102
RTVSPropertyOp9
 70
     1
102
RTVSPropertyOp10
 70
     1
102
RTVSPropertyOp11
 70
     1
102
RTVSPropertyOp12
 70
     1
102
RTVSPropertyOp13
 70
     1
102
RTVSPropertyOp14
 70
     1
102
RTVSPropertyOp15
 70
     1
102
RTVSPropertyOp16
 70
     1
102
RTVSPropertyOp17
 70
     1
102
RTVSPropertyOp18
 70
     1
102
RTVSPropertyOp19
 70
     1
102
RTVSPropertyOp20
 70
     1
102
RTVSPropertyOp21
 70
     1
102
RTVSPropertyOp22
 70
     1
102
RTVSPropertyOp23
 70
     1
102
RTVSPropertyOp24
 70
     1
102
RTVSPropertyOp25
 70
     1
102
RTVSPropertyOp26
 70
     1
102
RTVSPropertyOp27
 70
     1
102
RTVSPropertyOp28
 70
     1
102
RTVSPropertyOp29
 70
     1
102
RTVSPropertyOp30
 70
     1
102
RTVSPropertyOp31
 70
     1
102
RTVSPropertyOp32
 70
     1
102
RTVSPropertyOp33
 70
     1
102
RTVSPropertyOp34
 70
     1
102
RTVSPropertyOp35
 70
     1
102
RTVSPropertyOp36
 70
     1
102
RTVSPropertyOp37
 70
     1
102
RTVSPropertyOp38
 70
     1
102
RTVSPropertyOp39
 70
     1
102
RTVSPropertyOp40
 70
     1
102
RTVSPropertyOp41
 70
     1
102
RTVSPropertyOp42
 70
     1
102
RTVSPropertyOp43
 70
     1
102
RTVSPropertyOp44
 70
     1
102
RTVSPropertyOp45
 70
     1
102
RTVSPropertyOp46
 70
     1
102
RTVSPropertyOp47
 70
     1
102
RTVSPropertyOp48
 70
     1
102
RTVSPropertyOp49
 70
     1
102
RTVSPropertyOp50
 70
     1
102
RTVSPropertyOp51
 70
     0
102
RTVSPropertyOp52
 70
     0
102
RTVSPropertyOp53
 70
     1
102
RTVSPropertyOp54
 70
     1
102
RTVSPropertyOp55
 70
     1
102
RTVSPropertyOp56
 70
     1
102
RTVSPropertyOp57
 70
     1
102
RTVSPost2010Prop28
280
     0
102
RTVSPost2010PropOp28
 70
     1
102
RTVSPost2010Prop29
280
     1
102
RTVSPost2010PropOp29
 70
     1
102
RTVSPost2010Prop30
280
     1
102
RTVSPost2010PropOp30
 70
     1
102
RTVSPost2010Prop31
280
     0
102
RTVSPost2010PropOp31
 70
     1
102
RTVSPost2010Prop32
280
     0
102
RTVSPost2010PropOp32
 70
     1
102
RTVSPost2010Prop33
280
     0
102
RTVSPost2010PropOp33
 70
     1
102
RTVSPost2010Prop34
280
     0
102
RTVSPost2010PropOp34
 70
     1
102
RTVSPost2010Prop35
280
     0
102
RTVSPost2010PropOp35
 70
     1
102
RTVSPost2010Prop36
280
     0
102
RTVSPost2010PropOp36
 70
     1
102
RTVSPost2010Prop37
 90
       50
102
RTVSPost2010PropOp37
 70
     1
102
RTVSPost2010Prop38
140
0.0
102
RTVSPost2010PropOp38
 70
     1
102
RTVSPost2010Prop39
140
1.0
102
RTVSPost2010PropOp39
 70
     1
102
RTVSPost2010Prop40
 90
        0
102
RTVSPost2010PropOp40
 70
     1
102
RTVSPost2010Prop41ColorIndex
 90
       18
102
RTVSPost2010Prop41ColorRGB
 90
        0
102
RTVSPost2010PropOp41
 70
     1
102
RTVSPost2010Prop42
 90
       50
102
RTVSPost2010PropOp42
 70
     1
102
RTVSPost2010Prop43
 90
        3
102
RTVSPost2010PropOp43
 70
     1
102
RTVSPost2010Prop44ColorIndex
 90
        5
102
RTVSPost2010Prop44ColorRGB
 90
      255
102
RTVSPost2010PropOp44
 70
     1
102
RTVSPost2010Prop45
280
     0
102
RTVSPost2010PropOp45
 70
     1
102
RTVSPost2010Prop46
 90
       50
102
RTVSPost2010PropOp46
 70
     1
102
RTVSPost2010Prop47
 90
       50
102
RTVSPost2010PropOp47
 70
     1
102
RTVSPost2010Prop48
 90
       50
102
RTVSPost2010PropOp48
 70
     1
102
RTVSPost2010Prop49
280
     0
102
RTVSPost2010PropOp49
 70
     1
102
RTVSPost2010Prop50
 90
       50
102
RTVSPost2010PropOp50
 70
     1
102
RTVSPost2010Prop51ColorIndex
 90
      256
102
RTVSPost2010Prop51ColorRGB
 90
-16777216
102
RTVSPost2010PropOp51
 70
     0
102
RTVSPost2010Prop52
140
1.0
102
RTVSPost2010PropOp52
 70
     0
102
RTVSPost2010Prop53
 90
        2
102
RTVSPost2010PropOp53
 70
     1
102
RTVSPost2010Prop54
  1
strokes_ogs.tif
102
RTVSPost2010PropOp54
 70
     1
102
RTVSPost2010Prop55
280
     0
102
RTVSPost2010PropOp55
 70
     1
102
RTVSPost2010Prop56
140
1.0
102
RTVSPost2010PropOp56
 70
     1
102
RTVSPost2010Prop57
140
1.0
102
RTVSPost2010PropOp57
 70
     1
  0
XRECORD
  5
30A
102
{ACAD_REACTORS
330
309
102
}
330
309
100
AcDbXrecord
280
     1
102
RTVSPropertyOp0
 70
     1
102
RTVSPropertyOp1
 70
     1
102
RTVSPropertyOp2
 70
     1
102
RTVSPropertyOp3
 70
     1
102
RTVSPropertyOp4
 70
     1
102
RTVSPropertyOp5
 70
     1
102
RTVSPropertyOp6
 70
     1
102
RTVSPropertyOp7
 70
     1
102
RTVSPropertyOp8
 70
     1
102
RTVSPropertyOp9
 70
     1
102
RTVSPropertyOp10
 70
     1
102
RTVSPropertyOp11
 70
     1
102
RTVSPropertyOp12
 70
     1
102
RTVSPropertyOp13
 70
     1
102
RTVSPropertyOp14
 70
     1
102
RTVSPropertyOp15
 70
     1
102
RTVSPropertyOp16
 70
     1
102
RTVSPropertyOp17
 70
     1
102
RTVSPropertyOp18
 70
     1
102
RTVSPropertyOp19
 70
     1
102
RTVSPropertyOp20
 70
     1
102
RTVSPropertyOp21
 70
     1
102
RTVSPropertyOp22
 70
     1
102
RTVSPropertyOp23
 70
     1
102
RTVSPropertyOp24
 70
     1
102
RTVSPropertyOp25
 70
     1
102
RTVSPropertyOp26
 70
     1
102
RTVSPropertyOp27
 70
     1
102
RTVSPropertyOp28
 70
     1
102
RTVSPropertyOp29
 70
     1
102
RTVSPropertyOp30
 70
     1
102
RTVSPropertyOp31
 70
     1
102
RTVSPropertyOp32
 70
     1
102
RTVSPropertyOp33
 70
     1
102
RTVSPropertyOp34
 70
     1
102
RTVSPropertyOp35
 70
     1
102
RTVSPropertyOp36
 70
     1
102
RTVSPropertyOp37
 70
     1
102
RTVSPropertyOp38
 70
     1
102
RTVSPropertyOp39
 70
     1
102
RTVSPropertyOp40
 70
     1
102
RTVSPropertyOp41
 70
     1
102
RTVSPropertyOp42
 70
     1
102
RTVSPropertyOp43
 70
     1
102
RTVSPropertyOp44
 70
     1
102
RTVSPropertyOp45
 70
     1
102
RTVSPropertyOp46
 70
     1
102
RTVSPropertyOp47
 70
     1
102
RTVSPropertyOp48
 70
     1
102
RTVSPropertyOp49
 70
     1
102
RTVSPropertyOp50
 70
     1
102
RTVSPropertyOp51
 70
     0
102
RTVSPropertyOp52
 70
     0
102
RTVSPropertyOp53
 70
     1
102
RTVSPropertyOp54
 70
     1
102
RTVSPropertyOp55
 70
     1
102
RTVSPropertyOp56
 70
     1
102
RTVSPropertyOp57
 70
     1
102
RTVSPost2010Prop28
280
     0
102
RTVSPost2010PropOp28
 70
     1
102
RTVSPost2010Prop29
280
     1
102
RTVSPost2010PropOp29
 70
     1
102
RTVSPost2010Prop30
280
     1
102
RTVSPost2010PropOp30
 70
     1
102
RTVSPost2010Prop31
280
     0
102
RTVSPost2010PropOp31
 70
     1
102
RTVSPost2010Prop32
280
     0
102
RTVSPost2010PropOp32
 70
     1
102
RTVSPost2010Prop33
280
     0
102
RTVSPost2010PropOp33
 70
     1
102
RTVSPost2010Prop34
280
     0
102
RTVSPost2010PropOp34
 70
     1
102
RTVSPost2010Prop35
280
     0
102
RTVSPost2010PropOp35
 70
     1
102
RTVSPost2010Prop36
280
     0
102
RTVSPost2010PropOp36
 70
     1
102
RTVSPost2010Prop37
 90
       50
102
RTVSPost2010PropOp37
 70
     1
102
RTVSPost2010Prop38
140
0.0
102
RTVSPost2010PropOp38
 70
     1
102
RTVSPost2010Prop39
140
1.0
102
RTVSPost2010PropOp39
 70
     1
102
RTVSPost2010Prop40
 90
        0
102
RTVSPost2010PropOp40
 70
     1
102
RTVSPost2010Prop41ColorIndex
 90
       18
102
RTVSPost2010Prop41ColorRGB
 90
        0
102
RTVSPost2010PropOp41
 70
     1
102
RTVSPost2010Prop42
 90
       50
102
RTVSPost2010PropOp42
 70
     1
102
RTVSPost2010Prop43
 90
        3
102
RTVSPost2010PropOp43
 70
     1
102
RTVSPost2010Prop44ColorIndex
 90
        5
102
RTVSPost2010Prop44ColorRGB
 90
      255
102
RTVSPost2010PropOp44
 70
     1
102
RTVSPost2010Prop45
280
     0
102
RTVSPost2010PropOp45
 70
     1
102
RTVSPost2010Prop46
 90
       50
102
RTVSPost2010PropOp46
 70
     1
102
RTVSPost2010Prop47
 90
       50
102
RTVSPost2010PropOp47
 70
     1
102
RTVSPost2010Prop48
 90
       50
102
RTVSPost2010PropOp48
 70
     1
102
RTVSPost2010Prop49
280
     0
102
RTVSPost2010PropOp49
 70
     1
102
RTVSPost2010Prop50
 90
       50
102
RTVSPost2010PropOp50
 70
     1
102
RTVSPost2010Prop51ColorIndex
 90
      256
102
RTVSPost2010Prop51ColorRGB
 90
-16777216
102
RTVSPost2010PropOp51
 70
     0
102
RTVSPost2010Prop52
140
1.0
102
RTVSPost2010PropOp52
 70
     0
102
RTVSPost2010Prop53
 90
        2
102
RTVSPost2010PropOp53
 70
     1
102
RTVSPost2010Prop54
  1
strokes_ogs.tif
102
RTVSPost2010PropOp54
 70
     1
102
RTVSPost2010Prop55
280
     0
102
RTVSPost2010PropOp55
 70
     1
102
RTVSPost2010Prop56
140
1.0
102
RTVSPost2010PropOp56
 70
     1
102
RTVSPost2010Prop57
140
1.0
102
RTVSPost2010PropOp57
 70
     1
  0
XRECORD
  5
30C
102
{ACAD_REACTORS
330
30B
102
}
330
30B
100
AcDbXrecord
280
     1
102
RTVSPropertyOp0
 70
     1
102
RTVSPropertyOp1
 70
     1
102
RTVSPropertyOp2
 70
     1
102
RTVSPropertyOp3
 70
     1
102
RTVSPropertyOp4
 70
     1
102
RTVSPropertyOp5
 70
     1
102
RTVSPropertyOp6
 70
     1
102
RTVSPropertyOp7
 70
     1
102
RTVSPropertyOp8
 70
     1
102
RTVSPropertyOp9
 70
     1
102
RTVSPropertyOp10
 70
     1
102
RTVSPropertyOp11
 70
     1
102
RTVSPropertyOp12
 70
     1
102
RTVSPropertyOp13
 70
     1
102
RTVSPropertyOp14
 70
     1
102
RTVSPropertyOp15
 70
     1
102
RTVSPropertyOp16
 70
     1
102
RTVSPropertyOp17
 70
     1
102
RTVSPropertyOp18
 70
     1
102
RTVSPropertyOp19
 70
     1
102
RTVSPropertyOp20
 70
     1
102
RTVSPropertyOp21
 70
     1
102
RTVSPropertyOp22
 70
     1
102
RTVSPropertyOp23
 70
     1
102
RTVSPropertyOp24
 70
     1
102
RTVSPropertyOp25
 70
     1
102
RTVSPropertyOp26
 70
     1
102
RTVSPropertyOp27
 70
     1
102
RTVSPropertyOp28
 70
     1
102
RTVSPropertyOp29
 70
     1
102
RTVSPropertyOp30
 70
     1
102
RTVSPropertyOp31
 70
     1
102
RTVSPropertyOp32
 70
     1
102
RTVSPropertyOp33
 70
     1
102
RTVSPropertyOp34
 70
     1
102
RTVSPropertyOp35
 70
     1
102
RTVSPropertyOp36
 70
     1
102
RTVSPropertyOp37
 70
     1
102
RTVSPropertyOp38
 70
     1
102
RTVSPropertyOp39
 70
     1
102
RTVSPropertyOp40
 70
     1
102
RTVSPropertyOp41
 70
     1
102
RTVSPropertyOp42
 70
     1
102
RTVSPropertyOp43
 70
     1
102
RTVSPropertyOp44
 70
     1
102
RTVSPropertyOp45
 70
     1
102
RTVSPropertyOp46
 70
     1
102
RTVSPropertyOp47
 70
     1
102
RTVSPropertyOp48
 70
     1
102
RTVSPropertyOp49
 70
     1
102
RTVSPropertyOp50
 70
     1
102
RTVSPropertyOp51
 70
     0
102
RTVSPropertyOp52
 70
     0
102
RTVSPropertyOp53
 70
     1
102
RTVSPropertyOp54
 70
     1
102
RTVSPropertyOp55
 70
     1
102
RTVSPropertyOp56
 70
     1
102
RTVSPropertyOp57
 70
     1
102
RTVSPost2010Prop28
280
     0
102
RTVSPost2010PropOp28
 70
     1
102
RTVSPost2010Prop29
280
     1
102
RTVSPost2010PropOp29
 70
     1
102
RTVSPost2010Prop30
280
     1
102
RTVSPost2010PropOp30
 70
     1
102
RTVSPost2010Prop31
280
     0
102
RTVSPost2010PropOp31
 70
     1
102
RTVSPost2010Prop32
280
     0
102
RTVSPost2010PropOp32
 70
     1
102
RTVSPost2010Prop33
280
     0
102
RTVSPost2010PropOp33
 70
     1
102
RTVSPost2010Prop34
280
     0
102
RTVSPost2010PropOp34
 70
     1
102
RTVSPost2010Prop35
280
     0
102
RTVSPost2010PropOp35
 70
     1
102
RTVSPost2010Prop36
280
     0
102
RTVSPost2010PropOp36
 70
     1
102
RTVSPost2010Prop37
 90
       50
102
RTVSPost2010PropOp37
 70
     1
102
RTVSPost2010Prop38
140
0.0
102
RTVSPost2010PropOp38
 70
     1
102
RTVSPost2010Prop39
140
1.0
102
RTVSPost2010PropOp39
 70
     1
102
RTVSPost2010Prop40
 90
        0
102
RTVSPost2010PropOp40
 70
     1
102
RTVSPost2010Prop41ColorIndex
 90
       18
102
RTVSPost2010Prop41ColorRGB
 90
        0
102
RTVSPost2010PropOp41
 70
     1
102
RTVSPost2010Prop42
 90
       50
102
RTVSPost2010PropOp42
 70
     1
102
RTVSPost2010Prop43
 90
        3
102
RTVSPost2010PropOp43
 70
     1
102
RTVSPost2010Prop44ColorIndex
 90
        5
102
RTVSPost2010Prop44ColorRGB
 90
      255
102
RTVSPost2010PropOp44
 70
     1
102
RTVSPost2010Prop45
280
     0
102
RTVSPost2010PropOp45
 70
     1
102
RTVSPost2010Prop46
 90
       50
102
RTVSPost2010PropOp46
 70
     1
102
RTVSPost2010Prop47
 90
       50
102
RTVSPost2010PropOp47
 70
     1
102
RTVSPost2010Prop48
 90
       50
102
RTVSPost2010PropOp48
 70
     1
102
RTVSPost2010Prop49
280
     0
102
RTVSPost2010PropOp49
 70
     1
102
RTVSPost2010Prop50
 90
       50
102
RTVSPost2010PropOp50
 70
     1
102
RTVSPost2010Prop51ColorIndex
 90
      256
102
RTVSPost2010Prop51ColorRGB
 90
-16777216
102
RTVSPost2010PropOp51
 70
     0
102
RTVSPost2010Prop52
140
1.0
102
RTVSPost2010PropOp52
 70
     0
102
RTVSPost2010Prop53
 90
        2
102
RTVSPost2010PropOp53
 70
     1
102
RTVSPost2010Prop54
  1
strokes_ogs.tif
102
RTVSPost2010PropOp54
 70
     1
102
RTVSPost2010Prop55
280
     0
102
RTVSPost2010PropOp55
 70
     1
102
RTVSPost2010Prop56
140
1.0
102
RTVSPost2010PropOp56
 70
     1
102
RTVSPost2010Prop57
140
1.0
102
RTVSPost2010PropOp57
 70
     1
  0
XRECORD
  5
2FC
102
{ACAD_REACTORS
330
2FB
102
}
330
2FB
100
AcDbXrecord
280
     1
102
RTVSPropertyOp0
 70
     1
102
RTVSPropertyOp1
 70
     1
102
RTVSPropertyOp2
 70
     1
102
RTVSPropertyOp3
 70
     1
102
RTVSPropertyOp4
 70
     1
102
RTVSPropertyOp5
 70
     1
102
RTVSPropertyOp6
 70
     1
102
RTVSPropertyOp7
 70
     1
102
RTVSPropertyOp8
 70
     1
102
RTVSPropertyOp9
 70
     1
102
RTVSPropertyOp10
 70
     1
102
RTVSPropertyOp11
 70
     1
102
RTVSPropertyOp12
 70
     1
102
RTVSPropertyOp13
 70
     1
102
RTVSPropertyOp14
 70
     1
102
RTVSPropertyOp15
 70
     1
102
RTVSPropertyOp16
 70
     1
102
RTVSPropertyOp17
 70
     1
102
RTVSPropertyOp18
 70
     1
102
RTVSPropertyOp19
 70
     1
102
RTVSPropertyOp20
 70
     1
102
RTVSPropertyOp21
 70
     1
102
RTVSPropertyOp22
 70
     1
102
RTVSPropertyOp23
 70
     1
102
RTVSPropertyOp24
 70
     1
102
RTVSPropertyOp25
 70
     1
102
RTVSPropertyOp26
 70
     1
102
RTVSPropertyOp27
 70
     1
102
RTVSPropertyOp28
 70
     1
102
RTVSPropertyOp29
 70
     1
102
RTVSPropertyOp30
 70
     1
102
RTVSPropertyOp31
 70
     1
102
RTVSPropertyOp32
 70
     1
102
RTVSPropertyOp33
 70
     1
102
RTVSPropertyOp34
 70
     1
102
RTVSPropertyOp35
 70
     1
102
RTVSPropertyOp36
 70
     1
102
RTVSPropertyOp37
 70
     1
102
RTVSPropertyOp38
 70
     1
102
RTVSPropertyOp39
 70
     1
102
RTVSPropertyOp40
 70
     1
102
RTVSPropertyOp41
 70
     1
102
RTVSPropertyOp42
 70
     1
102
RTVSPropertyOp43
 70
     1
102
RTVSPropertyOp44
 70
     1
102
RTVSPropertyOp45
 70
     1
102
RTVSPropertyOp46
 70
     1
102
RTVSPropertyOp47
 70
     1
102
RTVSPropertyOp48
 70
     1
102
RTVSPropertyOp49
 70
     1
102
RTVSPropertyOp50
 70
     1
102
RTVSPropertyOp51
 70
     0
102
RTVSPropertyOp52
 70
     0
102
RTVSPropertyOp53
 70
     1
102
RTVSPropertyOp54
 70
     1
102
RTVSPropertyOp55
 70
     1
102
RTVSPropertyOp56
 70
     1
102
RTVSPropertyOp57
 70
     1
102
RTVSPost2010Prop28
280
     0
102
RTVSPost2010PropOp28
 70
     1
102
RTVSPost2010Prop29
280
     1
102
RTVSPost2010PropOp29
 70
     1
102
RTVSPost2010Prop30
280
     1
102
RTVSPost2010PropOp30
 70
     1
102
RTVSPost2010Prop31
280
     0
102
RTVSPost2010PropOp31
 70
     1
102
RTVSPost2010Prop32
280
     0
102
RTVSPost2010PropOp32
 70
     1
102
RTVSPost2010Prop33
280
     0
102
RTVSPost2010PropOp33
 70
     1
102
RTVSPost2010Prop34
280
     0
102
RTVSPost2010PropOp34
 70
     1
102
RTVSPost2010Prop35
280
     0
102
RTVSPost2010PropOp35
 70
     1
102
RTVSPost2010Prop36
280
     0
102
RTVSPost2010PropOp36
 70
     1
102
RTVSPost2010Prop37
 90
       50
102
RTVSPost2010PropOp37
 70
     1
102
RTVSPost2010Prop38
140
0.0
102
RTVSPost2010PropOp38
 70
     1
102
RTVSPost2010Prop39
140
1.0
102
RTVSPost2010PropOp39
 70
     1
102
RTVSPost2010Prop40
 90
        0
102
RTVSPost2010PropOp40
 70
     1
102
RTVSPost2010Prop41ColorIndex
 90
       18
102
RTVSPost2010Prop41ColorRGB
 90
        0
102
RTVSPost2010PropOp41
 70
     1
102
RTVSPost2010Prop42
 90
       50
102
RTVSPost2010PropOp42
 70
     1
102
RTVSPost2010Prop43
 90
        3
102
RTVSPost2010PropOp43
 70
     1
102
RTVSPost2010Prop44ColorIndex
 90
        5
102
RTVSPost2010Prop44ColorRGB
 90
      255
102
RTVSPost2010PropOp44
 70
     1
102
RTVSPost2010Prop45
280
     0
102
RTVSPost2010PropOp45
 70
     1
102
RTVSPost2010Prop46
 90
       50
102
RTVSPost2010PropOp46
 70
     1
102
RTVSPost2010Prop47
 90
       50
102
RTVSPost2010PropOp47
 70
     1
102
RTVSPost2010Prop48
 90
       50
102
RTVSPost2010PropOp48
 70
     1
102
RTVSPost2010Prop49
280
     0
102
RTVSPost2010PropOp49
 70
     1
102
RTVSPost2010Prop50
 90
       50
102
RTVSPost2010PropOp50
 70
     1
102
RTVSPost2010Prop51ColorIndex
 90
      256
102
RTVSPost2010Prop51ColorRGB
 90
-16777216
102
RTVSPost2010PropOp51
 70
     0
102
RTVSPost2010Prop52
140
1.0
102
RTVSPost2010PropOp52
 70
     0
102
RTVSPost2010Prop53
 90
        2
102
RTVSPost2010PropOp53
 70
     1
102
RTVSPost2010Prop54
  1
strokes_ogs.tif
102
RTVSPost2010PropOp54
 70
     1
102
RTVSPost2010Prop55
280
     0
102
RTVSPost2010PropOp55
 70
     1
102
RTVSPost2010Prop56
140
1.0
102
RTVSPost2010PropOp56
 70
     1
102
RTVSPost2010Prop57
140
1.0
102
RTVSPost2010PropOp57
 70
     1
  0
XRECORD
  5
2EE
102
{ACAD_REACTORS
330
2ED
102
}
330
2ED
100
AcDbXrecord
280
     1
102
RTVSPropertyOp0
 70
     1
102
RTVSPropertyOp1
 70
     1
102
RTVSPropertyOp2
 70
     1
102
RTVSPropertyOp3
 70
     1
102
RTVSPropertyOp4
 70
     1
102
RTVSPropertyOp5
 70
     1
102
RTVSPropertyOp6
 70
     1
102
RTVSPropertyOp7
 70
     1
102
RTVSPropertyOp8
 70
     1
102
RTVSPropertyOp9
 70
     1
102
RTVSPropertyOp10
 70
     1
102
RTVSPropertyOp11
 70
     1
102
RTVSPropertyOp12
 70
     1
102
RTVSPropertyOp13
 70
     1
102
RTVSPropertyOp14
 70
     1
102
RTVSPropertyOp15
 70
     1
102
RTVSPropertyOp16
 70
     1
102
RTVSPropertyOp17
 70
     1
102
RTVSPropertyOp18
 70
     1
102
RTVSPropertyOp19
 70
     1
102
RTVSPropertyOp20
 70
     1
102
RTVSPropertyOp21
 70
     1
102
RTVSPropertyOp22
 70
     1
102
RTVSPropertyOp23
 70
     1
102
RTVSPropertyOp24
 70
     1
102
RTVSPropertyOp25
 70
     1
102
RTVSPropertyOp26
 70
     1
102
RTVSPropertyOp27
 70
     1
102
RTVSPropertyOp28
 70
     1
102
RTVSPropertyOp29
 70
     1
102
RTVSPropertyOp30
 70
     1
102
RTVSPropertyOp31
 70
     1
102
RTVSPropertyOp32
 70
     1
102
RTVSPropertyOp33
 70
     1
102
RTVSPropertyOp34
 70
     1
102
RTVSPropertyOp35
 70
     1
102
RTVSPropertyOp36
 70
     1
102
RTVSPropertyOp37
 70
     1
102
RTVSPropertyOp38
 70
     1
102
RTVSPropertyOp39
 70
     1
102
RTVSPropertyOp40
 70
     1
102
RTVSPropertyOp41
 70
     1
102
RTVSPropertyOp42
 70
     1
102
RTVSPropertyOp43
 70
     1
102
RTVSPropertyOp44
 70
     1
102
RTVSPropertyOp45
 70
     1
102
RTVSPropertyOp46
 70
     1
102
RTVSPropertyOp47
 70
     1
102
RTVSPropertyOp48
 70
     1
102
RTVSPropertyOp49
 70
     1
102
RTVSPropertyOp50
 70
     1
102
RTVSPropertyOp51
 70
     0
102
RTVSPropertyOp52
 70
     0
102
RTVSPropertyOp53
 70
     1
102
RTVSPropertyOp54
 70
     1
102
RTVSPropertyOp55
 70
     1
102
RTVSPropertyOp56
 70
     1
102
RTVSPropertyOp57
 70
     1
102
RTVSPost2010Prop28
280
     0
102
RTVSPost2010PropOp28
 70
     1
102
RTVSPost2010Prop29
280
     1
102
RTVSPost2010PropOp29
 70
     1
102
RTVSPost2010Prop30
280
     1
102
RTVSPost2010PropOp30
 70
     1
102
RTVSPost2010Prop31
280
     0
102
RTVSPost2010PropOp31
 70
     1
102
RTVSPost2010Prop32
280
     0
102
RTVSPost2010PropOp32
 70
     1
102
RTVSPost2010Prop33
280
     0
102
RTVSPost2010PropOp33
 70
     1
102
RTVSPost2010Prop34
280
     0
102
RTVSPost2010PropOp34
 70
     1
102
RTVSPost2010Prop35
280
     0
102
RTVSPost2010PropOp35
 70
     1
102
RTVSPost2010Prop36
280
     0
102
RTVSPost2010PropOp36
 70
     1
102
RTVSPost2010Prop37
 90
       50
102
RTVSPost2010PropOp37
 70
     1
102
RTVSPost2010Prop38
140
0.0
102
RTVSPost2010PropOp38
 70
     1
102
RTVSPost2010Prop39
140
1.0
102
RTVSPost2010PropOp39
 70
     1
102
RTVSPost2010Prop40
 90
        0
102
RTVSPost2010PropOp40
 70
     1
102
RTVSPost2010Prop41ColorIndex
 90
       18
102
RTVSPost2010Prop41ColorRGB
 90
        0
102
RTVSPost2010PropOp41
 70
     1
102
RTVSPost2010Prop42
 90
       50
102
RTVSPost2010PropOp42
 70
     1
102
RTVSPost2010Prop43
 90
        3
102
RTVSPost2010PropOp43
 70
     1
102
RTVSPost2010Prop44ColorIndex
 90
        5
102
RTVSPost2010Prop44ColorRGB
 90
      255
102
RTVSPost2010PropOp44
 70
     1
102
RTVSPost2010Prop45
280
     0
102
RTVSPost2010PropOp45
 70
     1
102
RTVSPost2010Prop46
 90
       50
102
RTVSPost2010PropOp46
 70
     1
102
RTVSPost2010Prop47
 90
       50
102
RTVSPost2010PropOp47
 70
     1
102
RTVSPost2010Prop48
 90
       50
102
RTVSPost2010PropOp48
 70
     1
102
RTVSPost2010Prop49
280
     0
102
RTVSPost2010PropOp49
 70
     1
102
RTVSPost2010Prop50
 90
       50
102
RTVSPost2010PropOp50
 70
     1
102
RTVSPost2010Prop51ColorIndex
 90
      256
102
RTVSPost2010Prop51ColorRGB
 90
-16777216
102
RTVSPost2010PropOp51
 70
     0
102
RTVSPost2010Prop52
140
1.0
102
RTVSPost2010PropOp52
 70
     0
102
RTVSPost2010Prop53
 90
        2
102
RTVSPost2010PropOp53
 70
     1
102
RTVSPost2010Prop54
  1
strokes_ogs.tif
102
RTVSPost2010PropOp54
 70
     1
102
RTVSPost2010Prop55
280
     0
102
RTVSPost2010PropOp55
 70
     1
102
RTVSPost2010Prop56
140
1.0
102
RTVSPost2010PropOp56
 70
     1
102
RTVSPost2010Prop57
140
1.0
102
RTVSPost2010PropOp57
 70
     1
  0
XRECORD
  5
30E
102
{ACAD_REACTORS
330
30D
102
}
330
30D
100
AcDbXrecord
280
     1
102
RTVSPropertyOp0
 70
     1
102
RTVSPropertyOp1
 70
     1
102
RTVSPropertyOp2
 70
     1
102
RTVSPropertyOp3
 70
     1
102
RTVSPropertyOp4
 70
     1
102
RTVSPropertyOp5
 70
     1
102
RTVSPropertyOp6
 70
     1
102
RTVSPropertyOp7
 70
     1
102
RTVSPropertyOp8
 70
     1
102
RTVSPropertyOp9
 70
     1
102
RTVSPropertyOp10
 70
     1
102
RTVSPropertyOp11
 70
     1
102
RTVSPropertyOp12
 70
     1
102
RTVSPropertyOp13
 70
     1
102
RTVSPropertyOp14
 70
     1
102
RTVSPropertyOp15
 70
     1
102
RTVSPropertyOp16
 70
     1
102
RTVSPropertyOp17
 70
     1
102
RTVSPropertyOp18
 70
     1
102
RTVSPropertyOp19
 70
     1
102
RTVSPropertyOp20
 70
     1
102
RTVSPropertyOp21
 70
     1
102
RTVSPropertyOp22
 70
     1
102
RTVSPropertyOp23
 70
     1
102
RTVSPropertyOp24
 70
     1
102
RTVSPropertyOp25
 70
     1
102
RTVSPropertyOp26
 70
     1
102
RTVSPropertyOp27
 70
     1
102
RTVSPropertyOp28
 70
     1
102
RTVSPropertyOp29
 70
     1
102
RTVSPropertyOp30
 70
     1
102
RTVSPropertyOp31
 70
     1
102
RTVSPropertyOp32
 70
     1
102
RTVSPropertyOp33
 70
     1
102
RTVSPropertyOp34
 70
     1
102
RTVSPropertyOp35
 70
     1
102
RTVSPropertyOp36
 70
     1
102
RTVSPropertyOp37
 70
     1
102
RTVSPropertyOp38
 70
     1
102
RTVSPropertyOp39
 70
     1
102
RTVSPropertyOp40
 70
     1
102
RTVSPropertyOp41
 70
     1
102
RTVSPropertyOp42
 70
     1
102
RTVSPropertyOp43
 70
     1
102
RTVSPropertyOp44
 70
     1
102
RTVSPropertyOp45
 70
     1
102
RTVSPropertyOp46
 70
     1
102
RTVSPropertyOp47
 70
     1
102
RTVSPropertyOp48
 70
     1
102
RTVSPropertyOp49
 70
     1
102
RTVSPropertyOp50
 70
     1
102
RTVSPropertyOp51
 70
     0
102
RTVSPropertyOp52
 70
     0
102
RTVSPropertyOp53
 70
     1
102
RTVSPropertyOp54
 70
     1
102
RTVSPropertyOp55
 70
     1
102
RTVSPropertyOp56
 70
     1
102
RTVSPropertyOp57
 70
     1
102
RTVSPost2010Prop28
280
     0
102
RTVSPost2010PropOp28
 70
     1
102
RTVSPost2010Prop29
280
     1
102
RTVSPost2010PropOp29
 70
     1
102
RTVSPost2010Prop30
280
     1
102
RTVSPost2010PropOp30
 70
     1
102
RTVSPost2010Prop31
280
     0
102
RTVSPost2010PropOp31
 70
     1
102
RTVSPost2010Prop32
280
     0
102
RTVSPost2010PropOp32
 70
     1
102
RTVSPost2010Prop33
280
     0
102
RTVSPost2010PropOp33
 70
     1
102
RTVSPost2010Prop34
280
     0
102
RTVSPost2010PropOp34
 70
     1
102
RTVSPost2010Prop35
280
     0
102
RTVSPost2010PropOp35
 70
     1
102
RTVSPost2010Prop36
280
     0
102
RTVSPost2010PropOp36
 70
     1
102
RTVSPost2010Prop37
 90
       50
102
RTVSPost2010PropOp37
 70
     1
102
RTVSPost2010Prop38
140
0.0
102
RTVSPost2010PropOp38
 70
     1
102
RTVSPost2010Prop39
140
1.0
102
RTVSPost2010PropOp39
 70
     1
102
RTVSPost2010Prop40
 90
        0
102
RTVSPost2010PropOp40
 70
     1
102
RTVSPost2010Prop41ColorIndex
 90
       18
102
RTVSPost2010Prop41ColorRGB
 90
        0
102
RTVSPost2010PropOp41
 70
     1
102
RTVSPost2010Prop42
 90
       50
102
RTVSPost2010PropOp42
 70
     1
102
RTVSPost2010Prop43
 90
        3
102
RTVSPost2010PropOp43
 70
     1
102
RTVSPost2010Prop44ColorIndex
 90
        5
102
RTVSPost2010Prop44ColorRGB
 90
      255
102
RTVSPost2010PropOp44
 70
     1
102
RTVSPost2010Prop45
280
     0
102
RTVSPost2010PropOp45
 70
     1
102
RTVSPost2010Prop46
 90
       50
102
RTVSPost2010PropOp46
 70
     1
102
RTVSPost2010Prop47
 90
       50
102
RTVSPost2010PropOp47
 70
     1
102
RTVSPost2010Prop48
 90
       50
102
RTVSPost2010PropOp48
 70
     1
102
RTVSPost2010Prop49
280
     0
102
RTVSPost2010PropOp49
 70
     1
102
RTVSPost2010Prop50
 90
       50
102
RTVSPost2010PropOp50
 70
     1
102
RTVSPost2010Prop51ColorIndex
 90
      256
102
RTVSPost2010Prop51ColorRGB
 90
-16777216
102
RTVSPost2010PropOp51
 70
     0
102
RTVSPost2010Prop52
140
1.0
102
RTVSPost2010PropOp52
 70
     0
102
RTVSPost2010Prop53
 90
        2
102
RTVSPost2010PropOp53
 70
     1
102
RTVSPost2010Prop54
  1
strokes_ogs.tif
102
RTVSPost2010PropOp54
 70
     1
102
RTVSPost2010Prop55
280
     0
102
RTVSPost2010PropOp55
 70
     1
102
RTVSPost2010Prop56
140
1.0
102
RTVSPost2010PropOp56
 70
     1
102
RTVSPost2010Prop57
140
1.0
102
RTVSPost2010PropOp57
 70
     1
  0
ENDSEC
  0
EOF
