  0
SECTION
  2
HEADER
  9
$ACADVER
  1
AC1015
  9
$ACADMAINTVER
 70
     6
  9
$DWGCODEPAGE
  3
ANSI_1252
  9
$INSBASE
 10
0.0
 20
0.0
 30
0.0
  9
$EXTMIN
 10
0.0
 20
0.0
 30
0.0
  9
$EXTMAX
 10
2625.0
 20
3712.5
 30
0.0
  9
$LIMMIN
 10
0.0
 20
0.0
  9
$LIMMAX
 10
2625.0
 20
3712.5
  9
$ORTHOMODE
 70
     0
  9
$REGENMODE
 70
     1
  9
$FILLMODE
 70
     1
  9
$QTEXTMODE
 70
     0
  9
$MIRRTEXT
 70
     1
  9
$LTSCALE
 40
12.5
  9
$ATTMODE
 70
     1
  9
$TEXTSIZE
 40
25.0
  9
$TRACEWID
 40
1.0
  9
$TEXTSTYLE
  7
Standard
  9
$CLAYER
  8
0
  9
$CELTYPE
  6
ByLayer
  9
$CECOLOR
 62
   256
  9
$CELTSCALE
 40
1.0
  9
$DISPSILH
 70
     0
  9
$DIMSCALE
 40
1.0
  9
$DIMASZ
 40
2.5
  9
$DIMEXO
 40
0.625
  9
$DIMDLI
 40
3.75
  9
$DIMRND
 40
0.0
  9
$DIMDLE
 40
0.0
  9
$DIMEXE
 40
1.25
  9
$DIMTP
 40
0.0
  9
$DIMTM
 40
0.0
  9
$DIMTXT
 40
2.5
  9
$DIMCEN
 40
2.5
  9
$DIMTSZ
 40
0.0
  9
$DIMTOL
 70
     0
  9
$DIMLIM
 70
     0
  9
$DIMTIH
 70
     0
  9
$DIMTOH
 70
     0
  9
$DIMSE1
 70
     0
  9
$DIMSE2
 70
     0
  9
$DIMTAD
 70
     1
  9
$DIMZIN
 70
     8
  9
$DIMBLK
  1

  9
$DIMASO
 70
     1
  9
$DIMSHO
 70
     1
  9
$DIMPOST
  1

  9
$DIMAPOST
  1

  9
$DIMALT
 70
     0
  9
$DIMALTD
 70
     3
  9
$DIMALTF
 40
0.03937007874016
  9
$DIMLFAC
 40
1.0
  9
$DIMTOFL
 70
     1
  9
$DIMTVP
 40
0.0
  9
$DIMTIX
 70
     0
  9
$DIMSOXD
 70
     0
  9
$DIMSAH
 70
     0
  9
$DIMBLK1
  1

  9
$DIMBLK2
  1

  9
$DIMSTYLE
  2
ISO-25
  9
$DIMCLRD
 70
     0
  9
$DIMCLRE
 70
     0
  9
$DIMCLRT
 70
     0
  9
$DIMTFAC
 40
1.0
  9
$DIMGAP
 40
0.625
  9
$DIMJUST
 70
     0
  9
$DIMSD1
 70
     0
  9
$DIMSD2
 70
     0
  9
$DIMTOLJ
 70
     0
  9
$DIMTZIN
 70
     8
  9
$DIMALTZ
 70
     0
  9
$DIMALTTZ
 70
     0
  9
$DIMUPT
 70
     0
  9
$DIMDEC
 70
     2
  9
$DIMTDEC
 70
     2
  9
$DIMALTU
 70
     2
  9
$DIMALTTD
 70
     3
  9
$DIMTXSTY
  7
Standard
  9
$DIMAUNIT
 70
     0
  9
$DIMADEC
 70
     0
  9
$DIMALTRND
 40
0.0
  9
$DIMAZIN
 70
     0
  9
$DIMDSEP
 70
    44
  9
$DIMATFIT
 70
     3
  9
$DIMFRAC
 70
     0
  9
$DIMLDRBLK
  1

  9
$DIMLUNIT
 70
     2
  9
$DIMLWD
 70
    -2
  9
$DIMLWE
 70
    -2
  9
$DIMTMOVE
 70
     0
  9
$LUNITS
 70
     2
  9
$LUPREC
 70
     4
  9
$SKETCHINC
 40
1.0
  9
$FILLETRAD
 40
10.0
  9
$AUNITS
 70
     0
  9
$AUPREC
 70
     0
  9
$MENU
  1
.
  9
$ELEVATION
 40
0.0
  9
$PELEVATION
 40
0.0
  9
$THICKNESS
 40
0.0
  9
$LIMCHECK
 70
     0
  9
$CHAMFERA
 40
0.0
  9
$CHAMFERB
 40
0.0
  9
$CHAMFERC
 40
0.0
  9
$CHAMFERD
 40
0.0
  9
$SKPOLY
 70
     0
  9
$TDCREATE
 40
2460202.47719206
  9
$TDUCREATE
 40
2460202.393858727
  9
$TDUPDATE
 40
2460427.59645353
  9
$TDUUPDATE
 40
2460427.513120197
  9
$TDINDWG
 40
0.0000000116
  9
$TDUSRTIMER
 40
0.0000000116
  9
$USRTIMER
 70
     1
  9
$ANGBASE
 50
0.0
  9
$ANGDIR
 70
     0
  9
$PDMODE
 70
     0
  9
$PDSIZE
 40
0.0
  9
$PLINEWID
 40
0.0
  9
$SPLFRAME
 70
     0
  9
$SPLINETYPE
 70
     6
  9
$SPLINESEGS
 70
     8
  9
$HANDSEED
  5
37A
  9
$SURFTAB1
 70
     6
  9
$SURFTAB2
 70
     6
  9
$SURFTYPE
 70
     6
  9
$SURFU
 70
     6
  9
$SURFV
 70
     6
  9
$UCSBASE
  2

  9
$UCSNAME
  2

  9
$UCSORG
 10
0.0
 20
0.0
 30
0.0
  9
$UCSXDIR
 10
1.0
 20
0.0
 30
0.0
  9
$UCSYDIR
 10
0.0
 20
1.0
 30
0.0
  9
$UCSORTHOREF
  2

  9
$UCSORTHOVIEW
 70
     0
  9
$UCSORGTOP
 10
0.0
 20
0.0
 30
0.0
  9
$UCSORGBOTTOM
 10
0.0
 20
0.0
 30
0.0
  9
$UCSORGLEFT
 10
0.0
 20
0.0
 30
0.0
  9
$UCSORGRIGHT
 10
0.0
 20
0.0
 30
0.0
  9
$UCSORGFRONT
 10
0.0
 20
0.0
 30
0.0
  9
$UCSORGBACK
 10
0.0
 20
0.0
 30
0.0
  9
$PUCSBASE
  2

  9
$PUCSNAME
  2

  9
$PUCSORG
 10
0.0
 20
0.0
 30
0.0
  9
$PUCSXDIR
 10
1.0
 20
0.0
 30
0.0
  9
$PUCSYDIR
 10
0.0
 20
1.0
 30
0.0
  9
$PUCSORTHOREF
  2

  9
$PUCSORTHOVIEW
 70
     0
  9
$PUCSORGTOP
 10
0.0
 20
0.0
 30
0.0
  9
$PUCSORGBOTTOM
 10
0.0
 20
0.0
 30
0.0
  9
$PUCSORGLEFT
 10
0.0
 20
0.0
 30
0.0
  9
$PUCSORGRIGHT
 10
0.0
 20
0.0
 30
0.0
  9
$PUCSORGFRONT
 10
0.0
 20
0.0
 30
0.0
  9
$PUCSORGBACK
 10
0.0
 20
0.0
 30
0.0
  9
$USERI1
 70
     0
  9
$USERI2
 70
     0
  9
$USERI3
 70
     0
  9
$USERI4
 70
     0
  9
$USERI5
 70
     0
  9
$USERR1
 40
0.0
  9
$USERR2
 40
0.0
  9
$USERR3
 40
0.0
  9
$USERR4
 40
0.0
  9
$USERR5
 40
0.0
  9
$WORLDVIEW
 70
     1
  9
$SHADEDGE
 70
     3
  9
$SHADEDIF
 70
    70
  9
$TILEMODE
 70
     1
  9
$MAXACTVP
 70
    64
  9
$PINSBASE
 10
0.0
 20
0.0
 30
0.0
  9
$PLIMCHECK
 70
     0
  9
$PEXTMIN
 10
0.0
 20
0.0
 30
0.0
  9
$PEXTMAX
 10
2625.0
 20
3712.5
 30
0.0
  9
$PLIMMIN
 10
0.0
 20
0.0
  9
$PLIMMAX
 10
2625.0
 20
3712.5
  9
$UNITMODE
 70
     0
  9
$VISRETAIN
 70
     1
  9
$PLINEGEN
 70
     0
  9
$PSLTSCALE
 70
     1
  9
$TREEDEPTH
 70
  3020
  9
$CMLSTYLE
  2
Standard
  9
$CMLJUST
 70
     0
  9
$CMLSCALE
 40
20.0
  9
$PROXYGRAPHICS
 70
     1
  9
$MEASUREMENT
 70
     1
  9
$CELWEIGHT
370
    -1
  9
$ENDCAPS
280
     0
  9
$JOINSTYLE
280
     0
  9
$LWDISPLAY
290
     0
  9
$INSUNITS
 70
     4
  9
$HYPERLINKBASE
  1

  9
$STYLESHEET
  1

  9
$XEDIT
290
     1
  9
$CEPSNTYPE
380
     0
  9
$PSTYLEMODE
290
     1
  9
$FINGERPRINTGUID
  2
{4AF90A76-04DB-4BBD-B7B4-01994F484414}
  9
$VERSIONGUID
  2
{FAEB1C32-E019-11D5-929B-00C0DF256EC4}
  9
$EXTNAMES
290
     1
  9
$PSVPSCALE
 40
0.0
  9
$OLESTARTUP
290
     0
  0
ENDSEC
  0
SECTION
  2
CLASSES
  0
CLASS
  1
ACDBDICTIONARYWDFLT
  2
AcDbDictionaryWithDefault
  3
ObjectDBX Classes
 90
        0
280
     0
281
     0
  0
CLASS
  1
VISUALSTYLE
  2
AcDbVisualStyle
  3
ObjectDBX Classes
 90
     4095
280
     0
281
     0
  0
CLASS
  1
MATERIAL
  2
AcDbMaterial
  3
ObjectDBX Classes
 90
     1153
280
     0
281
     0
  0
CLASS
  1
SCALE
  2
AcDbScale
  3
ObjectDBX Classes
 90
     1153
280
     0
281
     0
  0
CLASS
  1
TABLESTYLE
  2
AcDbTableStyle
  3
ObjectDBX Classes
 90
     4095
280
     0
281
     0
  0
CLASS
  1
MLEADERSTYLE
  2
AcDbMLeaderStyle
  3
ACDB_MLEADERSTYLE_CLASS
 90
     4095
280
     0
281
     0
  0
CLASS
  1
SUN
  2
AcDbSun
  3
SCENEOE
 90
     1153
280
     0
281
     0
  0
CLASS
  1
DICTIONARYVAR
  2
AcDbDictionaryVar
  3
ObjectDBX Classes
 90
        0
280
     0
281
     0
  0
CLASS
  1
CELLSTYLEMAP
  2
AcDbCellStyleMap
  3
ObjectDBX Classes
 90
     1152
280
     0
281
     0
  0
CLASS
  1
ACDBPLACEHOLDER
  2
AcDbPlaceHolder
  3
ObjectDBX Classes
 90
        0
280
     0
281
     0
  0
CLASS
  1
LAYOUT
  2
AcDbLayout
  3
ObjectDBX Classes
 90
        0
280
     0
281
     0
  0
ENDSEC
  0
SECTION
  2
TABLES
  0
TABLE
  2
VPORT
  5
8
102
{ACAD_XDICTIONARY
360
33E
102
}
330
0
100
AcDbSymbolTable
 70
     1
  0
VPORT
  5
29
330
8
100
AcDbSymbolTableRecord
100
AcDbViewportTableRecord
  2
*Active
 70
     0
 10
0.0
 20
0.0
 11
1.0
 21
1.0
 12
344.1869158878504
 22
148.5
 13
0.0
 23
0.0
 14
10.0
 24
10.0
 15
10.0
 25
10.0
 16
0.0
 26
0.0
 36
1.0
 17
0.0
 27
0.0
 37
0.0
 40
297.0
 41
1.972972972850329
 42
50.0
 43
0.0
 44
0.0
 50
0.0
 51
0.0
 71
     0
 72
   100
 73
     1
 74
     3
 75
     0
 76
     0
 77
     0
 78
     0
281
     0
 65
     1
110
0.0
120
0.0
130
0.0
111
1.0
121
0.0
131
0.0
112
0.0
122
1.0
132
0.0
 79
     0
146
0.0
  0
ENDTAB
  0
TABLE
  2
LTYPE
  5
5
330
0
100
AcDbSymbolTable
 70
     1
  0
LTYPE
  5
14
330
5
100
AcDbSymbolTableRecord
100
AcDbLinetypeTableRecord
  2
ByBlock
 70
     0
  3

 72
    65
 73
     0
 40
0.0
  0
LTYPE
  5
15
330
5
100
AcDbSymbolTableRecord
100
AcDbLinetypeTableRecord
  2
ByLayer
 70
     0
  3

 72
    65
 73
     0
 40
0.0
  0
LTYPE
  5
16
330
5
100
AcDbSymbolTableRecord
100
AcDbLinetypeTableRecord
  2
Continuous
 70
     0
  3
Solid line
 72
    65
 73
     0
 40
0.0
  0
ENDTAB
  0
TABLE
  2
LAYER
  5
2
330
0
100
AcDbSymbolTable
 70
     8
  0
LAYER
  5
10
330
2
100
AcDbSymbolTableRecord
100
AcDbLayerTableRecord
  2
0
 70
     0
 62
     7
  6
Continuous
370
    -3
390
F
  0
LAYER
  5
6E
330
2
100
AcDbSymbolTableRecord
100
AcDbLayerTableRecord
  2
Default
 70
     0
 62
     7
  6
Continuous
370
    -3
390
F
  0
LAYER
  5
71
330
2
100
AcDbSymbolTableRecord
100
AcDbLayerTableRecord
  2
DV1_0
 70
     0
 62
     7
  6
Continuous
370
    -3
390
F
  0
LAYER
  5
10A
330
2
100
AcDbSymbolTableRecord
100
AcDbLayerTableRecord
  2
DV2_0
 70
     0
 62
     7
  6
Continuous
370
    -3
390
F
  0
LAYER
  5
1AD
330
2
100
AcDbSymbolTableRecord
100
AcDbLayerTableRecord
  2
DV3_0
 70
     0
 62
     7
  6
Continuous
370
    -3
390
F
  0
LAYER
  5
1CD
330
2
100
AcDbSymbolTableRecord
100
AcDbLayerTableRecord
  2
DV4_0
 70
     0
 62
     7
  6
Continuous
370
    -3
390
F
  0
LAYER
  5
2D9
330
2
100
AcDbSymbolTableRecord
100
AcDbLayerTableRecord
  2
Predeterminado
 70
     0
 62
     7
  6
Continuous
370
    -3
390
F
  0
LAYER
  5
2F3
330
2
100
AcDbSymbolTableRecord
100
AcDbLayerTableRecord
  2
D
 70
     0
 62
     7
  6
Continuous
370
    -3
390
F
  0
ENDTAB
  0
TABLE
  2
STYLE
  5
3
330
0
100
AcDbSymbolTable
 70
     5
  0
STYLE
  5
11
330
3
100
AcDbSymbolTableRecord
100
AcDbTextStyleTableRecord
  2
Standard
 70
     0
 40
0.0
 41
1.0
 50
0.0
 71
     0
 42
25.0
  3
txt
  4

  0
STYLE
  5
2B5
330
3
100
AcDbSymbolTableRecord
100
AcDbTextStyleTableRecord
  2
GDT
 70
     0
 40
0.0
 41
1.0
 50
0.0
 71
     0
 42
2.5
  3
gdt_____.ttf
  4

1001
ACAD
1000
GDT
1071
        0
  0
STYLE
  5
2B7
330
3
100
AcDbSymbolTableRecord
100
AcDbTextStyleTableRecord
  2
SEACAD_Solid_Edge_ANSI
 70
     0
 40
0.0
 41
1.0
 50
0.0
 71
     0
 42
2.5
  3
seans.ttf
  4

1001
ACAD
1000
Solid Edge ANSI
1071
        0
  0
STYLE
  5
335
330
3
100
AcDbSymbolTableRecord
100
AcDbTextStyleTableRecord
  2
MtXpl_Arial
 70
     0
 40
0.2
 41
1.0
 50
0.0
 71
     0
 42
25.0
  3
arialbd.ttf
  4

1001
ACAD
1000
Arial
1071
 33554466
  0
STYLE
  5
336
330
3
100
AcDbSymbolTableRecord
100
AcDbTextStyleTableRecord
  2
MtXpl_Arial1
 70
     0
 40
0.2
 41
1.0
 50
0.0
 71
     0
 42
25.0
  3

  4

1001
ACAD
1000
Arial
1071
       34
  0
ENDTAB
  0
TABLE
  2
VIEW
  5
6
330
0
100
AcDbSymbolTable
 70
     0
  0
ENDTAB
  0
TABLE
  2
UCS
  5
7
330
0
100
AcDbSymbolTable
 70
     0
  0
ENDTAB
  0
TABLE
  2
APPID
  5
9
330
0
100
AcDbSymbolTable
 70
     2
  0
APPID
  5
12
330
9
100
AcDbSymbolTableRecord
100
AcDbRegAppTableRecord
  2
ACAD
 70
     0
  0
APPID
  5
32C
330
9
100
AcDbSymbolTableRecord
100
AcDbRegAppTableRecord
  2
ACAD_MLEADERVER
 70
     0
  0
ENDTAB
  0
TABLE
  2
DIMSTYLE
  5
A
330
0
100
AcDbSymbolTable
 70
     1
100
AcDbDimStyleTable
  0
DIMSTYLE
105
27
330
A
100
AcDbSymbolTableRecord
100
AcDbDimStyleTableRecord
  2
ISO-25
 70
     0
 41
2.5
 42
0.625
 43
3.75
 44
1.25
 73
     0
 74
     0
 77
     1
 78
     8
140
2.5
141
2.5
143
0.03937007874016
147
0.625
171
     3
172
     1
178
     0
271
     2
272
     2
274
     3
278
    44
283
     0
284
     8
340
11
  0
ENDTAB
  0
TABLE
  2
BLOCK_RECORD
  5
1
330
0
100
AcDbSymbolTable
 70
    11
  0
BLOCK_RECORD
  5
1F
330
1
100
AcDbSymbolTableRecord
100
AcDbBlockTableRecord
  2
*Model_Space
340
22
  0
BLOCK_RECORD
  5
1B
330
1
100
AcDbSymbolTableRecord
100
AcDbBlockTableRecord
  2
*Paper_Space
340
1E
  0
BLOCK_RECORD
  5
6F
330
1
100
AcDbSymbolTableRecord
100
AcDbBlockTableRecord
  2
SE
340
0
102
{BLKREFS
331
70
102
}
  0
BLOCK_RECORD
  5
108
330
1
100
AcDbSymbolTableRecord
100
AcDbBlockTableRecord
  2
SE1
340
0
102
{BLKREFS
331
109
102
}
  0
BLOCK_RECORD
  5
1AB
330
1
100
AcDbSymbolTableRecord
100
AcDbBlockTableRecord
  2
SE2
340
0
102
{BLKREFS
331
1AC
102
}
  0
BLOCK_RECORD
  5
1CB
330
1
100
AcDbSymbolTableRecord
100
AcDbBlockTableRecord
  2
SE3
340
0
102
{BLKREFS
331
1CC
102
}
  0
BLOCK_RECORD
  5
2AE
330
1
100
AcDbSymbolTableRecord
100
AcDbBlockTableRecord
  2
GDimGGroup
340
0
102
{BLKREFS
331
2AF
102
}
  0
BLOCK_RECORD
  5
2BB
330
1
100
AcDbSymbolTableRecord
100
AcDbBlockTableRecord
  2
GDimGGroup1
340
0
102
{BLKREFS
331
2BC
102
}
  0
BLOCK_RECORD
  5
2C5
330
1
100
AcDbSymbolTableRecord
100
AcDbBlockTableRecord
  2
GDimGGroup2
340
0
102
{BLKREFS
331
2C6
102
}
  0
BLOCK_RECORD
  5
2CF
330
1
100
AcDbSymbolTableRecord
100
AcDbBlockTableRecord
  2
GDimGGroup3
340
0
102
{BLKREFS
331
2D0
102
}
  0
BLOCK_RECORD
  5
2E1
330
1
100
AcDbSymbolTableRecord
100
AcDbBlockTableRecord
  2
SEANNOT_GROUP
340
0
102
{BLKREFS
331
2E2
102
}
  0
BLOCK_RECORD
  5
2E9
330
1
100
AcDbSymbolTableRecord
100
AcDbBlockTableRecord
  2
SEANNOT_GROUP1
340
0
102
{BLKREFS
331
2EA
102
}
  0
BLOCK_RECORD
  5
2EE
330
1
100
AcDbSymbolTableRecord
100
AcDbBlockTableRecord
  2
SEANNOT_GROUP2
340
0
102
{BLKREFS
331
2EF
102
}
  0
ENDTAB
  0
ENDSEC
  0
SECTION
  2
BLOCKS
  0
BLOCK
  5
20
330
1F
100
AcDbEntity
  8
0
100
AcDbBlockBegin
  2
*Model_Space
 70
     0
 10
0.0
 20
0.0
 30
0.0
  3
*Model_Space
  1

  0
ENDBLK
  5
21
330
1F
100
AcDbEntity
  8
0
100
AcDbBlockEnd
  0
BLOCK
  5
1C
330
1B
100
AcDbEntity
 67
     1
  8
0
100
AcDbBlockBegin
  2
*Paper_Space
 70
     0
 10
0.0
 20
0.0
 30
0.0
  3
*Paper_Space
  1

  0
ENDBLK
  5
1D
330
1B
100
AcDbEntity
 67
     1
  8
0
100
AcDbBlockEnd
  0
BLOCK
  5
106
330
6F
100
AcDbEntity
  8
0
100
AcDbBlockBegin
  2
SE
 70
     0
 10
0.0
 20
0.0
 30
0.0
  3
SE
  1

  0
LINE
  5
72
330
6F
100
AcDbEntity
  8
DV1_0
 62
     7
370
    35
100
AcDbLine
 10
587.1394968037131
 20
2536.533322043879
 30
0.0
 11
587.1394968037131
 21
2536.648698792287
 31
0.0
  0
LINE
  5
73
330
6F
100
AcDbEntity
  8
DV1_0
 62
     7
370
    35
100
AcDbLine
 10
587.1338814290211
 20
2536.533322043879
 30
0.0
 11
587.1338814290211
 21
2536.648698792287
 31
0.0
  0
LINE
  5
74
330
6F
100
AcDbEntity
  8
DV1_0
 62
     7
370
    35
100
AcDbLine
 10
577.1423243993592
 20
2536.533322043878
 30
0.0
 11
577.1423243993592
 21
2536.648698792287
 31
0.0
  0
LINE
  5
75
330
6F
100
AcDbEntity
  8
DV1_0
 62
     7
370
    35
100
AcDbLine
 10
603.1712051445921
 20
2533.351843456109
 30
0.0
 11
603.1712051445921
 21
2530.364244970739
 31
0.0
  0
LINE
  5
76
330
6F
100
AcDbEntity
  8
DV1_0
 62
     7
370
    35
100
AcDbLine
 10
603.1421422113351
 20
2533.351843456109
 30
0.0
 11
603.1712051445921
 21
2533.351843456109
 31
0.0
  0
LINE
  5
77
330
6F
100
AcDbEntity
  8
DV1_0
 62
     7
370
    25
100
AcDbLine
 10
603.1421422113351
 20
2530.364244970739
 30
0.0
 11
603.1421422113351
 21
2533.351843456109
 31
0.0
  0
LINE
  5
78
330
6F
100
AcDbEntity
  8
DV1_0
 62
     7
370
    25
100
AcDbLine
 10
600.897184985685
 20
2530.364244970739
 30
0.0
 11
600.897184985685
 21
2533.351843456109
 31
0.0
  0
LINE
  5
79
330
6F
100
AcDbEntity
  8
DV1_0
 62
     7
370
    35
100
AcDbLine
 10
600.897184985685
 20
2533.351843456109
 30
0.0
 11
603.142142211335
 21
2533.351843456109
 31
0.0
  0
LINE
  5
7A
330
6F
100
AcDbEntity
  8
DV1_0
 62
     7
370
    35
100
AcDbLine
 10
600.897184985685
 20
2533.351843456109
 30
0.0
 11
585.8893554694223
 21
2533.351843456109
 31
0.0
  0
LINE
  5
7B
330
6F
100
AcDbEntity
  8
DV1_0
 62
     7
370
    35
100
AcDbLine
 10
577.1423243993642
 20
2530.364244970742
 30
0.0
 11
577.1423243993642
 21
2532.851843456109
 31
0.0
  0
LINE
  5
7C
330
6F
100
AcDbEntity
  8
DV1_0
 62
     7
370
    35
100
AcDbLine
 10
577.1423087269894
 20
2532.851843456109
 30
0.0
 11
577.3893554694229
 21
2532.851843456109
 31
0.0
  0
LINE
  5
7D
330
6F
100
AcDbEntity
  8
DV1_0
 62
     7
370
    35
100
AcDbLine
 10
1035.140564288027
 20
2536.648698792286
 30
0.0
 11
1035.140564288027
 21
2536.533322043877
 31
0.0
  0
LINE
  5
7E
330
6F
100
AcDbEntity
  8
DV1_0
 62
     7
370
    35
100
AcDbLine
 10
1035.140564288027
 20
2533.533322043878
 30
0.0
 11
1035.140564288027
 21
2533.351843456109
 31
0.0
  0
LINE
  5
7F
330
6F
100
AcDbEntity
  8
DV1_0
 62
     7
370
    35
100
AcDbLine
 10
1035.1611281948
 20
2536.648698792286
 30
0.0
 11
1035.1611281948
 21
2536.533322043877
 31
0.0
  0
LINE
  5
80
330
6F
100
AcDbEntity
  8
DV1_0
 62
     7
370
    35
100
AcDbLine
 10
1035.1611281948
 20
2533.533322043878
 30
0.0
 11
1035.1611281948
 21
2530.364244970752
 31
0.0
  0
LINE
  5
81
330
6F
100
AcDbEntity
  8
DV1_0
 62
     7
370
    25
100
AcDbLine
 10
1042.923798617842
 20
2536.648698792287
 30
0.0
 11
1042.923798617842
 21
2530.364244970754
 31
0.0
  0
LINE
  5
82
330
6F
100
AcDbEntity
  8
DV1_0
 62
     7
370
    35
100
AcDbLine
 10
1045.129526274135
 20
2723.310649021442
 30
0.0
 11
1045.129526274135
 21
1853.351843456109
 31
0.0
  0
ARC
  5
83
330
6F
100
AcDbEntity
  8
DV1_0
 62
     7
370
    35
100
AcDbCircle
 10
1043.091498156187
 20
2672.833908948757
 30
0.0
 40
50.51821285461608
100
AcDbArc
 50
87.68790498495497
 51
89.37528649367212
  0
LINE
  5
84
330
6F
100
AcDbEntity
  8
DV1_0
 62
     7
370
    35
100
AcDbLine
 10
1045.129736461917
 20
1853.351843456109
 30
0.0
 11
1043.81768232391
 21
1853.351843456109
 31
0.0
  0
SPLINE
  5
85
330
6F
100
AcDbEntity
  8
DV1_0
 62
     7
370
    35
100
AcDbSpline
210
0.0
220
0.0
230
1.0
 70
     8
 71
     3
 72
    34
 73
    30
 74
     0
 42
0.000000001
 43
0.0000000001
 40
0.0
 40
0.0
 40
0.0
 40
0.0
 40
0.0016467926409233
 40
0.0016467926409233
 40
0.0055314354711148
 40
0.0055314354711148
 40
0.0676857207541684
 40
0.0676857207541684
 40
0.1298400060372246
 40
0.1298400060372246
 40
0.1919942913202807
 40
0.1919942913202807
 40
0.2541485766033341
 40
0.2541485766033341
 40
0.3163028618863903
 40
0.3163028618863903
 40
0.3784571471694465
 40
0.3784571471694465
 40
0.4406114324525028
 40
0.4406114324525028
 40
0.4716885750940295
 40
0.4716885750940295
 40
0.4872271464147929
 40
0.4872271464147929
 40
0.4949964320751759
 40
0.4949964320751759
 40
0.5027657177355562
 40
0.5027657177355562
 40
0.5055260124593071
 40
0.5055260124593071
 40
0.5055260124593071
 40
0.5055260124593071
 10
807.9556026017568
 20
2691.78643889243
 30
0.0
 10
808.1570605269263
 20
2691.786245642441
 30
0.0
 10
808.3585066453247
 20
2691.786081124666
 30
0.0
 10
809.0349505825972
 20
2691.785625177887
 30
0.0
 10
809.5080510519091
 20
2691.785465255101
 30
0.0
 10
817.5919498082845
 20
2691.785471413254
 30
0.0
 10
825.2003927140536
 20
2691.826458811347
 30
0.0
 10
840.3442688342307
 20
2691.990396811902
 30
0.0
 10
847.8796787690522
 20
2692.113347414364
 30
0.0
 10
862.8051695024635
 20
2692.441211823658
 30
0.0
 10
870.195227509911
 20
2692.646125630489
 30
0.0
 10
884.759259422362
 20
2693.13791644852
 30
0.0
 10
891.9332112410542
 20
2693.42479345972
 30
0.0
 10
905.9965142932651
 20
2694.080510686489
 30
0.0
 10
912.8858443536117
 20
2694.449350902058
 30
0.0
 10
926.3142755915298
 20
2695.268994537566
 30
0.0
 10
932.8533567073554
 20
2695.719797957504
 30
0.0
 10
945.5191692357148
 20
2696.703368001749
 30
0.0
 10
951.6458818843686
 20
2697.236134626056
 30
0.0
 10
960.4831659005549
 20
2698.096756965793
 30
0.0
 10
963.3701634586394
 20
2698.393876479586
 30
0.0
 10
967.6073973789694
 20
2698.854923851093
 30
0.0
 10
969.0042672620153
 20
2699.011167658398
 30
0.0
 10
971.0756416629353
 20
2699.249375394561
 30
0.0
 10
971.7621115432465
 20
2699.329418310817
 30
0.0
 10
973.1269735765396
 20
2699.490784818395
 30
0.0
 10
973.8045258008756
 20
2699.572006313507
 30
0.0
 10
974.7195359018436
 20
2699.683228998004
 30
0.0
 10
974.9588768258958
 20
2699.712465526331
 30
0.0
 10
975.1976897911483
 20
2699.741781923556
 30
0.0
  0
SPLINE
  5
86
330
6F
100
AcDbEntity
  8
DV1_0
 62
     7
370
    35
100
AcDbSpline
210
0.0
220
0.0
230
1.0
 70
     8
 71
     3
 72
    28
 73
    24
 74
     0
 42
0.000000001
 43
0.0000000001
 40
0.5066577866012346
 40
0.5066577866012346
 40
0.5066577866012346
 40
0.5066577866012346
 40
0.5656462388872645
 40
0.5656462388872645
 40
0.6284958209858501
 40
0.6284958209858501
 40
0.6913454030844356
 40
0.6913454030844356
 40
0.7541949851830212
 40
0.7541949851830212
 40
0.8170445672816039
 40
0.8170445672816039
 40
0.8798941493801894
 40
0.8798941493801894
 40
0.9427437314787749
 40
0.9427437314787749
 40
0.9741685225280663
 40
0.9741685225280663
 40
0.9898809180527119
 40
0.9898809180527119
 40
0.9977371158150362
 40
0.9977371158150362
 40
1.0
 40
1.0
 40
1.0
 40
1.0
 10
647.3128126783208
 20
2699.519744690851
 30
0.0
 10
652.3519268957805
 20
2698.910146443218
 30
0.0
 10
657.6218835869157
 20
2698.336583546543
 30
0.0
 10
668.9387761569321
 20
2697.22634421902
 30
0.0
 10
675.013974101559
 20
2696.694539617215
 30
0.0
 10
687.5821123442021
 20
2695.712744773607
 30
0.0
 10
694.0750343404791
 20
2695.262754531804
 30
0.0
 10
707.4172955452741
 20
2694.444588408201
 30
0.0
 10
714.2666151070528
 20
2694.076412526401
 30
0.0
 10
728.2567456121072
 20
2693.421875122802
 30
0.0
 10
735.3975357435946
 20
2693.135513601004
 30
0.0
 10
749.9026884653983
 20
2692.644604917411
 30
0.0
 10
757.2670292714885
 20
2692.440057755615
 30
0.0
 10
772.1490110359687
 20
2692.112777792027
 30
0.0
 10
779.66662944122
 20
2691.990044990234
 30
0.0
 10
791.0040622976072
 20
2691.867306557546
 30
0.0
 10
794.7933630633719
 20
2691.83662054165
 30
0.0
 10
800.4857292443097
 20
2691.805931710307
 30
0.0
 10
802.3845867221056
 20
2691.79825879861
 30
0.0
 10
805.2341205036479
 20
2691.790584479189
 30
0.0
 10
806.184173007172
 20
2691.788665547402
 30
0.0
 10
807.4080526612961
 20
2691.787017171515
 30
0.0
 10
807.6818385341417
 20
2691.786701502795
 30
0.0
 10
807.9556026017568
 20
2691.78643889243
 30
0.0
  0
LINE
  5
87
330
6F
100
AcDbEntity
  8
DV1_0
 62
     7
370
    35
100
AcDbLine
 10
577.1433104591601
 20
2532.851843456109
 30
0.0
 11
577.1433104591601
 21
2533.533322043878
 31
0.0
  0
SPLINE
  5
88
330
6F
100
AcDbEntity
  8
DV1_0
 62
     7
370
    35
100
AcDbSpline
210
0.0
220
0.0
230
1.0
 70
     8
 71
     3
 72
    28
 73
    24
 74
     0
 42
0.000000001
 43
0.0000000001
 40
0.0
 40
0.0
 40
0.0
 40
0.0
 40
0.006249636847503
 40
0.006249636847503
 40
0.022023452135638
 40
0.022023452135638
 40
0.0535710827119082
 40
0.0535710827119082
 40
0.1166663438644486
 40
0.1166663438644486
 40
0.2428568661695248
 40
0.2428568661695248
 40
0.3690473884746057
 40
0.3690473884746057
 40
0.4952379107796818
 40
0.4952379107796818
 40
0.6214284330847624
 40
0.6214284330847624
 40
0.7476189553898432
 40
0.7476189553898432
 40
0.8738094776949193
 40
0.8738094776949193
 40
1.0
 40
1.0
 40
1.0
 40
1.0
 10
814.5123710348552
 20
2729.802224605347
 30
0.0
 10
814.9545973843993
 20
2729.801713597642
 30
0.0
 10
815.3935993699506
 20
2729.801038335412
 30
0.0
 10
816.944572126567
 20
2729.798061618248
 30
0.0
 10
818.0553086610247
 20
2729.794858933255
 30
0.0
 10
821.3868340500338
 20
2729.782038848741
 30
0.0
 10
823.6069387137641
 20
2729.769209419682
 30
0.0
 10
830.2617702764122
 20
2729.717873014358
 30
0.0
 10
834.6910139123012
 20
2729.666517919946
 30
0.0
 10
847.9348529828027
 20
2729.46106016412
 30
0.0
 10
856.7055043011272
 20
2729.255565030117
 30
0.0
 10
874.0132687308056
 20
2728.70752816854
 30
0.0
 10
882.5503300298777
 20
2728.364986440966
 30
0.0
 10
899.2767173715637
 20
2727.542856392247
 30
0.0
 10
907.4659923294889
 20
2727.063268071101
 30
0.0
 10
923.3864515250272
 20
2725.967044835239
 30
0.0
 10
931.1175861057441
 20
2725.350409920523
 30
0.0
 10
946.0167645400272
 20
2723.980093497518
 30
0.0
 10
953.1847608578361
 20
2723.22641198923
 30
0.0
 10
966.8594788176852
 20
2721.582002379083
 30
0.0
 10
973.3661557219581
 20
2720.691274277224
 30
0.0
 10
985.6282537045353
 20
2718.772771479934
 30
0.0
 10
991.3836171932752
 20
2717.745000131293
 30
0.0
 10
996.7231433440272
 20
2716.648698792287
 30
0.0
  0
LINE
  5
89
330
6F
100
AcDbEntity
  8
DV1_0
 62
     7
370
    35
100
AcDbLine
 10
575.7616544628386
 20
2536.648698792287
 30
0.0
 11
1043.711768572371
 21
2536.648698792287
 31
0.0
  0
LINE
  5
8A
330
6F
100
AcDbEntity
  8
DV1_0
 62
     7
370
    25
100
AcDbLine
 10
624.8623108659241
 20
2587.739256321392
 30
0.0
 11
624.8623108659241
 21
2716.648698792287
 31
0.0
  0
SPLINE
  5
8B
330
6F
100
AcDbEntity
  8
DV1_0
 62
     7
370
    35
100
AcDbSpline
210
0.0
220
0.0
230
1.0
 70
     8
 71
     3
 72
     8
 73
     4
 74
     0
 42
0.000000001
 43
0.0000000001
 40
0.0
 40
0.0
 40
0.0
 40
0.0
 40
0.0036472507142132
 40
0.0036472507142132
 40
0.0036472507142132
 40
0.0036472507142132
 10
624.8623113179566
 20
2716.648698792287
 30
0.0
 10
625.0253293107631
 20
2716.679687522217
 30
0.0
 10
625.188347314673
 20
2716.710676252146
 30
0.0
 10
625.3514350662231
 20
2716.741658544896
 30
0.0
  0
SPLINE
  5
8C
330
6F
100
AcDbEntity
  8
DV1_0
 62
     7
370
    35
100
AcDbSpline
210
0.0
220
0.0
230
1.0
 70
     8
 71
     3
 72
    23
 73
    19
 74
     0
 42
0.000000001
 43
0.0000000001
 40
0.1266046520225375
 40
0.1266046520225375
 40
0.1266046520225375
 40
0.1266046520225375
 40
0.1840450804783981
 40
0.2500504681001259
 40
0.3756942266789084
 40
0.4999345601853067
 40
0.5416286038400765
 40
0.5833150243506332
 40
0.6249949119779343
 40
0.6666693574956701
 40
0.7083394521048914
 40
0.7500062873484854
 40
0.7916709550255081
 40
0.8333345471054184
 40
0.8749981556422485
 40
0.9166628726887345
 40
0.9583297902104563
 40
1.0
 40
1.0
 40
1.0
 40
1.0
 10
642.9464497478507
 20
2719.759781142945
 30
0.0
 10
645.8639198130527
 20
2720.208025768864
 30
0.0
 10
652.3066151015411
 20
2721.145844356074
 30
0.0
 10
666.0121800234074
 20
2722.884702323957
 30
0.0
 10
684.7098731044576
 20
2724.786870528901
 30
0.0
 10
703.3049671210952
 20
2726.235254615079
 30
0.0
 10
717.0475651973255
 20
2727.106440258551
 30
0.0
 10
725.4684736439854
 20
2727.585251751182
 30
0.0
 10
734.017241739465
 20
2728.017332381595
 30
0.0
 10
742.681263148776
 20
2728.402866023172
 30
0.0
 10
751.4474092856959
 20
2728.741804872134
 30
0.0
 10
760.3024811730756
 20
2729.034156296958
 30
0.0
 10
769.233118673042
 20
2729.279938607022
 30
0.0
 10
778.2258309828236
 20
2729.479071193907
 30
0.0
 10
787.2670859784394
 20
2729.631858173357
 30
0.0
 10
796.343044126342
 20
2729.73716365582
 30
0.0
 10
805.4406563491577
 20
2729.799227355965
 30
0.0
 10
811.5090340263879
 20
2729.801225494945
 30
0.0
 10
814.5433427413465
 20
2729.802224603905
 30
0.0
  0
LINE
  5
8D
330
6F
100
AcDbEntity
  8
DV1_0
 62
     7
370
    25
100
AcDbLine
 10
575.761654462839
 20
2726.152392431985
 30
0.0
 11
575.761654462838
 21
2536.648698792287
 31
0.0
  0
LINE
  5
8E
330
6F
100
AcDbEntity
  8
DV1_0
 62
     7
370
    35
100
AcDbLine
 10
575.733630362384
 20
2536.648698792287
 30
0.0
 11
575.7616544628385
 21
2536.648698792287
 31
0.0
  0
LINE
  5
8F
330
6F
100
AcDbEntity
  8
DV1_0
 62
     7
370
    35
100
AcDbLine
 10
575.761654462839
 20
2726.152392431985
 30
0.0
 11
575.7439542386351
 21
2725.948698792288
 31
0.0
  0
LINE
  5
90
330
6F
100
AcDbEntity
  8
DV1_0
 62
     7
370
    35
100
AcDbLine
 10
575.7439541882916
 20
2725.948698792288
 30
0.0
 11
575.733630362384
 21
2725.948698792288
 31
0.0
  0
LINE
  5
91
330
6F
100
AcDbEntity
  8
DV1_0
 62
     7
370
    25
100
AcDbLine
 10
575.733630362384
 20
2725.948698792288
 30
0.0
 11
575.733630362384
 21
2536.648698792287
 31
0.0
  0
SPLINE
  5
92
330
6F
100
AcDbEntity
  8
DV1_0
 62
     7
370
    35
100
AcDbSpline
210
0.0
220
0.0
230
1.0
 70
     8
 71
     3
 72
    28
 73
    24
 74
     0
 42
0.000000001
 43
0.0000000001
 40
0.0
 40
0.0
 40
0.0
 40
0.0
 40
0.1261905223488806
 40
0.1261905223488806
 40
0.2523810446977566
 40
0.2523810446977566
 40
0.3785715670466375
 40
0.3785715670466375
 40
0.504762089395518
 40
0.504762089395518
 40
0.6309526117443941
 40
0.6309526117443941
 40
0.7571431340932749
 40
0.7571431340932749
 40
0.883333656442151
 40
0.883333656442151
 40
0.9464289176165915
 40
0.9464289176165915
 40
0.9779765482038116
 40
0.9779765482038116
 40
0.9937503634974217
 40
0.9937503634974217
 40
1.0
 40
1.0
 40
1.0
 40
1.0
 10
997.9296683425539
 20
2716.648698792287
 30
0.0
 10
992.5556943036075
 20
2717.74500013192
 30
0.0
 10
986.7631994193478
 20
2718.772771479934
 30
0.0
 10
974.4219910819376
 20
2720.691274277224
 30
0.0
 10
967.8733355929711
 20
2721.582002379083
 30
0.0
 10
954.1103935957999
 20
2723.22641198923
 30
0.0
 10
946.8961521139937
 20
2723.980093497518
 30
0.0
 10
931.9008498928725
 20
2725.350409920523
 30
0.0
 10
924.1198369959956
 20
2725.967044835239
 30
0.0
 10
908.096665101712
 20
2727.063268071101
 30
0.0
 10
899.8545560815672
 20
2727.542856392247
 30
0.0
 10
883.0202565017331
 20
2728.364986440966
 30
0.0
 10
874.4281173563112
 20
2728.70752816854
 30
0.0
 10
857.0086898664161
 20
2729.255565030117
 30
0.0
 10
848.1814536684974
 20
2729.46106016412
 30
0.0
 10
834.852170426067
 20
2729.666517919946
 30
0.0
 10
830.3943510084334
 20
2729.717873014358
 30
0.0
 10
823.6965850240387
 20
2729.769209419682
 30
0.0
 10
821.4621570962174
 20
2729.782038848741
 30
0.0
 10
818.1091379827217
 20
2729.794858933255
 30
0.0
 10
816.9912354020058
 20
2729.798061618248
 30
0.0
 10
815.4302563884156
 20
2729.801038335365
 30
0.0
 10
814.9884221548451
 20
2729.801713597567
 30
0.0
 10
814.5433427413465
 20
2729.802224603905
 30
0.0
  0
SPLINE
  5
93
330
6F
100
AcDbEntity
  8
DV1_0
 62
     7
370
    35
100
AcDbSpline
210
0.0
220
0.0
230
1.0
 70
     8
 71
     3
 72
    17
 73
    13
 74
     0
 42
0.000000001
 43
0.0000000001
 40
0.0
 40
0.0
 40
0.0
 40
0.0
 40
0.0130958963506108
 40
0.0255419488947945
 40
0.0373627935680292
 40
0.0485817565408784
 40
0.0592210101600115
 40
0.0693017166829016
 40
0.0788449568028585
 40
0.0878720968209035
 40
0.0964035847551312
 40
0.1031240012586014
 40
0.1031240012586014
 40
0.1031240012586014
 40
0.1031240012586014
 10
575.7616544628391
 20
2726.152392431985
 30
0.0
 10
575.8033193537979
 20
2726.517176770277
 30
0.0
 10
575.8845816429214
 20
2727.228644139657
 30
0.0
 10
576.1163438965367
 20
2728.260863067756
 30
0.0
 10
576.4108103654215
 20
2729.234771289356
 30
0.0
 10
576.7642543019774
 20
2730.152158406629
 30
0.0
 10
577.1641939161398
 20
2731.015427174259
 30
0.0
 10
577.6013638501175
 20
2731.826819175554
 30
0.0
 10
578.0672047446369
 20
2732.588497508208
 30
0.0
 10
578.5547111214688
 20
2733.302477328785
 30
0.0
 10
579.0310851131395
 20
2733.93599359537
 30
0.0
 10
579.3518859819122
 20
2734.330300762039
 30
0.0
 10
579.49743081075
 20
2734.503259579022
 30
0.0
  0
SPLINE
  5
94
330
6F
100
AcDbEntity
  8
DV1_0
 62
     7
370
    35
100
AcDbSpline
210
0.0
220
0.0
230
1.0
 70
     8
 71
     3
 72
     9
 73
     5
 74
     0
 42
0.000000001
 43
0.0000000001
 40
0.0020916970374136
 40
0.0020916970374136
 40
0.0020916970374136
 40
0.0020916970374136
 40
0.0020956560354604
 40
0.0455667475818692
 40
0.0455667475818692
 40
0.0455667475818692
 40
0.0455667475818692
 10
1043.71176783799
 20
2726.327732030237
 30
0.0
 10
1043.71176808422
 20
2726.327842584491
 30
0.0
 10
1043.714456200503
 20
2727.541872807935
 30
0.0
 10
1043.543148247843
 20
2728.732337376383
 30
0.0
 10
1043.198481472719
 20
2729.898444700785
 30
0.0
  0
LINE
  5
95
330
6F
100
AcDbEntity
  8
DV1_0
 62
     7
370
    25
100
AcDbLine
 10
997.9296683425541
 20
2586.648698792287
 30
0.0
 11
997.9296683425541
 21
2716.648698792287
 31
0.0
  0
SPLINE
  5
96
330
6F
100
AcDbEntity
  8
DV1_0
 62
     7
370
    35
100
AcDbSpline
210
0.0
220
0.0
230
1.0
 70
     8
 71
     3
 72
    62
 73
    58
 74
     0
 42
0.000000001
 43
0.0000000001
 40
0.0842229763934541
 40
0.0842229763934541
 40
0.0842229763934541
 40
0.0842229763934541
 40
0.1238317312941691
 40
0.1238317312941691
 40
0.1857475969412537
 40
0.1857475969412537
 40
0.216705529764796
 40
0.216705529764796
 40
0.2321844961765669
 40
0.2321844961765669
 40
0.2399239793824526
 40
0.2399239793824526
 40
0.2437937209853955
 40
0.2437937209853955
 40
0.2457285917868669
 40
0.2457285917868669
 40
0.2466960271876024
 40
0.2466960271876024
 40
0.2471797448879706
 40
0.2471797448879706
 40
0.2474216037381544
 40
0.2474216037381544
 40
0.2475425331632462
 40
0.2475425331632462
 40
0.2476634625883383
 40
0.2476634625883383
 40
0.3714951938825072
 40
0.3714951938825072
 40
0.4334110595295918
 40
0.4334110595295918
 40
0.4643689923531327
 40
0.4643689923531327
 40
0.4798479587649041
 40
0.4798479587649041
 40
0.4875874419707898
 40
0.4875874419707898
 40
0.4914571835737327
 40
0.4914571835737327
 40
0.4933920543752064
 40
0.4933920543752064
 40
0.494359489775941
 40
0.494359489775941
 40
0.4953269251766755
 40
0.4953269251766755
 40
0.6191586564708468
 40
0.6191586564708468
 40
0.7429903877650134
 40
0.7429903877650134
 40
0.8668221190591844
 40
0.8668221190591844
 40
0.9287379847062699
 40
0.9287379847062699
 40
0.9596959175298081
 40
0.9596959175298081
 40
0.9751748839415796
 40
0.9751748839415796
 40
0.9780232031506417
 40
0.9780232031506417
 40
0.9780232031506417
 40
0.9780232031506417
 10
639.1577358854588
 20
2718.985925517564
 30
0.0
 10
641.2026698459306
 20
2719.321465350283
 30
0.0
 10
643.2366352745227
 20
2719.642516176294
 30
0.0
 10
648.3997816662388
 20
2720.428356312266
 30
0.0
 10
651.5015137184872
 20
2720.872201997895
 30
0.0
 10
656.0434692924417
 20
2721.484859653663
 30
0.0
 10
657.5390821617677
 20
2721.680227060139
 30
0.0
 10
659.7505276808906
 20
2721.960000451684
 30
0.0
 10
660.482351194212
 20
2722.051045295837
 30
0.0
 10
661.5715820372644
 20
2722.184293132525
 30
0.0
 10
661.9332418192071
 20
2722.228155839831
 30
0.0
 10
662.4735432506799
 20
2722.293120043404
 30
0.0
 10
662.6532790355512
 20
2722.314636468364
 30
0.0
 10
662.922327993642
 20
2722.346703641457
 30
0.0
 10
663.0119185273736
 20
2722.357358121764
 30
0.0
 10
663.1461646975401
 20
2722.373287976138
 30
0.0
 10
663.1908901492473
 20
2722.378589283248
 30
0.0
 10
663.2579433007902
 20
2722.386528277392
 30
0.0
 10
663.2802885136391
 20
2722.389172447686
 30
0.0
 10
663.313797561633
 20
2722.393135461497
 30
0.0
 10
663.3249657824181
 20
2722.394455925829
 30
0.0
 10
663.3417159189305
 20
2722.396435811919
 30
0.0
 10
663.347298931991
 20
2722.397095638881
 30
0.0
 10
663.3584642262489
 20
2722.398415022669
 30
0.0
 10
663.3627775757777
 20
2722.398924673749
 30
0.0
 10
670.3848955264217
 20
2723.228485366222
 30
0.0
 10
677.694748615897
 20
2723.9855269932
 30
0.0
 10
689.0136917173041
 20
2725.013524826679
 30
0.0
 10
692.8456843535313
 20
2725.338263336675
 30
0.0
 10
698.6711475108638
 20
2725.798479949921
 30
0.0
 10
700.6258807175639
 20
2725.947403629045
 30
0.0
 10
703.5759682947393
 20
2726.164066359795
 30
0.0
 10
704.5623287911923
 20
2726.235166805389
 30
0.0
 10
706.0461940762393
 20
2726.340136776795
 30
0.0
 10
706.5415365959432
 20
2726.374846651101
 30
0.0
 10
707.2856099739406
 20
2726.426491288311
 30
0.0
 10
707.5338110331161
 20
2726.44363613834
 30
0.0
 10
707.9063748302935
 20
2726.469248369823
 30
0.0
 10
708.0306064640953
 20
2726.477768273057
 30
0.0
 10
708.2170191305601
 20
2726.490521867018
 30
0.0
 10
708.279167555342
 20
2726.494768688189
 30
0.0
 10
708.4034860874401
 20
2726.503253576903
 30
0.0
 10
708.4648878966153
 20
2726.507439333596
 30
0.0
 10
716.5853371090005
 20
2727.060333536787
 30
0.0
 10
724.869180062574
 20
2727.540366185606
 30
0.0
 10
741.7796354133835
 20
2728.363280377655
 30
0.0
 10
750.4061981298979
 20
2728.706161920881
 30
0.0
 10
767.8873420504112
 20
2729.254773901744
 30
0.0
 10
776.7418716629943
 20
2729.46050433938
 30
0.0
 10
790.1062028070373
 20
2729.666236666639
 30
0.0
 10
794.5747156907456
 20
2729.71767022086
 30
0.0
 10
801.2869062358443
 20
2729.769104719892
 30
0.0
 10
803.5258726372542
 20
2729.781963580853
 30
0.0
 10
806.8852744769475
 20
2729.79482291422
 30
0.0
 10
808.0052337752714
 20
2729.798037865663
 30
0.0
 10
809.3313287200082
 20
2729.800575746671
 30
0.0
 10
809.5374240299932
 20
2729.800933887956
 30
0.0
 10
809.743520024803
 20
2729.801255747949
 30
0.0
  0
LINE
  5
97
330
6F
100
AcDbEntity
  8
DV1_0
 62
     7
370
    35
100
AcDbLine
 10
575.7326710183364
 20
2536.648698792287
 30
0.0
 11
575.7336303623841
 21
2536.648698792287
 31
0.0
  0
LINE
  5
98
330
6F
100
AcDbEntity
  8
DV1_0
 62
     7
370
    35
100
AcDbLine
 10
575.7326710183364
 20
2725.948698792288
 30
0.0
 11
575.733630362384
 21
2725.948698792288
 31
0.0
  0
LINE
  5
99
330
6F
100
AcDbEntity
  8
DV1_0
 62
     7
370
    35
100
AcDbLine
 10
624.8623108659242
 20
2716.648698792287
 30
0.0
 11
625.3603133672552
 21
2716.648698792287
 31
0.0
  0
LINE
  5
9A
330
6F
100
AcDbEntity
  8
DV1_0
 62
     7
370
    25
100
AcDbLine
 10
631.1763501295542
 20
2716.648698792287
 30
0.0
 11
631.176350129554
 21
2588.148698792287
 31
0.0
  0
LINE
  5
9B
330
6F
100
AcDbEntity
  8
DV1_0
 62
     7
370
    35
100
AcDbLine
 10
647.3704265525531
 20
2588.148698792287
 30
0.0
 11
647.3704265525531
 21
2713.846137620043
 31
0.0
  0
LINE
  5
9C
330
6F
100
AcDbEntity
  8
DV1_0
 62
     7
370
    35
100
AcDbLine
 10
997.9296683425541
 20
2716.648698792287
 30
0.0
 11
991.6363923817631
 21
2716.648698792287
 31
0.0
  0
LINE
  5
9D
330
6F
100
AcDbEntity
  8
DV1_0
 62
     7
370
    25
100
AcDbLine
 10
991.6363923817631
 20
2588.148698792287
 30
0.0
 11
991.6363923817631
 21
2716.648698792287
 31
0.0
  0
LINE
  5
9E
330
6F
100
AcDbEntity
  8
DV1_0
 62
     7
370
    35
100
AcDbLine
 10
975.1472174018951
 20
2716.648698792287
 30
0.0
 11
991.6363923817631
 21
2716.648698792287
 31
0.0
  0
LINE
  5
9F
330
6F
100
AcDbEntity
  8
DV1_0
 62
     7
370
    35
100
AcDbLine
 10
975.1472174018951
 20
2715.36948833152
 30
0.0
 11
975.1472174018951
 21
2588.148698792287
 31
0.0
  0
LINE
  5
A0
330
6F
100
AcDbEntity
  8
DV1_0
 62
     7
370
    35
100
AcDbLine
 10
1043.711768572357
 20
2536.648698792287
 30
0.0
 11
1043.711768572357
 21
2726.324587167203
 31
0.0
  0
LINE
  5
A1
330
6F
100
AcDbEntity
  8
DV1_0
 62
     7
370
    35
100
AcDbLine
 10
575.7326710183414
 20
2725.948698792288
 30
0.0
 11
575.7326710183369
 21
2536.648698792287
 31
0.0
  0
LINE
  5
A2
330
6F
100
AcDbEntity
  8
DV1_0
 62
     7
370
    25
100
AcDbLine
 10
1006.238142362869
 20
2530.364244970749
 30
0.0
 11
1006.238142362869
 21
2533.351843456109
 31
0.0
  0
LINE
  5
A3
330
6F
100
AcDbEntity
  8
DV1_0
 62
     7
370
    35
100
AcDbLine
 10
1006.197362925525
 20
2533.351843456109
 30
0.0
 11
1006.238142362869
 21
2533.351843456109
 31
0.0
  0
LINE
  5
A4
330
6F
100
AcDbEntity
  8
DV1_0
 62
     7
370
    35
100
AcDbLine
 10
1018.152166387613
 20
2533.351843456109
 30
0.0
 11
1043.42108290929
 21
2533.351843456109
 31
0.0
  0
LINE
  5
A5
330
6F
100
AcDbEntity
  8
DV1_0
 62
     7
370
    25
100
AcDbLine
 10
1018.152166387613
 20
2533.351843456109
 30
0.0
 11
1018.152166387613
 21
2530.36424497075
 31
0.0
  0
LINE
  5
A6
330
6F
100
AcDbEntity
  8
DV1_0
 62
     7
370
    25
100
AcDbLine
 10
1013.08850230101
 20
2533.351843456109
 30
0.0
 11
1013.08850230101
 21
2530.36424497075
 31
0.0
  0
LINE
  5
A7
330
6F
100
AcDbEntity
  8
DV1_0
 62
     7
370
    35
100
AcDbLine
 10
1013.08850230101
 20
2533.351843456109
 30
0.0
 11
1018.152166387613
 21
2533.351843456109
 31
0.0
  0
LINE
  5
A8
330
6F
100
AcDbEntity
  8
DV1_0
 62
     7
370
    35
100
AcDbLine
 10
1006.238142362869
 20
2533.351843456109
 30
0.0
 11
1013.08850230101
 21
2533.351843456109
 31
0.0
  0
LINE
  5
A9
330
6F
100
AcDbEntity
  8
DV1_0
 62
     7
370
    35
100
AcDbLine
 10
1006.197362925519
 20
2533.351843456109
 30
0.0
 11
1006.197362925519
 21
2530.364244970749
 31
0.0
  0
LINE
  5
AA
330
6F
100
AcDbEntity
  8
DV1_0
 62
     7
370
    25
100
AcDbLine
 10
575.8634634547781
 20
1853.351843456109
 30
0.0
 11
575.8634634547781
 21
2530.364244970742
 31
0.0
  0
LINE
  5
AB
330
6F
100
AcDbEntity
  8
DV1_0
 62
     7
370
    35
100
AcDbLine
 10
575.8618936927996
 20
2530.364244970742
 30
0.0
 11
575.8634634547781
 21
2530.364244970742
 31
0.0
  0
LINE
  5
AC
330
6F
100
AcDbEntity
  8
DV1_0
 62
     7
370
    35
100
AcDbLine
 10
575.899309946786
 20
2530.364244970742
 30
0.0
 11
1043.8176823239
 21
2530.364244970754
 31
0.0
  0
LINE
  5
AD
330
6F
100
AcDbEntity
  8
DV1_0
 62
     7
370
    25
100
AcDbLine
 10
575.899309946786
 20
1853.351843456109
 30
0.0
 11
575.899309946786
 21
2530.364244970742
 31
0.0
  0
LINE
  5
AE
330
6F
100
AcDbEntity
  8
DV1_0
 62
     7
370
    35
100
AcDbLine
 10
1043.817682323909
 20
1850.364244970742
 30
0.0
 11
575.8993099467782
 21
1850.364244970742
 31
0.0
  0
LINE
  5
AF
330
6F
100
AcDbEntity
  8
DV1_0
 62
     7
370
    35
100
AcDbLine
 10
575.8634634547781
 20
2530.364244970742
 30
0.0
 11
575.899309946786
 21
2530.364244970742
 31
0.0
  0
LINE
  5
B0
330
6F
100
AcDbEntity
  8
DV1_0
 62
     7
370
    35
100
AcDbLine
 10
575.861893692799
 20
2530.364244970742
 30
0.0
 11
575.861893692799
 21
1853.351843456109
 31
0.0
  0
LINE
  5
B1
330
6F
100
AcDbEntity
  8
DV1_0
 62
     7
370
    35
100
AcDbLine
 10
1043.81768232391
 20
1850.364244970742
 30
0.0
 11
1043.81768232391
 21
2530.364244970742
 31
0.0
  0
LINE
  5
B2
330
6F
100
AcDbEntity
  8
DV1_0
 62
     7
370
    35
100
AcDbLine
 10
577.7757424898338
 20
1850.351843456109
 30
0.0
 11
1042.317682323909
 21
1850.351843456109
 31
0.0
  0
LINE
  5
B3
330
6F
100
AcDbEntity
  8
DV1_0
 62
     7
370
    35
100
AcDbLine
 10
1042.317682323908
 20
1850.351843456109
 30
0.0
 11
1042.317682323908
 21
1850.364244970742
 31
0.0
  0
LINE
  5
B4
330
6F
100
AcDbEntity
  8
DV1_0
 62
     7
370
    35
100
AcDbLine
 10
601.1430081507953
 20
1768.851843456109
 30
0.0
 11
1021.143008150795
 21
1768.851843456109
 31
0.0
  0
LINE
  5
B5
330
6F
100
AcDbEntity
  8
DV1_0
 62
     7
370
    35
100
AcDbLine
 10
601.1430081508055
 20
1770.351843456109
 30
0.0
 11
601.1430081508055
 21
1768.851843456109
 31
0.0
  0
LINE
  5
B6
330
6F
100
AcDbEntity
  8
DV1_0
 62
     7
370
    35
100
AcDbLine
 10
1021.143008150805
 20
1768.851843456109
 30
0.0
 11
1021.143008150805
 21
1770.351843456109
 31
0.0
  0
LINE
  5
B7
330
6F
100
AcDbEntity
  8
DV1_0
 62
     7
370
    35
100
AcDbLine
 10
1024.143008150806
 20
1770.351843456109
 30
0.0
 11
598.1430081508055
 21
1770.351843456109
 31
0.0
  0
LINE
  5
B8
330
6F
100
AcDbEntity
  8
DV1_0
 62
     7
370
    35
100
AcDbLine
 10
598.1430081508004
 20
1850.351843456109
 30
0.0
 11
598.1430081508004
 21
1770.351843456109
 31
0.0
  0
LINE
  5
B9
330
6F
100
AcDbEntity
  8
DV1_0
 62
     7
370
    35
100
AcDbLine
 10
1024.143008150802
 20
1770.351843456109
 30
0.0
 11
1024.143008150802
 21
1850.351843456109
 31
0.0
  0
LINE
  5
BA
330
6F
100
AcDbEntity
  8
DV1_0
 62
     7
370
    35
100
AcDbLine
 10
577.7757424898333
 20
1853.351843456109
 30
0.0
 11
572.6430081507579
 21
1853.351843456109
 31
0.0
  0
LINE
  5
BB
330
6F
100
AcDbEntity
  8
DV1_0
 62
     7
370
    35
100
AcDbLine
 10
1042.317682323909
 20
1850.351843456109
 30
0.0
 11
1043.643008150801
 21
1850.351843456109
 31
0.0
  0
LINE
  5
BC
330
6F
100
AcDbEntity
  8
DV1_0
 62
     7
370
    35
100
AcDbLine
 10
572.643008150757
 20
1850.351843456109
 30
0.0
 11
577.7757424898339
 21
1850.351843456109
 31
0.0
  0
LINE
  5
BD
330
6F
100
AcDbEntity
  8
DV1_0
 62
     7
370
    35
100
AcDbLine
 10
1043.643008150801
 20
1850.364244970742
 30
0.0
 11
1043.643008150801
 21
1850.351843456109
 31
0.0
  0
LINE
  5
BE
330
6F
100
AcDbEntity
  8
DV1_0
 62
     7
370
    35
100
AcDbLine
 10
572.6430081507567
 20
1853.351843456109
 30
0.0
 11
572.6430081507567
 21
1850.351843456109
 31
0.0
  0
LINE
  5
BF
330
6F
100
AcDbEntity
  8
DV1_0
 62
     7
370
    35
100
AcDbLine
 10
584.8930081507575
 20
1849.465364627909
 30
0.0
 11
578.3930081507573
 21
1849.465364627909
 31
0.0
  0
ARC
  5
C0
330
6F
100
AcDbEntity
  8
DV1_0
 62
     7
370
    35
100
AcDbCircle
 10
578.3930081507573
 20
1850.465364627909
 30
0.0
 40
1.000000000000001
100
AcDbArc
 50
185.8036489514348
 51
270.0
  0
ARC
  5
C1
330
6F
100
AcDbEntity
  8
DV1_0
 62
     7
370
    35
100
AcDbCircle
 10
584.8930081507573
 20
1850.465364627909
 30
0.0
 40
1.000000000000015
100
AcDbArc
 50
270.0
 51
354.1963510485651
  0
ELLIPSE
  5
C2
330
6F
100
AcDbEntity
  8
DV1_0
 62
     7
370
    25
100
AcDbEllipse
 10
807.9246360422906
 20
2734.918902231267
 30
0.0
 11
-236.9992483669732
 21
-0.5968864964819298
 31
0.0
210
0.0
220
0.0
230
1.0
 40
0.1676283263523987
 41
0.8260892056127664
 42
2.35361923693375
  0
ELLIPSE
  5
C3
330
6F
100
AcDbEntity
  8
DV1_0
 62
     7
370
    25
100
AcDbEllipse
 10
807.9246360422906
 20
2734.918902231267
 30
0.0
 11
-236.9992483669732
 21
-0.5968864964819298
 31
0.0
210
0.0
220
0.0
230
1.0
 40
0.1676283263523987
 41
0.1306503998327857
 42
0.201350207357666
  0
ELLIPSE
  5
C4
330
6F
100
AcDbEntity
  8
DV1_0
 62
     7
370
    25
100
AcDbEllipse
 10
807.9171874257044
 20
2737.876443645337
 30
0.0
 11
233.9992578813157
 21
0.5893309712088346
 31
0.0
210
0.0
220
0.0
230
1.0
 40
0.1676283263523997
 41
3.273597142706285
 42
3.303822414073505
  0
ELLIPSE
  5
C5
330
6F
100
AcDbEntity
  8
DV1_0
 62
     7
370
    25
100
AcDbEllipse
 10
807.9171874257044
 20
2737.876443645337
 30
0.0
 11
233.9992578813157
 21
0.5893309712088346
 31
0.0
210
0.0
220
0.0
230
1.0
 40
0.1676283263523997
 41
3.955853017804348
 42
4.367973628345657
  0
ELLIPSE
  5
C6
330
6F
100
AcDbEntity
  8
DV1_0
 62
     7
370
    35
100
AcDbEllipse
 10
807.9171874257044
 20
2737.876443645337
 30
0.0
 11
233.9992578813157
 21
0.5893309712088346
 31
0.0
210
0.0
220
0.0
230
1.0
 40
0.1676283263523997
 41
4.367973628345656
 42
5.025140578440354
  0
ELLIPSE
  5
C7
330
6F
100
AcDbEntity
  8
DV1_0
 62
     7
370
    25
100
AcDbEllipse
 10
807.9171874257044
 20
2737.876443645337
 30
0.0
 11
233.9992578813157
 21
0.5893309712088346
 31
0.0
210
0.0
220
0.0
230
1.0
 40
0.1676283263523997
 41
-1.258044728739232
 42
-0.7750799524781922
  0
ELLIPSE
  5
C8
330
6F
100
AcDbEntity
  8
DV1_0
 62
     7
370
    35
100
AcDbEllipse
 10
807.9507062003587
 20
2724.567507282015
 30
0.0
 11
-236.9992483669733
 21
-0.5968864964817078
 31
0.0
210
0.0
220
0.0
230
1.0
 40
0.1676283263524012
 41
3.095366137723326
 42
6.283185307179584
  0
ELLIPSE
  5
C9
330
6F
100
AcDbEntity
  8
DV1_0
 62
     7
370
    35
100
AcDbEllipse
 10
807.9507062003587
 20
2724.567507282015
 30
0.0
 11
-236.9992483669733
 21
-0.5968864964817078
 31
0.0
210
0.0
220
0.0
230
1.0
 40
0.1676283263524012
 41
0.8259396505621543
 42
2.353464017877849
  0
ELLIPSE
  5
CA
330
6F
100
AcDbEntity
  8
DV1_0
 62
     7
370
    35
100
AcDbEllipse
 10
807.9507062003587
 20
2724.567507282015
 30
0.0
 11
-236.9992483669733
 21
-0.5968864964817078
 31
0.0
210
0.0
220
0.0
230
1.0
 40
0.1676283263524012
 41
0.0
 42
0.2007854092976097
  0
ELLIPSE
  5
CB
330
6F
100
AcDbEntity
  8
DV1_0
 62
     7
370
    25
100
AcDbEllipse
 10
807.924636042301
 20
2734.918902231264
 30
0.0
 11
-238.4992436098025
 21
-0.6006642591175337
 31
0.0
210
0.0
220
0.0
230
0.9999999999999998
 40
0.1676283263523962
 41
3.142563115911713
 42
6.283185307179582
  0
ELLIPSE
  5
CC
330
6F
100
AcDbEntity
  8
DV1_0
 62
     7
370
    35
100
AcDbEllipse
 10
807.924636042301
 20
2734.918902231264
 30
0.0
 11
-238.4992436098025
 21
-0.6006642591175337
 31
0.0
210
0.0
220
0.0
230
0.9999999999999998
 40
0.1676283263523962
 41
3.141592653589811
 42
3.142563115911713
  0
ELLIPSE
  5
CD
330
6F
100
AcDbEntity
  8
DV1_0
 62
     7
370
    35
100
AcDbEllipse
 10
807.9507062003521
 20
2724.567507282015
 30
0.0
 11
-238.4992436098025
 21
-0.6006642591169786
 31
0.0
210
0.0
220
0.0
230
0.9999999999999998
 40
0.1676283263524005
 41
3.035893800405477
 42
6.283185307179586
  0
ELLIPSE
  5
CE
330
6F
100
AcDbEntity
  8
DV1_0
 62
     7
370
    35
100
AcDbEllipse
 10
807.9507062003521
 20
2724.567507282015
 30
0.0
 11
-238.4992436098025
 21
-0.6006642591169786
 31
0.0
210
0.0
220
0.0
230
0.9999999999999998
 40
0.1676283263524005
 41
0.0000000000000097
 42
0.2295904094780089
  0
SPLINE
  5
CF
330
6F
100
AcDbEntity
  8
DV1_0
 62
     7
370
    35
100
AcDbSpline
210
0.0
220
0.0
230
1.0
 70
     8
 71
     3
 72
    49
 73
    45
 74
     0
 42
0.000000001
 43
0.0000000001
 40
0.0
 40
0.0
 40
0.0
 40
0.0
 40
0.0138944389539394
 40
0.0331810247273365
 40
0.0528017090635631
 40
0.0733318131556999
 40
0.0952381143630414
 40
0.1187429630135715
 40
0.1436464432865248
 40
0.1693701885123556
 40
0.1953097052286657
 40
0.2210926958176742
 40
0.2466591595707351
 40
0.2720231950131987
 40
0.2972180826351049
 40
0.3222769877667963
 40
0.3472278059775902
 40
0.3720927009486422
 40
0.3968889400813599
 40
0.4216299201144175
 40
0.4463260647858506
 40
0.4709855353296534
 40
0.4956147716189745
 40
0.5202188984596984
 40
0.5448020296547678
 40
0.5693674960943498
 40
0.5939180177554947
 40
0.6184558342872021
 40
0.642982804905777
 40
0.6675004854222054
 40
0.6920101881191651
 40
0.7165130286773326
 40
0.7410099632543956
 40
0.7655018180265617
 40
0.7899893129244941
 40
0.8144730808725754
 40
0.8389536835292121
 40
0.8634316242952073
 40
0.8879073591857192
 40
0.912381306033219
 40
0.936853852392885
 40
0.9613253624501314
 40
0.9857961831769558
 40
1.0
 40
1.0
 40
1.0
 40
1.0
 10
1046.387737030959
 20
2735.582277491111
 30
0.0
 10
1046.382232318444
 20
2736.102317428822
 30
0.0
 10
1046.362430500751
 20
2737.150203717873
 30
0.0
 10
1045.933972416648
 20
2738.938550919896
 30
0.0
 10
1045.185552631257
 20
2740.78478042657
 30
0.0
 10
1044.108997458804
 20
2742.591232473544
 30
0.0
 10
1042.699972330191
 20
2744.362651123184
 30
0.0
 10
1040.922526402722
 20
2746.119871482079
 30
0.0
 10
1038.75649535798
 20
2747.859259160753
 30
0.0
 10
1036.206083684496
 20
2749.566045137694
 30
0.0
 10
1033.30023910546
 20
2751.222430752046
 30
0.0
 10
1030.070775592532
 20
2752.819815073864
 30
0.0
 10
1026.53834125877
 20
2754.358808412152
 30
0.0
 10
1022.710566185388
 20
2755.844874149453
 30
0.0
 10
1018.591475425756
 20
2757.282826393871
 30
0.0
 10
1014.184209656146
 20
2758.676094269971
 30
0.0
 10
1009.49218347528
 20
2760.026814975925
 30
0.0
 10
1004.519494387164
 20
2761.336121939406
 30
0.0
 10
999.2710266463614
 20
2762.604417377476
 30
0.0
 10
993.7524400320539
 20
2763.831585301607
 30
0.0
 10
987.9701201435614
 20
2765.017148014877
 30
0.0
 10
981.9311198521475
 20
2766.160379005578
 30
0.0
 10
975.6431027552677
 20
2767.260384300975
 30
0.0
 10
969.1142919759864
 20
2768.316161513776
 30
0.0
 10
962.3534247509261
 20
2769.326643174917
 30
0.0
 10
955.3697122173846
 20
2770.290728951536
 30
0.0
 10
948.1728035309221
 20
2771.20730993665
 30
0.0
 10
940.772753459794
 20
2772.075287223387
 30
0.0
 10
933.1799927018717
 20
2772.893586309795
 30
0.0
 10
925.4053003438734
 20
2773.661168422959
 30
0.0
 10
917.459777845547
 20
2774.37703953751
 30
0.0
 10
909.3548246312458
 20
2775.040257640019
 30
0.0
 10
901.1021132350514
 20
2775.649938655172
 30
0.0
 10
892.7135703009811
 20
2776.205261275856
 30
0.0
 10
884.2013388750241
 20
2776.705471105182
 30
0.0
 10
875.577812824393
 20
2777.149883555523
 30
0.0
 10
866.8554038423775
 20
2777.537888293308
 30
0.0
 10
858.0473074987367
 20
2777.868945361406
 30
0.0
 10
849.1645422937231
 20
2778.142610205023
 30
0.0
 10
840.2268967870559
 20
2778.358448996531
 30
0.0
 10
831.221977208147
 20
2778.516361709139
 30
0.0
 10
822.2579303863585
 20
2778.615382139184
 30
0.0
 10
814.2890337810896
 20
2778.652177902185
 30
0.0
 10
809.8395806849769
 20
2778.64694627779
 30
0.0
 10
807.9136212113731
 20
2778.644038021923
 30
0.0
  0
SPLINE
  5
D0
330
6F
100
AcDbEntity
  8
DV1_0
 62
     7
370
    35
100
AcDbSpline
210
0.0
220
0.0
230
1.0
 70
     8
 71
     3
 72
    49
 73
    45
 74
     0
 42
0.000000001
 43
0.0000000001
 40
0.0
 40
0.0
 40
0.0
 40
0.0
 40
0.0128669191993523
 40
0.0373173794066113
 40
0.0617691618790494
 40
0.0862215030295829
 40
0.1106747404995525
 40
0.1351292249598723
 40
0.1595853256436897
 40
0.1840434365700069
 40
0.2085039835376705
 40
0.2329674321376823
 40
0.2574342970850139
 40
0.2819051532430299
 40
0.3063806488092851
 40
0.3308615212592579
 40
0.3553486168150416
 40
0.3798429144347442
 40
0.4043455556262145
 40
0.4288578818057436
 40
0.4533814814900813
 40
0.4779182503873404
 40
0.5024704685201467
 40
0.5270408999867701
 40
0.5516329229936844
 40
0.5762507005725412
 40
0.6008994061464532
 40
0.6255855230103847
 40
0.6503172427226583
 40
0.6751049932746471
 40
0.6999621297246694
 40
0.7249058056465416
 40
0.7499579786968081
 40
0.7751462911559892
 40
0.8005039379388266
 40
0.8260658587712566
 40
0.851853826021552
 40
0.8778318907367869
 40
0.9036947960207619
 40
0.9259026366695091
 40
0.9465774870262706
 40
0.9659902461896661
 40
0.986624274636978
 40
1.0
 40
1.0
 40
1.0
 40
1.0
 10
807.9136212113731
 20
2778.644038021923
 30
0.0
 10
806.1675841662586
 20
2778.638279840598
 30
0.0
 10
801.8660643180459
 20
2778.622750233295
 30
0.0
 10
794.0582595642485
 20
2778.551315404204
 30
0.0
 10
785.095080137427
 20
2778.411547078787
 30
0.0
 10
776.087922979477
 20
2778.212722944595
 30
0.0
 10
767.1481509491314
 20
2777.956284476034
 30
0.0
 10
758.2625591755221
 20
2777.642285395375
 30
0.0
 10
749.4511715808226
 20
2777.271252451213
 30
0.0
 10
740.7249662977928
 20
2776.843685901645
 30
0.0
 10
732.0971770865469
 20
2776.360191560333
 30
0.0
 10
723.5802379820893
 20
2775.821443215294
 30
0.0
 10
715.1865751507619
 20
2775.228190069042
 30
0.0
 10
706.928367658553
 20
2774.581251616541
 30
0.0
 10
698.8175843903741
 20
2773.881515309434
 30
0.0
 10
690.8659467035156
 20
2773.12993278301
 30
0.0
 10
683.0849106082233
 20
2772.32751563088
 30
0.0
 10
675.4856431815032
 20
2771.475330266423
 30
0.0
 10
668.0789997874161
 20
2770.574491728742
 30
0.0
 10
660.8755000726577
 20
2769.626156109734
 30
0.0
 10
653.8853029307795
 20
2768.631511192882
 30
0.0
 10
647.1181799271446
 20
2767.591764726288
 30
0.0
 10
640.5834867304355
 20
2766.508129522767
 30
0.0
 10
634.2901319125646
 20
2765.381804242086
 30
0.0
 10
628.2465423187064
 20
2764.21394821322
 30
0.0
 10
622.4606240051961
 20
2763.005647912714
 30
0.0
 10
616.9397175335695
 20
2761.757871595023
 30
0.0
 10
611.6905462521687
 20
2760.471406862976
 30
0.0
 10
606.7191562490334
 20
2759.146773334627
 30
0.0
 10
602.0308473375885
 20
2757.784098520746
 30
0.0
 10
597.6300966106386
 20
2756.382938765098
 30
0.0
 10
593.520482341505
 20
2754.942018055839
 30
0.0
 10
589.7046306769078
 20
2753.458844240325
 30
0.0
 10
586.1842480107387
 20
2751.929152081037
 30
0.0
 10
582.9603833485929
 20
2750.346116942164
 30
0.0
 10
580.0343124774306
 20
2748.699407935278
 30
0.0
 10
577.4097147960241
 20
2746.974382895577
 30
0.0
 10
575.1008821879863
 20
2745.155799948071
 30
0.0
 10
573.2108277499339
 20
2743.306270428351
 30
0.0
 10
571.7407892583107
 20
2741.455580502599
 30
0.0
 10
570.6616361563933
 20
2739.638713717901
 30
0.0
 10
569.8987845774659
 20
2737.750793474153
 30
0.0
 10
569.4707594145971
 20
2735.934502860965
 30
0.0
 10
569.4637847036772
 20
2734.858161348823
 30
0.0
 10
569.4646018543441
 20
2734.357102895376
 30
0.0
  0
LINE
  5
D1
330
6F
100
AcDbEntity
  8
DV1_0
 62
     7
370
    35
100
AcDbLine
 10
569.4253924324923
 20
2734.318237972136
 30
0.0
 11
569.4514625905524
 21
2723.966843022886
 31
0.0
  0
LINE
  5
D2
330
6F
100
AcDbEntity
  8
DV1_0
 62
     7
370
    35
100
AcDbLine
 10
1046.449949810158
 20
2725.168171541141
 30
0.0
 11
1046.423879652098
 21
2735.51956649039
 31
0.0
  0
LINE
  5
D3
330
6F
100
AcDbEntity
  8
DV1_0
 62
     7
370
    35
100
AcDbLine
 10
585.8893554694224
 20
2530.36424497074
 30
0.0
 11
585.8893554694223
 21
2533.533322043877
 31
0.0
  0
LINE
  5
D4
330
6F
100
AcDbEntity
  8
DV1_0
 62
     7
370
    35
100
AcDbLine
 10
585.8893554694223
 20
2536.533322043878
 30
0.0
 11
585.8893554694223
 21
2536.648698792287
 31
0.0
  0
LINE
  5
D5
330
6F
100
AcDbEntity
  8
DV1_0
 62
     7
370
    35
100
AcDbLine
 10
577.3893554694228
 20
2536.648698792287
 30
0.0
 11
577.3893554694228
 21
2536.533322043878
 31
0.0
  0
LINE
  5
D6
330
6F
100
AcDbEntity
  8
DV1_0
 62
     7
370
    35
100
AcDbLine
 10
577.3893554694228
 20
2533.533322043877
 30
0.0
 11
577.3893554694229
 21
2530.364244970741
 31
0.0
  0
ELLIPSE
  5
D7
330
6F
100
AcDbEntity
  8
DV1_0
 62
     7
370
    35
100
AcDbEllipse
 10
808.3031340825664
 20
2687.70952113981
 30
0.0
 11
-232.4889919652254
 21
-2.262435632191085
 31
0.0
210
0.0
220
0.0
230
1.0
 40
0.2060443272249521
 41
3.770757911873767
 42
5.616058087644989
  0
LINE
  5
D8
330
6F
100
AcDbEntity
  8
DV1_0
 62
     7
370
    35
100
AcDbLine
 10
996.0005814103961
 20
2717.728246895063
 30
0.0
 11
995.9720150906661
 21
2720.663735880282
 31
0.0
  0
ELLIPSE
  5
D9
330
6F
100
AcDbEntity
  8
DV1_0
 62
     7
370
    35
100
AcDbEllipse
 10
808.2745677628366
 20
2690.645010125026
 30
0.0
 11
232.488991965232
 21
2.262435632191085
 31
0.0
210
0.0
220
0.0
230
0.9999999999999999
 40
0.2060443272249591
 41
0.6291652582840133
 42
2.474465434055161
  0
LINE
  5
DA
330
6F
100
AcDbEntity
  8
DV1_0
 62
     7
370
    35
100
AcDbLine
 10
625.3422318685631
 20
2718.50676244028
 30
0.0
 11
625.3707981882931
 21
2715.57127345506
 31
0.0
  0
LINE
  5
DB
330
6F
100
AcDbEntity
  8
DV1_0
 62
     7
370
    35
100
AcDbLine
 10
996.0005814103961
 20
2717.728246895063
 30
0.0
 11
989.250513975465
 21
2716.648698792287
 31
0.0
  0
ELLIPSE
  5
DC
330
6F
100
AcDbEntity
  8
DV1_0
 62
     7
370
    35
100
AcDbEllipse
 10
808.3031340825664
 20
2687.709521139812
 30
0.0
 11
-209.4900809321063
 21
-2.03862479545791
 31
0.0
210
0.0
220
0.0
230
0.9999999999999997
 40
0.2060443272249448
 41
-1.298594704642305
 42
-0.6671272195345983
  0
LINE
  5
DD
330
6F
100
AcDbEntity
  8
DV1_0
 62
     7
370
    35
100
AcDbLine
 10
643.4673303412751
 20
2712.815057096993
 30
0.0
 11
625.3707981882931
 21
2715.57127345506
 31
0.0
  0
LINE
  5
DE
330
6F
100
AcDbEntity
  8
DV1_0
 62
     7
370
    35
100
AcDbLine
 10
577.306074111518
 20
2536.533322043878
 30
0.0
 11
577.229845704409
 21
2536.533322043878
 31
0.0
  0
LINE
  5
DF
330
6F
100
AcDbEntity
  8
DV1_0
 62
     7
370
    35
100
AcDbLine
 10
577.2298457044092
 20
2536.533322043878
 30
0.0
 11
577.2298457044092
 21
2533.533322043878
 31
0.0
  0
LINE
  5
E0
330
6F
100
AcDbEntity
  8
DV1_0
 62
     7
370
    35
100
AcDbLine
 10
577.2298457044092
 20
2533.533322043878
 30
0.0
 11
577.3060741115182
 21
2533.533322043878
 31
0.0
  0
LINE
  5
E1
330
6F
100
AcDbEntity
  8
DV1_0
 62
     7
370
    35
100
AcDbLine
 10
577.306074111518
 20
2533.533322043878
 30
0.0
 11
577.306074111518
 21
2536.533322043878
 31
0.0
  0
LINE
  5
E2
330
6F
100
AcDbEntity
  8
DV1_0
 62
     7
370
    35
100
AcDbLine
 10
577.2298457044092
 20
2536.533322043878
 30
0.0
 11
577.0793146522382
 21
2536.533322043878
 31
0.0
  0
LINE
  5
E3
330
6F
100
AcDbEntity
  8
DV1_0
 62
     7
370
    35
100
AcDbLine
 10
577.079314652238
 20
2536.533322043878
 30
0.0
 11
577.079314652238
 21
2533.533322043878
 31
0.0
  0
LINE
  5
E4
330
6F
100
AcDbEntity
  8
DV1_0
 62
     7
370
    35
100
AcDbLine
 10
577.079314652238
 20
2533.533322043878
 30
0.0
 11
577.2298457044091
 21
2533.533322043878
 31
0.0
  0
LINE
  5
E5
330
6F
100
AcDbEntity
  8
DV1_0
 62
     7
370
    35
100
AcDbLine
 10
1042.211768572359
 20
2536.533322043877
 30
0.0
 11
577.306074111518
 21
2536.533322043878
 31
0.0
  0
LINE
  5
E6
330
6F
100
AcDbEntity
  8
DV1_0
 62
     7
370
    35
100
AcDbLine
 10
577.306074111518
 20
2533.533322043877
 30
0.0
 11
1042.211768572359
 21
2533.533322043878
 31
0.0
  0
LINE
  5
E7
330
6F
100
AcDbEntity
  8
DV1_0
 62
     7
370
    35
100
AcDbLine
 10
1042.211768572357
 20
2533.533322043877
 30
0.0
 11
1042.211768572357
 21
2536.533322043877
 31
0.0
  0
LINE
  5
E8
330
6F
100
AcDbEntity
  8
DV1_0
 62
     7
370
    35
100
AcDbLine
 10
997.0052623001666
 20
2588.148698792287
 30
0.0
 11
626.3414641048894
 21
2588.148698792287
 31
0.0
  0
ELLIPSE
  5
E9
330
6F
100
AcDbEntity
  8
DV1_0
 62
     7
370
    35
100
AcDbEllipse
 10
997.0052623001662
 20
2583.648698792288
 30
0.0
 11
-1.054711873393899E-12
 21
4.499999999999394
 31
0.0
210
0.0
220
0.0
230
1.0
 40
0.8055634138830357
 41
4.7123889803844
 42
6.283185307179139
  0
ELLIPSE
  5
EA
330
6F
100
AcDbEntity
  8
DV1_0
 62
     7
370
    35
100
AcDbEllipse
 10
626.3414641048877
 20
2583.648698792287
 30
0.0
 11
1.609823385706477E-12
 21
4.499999999999948
 31
0.0
210
0.0
220
0.0
230
1.0
 40
0.78868948158052
 41
0.0000000000002294
 42
1.570796326795179
  0
LINE
  5
EB
330
6F
100
AcDbEntity
  8
DV1_0
 62
     7
370
    35
100
AcDbLine
 10
622.792361437776
 20
2573.148698792287
 30
0.0
 11
622.7923614377756
 21
2583.648698792288
 31
0.0
  0
LINE
  5
EC
330
6F
100
AcDbEntity
  8
DV1_0
 62
     7
370
    35
100
AcDbLine
 10
1000.63029766264
 20
2573.148698792287
 30
0.0
 11
622.7923614377761
 21
2573.148698792287
 31
0.0
  0
LINE
  5
ED
330
6F
100
AcDbEntity
  8
DV1_0
 62
     7
370
    35
100
AcDbLine
 10
1000.63029766264
 20
2573.148698792287
 30
0.0
 11
1000.630297662641
 21
2583.648698792287
 31
0.0
  0
LINE
  5
EE
330
6F
100
AcDbEntity
  8
DV1_0
 62
     7
370
    25
100
AcDbLine
 10
1000.630297662641
 20
2583.648698792287
 30
0.0
 11
622.7923614377765
 21
2583.648698792287
 31
0.0
  0
ELLIPSE
  5
EF
330
6F
100
AcDbEntity
  8
DV1_0
 62
     7
370
    35
100
AcDbEllipse
 10
1049.294462801637
 20
2437.351843468839
 30
0.0
 11
0.0
 21
10.72087788786391
 31
0.0
210
0.0
220
0.0
230
1.0
 40
0.1659434687853241
 41
3.141592653589665
 42
6.283185307179586
  0
LINE
  5
F0
330
6F
100
AcDbEntity
  8
DV1_0
 62
     7
370
    35
100
AcDbLine
 10
1049.294462801637
 20
2448.072721356703
 30
0.0
 11
1045.129526274135
 21
2448.072721356703
 31
0.0
  0
LINE
  5
F1
330
6F
100
AcDbEntity
  8
DV1_0
 62
     7
370
    35
100
AcDbLine
 10
1045.129526274135
 20
2426.630965580975
 30
0.0
 11
1049.294462801637
 21
2426.630965580975
 31
0.0
  0
LINE
  5
F2
330
6F
100
AcDbEntity
  8
DV1_0
 62
     7
370
    35
100
AcDbLine
 10
838.2413023073483
 20
2589.148698792281
 30
0.0
 11
838.2413023073482
 21
2588.148698792287
 31
0.0
  0
LINE
  5
F3
330
6F
100
AcDbEntity
  8
DV1_0
 62
     7
370
    35
100
AcDbLine
 10
838.1395746756767
 20
2589.148698792287
 30
0.0
 11
838.2413023073482
 21
2589.148698792287
 31
0.0
  0
LINE
  5
F4
330
6F
100
AcDbEntity
  8
DV1_0
 62
     7
370
    35
100
AcDbLine
 10
838.1395746756768
 20
2588.148698792288
 30
0.0
 11
838.1395746756767
 21
2589.148698792283
 31
0.0
  0
LINE
  5
F5
330
6F
100
AcDbEntity
  8
DV1_0
 62
     7
370
    35
100
AcDbLine
 10
784.084302481531
 20
2589.148698792285
 30
0.0
 11
784.0843024815341
 21
2588.148698792289
 31
0.0
  0
LINE
  5
F6
330
6F
100
AcDbEntity
  8
DV1_0
 62
     7
370
    35
100
AcDbLine
 10
789.0889087314656
 20
2588.148698792287
 30
0.0
 11
789.0889087314704
 21
2589.148698792287
 31
0.0
  0
LINE
  5
F7
330
6F
100
AcDbEntity
  8
DV1_0
 62
     7
370
    35
100
AcDbLine
 10
784.084302481531
 20
2589.148698792285
 30
0.0
 11
789.088908731471
 21
2589.14869879229
 31
0.0
  0
LINE
  5
F8
330
6F
100
AcDbEntity
  8
DV1_0
 62
     7
370
    35
100
AcDbLine
 10
784.0839554365245
 20
2588.148698792288
 30
0.0
 11
784.0839554365232
 21
2589.148698792284
 31
0.0
  0
LINE
  5
F9
330
6F
100
AcDbEntity
  8
DV1_0
 62
     7
370
    35
100
AcDbLine
 10
831.3555709265866
 20
2589.148698792287
 30
0.0
 11
833.1770471743017
 21
2589.148698792287
 31
0.0
  0
LINE
  5
FA
330
6F
100
AcDbEntity
  8
DV1_0
 62
     7
370
    35
100
AcDbLine
 10
833.177047174302
 20
2589.148698792288
 30
0.0
 11
833.1770471743017
 21
2588.148698792287
 31
0.0
  0
LINE
  5
FB
330
6F
100
AcDbEntity
  8
DV1_0
 62
     7
370
    35
100
AcDbLine
 10
833.177047174302
 20
2589.148698792288
 30
0.0
 11
838.1395746756767
 21
2589.148698792283
 31
0.0
  0
LINE
  5
FC
330
6F
100
AcDbEntity
  8
DV1_0
 62
     7
370
    35
100
AcDbLine
 10
831.3555709265866
 20
2588.148698792288
 30
0.0
 11
831.3555709265866
 21
2589.148698792287
 31
0.0
  0
LINE
  5
FD
330
6F
100
AcDbEntity
  8
DV1_0
 62
     7
370
    35
100
AcDbLine
 10
789.0889087314703
 20
2589.148698792287
 30
0.0
 11
790.4005522625794
 21
2589.148698792287
 31
0.0
  0
LINE
  5
FE
330
6F
100
AcDbEntity
  8
DV1_0
 62
     7
370
    35
100
AcDbLine
 10
790.4005522625795
 20
2589.148698792287
 30
0.0
 11
790.4005522625794
 21
2588.148698792288
 31
0.0
  0
LINE
  5
FF
330
6F
100
AcDbEntity
  8
DV1_0
 62
     7
370
    35
100
AcDbLine
 10
790.4005522625795
 20
2589.148698792287
 30
0.0
 11
794.6661944340487
 21
2589.148698792288
 31
0.0
  0
LINE
  5
100
330
6F
100
AcDbEntity
  8
DV1_0
 62
     7
370
    35
100
AcDbLine
 10
794.6661944340487
 20
2589.148698792287
 30
0.0
 11
827.6057705958945
 21
2589.148698792287
 31
0.0
  0
LINE
  5
101
330
6F
100
AcDbEntity
  8
DV1_0
 62
     7
370
    35
100
AcDbLine
 10
827.6057705958945
 20
2589.148698792287
 30
0.0
 11
831.3555709265864
 21
2589.148698792287
 31
0.0
  0
LINE
  5
102
330
6F
100
AcDbEntity
  8
DV1_0
 62
     7
370
    35
100
AcDbLine
 10
794.6661944340487
 20
2588.148698792287
 30
0.0
 11
827.6057705958945
 21
2588.148698792287
 31
0.0
  0
LINE
  5
103
330
6F
100
AcDbEntity
  8
DV1_0
 62
     7
370
    35
100
AcDbLine
 10
790.4005522625793
 20
2588.148698792288
 30
0.0
 11
794.6661944340486
 21
2588.148698792287
 31
0.0
  0
LINE
  5
104
330
6F
100
AcDbEntity
  8
DV1_0
 62
     7
370
    25
100
AcDbLine
 10
794.6661944340487
 20
2588.148698792287
 30
0.0
 11
794.6661944340487
 21
2589.148698792287
 31
0.0
  0
LINE
  5
105
330
6F
100
AcDbEntity
  8
DV1_0
 62
     7
370
    25
100
AcDbLine
 10
827.6057705958945
 20
2588.148698792287
 30
0.0
 11
827.6057705958945
 21
2589.148698792287
 31
0.0
  0
ENDBLK
  5
107
330
6F
100
AcDbEntity
  8
0
100
AcDbBlockEnd
  0
BLOCK
  5
1A9
330
108
100
AcDbEntity
  8
0
100
AcDbBlockBegin
  2
SE1
 70
     0
 10
0.0
 20
0.0
 30
0.0
  3
SE1
  1

  0
LINE
  5
10B
330
108
100
AcDbEntity
  8
DV2_0
 62
     7
370
    35
100
AcDbLine
 10
1888.615533355235
 20
2536.533322043878
 30
0.0
 11
1888.615533355234
 21
2723.351843456109
 31
0.0
  0
LINE
  5
10C
330
108
100
AcDbEntity
  8
DV2_0
 62
     7
370
    35
100
AcDbLine
 10
1888.586470421978
 20
2723.351843456109
 30
0.0
 11
1888.615533355234
 21
2723.351843456109
 31
0.0
  0
LINE
  5
10D
330
108
100
AcDbEntity
  8
DV2_0
 62
     7
370
    25
100
AcDbLine
 10
1888.586470421978
 20
2723.351843456109
 30
0.0
 11
1888.586470421984
 21
2536.533322043878
 31
0.0
  0
LINE
  5
10E
330
108
100
AcDbEntity
  8
DV2_0
 62
     7
370
    35
100
AcDbLine
 10
1887.086481182824
 20
2723.351843456109
 30
0.0
 11
1888.586470421978
 21
2723.351843456109
 31
0.0
  0
LINE
  5
10F
330
108
100
AcDbEntity
  8
DV2_0
 62
     7
370
    25
100
AcDbLine
 10
1886.341513196327
 20
2536.533322043878
 30
0.0
 11
1886.341513196701
 21
2723.310649021508
 31
0.0
  0
ARC
  5
110
330
108
100
AcDbEntity
  8
DV2_0
 62
     7
370
    35
100
AcDbCircle
 10
1886.522702311903
 20
2774.628337188385
 30
0.0
 40
51.31800803118059
100
AcDbArc
 50
269.7977046740093
 51
272.3047873979659
  0
ARC
  5
111
330
108
100
AcDbEntity
  8
DV2_0
 62
     7
370
    35
100
AcDbCircle
 10
1886.341805669249
 20
2730.061699163202
 30
0.0
 40
6.751052240139646
100
AcDbArc
 50
270.0451751559618
 51
276.3329024394783
  0
LINE
  5
112
330
108
100
AcDbEntity
  8
DV2_0
 62
     7
370
    35
100
AcDbLine
 10
1886.083730416725
 20
2533.351843456109
 30
0.0
 11
1886.433230982967
 21
2533.351843456109
 31
0.0
  0
LINE
  5
113
330
108
100
AcDbEntity
  8
DV2_0
 62
     7
370
    25
100
AcDbLine
 10
1886.433230983903
 20
2533.351843206109
 30
0.0
 11
1886.433230983903
 21
2532.851843456109
 31
0.0
  0
LINE
  5
114
330
108
100
AcDbEntity
  8
DV2_0
 62
     7
370
    35
100
AcDbLine
 10
1886.433230983903
 20
2533.351843456109
 30
0.0
 11
1887.086481155473
 21
2533.351843456109
 31
0.0
  0
LINE
  5
115
330
108
100
AcDbEntity
  8
DV2_0
 62
     7
370
    35
100
AcDbLine
 10
1888.66705778726
 20
1853.351843456109
 30
0.0
 11
1888.66705778726
 21
2533.351843456109
 31
0.0
  0
LINE
  5
116
330
108
100
AcDbEntity
  8
DV2_0
 62
     7
370
    35
100
AcDbLine
 10
1887.086480932825
 20
2533.351843456109
 30
0.0
 11
1887.086480932825
 21
2532.851843456109
 31
0.0
  0
LINE
  5
117
330
108
100
AcDbEntity
  8
DV2_0
 62
     7
370
    35
100
AcDbLine
 10
1888.586470421978
 20
2533.351843456109
 30
0.0
 11
1888.586470421978
 21
2532.851843456109
 31
0.0
  0
LINE
  5
118
330
108
100
AcDbEntity
  8
DV2_0
 62
     7
370
    35
100
AcDbLine
 10
1887.086480932825
 20
2533.351843456109
 30
0.0
 11
1888.586470421978
 21
2533.351843456109
 31
0.0
  0
LINE
  5
119
330
108
100
AcDbEntity
  8
DV2_0
 62
     7
370
    35
100
AcDbLine
 10
1888.66705778726
 20
2533.351843456109
 30
0.0
 11
1888.586470421978
 21
2533.351843456109
 31
0.0
  0
LINE
  5
11A
330
108
100
AcDbEntity
  8
DV2_0
 62
     7
370
    25
100
AcDbLine
 10
1886.341513196329
 20
1853.351843456109
 30
0.0
 11
1886.341513196329
 21
2532.851843456109
 31
0.0
  0
LINE
  5
11B
330
108
100
AcDbEntity
  8
DV2_0
 62
     7
370
    35
100
AcDbLine
 10
1886.341513196329
 20
1853.351843456109
 30
0.0
 11
1888.269007644662
 21
1853.351843456109
 31
0.0
  0
LINE
  5
11C
330
108
100
AcDbEntity
  8
DV2_0
 62
     7
370
    25
100
AcDbLine
 10
1888.586470421978
 20
2532.851843456109
 30
0.0
 11
1888.586470421978
 21
1853.351843456109
 31
0.0
  0
LINE
  5
11D
330
108
100
AcDbEntity
  8
DV2_0
 62
     7
370
    35
100
AcDbLine
 10
1886.341513196329
 20
2532.851843456109
 30
0.0
 11
1888.586470421978
 21
2532.851843456109
 31
0.0
  0
LINE
  5
11E
330
108
100
AcDbEntity
  8
DV2_0
 62
     7
370
    35
100
AcDbLine
 10
1884.883111703278
 20
2723.321014372427
 30
0.0
 11
1884.883111703278
 21
2723.061471470876
 31
0.0
  0
LINE
  5
11F
330
108
100
AcDbEntity
  8
DV2_0
 62
     7
370
    35
100
AcDbLine
 10
1886.382970738567
 20
2533.533322043878
 30
0.0
 11
1886.382970738567
 21
2533.351843456109
 31
0.0
  0
LINE
  5
120
330
108
100
AcDbEntity
  8
DV2_0
 62
     7
370
    25
100
AcDbLine
 10
1884.776681147384
 20
2723.043527121516
 30
0.0
 11
1884.776681147384
 21
2723.302922043208
 31
0.0
  0
LINE
  5
121
330
108
100
AcDbEntity
  8
DV2_0
 62
     7
370
    25
100
AcDbLine
 10
1884.030052121302
 20
2723.176004640573
 30
0.0
 11
1884.030052121302
 21
2722.917644361876
 31
0.0
  0
LINE
  5
122
330
108
100
AcDbEntity
  8
DV2_0
 62
     7
370
    25
100
AcDbLine
 10
1883.409463431818
 20
2722.813012189667
 30
0.0
 11
1883.409463431818
 21
2723.070517098143
 31
0.0
  0
LINE
  5
123
330
108
100
AcDbEntity
  8
DV2_0
 62
     7
370
    35
100
AcDbLine
 10
1885.720870530118
 20
1853.351843456109
 30
0.0
 11
1652.596868982096
 21
1853.351843456109
 31
0.0
  0
LINE
  5
124
330
108
100
AcDbEntity
  8
DV2_0
 62
     7
370
    25
100
AcDbLine
 10
1885.720870530117
 20
2723.202718849897
 30
0.0
 11
1885.720870530117
 21
2536.533322043878
 31
0.0
  0
LINE
  5
125
330
108
100
AcDbEntity
  8
DV2_0
 62
     7
370
    25
100
AcDbLine
 10
1885.720870530117
 20
2533.533322043878
 30
0.0
 11
1885.720870530118
 21
1853.351843456109
 31
0.0
  0
ARC
  5
126
330
108
100
AcDbEntity
  8
DV2_0
 62
     7
370
    35
100
AcDbCircle
 10
1261.730724490486
 20
6472.583389312266
 30
0.0
 40
3800.94976478135
100
AcDbArc
 50
278.8154746611891
 51
279.4488415182007
  0
LINE
  5
127
330
108
100
AcDbEntity
  8
DV2_0
 62
     7
370
    35
100
AcDbLine
 10
1886.083730416725
 20
2532.851843456109
 30
0.0
 11
1886.083730416725
 21
2533.533322043878
 31
0.0
  0
LINE
  5
128
330
108
100
AcDbEntity
  8
DV2_0
 62
     7
370
    35
100
AcDbLine
 10
1886.078115042033
 20
2532.851843456109
 30
0.0
 11
1886.078115042033
 21
2533.533322043878
 31
0.0
  0
LINE
  5
129
330
108
100
AcDbEntity
  8
DV2_0
 62
     7
370
    35
100
AcDbLine
 10
1886.341513196329
 20
2532.851843456109
 30
0.0
 11
1886.078115042033
 21
2532.851843456109
 31
0.0
  0
LINE
  5
12A
330
108
100
AcDbEntity
  8
DV2_0
 62
     7
370
    35
100
AcDbLine
 10
1885.720870530118
 20
1853.351843456109
 30
0.0
 11
1886.341513196329
 21
1853.351843456109
 31
0.0
  0
ARC
  5
12B
330
108
100
AcDbEntity
  8
DV2_0
 62
     7
370
    35
100
AcDbCircle
 10
1521.370519979855
 20
4820.204816397891
 30
0.0
 40
2128.419360715078
100
AcDbArc
 50
279.8566394159645
 51
279.8735974916418
  0
LINE
  5
12C
330
108
100
AcDbEntity
  8
DV2_0
 62
     7
370
    35
100
AcDbLine
 10
1886.746525922029
 20
2723.317040249849
 30
0.0
 11
1886.783041776308
 21
2723.315837712628
 31
0.0
  0
LINE
  5
12D
330
108
100
AcDbEntity
  8
DV2_0
 62
     7
370
    35
100
AcDbLine
 10
1652.596868982095
 20
2690.232020627689
 30
0.0
 11
1652.596868982095
 21
1853.351843456109
 31
0.0
  0
ARC
  5
12E
330
108
100
AcDbEntity
  8
DV2_0
 62
     7
370
    35
100
AcDbCircle
 10
2491.89072103401
 20
99.21212720478549
 30
0.0
 40
2694.777598158663
100
AcDbArc
 50
97.8413188014191
 51
97.86533550155752
  0
LINE
  5
12F
330
108
100
AcDbEntity
  8
DV2_0
 62
     7
370
    35
100
AcDbLine
 10
2125.791741679144
 20
2536.648698792286
 30
0.0
 11
1896.623315764537
 21
2536.648698792287
 31
0.0
  0
LINE
  5
130
330
108
100
AcDbEntity
  8
DV2_0
 62
     7
370
    25
100
AcDbLine
 10
2035.27232568143
 20
2586.648698792287
 30
0.0
 11
2035.27232568143
 21
2716.648698792287
 31
0.0
  0
ARC
  5
131
330
108
100
AcDbEntity
  8
DV2_0
 62
     7
370
    35
100
AcDbCircle
 10
2832.818369605048
 20
-2454.655545149307
 30
0.0
 40
5232.443719348182
100
AcDbArc
 50
97.76593747604201
 51
98.5402893662592
  0
LINE
  5
132
330
108
100
AcDbEntity
  8
DV2_0
 62
     7
370
    25
100
AcDbLine
 10
1896.623315764555
 20
2725.317509341654
 30
0.0
 11
1896.623315764536
 21
2536.648698792287
 31
0.0
  0
LINE
  5
133
330
108
100
AcDbEntity
  8
DV2_0
 62
     7
370
    25
100
AcDbLine
 10
1889.691449742489
 20
2536.648698792286
 30
0.0
 11
1889.691449742489
 21
2724.138521150237
 31
0.0
  0
LINE
  5
134
330
108
100
AcDbEntity
  8
DV2_0
 62
     7
370
    35
100
AcDbLine
 10
1890.560839916527
 20
2536.648698792286
 30
0.0
 11
1889.691449742489
 21
2536.648698792286
 31
0.0
  0
LINE
  5
135
330
108
100
AcDbEntity
  8
DV2_0
 62
     7
370
    35
100
AcDbLine
 10
1895.266358097496
 20
2536.648698792287
 30
0.0
 11
1896.623315764536
 21
2536.648698792287
 31
0.0
  0
LINE
  5
136
330
108
100
AcDbEntity
  8
DV2_0
 62
     7
370
    25
100
AcDbLine
 10
1895.266358097497
 20
2725.086673638479
 30
0.0
 11
1895.266358097497
 21
2536.648698792287
 31
0.0
  0
LINE
  5
137
330
108
100
AcDbEntity
  8
DV2_0
 62
     7
370
    35
100
AcDbLine
 10
1888.615533355235
 20
2536.648698792287
 30
0.0
 11
1889.691449742489
 21
2536.648698792287
 31
0.0
  0
LINE
  5
138
330
108
100
AcDbEntity
  8
DV2_0
 62
     7
370
    35
100
AcDbLine
 10
1885.201060489704
 20
2723.375063814482
 30
0.0
 11
1885.201060489704
 21
2723.351843456109
 31
0.0
  0
LINE
  5
139
330
108
100
AcDbEntity
  8
DV2_0
 62
     7
370
    35
100
AcDbLine
 10
1885.218638060417
 20
2723.378051931188
 30
0.0
 11
1885.218638060417
 21
2723.118041711642
 31
0.0
  0
LINE
  5
13A
330
108
100
AcDbEntity
  8
DV2_0
 62
     7
370
    35
100
AcDbLine
 10
1886.718630399959
 20
2723.324791205591
 30
0.0
 11
1886.718630399959
 21
2723.633056997823
 31
0.0
  0
LINE
  5
13B
330
108
100
AcDbEntity
  8
DV2_0
 62
     7
370
    35
100
AcDbLine
 10
1895.266358097496
 20
2536.648698792287
 30
0.0
 11
1890.674402555286
 21
2536.648698792287
 31
0.0
  0
LINE
  5
13C
330
108
100
AcDbEntity
  8
DV2_0
 62
     7
370
    25
100
AcDbLine
 10
1890.674402555286
 20
2536.648698792287
 30
0.0
 11
1890.674402555286
 21
2724.305672312503
 31
0.0
  0
LINE
  5
13D
330
108
100
AcDbEntity
  8
DV2_0
 62
     7
370
    35
100
AcDbLine
 10
1890.674402555286
 20
2536.648698792287
 30
0.0
 11
1890.560839916527
 21
2536.648698792287
 31
0.0
  0
LINE
  5
13E
330
108
100
AcDbEntity
  8
DV2_0
 62
     7
370
    35
100
AcDbLine
 10
1890.560839916527
 20
2724.286360445176
 30
0.0
 11
1890.560839916527
 21
2536.648698792287
 31
0.0
  0
LINE
  5
13F
330
108
100
AcDbEntity
  8
DV2_0
 62
     7
370
    35
100
AcDbLine
 10
2125.791741679142
 20
2729.783045758933
 30
0.0
 11
2125.791741679142
 21
2768.820326228713
 31
0.0
  0
LINE
  5
140
330
108
100
AcDbEntity
  8
DV2_0
 62
     7
370
    35
100
AcDbLine
 10
2125.791741679142
 20
2536.648698792287
 30
0.0
 11
2125.791741679142
 21
2573.148698792287
 31
0.0
  0
LINE
  5
141
330
108
100
AcDbEntity
  8
DV2_0
 62
     7
370
    35
100
AcDbLine
 10
2125.775135612009
 20
2768.794090714195
 30
0.0
 11
2124.275187123317
 21
2768.794090714195
 31
0.0
  0
LINE
  5
142
330
108
100
AcDbEntity
  8
DV2_0
 62
     7
370
    35
100
AcDbLine
 10
2037.013083681391
 20
2588.148698792287
 30
0.0
 11
2037.013083681388
 21
2715.617300330041
 31
0.0
  0
LINE
  5
143
330
108
100
AcDbEntity
  8
DV2_0
 62
     7
370
    25
100
AcDbLine
 10
1889.972775571635
 20
2530.364244970742
 30
0.0
 11
1889.972775571635
 21
1853.351843456109
 31
0.0
  0
LINE
  5
144
330
108
100
AcDbEntity
  8
DV2_0
 62
     7
370
    35
100
AcDbLine
 10
1889.971205809657
 20
2530.364244970743
 30
0.0
 11
1889.972775571635
 21
2530.364244970743
 31
0.0
  0
LINE
  5
145
330
108
100
AcDbEntity
  8
DV2_0
 62
     7
370
    25
100
AcDbLine
 10
1894.959812595828
 20
1853.351843456109
 30
0.0
 11
1894.959812595828
 21
2530.364244970742
 31
0.0
  0
LINE
  5
146
330
108
100
AcDbEntity
  8
DV2_0
 62
     7
370
    35
100
AcDbLine
 10
1894.959812595828
 20
2530.364244970742
 30
0.0
 11
1890.342532058467
 21
2530.364244970742
 31
0.0
  0
LINE
  5
147
330
108
100
AcDbEntity
  8
DV2_0
 62
     7
370
    25
100
AcDbLine
 10
1890.342532058467
 20
1853.351843456109
 30
0.0
 11
1890.342532058467
 21
2530.364244970742
 31
0.0
  0
LINE
  5
148
330
108
100
AcDbEntity
  8
DV2_0
 62
     7
370
    35
100
AcDbLine
 10
1888.66705778726
 20
2530.364244970742
 30
0.0
 11
1889.971205809657
 21
2530.364244970742
 31
0.0
  0
LINE
  5
149
330
108
100
AcDbEntity
  8
DV2_0
 62
     7
370
    35
100
AcDbLine
 10
2124.13637058882
 20
2530.364244970741
 30
0.0
 11
1896.316586154443
 21
2530.364244970754
 31
0.0
  0
LINE
  5
14A
330
108
100
AcDbEntity
  8
DV2_0
 62
     7
370
    25
100
AcDbLine
 10
1896.316586154442
 20
1853.351843456109
 30
0.0
 11
1896.316586154443
 21
2530.364244970742
 31
0.0
  0
LINE
  5
14B
330
108
100
AcDbEntity
  8
DV2_0
 62
     7
370
    35
100
AcDbLine
 10
1896.316586154443
 20
1850.364244970742
 30
0.0
 11
2124.136370588828
 21
1850.364244970742
 31
0.0
  0
LINE
  5
14C
330
108
100
AcDbEntity
  8
DV2_0
 62
     7
370
    35
100
AcDbLine
 10
1894.959812595828
 20
2530.364244970742
 30
0.0
 11
1896.316586154443
 21
2530.364244970742
 31
0.0
  0
LINE
  5
14D
330
108
100
AcDbEntity
  8
DV2_0
 62
     7
370
    35
100
AcDbLine
 10
1889.972775571635
 20
2530.364244970742
 30
0.0
 11
1890.342532058467
 21
2530.364244970742
 31
0.0
  0
LINE
  5
14E
330
108
100
AcDbEntity
  8
DV2_0
 62
     7
370
    35
100
AcDbLine
 10
1889.971205809657
 20
2530.364244970743
 30
0.0
 11
1889.971205809657
 21
1853.351843456109
 31
0.0
  0
LINE
  5
14F
330
108
100
AcDbEntity
  8
DV2_0
 62
     7
370
    35
100
AcDbLine
 10
2124.136370588821
 20
1850.364244970742
 30
0.0
 11
2124.136370588822
 21
2530.364244970742
 31
0.0
  0
LINE
  5
150
330
108
100
AcDbEntity
  8
DV2_0
 62
     7
370
    35
100
AcDbLine
 10
1888.66705778726
 20
2530.351843456109
 30
0.0
 11
1889.971205809656
 21
2530.351843456109
 31
0.0
  0
LINE
  5
151
330
108
100
AcDbEntity
  8
DV2_0
 62
     7
370
    35
100
AcDbLine
 10
1889.971205809656
 20
2527.351843456109
 30
0.0
 11
1888.66705778726
 21
2527.351843456109
 31
0.0
  0
LINE
  5
152
330
108
100
AcDbEntity
  8
DV2_0
 62
     7
370
    25
100
AcDbLine
 10
1888.819930328781
 20
2504.550412272484
 30
0.0
 11
1888.819930328781
 21
2527.351843456109
 31
0.0
  0
LINE
  5
153
330
108
100
AcDbEntity
  8
DV2_0
 62
     7
370
    35
100
AcDbLine
 10
2122.636370588819
 20
1850.351843456109
 30
0.0
 11
1904.723630716735
 21
1850.351843456109
 31
0.0
  0
LINE
  5
154
330
108
100
AcDbEntity
  8
DV2_0
 62
     7
370
    35
100
AcDbLine
 10
2122.63637058882
 20
1850.351843456109
 30
0.0
 11
2122.63637058882
 21
1850.364244970742
 31
0.0
  0
LINE
  5
155
330
108
100
AcDbEntity
  8
DV2_0
 62
     7
370
    35
100
AcDbLine
 10
1676.596868982103
 20
1768.851843456109
 30
0.0
 11
2096.596868982102
 21
1768.851843456109
 31
0.0
  0
LINE
  5
156
330
108
100
AcDbEntity
  8
DV2_0
 62
     7
370
    35
100
AcDbLine
 10
1676.596868982097
 20
1770.351843456109
 30
0.0
 11
1676.596868982097
 21
1768.851843456109
 31
0.0
  0
LINE
  5
157
330
108
100
AcDbEntity
  8
DV2_0
 62
     7
370
    35
100
AcDbLine
 10
2096.596868982096
 20
1768.851843456109
 30
0.0
 11
2096.596868982096
 21
1770.351843456109
 31
0.0
  0
LINE
  5
158
330
108
100
AcDbEntity
  8
DV2_0
 62
     7
370
    35
100
AcDbLine
 10
1673.596868982095
 20
1770.351843456109
 30
0.0
 11
1673.754624814091
 21
1770.351843456109
 31
0.0
  0
LINE
  5
159
330
108
100
AcDbEntity
  8
DV2_0
 62
     7
370
    35
100
AcDbLine
 10
1674.47527815665
 20
1770.351843456109
 30
0.0
 11
2099.596868982096
 21
1770.351843456109
 31
0.0
  0
LINE
  5
15A
330
108
100
AcDbEntity
  8
DV2_0
 62
     7
370
    25
100
AcDbLine
 10
1673.754624814091
 20
1850.351843456109
 30
0.0
 11
1673.754624814091
 21
1770.351843456109
 31
0.0
  0
LINE
  5
15B
330
108
100
AcDbEntity
  8
DV2_0
 62
     7
370
    35
100
AcDbLine
 10
1674.128286602849
 20
1770.351843456109
 30
0.0
 11
1674.475278156649
 21
1770.351843456109
 31
0.0
  0
LINE
  5
15C
330
108
100
AcDbEntity
  8
DV2_0
 62
     7
370
    25
100
AcDbLine
 10
1674.475278156649
 20
1850.351843456109
 30
0.0
 11
1674.475278156649
 21
1770.351843456109
 31
0.0
  0
LINE
  5
15D
330
108
100
AcDbEntity
  8
DV2_0
 62
     7
370
    35
100
AcDbLine
 10
1674.128286602849
 20
1770.351843456109
 30
0.0
 11
1674.128286602849
 21
1850.351843456109
 31
0.0
  0
LINE
  5
15E
330
108
100
AcDbEntity
  8
DV2_0
 62
     7
370
    35
100
AcDbLine
 10
1673.901798773439
 20
1770.351843456109
 30
0.0
 11
1673.754624814091
 21
1770.351843456109
 31
0.0
  0
LINE
  5
15F
330
108
100
AcDbEntity
  8
DV2_0
 62
     7
370
    35
100
AcDbLine
 10
1673.901798773439
 20
1850.351843456109
 30
0.0
 11
1673.901798773439
 21
1770.351843456109
 31
0.0
  0
LINE
  5
160
330
108
100
AcDbEntity
  8
DV2_0
 62
     7
370
    35
100
AcDbLine
 10
1674.128286602849
 20
1770.351843456109
 30
0.0
 11
1673.901798773439
 21
1770.351843456109
 31
0.0
  0
LINE
  5
161
330
108
100
AcDbEntity
  8
DV2_0
 62
     7
370
    35
100
AcDbLine
 10
1673.596868982095
 20
1850.351843456109
 30
0.0
 11
1673.596868982095
 21
1770.351843456109
 31
0.0
  0
LINE
  5
162
330
108
100
AcDbEntity
  8
DV2_0
 62
     7
370
    35
100
AcDbLine
 10
2099.596868982097
 20
1770.351843456109
 30
0.0
 11
2099.596868982097
 21
1850.351843456109
 31
0.0
  0
LINE
  5
163
330
108
100
AcDbEntity
  8
DV2_0
 62
     7
370
    35
100
AcDbLine
 10
1904.775739859367
 20
1853.351843456109
 30
0.0
 11
1888.269007644662
 21
1853.351843456109
 31
0.0
  0
LINE
  5
164
330
108
100
AcDbEntity
  8
DV2_0
 62
     7
370
    35
100
AcDbLine
 10
1888.111587606844
 20
1850.351843456109
 30
0.0
 11
1904.723630716735
 21
1850.351843456109
 31
0.0
  0
LINE
  5
165
330
108
100
AcDbEntity
  8
DV2_0
 62
     7
370
    35
100
AcDbLine
 10
1886.596868981082
 20
1850.351843456109
 30
0.0
 11
1888.111587606844
 21
1850.351843456109
 31
0.0
  0
LINE
  5
166
330
108
100
AcDbEntity
  8
DV2_0
 62
     7
370
    35
100
AcDbLine
 10
1886.596868983109
 20
1850.351843456109
 30
0.0
 11
1654.096868982096
 21
1850.351843456109
 31
0.0
  0
LINE
  5
167
330
108
100
AcDbEntity
  8
DV2_0
 62
     7
370
    25
100
AcDbLine
 10
1886.596868981082
 20
1853.351843456109
 30
0.0
 11
1886.596868981082
 21
1850.351843456109
 31
0.0
  0
LINE
  5
168
330
108
100
AcDbEntity
  8
DV2_0
 62
     7
370
    35
100
AcDbLine
 10
1888.111587606844
 20
1853.351843456109
 30
0.0
 11
1888.111587606844
 21
1850.351843456109
 31
0.0
  0
LINE
  5
169
330
108
100
AcDbEntity
  8
DV2_0
 62
     7
370
    35
100
AcDbLine
 10
1654.096868982095
 20
1853.351843456109
 30
0.0
 11
1654.096868982095
 21
1850.351843456109
 31
0.0
  0
LINE
  5
16A
330
108
100
AcDbEntity
  8
DV2_0
 62
     7
370
    35
100
AcDbLine
 10
1899.846868981096
 20
1849.465364627909
 30
0.0
 11
1893.346868981095
 21
1849.465364627909
 31
0.0
  0
ARC
  5
16B
330
108
100
AcDbEntity
  8
DV2_0
 62
     7
370
    35
100
AcDbCircle
 10
1893.346868981096
 20
1850.465364627909
 30
0.0
 40
1.000000000000015
100
AcDbArc
 50
185.8036489514361
 51
270.0
  0
ARC
  5
16C
330
108
100
AcDbEntity
  8
DV2_0
 62
     7
370
    35
100
AcDbCircle
 10
1899.846868981096
 20
1850.465364627909
 30
0.0
 40
1.000000000000015
100
AcDbArc
 50
270.0
 51
354.1963510485638
  0
ELLIPSE
  5
16D
330
108
100
AcDbEntity
  8
DV2_0
 62
     7
370
    25
100
AcDbEllipse
 10
1886.167386391355
 20
2739.355214352376
 30
0.0
 11
230.6889413574849
 21
39.22514927139189
 31
0.0
210
0.0
220
0.0
230
1.0
 40
0.0024828721961733
 41
6.262459133604052
 42
6.283185307179586
  0
ELLIPSE
  5
16E
330
108
100
AcDbEntity
  8
DV2_0
 62
     7
370
    35
100
AcDbEllipse
 10
1886.167386391355
 20
2739.355214352376
 30
0.0
 11
230.6889413574849
 21
39.22514927139189
 31
0.0
210
0.0
220
0.0
230
1.0
 40
0.0024828721961733
 41
3.163050026975924
 42
6.262459133604052
  0
ELLIPSE
  5
16F
330
108
100
AcDbEntity
  8
DV2_0
 62
     7
370
    25
100
AcDbEllipse
 10
1886.167386391355
 20
2739.355214352376
 30
0.0
 11
230.6889413574849
 21
39.22514927139189
 31
0.0
210
0.0
220
0.0
230
1.0
 40
0.0024828721961733
 41
3.088485277759341
 42
3.163050026975923
  0
ELLIPSE
  5
170
330
108
100
AcDbEntity
  8
DV2_0
 62
     7
370
    35
100
AcDbEllipse
 10
1886.167386391355
 20
2739.355214352376
 30
0.0
 11
230.6889413574849
 21
39.22514927139189
 31
0.0
210
0.0
220
0.0
230
1.0
 40
0.0024828721961733
 41
0.0538267657671989
 42
3.088485277759341
  0
ELLIPSE
  5
171
330
108
100
AcDbEntity
  8
DV2_0
 62
     7
370
    25
100
AcDbEllipse
 10
1886.167386391355
 20
2739.355214352376
 30
0.0
 11
230.6889413574849
 21
39.22514927139189
 31
0.0
210
0.0
220
0.0
230
1.0
 40
0.0024828721961733
 41
0.0
 42
0.0538267657671988
  0
ELLIPSE
  5
172
330
108
100
AcDbEntity
  8
DV2_0
 62
     7
370
    25
100
AcDbEllipse
 10
1886.921713859936
 20
2734.918902231264
 30
0.0
 11
-235.1252671528216
 21
-39.97947906507116
 31
0.0
210
0.0
220
0.0
230
0.9999999999999999
 40
0.0024828721961626
 41
0.0
 42
3.141604347337159
  0
ELLIPSE
  5
173
330
108
100
AcDbEntity
  8
DV2_0
 62
     7
370
    35
100
AcDbEllipse
 10
1888.681811286642
 20
2724.567507282015
 30
0.0
 11
-235.1252671528213
 21
-39.97947906507204
 31
0.0
210
0.0
220
0.0
230
0.9999999999999998
 40
0.0024828721961626
 41
0.0
 42
3.141592653589793
  0
ARC
  5
174
330
108
100
AcDbEntity
  8
DV2_0
 62
     7
370
    35
100
AcDbCircle
 10
1656.23939528034
 20
2695.745834634171
 30
0.0
 40
4.476759840866049
100
AcDbArc
 50
98.19993128479334
 51
190.2844776937451
  0
ARC
  5
175
330
108
100
AcDbEntity
  8
DV2_0
 62
     7
370
    35
100
AcDbCircle
 10
2117.575489855149
 20
2774.127875137594
 30
0.0
 40
4.537390540081847
100
AcDbArc
 50
9.77692435454117
 51
100.958263046114
  0
LINE
  5
176
330
108
100
AcDbEntity
  8
DV2_0
 62
     7
370
    35
100
AcDbLine
 10
1651.796446707118
 20
2694.939423166196
 30
0.0
 11
1653.556544133817
 21
2684.588028216946
 31
0.0
  0
LINE
  5
177
330
108
100
AcDbEntity
  8
DV2_0
 62
     7
370
    35
100
AcDbLine
 10
2123.121519469272
 20
2768.578860693234
 30
0.0
 11
2122.046981012762
 21
2774.89838129633
 31
0.0
  0
LINE
  5
178
330
108
100
AcDbEntity
  8
DV2_0
 62
     7
370
    35
100
AcDbLine
 10
1900.716546525353
 20
2530.364244970742
 30
0.0
 11
1900.716546525353
 21
2533.533322043877
 31
0.0
  0
LINE
  5
179
330
108
100
AcDbEntity
  8
DV2_0
 62
     7
370
    35
100
AcDbLine
 10
1900.716546525353
 20
2536.533322043878
 30
0.0
 11
1900.716546525353
 21
2536.648698792287
 31
0.0
  0
LINE
  5
17A
330
108
100
AcDbEntity
  8
DV2_0
 62
     7
370
    35
100
AcDbLine
 10
1892.216546525353
 20
2536.648698792286
 30
0.0
 11
1892.216546525353
 21
2536.533322043877
 31
0.0
  0
LINE
  5
17B
330
108
100
AcDbEntity
  8
DV2_0
 62
     7
370
    35
100
AcDbLine
 10
1892.216546525353
 20
2533.533322043878
 30
0.0
 11
1892.216546525353
 21
2530.364244970742
 31
0.0
  0
ELLIPSE
  5
17C
330
108
100
AcDbEntity
  8
DV2_0
 62
     7
370
    35
100
AcDbEllipse
 10
1896.033964775818
 20
2687.70952113981
 30
0.0
 11
-227.5107108447928
 21
-47.90747802685403
 31
0.0
210
0.0
220
0.0
230
1.0
 40
0.0095221065764978
 41
-4.047266851065467
 42
-3.934024613300461
  0
LINE
  5
17D
330
108
100
AcDbEntity
  8
DV2_0
 62
     7
370
    35
100
AcDbLine
 10
1898.413160120425
 20
2536.533322043878
 30
0.0
 11
1894.690972546247
 21
2536.533322043878
 31
0.0
  0
LINE
  5
17E
330
108
100
AcDbEntity
  8
DV2_0
 62
     7
370
    35
100
AcDbLine
 10
1894.690972546247
 20
2536.533322043878
 30
0.0
 11
1894.690972546247
 21
2533.533322043878
 31
0.0
  0
LINE
  5
17F
330
108
100
AcDbEntity
  8
DV2_0
 62
     7
370
    35
100
AcDbLine
 10
1894.690972546247
 20
2533.533322043878
 30
0.0
 11
1898.413160120425
 21
2533.533322043878
 31
0.0
  0
LINE
  5
180
330
108
100
AcDbEntity
  8
DV2_0
 62
     7
370
    35
100
AcDbLine
 10
1898.413160120425
 20
2533.533322043878
 30
0.0
 11
1898.413160120425
 21
2536.533322043878
 31
0.0
  0
LINE
  5
181
330
108
100
AcDbEntity
  8
DV2_0
 62
     7
370
    35
100
AcDbLine
 10
1894.690972546247
 20
2536.533322043878
 30
0.0
 11
1882.620271707269
 21
2536.533322043878
 31
0.0
  0
LINE
  5
182
330
108
100
AcDbEntity
  8
DV2_0
 62
     7
370
    35
100
AcDbLine
 10
1882.620271707269
 20
2536.533322043878
 30
0.0
 11
1882.620271707269
 21
2533.533322043878
 31
0.0
  0
LINE
  5
183
330
108
100
AcDbEntity
  8
DV2_0
 62
     7
370
    35
100
AcDbLine
 10
1882.620271707269
 20
2533.533322043878
 30
0.0
 11
1894.690972546248
 21
2533.533322043878
 31
0.0
  0
LINE
  5
184
330
108
100
AcDbEntity
  8
DV2_0
 62
     7
370
    35
100
AcDbLine
 10
1898.413160120425
 20
2536.533322043877
 30
0.0
 11
2124.291741679143
 21
2536.533322043878
 31
0.0
  0
LINE
  5
185
330
108
100
AcDbEntity
  8
DV2_0
 62
     7
370
    35
100
AcDbLine
 10
2124.291741679142
 20
2533.533322043878
 30
0.0
 11
1898.413160120425
 21
2533.533322043878
 31
0.0
  0
LINE
  5
186
330
108
100
AcDbEntity
  8
DV2_0
 62
     7
370
    35
100
AcDbLine
 10
2124.291741679144
 20
2533.533322043877
 30
0.0
 11
2124.291741679144
 21
2536.533322043877
 31
0.0
  0
LINE
  5
187
330
108
100
AcDbEntity
  8
DV2_0
 62
     7
370
    35
100
AcDbLine
 10
2034.730824646354
 20
2588.148698792287
 30
0.0
 11
2124.291741679145
 21
2588.148698792287
 31
0.0
  0
ELLIPSE
  5
188
330
108
100
AcDbEntity
  8
DV2_0
 62
     7
370
    35
100
AcDbEllipse
 10
2034.730824646355
 20
2583.648698792287
 30
0.0
 11
-1.387778780781446E-13
 21
-3.000000000000225
 31
0.0
210
0.0
220
0.0
230
1.0
 40
0.6147917546975951
 41
1.570796326794925
 42
3.141592653589793
  0
ELLIPSE
  5
189
330
108
100
AcDbEntity
  8
DV2_0
 62
     7
370
    35
100
AcDbEllipse
 10
2034.730824646354
 20
2583.648698792287
 30
0.0
 11
1.221245327087672E-12
 21
4.499999999999948
 31
0.0
210
0.0
220
0.0
230
1.0
 40
0.6147917546976855
 41
4.712388980384857
 42
6.283185307179535
  0
LINE
  5
18A
330
108
100
AcDbEntity
  8
DV2_0
 62
     7
370
    35
100
AcDbLine
 10
2036.575199910448
 20
2583.648698792287
 30
0.0
 11
2036.575199910448
 21
2573.148698792287
 31
0.0
  0
LINE
  5
18B
330
108
100
AcDbEntity
  8
DV2_0
 62
     7
370
    35
100
AcDbLine
 10
2036.575199910448
 20
2573.148698792287
 30
0.0
 11
2037.497387542495
 21
2573.148698792287
 31
0.0
  0
LINE
  5
18C
330
108
100
AcDbEntity
  8
DV2_0
 62
     7
370
    35
100
AcDbLine
 10
2037.497387542495
 20
2573.148698792287
 30
0.0
 11
2037.497387542494
 21
2583.648698792288
 31
0.0
  0
LINE
  5
18D
330
108
100
AcDbEntity
  8
DV2_0
 62
     7
370
    35
100
AcDbLine
 10
2037.497387542495
 20
2573.148698792287
 30
0.0
 11
2128.791741679148
 21
2573.148698792287
 31
0.0
  0
LINE
  5
18E
330
108
100
AcDbEntity
  8
DV2_0
 62
     7
370
    25
100
AcDbLine
 10
2037.497387542494
 20
2583.648698792287
 30
0.0
 11
2128.791741679147
 21
2583.648698792287
 31
0.0
  0
LINE
  5
18F
330
108
100
AcDbEntity
  8
DV2_0
 62
     7
370
    35
100
AcDbLine
 10
2128.791741679144
 20
2573.148698792287
 30
0.0
 11
2128.791741679144
 21
2583.648698792287
 31
0.0
  0
ARC
  5
190
330
108
100
AcDbEntity
  8
DV2_0
 62
     7
370
    35
100
AcDbCircle
 10
2124.291741679142
 20
2583.648698792288
 30
0.0
 40
4.499999999999837
100
AcDbArc
 50
0.0
 51
89.99999999995946
  0
LINE
  5
191
330
108
100
AcDbEntity
  8
DV2_0
 62
     7
370
    25
100
AcDbLine
 10
2100.656660578253
 20
2588.148698792287
 30
0.0
 11
2100.656660578253
 21
2589.148698792287
 31
0.0
  0
LINE
  5
192
330
108
100
AcDbEntity
  8
DV2_0
 62
     7
370
    35
100
AcDbLine
 10
2100.656660578253
 20
2589.148698792288
 30
0.0
 11
2100.622079707093
 21
2589.148698792288
 31
0.0
  0
LINE
  5
193
330
108
100
AcDbEntity
  8
DV2_0
 62
     7
370
    35
100
AcDbLine
 10
2114.05078455777
 20
2589.148698792285
 30
0.0
 11
2114.050784557771
 21
2588.148698792289
 31
0.0
  0
LINE
  5
194
330
108
100
AcDbEntity
  8
DV2_0
 62
     7
370
    35
100
AcDbLine
 10
2110.717068157789
 20
2589.148698792284
 30
0.0
 11
2114.05078455777
 21
2589.148698792289
 31
0.0
  0
LINE
  5
195
330
108
100
AcDbEntity
  8
DV2_0
 62
     7
370
    35
100
AcDbLine
 10
2121.926494084273
 20
2588.148698792287
 30
0.0
 11
2121.926494084279
 21
2589.148698792287
 31
0.0
  0
LINE
  5
196
330
108
100
AcDbEntity
  8
DV2_0
 62
     7
370
    35
100
AcDbLine
 10
2114.05078455777
 20
2589.148698792285
 30
0.0
 11
2121.926494084278
 21
2589.14869879229
 31
0.0
  0
LINE
  5
197
330
108
100
AcDbEntity
  8
DV2_0
 62
     7
370
    35
100
AcDbLine
 10
2110.717068157788
 20
2588.148698792288
 30
0.0
 11
2110.717068157788
 21
2589.148698792284
 31
0.0
  0
LINE
  5
198
330
108
100
AcDbEntity
  8
DV2_0
 62
     7
370
    35
100
AcDbLine
 10
2102.736449823423
 20
2589.148698792287
 30
0.0
 11
2102.736449823424
 21
2588.148698792287
 31
0.0
  0
LINE
  5
199
330
108
100
AcDbEntity
  8
DV2_0
 62
     7
370
    35
100
AcDbLine
 10
2102.11273537728
 20
2589.148698792287
 30
0.0
 11
2102.736449823424
 21
2589.148698792287
 31
0.0
  0
LINE
  5
19A
330
108
100
AcDbEntity
  8
DV2_0
 62
     7
370
    35
100
AcDbLine
 10
2102.112735377279
 20
2588.148698792288
 30
0.0
 11
2102.112735377279
 21
2589.148698792287
 31
0.0
  0
LINE
  5
19B
330
108
100
AcDbEntity
  8
DV2_0
 62
     7
370
    35
100
AcDbLine
 10
2100.835587100616
 20
2589.148698792287
 30
0.0
 11
2102.11273537728
 21
2589.148698792287
 31
0.0
  0
LINE
  5
19C
330
108
100
AcDbEntity
  8
DV2_0
 62
     7
370
    35
100
AcDbLine
 10
2121.926494084279
 20
2589.148698792287
 30
0.0
 11
2122.675365884399
 21
2589.148698792287
 31
0.0
  0
LINE
  5
19D
330
108
100
AcDbEntity
  8
DV2_0
 62
     7
370
    35
100
AcDbLine
 10
2102.736449823423
 20
2589.148698792287
 30
0.0
 11
2110.717068157789
 21
2589.148698792284
 31
0.0
  0
LINE
  5
19E
330
108
100
AcDbEntity
  8
DV2_0
 62
     7
370
    35
100
AcDbLine
 10
2122.675365884399
 20
2589.148698792287
 30
0.0
 11
2122.675365884399
 21
2588.148698792288
 31
0.0
  0
LINE
  5
19F
330
108
100
AcDbEntity
  8
DV2_0
 62
     7
370
    35
100
AcDbLine
 10
2100.656660578253
 20
2589.148698792287
 30
0.0
 11
2100.835587100616
 21
2589.148698792287
 31
0.0
  0
LINE
  5
1A0
330
108
100
AcDbEntity
  8
DV2_0
 62
     7
370
    35
100
AcDbLine
 10
2122.675365884399
 20
2589.148698792287
 30
0.0
 11
2123.804415252915
 21
2589.148698792288
 31
0.0
  0
LINE
  5
1A1
330
108
100
AcDbEntity
  8
DV2_0
 62
     7
370
    35
100
AcDbLine
 10
2124.291741679146
 20
2589.148698792287
 30
0.0
 11
2123.804415252916
 21
2589.148698792287
 31
0.0
  0
LINE
  5
1A2
330
108
100
AcDbEntity
  8
DV2_0
 62
     7
370
    35
100
AcDbLine
 10
2124.291741679146
 20
2588.148698792288
 30
0.0
 11
2123.804415252916
 21
2588.148698792287
 31
0.0
  0
LINE
  5
1A3
330
108
100
AcDbEntity
  8
DV2_0
 62
     7
370
    35
100
AcDbLine
 10
2122.675365884399
 20
2588.148698792288
 30
0.0
 11
2123.804415252915
 21
2588.148698792287
 31
0.0
  0
LINE
  5
1A4
330
108
100
AcDbEntity
  8
DV2_0
 62
     7
370
    25
100
AcDbLine
 10
2123.804415252915
 20
2588.148698792287
 30
0.0
 11
2123.804415252915
 21
2589.148698792287
 31
0.0
  0
LINE
  5
1A5
330
108
100
AcDbEntity
  8
DV2_0
 62
     7
370
    35
100
AcDbLine
 10
2100.622079707094
 20
2589.148698792281
 30
0.0
 11
2100.622079707094
 21
2588.148698792287
 31
0.0
  0
LINE
  5
1A6
330
108
100
AcDbEntity
  8
DV2_0
 62
     7
370
    35
100
AcDbLine
 10
2100.835587100616
 20
2589.148698792287
 30
0.0
 11
2100.835587100616
 21
2588.148698792287
 31
0.0
  0
LINE
  5
1A7
330
108
100
AcDbEntity
  8
DV2_0
 62
     7
370
    35
100
AcDbLine
 10
2124.291741679146
 20
2588.148698792288
 30
0.0
 11
2124.291741679145
 21
2589.148698792288
 31
0.0
  0
LINE
  5
1A8
330
108
100
AcDbEntity
  8
DV2_0
 62
     7
370
    35
100
AcDbLine
 10
1888.66705778726
 20
2504.550412272484
 30
0.0
 11
1889.971205809656
 21
2504.550412272484
 31
0.0
  0
ENDBLK
  5
1AA
330
108
100
AcDbEntity
  8
0
100
AcDbBlockEnd
  0
BLOCK
  5
1C9
330
1AB
100
AcDbEntity
  8
0
100
AcDbBlockBegin
  2
SE2
 70
     0
 10
0.0
 20
0.0
 30
0.0
  3
SE2
  1

  0
ARC
  5
1AE
330
1AB
100
AcDbEntity
  8
DV3_0
 62
     7
370
    35
100
AcDbCircle
 10
809.7117685736392
 20
937.1038581570074
 30
0.0
 40
232.5000000075137
100
AcDbArc
 50
271.1831131504013
 51
320.9078694957605
  0
ARC
  5
1AF
330
1AB
100
AcDbEntity
  8
DV3_0
 62
     7
370
    35
100
AcDbCircle
 10
809.7117683979167
 20
937.1038579733302
 30
0.0
 40
232.499999827504
100
AcDbArc
 50
240.7120706318884
 51
271.1831131946306
  0
ARC
  5
1B0
330
1AB
100
AcDbEntity
  8
DV3_0
 62
     7
370
    35
100
AcDbCircle
 10
809.7135860312178
 20
937.1057522416335
 30
0.0
 40
234.0018561883958
100
AcDbArc
 50
229.2060707745881
 51
271.1826539644539
  0
ARC
  5
1B1
330
1AB
100
AcDbEntity
  8
DV3_0
 62
     7
370
    35
100
AcDbCircle
 10
809.7117685912181
 20
937.1038581120183
 30
0.0
 40
233.9999999811227
100
AcDbArc
 50
271.1831084490693
 51
334.6014852923244
  0
ARC
  5
1B2
330
1AB
100
AcDbEntity
  8
DV3_0
 62
     7
370
    35
100
AcDbCircle
 10
994.3100933469738
 20
800.7451088807343
 30
0.0
 40
4.499999999999334
100
AcDbArc
 50
313.27361568738
 51
323.5475277662433
  0
ELLIPSE
  5
1B3
330
1AB
100
AcDbEntity
  8
DV3_0
 62
     7
370
    25
100
AcDbEllipse
 10
807.9134631174106
 20
942.7282133942546
 30
0.0
 11
-233.9743357650766
 21
-3.465574020415931
 31
0.0
210
0.0
220
0.0
230
1.0
 40
0.9858471380239231
 41
0.0
 42
6.283185307179586
  0
ELLIPSE
  5
1B4
330
1AB
100
AcDbEntity
  8
DV3_0
 62
     7
370
    35
100
AcDbEllipse
 10
807.924636042301
 20
941.9738859256735
 30
0.0
 11
238.4738422220957
 21
3.532219674695509
 31
0.0
210
0.0
220
0.0
230
1.0
 40
0.9858471380239346
 41
0.0
 42
0.5179294186972425
  0
ELLIPSE
  5
1B5
330
1AB
100
AcDbEntity
  8
DV3_0
 62
     7
370
    35
100
AcDbEllipse
 10
807.924636042301
 20
941.9738859256735
 30
0.0
 11
238.4738422220957
 21
3.532219674695509
 31
0.0
210
0.0
220
0.0
230
1.0
 40
0.9858471380239346
 41
2.641617482919977
 42
3.643076532755759
  0
ELLIPSE
  5
1B6
330
1AB
100
AcDbEntity
  8
DV3_0
 62
     7
370
    25
100
AcDbEllipse
 10
807.924636042301
 20
941.9738859256735
 30
0.0
 11
238.4738422220957
 21
3.532219674695509
 31
0.0
210
0.0
220
0.0
230
1.0
 40
0.9858471380239346
 41
3.643076532755758
 42
5.795149110526834
  0
ELLIPSE
  5
1B7
330
1AB
100
AcDbEntity
  8
DV3_0
 62
     7
370
    35
100
AcDbEllipse
 10
807.924636042301
 20
941.9738859256735
 30
0.0
 11
238.4738422220957
 21
3.532219674695509
 31
0.0
210
0.0
220
0.0
230
1.0
 40
0.9858471380239346
 41
5.795149110526834
 42
6.283185307179586
  0
ELLIPSE
  5
1B8
330
1AB
100
AcDbEntity
  8
DV3_0
 62
     7
370
    35
100
AcDbEllipse
 10
807.9507062003522
 20
940.2137884989679
 30
0.0
 11
238.4738422220985
 21
3.53221967462103
 31
0.0
210
0.0
220
0.0
230
0.9999999999999999
 40
0.9858471380239194
 41
3.141592653589793
 42
4.214856457419504
  0
ELLIPSE
  5
1B9
330
1AB
100
AcDbEntity
  8
DV3_0
 62
     7
370
    35
100
AcDbEllipse
 10
807.9507062003522
 20
940.2137884989679
 30
0.0
 11
238.4738422220985
 21
3.53221967462103
 31
0.0
210
0.0
220
0.0
230
0.9999999999999999
 40
0.9858471380239194
 41
4.519150949143052
 42
5.222265927494585
  0
ELLIPSE
  5
1BA
330
1AB
100
AcDbEntity
  8
DV3_0
 62
     7
370
    35
100
AcDbEllipse
 10
807.9507062003522
 20
940.2137884989679
 30
0.0
 11
238.4738422220985
 21
3.53221967462103
 31
0.0
210
0.0
220
0.0
230
0.9999999999999999
 40
0.9858471380239194
 41
-1.019858951005053
 42
-1.014433755644509
  0
ELLIPSE
  5
1BB
330
1AB
100
AcDbEntity
  8
DV3_0
 62
     7
370
    35
100
AcDbEllipse
 10
807.9507062003522
 20
940.2137884989679
 30
0.0
 11
238.4738422220985
 21
3.53221967462103
 31
0.0
210
0.0
220
0.0
230
0.9999999999999999
 40
0.9858471380239194
 41
5.648205730130258
 42
6.283185307179584
  0
ARC
  5
1BC
330
1AB
100
AcDbEntity
  8
DV3_0
 62
     7
370
    35
100
AcDbCircle
 10
808.022700672671
 20
936.8859997088896
 30
0.0
 40
240.1808608811548
100
AcDbArc
 50
31.24793793620195
 51
151.4652139528286
  0
LINE
  5
1BD
330
1AB
100
AcDbEntity
  8
DV3_0
 62
     7
370
    35
100
AcDbLine
 10
569.4507938201972
 20
938.4416662509947
 30
0.0
 11
569.4768639782573
 21
936.6815688242949
 31
0.0
  0
LINE
  5
1BE
330
1AB
100
AcDbEntity
  8
DV3_0
 62
     7
370
    35
100
AcDbLine
 10
1046.424548422453
 20
943.7460081736449
 30
0.0
 11
1046.398478264393
 21
945.5061056003447
 31
0.0
  0
LINE
  5
1BF
330
1AB
100
AcDbEntity
  8
DV3_0
 62
     7
370
    35
100
AcDbLine
 10
998.1848275899264
 20
798.477787778421
 30
0.0
 11
1000.63029766264
 21
796.6790908821533
 31
0.0
  0
LINE
  5
1C0
330
1AB
100
AcDbEntity
  8
DV3_0
 62
     7
370
    35
100
AcDbLine
 10
623.0625047847981
 20
791.6087918263548
 30
0.0
 11
622.7923614377755
 21
791.3982122431162
 31
0.0
  0
ARC
  5
1C1
330
1AB
100
AcDbEntity
  8
DV3_0
 62
     7
370
    35
100
AcDbCircle
 10
809.7117685723587
 20
937.103858106457
 30
0.0
 40
236.9999999999937
100
AcDbArc
 50
217.9367903737518
 51
323.6647023801906
  0
LINE
  5
1C2
330
1AB
100
AcDbEntity
  8
DV3_0
 62
     7
370
    35
100
AcDbLine
 10
1051.073522466773
 20
970.2278949371452
 30
0.0
 11
1047.515403136501
 21
991.3723664977564
 31
0.0
  0
LINE
  5
1C3
330
1AB
100
AcDbEntity
  8
DV3_0
 62
     7
370
    35
100
AcDbLine
 10
1047.515403136501
 20
991.3723664977564
 30
0.0
 11
1041.345385065415
 21
990.3340969669276
 31
0.0
  0
LINE
  5
1C4
330
1AB
100
AcDbEntity
  8
DV3_0
 62
     7
370
    35
100
AcDbLine
 10
1044.833815086901
 20
969.1778983278695
 30
0.0
 11
1051.073522466773
 21
970.2278949371449
 31
0.0
  0
ARC
  5
1C5
330
1AB
100
AcDbEntity
  8
DV3_0
 62
     7
370
    35
100
AcDbCircle
 10
795.4067950855679
 20
716.5117348971729
 30
0.0
 40
11.44453843335812
100
AcDbArc
 50
252.2143929929128
 51
266.289674425916
  0
ARC
  5
1C6
330
1AB
100
AcDbEntity
  8
DV3_0
 62
     7
370
    35
100
AcDbCircle
 10
809.711768572358
 20
937.1038581064381
 30
0.0
 40
232.4999999999739
100
AcDbArc
 50
266.2896744259236
 51
266.7667617519743
  0
ARC
  5
1C7
330
1AB
100
AcDbEntity
  8
DV3_0
 62
     7
370
    35
100
AcDbCircle
 10
809.711768572358
 20
937.1038581064381
 30
0.0
 40
232.4999999999739
100
AcDbArc
 50
271.0636446112308
 51
274.4140458455605
  0
ARC
  5
1C8
330
1AB
100
AcDbEntity
  8
DV3_0
 62
     7
370
    35
100
AcDbCircle
 10
826.7134560164711
 20
716.8530885765821
 30
0.0
 40
11.5940044850467
100
AcDbArc
 50
274.4140458455517
 51
293.6025154366551
  0
ENDBLK
  5
1CA
330
1AB
100
AcDbEntity
  8
0
100
AcDbBlockEnd
  0
BLOCK
  5
2AC
330
1CB
100
AcDbEntity
  8
0
100
AcDbBlockBegin
  2
SE3
 70
     0
 10
0.0
 20
0.0
 30
0.0
  3
SE3
  1

  0
LINE
  5
1CE
330
1CB
100
AcDbEntity
  8
DV4_0
 62
     7
370
    25
100
AcDbLine
 10
1741.342131150649
 20
1161.99695980303
 30
0.0
 11
1741.342131150654
 21
1013.370582930827
 31
0.0
  0
LINE
  5
1CF
330
1CB
100
AcDbEntity
  8
DV4_0
 62
     7
370
    25
100
AcDbLine
 10
1738.179123261122
 20
1013.37741937344
 30
0.0
 11
1738.179123261383
 21
1163.108469919579
 31
0.0
  0
LINE
  5
1D0
330
1CB
100
AcDbEntity
  8
DV4_0
 62
     7
370
    25
100
AcDbLine
 10
1738.179123261131
 20
457.7514960521217
 30
0.0
 11
1738.179123261131
 21
1012.560922792512
 31
0.0
  0
ELLIPSE
  5
1D1
330
1CB
100
AcDbEntity
  8
DV4_0
 62
     7
370
    35
100
AcDbEllipse
 10
1739.766547738861
 20
458.6611595590485
 30
0.0
 11
-2.236599999999909
 21
2.840860410601515E-14
 31
0.0
210
0.0
220
0.0
230
1.0
 40
0.5773502691897261
 41
0.7816545715254906
 42
2.352450898320178
  0
LINE
  5
1D2
330
1CB
100
AcDbEntity
  8
DV4_0
 62
     7
370
    25
100
AcDbLine
 10
1741.342131150649
 20
1011.322781334334
 30
0.0
 11
1741.342131150649
 21
457.7446596095126
 31
0.0
  0
ELLIPSE
  5
1D3
330
1CB
100
AcDbEntity
  8
DV4_0
 62
     7
370
    35
100
AcDbEllipse
 10
1739.766547738861
 20
1013.470586299438
 30
0.0
 11
-2.236599999999977
 21
1.133091557723150E-13
 31
0.0
210
0.0
220
0.0
230
1.0
 40
0.5773502691895255
 41
0.7816545715252543
 42
1.594916014188966
  0
ELLIPSE
  5
1D4
330
1CB
100
AcDbEntity
  8
DV4_0
 62
     7
370
    35
100
AcDbEllipse
 10
1903.823157351788
 20
553.1776265980212
 30
0.0
 11
233.9999999999968
 21
-1.387778780781446E-14
 31
0.0
210
0.0
220
0.0
230
1.0
 40
0.577350269189626
 41
3.14159265358979
 42
3.923247225115064
  0
LINE
  5
1D5
330
1CB
100
AcDbEntity
  8
DV4_0
 62
     7
370
    25
100
AcDbLine
 10
1737.741905545951
 20
1013.350167812594
 30
0.0
 11
1737.741905545951
 21
458.0058209015075
 31
0.0
  0
LINE
  5
1D6
330
1CB
100
AcDbEntity
  8
DV4_0
 62
     7
370
    35
100
AcDbLine
 10
1737.993569889645
 20
1012.66885719594
 30
0.0
 11
1737.993569889645
 21
1013.208448669549
 31
0.0
  0
LINE
  5
1D7
330
1CB
100
AcDbEntity
  8
DV4_0
 62
     7
370
    35
100
AcDbLine
 10
1738.468490784539
 20
1012.941007596052
 30
0.0
 11
1737.993569889645
 21
1012.66885719594
 31
0.0
  0
LINE
  5
1D8
330
1CB
100
AcDbEntity
  8
DV4_0
 62
     7
370
    35
100
AcDbLine
 10
1738.179123261131
 20
1012.560922792512
 30
0.0
 11
1737.993569889645
 21
1012.66885719594
 31
0.0
  0
LINE
  5
1D9
330
1CB
100
AcDbEntity
  8
DV4_0
 62
     7
370
    35
100
AcDbLine
 10
1737.741905545951
 20
458.0058209015073
 30
0.0
 11
1738.179123261131
 21
457.7514960521216
 31
0.0
  0
LINE
  5
1DA
330
1CB
100
AcDbEntity
  8
DV4_0
 62
     7
370
    35
100
AcDbLine
 10
1741.965720636092
 20
458.1020036004664
 30
0.0
 11
1741.342131150649
 21
457.7446596095126
 31
0.0
  0
LINE
  5
1DB
330
1CB
100
AcDbEntity
  8
DV4_0
 62
     7
370
    35
100
AcDbLine
 10
1669.823157351791
 20
1217.8939982181
 30
0.0
 11
1669.823157351791
 21
553.1776265980217
 31
0.0
  0
SPLINE
  5
1DC
330
1CB
100
AcDbEntity
  8
DV4_0
 62
     7
370
    35
100
AcDbSpline
210
0.0
220
0.0
230
1.0
 70
     8
 71
     3
 72
    30
 73
    26
 74
     0
 42
0.000000001
 43
0.0000000001
 40
0.511032406703937
 40
0.511032406703937
 40
0.511032406703937
 40
0.511032406703937
 40
0.5656328757418596
 40
0.5656328757418596
 40
0.5970569243941869
 40
0.5970569243941869
 40
0.6284809730465115
 40
0.6284809730465115
 40
0.6913290703511632
 40
0.6913290703511632
 40
0.7541771676558124
 40
0.7541771676558124
 40
0.8170252649604642
 40
0.8170252649604642
 40
0.8798733622651161
 40
0.8798733622651161
 40
0.9427214595697679
 40
0.9427214595697679
 40
0.9741455082220924
 40
0.9741455082220924
 40
0.9898575325482561
 40
0.9898575325482561
 40
0.9977135447113366
 40
0.9977135447113366
 40
1.0
 40
1.0
 40
1.0
 40
1.0
 10
2138.984436132284
 20
1289.482944357318
 30
0.0
 10
2138.984612861242
 20
1286.300029182554
 30
0.0
 10
2138.70463299226
 20
1283.080095604315
 30
0.0
 10
2137.82147635046
 20
1277.970404097389
 30
0.0
 10
2137.405989661012
 20
1276.09618401782
 30
0.0
 10
2136.389778333144
 20
1272.337631321467
 30
0.0
 10
2135.788577090413
 20
1270.451877890491
 30
0.0
 10
2133.709702045067
 20
1264.791282056617
 30
0.0
 10
2131.955696735073
 20
1261.009870893837
 30
0.0
 10
2127.726903046839
 20
1253.47314082262
 30
0.0
 10
2125.252119636041
 20
1249.717835284035
 30
0.0
 10
2119.604191075518
 20
1242.273808082072
 30
0.0
 10
2116.431053168702
 20
1238.585099487075
 30
0.0
 10
2109.415675496579
 20
1231.31337177801
 30
0.0
 10
2105.573445196439
 20
1227.730365301388
 30
0.0
 10
2097.255730317508
 20
1220.707375326147
 30
0.0
 10
2092.780257350767
 20
1217.267403907623
 30
0.0
 10
2085.62369629449
 20
1212.241106612618
 30
0.0
 10
2083.164331899018
 20
1210.58793294335
 30
0.0
 10
2079.368884066904
 20
1208.144685566119
 30
0.0
 10
2078.086004086243
 20
1207.336354042631
 30
0.0
 10
2076.135658762585
 20
1206.133362185082
 30
0.0
 10
2075.481206267892
 20
1205.733949054859
 30
0.0
 10
2074.630741418774
 20
1205.22037396529
 30
0.0
 10
2074.438638152282
 20
1205.104724078399
 30
0.0
 10
2074.24626446569
 20
1204.989266107212
 30
0.0
  0
ELLIPSE
  5
1DD
330
1CB
100
AcDbEntity
  8
DV4_0
 62
     7
370
    35
100
AcDbEllipse
 10
1906.484447851866
 20
1108.382073729785
 30
0.0
 11
-232.500000000007
 21
9.537344321513079E-13
 31
0.0
210
0.0
220
0.0
230
1.0
 40
0.5773502691896185
 41
3.613158380825286
 42
3.762061461820633
  0
ELLIPSE
  5
1DE
330
1CB
100
AcDbEntity
  8
DV4_0
 62
     7
370
    35
100
AcDbEllipse
 10
1906.484447851856
 20
1108.382073729792
 30
0.0
 11
-234.0000000000062
 21
8.075739505526821E-13
 31
0.0
210
0.0
220
0.0
230
1.0
 40
0.5773502691896276
 41
0.8060473833056552
 42
3.141592653589793
  0
LINE
  5
1DF
330
1CB
100
AcDbEntity
  8
DV4_0
 62
     7
370
    25
100
AcDbLine
 10
1877.232236725603
 20
1015.166724540659
 30
0.0
 11
1877.232236725603
 21
1121.311280061264
 31
0.0
  0
SPLINE
  5
1E0
330
1CB
100
AcDbEntity
  8
DV4_0
 62
     7
370
    35
100
AcDbSpline
210
0.0
220
0.0
230
1.0
 70
     8
 71
     3
 72
    28
 73
    24
 74
     0
 42
0.000000001
 43
0.0000000001
 40
0.0
 40
0.0
 40
0.0
 40
0.0
 40
0.0232715851300297
 40
0.0459570249379987
 40
0.0680563766493625
 40
0.0895697023406249
 40
0.1104970694775301
 40
0.1840450804783981
 40
0.2500504681001259
 40
0.3756942266789084
 40
0.4999345601853067
 40
0.5416286038400765
 40
0.5833150243506332
 40
0.6249949119779343
 40
0.6666693574956701
 40
0.7083394521048914
 40
0.7500062873484854
 40
0.7916709550255081
 40
0.8333345471054184
 40
0.8749981556422485
 40
0.9166628726887345
 40
0.9583297902104563
 40
1.0
 40
1.0
 40
1.0
 40
1.0
 10
1877.232236797137
 20
1121.311280389046
 30
0.0
 10
1878.903230004581
 20
1121.357253496451
 30
0.0
 10
1882.203128974253
 20
1121.448042426192
 30
0.0
 10
1887.105388282751
 20
1121.651056234121
 30
0.0
 10
1891.889138439817
 20
1121.895826965804
 30
0.0
 10
1896.55312403745
 20
1122.182871561821
 30
0.0
 10
1904.943279977482
 20
1122.780745402749
 30
0.0
 10
1916.573124417754
 20
1123.862435879995
 30
0.0
 10
1935.747723410196
 20
1126.217751107122
 30
0.0
 10
1958.413144857299
 20
1129.95158024094
 30
0.0
 10
1978.810060636091
 20
1134.540846766266
 30
0.0
 10
1992.942709426733
 20
1138.31346262418
 30
0.0
 10
2001.328276182939
 20
1140.738644301822
 30
0.0
 10
2009.571187129489
 20
1143.312429726447
 30
0.0
 10
2017.65925710594
 20
1146.031711106284
 30
0.0
 10
2025.580144263104
 20
1148.892855533905
 30
0.0
 10
2033.32181850446
 20
1151.892037685392
 30
0.0
 10
2040.872638296954
 20
1155.025085245641
 30
0.0
 10
2048.220685163536
 20
1158.287798339748
 30
0.0
 10
2055.356456548619
 20
1161.674862647242
 30
0.0
 10
2062.262865004171
 20
1165.183916229085
 30
0.0
 10
2068.952653041903
 20
1168.800409378182
 30
0.0
 10
2073.203227606392
 20
1171.302780108046
 30
0.0
 10
2075.328599179309
 20
1172.554014718587
 30
0.0
  0
LINE
  5
1E1
330
1CB
100
AcDbEntity
  8
DV4_0
 62
     7
370
    25
100
AcDbLine
 10
1744.473174505247
 20
1160.948047590171
 30
0.0
 11
1744.473174505234
 21
1010.899857730138
 31
0.0
  0
LINE
  5
1E2
330
1CB
100
AcDbEntity
  8
DV4_0
 62
     7
370
    35
100
AcDbLine
 10
1743.493844505619
 20
1011.442392586837
 30
0.0
 11
1744.473174505234
 21
1010.899857730139
 31
0.0
  0
LINE
  5
1E3
330
1CB
100
AcDbEntity
  8
DV4_0
 62
     7
370
    25
100
AcDbLine
 10
1743.493844505619
 20
1161.27078978029
 30
0.0
 11
1743.493844505619
 21
1011.442392586837
 31
0.0
  0
LINE
  5
1E4
330
1CB
100
AcDbEntity
  8
DV4_0
 62
     7
370
    35
100
AcDbLine
 10
1744.893156409435
 20
1166.430215432782
 30
0.0
 11
1743.854622571069
 21
1165.805329411807
 31
0.0
  0
SPLINE
  5
1E5
330
1CB
100
AcDbEntity
  8
DV4_0
 62
     7
370
    35
100
AcDbSpline
210
0.0
220
0.0
230
1.0
 70
     8
 71
     3
 72
    26
 73
    22
 74
     0
 42
0.000000001
 43
0.0000000001
 40
0.1624365608256845
 40
0.1624365608256845
 40
0.1624365608256845
 40
0.1624365608256845
 40
0.2523810446977566
 40
0.2523810446977566
 40
0.3785715670466375
 40
0.3785715670466375
 40
0.504762089395518
 40
0.504762089395518
 40
0.6309526117443941
 40
0.6309526117443941
 40
0.7571431340932749
 40
0.7571431340932749
 40
0.883333656442151
 40
0.883333656442151
 40
0.9464289176165915
 40
0.9464289176165915
 40
0.9779765482038116
 40
0.9779765482038116
 40
0.9937503634974217
 40
0.9937503634974217
 40
1.0
 40
1.0
 40
1.0
 40
1.0
 10
2140.484374430373
 20
1258.536729948523
 30
0.0
 10
2140.484620843448
 20
1255.356597649211
 30
0.0
 10
2140.219457276918
 20
1252.149845657788
 30
0.0
 10
2138.947656739464
 20
1244.410426026765
 30
0.0
 10
2137.685291020211
 20
1239.864228085335
 30
0.0
 10
2134.14197160477
 20
1230.785210184315
 30
0.0
 10
2131.861034603233
 20
1226.252419649248
 30
0.0
 10
2126.315055969128
 20
1217.266589363284
 30
0.0
 10
2123.05003665113
 20
1212.813577535326
 30
0.0
 10
2115.583191308508
 20
1204.050681028495
 30
0.0
 10
2111.381392837073
 20
1199.740822421356
 30
0.0
 10
2102.100352112701
 20
1191.323801018414
 30
0.0
 10
2097.021142207053
 20
1187.216662124379
 30
0.0
 10
2088.797140224221
 20
1181.249233244479
 30
0.0
 10
2085.955025863849
 20
1179.292265681617
 30
0.0
 10
2081.54801291848
 20
1176.409868765259
 30
0.0
 10
2080.055039873043
 20
1175.457909576502
 30
0.0
 10
2077.780585750932
 20
1174.04380518938
 30
0.0
 10
2077.016602239521
 20
1173.574742621732
 30
0.0
 10
2075.941897055029
 20
1172.92312040115
 30
0.0
 10
2075.636821400426
 20
1172.73905112069
 30
0.0
 10
2075.328599179309
 20
1172.554014718587
 30
0.0
  0
SPLINE
  5
1E6
330
1CB
100
AcDbEntity
  8
DV4_0
 62
     7
370
    35
100
AcDbSpline
210
0.0
220
0.0
230
1.0
 70
     8
 71
     3
 72
    23
 73
    19
 74
     0
 42
0.000000001
 43
0.0000000001
 40
0.4075947478527998
 40
0.4075947478527998
 40
0.4075947478527998
 40
0.4075947478527998
 40
0.4474943214742531
 40
0.5008344502936432
 40
0.5721851650210759
 40
0.6435307692947241
 40
0.6969809978626639
 40
0.7503695741734006
 40
0.7753266912167427
 40
0.8002829120613975
 40
0.8252390667390647
 40
0.8501959852880437
 40
0.8751544976704239
 40
0.9001154336893054
 40
0.9250796229061048
 40
0.9500478945579791
 40
0.9750210774754117
 40
0.9999999476774034
 40
0.9999999476774034
 40
0.9999999476774034
 40
0.9999999476774034
 10
2137.475812227789
 20
1307.184172264201
 30
0.0
 10
2138.247938823106
 20
1304.979184102111
 30
0.0
 10
2139.708048449746
 20
1299.748125503284
 30
0.0
 10
2140.84983324438
 20
1290.240566996074
 30
0.0
 10
2139.898978366512
 20
1278.588435432388
 30
0.0
 10
2136.296831998581
 20
1266.731860051709
 30
0.0
 10
2130.949380176377
 20
1255.946720986131
 30
0.0
 10
2125.702712574454
 20
1248.019987191671
 30
0.0
 10
2120.870531294121
 20
1241.875593915171
 30
0.0
 10
2117.040285393613
 20
1237.460203079371
 30
0.0
 10
2112.887911728465
 20
1233.090580696435
 30
0.0
 10
2108.419395318411
 20
1228.773882208583
 30
0.0
 10
2103.64143983663
 20
1224.517200770592
 30
0.0
 10
2098.560637549041
 20
1220.327667952257
 30
0.0
 10
2093.186199578062
 20
1216.211436421475
 30
0.0
 10
2087.519803683521
 20
1212.177583670384
 30
0.0
 10
2081.593422477284
 20
1208.223449312148
 30
0.0
 10
2077.417040685737
 20
1205.667697639543
 30
0.0
 10
2075.328598622002
 20
1204.389668389486
 30
0.0
  0
ELLIPSE
  5
1E7
330
1CB
100
AcDbEntity
  8
DV4_0
 62
     7
370
    35
100
AcDbEllipse
 10
1746.609445916132
 20
1013.31705058683
 30
0.0
 11
4.500000000000631
 21
-2.944893675422225E-13
 31
0.0
210
0.0
220
0.0
230
1.0
 40
0.5773502691896321
 41
3.141592653589644
 42
3.94764003689537
  0
ELLIPSE
  5
1E8
330
1CB
100
AcDbEntity
  8
DV4_0
 62
     7
370
    35
100
AcDbEllipse
 10
1877.794779247262
 20
1123.888975796562
 30
0.0
 11
-4.500000000000584
 21
5.637851296924625E-15
 31
0.0
210
0.0
220
0.0
230
1.0
 40
0.5773502691896272
 41
1.445458971664729
 42
1.716383631740392
  0
ELLIPSE
  5
1E9
330
1CB
100
AcDbEntity
  8
DV4_0
 62
     7
370
    35
100
AcDbEllipse
 10
1877.794779247262
 20
1017.744420275958
 30
0.0
 11
-4.50000000000036
 21
-1.147186185965461E-13
 31
0.0
210
0.0
220
0.0
230
1.0
 40
0.5773502691897211
 41
1.445458971664809
 42
1.524412938217259
  0
LINE
  5
1EA
330
1CB
100
AcDbEntity
  8
DV4_0
 62
     7
370
    35
100
AcDbLine
 10
1884.822172937031
 20
1030.125100519663
 30
0.0
 11
1884.822172937031
 21
1120.525085122208
 31
0.0
  0
LINE
  5
1EB
330
1CB
100
AcDbEntity
  8
DV4_0
 62
     7
370
    25
100
AcDbLine
 10
2134.104205288316
 20
1166.331407874297
 30
0.0
 11
2134.104205288316
 21
1231.758820581602
 31
0.0
  0
LINE
  5
1EC
330
1CB
100
AcDbEntity
  8
DV4_0
 62
     7
370
    35
100
AcDbLine
 10
2114.278548960508
 20
1164.611031491631
 30
0.0
 11
2113.831900575216
 21
1164.572273464119
 31
0.0
  0
LINE
  5
1ED
330
1CB
100
AcDbEntity
  8
DV4_0
 62
     7
370
    35
100
AcDbLine
 10
2113.831900575216
 20
1164.572273464119
 30
0.0
 11
2113.608955928209
 21
1165.428679848256
 31
0.0
  0
LINE
  5
1EE
330
1CB
100
AcDbEntity
  8
DV4_0
 62
     7
370
    35
100
AcDbLine
 10
2113.831900575216
 20
1202.804814381057
 30
0.0
 11
2113.831900575216
 21
1164.572273464119
 31
0.0
  0
LINE
  5
1EF
330
1CB
100
AcDbEntity
  8
DV4_0
 62
     7
370
    35
100
AcDbLine
 10
2113.608955928208
 20
1202.57304568014
 30
0.0
 11
2113.608955928208
 21
1165.428679848255
 31
0.0
  0
LINE
  5
1F0
330
1CB
100
AcDbEntity
  8
DV4_0
 62
     7
370
    35
100
AcDbLine
 10
2140.484447851854
 20
1258.496527459376
 30
0.0
 11
2140.484447851854
 21
1289.459269734898
 31
0.0
  0
LINE
  5
1F1
330
1CB
100
AcDbEntity
  8
DV4_0
 62
     7
370
    35
100
AcDbLine
 10
2140.484447851854
 20
1108.382073729787
 30
0.0
 11
2140.484447851854
 21
1116.481664519425
 31
0.0
  0
LINE
  5
1F2
330
1CB
100
AcDbEntity
  8
DV4_0
 62
     7
370
    35
100
AcDbLine
 10
1742.109445916131
 20
1161.735278699206
 30
0.0
 11
1742.109445916131
 21
1013.317050586831
 31
0.0
  0
LINE
  5
1F3
330
1CB
100
AcDbEntity
  8
DV4_0
 62
     7
370
    35
100
AcDbLine
 10
2137.935371347292
 20
1168.900627026708
 30
0.0
 11
2137.935371347292
 21
1242.587494542082
 31
0.0
  0
LINE
  5
1F4
330
1CB
100
AcDbEntity
  8
DV4_0
 62
     7
370
    35
100
AcDbLine
 10
2041.477602869106
 20
1149.784160140386
 30
0.0
 11
2041.477602869106
 21
1155.807108548157
 31
0.0
  0
LINE
  5
1F5
330
1CB
100
AcDbEntity
  8
DV4_0
 62
     7
370
    25
100
AcDbLine
 10
2044.871757890375
 20
1156.886099381041
 30
0.0
 11
2044.871757890375
 21
1147.338251159071
 31
0.0
  0
ELLIPSE
  5
1F6
330
1CB
100
AcDbEntity
  8
DV4_0
 62
     7
370
    35
100
AcDbEllipse
 10
1746.465720636093
 20
1008.374305229538
 30
0.0
 11
3.0000000000005
 21
-1.359689811772620E-13
 31
0.0
210
0.0
220
0.0
230
1.0
 40
0.5773502691896545
 41
2.382608739308426
 42
3.953405066102974
  0
LINE
  5
1F7
330
1CB
100
AcDbEntity
  8
DV4_0
 62
     7
370
    25
100
AcDbLine
 10
1743.368889962701
 20
451.2716333127154
 30
0.0
 11
1743.368889962701
 21
1006.489308343569
 31
0.0
  0
ELLIPSE
  5
1F8
330
1CB
100
AcDbEntity
  8
DV4_0
 62
     7
370
    35
100
AcDbEllipse
 10
1746.465720636093
 20
1008.374305229537
 30
0.0
 11
4.500000000000181
 21
-2.005707609877382E-12
 31
0.0
210
0.0
220
0.0
230
1.0
 40
0.5773502691896184
 41
2.382608739308607
 42
3.953405066103294
  0
ELLIPSE
  5
1F9
330
1CB
100
AcDbEntity
  8
DV4_0
 62
     7
370
    35
100
AcDbEllipse
 10
1905.388816060444
 20
1103.969880197213
 30
0.0
 11
-232.5000000000046
 21
7.677154255955345E-14
 31
0.0
210
0.0
220
0.0
230
1.0
 40
0.5773502691896258
 41
0.8118124125133921
 42
2.819919716911641
  0
ELLIPSE
  5
1FA
330
1CB
100
AcDbEntity
  8
DV4_0
 62
     7
370
    35
100
AcDbEllipse
 10
1905.38881606045
 20
1103.969880197214
 30
0.0
 11
-233.9999999999952
 21
1.246055395348559E-12
 31
0.0
210
0.0
220
0.0
230
1.0
 40
0.5773502691896583
 41
0.8118124125133566
 42
3.01569297360025
  0
LINE
  5
1FB
330
1CB
100
AcDbEntity
  8
DV4_0
 62
     7
370
    25
100
AcDbLine
 10
1744.353621044113
 20
450.7323670959456
 30
0.0
 11
1744.353621044113
 21
1005.950042126799
 31
0.0
  0
ELLIPSE
  5
1FC
330
1CB
100
AcDbEntity
  8
DV4_0
 62
     7
370
    35
100
AcDbEllipse
 10
1905.38881606045
 20
548.7522051663556
 30
0.0
 11
-234.0000000000039
 21
-1.322826937908113E-13
 31
0.0
210
0.0
220
0.0
230
1.0
 40
0.5773502691896261
 41
0.8118124125133566
 42
3.141592653589793
  0
LINE
  5
1FD
330
1CB
100
AcDbEntity
  8
DV4_0
 62
     7
370
    35
100
AcDbLine
 10
1743.368889962701
 20
1006.489308343569
 30
0.0
 11
1744.353621044113
 21
1005.950042126799
 31
0.0
  0
LINE
  5
1FE
330
1CB
100
AcDbEntity
  8
DV4_0
 62
     7
370
    35
100
AcDbLine
 10
1745.385897935243
 20
1006.578374422122
 30
0.0
 11
1744.401166853832
 21
1007.117640638892
 31
0.0
  0
LINE
  5
1FF
330
1CB
100
AcDbEntity
  8
DV4_0
 62
     7
370
    35
100
AcDbLine
 10
1743.297964408578
 20
1010.22139760558
 30
0.0
 11
1743.200810257484
 21
1010.162261252455
 31
0.0
  0
LINE
  5
200
330
1CB
100
AcDbEntity
  8
DV4_0
 62
     7
370
    35
100
AcDbLine
 10
1741.965720636092
 20
1008.374305229538
 30
0.0
 11
1741.965720636092
 21
453.1566301986848
 31
0.0
  0
LINE
  5
201
330
1CB
100
AcDbEntity
  8
DV4_0
 62
     7
370
    35
100
AcDbLine
 10
2139.388816060452
 20
548.7522051663587
 30
0.0
 11
2139.388816060452
 21
1095.323803433954
 31
0.0
  0
ELLIPSE
  5
202
330
1CB
100
AcDbEntity
  8
DV4_0
 62
     7
370
    35
100
AcDbEllipse
 10
1905.38881606045
 20
1103.959754402916
 30
0.0
 11
-202.1530273882964
 21
-1.184049059829968E-13
 31
0.0
210
0.0
220
0.0
230
1.0
 40
0.5773502691896285
 41
3.234360514992856
 42
3.747239015110402
  0
ELLIPSE
  5
203
330
1CB
100
AcDbEntity
  8
DV4_0
 62
     7
370
    35
100
AcDbEllipse
 10
1748.518484152678
 20
1008.222059039246
 30
0.0
 11
-4.249999999999956
 21
2.255140518769850E-14
 31
0.0
210
0.0
220
0.0
230
1.0
 40
0.577350269189608
 41
0.9308634496543933
 42
2.134108421185692
  0
ELLIPSE
  5
204
330
1CB
100
AcDbEntity
  8
DV4_0
 62
     7
370
    35
100
AcDbEllipse
 10
1905.388816060451
 20
1101.510264660133
 30
0.0
 11
-202.1530273882966
 21
8.371043646346068E-14
 31
0.0
210
0.0
220
0.0
230
1.0
 40
0.5773502691896252
 41
3.250285751626912
 42
3.762485435432025
  0
LINE
  5
205
330
1CB
100
AcDbEntity
  8
DV4_0
 62
     7
370
    25
100
AcDbLine
 10
2048.899665418795
 20
1144.231858730197
 30
0.0
 11
2048.899665418795
 21
1158.659219769639
 31
0.0
  0
LINE
  5
206
330
1CB
100
AcDbEntity
  8
DV4_0
 62
     7
370
    35
100
AcDbLine
 10
2093.650981295636
 20
1096.090322799775
 30
0.0
 11
2093.650981295636
 21
1144.027726262058
 31
0.0
  0
LINE
  5
207
330
1CB
100
AcDbEntity
  8
DV4_0
 62
     7
370
    25
100
AcDbLine
 10
2080.469291175144
 20
1159.855997768523
 30
0.0
 11
2080.469291175144
 21
1101.991118772825
 31
0.0
  0
LINE
  5
208
330
1CB
100
AcDbEntity
  8
DV4_0
 62
     7
370
    25
100
AcDbLine
 10
2074.106440813858
 20
1165.801813041502
 30
0.0
 11
2074.106440813858
 21
1115.92464203905
 31
0.0
  0
ELLIPSE
  5
209
330
1CB
100
AcDbEntity
  8
DV4_0
 62
     7
370
    35
100
AcDbEllipse
 10
1903.823157351795
 20
485.408410381022
 30
0.0
 11
213.0
 21
0.0
 31
0.0
210
0.0
220
0.0
230
1.0
 40
0.5773502691896261
 41
3.141592653589811
 42
6.283185307179568
  0
LINE
  5
20A
330
1CB
100
AcDbEntity
  8
DV4_0
 62
     7
370
    35
100
AcDbLine
 10
1690.823157351791
 20
496.9159635112825
 30
0.0
 11
1690.823157351791
 21
485.4084103810198
 31
0.0
  0
LINE
  5
20B
330
1CB
100
AcDbEntity
  8
DV4_0
 62
     7
370
    35
100
AcDbLine
 10
2116.823157351793
 20
485.4084103810198
 30
0.0
 11
2116.823157351793
 21
490.8686458347277
 31
0.0
  0
ELLIPSE
  5
20C
330
1CB
100
AcDbEntity
  8
DV4_0
 62
     7
370
    35
100
AcDbEllipse
 10
1748.613218880607
 20
455.4021610323167
 30
0.0
 11
8.999999999999742
 21
-5.748778701068107E-15
 31
0.0
210
0.0
220
0.0
230
1.0
 40
0.5773502691896245
 41
2.74511764844349
 42
3.141592653589793
  0
ELLIPSE
  5
20D
330
1CB
100
AcDbEntity
  8
DV4_0
 62
     7
370
    35
100
AcDbEllipse
 10
1748.613218880606
 20
452.952671289533
 30
0.0
 11
8.999999999999831
 21
3.437171605468543E-14
 31
0.0
210
0.0
220
0.0
230
1.0
 40
0.5773502691896263
 41
3.141592653589786
 42
4.852378521865689
  0
LINE
  5
20E
330
1CB
100
AcDbEntity
  8
DV4_0
 62
     7
370
    35
100
AcDbLine
 10
1739.420830725203
 20
455.8104093228038
 30
0.0
 11
1739.627161703238
 21
455.6912840770918
 31
0.0
  0
ELLIPSE
  5
20F
330
1CB
100
AcDbEntity
  8
DV4_0
 62
     7
370
    35
100
AcDbEllipse
 10
1903.823157351791
 20
550.7281368552376
 30
0.0
 11
232.4999999999997
 21
-5.093243023786938E-15
 31
0.0
210
0.0
220
0.0
230
1.0
 40
0.5773502691896266
 41
3.494438714430995
 42
3.92699081698288
  0
LINE
  5
210
330
1CB
100
AcDbEntity
  8
DV4_0
 62
     7
370
    25
100
AcDbLine
 10
1739.420830725203
 20
457.3853775365922
 30
0.0
 11
1739.420830725203
 21
455.8104093228037
 31
0.0
  0
LINE
  5
211
330
1CB
100
AcDbEntity
  8
DV4_0
 62
     7
370
    35
100
AcDbLine
 10
1739.613218880606
 20
455.4021610323162
 30
0.0
 11
1739.613218880606
 21
452.952671289533
 31
0.0
  0
ELLIPSE
  5
212
330
1CB
100
AcDbEntity
  8
DV4_0
 62
     7
370
    25
100
AcDbEllipse
 10
1901.23583410622
 20
1275.453228919859
 30
0.0
 11
231.8067430071066
 21
31.96300825074684
 31
0.0
210
0.0
220
0.0
230
1.0
 40
0.4738323381053849
 41
0.0
 42
6.283185307179586
  0
ELLIPSE
  5
213
330
1CB
100
AcDbEntity
  8
DV4_0
 62
     7
370
    35
100
AcDbEllipse
 10
1901.777124625444
 20
1271.527603669031
 30
0.0
 11
-236.2645649880129
 21
-32.57768148633595
 31
0.0
210
0.0
220
0.0
230
0.9999999999999998
 40
0.4738323381053861
 41
0.0000000000000014
 42
0.0919710427329451
  0
ELLIPSE
  5
214
330
1CB
100
AcDbEntity
  8
DV4_0
 62
     7
370
    25
100
AcDbEllipse
 10
1901.777124625444
 20
1271.527603669031
 30
0.0
 11
-236.2645649880129
 21
-32.57768148633595
 31
0.0
210
0.0
220
0.0
230
0.9999999999999998
 40
0.4738323381053861
 41
0.0919710427329452
 42
3.047668811107179
  0
ELLIPSE
  5
215
330
1CB
100
AcDbEntity
  8
DV4_0
 62
     7
370
    35
100
AcDbEllipse
 10
1901.777124625444
 20
1271.527603669031
 30
0.0
 11
-236.2645649880129
 21
-32.57768148633595
 31
0.0
210
0.0
220
0.0
230
0.9999999999999998
 40
0.4738323381053861
 41
3.047668811107179
 42
3.235463223698001
  0
ELLIPSE
  5
216
330
1CB
100
AcDbEntity
  8
DV4_0
 62
     7
370
    35
100
AcDbEllipse
 10
1901.777124625444
 20
1271.527603669031
 30
0.0
 11
-236.2645649880129
 21
-32.57768148633595
 31
0.0
210
0.0
220
0.0
230
0.9999999999999998
 40
0.4738323381053861
 41
6.187073923668586
 42
6.283185307179585
  0
ELLIPSE
  5
217
330
1CB
100
AcDbEntity
  8
DV4_0
 62
     7
370
    35
100
AcDbEllipse
 10
1903.040135836962
 20
1262.367811417091
 30
0.0
 11
-236.2645649880129
 21
-32.57768148633612
 31
0.0
210
0.0
220
0.0
230
1.0
 40
0.4738323381053827
 41
0.0
 42
2.85500029697487
  0
SPLINE
  5
218
330
1CB
100
AcDbEntity
  8
DV4_0
 62
     7
370
    35
100
AcDbSpline
210
0.0
220
0.0
230
1.0
 70
     8
 71
     3
 72
    62
 73
    58
 74
     0
 42
0.000000001
 43
0.0000000001
 40
0.0
 40
0.0
 40
0.0
 40
0.0
 40
0.0030983105653112
 40
0.0213112985714055
 40
0.0395978042184854
 40
0.0579838689813358
 40
0.076478268586427
 40
0.0950744735330361
 40
0.113755700566002
 40
0.1325007593136375
 40
0.1512887899211389
 40
0.1701020661203705
 40
0.1889270195790095
 40
0.2077529630868284
 40
0.226573356309498
 40
0.2453851654498349
 40
0.2641869171184793
 40
0.2829781695640765
 40
0.3017591330382299
 40
0.3205304093402961
 40
0.3392928193872399
 40
0.3580472927503383
 40
0.3767947994521518
 40
0.3955363099393915
 40
0.4142727735135212
 40
0.4330051086713218
 40
0.4517342010206636
 40
0.4704609059428081
 40
0.4891860541786126
 40
0.5079104591761945
 40
0.5266349254599801
 40
0.5453600160648714
 40
0.5640865156037013
 40
0.5828152500045662
 40
0.6015470690071409
 40
0.6202828540617072
 40
0.639023524737979
 40
0.657770042556243
 40
0.6765234105404969
 40
0.695284665844823
 40
0.7140548613771349
 40
0.7328350302338722
 40
0.7516261237063431
 40
0.7704289093479186
 40
0.7892438099332665
 40
0.8080706573633449
 40
0.8269083291071165
 40
0.8457542326772497
 40
0.8646029187430455
 40
0.8834439494081654
 40
0.9022642488729191
 40
0.921046193576408
 40
0.9397682513607424
 40
0.9584074309297006
 40
0.9769439593931675
 40
0.9953675721355626
 40
1.0
 40
1.0
 40
1.0
 40
1.0
 10
2135.346873105425
 20
1315.106416829595
 30
0.0
 10
2135.231885243251
 20
1315.493194351059
 30
0.0
 10
2134.550020911001
 20
1317.77478900826
 30
0.0
 10
2132.49131066307
 20
1322.26647733451
 30
0.0
 10
2129.266933510791
 20
1328.109381603889
 30
0.0
 10
2125.267820390843
 20
1333.834704479803
 30
0.0
 10
2120.608479337225
 20
1339.35739868347
 30
0.0
 10
2115.270489775001
 20
1344.678190199612
 30
0.0
 10
2109.276708378442
 20
1349.773324891141
 30
0.0
 10
2102.644303727763
 20
1354.625870917059
 30
0.0
 10
2095.396609109971
 20
1359.218539782859
 30
0.0
 10
2087.558730807998
 20
1363.536347471683
 30
0.0
 10
2079.157822691517
 20
1367.566001193612
 30
0.0
 10
2070.222250729686
 20
1371.29596453818
 30
0.0
 10
2060.78125095596
 20
1374.716228718218
 30
0.0
 10
2050.864620590696
 20
1377.818109693694
 30
0.0
 10
2040.502853365183
 20
1380.593978557616
 30
0.0
 10
2029.727379145068
 20
1383.037092273796
 30
0.0
 10
2018.57058980959
 20
1385.141555079474
 30
0.0
 10
2007.065838870236
 20
1386.902312338088
 30
0.0
 10
1995.247414721401
 20
1388.315163117722
 30
0.0
 10
1983.150490417661
 20
1389.376782064847
 30
0.0
 10
1970.811054209563
 20
1390.084744256911
 30
0.0
 10
1958.265824934047
 20
1390.437549127094
 30
0.0
 10
1945.55215581639
 20
1390.434641154341
 30
0.0
 10
1932.707929583446
 20
1390.076426044748
 30
0.0
 10
1919.771447192736
 20
1389.364281760253
 30
0.0
 10
1906.781311996607
 20
1388.30056411948
 30
0.0
 10
1893.776310784384
 20
1386.888606897277
 30
0.0
 10
1880.795292891007
 20
1385.132716453491
 30
0.0
 10
1867.877103843064
 20
1383.038169953333
 30
0.0
 10
1855.060412637735
 20
1380.611197958676
 30
0.0
 10
1842.383582452395
 20
1377.858962377598
 30
0.0
 10
1829.884497025691
 20
1374.789514466697
 30
0.0
 10
1817.600492816159
 20
1371.411770267525
 30
0.0
 10
1805.568250440344
 20
1367.735474749751
 30
0.0
 10
1793.823684261065
 20
1363.77115959442
 30
0.0
 10
1782.40183734671
 20
1359.530095829113
 30
0.0
 10
1771.336783313996
 20
1355.024241531892
 30
0.0
 10
1760.661536943186
 20
1350.266185086697
 30
0.0
 10
1750.407975936697
 20
1345.269084951594
 30
0.0
 10
1740.606776757204
 20
1340.046607699516
 30
0.0
 10
1731.287368126818
 20
1334.612867456328
 30
0.0
 10
1722.477906128756
 20
1328.982371793918
 30
0.0
 10
1714.205275347824
 20
1323.16998286596
 30
0.0
 10
1706.495117504023
 20
1317.190904906045
 30
0.0
 10
1699.371892125584
 20
1311.060723071842
 30
0.0
 10
1692.859020651123
 20
1304.795571980924
 30
0.0
 10
1686.979166470499
 20
1298.412628689244
 30
0.0
 10
1681.753789908997
 20
1291.93011811157
 30
0.0
 10
1677.203521512398
 20
1285.368455171157
 30
0.0
 10
1673.345212433325
 20
1278.74761538601
 30
0.0
 10
1670.200193638583
 20
1272.098177504382
 30
0.0
 10
1667.760230777743
 20
1265.421745294603
 30
0.0
 10
1666.108774679062
 20
1258.836236023893
 30
0.0
 10
1665.250177032192
 20
1253.717645616318
 30
0.0
 10
1665.179515761446
 20
1251.146289706497
 30
0.0
 10
1665.164239895425
 20
1250.542561497684
 30
0.0
  0
LINE
  5
219
330
1CB
100
AcDbEntity
  8
DV4_0
 62
     7
370
    35
100
AcDbLine
 10
1665.512559637431
 20
1238.949922182685
 30
0.0
 11
1666.77557084895
 21
1229.79012993075
 31
0.0
  0
LINE
  5
21A
330
1CB
100
AcDbEntity
  8
DV4_0
 62
     7
370
    35
100
AcDbLine
 10
2139.304700824975
 20
1294.945492903432
 30
0.0
 11
2138.041689613455
 21
1304.105285155367
 31
0.0
  0
LINE
  5
21B
330
1CB
100
AcDbEntity
  8
DV4_0
 62
     7
370
    35
100
AcDbLine
 10
1744.268484152669
 20
1009.675976640372
 30
0.0
 11
1744.268484152669
 21
1007.195018462616
 31
0.0
  0
ELLIPSE
  5
21C
330
1CB
100
AcDbEntity
  8
DV4_0
 62
     7
370
    35
100
AcDbEllipse
 10
1908.488097570875
 20
1229.415765739341
 30
0.0
 11
-229.082394205383
 21
-39.71783812251095
 31
0.0
210
0.0
220
0.0
230
1.0
 40
0.451472961613353
 41
1.362563003738804
 42
1.544788066807507
  0
LINE
  5
21D
330
1CB
100
AcDbEntity
  8
DV4_0
 62
     7
370
    35
100
AcDbLine
 10
1878.440900969312
 20
1121.357082134459
 30
0.0
 11
1878.673669480936
 21
1120.014532528062
 31
0.0
  0
LINE
  5
21E
330
1CB
100
AcDbEntity
  8
DV4_0
 62
     7
370
    35
100
AcDbLine
 10
1744.144969494995
 20
1011.081678626331
 30
0.0
 11
1744.144969494995
 21
1009.744425646663
 31
0.0
  0
LINE
  5
21F
330
1CB
100
AcDbEntity
  8
DV4_0
 62
     7
370
    35
100
AcDbLine
 10
1744.144969494995
 20
1009.744425646663
 30
0.0
 11
1746.83085519313
 21
1008.255969049606
 31
0.0
  0
LINE
  5
220
330
1CB
100
AcDbEntity
  8
DV4_0
 62
     7
370
    35
100
AcDbLine
 10
1746.83085519313
 20
1008.255969049605
 30
0.0
 11
1746.83085519313
 21
1009.611750333939
 31
0.0
  0
LINE
  5
221
330
1CB
100
AcDbEntity
  8
DV4_0
 62
     7
370
    35
100
AcDbLine
 10
1742.109445916131
 20
1013.340174939009
 30
0.0
 11
1735.503253550311
 21
1017.060304326949
 31
0.0
  0
LINE
  5
222
330
1CB
100
AcDbEntity
  8
DV4_0
 62
     7
370
    35
100
AcDbLine
 10
1735.50325355031
 20
1017.060304326949
 30
0.0
 11
1735.50325355031
 21
1014.610814584165
 31
0.0
  0
LINE
  5
223
330
1CB
100
AcDbEntity
  8
DV4_0
 62
     7
370
    35
100
AcDbLine
 10
1735.50325355031
 20
1014.610814584165
 30
0.0
 11
1744.144969494995
 21
1009.744425646662
 31
0.0
  0
LINE
  5
224
330
1CB
100
AcDbEntity
  8
DV4_0
 62
     7
370
    35
100
AcDbLine
 10
1735.50325355031
 20
1017.060304326949
 30
0.0
 11
1742.109445916131
 21
1020.97072186204
 31
0.0
  0
ELLIPSE
  5
225
330
1CB
100
AcDbEntity
  8
DV4_0
 62
     7
370
    35
100
AcDbEllipse
 10
1906.484447851855
 20
1105.838379266409
 30
0.0
 11
-209.4999999999999
 21
2.437487058699009E-13
 31
0.0
210
0.0
220
0.0
230
1.0
 40
0.5773502691896227
 41
3.326991378803413
 42
3.747620406775506
  0
ELLIPSE
  5
226
330
1CB
100
AcDbEntity
  8
DV4_0
 62
     7
370
    35
100
AcDbEllipse
 10
1906.484447851856
 20
1108.287869009192
 30
0.0
 11
-209.5000000000002
 21
-8.283906322644038E-13
 31
0.0
210
0.0
220
0.0
230
1.0
 40
0.5773502691896246
 41
3.31669894670766
 42
3.733674840037632
  0
ELLIPSE
  5
227
330
1CB
100
AcDbEntity
  8
DV4_0
 62
     7
370
    35
100
AcDbEllipse
 10
1906.484447851856
 20
1108.287869009193
 30
0.0
 11
-232.5000000000001
 21
1.387778780781446E-14
 31
0.0
210
0.0
220
0.0
230
1.0
 40
0.5773502691896231
 41
3.613158380825126
 42
3.762268077049599
  0
ELLIPSE
  5
228
330
1CB
100
AcDbEntity
  8
DV4_0
 62
     7
370
    35
100
AcDbEllipse
 10
1906.484447851855
 20
1105.838379266409
 30
0.0
 11
-232.5000000000001
 21
-9.259788565356790E-13
 31
0.0
210
0.0
220
0.0
230
1.0
 40
0.577350269189626
 41
0.813881233659508
 42
2.803081526306437
  0
LINE
  5
229
330
1CB
100
AcDbEntity
  8
DV4_0
 62
     7
370
    35
100
AcDbLine
 10
2113.59340024146
 20
1167.428975838631
 30
0.0
 11
2113.59340024146
 21
1168.653720710022
 31
0.0
  0
ELLIPSE
  5
22A
330
1CB
100
AcDbEntity
  8
DV4_0
 62
     7
370
    35
100
AcDbEllipse
 10
1906.484447851862
 20
1149.20690277617
 30
0.0
 11
-209.4999999999945
 21
4.315425508919700E-13
 31
0.0
210
0.0
220
0.0
230
1.0
 40
0.5773502691896276
 41
3.14665549090147
 42
3.26929379035797
  0
ELLIPSE
  5
22B
330
1CB
100
AcDbEntity
  8
DV4_0
 62
     7
370
    35
100
AcDbEllipse
 10
1906.48444785186
 20
1150.431647647562
 30
0.0
 11
-209.4999999999961
 21
-3.343980362372688E-13
 31
0.0
210
0.0
220
0.0
230
1.0
 40
0.5773502691896245
 41
2.459832596015635
 42
3.292820238829495
  0
ELLIPSE
  5
22C
330
1CB
100
AcDbEntity
  8
DV4_0
 62
     7
370
    35
100
AcDbEllipse
 10
1906.48444785186
 20
1150.431647647562
 30
0.0
 11
-209.4999999999961
 21
-3.343980362372688E-13
 31
0.0
210
0.0
220
0.0
230
1.0
 40
0.5773502691896245
 41
1.447520063058325
 42
2.273663010041787
  0
LINE
  5
22D
330
1CB
100
AcDbEntity
  8
DV4_0
 62
     7
370
    35
100
AcDbLine
 10
2113.59340024146
 20
1168.653720710022
 30
0.0
 11
2113.608955928208
 21
1168.655089346468
 31
0.0
  0
ELLIPSE
  5
22E
330
1CB
100
AcDbEntity
  8
DV4_0
 62
     7
370
    25
100
AcDbEllipse
 10
1906.48444785186
 20
1150.431647647564
 30
0.0
 11
-232.4999999999957
 21
3.061987510050659E-13
 31
0.0
210
0.0
220
0.0
230
1.0
 40
0.5773502691896267
 41
-3.991748214576019
 42
-3.849951183648285
  0
ELLIPSE
  5
22F
330
1CB
100
AcDbEntity
  8
DV4_0
 62
     7
370
    35
100
AcDbEllipse
 10
2136.330898594494
 20
1166.980000083613
 30
0.0
 11
-4.350986985902344
 21
-1.148439048666285
 31
0.0
210
0.0
220
0.0
230
0.9999999999999999
 40
0.8071778114826506
 41
3.141726664881455
 42
4.13349206579451
  0
ELLIPSE
  5
230
330
1CB
100
AcDbEntity
  8
DV4_0
 62
     7
370
    35
100
AcDbEllipse
 10
1877.895256957366
 20
1013.542163450871
 30
0.0
 11
0.3210929535872834
 21
4.488529749835292
 31
0.0
210
0.0
220
0.0
230
1.0
 40
0.1003998994271353
 41
0.6190753264756497
 42
2.189871653270625
  0
LINE
  5
231
330
1CB
100
AcDbEntity
  8
DV4_0
 62
     7
370
    35
100
AcDbLine
 10
1877.341917778765
 20
1002.39058968179
 30
0.0
 11
1877.341917778764
 21
1010.963803781532
 31
0.0
  0
ELLIPSE
  5
232
330
1CB
100
AcDbEntity
  8
DV4_0
 62
     7
370
    35
100
AcDbEllipse
 10
1906.484447851863
 20
1138.184198933645
 30
0.0
 11
-236.9999999999939
 21
-4.874974117398018E-13
 31
0.0
210
0.0
220
0.0
230
1.0
 40
0.5773502691896254
 41
1.447520063058307
 42
3.141592653589823
  0
ELLIPSE
  5
233
330
1CB
100
AcDbEntity
  8
DV4_0
 62
     7
370
    35
100
AcDbEllipse
 10
1906.484447851863
 20
1146.757413033387
 30
0.0
 11
-236.9999999999939
 21
5.551115123125782E-14
 31
0.0
210
0.0
220
0.0
230
1.0
 40
0.5773502691896258
 41
3.020196940440582
 42
3.267897126872116
  0
ELLIPSE
  5
234
330
1CB
100
AcDbEntity
  8
DV4_0
 62
     7
370
    25
100
AcDbEllipse
 10
1906.484447851863
 20
1146.757413033387
 30
0.0
 11
-236.9999999999939
 21
5.551115123125782E-14
 31
0.0
210
0.0
220
0.0
230
1.0
 40
0.5773502691896258
 41
1.447520063058307
 42
3.020196940440582
  0
LINE
  5
235
330
1CB
100
AcDbEntity
  8
DV4_0
 62
     7
370
    35
100
AcDbLine
 10
2143.484447851856
 20
1138.184198933649
 30
0.0
 11
2143.484447851856
 21
1146.75741303339
 31
0.0
  0
LINE
  5
236
330
1CB
100
AcDbEntity
  8
DV4_0
 62
     7
370
    35
100
AcDbLine
 10
2141.459478634841
 20
1164.628153328864
 30
0.0
 11
2140.681885580396
 21
1168.12843913228
 31
0.0
  0
ELLIPSE
  5
237
330
1CB
100
AcDbEntity
  8
DV4_0
 62
     7
370
    35
100
AcDbEllipse
 10
2082.074198069987
 20
1071.695722822712
 30
0.0
 11
1.768354237745704
 21
4.475887430447555E-13
 31
0.0
210
0.0
220
0.0
230
1.0
 40
0.5773502691901162
 41
1.886583013470104
 42
2.730220078603391
  0
LINE
  5
238
330
1CB
100
AcDbEntity
  8
DV4_0
 62
     7
370
    35
100
AcDbLine
 10
2081.525010278279
 20
1073.48269514257
 30
0.0
 11
2081.525010278279
 21
1072.666198561647
 31
0.0
  0
ELLIPSE
  5
239
330
1CB
100
AcDbEntity
  8
DV4_0
 62
     7
370
    35
100
AcDbEllipse
 10
2082.074198069987
 20
1072.512219403638
 30
0.0
 11
1.768354237745719
 21
-3.481525503070779E-12
 31
0.0
210
0.0
220
0.0
230
1.0
 40
0.577350269189569
 41
1.886583013471384
 42
5.903869286090085
  0
ELLIPSE
  5
23A
330
1CB
100
AcDbEntity
  8
DV4_0
 62
     7
370
    35
100
AcDbEllipse
 10
2074.369686641769
 20
1068.353284061161
 30
0.0
 11
11.40750763616982
 21
-6.926394943963969E-12
 31
0.0
210
0.0
220
0.0
230
1.0
 40
0.5773502691906925
 41
0.8927831485992099
 42
2.434078329165182
  0
ELLIPSE
  5
23B
330
1CB
100
AcDbEntity
  8
DV4_0
 62
     7
370
    35
100
AcDbEllipse
 10
2077.928474393919
 20
1070.118684723275
 30
0.0
 11
1.768354237745601
 21
1.444257581226490E-13
 31
0.0
210
0.0
220
0.0
230
1.0
 40
0.5773502691895631
 41
0.0
 42
6.283185307179586
  0
ELLIPSE
  5
23C
330
1CB
100
AcDbEntity
  8
DV4_0
 62
     7
370
    35
100
AcDbEllipse
 10
2077.928474393919
 20
1069.302188142347
 30
0.0
 11
1.768354237745601
 21
1.444257581226490E-13
 31
0.0
210
0.0
220
0.0
230
1.0
 40
0.5773502691895631
 41
0.411372232730467
 42
2.730220407726939
  0
ELLIPSE
  5
23D
330
1CB
100
AcDbEntity
  8
DV4_0
 62
     7
370
    35
100
AcDbEllipse
 10
2073.782750717851
 20
1067.725150042911
 30
0.0
 11
1.768354237745596
 21
1.245848583661642E-13
 31
0.0
210
0.0
220
0.0
230
1.0
 40
0.5773502691895632
 41
0.0
 42
6.283185307179586
  0
ELLIPSE
  5
23E
330
1CB
100
AcDbEntity
  8
DV4_0
 62
     7
370
    35
100
AcDbEllipse
 10
2073.782750717851
 20
1066.908653461984
 30
0.0
 11
1.768354237745611
 21
4.813857645835640E-14
 31
0.0
210
0.0
220
0.0
230
1.0
 40
0.5773502691895814
 41
0.4113719060899843
 42
2.730220747530004
  0
ELLIPSE
  5
23F
330
1CB
100
AcDbEntity
  8
DV4_0
 62
     7
370
    35
100
AcDbEllipse
 10
2069.637027041656
 20
1065.331615362621
 30
0.0
 11
1.768354237745576
 21
2.266183115446299E-13
 31
0.0
210
0.0
220
0.0
230
1.0
 40
0.5773502691895751
 41
0.0
 42
6.283185307179586
  0
ELLIPSE
  5
240
330
1CB
100
AcDbEntity
  8
DV4_0
 62
     7
370
    35
100
AcDbEllipse
 10
2069.637027041656
 20
1064.515118781693
 30
0.0
 11
1.768354237745591
 21
1.501720296368221E-13
 31
0.0
210
0.0
220
0.0
230
1.0
 40
0.5773502691895688
 41
0.4113715566965528
 42
2.730221110528369
  0
ELLIPSE
  5
241
330
1CB
100
AcDbEntity
  8
DV4_0
 62
     7
370
    35
100
AcDbEllipse
 10
2065.491303365588
 20
1062.938080682257
 30
0.0
 11
1.768354237745606
 21
1.189470070692396E-13
 31
0.0
210
0.0
220
0.0
230
1.0
 40
0.5773502691895696
 41
0.0
 42
6.283185307179586
  0
ELLIPSE
  5
242
330
1CB
100
AcDbEntity
  8
DV4_0
 62
     7
370
    35
100
AcDbEllipse
 10
2065.491303365588
 20
1062.12158410133
 30
0.0
 11
1.768354237745601
 21
-3.686287386450716E-14
 31
0.0
210
0.0
220
0.0
230
1.0
 40
0.5773502691896423
 41
0.4113722686378942
 42
2.730220371094203
  0
ELLIPSE
  5
243
330
1CB
100
AcDbEntity
  8
DV4_0
 62
     7
370
    35
100
AcDbEllipse
 10
2061.34557968952
 20
1060.544546001894
 30
0.0
 11
1.768354237745591
 21
1.274037840146265E-13
 31
0.0
210
0.0
220
0.0
230
1.0
 40
0.5773502691895962
 41
0.0
 42
6.283185307179586
  0
ELLIPSE
  5
244
330
1CB
100
AcDbEntity
  8
DV4_0
 62
     7
370
    35
100
AcDbEllipse
 10
2061.34557968952
 20
1059.728049420966
 30
0.0
 11
1.768354237745591
 21
1.274037840146265E-13
 31
0.0
210
0.0
220
0.0
230
1.0
 40
0.5773502691895962
 41
0.4113715332796239
 42
2.730221134388417
  0
ELLIPSE
  5
245
330
1CB
100
AcDbEntity
  8
DV4_0
 62
     7
370
    35
100
AcDbEllipse
 10
2057.199856013368
 20
1058.151011321579
 30
0.0
 11
1.768354237745581
 21
1.558098809337467E-13
 31
0.0
210
0.0
220
0.0
230
1.0
 40
0.5773502691895627
 41
0.0
 42
6.283185307179586
  0
ELLIPSE
  5
246
330
1CB
100
AcDbEntity
  8
DV4_0
 62
     7
370
    35
100
AcDbEllipse
 10
2057.199856013368
 20
1057.334514740651
 30
0.0
 11
1.768354237745591
 21
1.501720296368221E-13
 31
0.0
210
0.0
220
0.0
230
1.0
 40
0.5773502691895688
 41
0.4113719059471554
 42
2.730220747675982
  0
ELLIPSE
  5
247
330
1CB
100
AcDbEntity
  8
DV4_0
 62
     7
370
    35
100
AcDbEllipse
 10
2053.0541323373
 20
1055.757476641215
 30
0.0
 11
1.768354237745611
 21
1.387879068257243E-13
 31
0.0
210
0.0
220
0.0
230
1.0
 40
0.5773502691895717
 41
0.0
 42
6.283185307179586
  0
ELLIPSE
  5
248
330
1CB
100
AcDbEntity
  8
DV4_0
 62
     7
370
    35
100
AcDbEllipse
 10
2053.0541323373
 20
1054.940980060288
 30
0.0
 11
1.768354237745601
 21
1.444257581226490E-13
 31
0.0
210
0.0
220
0.0
230
1.0
 40
0.5773502691895653
 41
0.4113719059863996
 42
2.730220747635455
  0
ELLIPSE
  5
249
330
1CB
100
AcDbEntity
  8
DV4_0
 62
     7
370
    35
100
AcDbEllipse
 10
2048.908408661232
 20
1053.363941960852
 30
0.0
 11
1.768354237745552
 21
1.275122042318751E-13
 31
0.0
210
0.0
220
0.0
230
1.0
 40
0.5773502691895808
 41
0.0
 42
6.283185307179586
  0
ELLIPSE
  5
24A
330
1CB
100
AcDbEntity
  8
DV4_0
 62
     7
370
    35
100
AcDbEllipse
 10
2048.908408661232
 20
1052.547445379924
 30
0.0
 11
1.768354237745547
 21
1.303311298803374E-13
 31
0.0
210
0.0
220
0.0
230
1.0
 40
0.5773502691895884
 41
0.4113719059001575
 42
2.730220747722028
  0
ELLIPSE
  5
24B
330
1CB
100
AcDbEntity
  8
DV4_0
 62
     7
370
    35
100
AcDbEllipse
 10
2044.762684985163
 20
1050.15391069956
 30
0.0
 11
-1.768354237745085
 21
5.551516273028972E-13
 31
0.0
210
0.0
220
0.0
230
1.0
 40
0.5773502691897178
 41
3.552964560404078
 42
5.838342015278223
  0
LINE
  5
24C
330
1CB
100
AcDbEntity
  8
DV4_0
 62
     7
370
    35
100
AcDbLine
 10
2045.523969193912
 20
1050.048900712656
 30
0.0
 11
2045.523969193915
 21
1049.232404131732
 31
0.0
  0
ELLIPSE
  5
24D
330
1CB
100
AcDbEntity
  8
DV4_0
 62
     7
370
    35
100
AcDbEllipse
 10
2044.762684985163
 20
1050.970407280488
 30
0.0
 11
-1.768354237745522
 21
-3.271820745416923E-12
 31
0.0
210
0.0
220
0.0
230
1.0
 40
0.577350269189035
 41
2.015847821772199
 42
5.83834201527765
  0
ELLIPSE
  5
24E
330
1CB
100
AcDbEntity
  8
DV4_0
 62
     7
370
    35
100
AcDbEllipse
 10
2052.351490292293
 20
1054.535309486441
 30
0.0
 11
-11.44453843335553
 21
9.699550995264490E-12
 31
0.0
210
0.0
220
0.0
230
1.0
 40
0.5773502691874828
 41
0.9315701105083187
 42
1.771381106462751
  0
LINE
  5
24F
330
1CB
100
AcDbEntity
  8
DV4_0
 62
     7
370
    35
100
AcDbLine
 10
2054.631727823255
 20
1048.060281127326
 30
0.0
 11
2054.631727823262
 21
1048.876777708253
 31
0.0
  0
ELLIPSE
  5
250
330
1CB
100
AcDbEntity
  8
DV4_0
 62
     7
370
    35
100
AcDbEllipse
 10
2052.351490292282
 20
1055.351806067417
 30
0.0
 11
-11.44453843332851
 21
-2.131134134439053E-11
 31
0.0
210
0.0
220
0.0
230
1.0
 40
0.5773502691934529
 41
0.9315701105058407
 42
1.771381106463248
  0
LINE
  5
251
330
1CB
100
AcDbEntity
  8
DV4_0
 62
     7
370
    35
100
AcDbLine
 10
2043.166430323054
 20
1050.593246472384
 30
0.0
 11
2043.166430323053
 21
1051.409743053309
 31
0.0
  0
ELLIPSE
  5
252
330
1CB
100
AcDbEntity
  8
DV4_0
 62
     7
370
    35
100
AcDbEllipse
 10
2043.820280560185
 20
1053.908039409299
 30
0.0
 11
1.768354237745596
 21
2.152341887335321E-13
 31
0.0
210
0.0
220
0.0
230
1.0
 40
0.5773502691895783
 41
0.0
 42
6.283185307179586
  0
ELLIPSE
  5
253
330
1CB
100
AcDbEntity
  8
DV4_0
 62
     7
370
    35
100
AcDbEllipse
 10
2043.820280560185
 20
1053.091542828371
 30
0.0
 11
1.768354237745611
 21
2.818925648462312E-15
 31
0.0
210
0.0
220
0.0
230
1.0
 40
0.5773502691896141
 41
0.4113723405658085
 42
2.730220297877474
  0
ELLIPSE
  5
254
330
1CB
100
AcDbEntity
  8
DV4_0
 62
     7
370
    35
100
AcDbEllipse
 10
2047.966004236074
 20
1056.301574089765
 30
0.0
 11
1.768354237745611
 21
1.387879068257243E-13
 31
0.0
210
0.0
220
0.0
230
1.0
 40
0.5773502691895717
 41
0.0
 42
6.283185307179586
  0
ELLIPSE
  5
255
330
1CB
100
AcDbEntity
  8
DV4_0
 62
     7
370
    35
100
AcDbEllipse
 10
2047.966004236074
 20
1055.485077508838
 30
0.0
 11
1.768354237745606
 21
5.637851296924624E-15
 31
0.0
210
0.0
220
0.0
230
1.0
 40
0.5773502691896264
 41
0.4113719067507873
 42
2.730220746838038
  0
ELLIPSE
  5
256
330
1CB
100
AcDbEntity
  8
DV4_0
 62
     7
370
    35
100
AcDbEllipse
 10
2056.257451588154
 20
1061.088643450526
 30
0.0
 11
1.768354237745586
 21
1.702197410802242E-14
 31
0.0
210
0.0
220
0.0
230
1.0
 40
0.5773502691895854
 41
0.0
 42
6.283185307179586
  0
ELLIPSE
  5
257
330
1CB
100
AcDbEntity
  8
DV4_0
 62
     7
370
    35
100
AcDbEllipse
 10
2056.257451588154
 20
1060.272146869597
 30
0.0
 11
1.768354237745591
 21
-8.565197162635485E-15
 31
0.0
210
0.0
220
0.0
230
1.0
 40
0.5773502691896119
 41
0.4113719076752433
 42
2.730220745883043
  0
ELLIPSE
  5
258
330
1CB
100
AcDbEntity
  8
DV4_0
 62
     7
370
    35
100
AcDbEllipse
 10
2052.111727912263
 20
1058.695108770059
 30
0.0
 11
1.768354237745601
 21
1.444257581226490E-13
 31
0.0
210
0.0
220
0.0
230
1.0
 40
0.5773502691895631
 41
0.0
 42
6.283185307179586
  0
ELLIPSE
  5
259
330
1CB
100
AcDbEntity
  8
DV4_0
 62
     7
370
    35
100
AcDbEllipse
 10
2052.111727912263
 20
1057.878612189131
 30
0.0
 11
1.768354237745586
 21
3.957337929572091E-14
 31
0.0
210
0.0
220
0.0
230
1.0
 40
0.577350269189596
 41
0.4113714972680338
 42
2.730221171056038
  0
ELLIPSE
  5
25A
330
1CB
100
AcDbEntity
  8
DV4_0
 62
     7
370
    35
100
AcDbEllipse
 10
2064.548898940375
 20
1065.875712811203
 30
0.0
 11
1.768354237745586
 21
2.208720400304568E-13
 31
0.0
210
0.0
220
0.0
230
1.0
 40
0.5773502691895781
 41
0.0
 42
6.283185307179586
  0
ELLIPSE
  5
25B
330
1CB
100
AcDbEntity
  8
DV4_0
 62
     7
370
    35
100
AcDbEllipse
 10
2064.548898940375
 20
1065.059216230276
 30
0.0
 11
1.768354237745601
 21
8.456776945386935E-15
 31
0.0
210
0.0
220
0.0
230
1.0
 40
0.577350269189606
 41
0.4113726520099785
 42
2.730219973473384
  0
ELLIPSE
  5
25C
330
1CB
100
AcDbEntity
  8
DV4_0
 62
     7
370
    35
100
AcDbEllipse
 10
2060.403175264484
 20
1063.482178130737
 30
0.0
 11
1.768354237745591
 21
1.274037840146265E-13
 31
0.0
210
0.0
220
0.0
230
1.0
 40
0.5773502691895962
 41
0.0
 42
6.283185307179586
  0
ELLIPSE
  5
25D
330
1CB
100
AcDbEntity
  8
DV4_0
 62
     7
370
    35
100
AcDbEllipse
 10
2060.403175264484
 20
1062.66568154981
 30
0.0
 11
1.768354237745611
 21
2.818925648462312E-15
 31
0.0
210
0.0
220
0.0
230
1.0
 40
0.5773502691896236
 41
0.4113711384810976
 42
2.730221543627452
  0
ELLIPSE
  5
25E
330
1CB
100
AcDbEntity
  8
DV4_0
 62
     7
370
    35
100
AcDbEllipse
 10
2072.84034629251
 20
1070.662782171931
 30
0.0
 11
1.768354237745616
 21
1.359689811772620E-13
 31
0.0
210
0.0
220
0.0
230
1.0
 40
0.5773502691895602
 41
0.0
 42
6.283185307179586
  0
ELLIPSE
  5
25F
330
1CB
100
AcDbEntity
  8
DV4_0
 62
     7
370
    35
100
AcDbEllipse
 10
2072.84034629251
 20
1069.846285591003
 30
0.0
 11
1.768354237745601
 21
-1.420304845956011E-14
 31
0.0
210
0.0
220
0.0
230
1.0
 40
0.5773502691896145
 41
0.4113722563647881
 42
2.7302203836001
  0
ELLIPSE
  5
260
330
1CB
100
AcDbEntity
  8
DV4_0
 62
     7
370
    35
100
AcDbEllipse
 10
2068.69462261662
 20
1068.269247491465
 30
0.0
 11
1.768354237745567
 21
1.416068324741866E-13
 31
0.0
210
0.0
220
0.0
230
1.0
 40
0.577350269189575
 41
0.0
 42
6.283185307179586
  0
ELLIPSE
  5
261
330
1CB
100
AcDbEntity
  8
DV4_0
 62
     7
370
    35
100
AcDbEllipse
 10
2068.69462261662
 20
1067.452750910537
 30
0.0
 11
1.768354237745576
 21
-2.265982540494704E-14
 31
0.0
210
0.0
220
0.0
230
1.0
 40
0.5773502691896126
 41
0.4113722672223741
 42
2.730220372549587
  0
ELLIPSE
  5
262
330
1CB
100
AcDbEntity
  8
DV4_0
 62
     7
370
    35
100
AcDbEllipse
 10
2076.986069968883
 20
1073.056316852118
 30
0.0
 11
1.768354237745601
 21
1.444257581226490E-13
 31
0.0
210
0.0
220
0.0
230
1.0
 40
0.5773502691895631
 41
0.0
 42
6.283185307179586
  0
ELLIPSE
  5
263
330
1CB
100
AcDbEntity
  8
DV4_0
 62
     7
370
    35
100
AcDbEllipse
 10
2076.986069968883
 20
1072.239820271191
 30
0.0
 11
1.768354237745601
 21
1.444257581226490E-13
 31
0.0
210
0.0
220
0.0
230
1.0
 40
0.5773502691895719
 41
0.4113708937560103
 42
2.730221799983775
  0
ELLIPSE
  5
264
330
1CB
100
AcDbEntity
  8
DV4_0
 62
     7
370
    35
100
AcDbEllipse
 10
2042.877876135206
 20
1056.029174957182
 30
0.0
 11
-1.768354237745581
 21
5.693546757624573E-13
 31
0.0
210
0.0
220
0.0
230
1.0
 40
0.5773502691897772
 41
3.552964560371283
 42
5.668435622705385
  0
ELLIPSE
  5
265
330
1CB
100
AcDbEntity
  8
DV4_0
 62
     7
370
    35
100
AcDbEllipse
 10
2042.877876135206
 20
1056.845671538109
 30
0.0
 11
-1.768354237745606
 21
8.501147907044327E-14
 31
0.0
210
0.0
220
0.0
230
1.0
 40
0.5773502691896226
 41
0.1002782716577606
 42
5.66843562270543
  0
LINE
  5
266
330
1CB
100
AcDbEntity
  8
DV4_0
 62
     7
370
    35
100
AcDbLine
 10
2041.433276005671
 20
1056.618017657145
 30
0.0
 11
2041.433276005671
 21
1057.434514238072
 31
0.0
  0
ELLIPSE
  5
267
330
1CB
100
AcDbEntity
  8
DV4_0
 62
     7
370
    35
100
AcDbEllipse
 10
2052.435578935568
 20
1055.394048095207
 30
0.0
 11
-11.55600173077409
 21
1.295981089242614E-11
 31
0.0
210
0.0
220
0.0
230
1.0
 40
0.5773502691901194
 41
5.433533971933423
 42
5.972373501116198
  0
ELLIPSE
  5
268
330
1CB
100
AcDbEntity
  8
DV4_0
 62
     7
370
    35
100
AcDbEllipse
 10
2047.023599811274
 20
1059.239206218473
 30
0.0
 11
1.768354237745601
 21
8.456776945386935E-15
 31
0.0
210
0.0
220
0.0
230
1.0
 40
0.5773502691896079
 41
0.0
 42
6.283185307179586
  0
ELLIPSE
  5
269
330
1CB
100
AcDbEntity
  8
DV4_0
 62
     7
370
    35
100
AcDbEllipse
 10
2047.023599811274
 20
1058.422709637545
 30
0.0
 11
1.768354237745601
 21
-1.420304845956011E-14
 31
0.0
210
0.0
220
0.0
230
1.0
 40
0.5773502691896296
 41
0.411371906904491
 42
2.730220746685312
  0
ELLIPSE
  5
26A
330
1CB
100
AcDbEntity
  8
DV4_0
 62
     7
370
    35
100
AcDbEllipse
 10
2051.169323487342
 20
1061.632740898836
 30
0.0
 11
1.768354237745572
 21
9.346825601583022E-14
 31
0.0
210
0.0
220
0.0
230
1.0
 40
0.5773502691896356
 41
0.0
 42
6.283185307179586
  0
ELLIPSE
  5
26B
330
1CB
100
AcDbEntity
  8
DV4_0
 62
     7
370
    35
100
AcDbEllipse
 10
2051.169323487342
 20
1060.816244317909
 30
0.0
 11
1.768354237745586
 21
-1.417152526914352E-13
 31
0.0
210
0.0
220
0.0
230
1.0
 40
0.5773502691896832
 41
0.4113731702878445
 42
2.730219438492849
  0
ELLIPSE
  5
26C
330
1CB
100
AcDbEntity
  8
DV4_0
 62
     7
370
    35
100
AcDbEllipse
 10
2055.315047163325
 20
1064.026275579249
 30
0.0
 11
1.768354237745596
 21
-3.393552799879630E-14
 31
0.0
210
0.0
220
0.0
230
1.0
 40
0.5773502691896273
 41
0.0
 42
6.283185307179586
  0
ELLIPSE
  5
26D
330
1CB
100
AcDbEntity
  8
DV4_0
 62
     7
370
    35
100
AcDbEllipse
 10
2055.315047163325
 20
1063.209778998322
 30
0.0
 11
1.768354237745601
 21
-1.420304845956011E-14
 31
0.0
210
0.0
220
0.0
230
1.0
 40
0.57735026918963
 41
0.4113719067929109
 42
2.730220746796891
  0
ELLIPSE
  5
26E
330
1CB
100
AcDbEntity
  8
DV4_0
 62
     7
370
    35
100
AcDbEllipse
 10
2059.460770839393
 20
1066.419810259613
 30
0.0
 11
1.768354237745591
 21
-8.565197162635485E-15
 31
0.0
210
0.0
220
0.0
230
1.0
 40
0.5773502691896388
 41
0.0
 42
6.283185307179586
  0
ELLIPSE
  5
26F
330
1CB
100
AcDbEntity
  8
DV4_0
 62
     7
370
    35
100
AcDbEllipse
 10
2059.460770839393
 20
1065.603313678685
 30
0.0
 11
1.768354237745601
 21
-1.420304845956011E-14
 31
0.0
210
0.0
220
0.0
230
1.0
 40
0.5773502691896302
 41
0.41137190681349
 42
2.730220746776955
  0
ELLIPSE
  5
270
330
1CB
100
AcDbEntity
  8
DV4_0
 62
     7
370
    35
100
AcDbEllipse
 10
2063.606494515461
 20
1068.813344939976
 30
0.0
 11
1.768354237745576
 21
-9.064933036736791E-14
 31
0.0
210
0.0
220
0.0
230
1.0
 40
0.5773502691896023
 41
0.0
 42
6.283185307179586
  0
ELLIPSE
  5
271
330
1CB
100
AcDbEntity
  8
DV4_0
 62
     7
370
    35
100
AcDbEllipse
 10
2063.606494515461
 20
1067.996848359049
 30
0.0
 11
1.768354237745586
 21
-5.746271514173174E-15
 31
0.0
210
0.0
220
0.0
230
1.0
 40
0.5773502691896084
 41
0.4113719067909596
 42
2.730220746798194
  0
ELLIPSE
  5
272
330
1CB
100
AcDbEntity
  8
DV4_0
 62
     7
370
    35
100
AcDbEllipse
 10
2067.752218191402
 20
1071.206879620413
 30
0.0
 11
1.768354237745596
 21
-1.138412281109780E-14
 31
0.0
210
0.0
220
0.0
230
1.0
 40
0.5773502691896056
 41
0.0
 42
6.283185307179586
  0
ELLIPSE
  5
273
330
1CB
100
AcDbEntity
  8
DV4_0
 62
     7
370
    35
100
AcDbEllipse
 10
2067.752218191402
 20
1070.390383039486
 30
0.0
 11
1.768354237745611
 21
-1.331500555287997E-13
 31
0.0
210
0.0
220
0.0
230
1.0
 40
0.5773502691896659
 41
0.4113711643740769
 42
2.730221517240008
  0
ELLIPSE
  5
274
330
1CB
100
AcDbEntity
  8
DV4_0
 62
     7
370
    35
100
AcDbEllipse
 10
2071.89794186747
 20
1073.600414300777
 30
0.0
 11
1.768354237745601
 21
-1.420304845956011E-14
 31
0.0
210
0.0
220
0.0
230
1.0
 40
0.57735026918963
 41
0.0
 42
6.283185307179586
  0
ELLIPSE
  5
275
330
1CB
100
AcDbEntity
  8
DV4_0
 62
     7
370
    35
100
AcDbEllipse
 10
2071.89794186747
 20
1072.78391771985
 30
0.0
 11
1.768354237745596
 21
-1.699045091760583E-13
 31
0.0
210
0.0
220
0.0
230
1.0
 40
0.5773502691896697
 41
0.4113722674398179
 42
2.730220372314232
  0
ELLIPSE
  5
276
330
1CB
100
AcDbEntity
  8
DV4_0
 62
     7
370
    35
100
AcDbEllipse
 10
2083.959006919943
 20
1066.636955146018
 30
0.0
 11
1.768354237745734
 21
-9.064933036736791E-14
 31
0.0
210
0.0
220
0.0
230
1.0
 40
0.5773502691896303
 41
0.3440893949679413
 42
5.371605636936424
  0
ELLIPSE
  5
277
330
1CB
100
AcDbEntity
  8
DV4_0
 62
     7
370
    35
100
AcDbEllipse
 10
2083.959006919943
 20
1065.82045856509
 30
0.0
 11
1.768354237745704
 21
4.702585971972822E-13
 31
0.0
210
0.0
220
0.0
230
1.0
 40
0.5773502691894546
 41
0.3440893949669492
 42
2.730220746702062
  0
LINE
  5
278
330
1CB
100
AcDbEntity
  8
DV4_0
 62
     7
370
    35
100
AcDbLine
 10
2085.623705583294
 20
1066.981365303821
 30
0.0
 11
2085.623705583294
 21
1066.164868722892
 31
0.0
  0
ELLIPSE
  5
279
330
1CB
100
AcDbEntity
  8
DV4_0
 62
     7
370
    35
100
AcDbEllipse
 10
2074.247269031334
 20
1068.27205392862
 30
0.0
 11
-11.59400448505192
 21
-1.484684661214812E-11
 31
0.0
210
0.0
220
0.0
230
1.0
 40
0.5773502691893474
 41
2.947558935588698
 42
3.75660605909709
  0
ELLIPSE
  5
27A
330
1CB
100
AcDbEntity
  8
DV4_0
 62
     7
370
    35
100
AcDbEllipse
 10
2074.247269031333
 20
1067.4555573477
 30
0.0
 11
-11.59400448505378
 21
-2.529427402925779E-12
 31
0.0
210
0.0
220
0.0
230
1.0
 40
0.5773502691897353
 41
2.947558935589305
 42
3.141592653589823
  0
LINE
  5
27B
330
1CB
100
AcDbEntity
  8
DV4_0
 62
     7
370
    35
100
AcDbLine
 10
2085.042120050909
 20
1065.013418158072
 30
0.0
 11
2085.042120050909
 21
1065.829914738999
 31
0.0
  0
ELLIPSE
  5
27C
330
1CB
100
AcDbEntity
  8
DV4_0
 62
     7
370
    35
100
AcDbEllipse
 10
2079.813283243876
 20
1064.243420465654
 30
0.0
 11
1.768354237745596
 21
1.245848583661642E-13
 31
0.0
210
0.0
220
0.0
230
1.0
 40
0.5773502691895631
 41
0.0
 42
6.283185307179586
  0
ELLIPSE
  5
27D
330
1CB
100
AcDbEntity
  8
DV4_0
 62
     7
370
    35
100
AcDbEllipse
 10
2079.813283243876
 20
1063.426923884726
 30
0.0
 11
1.768354237745596
 21
3.393552799879630E-14
 31
0.0
210
0.0
220
0.0
230
1.0
 40
0.5773502691895958
 41
0.4113722119953627
 42
2.730220428883351
  0
ELLIPSE
  5
27E
330
1CB
100
AcDbEntity
  8
DV4_0
 62
     7
370
    35
100
AcDbEllipse
 10
2075.667559567681
 20
1061.849885785364
 30
0.0
 11
1.768354237745572
 21
1.387879068257243E-13
 31
0.0
210
0.0
220
0.0
230
1.0
 40
0.5773502691895603
 41
0.0
 42
6.283185307179586
  0
ELLIPSE
  5
27F
330
1CB
100
AcDbEntity
  8
DV4_0
 62
     7
370
    35
100
AcDbEllipse
 10
2075.667559567681
 20
1061.033389204436
 30
0.0
 11
1.768354237745591
 21
1.501720296368221E-13
 31
0.0
210
0.0
220
0.0
230
1.0
 40
0.5773502691895688
 41
0.4113725395835583
 42
2.730220088115214
  0
ELLIPSE
  5
280
330
1CB
100
AcDbEntity
  8
DV4_0
 62
     7
370
    35
100
AcDbEllipse
 10
2071.521835891613
 20
1059.456351105
 30
0.0
 11
1.768354237745596
 21
2.152341887335321E-13
 31
0.0
210
0.0
220
0.0
230
1.0
 40
0.5773502691895785
 41
0.0
 42
6.283185307179586
  0
ELLIPSE
  5
281
330
1CB
100
AcDbEntity
  8
DV4_0
 62
     7
370
    35
100
AcDbEllipse
 10
2071.521835891613
 20
1058.639854524072
 30
0.0
 11
1.768354237745611
 21
1.161280814207773E-13
 31
0.0
210
0.0
220
0.0
230
1.0
 40
0.5773502691895612
 41
0.4113719059979974
 42
2.730220747620017
  0
ELLIPSE
  5
282
330
1CB
100
AcDbEntity
  8
DV4_0
 62
     7
370
    35
100
AcDbEllipse
 10
2067.376112215545
 20
1057.062816424637
 30
0.0
 11
1.768354237745606
 21
2.829767670187167E-14
 31
0.0
210
0.0
220
0.0
230
1.0
 40
0.5773502691895792
 41
0.0
 42
6.283185307179586
  0
ELLIPSE
  5
283
330
1CB
100
AcDbEntity
  8
DV4_0
 62
     7
370
    35
100
AcDbEllipse
 10
2067.376112215545
 20
1056.246319843709
 30
0.0
 11
1.768354237745611
 21
1.387879068257243E-13
 31
0.0
210
0.0
220
0.0
230
1.0
 40
0.5773502691895719
 41
0.4113722450299484
 42
2.730220395185008
  0
ELLIPSE
  5
284
330
1CB
100
AcDbEntity
  8
DV4_0
 62
     7
370
    35
100
AcDbEllipse
 10
2063.230388539392
 20
1054.669281744322
 30
0.0
 11
1.768354237745586
 21
1.529909552852844E-13
 31
0.0
210
0.0
220
0.0
230
1.0
 40
0.5773502691896015
 41
0.0
 42
6.283185307179586
  0
ELLIPSE
  5
285
330
1CB
100
AcDbEntity
  8
DV4_0
 62
     7
370
    35
100
AcDbEllipse
 10
2063.230388539392
 20
1053.852785163394
 30
0.0
 11
1.768354237745576
 21
1.586288065822091E-13
 31
0.0
210
0.0
220
0.0
230
1.0
 40
0.5773502691895956
 41
0.4113719060275214
 42
2.730220747593037
  0
ELLIPSE
  5
286
330
1CB
100
AcDbEntity
  8
DV4_0
 62
     7
370
    35
100
AcDbEllipse
 10
2059.084664863324
 20
1052.275747063958
 30
0.0
 11
1.768354237745601
 21
1.444257581226490E-13
 31
0.0
210
0.0
220
0.0
230
1.0
 40
0.5773502691895901
 41
0.0
 42
6.283185307179586
  0
ELLIPSE
  5
287
330
1CB
100
AcDbEntity
  8
DV4_0
 62
     7
370
    35
100
AcDbEllipse
 10
2059.084664863324
 20
1051.459250483031
 30
0.0
 11
1.768354237745601
 21
3.111660235033398E-14
 31
0.0
210
0.0
220
0.0
230
1.0
 40
0.5773502691895628
 41
0.411371544009322
 42
2.730221123421473
  0
ELLIPSE
  5
288
330
1CB
100
AcDbEntity
  8
DV4_0
 62
     7
370
    35
100
AcDbEllipse
 10
2054.938941187257
 20
1049.065715802667
 30
0.0
 11
1.76835423774568
 21
3.126692258621815E-14
 31
0.0
210
0.0
220
0.0
230
1.0
 40
0.5773502691896069
 41
0.4113719067993546
 42
2.730220746829624
  0
ELLIPSE
  5
289
330
1CB
100
AcDbEntity
  8
DV4_0
 62
     7
370
    35
100
AcDbEllipse
 10
2054.938941187257
 20
1049.882212383595
 30
0.0
 11
1.768354237745346
 21
-1.160538027524511E-13
 31
0.0
210
0.0
220
0.0
230
1.0
 40
0.5773502691895982
 41
-0.8629434144593243
 42
4.537774588025617
  0
ELLIPSE
  5
28A
330
1CB
100
AcDbEntity
  8
DV4_0
 62
     7
370
    35
100
AcDbEllipse
 10
2052.435578935576
 20
1055.394048095212
 30
0.0
 11
11.55600173078295
 21
-3.025154722428891E-12
 31
0.0
210
0.0
220
0.0
230
1.0
 40
0.5773502691898525
 41
2.937933046837154
 42
3.781574012204918
  0
ELLIPSE
  5
28B
330
1CB
100
AcDbEntity
  8
DV4_0
 62
     7
370
    35
100
AcDbEllipse
 10
2052.435578935575
 20
1054.577551514281
 30
0.0
 11
11.55600173078157
 21
-9.886487507296151E-12
 31
0.0
210
0.0
220
0.0
230
1.0
 40
0.5773502691894995
 41
3.141592653589793
 42
3.781574012205364
  0
LINE
  5
28C
330
1CB
100
AcDbEntity
  8
DV4_0
 62
     7
370
    35
100
AcDbLine
 10
2056.088732186714
 20
1049.106528305351
 30
0.0
 11
2056.088732186714
 21
1048.290031724424
 31
0.0
  0
ELLIPSE
  5
28D
330
1CB
100
AcDbEntity
  8
DV4_0
 62
     7
370
    35
100
AcDbEllipse
 10
2083.016602494599
 20
1069.57458727504
 30
0.0
 11
1.768354237745596
 21
-7.926520755627011E-14
 31
0.0
210
0.0
220
0.0
230
1.0
 40
0.577350269189599
 41
0.0
 42
6.283185307179586
  0
ELLIPSE
  5
28E
330
1CB
100
AcDbEntity
  8
DV4_0
 62
     7
370
    35
100
AcDbEllipse
 10
2083.016602494599
 20
1068.758090694112
 30
0.0
 11
1.768354237745591
 21
-1.217659327177019E-13
 31
0.0
210
0.0
220
0.0
230
1.0
 40
0.577350269189674
 41
0.4113719074617679
 42
2.730220746099808
  0
ELLIPSE
  5
28F
330
1CB
100
AcDbEntity
  8
DV4_0
 62
     7
370
    35
100
AcDbEllipse
 10
2074.72515514259
 20
1064.787517914239
 30
0.0
 11
1.768354237745562
 21
-1.420304845956011E-14
 31
0.0
210
0.0
220
0.0
230
1.0
 40
0.5773502691896149
 41
0.0
 42
6.283185307179586
  0
ELLIPSE
  5
290
330
1CB
100
AcDbEntity
  8
DV4_0
 62
     7
370
    35
100
AcDbEllipse
 10
2074.72515514259
 20
1063.971021333311
 30
0.0
 11
1.768354237745562
 21
-1.275122042318751E-13
 31
0.0
210
0.0
220
0.0
230
1.0
 40
0.5773502691896775
 41
0.4113719082572578
 42
2.730220745272809
  0
ELLIPSE
  5
291
330
1CB
100
AcDbEntity
  8
DV4_0
 62
     7
370
    35
100
AcDbEllipse
 10
2078.870878818836
 20
1067.1810525945
 30
0.0
 11
1.768354237745596
 21
-1.138412281109780E-14
 31
0.0
210
0.0
220
0.0
230
1.0
 40
0.5773502691896387
 41
0.0
 42
6.283185307179586
  0
ELLIPSE
  5
292
330
1CB
100
AcDbEntity
  8
DV4_0
 62
     7
370
    35
100
AcDbEllipse
 10
2078.870878818836
 20
1066.364556013572
 30
0.0
 11
1.768354237745591
 21
-8.565197162635485E-15
 31
0.0
210
0.0
220
0.0
230
1.0
 40
0.5773502691896296
 41
0.4113719068154049
 42
2.730220746773107
  0
ELLIPSE
  5
293
330
1CB
100
AcDbEntity
  8
DV4_0
 62
     7
370
    35
100
AcDbEllipse
 10
2066.433707790454
 20
1060.000448553512
 30
0.0
 11
1.768354237745601
 21
-1.048523788269280E-13
 31
0.0
210
0.0
220
0.0
230
1.0
 40
0.5773502691896055
 41
0.0
 42
6.283185307179586
  0
ELLIPSE
  5
294
330
1CB
100
AcDbEntity
  8
DV4_0
 62
     7
370
    35
100
AcDbEllipse
 10
2066.433707790454
 20
1059.183951972584
 30
0.0
 11
1.768354237745596
 21
-1.138412281109780E-14
 31
0.0
210
0.0
220
0.0
230
1.0
 40
0.5773502691896059
 41
0.4113719068700767
 42
2.730220746719723
  0
ELLIPSE
  5
295
330
1CB
100
AcDbEntity
  8
DV4_0
 62
     7
370
    35
100
AcDbEllipse
 10
2070.5794314667
 20
1062.393983233773
 30
0.0
 11
1.768354237745586
 21
-5.746271514173174E-15
 31
0.0
210
0.0
220
0.0
230
1.0
 40
0.5773502691896382
 41
0.0
 42
6.283185307179586
  0
ELLIPSE
  5
296
330
1CB
100
AcDbEntity
  8
DV4_0
 62
     7
370
    35
100
AcDbEllipse
 10
2070.5794314667
 20
1061.577486652845
 30
0.0
 11
1.768354237745591
 21
-1.445341783398975E-13
 31
0.0
210
0.0
220
0.0
230
1.0
 40
0.5773502691896639
 41
0.4113722468030678
 42
2.730220393333615
  0
ELLIPSE
  5
297
330
1CB
100
AcDbEntity
  8
DV4_0
 62
     7
370
    35
100
AcDbEllipse
 10
2058.142260438403
 20
1055.213379192736
 30
0.0
 11
1.768354237745611
 21
-1.984089975648473E-14
 31
0.0
210
0.0
220
0.0
230
1.0
 40
0.5773502691896131
 41
0.0
 42
6.283185307179586
  0
ELLIPSE
  5
298
330
1CB
100
AcDbEntity
  8
DV4_0
 62
     7
370
    35
100
AcDbEllipse
 10
2058.142260438403
 20
1054.396882611808
 30
0.0
 11
1.768354237745606
 21
-1.303311298803374E-13
 31
0.0
210
0.0
220
0.0
230
1.0
 40
0.5773502691896739
 41
0.4113722816949794
 42
2.730220357774148
  0
ELLIPSE
  5
299
330
1CB
100
AcDbEntity
  8
DV4_0
 62
     7
370
    35
100
AcDbEllipse
 10
2062.287984114649
 20
1057.606913872996
 30
0.0
 11
1.768354237745591
 21
-8.565197162635485E-15
 31
0.0
210
0.0
220
0.0
230
1.0
 40
0.5773502691896119
 41
0.0
 42
6.283185307179586
  0
ELLIPSE
  5
29A
330
1CB
100
AcDbEntity
  8
DV4_0
 62
     7
370
    35
100
AcDbEllipse
 10
2062.287984114649
 20
1056.790417292069
 30
0.0
 11
1.768354237745591
 21
1.420304845956011E-14
 31
0.0
210
0.0
220
0.0
230
1.0
 40
0.5773502691896321
 41
0.4113719067652353
 42
2.730220746823905
  0
ELLIPSE
  5
29B
330
1CB
100
AcDbEntity
  8
DV4_0
 62
     7
370
    35
100
AcDbEllipse
 10
2053.996536762456
 20
1052.819844512302
 30
0.0
 11
1.768354237745621
 21
-2.818925648462312E-15
 31
0.0
210
0.0
220
0.0
230
1.0
 40
0.5773502691896265
 41
0.0
 42
6.283185307179586
  0
ELLIPSE
  5
29C
330
1CB
100
AcDbEntity
  8
DV4_0
 62
     7
370
    35
100
AcDbEllipse
 10
2053.996536762456
 20
1052.003347931374
 30
0.0
 11
1.768354237745616
 21
1.133091557723150E-13
 31
0.0
210
0.0
220
0.0
230
1.0
 40
0.5773502691896379
 41
0.4113719068604151
 42
2.730220746729305
  0
ELLIPSE
  5
29D
330
1CB
100
AcDbEntity
  8
DV4_0
 62
     7
370
    35
100
AcDbEllipse
 10
2049.85081308621
 20
1050.426309832041
 30
0.0
 11
1.768354237745616
 21
2.265982540494704E-14
 31
0.0
210
0.0
220
0.0
230
1.0
 40
0.5773502691896047
 41
0.0
 42
6.283185307179586
  0
ELLIPSE
  5
29E
330
1CB
100
AcDbEntity
  8
DV4_0
 62
     7
370
    35
100
AcDbEllipse
 10
2049.85081308621
 20
1049.609813251114
 30
0.0
 11
1.768354237745616
 21
-2.265982540494704E-14
 31
0.0
210
0.0
220
0.0
230
1.0
 40
0.5773502691896245
 41
0.4113719068829678
 42
2.73022074670684
  0
ELLIPSE
  5
29F
330
1CB
100
AcDbEntity
  8
DV4_0
 62
     7
370
    35
100
AcDbEllipse
 10
1906.484447856075
 20
1151.248144226092
 30
0.0
 11
209.4999999955554
 21
2.605701387990494E-9
 31
0.0
210
0.0
220
0.0
230
1.0
 40
0.5773502691897656
 41
-0.8496513352618758
 42
-0.707514324438284
  0
ELLIPSE
  5
2A0
330
1CB
100
AcDbEntity
  8
DV4_0
 62
     7
370
    35
100
AcDbEllipse
 10
2052.351490292286
 20
1055.351806067443
 30
0.0
 11
11.44453843335395
 21
-3.616342221320933E-11
 31
0.0
210
0.0
220
0.0
230
1.0
 40
0.5773502691937558
 41
5.045042720692407
 42
5.433029746195121
  0
ELLIPSE
  5
2A1
330
1CB
100
AcDbEntity
  8
DV4_0
 62
     7
370
    35
100
AcDbEllipse
 10
1906.484447857173
 20
1151.248144225394
 30
0.0
 11
232.4999999943727
 21
3.292325869136407E-9
 31
0.0
210
0.0
220
0.0
230
1.0
 40
0.5773502691895143
 41
-0.8501555610033655
 42
-0.708358530073502
  0
ELLIPSE
  5
2A2
330
1CB
100
AcDbEntity
  8
DV4_0
 62
     7
370
    35
100
AcDbEllipse
 10
2074.247269031344
 20
1068.272053928619
 30
0.0
 11
11.59400448504131
 21
1.104496945335062E-11
 31
0.0
210
0.0
220
0.0
230
1.0
 40
0.5773502691893897
 41
5.574826777120274
 42
5.909728749903976
  0
ELLIPSE
  5
2A3
330
1CB
100
AcDbEntity
  8
DV4_0
 62
     7
370
    35
100
AcDbEllipse
 10
2074.247269031343
 20
1067.455557347676
 30
0.0
 11
11.59400448504188
 21
3.240137349312623E-11
 31
0.0
210
0.0
220
0.0
230
1.0
 40
0.5773502691888691
 41
5.574826777119274
 42
5.909728749903002
  0
ELLIPSE
  5
2A4
330
1CB
100
AcDbEntity
  8
DV4_0
 62
     7
370
    35
100
AcDbEllipse
 10
1906.484447857173
 20
1150.431647644352
 30
0.0
 11
232.4999999943699
 21
3.420180585856758E-9
 31
0.0
210
0.0
220
0.0
230
1.0
 40
0.5773502691891872
 41
-0.8501555610036755
 42
-0.7083585300738147
  0
ELLIPSE
  5
2A5
330
1CB
100
AcDbEntity
  8
DV4_0
 62
     7
370
    35
100
AcDbEllipse
 10
2052.351490292266
 20
1054.535309486681
 30
0.0
 11
11.44453843338788
 21
-1.586192056804610E-10
 31
0.0
210
0.0
220
0.0
230
1.0
 40
0.5773502692050939
 41
5.045042720699367
 42
5.433029746201021
  0
LINE
  5
2A6
330
1CB
100
AcDbEntity
  8
DV4_0
 62
     7
370
    25
100
AcDbLine
 10
2059.903355157047
 20
1049.57054037411
 30
0.0
 11
2059.903355157047
 21
1050.387036955038
 31
0.0
  0
LINE
  5
2A7
330
1CB
100
AcDbEntity
  8
DV4_0
 62
     7
370
    25
100
AcDbLine
 10
2083.052113357291
 20
1063.100649909149
 30
0.0
 11
2083.052113357291
 21
1063.917146490077
 31
0.0
  0
LINE
  5
2A8
330
1CB
100
AcDbEntity
  8
DV4_0
 62
     7
370
    35
100
AcDbLine
 10
2085.841273516387
 20
1067.455557347702
 30
0.0
 11
2085.841273516387
 21
1068.27205392863
 31
0.0
  0
LINE
  5
2A9
330
1CB
100
AcDbEntity
  8
DV4_0
 62
     7
370
    35
100
AcDbLine
 10
2040.879577204794
 20
1055.394048095215
 30
0.0
 11
2040.879577204794
 21
1054.577551514288
 31
0.0
  0
ELLIPSE
  5
2AA
330
1CB
100
AcDbEntity
  8
DV4_0
 62
     7
370
    35
100
AcDbEllipse
 10
1898.831120095452
 20
1081.793332755353
 30
0.0
 11
184.9764224791857
 21
1.392215876947185E-13
 31
0.0
210
0.0
220
0.0
230
1.0
 40
0.5773502691896258
 41
0.0384110291402928
 42
0.732831961170697
  0
ELLIPSE
  5
2AB
330
1CB
100
AcDbEntity
  8
DV4_0
 62
     7
370
    35
100
AcDbEllipse
 10
1898.831120095453
 20
1081.793332755354
 30
0.0
 11
182.975203390589
 21
0.0
 31
0.0
210
0.0
220
0.0
230
1.0
 40
0.5773502691896254
 41
0.0225707008208511
 42
0.7338654694157597
  0
ENDBLK
  5
2AD
330
1CB
100
AcDbEntity
  8
0
100
AcDbBlockEnd
  0
BLOCK
  5
2B9
330
2AE
100
AcDbEntity
  8
0
100
AcDbBlockBegin
  2
GDimGGroup
 70
     0
 10
0.0
 20
0.0
 30
0.0
  3
GDimGGroup
  1

  0
LWPOLYLINE
  5
2B0
330
2AE
100
AcDbEntity
  8
Default
 62
     7
370
    25
100
AcDbPolyline
 90
        4
 70
     0
 43
0.0
 10
605.3418401174791
 20
487.6618233967138
 10
605.3418401174791
 20
500.1618235053681
 10
567.8418397915162
 20
493.911823451041
 10
605.3418401174791
 20
487.6618233967138
  0
LWPOLYLINE
  5
2B1
330
2AE
100
AcDbEntity
  8
Default
 62
     7
370
    25
100
AcDbPolyline
 90
        4
 70
     0
 43
0.0
 10
1010.703541386182
 20
487.6618233967138
 10
1010.703541386182
 20
500.1618235053681
 10
1048.203541712145
 20
493.911823451041
 10
1010.703541386182
 20
487.6618233967138
  0
LINE
  5
2B2
330
2AE
100
AcDbEntity
  8
Default
 62
     7
370
    25
100
AcDbLine
 10
567.8418397915162
 20
936.8859997088896
 30
0.0
 11
567.8418397915162
 21
475.1618232880595
 31
0.0
  0
LINE
  5
2B3
330
2AE
100
AcDbEntity
  8
Default
 62
     7
370
    25
100
AcDbLine
 10
1048.203561553826
 20
936.8859997088896
 30
0.0
 11
1048.203561553826
 21
475.1618232880595
 31
0.0
  0
LINE
  5
2B4
330
2AE
100
AcDbEntity
  8
Default
 62
     7
370
    25
100
AcDbLine
 10
567.8418397915162
 20
493.911823451041
 30
0.0
 11
1048.203541712145
 21
493.911823451041
 31
0.0
  0
TEXT
  5
2B6
330
2AE
100
AcDbEntity
  8
Default
 62
     7
370
    25
100
AcDbText
 10
731.3693726740273
 20
503.286823451041
 30
0.0
 40
37.49999999999999
  1
n
  7
GDT
 11
731.3693726740273
 21
540.786823451041
 31
0.0
100
AcDbText
 73
     3
  0
TEXT
  5
2B8
330
2AE
100
AcDbEntity
  8
Default
 62
     7
370
    25
100
AcDbText
 10
796.6325305687641
 20
503.286823451041
 30
0.0
 40
37.49999999999999
  1
480
  7
SEACAD_Solid_Edge_ANSI
 11
796.6325305687641
 21
540.786823451041
 31
0.0
100
AcDbText
 73
     3
  0
ENDBLK
  5
2BA
330
2AE
100
AcDbEntity
  8
0
100
AcDbBlockEnd
  0
BLOCK
  5
2C3
330
2BB
100
AcDbEntity
  8
0
100
AcDbBlockBegin
  2
GDimGGroup1
 70
     0
 10
0.0
 20
0.0
 30
0.0
  3
GDimGGroup1
  1

  0
LWPOLYLINE
  5
2BD
330
2BB
100
AcDbEntity
  8
Default
 62
     7
370
    25
100
AcDbPolyline
 90
        4
 70
     0
 43
0.0
 10
2333.870773167642
 20
2741.080363297805
 10
2321.370773058989
 20
2741.080363297805
 10
2327.620773113315
 20
2778.580363623768
 10
2333.870773167642
 20
2741.080363297805
  0
LWPOLYLINE
  5
2BE
330
2BB
100
AcDbEntity
  8
Default
 62
     7
370
    25
100
AcDbPolyline
 90
        4
 70
     0
 43
0.0
 10
2333.870773167642
 20
1806.351883819297
 10
2321.370773058988
 20
1806.351883819297
 10
2327.620773113315
 20
1768.851883493334
 10
2333.870773167642
 20
1806.351883819297
  0
LINE
  5
2BF
330
2BB
100
AcDbEntity
  8
Default
 62
     7
370
    25
100
AcDbLine
 10
2116.85632774884
 20
2778.580363623768
 30
0.0
 11
2346.370773276297
 21
2778.580363623768
 31
0.0
  0
LINE
  5
2C0
330
2BB
100
AcDbEntity
  8
Default
 62
     7
370
    25
100
AcDbLine
 10
2096.596868982103
 20
1768.851843456109
 30
0.0
 11
2346.370773276296
 21
1768.851843456109
 31
0.0
  0
LINE
  5
2C1
330
2BB
100
AcDbEntity
  8
Default
 62
     7
370
    25
100
AcDbLine
 10
2327.620773113315
 20
2778.580363623768
 30
0.0
 11
2327.620773113315
 21
1768.851883493334
 31
0.0
  0
TEXT
  5
2C2
330
2BB
100
AcDbEntity
  8
Default
 62
     7
370
    25
100
AcDbText
 10
2318.245773113315
 20
2215.020471384638
 30
0.0
 40
37.49999999999999
  1
1010
 50
90.0
  7
SEACAD_Solid_Edge_ANSI
 11
2280.745773113315
 21
2215.020471384638
 31
0.0
100
AcDbText
 73
     3
  0
ENDBLK
  5
2C4
330
2BB
100
AcDbEntity
  8
0
100
AcDbBlockEnd
  0
BLOCK
  5
2CD
330
2C5
100
AcDbEntity
  8
0
100
AcDbBlockBegin
  2
GDimGGroup2
 70
     0
 10
0.0
 20
0.0
 30
0.0
  3
GDimGGroup2
  1

  0
LWPOLYLINE
  5
2C7
330
2C5
100
AcDbEntity
  8
Default
 62
     7
370
    25
100
AcDbPolyline
 90
        4
 70
     0
 43
0.0
 10
1197.531499489883
 20
2701.101444805779
 10
1185.031499381229
 20
2701.101444805779
 10
1191.281499435556
 20
2738.601445131742
 10
1197.531499489883
 20
2701.101444805779
  0
LWPOLYLINE
  5
2C8
330
2C5
100
AcDbEntity
  8
Default
 62
     7
370
    25
100
AcDbPolyline
 90
        4
 70
     0
 43
0.0
 10
1197.531499489883
 20
2625.648693325736
 10
1185.031499381229
 20
2625.648693325736
 10
1191.281499435556
 20
2588.148692999773
 10
1197.531499489883
 20
2625.648693325736
  0
LINE
  5
2C9
330
2C5
100
AcDbEntity
  8
Default
 62
     7
370
    25
100
AcDbLine
 10
818.77703322227
 20
2738.601445131742
 30
0.0
 11
1210.031499598537
 21
2738.601445131742
 31
0.0
  0
LINE
  5
2CA
330
2C5
100
AcDbEntity
  8
Default
 62
     7
370
    25
100
AcDbLine
 10
811.1359825149715
 20
2588.148698792287
 30
0.0
 11
1210.031499598537
 21
2588.148698792287
 31
0.0
  0
LINE
  5
2CB
330
2C5
100
AcDbEntity
  8
Default
 62
     7
370
    25
100
AcDbLine
 10
1191.281499435556
 20
2738.601445131742
 30
0.0
 11
1191.281499435556
 21
2588.148692999773
 31
0.0
  0
TEXT
  5
2CC
330
2C5
100
AcDbEntity
  8
Default
 62
     7
370
    25
100
AcDbText
 10
1181.906499435556
 20
2619.353329935323
 30
0.0
 40
37.49999999999999
  1
150
 50
90.0
  7
SEACAD_Solid_Edge_ANSI
 11
1144.406499435556
 21
2619.353329935323
 31
0.0
100
AcDbText
 73
     3
  0
ENDBLK
  5
2CE
330
2C5
100
AcDbEntity
  8
0
100
AcDbBlockEnd
  0
BLOCK
  5
2D7
330
2CF
100
AcDbEntity
  8
0
100
AcDbBlockBegin
  2
GDimGGroup3
 70
     0
 10
0.0
 20
0.0
 30
0.0
  3
GDimGGroup3
  1

  0
LWPOLYLINE
  5
2D1
330
2CF
100
AcDbEntity
  8
Default
 62
     7
370
    25
100
AcDbPolyline
 90
        4
 70
     0
 43
0.0
 10
1197.531495093818
 20
2499.033321717914
 10
1185.031494985164
 20
2499.033321717914
 10
1191.281495039491
 20
2536.533322043877
 10
1197.531495093818
 20
2499.033321717914
  0
LWPOLYLINE
  5
2D2
330
2CF
100
AcDbEntity
  8
Default
 62
     7
370
    25
100
AcDbPolyline
 90
        4
 70
     0
 43
0.0
 10
1197.531495093818
 20
1887.851846030142
 10
1185.031494985164
 20
1887.851846030142
 10
1191.281495039491
 20
1850.351845704179
 10
1197.531495093818
 20
1887.851846030142
  0
LINE
  5
2D3
330
2CF
100
AcDbEntity
  8
Default
 62
     7
370
    25
100
AcDbLine
 10
1042.211768572359
 20
2536.533322043877
 30
0.0
 11
1210.031495202473
 21
2536.533322043877
 31
0.0
  0
LINE
  5
2D4
330
2CF
100
AcDbEntity
  8
Default
 62
     7
370
    25
100
AcDbLine
 10
1042.317682323909
 20
1850.351843456109
 30
0.0
 11
1210.031495202473
 21
1850.351843456109
 31
0.0
  0
LINE
  5
2D5
330
2CF
100
AcDbEntity
  8
Default
 62
     7
370
    25
100
AcDbLine
 10
1191.281495039491
 20
2536.533322043877
 30
0.0
 11
1191.281495039491
 21
1850.351845704179
 31
0.0
  0
TEXT
  5
2D6
330
2CF
100
AcDbEntity
  8
Default
 62
     7
370
    25
100
AcDbText
 10
1181.906495039491
 20
2149.420844743594
 30
0.0
 40
37.49999999999999
  1
686
 50
90.0
  7
SEACAD_Solid_Edge_ANSI
 11
1144.406495039491
 21
2149.420844743594
 31
0.0
100
AcDbText
 73
     3
  0
ENDBLK
  5
2D8
330
2CF
100
AcDbEntity
  8
0
100
AcDbBlockEnd
  0
BLOCK
  5
2E7
330
2E1
100
AcDbEntity
  8
0
100
AcDbBlockBegin
  2
SEANNOT_GROUP
 70
     0
 10
0.0
 20
0.0
 30
0.0
  3
SEANNOT_GROUP
  1

  0
TEXT
  5
2E3
330
2E1
100
AcDbEntity
  8
Predeterminado
 62
     7
370
     5
100
AcDbText
 10
2531.502401334349
 20
159.2542246936425
 30
0.0
 40
18.75
  1
V 
 50
90.0
  7
SEACAD_Solid_Edge_ANSI
 11
2512.752401334349
 21
159.2542246936425
 31
0.0
100
AcDbText
 73
     3
  0
TEXT
  5
2E4
330
2E1
100
AcDbEntity
  8
Predeterminado
 62
     7
370
     5
100
AcDbText
 10
2531.502401334349
 20
183.1604746936425
 30
0.0
 40
18.75
  1
01
 50
90.0
  7
SEACAD_Solid_Edge_ANSI
 11
2512.752401334349
 21
183.1604746936425
 31
0.0
100
AcDbText
 73
     3
  0
TEXT
  5
2E5
330
2E1
100
AcDbEntity
  8
Predeterminado
 62
     7
370
     5
100
AcDbText
 10
2531.502401334349
 20
208.9417246936425
 30
0.0
 40
18.75
  1
  
 50
90.0
  7
SEACAD_Solid_Edge_ANSI
 11
2512.752401334349
 21
208.9417246936425
 31
0.0
100
AcDbText
 73
     3
  0
TEXT
  5
2E6
330
2E1
100
AcDbEntity
  8
Predeterminado
 62
     7
370
     5
100
AcDbText
 10
2531.502401334349
 20
222.0667246936425
 30
0.0
 40
18.75
  1
14/09/2023
 50
90.0
  7
SEACAD_Solid_Edge_ANSI
 11
2512.752401334349
 21
222.0667246936425
 31
0.0
100
AcDbText
 73
     3
  0
ENDBLK
  5
2E8
330
2E1
100
AcDbEntity
  8
0
100
AcDbBlockEnd
  0
BLOCK
  5
2EC
330
2E9
100
AcDbEntity
  8
0
100
AcDbBlockBegin
  2
SEANNOT_GROUP1
 70
     0
 10
0.0
 20
0.0
 30
0.0
  3
SEANNOT_GROUP1
  1

  0
TEXT
  5
2EB
330
2E9
100
AcDbEntity
  8
Predeterminado
 62
     7
370
     5
100
AcDbText
 10
1304.765810431773
 20
3449.462348079762
 30
0.0
 40
74.99999999999999
  1
Boa
  7
SEACAD_Solid_Edge_ANSI
 11
1304.765810431773
 21
3524.462348079762
 31
0.0
100
AcDbText
 73
     3
  0
ENDBLK
  5
2ED
330
2E9
100
AcDbEntity
  8
0
100
AcDbBlockEnd
  0
BLOCK
  5
2F1
330
2EE
100
AcDbEntity
  8
0
100
AcDbBlockBegin
  2
SEANNOT_GROUP2
 70
     0
 10
0.0
 20
0.0
 30
0.0
  3
SEANNOT_GROUP2
  1

  0
TEXT
  5
2F0
330
2EE
100
AcDbEntity
  8
Predeterminado
 62
     7
370
     5
100
AcDbText
 10
1416.000462299707
 20
3393.946368177888
 30
0.0
 40
37.49999999999999
  1
PA690SBB
  7
SEACAD_Solid_Edge_ANSI
 11
1416.000462299707
 21
3431.446368177888
 31
0.0
100
AcDbText
 73
     3
  0
ENDBLK
  5
2F2
330
2EE
100
AcDbEntity
  8
0
100
AcDbBlockEnd
  0
ENDSEC
  0
SECTION
  2
ENTITIES
  0
INSERT
  5
70
330
1F
100
AcDbEntity
  8
Default
100
AcDbBlockReference
  2
SE
 10
0.0
 20
0.0
 30
0.0
  0
INSERT
  5
109
330
1F
100
AcDbEntity
  8
Default
100
AcDbBlockReference
  2
SE1
 10
0.0
 20
0.0
 30
0.0
  0
INSERT
  5
1AC
330
1F
100
AcDbEntity
  8
Default
100
AcDbBlockReference
  2
SE2
 10
0.0
 20
0.0
 30
0.0
  0
INSERT
  5
1CC
330
1F
100
AcDbEntity
  8
Default
100
AcDbBlockReference
  2
SE3
 10
0.0
 20
0.0
 30
0.0
  0
INSERT
  5
2AF
330
1F
100
AcDbEntity
  8
Default
100
AcDbBlockReference
  2
GDimGGroup
 10
0.0
 20
0.0
 30
0.0
  0
INSERT
  5
2BC
330
1F
100
AcDbEntity
  8
Default
100
AcDbBlockReference
  2
GDimGGroup1
 10
0.0
 20
0.0
 30
0.0
  0
INSERT
  5
2C6
330
1F
100
AcDbEntity
  8
Default
100
AcDbBlockReference
  2
GDimGGroup2
 10
0.0
 20
0.0
 30
0.0
  0
INSERT
  5
2D0
330
1F
100
AcDbEntity
  8
Default
100
AcDbBlockReference
  2
GDimGGroup3
 10
0.0
 20
0.0
 30
0.0
  0
LINE
  5
2DA
330
1F
100
AcDbEntity
  8
Predeterminado
 62
     7
370
    35
100
AcDbLine
 10
2499.087752980856
 20
125.4045409601829
 30
0.0
 11
249.0877529808581
 21
125.4045409601826
 31
0.0
  0
LINE
  5
2DB
330
1F
100
AcDbEntity
  8
Predeterminado
 62
     7
370
    35
100
AcDbLine
 10
2499.087752980856
 20
125.4045409601829
 30
0.0
 11
2499.087752980856
 21
3587.904540960183
 31
0.0
  0
LINE
  5
2DC
330
1F
100
AcDbEntity
  8
Predeterminado
 62
     7
370
    35
100
AcDbLine
 10
2499.087752980856
 20
3587.904540960183
 30
0.0
 11
249.0877529808581
 21
3587.904540960183
 31
0.0
  0
LINE
  5
2DD
330
1F
100
AcDbEntity
  8
Predeterminado
 62
     7
370
    35
100
AcDbLine
 10
249.0877529808581
 20
3587.904540960183
 30
0.0
 11
249.0877529808581
 21
125.4045409601827
 31
0.0
  0
LINE
  5
2DE
330
1F
100
AcDbEntity
  8
Predeterminado
 62
     7
370
    35
100
AcDbLine
 10
249.0877529808581
 20
3337.904540960182
 30
0.0
 11
2499.087752980856
 21
3337.904540960182
 31
0.0
  0
LINE
  5
2DF
330
1F
100
AcDbEntity
  8
Predeterminado
 62
     7
370
    35
100
AcDbLine
 10
811.5877529808561
 20
3387.904540960182
 30
0.0
 11
811.5877529808561
 21
3537.904540960182
 31
0.0
  0
LINE
  5
2E0
330
1F
100
AcDbEntity
  8
Predeterminado
 62
     7
370
    35
100
AcDbLine
 10
1936.587752980856
 20
3387.904540960182
 30
0.0
 11
1936.587752980856
 21
3537.904540960182
 31
0.0
  0
INSERT
  5
2E2
330
1F
100
AcDbEntity
  8
Predeterminado
100
AcDbBlockReference
  2
SEANNOT_GROUP
 10
0.0
 20
0.0
 30
0.0
  0
INSERT
  5
2EA
330
1F
100
AcDbEntity
  8
Predeterminado
100
AcDbBlockReference
  2
SEANNOT_GROUP1
 10
0.0
 20
0.0
 30
0.0
  0
INSERT
  5
2EF
330
1F
100
AcDbEntity
  8
Predeterminado
100
AcDbBlockReference
  2
SEANNOT_GROUP2
 10
0.0
 20
0.0
 30
0.0
  0
MTEXT
  5
2F4
102
{ACAD_XDICTIONARY
360
33C
102
}
330
1F
100
AcDbEntity
  8
D
100
AcDbMText
 10
325.0536804789144
 20
3533.641839266687
 30
0.0
 40
74.99999999999999
 41
584.4331472600918
 71
     1
 72
     1
  1
{\C7;BENITO}\P{\fArial|b1|i0|c0|p34;\C7;–}{\C7;Urban}\P
 73
     1
 44
1.0
1001
ACAD
1000
ACAD_MTEXT_DEFINED_HEIGHT_BEGIN
1070
    46
1040
222.4999999999997
1000
ACAD_MTEXT_DEFINED_HEIGHT_END
  0
MTEXT
  5
2F5
330
1F
100
AcDbEntity
  8
Predeterminado
100
AcDbMText
 10
2047.611483677839
 20
3505.561281817855
 30
0.0
 40
31.25
 41
369.28137625
 71
     1
 72
     1
  1
{\fSolid Edge ANSI|b0||i0||c0|p34;\C7;\H31.25;\W1.;T +34 938 521 000\P}{\fSolid Edge ANSI|b0||i0||c0|p34;\C7;\H31.25;\W1.;www.benito.com\P}
 73
     1
 44
1.0
1001
ACAD
1000
ACAD_MTEXT_DEFINED_HEIGHT_BEGIN
1070
    46
1040
112.5001250000001
1000
ACAD_MTEXT_DEFINED_HEIGHT_END
  0
MTEXT
  5
2F6
330
1F
100
AcDbEntity
  8
Predeterminado
100
AcDbMText
 10
1883.248370729311
 20
100.8929449961164
 30
0.0
 40
25.0
 41
622.41262625
 71
     1
 72
     1
  1
{\fSolid Edge ANSI|b0||i0||c0|p34;\C7;\H25.;\W1.;BENITO –Urban –Light –Play –Covers}
 73
     1
 44
1.0
1001
ACAD
1000
ACAD_MTEXT_DEFINED_HEIGHT_BEGIN
1070
    46
1040
45.00012499999999
1000
ACAD_MTEXT_DEFINED_HEIGHT_END
  0
ENDSEC
  0
SECTION
  2
OBJECTS
  0
DICTIONARY
  5
C
330
0
100
AcDbDictionary
281
     1
  3
ACAD_GROUP
350
D
  3
ACAD_LAYOUT
350
1A
  3
ACAD_MATERIAL
350
43
  3
ACAD_MLEADERSTYLE
350
6B
  3
ACAD_MLINESTYLE
350
17
  3
ACAD_PLOTSETTINGS
350
19
  3
ACAD_PLOTSTYLENAME
350
E
  3
ACAD_SCALELIST
350
47
  3
ACAD_TABLESTYLE
350
69
  3
ACAD_VISUALSTYLE
350
2A
  3
ACDB_RECOMPOSE_DATA
350
379
  3
AcDbVariableDictionary
350
2F7
  3
DWGPROPS
350
33B
  0
DICTIONARY
  5
33E
330
8
100
AcDbDictionary
280
     1
281
     1
  3
ACAD_XREC_ROUNDTRIP
360
33F
  0
DICTIONARY
  5
33C
330
2F4
100
AcDbDictionary
280
     1
281
     1
  3
ACAD_MTEXT_RT
360
33D
  0
DICTIONARY
  5
D
102
{ACAD_REACTORS
330
C
102
}
330
C
100
AcDbDictionary
281
     1
  0
DICTIONARY
  5
1A
102
{ACAD_REACTORS
330
C
102
}
330
C
100
AcDbDictionary
281
     1
  3
Layout1
350
1E
  3
Model
350
22
  0
DICTIONARY
  5
43
102
{ACAD_REACTORS
330
C
102
}
330
C
100
AcDbDictionary
281
     1
  3
ByBlock
350
45
  3
ByLayer
350
44
  3
Global
350
46
  0
DICTIONARY
  5
6B
102
{ACAD_REACTORS
330
C
102
}
330
C
100
AcDbDictionary
281
     1
  3
Standard
350
6C
  0
DICTIONARY
  5
17
102
{ACAD_REACTORS
330
C
102
}
330
C
100
AcDbDictionary
281
     1
  3
Standard
350
18
  0
DICTIONARY
  5
19
102
{ACAD_REACTORS
330
C
102
}
330
C
100
AcDbDictionary
281
     1
  0
ACDBDICTIONARYWDFLT
  5
E
102
{ACAD_REACTORS
330
C
102
}
330
C
100
AcDbDictionary
281
     1
  3
Normal
350
F
100
AcDbDictionaryWithDefault
340
F
  0
DICTIONARY
  5
47
102
{ACAD_REACTORS
330
C
102
}
330
C
100
AcDbDictionary
281
     1
  3
A0
350
48
  3
A1
350
49
  3
A2
350
4A
  3
A3
350
4B
  3
A4
350
4C
  3
A5
350
4D
  3
A6
350
4E
  3
A7
350
4F
  3
A8
350
50
  3
A9
350
51
  3
B0
350
52
  3
B1
350
53
  3
B2
350
54
  3
B3
350
55
  3
B4
350
56
  3
B5
350
57
  3
B6
350
58
  3
B7
350
59
  3
B8
350
5A
  3
B9
350
5B
  3
C0
350
5C
  3
C1
350
5D
  3
C2
350
5E
  3
C3
350
5F
  3
C4
350
60
  3
C5
350
61
  3
C6
350
62
  3
C7
350
63
  3
C8
350
64
  3
C9
350
65
  3
D0
350
66
  3
D1
350
67
  3
D2
350
68
  0
DICTIONARY
  5
69
102
{ACAD_REACTORS
330
C
102
}
330
C
100
AcDbDictionary
281
     1
  3
Standard
350
6A
  0
DICTIONARY
  5
2A
102
{ACAD_REACTORS
330
C
102
}
330
C
100
AcDbDictionary
281
     1
  3
2dWireframe
350
2F
  3
Basic
350
32
  3
Brighten
350
36
  3
ColorChange
350
3A
  3
Conceptual
350
34
  3
Dim
350
35
  3
EdgeColorOff
350
3D
  3
Facepattern
350
39
  3
Flat
350
2B
  3
FlatWithEdges
350
2C
  3
Gouraud
350
2D
  3
GouraudWithEdges
350
2E
  3
Hidden
350
31
  3
JitterOff
350
3B
  3
Linepattern
350
38
  3
OverhangOff
350
3C
  3
Realistic
350
33
  3
Shaded
350
42
  3
Shaded with edges
350
41
  3
Shades of Gray
350
3E
  3
Sketchy
350
3F
  3
Thicken
350
37
  3
Wireframe
350
30
  3
X-Ray
350
40
  0
XRECORD
  5
379
102
{ACAD_REACTORS
330
C
102
}
330
C
100
AcDbXrecord
280
     1
 90
        1
330
2F4
  0
DICTIONARY
  5
2F7
102
{ACAD_REACTORS
330
C
102
}
330
C
100
AcDbDictionary
281
     1
  3
CANNOSCALE
350
2F8
  3
CMLEADERSTYLE
350
331
  3
CTABLESTYLE
350
330
  3
DIMASSOC
350
339
  3
HIDETEXT
350
33A
  3
MSLTSCALE
350
340
  3
PSOLHEIGHT
350
338
  3
PSOLWIDTH
350
337
  3
SECTIONTHICKNESSINC
350
334
  3
XCLIPFRAME
350
2F9
  0
XRECORD
  5
33B
102
{ACAD_REACTORS
330
C
102
}
330
C
100
AcDbXrecord
280
     1
  1
DWGPROPS COOKIE
  2

  3

  4

  6

  7

  8
acae2
  9

300
=
301
=
302
=
303
=
304
=
305
=
306
=
307
=
308
=
309
=
 40
0.0
 41
2460202.393858727
 42
2460427.513120197
  1

 90
        0
  0
XRECORD
  5
33F
102
{ACAD_REACTORS
330
33E
102
}
330
33E
100
AcDbXrecord
280
     1
102
VTR_0.000_0.000_1.000_1.000_VISUALSTYLE
340
2F
102
VTR_0.000_0.000_1.000_1.000_GRIDDISPLAY
 70
     3
102
VTR_0.000_0.000_1.000_1.000_GRIDMAJOR
 70
     5
102
VTR_0.000_0.000_1.000_1.000_DEFAULTLIGHTING
280
     1
102
VTR_0.000_0.000_1.000_1.000_DEFAULTLIGHTINGTYPE
 70
     1
102
VTR_0.000_0.000_1.000_1.000_BRIGHTNESS
141
0.0
102
VTR_0.000_0.000_1.000_1.000_CONTRAST
142
0.0
  0
XRECORD
  5
33D
102
{ACAD_REACTORS
330
33C
102
}
330
33C
100
AcDbXrecord
280
     1
 40
129076.0
  1
{\fSolid Edge ANSI|b1||i0||c0|p34;\C7;\H75.;\W1.;\pxsa0.6416666667;BENITO\P}{\fSolid Edge ANSI|b1||i0||c0|p34;\C7;\H75.;\W1.;\pxse0.6416666667;–Urban\P}
  0
LAYOUT
  5
1E
102
{ACAD_REACTORS
330
1A
102
}
330
1A
100
AcDbPlotSettings
  1

  2
none_device
  4

  6

 40
0.0
 41
0.0
 42
0.0
 43
0.0
 44
0.0
 45
0.0
 46
0.0
 47
0.0
 48
0.0
 49
0.0
140
0.0
141
0.0
142
1.0
143
1.0
 70
   688
 72
     1
 73
     0
 74
     5
  7

 75
    16
147
1.0
148
0.0
149
0.0
100
AcDbLayout
  1
Layout1
 70
     1
 71
     1
 10
0.0
 20
0.0
 11
2625.0
 21
3712.5
 12
0.0
 22
0.0
 32
0.0
 14
0.0
 24
0.0
 34
0.0
 15
2625.0
 25
3712.5
 35
0.0
146
0.0
 13
0.0
 23
0.0
 33
0.0
 16
1.0
 26
0.0
 36
0.0
 17
0.0
 27
1.0
 37
0.0
 76
     0
330
1B
  0
LAYOUT
  5
22
102
{ACAD_REACTORS
330
1A
102
}
330
1A
100
AcDbPlotSettings
  1

  2
none_device
  4
Letter_(8.50_x_11.00_Inches)
  6

 40
6.35
 41
6.35
 42
6.35000508
 43
6.35000508
 44
215.9
 45
279.4
 46
0.0
 47
0.0
 48
0.0
 49
0.0
140
0.0
141
0.0
142
1.0
143
1.0
 70
  1712
 72
     1
 73
     0
 74
     0
  7

 75
     0
147
1.0
148
0.0
149
0.0
100
AcDbLayout
  1
Model
 70
     1
 71
     0
 10
0.0
 20
0.0
 11
2625.0
 21
3712.5
 12
0.0
 22
0.0
 32
0.0
 14
0.0
 24
0.0
 34
0.0
 15
2625.0
 25
3712.5
 35
0.0
146
0.0
 13
0.0
 23
0.0
 33
0.0
 16
1.0
 26
0.0
 36
0.0
 17
0.0
 27
1.0
 37
0.0
 76
     0
330
1F
331
29
  0
MATERIAL
  5
45
102
{ACAD_REACTORS
330
43
102
}
102
{ACAD_XDICTIONARY
360
373
102
}
330
43
100
AcDbMaterial
  1
ByBlock
  0
MATERIAL
  5
44
102
{ACAD_REACTORS
330
43
102
}
102
{ACAD_XDICTIONARY
360
371
102
}
330
43
100
AcDbMaterial
  1
ByLayer
  0
MATERIAL
  5
46
102
{ACAD_REACTORS
330
43
102
}
102
{ACAD_XDICTIONARY
360
375
102
}
330
43
100
AcDbMaterial
  1
Global
  0
MLEADERSTYLE
  5
6C
102
{ACAD_REACTORS
330
6B
102
}
102
{ACAD_XDICTIONARY
360
377
102
}
330
6B
100
AcDbMLeaderStyle
170
     2
171
     1
172
     0
 90
        2
 40
0.0
 41
0.0
173
     1
 91
-1056964608
340
14
 92
       -2
290
     1
 42
2.0
291
     1
 43
8.0
  3
Standard
341
0
 44
4.0
300

342
11
174
     1
178
     6
175
     1
176
     0
 93
-1056964608
 45
4.0
292
     0
297
     0
 46
4.0
343
0
 94
-1056964608
 47
1.0
 49
1.0
140
1.0
293
     1
141
0.0
294
     1
177
     0
142
1.0
295
     0
296
     0
143
3.75
1001
ACAD_MLEADERVER
1070
     2
  0
MLINESTYLE
  5
18
102
{ACAD_REACTORS
330
17
102
}
330
17
100
AcDbMlineStyle
  2
Standard
 70
     0
  3

 62
   256
 51
90.0
 52
90.0
 71
     2
 49
0.5
 62
   256
  6
BYLAYER
 49
-0.5
 62
   256
  6
BYLAYER
  0
ACDBPLACEHOLDER
  5
F
102
{ACAD_REACTORS
330
E
102
}
330
E
  0
SCALE
  5
48
102
{ACAD_REACTORS
330
47
102
}
330
47
100
AcDbScale
 70
     0
300
1:1
140
1.0
141
1.0
290
     1
  0
SCALE
  5
49
102
{ACAD_REACTORS
330
47
102
}
330
47
100
AcDbScale
 70
     0
300
1:2
140
1.0
141
2.0
290
     0
  0
SCALE
  5
4A
102
{ACAD_REACTORS
330
47
102
}
330
47
100
AcDbScale
 70
     0
300
1:4
140
1.0
141
4.0
290
     0
  0
SCALE
  5
4B
102
{ACAD_REACTORS
330
47
102
}
330
47
100
AcDbScale
 70
     0
300
1:5
140
1.0
141
5.0
290
     0
  0
SCALE
  5
4C
102
{ACAD_REACTORS
330
47
102
}
330
47
100
AcDbScale
 70
     0
300
1:8
140
1.0
141
8.0
290
     0
  0
SCALE
  5
4D
102
{ACAD_REACTORS
330
47
102
}
330
47
100
AcDbScale
 70
     0
300
1:10
140
1.0
141
10.0
290
     0
  0
SCALE
  5
4E
102
{ACAD_REACTORS
330
47
102
}
330
47
100
AcDbScale
 70
     0
300
1:16
140
1.0
141
16.0
290
     0
  0
SCALE
  5
4F
102
{ACAD_REACTORS
330
47
102
}
330
47
100
AcDbScale
 70
     0
300
1:20
140
1.0
141
20.0
290
     0
  0
SCALE
  5
50
102
{ACAD_REACTORS
330
47
102
}
330
47
100
AcDbScale
 70
     0
300
1:30
140
1.0
141
30.0
290
     0
  0
SCALE
  5
51
102
{ACAD_REACTORS
330
47
102
}
330
47
100
AcDbScale
 70
     0
300
1:40
140
1.0
141
40.0
290
     0
  0
SCALE
  5
52
102
{ACAD_REACTORS
330
47
102
}
330
47
100
AcDbScale
 70
     0
300
1:50
140
1.0
141
50.0
290
     0
  0
SCALE
  5
53
102
{ACAD_REACTORS
330
47
102
}
330
47
100
AcDbScale
 70
     0
300
1:100
140
1.0
141
100.0
290
     0
  0
SCALE
  5
54
102
{ACAD_REACTORS
330
47
102
}
330
47
100
AcDbScale
 70
     0
300
2:1
140
2.0
141
1.0
290
     0
  0
SCALE
  5
55
102
{ACAD_REACTORS
330
47
102
}
330
47
100
AcDbScale
 70
     0
300
4:1
140
4.0
141
1.0
290
     0
  0
SCALE
  5
56
102
{ACAD_REACTORS
330
47
102
}
330
47
100
AcDbScale
 70
     0
300
8:1
140
8.0
141
1.0
290
     0
  0
SCALE
  5
57
102
{ACAD_REACTORS
330
47
102
}
330
47
100
AcDbScale
 70
     0
300
10:1
140
10.0
141
1.0
290
     0
  0
SCALE
  5
58
102
{ACAD_REACTORS
330
47
102
}
330
47
100
AcDbScale
 70
     0
300
100:1
140
100.0
141
1.0
290
     0
  0
SCALE
  5
59
102
{ACAD_REACTORS
330
47
102
}
330
47
100
AcDbScale
 70
     0
300
1/128" = 1'-0"
140
0.0078125
141
12.0
290
     0
  0
SCALE
  5
5A
102
{ACAD_REACTORS
330
47
102
}
330
47
100
AcDbScale
 70
     0
300
1/64" = 1'-0"
140
0.015625
141
12.0
290
     0
  0
SCALE
  5
5B
102
{ACAD_REACTORS
330
47
102
}
330
47
100
AcDbScale
 70
     0
300
1/32" = 1'-0"
140
0.03125
141
12.0
290
     0
  0
SCALE
  5
5C
102
{ACAD_REACTORS
330
47
102
}
330
47
100
AcDbScale
 70
     0
300
1/16" = 1'-0"
140
0.0625
141
12.0
290
     0
  0
SCALE
  5
5D
102
{ACAD_REACTORS
330
47
102
}
330
47
100
AcDbScale
 70
     0
300
3/32" = 1'-0"
140
0.09375
141
12.0
290
     0
  0
SCALE
  5
5E
102
{ACAD_REACTORS
330
47
102
}
330
47
100
AcDbScale
 70
     0
300
1/8" = 1'-0"
140
0.125
141
12.0
290
     0
  0
SCALE
  5
5F
102
{ACAD_REACTORS
330
47
102
}
330
47
100
AcDbScale
 70
     0
300
3/16" = 1'-0"
140
0.1875
141
12.0
290
     0
  0
SCALE
  5
60
102
{ACAD_REACTORS
330
47
102
}
330
47
100
AcDbScale
 70
     0
300
1/4" = 1'-0"
140
0.25
141
12.0
290
     0
  0
SCALE
  5
61
102
{ACAD_REACTORS
330
47
102
}
330
47
100
AcDbScale
 70
     0
300
3/8" = 1'-0"
140
0.375
141
12.0
290
     0
  0
SCALE
  5
62
102
{ACAD_REACTORS
330
47
102
}
330
47
100
AcDbScale
 70
     0
300
1/2" = 1'-0"
140
0.5
141
12.0
290
     0
  0
SCALE
  5
63
102
{ACAD_REACTORS
330
47
102
}
330
47
100
AcDbScale
 70
     0
300
3/4" = 1'-0"
140
0.75
141
12.0
290
     0
  0
SCALE
  5
64
102
{ACAD_REACTORS
330
47
102
}
330
47
100
AcDbScale
 70
     0
300
1" = 1'-0"
140
1.0
141
12.0
290
     0
  0
SCALE
  5
65
102
{ACAD_REACTORS
330
47
102
}
330
47
100
AcDbScale
 70
     0
300
1-1/2" = 1'-0"
140
1.5
141
12.0
290
     0
  0
SCALE
  5
66
102
{ACAD_REACTORS
330
47
102
}
330
47
100
AcDbScale
 70
     0
300
3" = 1'-0"
140
3.0
141
12.0
290
     0
  0
SCALE
  5
67
102
{ACAD_REACTORS
330
47
102
}
330
47
100
AcDbScale
 70
     0
300
6" = 1'-0"
140
6.0
141
12.0
290
     0
  0
SCALE
  5
68
102
{ACAD_REACTORS
330
47
102
}
330
47
100
AcDbScale
 70
     0
300
1'-0" = 1'-0"
140
12.0
141
12.0
290
     0
  0
TABLESTYLE
  5
6A
102
{ACAD_REACTORS
330
69
102
}
330
69
100
AcDbTableStyle
  3
Standard
 70
     0
 71
     0
 40
0.06
 41
0.06
280
     0
281
     0
  7
Standard
140
4.5
170
     2
 62
     0
 63
   257
283
     0
274
    -2
284
     1
 64
     0
275
    -2
285
     1
 65
     0
276
    -2
286
     1
 66
     0
277
    -2
287
     1
 67
     0
278
    -2
288
     1
 68
     0
279
    -2
289
     1
 69
     0
  7
Standard
140
6.0
170
     5
 62
     0
 63
   257
283
     0
274
    -2
284
     1
 64
     0
275
    -2
285
     1
 65
     0
276
    -2
286
     1
 66
     0
277
    -2
287
     1
 67
     0
278
    -2
288
     1
 68
     0
279
    -2
289
     1
 69
     0
  7
Standard
140
4.5
170
     5
 62
     0
 63
   257
283
     0
274
    -2
284
     1
 64
     0
275
    -2
285
     1
 65
     0
276
    -2
286
     1
 66
     0
277
    -2
287
     1
 67
     0
278
    -2
288
     1
 68
     0
279
    -2
289
     1
 69
     0
  0
VISUALSTYLE
  5
2F
102
{ACAD_REACTORS
330
2A
102
}
102
{ACAD_XDICTIONARY
360
349
102
}
330
2A
100
AcDbVisualStyle
  2
2dWireframe
 70
     4
 71
     0
 72
     2
 73
     0
 90
        0
 40
0.6
 41
30.0
 62
     5
 63
     7
 74
     1
 91
        4
 64
     7
 65
   257
 75
     1
175
     1
 42
1.0
 92
        0
 66
   257
 43
1.0
 76
     1
 77
     6
 78
     2
 67
     7
 79
     5
170
     0
171
     0
290
     0
174
     0
 93
        1
 44
0.0
173
     0
291
     0
 45
0.0
1001
ACAD
1000
AcDbSavedByObjectVersion
1070
     0
  0
VISUALSTYLE
  5
32
102
{ACAD_REACTORS
330
2A
102
}
102
{ACAD_XDICTIONARY
360
34F
102
}
330
2A
100
AcDbVisualStyle
  2
Basic
 70
     7
 71
     1
 72
     0
 73
     1
 90
        0
 40
0.6
 41
30.0
 62
     5
 63
     7
 74
     0
 91
        4
 64
     7
 65
   257
 75
     1
175
     1
 42
1.0
 92
        8
 66
     7
 43
1.0
 76
     1
 77
     6
 78
     2
 67
     7
 79
     5
170
     0
171
     0
290
     0
174
     0
 93
        1
 44
0.0
173
     0
291
     1
 45
0.0
1001
ACAD
1000
AcDbSavedByObjectVersion
1070
     0
  0
VISUALSTYLE
  5
36
102
{ACAD_REACTORS
330
2A
102
}
102
{ACAD_XDICTIONARY
360
357
102
}
330
2A
100
AcDbVisualStyle
  2
Brighten
 70
    12
 71
     2
 72
     2
 73
     0
 90
        0
 40
0.6
 41
30.0
 62
     5
 63
     7
 74
     1
 91
        4
 64
     7
 65
   257
 75
     1
175
     1
 42
1.0
 92
        8
 66
     7
 43
1.0
 76
     1
 77
     6
 78
     2
 67
     7
 79
     5
170
     0
171
     0
290
     0
174
     0
 93
        1
 44
50.0
173
     0
291
     1
 45
0.0
1001
ACAD
1000
AcDbSavedByObjectVersion
1070
     0
  0
VISUALSTYLE
  5
3A
102
{ACAD_REACTORS
330
2A
102
}
102
{ACAD_XDICTIONARY
360
35F
102
}
330
2A
100
AcDbVisualStyle
  2
ColorChange
 70
    16
 71
     2
 72
     2
 73
     3
 90
        0
 40
0.6
 41
30.0
 62
     5
 63
     8
 74
     1
 91
        4
 64
     7
 65
   257
 75
     1
175
     1
 42
1.0
 92
        8
 66
     8
 43
1.0
 76
     1
 77
     6
 78
     2
 67
     7
 79
     5
170
     0
171
     0
290
     0
174
     0
 93
        1
 44
0.0
173
     0
291
     1
 45
0.0
1001
ACAD
1000
AcDbSavedByObjectVersion
1070
     0
  0
VISUALSTYLE
  5
34
102
{ACAD_REACTORS
330
2A
102
}
102
{ACAD_XDICTIONARY
360
353
102
}
330
2A
100
AcDbVisualStyle
  2
Conceptual
 70
     9
 71
     3
 72
     2
 73
     0
 90
        0
 40
0.6
 41
30.0
 62
     5
 63
     7
 74
     2
 91
        2
 64
     7
 65
   257
 75
     1
175
     1
 42
179.0
 92
        8
 66
     7
 43
1.0
 76
     1
 77
     6
 78
     2
 67
     7
 79
     3
170
     0
171
     0
290
     0
174
     0
 93
        1
 44
0.0
173
     0
291
     0
 45
0.0
1001
ACAD
1000
AcDbSavedByObjectVersion
1070
     0
  0
VISUALSTYLE
  5
35
102
{ACAD_REACTORS
330
2A
102
}
102
{ACAD_XDICTIONARY
360
355
102
}
330
2A
100
AcDbVisualStyle
  2
Dim
 70
    11
 71
     2
 72
     2
 73
     0
 90
        0
 40
0.6
 41
30.0
 62
     5
 63
     7
 74
     1
 91
        4
 64
     7
 65
   257
 75
     1
175
     1
 42
1.0
 92
        8
 66
     7
 43
1.0
 76
     1
 77
     6
 78
     2
 67
     7
 79
     5
170
     0
171
     0
290
     0
174
     0
 93
        1
 44
-50.0
173
     0
291
     1
 45
0.0
1001
ACAD
1000
AcDbSavedByObjectVersion
1070
     0
  0
VISUALSTYLE
  5
3D
102
{ACAD_REACTORS
330
2A
102
}
102
{ACAD_XDICTIONARY
360
365
102
}
330
2A
100
AcDbVisualStyle
  2
EdgeColorOff
 70
    22
 71
     2
 72
     2
 73
     0
 90
        0
 40
0.6
 41
30.0
 62
     5
 63
     7
 74
     1
 91
        4
 64
     7
 65
   257
 75
     1
175
     1
 42
1.0
 92
        8
 66
     7
 43
1.0
 76
     1
 77
     6
 78
     2
 67
     7
 79
     5
170
     0
171
     0
290
     0
174
     0
 93
        1
 44
0.0
173
     0
291
     1
 45
0.0
1001
ACAD
1000
AcDbSavedByObjectVersion
1070
     0
  0
VISUALSTYLE
  5
39
102
{ACAD_REACTORS
330
2A
102
}
102
{ACAD_XDICTIONARY
360
35D
102
}
330
2A
100
AcDbVisualStyle
  2
Facepattern
 70
    15
 71
     2
 72
     2
 73
     0
 90
        0
 40
0.6
 41
30.0
 62
     5
 63
     7
 74
     1
 91
        4
 64
     7
 65
   257
 75
     1
175
     1
 42
1.0
 92
        8
 66
     7
 43
1.0
 76
     1
 77
     6
 78
     2
 67
     7
 79
     5
170
     0
171
     0
290
     0
174
     0
 93
        1
 44
0.0
173
     0
291
     1
 45
0.0
1001
ACAD
1000
AcDbSavedByObjectVersion
1070
     0
  0
VISUALSTYLE
  5
2B
102
{ACAD_REACTORS
330
2A
102
}
102
{ACAD_XDICTIONARY
360
341
102
}
330
2A
100
AcDbVisualStyle
  2
Flat
 70
     0
 71
     2
 72
     1
 73
     1
 90
        2
 40
0.6
 41
30.0
 62
     5
 63
     7
 74
     0
 91
        0
 64
     7
 65
   257
 75
     1
175
     1
 42
1.0
 92
        8
 66
     7
 43
1.0
 76
     1
 77
     6
 78
     2
 67
     7
 79
     5
170
     0
171
     0
290
     0
174
     0
 93
       13
 44
0.0
173
     0
291
     1
 45
0.0
1001
ACAD
1000
AcDbSavedByObjectVersion
1070
     0
  0
VISUALSTYLE
  5
2C
102
{ACAD_REACTORS
330
2A
102
}
102
{ACAD_XDICTIONARY
360
343
102
}
330
2A
100
AcDbVisualStyle
  2
FlatWithEdges
 70
     1
 71
     2
 72
     1
 73
     1
 90
        2
 40
0.6
 41
30.0
 62
     5
 63
     7
 74
     1
 91
        0
 64
     7
 65
   257
 75
     1
175
     1
 42
1.0
 92
        0
 66
   257
 43
1.0
 76
     1
 77
     6
 78
     2
 67
     7
 79
     5
170
     0
171
     0
290
     0
174
     0
 93
       13
 44
0.0
173
     0
291
     1
 45
0.0
1001
ACAD
1000
AcDbSavedByObjectVersion
1070
     0
  0
VISUALSTYLE
  5
2D
102
{ACAD_REACTORS
330
2A
102
}
102
{ACAD_XDICTIONARY
360
345
102
}
330
2A
100
AcDbVisualStyle
  2
Gouraud
 70
     2
 71
     2
 72
     2
 73
     1
 90
        2
 40
0.6
 41
30.0
 62
     5
 63
     7
 74
     0
 91
        0
 64
     7
 65
   257
 75
     1
175
     1
 42
1.0
 92
        0
 66
     7
 43
1.0
 76
     1
 77
     6
 78
     2
 67
     7
 79
     5
170
     0
171
     0
290
     0
174
     0
 93
       13
 44
0.0
173
     0
291
     1
 45
0.0
1001
ACAD
1000
AcDbSavedByObjectVersion
1070
     0
  0
VISUALSTYLE
  5
2E
102
{ACAD_REACTORS
330
2A
102
}
102
{ACAD_XDICTIONARY
360
347
102
}
330
2A
100
AcDbVisualStyle
  2
GouraudWithEdges
 70
     3
 71
     2
 72
     2
 73
     1
 90
        2
 40
0.6
 41
30.0
 62
     5
 63
     7
 74
     1
 91
        0
 64
     7
 65
   257
 75
     1
175
     1
 42
1.0
 92
        0
 66
   257
 43
1.0
 76
     1
 77
     6
 78
     2
 67
     7
 79
     5
170
     0
171
     0
290
     0
174
     0
 93
       13
 44
0.0
173
     0
291
     1
 45
0.0
1001
ACAD
1000
AcDbSavedByObjectVersion
1070
     0
  0
VISUALSTYLE
  5
31
102
{ACAD_REACTORS
330
2A
102
}
102
{ACAD_XDICTIONARY
360
34D
102
}
330
2A
100
AcDbVisualStyle
  2
Hidden
 70
     6
 71
     1
 72
     2
 73
     2
 90
        0
 40
0.6
 41
30.0
 62
     5
 63
     7
 74
     2
 91
        2
 64
     7
 65
   257
 75
     2
175
     1
 42
40.0
 92
        0
 66
   257
 43
1.0
 76
     1
 77
     6
 78
     2
 67
     7
 79
     3
170
     0
171
     0
290
     0
174
     0
 93
        1
 44
0.0
173
     0
291
     0
 45
0.0
1001
ACAD
1000
AcDbSavedByObjectVersion
1070
     0
  0
VISUALSTYLE
  5
3B
102
{ACAD_REACTORS
330
2A
102
}
102
{ACAD_XDICTIONARY
360
361
102
}
330
2A
100
AcDbVisualStyle
  2
JitterOff
 70
    20
 71
     2
 72
     2
 73
     0
 90
        0
 40
0.6
 41
30.0
 62
     5
 63
     7
 74
     1
 91
        4
 64
     7
 65
   257
 75
     1
175
     1
 42
1.0
 92
       10
 66
     7
 43
1.0
 76
     1
 77
     6
 78
     2
 67
     7
 79
     5
170
     0
171
     0
290
     0
174
     0
 93
        1
 44
0.0
173
     0
291
     1
 45
0.0
1001
ACAD
1000
AcDbSavedByObjectVersion
1070
     0
  0
VISUALSTYLE
  5
38
102
{ACAD_REACTORS
330
2A
102
}
102
{ACAD_XDICTIONARY
360
35B
102
}
330
2A
100
AcDbVisualStyle
  2
Linepattern
 70
    14
 71
     2
 72
     2
 73
     0
 90
        0
 40
0.6
 41
30.0
 62
     5
 63
     7
 74
     1
 91
        4
 64
     7
 65
   257
 75
     7
175
     7
 42
1.0
 92
        8
 66
     7
 43
1.0
 76
     1
 77
     6
 78
     2
 67
     7
 79
     5
170
     0
171
     0
290
     0
174
     0
 93
        1
 44
0.0
173
     0
291
     1
 45
0.0
1001
ACAD
1000
AcDbSavedByObjectVersion
1070
     0
  0
VISUALSTYLE
  5
3C
102
{ACAD_REACTORS
330
2A
102
}
102
{ACAD_XDICTIONARY
360
363
102
}
330
2A
100
AcDbVisualStyle
  2
OverhangOff
 70
    21
 71
     2
 72
     2
 73
     0
 90
        0
 40
0.6
 41
30.0
 62
     5
 63
     7
 74
     1
 91
        4
 64
     7
 65
   257
 75
     1
175
     1
 42
1.0
 92
        9
 66
     7
 43
1.0
 76
     1
 77
     6
 78
     2
 67
     7
 79
     5
170
     0
171
     0
290
     0
174
     0
 93
        1
 44
0.0
173
     0
291
     1
 45
0.0
1001
ACAD
1000
AcDbSavedByObjectVersion
1070
     0
  0
VISUALSTYLE
  5
33
102
{ACAD_REACTORS
330
2A
102
}
102
{ACAD_XDICTIONARY
360
351
102
}
330
2A
100
AcDbVisualStyle
  2
Realistic
 70
     8
 71
     2
 72
     3
 73
     0
 90
        2
 40
0.6
 41
30.0
 62
     5
 63
     7
 74
     0
 91
        0
 64
     7
 65
   257
 75
     1
175
     1
 42
1.0
 92
        8
 66
   257
 43
1.0
 76
     1
 77
     6
 78
     2
 67
     7
 79
     3
170
     0
171
     0
290
     0
174
     0
 93
       13
 44
0.0
173
     0
291
     0
 45
0.0
1001
ACAD
1000
AcDbSavedByObjectVersion
1070
     0
  0
VISUALSTYLE
  5
42
102
{ACAD_REACTORS
330
2A
102
}
102
{ACAD_XDICTIONARY
360
36F
102
}
330
2A
100
AcDbVisualStyle
  2
Shaded
 70
    27
 71
     2
 72
     2
 73
     1
 90
        2
 40
0.6
 41
30.0
 62
     5
 63
     7
 74
     0
 91
        4
 64
     7
 65
   257
 75
     1
175
     1
 42
1.0
 92
        8
 66
   257
 43
1.0
 76
     1
 77
     6
 78
     2
 67
     8
 79
     3
170
     0
171
     0
290
     0
174
     0
 93
        5
 44
0.0
173
     0
291
     0
 45
0.0
1001
ACAD
1000
AcDbSavedByObjectVersion
1070
     0
  0
VISUALSTYLE
  5
41
102
{ACAD_REACTORS
330
2A
102
}
102
{ACAD_XDICTIONARY
360
36D
102
}
330
2A
100
AcDbVisualStyle
  2
Shaded with edges
 70
    26
 71
     2
 72
     2
 73
     1
 90
        2
 40
0.6
 41
30.0
 62
     5
 63
     7
 74
     1
 91
       10
 64
     7
 65
   257
 75
     2
175
     1
 42
1.0
 92
        8
 66
   257
 43
1.0
 76
     1
 77
     6
 78
     2
 67
     7
 79
     3
170
     0
171
     0
290
     0
174
     0
 93
        5
 44
0.0
173
     0
291
     0
 45
0.0
1001
ACAD
1000
AcDbSavedByObjectVersion
1070
     0
  0
VISUALSTYLE
  5
3E
102
{ACAD_REACTORS
330
2A
102
}
102
{ACAD_XDICTIONARY
360
367
102
}
330
2A
100
AcDbVisualStyle
  2
Shades of Gray
 70
    23
 71
     2
 72
     2
 73
     3
 90
        0
 40
0.6
 41
30.0
 62
     5
 63
     7
 74
     2
 91
        2
 64
     7
 65
     7
 75
     1
175
     1
 42
40.0
 92
        8
 66
     7
 43
1.0
 76
     1
 77
     6
 78
     2
 67
     7
 79
     3
170
     0
171
     0
290
     0
174
     0
 93
        1
 44
0.0
173
     0
291
     0
 45
0.0
1001
ACAD
1000
AcDbSavedByObjectVersion
1070
     0
  0
VISUALSTYLE
  5
3F
102
{ACAD_REACTORS
330
2A
102
}
102
{ACAD_XDICTIONARY
360
369
102
}
330
2A
100
AcDbVisualStyle
  2
Sketchy
 70
    24
 71
     1
 72
     2
 73
     2
 90
        0
 40
0.6
 41
30.0
 62
     5
 63
     7
 74
     2
 91
        2
 64
     7
 65
     7
 75
     1
175
     1
 42
40.0
 92
       11
 66
     7
 43
1.0
 76
     1
 77
     6
 78
     2
 67
     7
 79
     6
170
     0
171
     0
290
     0
174
     0
 93
        1
 44
0.0
173
     0
291
     0
 45
0.0
1001
ACAD
1000
AcDbSavedByObjectVersion
1070
     0
  0
VISUALSTYLE
  5
37
102
{ACAD_REACTORS
330
2A
102
}
102
{ACAD_XDICTIONARY
360
359
102
}
330
2A
100
AcDbVisualStyle
  2
Thicken
 70
    13
 71
     2
 72
     2
 73
     0
 90
        0
 40
0.6
 41
30.0
 62
     5
 63
     7
 74
     1
 91
        4
 64
     7
 65
   257
 75
     1
175
     1
 42
1.0
 92
       12
 66
     7
 43
1.0
 76
     1
 77
     6
 78
     2
 67
     7
 79
     5
170
     0
171
     0
290
     0
174
     0
 93
        1
 44
0.0
173
     0
291
     1
 45
0.0
1001
ACAD
1000
AcDbSavedByObjectVersion
1070
     0
  0
VISUALSTYLE
  5
30
102
{ACAD_REACTORS
330
2A
102
}
102
{ACAD_XDICTIONARY
360
34B
102
}
330
2A
100
AcDbVisualStyle
  2
Wireframe
 70
     5
 71
     0
 72
     2
 73
     0
 90
        0
 40
0.6
 41
30.0
 62
     5
 63
     7
 74
     1
 91
        4
 64
     7
 65
   257
 75
     1
175
     1
 42
1.0
 92
        0
 66
   257
 43
1.0
 76
     1
 77
     6
 78
     2
 67
     7
 79
     3
170
     0
171
     0
290
     0
174
     0
 93
        1
 44
0.0
173
     0
291
     0
 45
0.0
1001
ACAD
1000
AcDbSavedByObjectVersion
1070
     0
  0
VISUALSTYLE
  5
40
102
{ACAD_REACTORS
330
2A
102
}
102
{ACAD_XDICTIONARY
360
36B
102
}
330
2A
100
AcDbVisualStyle
  2
X-Ray
 70
    25
 71
     2
 72
     2
 73
     1
 90
        1
 40
0.5
 41
30.0
 62
     5
 63
     7
 74
     1
 91
        0
 64
     7
 65
   257
 75
     1
175
     1
 42
1.0
 92
        8
 66
     7
 43
1.0
 76
     1
 77
     6
 78
     2
 67
     7
 79
     3
170
     0
171
     0
290
     0
174
     0
 93
       13
 44
0.0
173
     0
291
     0
 45
0.0
1001
ACAD
1000
AcDbSavedByObjectVersion
1070
     0
  0
DICTIONARYVAR
  5
2F8
102
{ACAD_REACTORS
330
2F7
102
}
330
2F7
100
DictionaryVariables
280
     0
  1
1:1
  0
DICTIONARYVAR
  5
331
102
{ACAD_REACTORS
330
2F7
102
}
330
2F7
100
DictionaryVariables
280
     0
  1
Standard
  0
DICTIONARYVAR
  5
330
102
{ACAD_REACTORS
330
2F7
102
}
330
2F7
100
DictionaryVariables
280
     0
  1
Standard
  0
DICTIONARYVAR
  5
339
102
{ACAD_REACTORS
330
2F7
102
}
330
2F7
100
DictionaryVariables
280
     0
  1
2
  0
DICTIONARYVAR
  5
33A
102
{ACAD_REACTORS
330
2F7
102
}
330
2F7
100
DictionaryVariables
280
     0
  1
1
  0
DICTIONARYVAR
  5
340
102
{ACAD_REACTORS
330
2F7
102
}
330
2F7
100
DictionaryVariables
280
     0
  1
1
  0
DICTIONARYVAR
  5
338
102
{ACAD_REACTORS
330
2F7
102
}
330
2F7
100
DictionaryVariables
280
     0
  1
80.000000
  0
DICTIONARYVAR
  5
337
102
{ACAD_REACTORS
330
2F7
102
}
330
2F7
100
DictionaryVariables
280
     0
  1
5.000000
  0
DICTIONARYVAR
  5
334
102
{ACAD_REACTORS
330
2F7
102
}
330
2F7
100
DictionaryVariables
280
     0
  1
6.000000
  0
DICTIONARYVAR
  5
2F9
102
{ACAD_REACTORS
330
2F7
102
}
330
2F7
100
DictionaryVariables
280
     0
  1
2
  0
DICTIONARY
  5
373
330
45
100
AcDbDictionary
280
     1
281
     1
  3
ACAD_XREC_ROUNDTRIP
360
374
  0
DICTIONARY
  5
371
330
44
100
AcDbDictionary
280
     1
281
     1
  3
ACAD_XREC_ROUNDTRIP
360
372
  0
DICTIONARY
  5
375
330
46
100
AcDbDictionary
280
     1
281
     1
  3
ACAD_XREC_ROUNDTRIP
360
376
  0
DICTIONARY
  5
377
330
6C
100
AcDbDictionary
280
     1
281
     1
  3
ACAD_XREC_ROUNDTRIP
360
378
  0
DICTIONARY
  5
349
330
2F
100
AcDbDictionary
280
     1
281
     1
  3
ACAD_XREC_ROUNDTRIP
360
34A
  0
DICTIONARY
  5
34F
330
32
100
AcDbDictionary
280
     1
281
     1
  3
ACAD_XREC_ROUNDTRIP
360
350
  0
DICTIONARY
  5
357
330
36
100
AcDbDictionary
280
     1
281
     1
  3
ACAD_XREC_ROUNDTRIP
360
358
  0
DICTIONARY
  5
35F
330
3A
100
AcDbDictionary
280
     1
281
     1
  3
ACAD_XREC_ROUNDTRIP
360
360
  0
DICTIONARY
  5
353
330
34
100
AcDbDictionary
280
     1
281
     1
  3
ACAD_XREC_ROUNDTRIP
360
354
  0
DICTIONARY
  5
355
330
35
100
AcDbDictionary
280
     1
281
     1
  3
ACAD_XREC_ROUNDTRIP
360
356
  0
DICTIONARY
  5
365
330
3D
100
AcDbDictionary
280
     1
281
     1
  3
ACAD_XREC_ROUNDTRIP
360
366
  0
DICTIONARY
  5
35D
330
39
100
AcDbDictionary
280
     1
281
     1
  3
ACAD_XREC_ROUNDTRIP
360
35E
  0
DICTIONARY
  5
341
330
2B
100
AcDbDictionary
280
     1
281
     1
  3
ACAD_XREC_ROUNDTRIP
360
342
  0
DICTIONARY
  5
343
330
2C
100
AcDbDictionary
280
     1
281
     1
  3
ACAD_XREC_ROUNDTRIP
360
344
  0
DICTIONARY
  5
345
330
2D
100
AcDbDictionary
280
     1
281
     1
  3
ACAD_XREC_ROUNDTRIP
360
346
  0
DICTIONARY
  5
347
330
2E
100
AcDbDictionary
280
     1
281
     1
  3
ACAD_XREC_ROUNDTRIP
360
348
  0
DICTIONARY
  5
34D
330
31
100
AcDbDictionary
280
     1
281
     1
  3
ACAD_XREC_ROUNDTRIP
360
34E
  0
DICTIONARY
  5
361
330
3B
100
AcDbDictionary
280
     1
281
     1
  3
ACAD_XREC_ROUNDTRIP
360
362
  0
DICTIONARY
  5
35B
330
38
100
AcDbDictionary
280
     1
281
     1
  3
ACAD_XREC_ROUNDTRIP
360
35C
  0
DICTIONARY
  5
363
330
3C
100
AcDbDictionary
280
     1
281
     1
  3
ACAD_XREC_ROUNDTRIP
360
364
  0
DICTIONARY
  5
351
330
33
100
AcDbDictionary
280
     1
281
     1
  3
ACAD_XREC_ROUNDTRIP
360
352
  0
DICTIONARY
  5
36F
330
42
100
AcDbDictionary
280
     1
281
     1
  3
ACAD_XREC_ROUNDTRIP
360
370
  0
DICTIONARY
  5
36D
330
41
100
AcDbDictionary
280
     1
281
     1
  3
ACAD_XREC_ROUNDTRIP
360
36E
  0
DICTIONARY
  5
367
330
3E
100
AcDbDictionary
280
     1
281
     1
  3
ACAD_XREC_ROUNDTRIP
360
368
  0
DICTIONARY
  5
369
330
3F
100
AcDbDictionary
280
     1
281
     1
  3
ACAD_XREC_ROUNDTRIP
360
36A
  0
DICTIONARY
  5
359
330
37
100
AcDbDictionary
280
     1
281
     1
  3
ACAD_XREC_ROUNDTRIP
360
35A
  0
DICTIONARY
  5
34B
330
30
100
AcDbDictionary
280
     1
281
     1
  3
ACAD_XREC_ROUNDTRIP
360
34C
  0
DICTIONARY
  5
36B
330
40
100
AcDbDictionary
280
     1
281
     1
  3
ACAD_XREC_ROUNDTRIP
360
36C
  0
XRECORD
  5
374
102
{ACAD_REACTORS
330
373
102
}
330
373
100
AcDbXrecord
280
     1
102
MATERIAL
148
0.0
149
0.0
149
0.0
 93
        0
 94
      127
282
     0
 72
     1
 77
     1
171
     1
175
     1
179
     1
273
     0
  0
XRECORD
  5
372
102
{ACAD_REACTORS
330
371
102
}
330
371
100
AcDbXrecord
280
     1
102
MATERIAL
148
0.0
149
0.0
149
0.0
 93
        0
 94
      127
282
     0
 72
     1
 77
     1
171
     1
175
     1
179
     1
273
     0
  0
XRECORD
  5
376
102
{ACAD_REACTORS
330
375
102
}
330
375
100
AcDbXrecord
280
     1
102
MATERIAL
148
0.0
149
0.0
149
0.0
 93
        0
 94
      127
282
     0
 72
     1
 77
     1
171
     1
175
     1
179
     1
273
     0
  0
XRECORD
  5
378
102
{ACAD_REACTORS
330
377
102
}
330
377
100
AcDbXrecord
280
     1
102
ACAD_ROUNDTRIP_2010_MLEADER_STYLE
  0
XRECORD
  5
34A
102
{ACAD_REACTORS
330
349
102
}
330
349
100
AcDbXrecord
280
     1
102
RTVSPropertyOp0
 70
     1
102
RTVSPropertyOp1
 70
     1
102
RTVSPropertyOp2
 70
     1
102
RTVSPropertyOp3
 70
     1
102
RTVSPropertyOp4
 70
     1
102
RTVSPropertyOp5
 70
     1
102
RTVSPropertyOp6
 70
     1
102
RTVSPropertyOp7
 70
     1
102
RTVSPropertyOp8
 70
     1
102
RTVSPropertyOp9
 70
     1
102
RTVSPropertyOp10
 70
     1
102
RTVSPropertyOp11
 70
     1
102
RTVSPropertyOp12
 70
     1
102
RTVSPropertyOp13
 70
     1
102
RTVSPropertyOp14
 70
     1
102
RTVSPropertyOp15
 70
     1
102
RTVSPropertyOp16
 70
     1
102
RTVSPropertyOp17
 70
     1
102
RTVSPropertyOp18
 70
     1
102
RTVSPropertyOp19
 70
     1
102
RTVSPropertyOp20
 70
     1
102
RTVSPropertyOp21
 70
     1
102
RTVSPropertyOp22
 70
     1
102
RTVSPropertyOp23
 70
     1
102
RTVSPropertyOp24
 70
     1
102
RTVSPropertyOp25
 70
     1
102
RTVSPropertyOp26
 70
     1
102
RTVSPropertyOp27
 70
     1
102
RTVSPropertyOp28
 70
     1
102
RTVSPropertyOp29
 70
     1
102
RTVSPropertyOp30
 70
     1
102
RTVSPropertyOp31
 70
     1
102
RTVSPropertyOp32
 70
     1
102
RTVSPropertyOp33
 70
     1
102
RTVSPropertyOp34
 70
     1
102
RTVSPropertyOp35
 70
     1
102
RTVSPropertyOp36
 70
     1
102
RTVSPropertyOp37
 70
     1
102
RTVSPropertyOp38
 70
     1
102
RTVSPropertyOp39
 70
     1
102
RTVSPropertyOp40
 70
     1
102
RTVSPropertyOp41
 70
     1
102
RTVSPropertyOp42
 70
     1
102
RTVSPropertyOp43
 70
     1
102
RTVSPropertyOp44
 70
     1
102
RTVSPropertyOp45
 70
     1
102
RTVSPropertyOp46
 70
     1
102
RTVSPropertyOp47
 70
     1
102
RTVSPropertyOp48
 70
     1
102
RTVSPropertyOp49
 70
     1
102
RTVSPropertyOp50
 70
     1
102
RTVSPropertyOp51
 70
     0
102
RTVSPropertyOp52
 70
     0
102
RTVSPropertyOp53
 70
     1
102
RTVSPropertyOp54
 70
     1
102
RTVSPropertyOp55
 70
     1
102
RTVSPropertyOp56
 70
     1
102
RTVSPropertyOp57
 70
     1
102
RTVSPost2010Prop28
280
     1
102
RTVSPost2010PropOp28
 70
     1
102
RTVSPost2010Prop29
280
     1
102
RTVSPost2010PropOp29
 70
     1
102
RTVSPost2010Prop30
280
     0
102
RTVSPost2010PropOp30
 70
     1
102
RTVSPost2010Prop31
280
     0
102
RTVSPost2010PropOp31
 70
     1
102
RTVSPost2010Prop32
280
     0
102
RTVSPost2010PropOp32
 70
     1
102
RTVSPost2010Prop33
280
     0
102
RTVSPost2010PropOp33
 70
     1
102
RTVSPost2010Prop34
280
     0
102
RTVSPost2010PropOp34
 70
     1
102
RTVSPost2010Prop35
280
     0
102
RTVSPost2010PropOp35
 70
     1
102
RTVSPost2010Prop36
280
     0
102
RTVSPost2010PropOp36
 70
     1
102
RTVSPost2010Prop37
 90
       50
102
RTVSPost2010PropOp37
 70
     1
102
RTVSPost2010Prop38
140
0.0
102
RTVSPost2010PropOp38
 70
     1
102
RTVSPost2010Prop39
140
1.0
102
RTVSPost2010PropOp39
 70
     1
102
RTVSPost2010Prop40
 90
        0
102
RTVSPost2010PropOp40
 70
     1
102
RTVSPost2010Prop41ColorIndex
 90
       18
102
RTVSPost2010Prop41ColorRGB
 90
        0
102
RTVSPost2010PropOp41
 70
     1
102
RTVSPost2010Prop42
 90
       50
102
RTVSPost2010PropOp42
 70
     1
102
RTVSPost2010Prop43
 90
        3
102
RTVSPost2010PropOp43
 70
     1
102
RTVSPost2010Prop44ColorIndex
 90
        5
102
RTVSPost2010Prop44ColorRGB
 90
      255
102
RTVSPost2010PropOp44
 70
     1
102
RTVSPost2010Prop45
280
     0
102
RTVSPost2010PropOp45
 70
     1
102
RTVSPost2010Prop46
 90
       50
102
RTVSPost2010PropOp46
 70
     1
102
RTVSPost2010Prop47
 90
       50
102
RTVSPost2010PropOp47
 70
     1
102
RTVSPost2010Prop48
 90
       50
102
RTVSPost2010PropOp48
 70
     1
102
RTVSPost2010Prop49
280
     0
102
RTVSPost2010PropOp49
 70
     1
102
RTVSPost2010Prop50
 90
       50
102
RTVSPost2010PropOp50
 70
     1
102
RTVSPost2010Prop51ColorIndex
 90
      256
102
RTVSPost2010Prop51ColorRGB
 90
-16777216
102
RTVSPost2010PropOp51
 70
     0
102
RTVSPost2010Prop52
140
1.0
102
RTVSPost2010PropOp52
 70
     0
102
RTVSPost2010Prop53
 90
        2
102
RTVSPost2010PropOp53
 70
     1
102
RTVSPost2010Prop54
  1
strokes_ogs.tif
102
RTVSPost2010PropOp54
 70
     1
102
RTVSPost2010Prop55
280
     0
102
RTVSPost2010PropOp55
 70
     1
102
RTVSPost2010Prop56
140
1.0
102
RTVSPost2010PropOp56
 70
     1
102
RTVSPost2010Prop57
140
1.0
102
RTVSPost2010PropOp57
 70
     1
  0
XRECORD
  5
350
102
{ACAD_REACTORS
330
34F
102
}
330
34F
100
AcDbXrecord
280
     1
102
RTVSPropertyOp0
 70
     1
102
RTVSPropertyOp1
 70
     1
102
RTVSPropertyOp2
 70
     1
102
RTVSPropertyOp3
 70
     1
102
RTVSPropertyOp4
 70
     1
102
RTVSPropertyOp5
 70
     1
102
RTVSPropertyOp6
 70
     1
102
RTVSPropertyOp7
 70
     1
102
RTVSPropertyOp8
 70
     1
102
RTVSPropertyOp9
 70
     1
102
RTVSPropertyOp10
 70
     1
102
RTVSPropertyOp11
 70
     1
102
RTVSPropertyOp12
 70
     1
102
RTVSPropertyOp13
 70
     1
102
RTVSPropertyOp14
 70
     1
102
RTVSPropertyOp15
 70
     1
102
RTVSPropertyOp16
 70
     1
102
RTVSPropertyOp17
 70
     1
102
RTVSPropertyOp18
 70
     1
102
RTVSPropertyOp19
 70
     1
102
RTVSPropertyOp20
 70
     1
102
RTVSPropertyOp21
 70
     1
102
RTVSPropertyOp22
 70
     1
102
RTVSPropertyOp23
 70
     1
102
RTVSPropertyOp24
 70
     1
102
RTVSPropertyOp25
 70
     1
102
RTVSPropertyOp26
 70
     1
102
RTVSPropertyOp27
 70
     1
102
RTVSPropertyOp28
 70
     1
102
RTVSPropertyOp29
 70
     1
102
RTVSPropertyOp30
 70
     1
102
RTVSPropertyOp31
 70
     1
102
RTVSPropertyOp32
 70
     1
102
RTVSPropertyOp33
 70
     1
102
RTVSPropertyOp34
 70
     1
102
RTVSPropertyOp35
 70
     1
102
RTVSPropertyOp36
 70
     1
102
RTVSPropertyOp37
 70
     1
102
RTVSPropertyOp38
 70
     1
102
RTVSPropertyOp39
 70
     1
102
RTVSPropertyOp40
 70
     1
102
RTVSPropertyOp41
 70
     1
102
RTVSPropertyOp42
 70
     1
102
RTVSPropertyOp43
 70
     1
102
RTVSPropertyOp44
 70
     1
102
RTVSPropertyOp45
 70
     1
102
RTVSPropertyOp46
 70
     1
102
RTVSPropertyOp47
 70
     1
102
RTVSPropertyOp48
 70
     1
102
RTVSPropertyOp49
 70
     1
102
RTVSPropertyOp50
 70
     1
102
RTVSPropertyOp51
 70
     0
102
RTVSPropertyOp52
 70
     0
102
RTVSPropertyOp53
 70
     1
102
RTVSPropertyOp54
 70
     1
102
RTVSPropertyOp55
 70
     1
102
RTVSPropertyOp56
 70
     1
102
RTVSPropertyOp57
 70
     1
102
RTVSPost2010Prop28
280
     0
102
RTVSPost2010PropOp28
 70
     1
102
RTVSPost2010Prop29
280
     1
102
RTVSPost2010PropOp29
 70
     1
102
RTVSPost2010Prop30
280
     1
102
RTVSPost2010PropOp30
 70
     1
102
RTVSPost2010Prop31
280
     0
102
RTVSPost2010PropOp31
 70
     1
102
RTVSPost2010Prop32
280
     0
102
RTVSPost2010PropOp32
 70
     1
102
RTVSPost2010Prop33
280
     0
102
RTVSPost2010PropOp33
 70
     1
102
RTVSPost2010Prop34
280
     0
102
RTVSPost2010PropOp34
 70
     1
102
RTVSPost2010Prop35
280
     0
102
RTVSPost2010PropOp35
 70
     1
102
RTVSPost2010Prop36
280
     0
102
RTVSPost2010PropOp36
 70
     1
102
RTVSPost2010Prop37
 90
       50
102
RTVSPost2010PropOp37
 70
     1
102
RTVSPost2010Prop38
140
0.0
102
RTVSPost2010PropOp38
 70
     1
102
RTVSPost2010Prop39
140
1.0
102
RTVSPost2010PropOp39
 70
     1
102
RTVSPost2010Prop40
 90
        0
102
RTVSPost2010PropOp40
 70
     1
102
RTVSPost2010Prop41ColorIndex
 90
       18
102
RTVSPost2010Prop41ColorRGB
 90
        0
102
RTVSPost2010PropOp41
 70
     1
102
RTVSPost2010Prop42
 90
       50
102
RTVSPost2010PropOp42
 70
     1
102
RTVSPost2010Prop43
 90
        3
102
RTVSPost2010PropOp43
 70
     1
102
RTVSPost2010Prop44ColorIndex
 90
        5
102
RTVSPost2010Prop44ColorRGB
 90
      255
102
RTVSPost2010PropOp44
 70
     1
102
RTVSPost2010Prop45
280
     0
102
RTVSPost2010PropOp45
 70
     1
102
RTVSPost2010Prop46
 90
       50
102
RTVSPost2010PropOp46
 70
     1
102
RTVSPost2010Prop47
 90
       50
102
RTVSPost2010PropOp47
 70
     1
102
RTVSPost2010Prop48
 90
       50
102
RTVSPost2010PropOp48
 70
     1
102
RTVSPost2010Prop49
280
     0
102
RTVSPost2010PropOp49
 70
     1
102
RTVSPost2010Prop50
 90
       50
102
RTVSPost2010PropOp50
 70
     1
102
RTVSPost2010Prop51ColorIndex
 90
      256
102
RTVSPost2010Prop51ColorRGB
 90
-16777216
102
RTVSPost2010PropOp51
 70
     0
102
RTVSPost2010Prop52
140
1.0
102
RTVSPost2010PropOp52
 70
     0
102
RTVSPost2010Prop53
 90
        2
102
RTVSPost2010PropOp53
 70
     1
102
RTVSPost2010Prop54
  1
strokes_ogs.tif
102
RTVSPost2010PropOp54
 70
     1
102
RTVSPost2010Prop55
280
     0
102
RTVSPost2010PropOp55
 70
     1
102
RTVSPost2010Prop56
140
1.0
102
RTVSPost2010PropOp56
 70
     1
102
RTVSPost2010Prop57
140
1.0
102
RTVSPost2010PropOp57
 70
     1
  0
XRECORD
  5
358
102
{ACAD_REACTORS
330
357
102
}
330
357
100
AcDbXrecord
280
     1
102
RTVSPropertyOp0
 70
     1
102
RTVSPropertyOp1
 70
     1
102
RTVSPropertyOp2
 70
     1
102
RTVSPropertyOp3
 70
     1
102
RTVSPropertyOp4
 70
     1
102
RTVSPropertyOp5
 70
     1
102
RTVSPropertyOp6
 70
     1
102
RTVSPropertyOp7
 70
     1
102
RTVSPropertyOp8
 70
     1
102
RTVSPropertyOp9
 70
     1
102
RTVSPropertyOp10
 70
     1
102
RTVSPropertyOp11
 70
     1
102
RTVSPropertyOp12
 70
     1
102
RTVSPropertyOp13
 70
     1
102
RTVSPropertyOp14
 70
     1
102
RTVSPropertyOp15
 70
     1
102
RTVSPropertyOp16
 70
     1
102
RTVSPropertyOp17
 70
     1
102
RTVSPropertyOp18
 70
     1
102
RTVSPropertyOp19
 70
     1
102
RTVSPropertyOp20
 70
     1
102
RTVSPropertyOp21
 70
     1
102
RTVSPropertyOp22
 70
     1
102
RTVSPropertyOp23
 70
     1
102
RTVSPropertyOp24
 70
     1
102
RTVSPropertyOp25
 70
     1
102
RTVSPropertyOp26
 70
     1
102
RTVSPropertyOp27
 70
     1
102
RTVSPropertyOp28
 70
     1
102
RTVSPropertyOp29
 70
     1
102
RTVSPropertyOp30
 70
     1
102
RTVSPropertyOp31
 70
     1
102
RTVSPropertyOp32
 70
     1
102
RTVSPropertyOp33
 70
     1
102
RTVSPropertyOp34
 70
     1
102
RTVSPropertyOp35
 70
     1
102
RTVSPropertyOp36
 70
     1
102
RTVSPropertyOp37
 70
     1
102
RTVSPropertyOp38
 70
     1
102
RTVSPropertyOp39
 70
     1
102
RTVSPropertyOp40
 70
     1
102
RTVSPropertyOp41
 70
     1
102
RTVSPropertyOp42
 70
     1
102
RTVSPropertyOp43
 70
     1
102
RTVSPropertyOp44
 70
     1
102
RTVSPropertyOp45
 70
     1
102
RTVSPropertyOp46
 70
     1
102
RTVSPropertyOp47
 70
     1
102
RTVSPropertyOp48
 70
     1
102
RTVSPropertyOp49
 70
     1
102
RTVSPropertyOp50
 70
     1
102
RTVSPropertyOp51
 70
     0
102
RTVSPropertyOp52
 70
     0
102
RTVSPropertyOp53
 70
     1
102
RTVSPropertyOp54
 70
     1
102
RTVSPropertyOp55
 70
     1
102
RTVSPropertyOp56
 70
     1
102
RTVSPropertyOp57
 70
     1
102
RTVSPost2010Prop28
280
     0
102
RTVSPost2010PropOp28
 70
     1
102
RTVSPost2010Prop29
280
     1
102
RTVSPost2010PropOp29
 70
     1
102
RTVSPost2010Prop30
280
     1
102
RTVSPost2010PropOp30
 70
     1
102
RTVSPost2010Prop31
280
     0
102
RTVSPost2010PropOp31
 70
     1
102
RTVSPost2010Prop32
280
     0
102
RTVSPost2010PropOp32
 70
     1
102
RTVSPost2010Prop33
280
     0
102
RTVSPost2010PropOp33
 70
     1
102
RTVSPost2010Prop34
280
     0
102
RTVSPost2010PropOp34
 70
     1
102
RTVSPost2010Prop35
280
     0
102
RTVSPost2010PropOp35
 70
     1
102
RTVSPost2010Prop36
280
     0
102
RTVSPost2010PropOp36
 70
     1
102
RTVSPost2010Prop37
 90
       50
102
RTVSPost2010PropOp37
 70
     1
102
RTVSPost2010Prop38
140
0.0
102
RTVSPost2010PropOp38
 70
     1
102
RTVSPost2010Prop39
140
1.0
102
RTVSPost2010PropOp39
 70
     1
102
RTVSPost2010Prop40
 90
        0
102
RTVSPost2010PropOp40
 70
     1
102
RTVSPost2010Prop41ColorIndex
 90
       18
102
RTVSPost2010Prop41ColorRGB
 90
        0
102
RTVSPost2010PropOp41
 70
     1
102
RTVSPost2010Prop42
 90
       50
102
RTVSPost2010PropOp42
 70
     1
102
RTVSPost2010Prop43
 90
        3
102
RTVSPost2010PropOp43
 70
     1
102
RTVSPost2010Prop44ColorIndex
 90
        5
102
RTVSPost2010Prop44ColorRGB
 90
      255
102
RTVSPost2010PropOp44
 70
     1
102
RTVSPost2010Prop45
280
     0
102
RTVSPost2010PropOp45
 70
     1
102
RTVSPost2010Prop46
 90
       50
102
RTVSPost2010PropOp46
 70
     1
102
RTVSPost2010Prop47
 90
       50
102
RTVSPost2010PropOp47
 70
     1
102
RTVSPost2010Prop48
 90
       50
102
RTVSPost2010PropOp48
 70
     1
102
RTVSPost2010Prop49
280
     0
102
RTVSPost2010PropOp49
 70
     1
102
RTVSPost2010Prop50
 90
       50
102
RTVSPost2010PropOp50
 70
     1
102
RTVSPost2010Prop51ColorIndex
 90
      256
102
RTVSPost2010Prop51ColorRGB
 90
-16777216
102
RTVSPost2010PropOp51
 70
     0
102
RTVSPost2010Prop52
140
1.0
102
RTVSPost2010PropOp52
 70
     0
102
RTVSPost2010Prop53
 90
        2
102
RTVSPost2010PropOp53
 70
     1
102
RTVSPost2010Prop54
  1
strokes_ogs.tif
102
RTVSPost2010PropOp54
 70
     1
102
RTVSPost2010Prop55
280
     0
102
RTVSPost2010PropOp55
 70
     1
102
RTVSPost2010Prop56
140
1.0
102
RTVSPost2010PropOp56
 70
     1
102
RTVSPost2010Prop57
140
1.0
102
RTVSPost2010PropOp57
 70
     1
  0
XRECORD
  5
360
102
{ACAD_REACTORS
330
35F
102
}
330
35F
100
AcDbXrecord
280
     1
102
RTVSPropertyOp0
 70
     1
102
RTVSPropertyOp1
 70
     1
102
RTVSPropertyOp2
 70
     1
102
RTVSPropertyOp3
 70
     1
102
RTVSPropertyOp4
 70
     1
102
RTVSPropertyOp5
 70
     1
102
RTVSPropertyOp6
 70
     1
102
RTVSPropertyOp7
 70
     1
102
RTVSPropertyOp8
 70
     1
102
RTVSPropertyOp9
 70
     1
102
RTVSPropertyOp10
 70
     1
102
RTVSPropertyOp11
 70
     1
102
RTVSPropertyOp12
 70
     1
102
RTVSPropertyOp13
 70
     1
102
RTVSPropertyOp14
 70
     1
102
RTVSPropertyOp15
 70
     1
102
RTVSPropertyOp16
 70
     1
102
RTVSPropertyOp17
 70
     1
102
RTVSPropertyOp18
 70
     1
102
RTVSPropertyOp19
 70
     1
102
RTVSPropertyOp20
 70
     1
102
RTVSPropertyOp21
 70
     1
102
RTVSPropertyOp22
 70
     1
102
RTVSPropertyOp23
 70
     1
102
RTVSPropertyOp24
 70
     1
102
RTVSPropertyOp25
 70
     1
102
RTVSPropertyOp26
 70
     1
102
RTVSPropertyOp27
 70
     1
102
RTVSPropertyOp28
 70
     1
102
RTVSPropertyOp29
 70
     1
102
RTVSPropertyOp30
 70
     1
102
RTVSPropertyOp31
 70
     1
102
RTVSPropertyOp32
 70
     1
102
RTVSPropertyOp33
 70
     1
102
RTVSPropertyOp34
 70
     1
102
RTVSPropertyOp35
 70
     1
102
RTVSPropertyOp36
 70
     1
102
RTVSPropertyOp37
 70
     1
102
RTVSPropertyOp38
 70
     1
102
RTVSPropertyOp39
 70
     1
102
RTVSPropertyOp40
 70
     1
102
RTVSPropertyOp41
 70
     1
102
RTVSPropertyOp42
 70
     1
102
RTVSPropertyOp43
 70
     1
102
RTVSPropertyOp44
 70
     1
102
RTVSPropertyOp45
 70
     1
102
RTVSPropertyOp46
 70
     1
102
RTVSPropertyOp47
 70
     1
102
RTVSPropertyOp48
 70
     1
102
RTVSPropertyOp49
 70
     1
102
RTVSPropertyOp50
 70
     1
102
RTVSPropertyOp51
 70
     0
102
RTVSPropertyOp52
 70
     0
102
RTVSPropertyOp53
 70
     1
102
RTVSPropertyOp54
 70
     1
102
RTVSPropertyOp55
 70
     1
102
RTVSPropertyOp56
 70
     1
102
RTVSPropertyOp57
 70
     1
102
RTVSPost2010Prop28
280
     0
102
RTVSPost2010PropOp28
 70
     1
102
RTVSPost2010Prop29
280
     1
102
RTVSPost2010PropOp29
 70
     1
102
RTVSPost2010Prop30
280
     1
102
RTVSPost2010PropOp30
 70
     1
102
RTVSPost2010Prop31
280
     0
102
RTVSPost2010PropOp31
 70
     1
102
RTVSPost2010Prop32
280
     0
102
RTVSPost2010PropOp32
 70
     1
102
RTVSPost2010Prop33
280
     0
102
RTVSPost2010PropOp33
 70
     1
102
RTVSPost2010Prop34
280
     0
102
RTVSPost2010PropOp34
 70
     1
102
RTVSPost2010Prop35
280
     0
102
RTVSPost2010PropOp35
 70
     1
102
RTVSPost2010Prop36
280
     0
102
RTVSPost2010PropOp36
 70
     1
102
RTVSPost2010Prop37
 90
       50
102
RTVSPost2010PropOp37
 70
     1
102
RTVSPost2010Prop38
140
0.0
102
RTVSPost2010PropOp38
 70
     1
102
RTVSPost2010Prop39
140
1.0
102
RTVSPost2010PropOp39
 70
     1
102
RTVSPost2010Prop40
 90
        0
102
RTVSPost2010PropOp40
 70
     1
102
RTVSPost2010Prop41ColorIndex
 90
       18
102
RTVSPost2010Prop41ColorRGB
 90
        0
102
RTVSPost2010PropOp41
 70
     1
102
RTVSPost2010Prop42
 90
       50
102
RTVSPost2010PropOp42
 70
     1
102
RTVSPost2010Prop43
 90
        3
102
RTVSPost2010PropOp43
 70
     1
102
RTVSPost2010Prop44ColorIndex
 90
        5
102
RTVSPost2010Prop44ColorRGB
 90
      255
102
RTVSPost2010PropOp44
 70
     1
102
RTVSPost2010Prop45
280
     0
102
RTVSPost2010PropOp45
 70
     1
102
RTVSPost2010Prop46
 90
       50
102
RTVSPost2010PropOp46
 70
     1
102
RTVSPost2010Prop47
 90
       50
102
RTVSPost2010PropOp47
 70
     1
102
RTVSPost2010Prop48
 90
       50
102
RTVSPost2010PropOp48
 70
     1
102
RTVSPost2010Prop49
280
     0
102
RTVSPost2010PropOp49
 70
     1
102
RTVSPost2010Prop50
 90
       50
102
RTVSPost2010PropOp50
 70
     1
102
RTVSPost2010Prop51ColorIndex
 90
      256
102
RTVSPost2010Prop51ColorRGB
 90
-16777216
102
RTVSPost2010PropOp51
 70
     0
102
RTVSPost2010Prop52
140
1.0
102
RTVSPost2010PropOp52
 70
     0
102
RTVSPost2010Prop53
 90
        2
102
RTVSPost2010PropOp53
 70
     1
102
RTVSPost2010Prop54
  1
strokes_ogs.tif
102
RTVSPost2010PropOp54
 70
     1
102
RTVSPost2010Prop55
280
     0
102
RTVSPost2010PropOp55
 70
     1
102
RTVSPost2010Prop56
140
1.0
102
RTVSPost2010PropOp56
 70
     1
102
RTVSPost2010Prop57
140
1.0
102
RTVSPost2010PropOp57
 70
     1
  0
XRECORD
  5
354
102
{ACAD_REACTORS
330
353
102
}
330
353
100
AcDbXrecord
280
     1
102
RTVSPropertyOp0
 70
     1
102
RTVSPropertyOp1
 70
     1
102
RTVSPropertyOp2
 70
     1
102
RTVSPropertyOp3
 70
     1
102
RTVSPropertyOp4
 70
     1
102
RTVSPropertyOp5
 70
     1
102
RTVSPropertyOp6
 70
     1
102
RTVSPropertyOp7
 70
     1
102
RTVSPropertyOp8
 70
     1
102
RTVSPropertyOp9
 70
     1
102
RTVSPropertyOp10
 70
     1
102
RTVSPropertyOp11
 70
     1
102
RTVSPropertyOp12
 70
     1
102
RTVSPropertyOp13
 70
     1
102
RTVSPropertyOp14
 70
     1
102
RTVSPropertyOp15
 70
     1
102
RTVSPropertyOp16
 70
     1
102
RTVSPropertyOp17
 70
     1
102
RTVSPropertyOp18
 70
     1
102
RTVSPropertyOp19
 70
     1
102
RTVSPropertyOp20
 70
     1
102
RTVSPropertyOp21
 70
     1
102
RTVSPropertyOp22
 70
     1
102
RTVSPropertyOp23
 70
     1
102
RTVSPropertyOp24
 70
     1
102
RTVSPropertyOp25
 70
     1
102
RTVSPropertyOp26
 70
     1
102
RTVSPropertyOp27
 70
     1
102
RTVSPropertyOp28
 70
     1
102
RTVSPropertyOp29
 70
     1
102
RTVSPropertyOp30
 70
     1
102
RTVSPropertyOp31
 70
     1
102
RTVSPropertyOp32
 70
     1
102
RTVSPropertyOp33
 70
     1
102
RTVSPropertyOp34
 70
     1
102
RTVSPropertyOp35
 70
     1
102
RTVSPropertyOp36
 70
     1
102
RTVSPropertyOp37
 70
     1
102
RTVSPropertyOp38
 70
     1
102
RTVSPropertyOp39
 70
     1
102
RTVSPropertyOp40
 70
     1
102
RTVSPropertyOp41
 70
     1
102
RTVSPropertyOp42
 70
     1
102
RTVSPropertyOp43
 70
     1
102
RTVSPropertyOp44
 70
     1
102
RTVSPropertyOp45
 70
     1
102
RTVSPropertyOp46
 70
     1
102
RTVSPropertyOp47
 70
     1
102
RTVSPropertyOp48
 70
     1
102
RTVSPropertyOp49
 70
     1
102
RTVSPropertyOp50
 70
     1
102
RTVSPropertyOp51
 70
     0
102
RTVSPropertyOp52
 70
     0
102
RTVSPropertyOp53
 70
     1
102
RTVSPropertyOp54
 70
     1
102
RTVSPropertyOp55
 70
     1
102
RTVSPropertyOp56
 70
     1
102
RTVSPropertyOp57
 70
     1
102
RTVSPost2010Prop28
280
     0
102
RTVSPost2010PropOp28
 70
     1
102
RTVSPost2010Prop29
280
     1
102
RTVSPost2010PropOp29
 70
     1
102
RTVSPost2010Prop30
280
     1
102
RTVSPost2010PropOp30
 70
     1
102
RTVSPost2010Prop31
280
     0
102
RTVSPost2010PropOp31
 70
     1
102
RTVSPost2010Prop32
280
     0
102
RTVSPost2010PropOp32
 70
     1
102
RTVSPost2010Prop33
280
     0
102
RTVSPost2010PropOp33
 70
     1
102
RTVSPost2010Prop34
280
     0
102
RTVSPost2010PropOp34
 70
     1
102
RTVSPost2010Prop35
280
     0
102
RTVSPost2010PropOp35
 70
     1
102
RTVSPost2010Prop36
280
     0
102
RTVSPost2010PropOp36
 70
     1
102
RTVSPost2010Prop37
 90
       50
102
RTVSPost2010PropOp37
 70
     1
102
RTVSPost2010Prop38
140
0.0
102
RTVSPost2010PropOp38
 70
     1
102
RTVSPost2010Prop39
140
1.0
102
RTVSPost2010PropOp39
 70
     1
102
RTVSPost2010Prop40
 90
        0
102
RTVSPost2010PropOp40
 70
     1
102
RTVSPost2010Prop41ColorIndex
 90
       18
102
RTVSPost2010Prop41ColorRGB
 90
        0
102
RTVSPost2010PropOp41
 70
     1
102
RTVSPost2010Prop42
 90
       50
102
RTVSPost2010PropOp42
 70
     1
102
RTVSPost2010Prop43
 90
        3
102
RTVSPost2010PropOp43
 70
     1
102
RTVSPost2010Prop44ColorIndex
 90
        5
102
RTVSPost2010Prop44ColorRGB
 90
      255
102
RTVSPost2010PropOp44
 70
     1
102
RTVSPost2010Prop45
280
     0
102
RTVSPost2010PropOp45
 70
     1
102
RTVSPost2010Prop46
 90
       50
102
RTVSPost2010PropOp46
 70
     1
102
RTVSPost2010Prop47
 90
       50
102
RTVSPost2010PropOp47
 70
     1
102
RTVSPost2010Prop48
 90
       50
102
RTVSPost2010PropOp48
 70
     1
102
RTVSPost2010Prop49
280
     0
102
RTVSPost2010PropOp49
 70
     1
102
RTVSPost2010Prop50
 90
       50
102
RTVSPost2010PropOp50
 70
     1
102
RTVSPost2010Prop51ColorIndex
 90
      256
102
RTVSPost2010Prop51ColorRGB
 90
-16777216
102
RTVSPost2010PropOp51
 70
     0
102
RTVSPost2010Prop52
140
1.0
102
RTVSPost2010PropOp52
 70
     0
102
RTVSPost2010Prop53
 90
        2
102
RTVSPost2010PropOp53
 70
     1
102
RTVSPost2010Prop54
  1
strokes_ogs.tif
102
RTVSPost2010PropOp54
 70
     1
102
RTVSPost2010Prop55
280
     0
102
RTVSPost2010PropOp55
 70
     1
102
RTVSPost2010Prop56
140
1.0
102
RTVSPost2010PropOp56
 70
     1
102
RTVSPost2010Prop57
140
1.0
102
RTVSPost2010PropOp57
 70
     1
  0
XRECORD
  5
356
102
{ACAD_REACTORS
330
355
102
}
330
355
100
AcDbXrecord
280
     1
102
RTVSPropertyOp0
 70
     1
102
RTVSPropertyOp1
 70
     1
102
RTVSPropertyOp2
 70
     1
102
RTVSPropertyOp3
 70
     1
102
RTVSPropertyOp4
 70
     1
102
RTVSPropertyOp5
 70
     1
102
RTVSPropertyOp6
 70
     1
102
RTVSPropertyOp7
 70
     1
102
RTVSPropertyOp8
 70
     1
102
RTVSPropertyOp9
 70
     1
102
RTVSPropertyOp10
 70
     1
102
RTVSPropertyOp11
 70
     1
102
RTVSPropertyOp12
 70
     1
102
RTVSPropertyOp13
 70
     1
102
RTVSPropertyOp14
 70
     1
102
RTVSPropertyOp15
 70
     1
102
RTVSPropertyOp16
 70
     1
102
RTVSPropertyOp17
 70
     1
102
RTVSPropertyOp18
 70
     1
102
RTVSPropertyOp19
 70
     1
102
RTVSPropertyOp20
 70
     1
102
RTVSPropertyOp21
 70
     1
102
RTVSPropertyOp22
 70
     1
102
RTVSPropertyOp23
 70
     1
102
RTVSPropertyOp24
 70
     1
102
RTVSPropertyOp25
 70
     1
102
RTVSPropertyOp26
 70
     1
102
RTVSPropertyOp27
 70
     1
102
RTVSPropertyOp28
 70
     1
102
RTVSPropertyOp29
 70
     1
102
RTVSPropertyOp30
 70
     1
102
RTVSPropertyOp31
 70
     1
102
RTVSPropertyOp32
 70
     1
102
RTVSPropertyOp33
 70
     1
102
RTVSPropertyOp34
 70
     1
102
RTVSPropertyOp35
 70
     1
102
RTVSPropertyOp36
 70
     1
102
RTVSPropertyOp37
 70
     1
102
RTVSPropertyOp38
 70
     1
102
RTVSPropertyOp39
 70
     1
102
RTVSPropertyOp40
 70
     1
102
RTVSPropertyOp41
 70
     1
102
RTVSPropertyOp42
 70
     1
102
RTVSPropertyOp43
 70
     1
102
RTVSPropertyOp44
 70
     1
102
RTVSPropertyOp45
 70
     1
102
RTVSPropertyOp46
 70
     1
102
RTVSPropertyOp47
 70
     1
102
RTVSPropertyOp48
 70
     1
102
RTVSPropertyOp49
 70
     1
102
RTVSPropertyOp50
 70
     1
102
RTVSPropertyOp51
 70
     0
102
RTVSPropertyOp52
 70
     0
102
RTVSPropertyOp53
 70
     1
102
RTVSPropertyOp54
 70
     1
102
RTVSPropertyOp55
 70
     1
102
RTVSPropertyOp56
 70
     1
102
RTVSPropertyOp57
 70
     1
102
RTVSPost2010Prop28
280
     0
102
RTVSPost2010PropOp28
 70
     1
102
RTVSPost2010Prop29
280
     1
102
RTVSPost2010PropOp29
 70
     1
102
RTVSPost2010Prop30
280
     1
102
RTVSPost2010PropOp30
 70
     1
102
RTVSPost2010Prop31
280
     0
102
RTVSPost2010PropOp31
 70
     1
102
RTVSPost2010Prop32
280
     0
102
RTVSPost2010PropOp32
 70
     1
102
RTVSPost2010Prop33
280
     0
102
RTVSPost2010PropOp33
 70
     1
102
RTVSPost2010Prop34
280
     0
102
RTVSPost2010PropOp34
 70
     1
102
RTVSPost2010Prop35
280
     0
102
RTVSPost2010PropOp35
 70
     1
102
RTVSPost2010Prop36
280
     0
102
RTVSPost2010PropOp36
 70
     1
102
RTVSPost2010Prop37
 90
       50
102
RTVSPost2010PropOp37
 70
     1
102
RTVSPost2010Prop38
140
0.0
102
RTVSPost2010PropOp38
 70
     1
102
RTVSPost2010Prop39
140
1.0
102
RTVSPost2010PropOp39
 70
     1
102
RTVSPost2010Prop40
 90
        0
102
RTVSPost2010PropOp40
 70
     1
102
RTVSPost2010Prop41ColorIndex
 90
       18
102
RTVSPost2010Prop41ColorRGB
 90
        0
102
RTVSPost2010PropOp41
 70
     1
102
RTVSPost2010Prop42
 90
       50
102
RTVSPost2010PropOp42
 70
     1
102
RTVSPost2010Prop43
 90
        3
102
RTVSPost2010PropOp43
 70
     1
102
RTVSPost2010Prop44ColorIndex
 90
        5
102
RTVSPost2010Prop44ColorRGB
 90
      255
102
RTVSPost2010PropOp44
 70
     1
102
RTVSPost2010Prop45
280
     0
102
RTVSPost2010PropOp45
 70
     1
102
RTVSPost2010Prop46
 90
       50
102
RTVSPost2010PropOp46
 70
     1
102
RTVSPost2010Prop47
 90
       50
102
RTVSPost2010PropOp47
 70
     1
102
RTVSPost2010Prop48
 90
       50
102
RTVSPost2010PropOp48
 70
     1
102
RTVSPost2010Prop49
280
     0
102
RTVSPost2010PropOp49
 70
     1
102
RTVSPost2010Prop50
 90
       50
102
RTVSPost2010PropOp50
 70
     1
102
RTVSPost2010Prop51ColorIndex
 90
      256
102
RTVSPost2010Prop51ColorRGB
 90
-16777216
102
RTVSPost2010PropOp51
 70
     0
102
RTVSPost2010Prop52
140
1.0
102
RTVSPost2010PropOp52
 70
     0
102
RTVSPost2010Prop53
 90
        2
102
RTVSPost2010PropOp53
 70
     1
102
RTVSPost2010Prop54
  1
strokes_ogs.tif
102
RTVSPost2010PropOp54
 70
     1
102
RTVSPost2010Prop55
280
     0
102
RTVSPost2010PropOp55
 70
     1
102
RTVSPost2010Prop56
140
1.0
102
RTVSPost2010PropOp56
 70
     1
102
RTVSPost2010Prop57
140
1.0
102
RTVSPost2010PropOp57
 70
     1
  0
XRECORD
  5
366
102
{ACAD_REACTORS
330
365
102
}
330
365
100
AcDbXrecord
280
     1
102
RTVSPropertyOp0
 70
     0
102
RTVSPropertyOp1
 70
     0
102
RTVSPropertyOp2
 70
     0
102
RTVSPropertyOp3
 70
     0
102
RTVSPropertyOp4
 70
     0
102
RTVSPropertyOp5
 70
     0
102
RTVSPropertyOp6
 70
     0
102
RTVSPropertyOp7
 70
     0
102
RTVSPropertyOp8
 70
     0
102
RTVSPropertyOp9
 70
     0
102
RTVSPropertyOp10
 70
     0
102
RTVSPropertyOp11
 70
     0
102
RTVSPropertyOp12
 70
     0
102
RTVSPropertyOp13
 70
     0
102
RTVSPropertyOp14
 70
     2
102
RTVSPropertyOp15
 70
     0
102
RTVSPropertyOp16
 70
     0
102
RTVSPropertyOp17
 70
     0
102
RTVSPropertyOp18
 70
     0
102
RTVSPropertyOp19
 70
     0
102
RTVSPropertyOp20
 70
     0
102
RTVSPropertyOp21
 70
     0
102
RTVSPropertyOp22
 70
     0
102
RTVSPropertyOp23
 70
     0
102
RTVSPropertyOp24
 70
     0
102
RTVSPropertyOp25
 70
     0
102
RTVSPropertyOp26
 70
     0
102
RTVSPropertyOp27
 70
     0
102
RTVSPropertyOp28
 70
     0
102
RTVSPropertyOp29
 70
     0
102
RTVSPropertyOp30
 70
     0
102
RTVSPropertyOp31
 70
     0
102
RTVSPropertyOp32
 70
     0
102
RTVSPropertyOp33
 70
     0
102
RTVSPropertyOp34
 70
     0
102
RTVSPropertyOp35
 70
     0
102
RTVSPropertyOp36
 70
     0
102
RTVSPropertyOp37
 70
     0
102
RTVSPropertyOp38
 70
     0
102
RTVSPropertyOp39
 70
     0
102
RTVSPropertyOp40
 70
     0
102
RTVSPropertyOp41
 70
     0
102
RTVSPropertyOp42
 70
     0
102
RTVSPropertyOp43
 70
     0
102
RTVSPropertyOp44
 70
     0
102
RTVSPropertyOp45
 70
     0
102
RTVSPropertyOp46
 70
     0
102
RTVSPropertyOp47
 70
     0
102
RTVSPropertyOp48
 70
     0
102
RTVSPropertyOp49
 70
     0
102
RTVSPropertyOp50
 70
     0
102
RTVSPropertyOp51
 70
     0
102
RTVSPropertyOp52
 70
     0
102
RTVSPropertyOp53
 70
     0
102
RTVSPropertyOp54
 70
     0
102
RTVSPropertyOp55
 70
     0
102
RTVSPropertyOp56
 70
     0
102
RTVSPropertyOp57
 70
     0
102
RTVSPost2010Prop28
280
     0
102
RTVSPost2010PropOp28
 70
     0
102
RTVSPost2010Prop29
280
     1
102
RTVSPost2010PropOp29
 70
     0
102
RTVSPost2010Prop30
280
     1
102
RTVSPost2010PropOp30
 70
     0
102
RTVSPost2010Prop31
280
     0
102
RTVSPost2010PropOp31
 70
     0
102
RTVSPost2010Prop32
280
     0
102
RTVSPost2010PropOp32
 70
     0
102
RTVSPost2010Prop33
280
     0
102
RTVSPost2010PropOp33
 70
     0
102
RTVSPost2010Prop34
280
     0
102
RTVSPost2010PropOp34
 70
     0
102
RTVSPost2010Prop35
280
     0
102
RTVSPost2010PropOp35
 70
     0
102
RTVSPost2010Prop36
280
     0
102
RTVSPost2010PropOp36
 70
     0
102
RTVSPost2010Prop37
 90
       50
102
RTVSPost2010PropOp37
 70
     0
102
RTVSPost2010Prop38
140
0.0
102
RTVSPost2010PropOp38
 70
     0
102
RTVSPost2010Prop39
140
1.0
102
RTVSPost2010PropOp39
 70
     0
102
RTVSPost2010Prop40
 90
        0
102
RTVSPost2010PropOp40
 70
     0
102
RTVSPost2010Prop41ColorIndex
 90
       18
102
RTVSPost2010Prop41ColorRGB
 90
        0
102
RTVSPost2010PropOp41
 70
     0
102
RTVSPost2010Prop42
 90
       50
102
RTVSPost2010PropOp42
 70
     0
102
RTVSPost2010Prop43
 90
        3
102
RTVSPost2010PropOp43
 70
     0
102
RTVSPost2010Prop44ColorIndex
 90
        5
102
RTVSPost2010Prop44ColorRGB
 90
      255
102
RTVSPost2010PropOp44
 70
     0
102
RTVSPost2010Prop45
280
     0
102
RTVSPost2010PropOp45
 70
     0
102
RTVSPost2010Prop46
 90
       50
102
RTVSPost2010PropOp46
 70
     0
102
RTVSPost2010Prop47
 90
       50
102
RTVSPost2010PropOp47
 70
     0
102
RTVSPost2010Prop48
 90
       50
102
RTVSPost2010PropOp48
 70
     0
102
RTVSPost2010Prop49
280
     0
102
RTVSPost2010PropOp49
 70
     0
102
RTVSPost2010Prop50
 90
       50
102
RTVSPost2010PropOp50
 70
     0
102
RTVSPost2010Prop51ColorIndex
 90
      256
102
RTVSPost2010Prop51ColorRGB
 90
-16777216
102
RTVSPost2010PropOp51
 70
     0
102
RTVSPost2010Prop52
140
1.0
102
RTVSPost2010PropOp52
 70
     0
102
RTVSPost2010Prop53
 90
        2
102
RTVSPost2010PropOp53
 70
     0
102
RTVSPost2010Prop54
  1
strokes_ogs.tif
102
RTVSPost2010PropOp54
 70
     0
102
RTVSPost2010Prop55
280
     0
102
RTVSPost2010PropOp55
 70
     0
102
RTVSPost2010Prop56
140
1.0
102
RTVSPost2010PropOp56
 70
     0
102
RTVSPost2010Prop57
140
1.0
102
RTVSPost2010PropOp57
 70
     0
  0
XRECORD
  5
35E
102
{ACAD_REACTORS
330
35D
102
}
330
35D
100
AcDbXrecord
280
     1
102
RTVSPropertyOp0
 70
     1
102
RTVSPropertyOp1
 70
     1
102
RTVSPropertyOp2
 70
     1
102
RTVSPropertyOp3
 70
     1
102
RTVSPropertyOp4
 70
     1
102
RTVSPropertyOp5
 70
     1
102
RTVSPropertyOp6
 70
     1
102
RTVSPropertyOp7
 70
     1
102
RTVSPropertyOp8
 70
     1
102
RTVSPropertyOp9
 70
     1
102
RTVSPropertyOp10
 70
     1
102
RTVSPropertyOp11
 70
     1
102
RTVSPropertyOp12
 70
     1
102
RTVSPropertyOp13
 70
     1
102
RTVSPropertyOp14
 70
     1
102
RTVSPropertyOp15
 70
     1
102
RTVSPropertyOp16
 70
     1
102
RTVSPropertyOp17
 70
     1
102
RTVSPropertyOp18
 70
     1
102
RTVSPropertyOp19
 70
     1
102
RTVSPropertyOp20
 70
     1
102
RTVSPropertyOp21
 70
     1
102
RTVSPropertyOp22
 70
     1
102
RTVSPropertyOp23
 70
     1
102
RTVSPropertyOp24
 70
     1
102
RTVSPropertyOp25
 70
     1
102
RTVSPropertyOp26
 70
     1
102
RTVSPropertyOp27
 70
     1
102
RTVSPropertyOp28
 70
     1
102
RTVSPropertyOp29
 70
     1
102
RTVSPropertyOp30
 70
     1
102
RTVSPropertyOp31
 70
     1
102
RTVSPropertyOp32
 70
     1
102
RTVSPropertyOp33
 70
     1
102
RTVSPropertyOp34
 70
     1
102
RTVSPropertyOp35
 70
     1
102
RTVSPropertyOp36
 70
     1
102
RTVSPropertyOp37
 70
     1
102
RTVSPropertyOp38
 70
     1
102
RTVSPropertyOp39
 70
     1
102
RTVSPropertyOp40
 70
     1
102
RTVSPropertyOp41
 70
     1
102
RTVSPropertyOp42
 70
     1
102
RTVSPropertyOp43
 70
     1
102
RTVSPropertyOp44
 70
     1
102
RTVSPropertyOp45
 70
     1
102
RTVSPropertyOp46
 70
     1
102
RTVSPropertyOp47
 70
     1
102
RTVSPropertyOp48
 70
     1
102
RTVSPropertyOp49
 70
     1
102
RTVSPropertyOp50
 70
     1
102
RTVSPropertyOp51
 70
     0
102
RTVSPropertyOp52
 70
     0
102
RTVSPropertyOp53
 70
     1
102
RTVSPropertyOp54
 70
     1
102
RTVSPropertyOp55
 70
     1
102
RTVSPropertyOp56
 70
     1
102
RTVSPropertyOp57
 70
     1
102
RTVSPost2010Prop28
280
     0
102
RTVSPost2010PropOp28
 70
     1
102
RTVSPost2010Prop29
280
     1
102
RTVSPost2010PropOp29
 70
     1
102
RTVSPost2010Prop30
280
     1
102
RTVSPost2010PropOp30
 70
     1
102
RTVSPost2010Prop31
280
     0
102
RTVSPost2010PropOp31
 70
     1
102
RTVSPost2010Prop32
280
     0
102
RTVSPost2010PropOp32
 70
     1
102
RTVSPost2010Prop33
280
     0
102
RTVSPost2010PropOp33
 70
     1
102
RTVSPost2010Prop34
280
     0
102
RTVSPost2010PropOp34
 70
     1
102
RTVSPost2010Prop35
280
     0
102
RTVSPost2010PropOp35
 70
     1
102
RTVSPost2010Prop36
280
     0
102
RTVSPost2010PropOp36
 70
     1
102
RTVSPost2010Prop37
 90
       50
102
RTVSPost2010PropOp37
 70
     1
102
RTVSPost2010Prop38
140
0.0
102
RTVSPost2010PropOp38
 70
     1
102
RTVSPost2010Prop39
140
1.0
102
RTVSPost2010PropOp39
 70
     1
102
RTVSPost2010Prop40
 90
        0
102
RTVSPost2010PropOp40
 70
     1
102
RTVSPost2010Prop41ColorIndex
 90
       18
102
RTVSPost2010Prop41ColorRGB
 90
        0
102
RTVSPost2010PropOp41
 70
     1
102
RTVSPost2010Prop42
 90
       50
102
RTVSPost2010PropOp42
 70
     1
102
RTVSPost2010Prop43
 90
        3
102
RTVSPost2010PropOp43
 70
     1
102
RTVSPost2010Prop44ColorIndex
 90
        5
102
RTVSPost2010Prop44ColorRGB
 90
      255
102
RTVSPost2010PropOp44
 70
     1
102
RTVSPost2010Prop45
280
     0
102
RTVSPost2010PropOp45
 70
     1
102
RTVSPost2010Prop46
 90
       50
102
RTVSPost2010PropOp46
 70
     1
102
RTVSPost2010Prop47
 90
       50
102
RTVSPost2010PropOp47
 70
     1
102
RTVSPost2010Prop48
 90
       50
102
RTVSPost2010PropOp48
 70
     1
102
RTVSPost2010Prop49
280
     0
102
RTVSPost2010PropOp49
 70
     1
102
RTVSPost2010Prop50
 90
       50
102
RTVSPost2010PropOp50
 70
     1
102
RTVSPost2010Prop51ColorIndex
 90
      256
102
RTVSPost2010Prop51ColorRGB
 90
-16777216
102
RTVSPost2010PropOp51
 70
     0
102
RTVSPost2010Prop52
140
1.0
102
RTVSPost2010PropOp52
 70
     0
102
RTVSPost2010Prop53
 90
        2
102
RTVSPost2010PropOp53
 70
     1
102
RTVSPost2010Prop54
  1
strokes_ogs.tif
102
RTVSPost2010PropOp54
 70
     1
102
RTVSPost2010Prop55
280
     0
102
RTVSPost2010PropOp55
 70
     1
102
RTVSPost2010Prop56
140
1.0
102
RTVSPost2010PropOp56
 70
     1
102
RTVSPost2010Prop57
140
1.0
102
RTVSPost2010PropOp57
 70
     1
  0
XRECORD
  5
342
102
{ACAD_REACTORS
330
341
102
}
330
341
100
AcDbXrecord
280
     1
102
RTVSPropertyOp0
 70
     1
102
RTVSPropertyOp1
 70
     1
102
RTVSPropertyOp2
 70
     1
102
RTVSPropertyOp3
 70
     1
102
RTVSPropertyOp4
 70
     1
102
RTVSPropertyOp5
 70
     1
102
RTVSPropertyOp6
 70
     1
102
RTVSPropertyOp7
 70
     1
102
RTVSPropertyOp8
 70
     1
102
RTVSPropertyOp9
 70
     1
102
RTVSPropertyOp10
 70
     1
102
RTVSPropertyOp11
 70
     1
102
RTVSPropertyOp12
 70
     1
102
RTVSPropertyOp13
 70
     1
102
RTVSPropertyOp14
 70
     1
102
RTVSPropertyOp15
 70
     1
102
RTVSPropertyOp16
 70
     1
102
RTVSPropertyOp17
 70
     1
102
RTVSPropertyOp18
 70
     1
102
RTVSPropertyOp19
 70
     1
102
RTVSPropertyOp20
 70
     1
102
RTVSPropertyOp21
 70
     1
102
RTVSPropertyOp22
 70
     1
102
RTVSPropertyOp23
 70
     1
102
RTVSPropertyOp24
 70
     1
102
RTVSPropertyOp25
 70
     1
102
RTVSPropertyOp26
 70
     1
102
RTVSPropertyOp27
 70
     1
102
RTVSPropertyOp28
 70
     1
102
RTVSPropertyOp29
 70
     1
102
RTVSPropertyOp30
 70
     1
102
RTVSPropertyOp31
 70
     1
102
RTVSPropertyOp32
 70
     1
102
RTVSPropertyOp33
 70
     1
102
RTVSPropertyOp34
 70
     1
102
RTVSPropertyOp35
 70
     1
102
RTVSPropertyOp36
 70
     1
102
RTVSPropertyOp37
 70
     1
102
RTVSPropertyOp38
 70
     1
102
RTVSPropertyOp39
 70
     1
102
RTVSPropertyOp40
 70
     1
102
RTVSPropertyOp41
 70
     1
102
RTVSPropertyOp42
 70
     1
102
RTVSPropertyOp43
 70
     1
102
RTVSPropertyOp44
 70
     1
102
RTVSPropertyOp45
 70
     1
102
RTVSPropertyOp46
 70
     1
102
RTVSPropertyOp47
 70
     1
102
RTVSPropertyOp48
 70
     1
102
RTVSPropertyOp49
 70
     1
102
RTVSPropertyOp50
 70
     1
102
RTVSPropertyOp51
 70
     0
102
RTVSPropertyOp52
 70
     0
102
RTVSPropertyOp53
 70
     1
102
RTVSPropertyOp54
 70
     1
102
RTVSPropertyOp55
 70
     1
102
RTVSPropertyOp56
 70
     1
102
RTVSPropertyOp57
 70
     1
102
RTVSPost2010Prop28
280
     0
102
RTVSPost2010PropOp28
 70
     1
102
RTVSPost2010Prop29
280
     1
102
RTVSPost2010PropOp29
 70
     1
102
RTVSPost2010Prop30
280
     1
102
RTVSPost2010PropOp30
 70
     1
102
RTVSPost2010Prop31
280
     0
102
RTVSPost2010PropOp31
 70
     1
102
RTVSPost2010Prop32
280
     0
102
RTVSPost2010PropOp32
 70
     1
102
RTVSPost2010Prop33
280
     0
102
RTVSPost2010PropOp33
 70
     1
102
RTVSPost2010Prop34
280
     0
102
RTVSPost2010PropOp34
 70
     1
102
RTVSPost2010Prop35
280
     0
102
RTVSPost2010PropOp35
 70
     1
102
RTVSPost2010Prop36
280
     0
102
RTVSPost2010PropOp36
 70
     1
102
RTVSPost2010Prop37
 90
       50
102
RTVSPost2010PropOp37
 70
     1
102
RTVSPost2010Prop38
140
0.0
102
RTVSPost2010PropOp38
 70
     1
102
RTVSPost2010Prop39
140
1.0
102
RTVSPost2010PropOp39
 70
     1
102
RTVSPost2010Prop40
 90
        0
102
RTVSPost2010PropOp40
 70
     1
102
RTVSPost2010Prop41ColorIndex
 90
       18
102
RTVSPost2010Prop41ColorRGB
 90
        0
102
RTVSPost2010PropOp41
 70
     1
102
RTVSPost2010Prop42
 90
       50
102
RTVSPost2010PropOp42
 70
     1
102
RTVSPost2010Prop43
 90
        3
102
RTVSPost2010PropOp43
 70
     1
102
RTVSPost2010Prop44ColorIndex
 90
        5
102
RTVSPost2010Prop44ColorRGB
 90
      255
102
RTVSPost2010PropOp44
 70
     1
102
RTVSPost2010Prop45
280
     0
102
RTVSPost2010PropOp45
 70
     1
102
RTVSPost2010Prop46
 90
       50
102
RTVSPost2010PropOp46
 70
     1
102
RTVSPost2010Prop47
 90
       50
102
RTVSPost2010PropOp47
 70
     1
102
RTVSPost2010Prop48
 90
       50
102
RTVSPost2010PropOp48
 70
     1
102
RTVSPost2010Prop49
280
     0
102
RTVSPost2010PropOp49
 70
     1
102
RTVSPost2010Prop50
 90
       50
102
RTVSPost2010PropOp50
 70
     1
102
RTVSPost2010Prop51ColorIndex
 90
      256
102
RTVSPost2010Prop51ColorRGB
 90
-16777216
102
RTVSPost2010PropOp51
 70
     0
102
RTVSPost2010Prop52
140
1.0
102
RTVSPost2010PropOp52
 70
     0
102
RTVSPost2010Prop53
 90
        2
102
RTVSPost2010PropOp53
 70
     1
102
RTVSPost2010Prop54
  1
strokes_ogs.tif
102
RTVSPost2010PropOp54
 70
     1
102
RTVSPost2010Prop55
280
     0
102
RTVSPost2010PropOp55
 70
     1
102
RTVSPost2010Prop56
140
1.0
102
RTVSPost2010PropOp56
 70
     1
102
RTVSPost2010Prop57
140
1.0
102
RTVSPost2010PropOp57
 70
     1
  0
XRECORD
  5
344
102
{ACAD_REACTORS
330
343
102
}
330
343
100
AcDbXrecord
280
     1
102
RTVSPropertyOp0
 70
     1
102
RTVSPropertyOp1
 70
     1
102
RTVSPropertyOp2
 70
     1
102
RTVSPropertyOp3
 70
     1
102
RTVSPropertyOp4
 70
     1
102
RTVSPropertyOp5
 70
     1
102
RTVSPropertyOp6
 70
     1
102
RTVSPropertyOp7
 70
     1
102
RTVSPropertyOp8
 70
     1
102
RTVSPropertyOp9
 70
     1
102
RTVSPropertyOp10
 70
     1
102
RTVSPropertyOp11
 70
     1
102
RTVSPropertyOp12
 70
     1
102
RTVSPropertyOp13
 70
     1
102
RTVSPropertyOp14
 70
     1
102
RTVSPropertyOp15
 70
     1
102
RTVSPropertyOp16
 70
     1
102
RTVSPropertyOp17
 70
     1
102
RTVSPropertyOp18
 70
     1
102
RTVSPropertyOp19
 70
     1
102
RTVSPropertyOp20
 70
     1
102
RTVSPropertyOp21
 70
     1
102
RTVSPropertyOp22
 70
     1
102
RTVSPropertyOp23
 70
     1
102
RTVSPropertyOp24
 70
     1
102
RTVSPropertyOp25
 70
     1
102
RTVSPropertyOp26
 70
     1
102
RTVSPropertyOp27
 70
     1
102
RTVSPropertyOp28
 70
     1
102
RTVSPropertyOp29
 70
     1
102
RTVSPropertyOp30
 70
     1
102
RTVSPropertyOp31
 70
     1
102
RTVSPropertyOp32
 70
     1
102
RTVSPropertyOp33
 70
     1
102
RTVSPropertyOp34
 70
     1
102
RTVSPropertyOp35
 70
     1
102
RTVSPropertyOp36
 70
     1
102
RTVSPropertyOp37
 70
     1
102
RTVSPropertyOp38
 70
     1
102
RTVSPropertyOp39
 70
     1
102
RTVSPropertyOp40
 70
     1
102
RTVSPropertyOp41
 70
     1
102
RTVSPropertyOp42
 70
     1
102
RTVSPropertyOp43
 70
     1
102
RTVSPropertyOp44
 70
     1
102
RTVSPropertyOp45
 70
     1
102
RTVSPropertyOp46
 70
     1
102
RTVSPropertyOp47
 70
     1
102
RTVSPropertyOp48
 70
     1
102
RTVSPropertyOp49
 70
     1
102
RTVSPropertyOp50
 70
     1
102
RTVSPropertyOp51
 70
     0
102
RTVSPropertyOp52
 70
     0
102
RTVSPropertyOp53
 70
     1
102
RTVSPropertyOp54
 70
     1
102
RTVSPropertyOp55
 70
     1
102
RTVSPropertyOp56
 70
     1
102
RTVSPropertyOp57
 70
     1
102
RTVSPost2010Prop28
280
     0
102
RTVSPost2010PropOp28
 70
     1
102
RTVSPost2010Prop29
280
     1
102
RTVSPost2010PropOp29
 70
     1
102
RTVSPost2010Prop30
280
     1
102
RTVSPost2010PropOp30
 70
     1
102
RTVSPost2010Prop31
280
     0
102
RTVSPost2010PropOp31
 70
     1
102
RTVSPost2010Prop32
280
     0
102
RTVSPost2010PropOp32
 70
     1
102
RTVSPost2010Prop33
280
     0
102
RTVSPost2010PropOp33
 70
     1
102
RTVSPost2010Prop34
280
     0
102
RTVSPost2010PropOp34
 70
     1
102
RTVSPost2010Prop35
280
     0
102
RTVSPost2010PropOp35
 70
     1
102
RTVSPost2010Prop36
280
     0
102
RTVSPost2010PropOp36
 70
     1
102
RTVSPost2010Prop37
 90
       50
102
RTVSPost2010PropOp37
 70
     1
102
RTVSPost2010Prop38
140
0.0
102
RTVSPost2010PropOp38
 70
     1
102
RTVSPost2010Prop39
140
1.0
102
RTVSPost2010PropOp39
 70
     1
102
RTVSPost2010Prop40
 90
        0
102
RTVSPost2010PropOp40
 70
     1
102
RTVSPost2010Prop41ColorIndex
 90
       18
102
RTVSPost2010Prop41ColorRGB
 90
        0
102
RTVSPost2010PropOp41
 70
     1
102
RTVSPost2010Prop42
 90
       50
102
RTVSPost2010PropOp42
 70
     1
102
RTVSPost2010Prop43
 90
        3
102
RTVSPost2010PropOp43
 70
     1
102
RTVSPost2010Prop44ColorIndex
 90
        5
102
RTVSPost2010Prop44ColorRGB
 90
      255
102
RTVSPost2010PropOp44
 70
     1
102
RTVSPost2010Prop45
280
     0
102
RTVSPost2010PropOp45
 70
     1
102
RTVSPost2010Prop46
 90
       50
102
RTVSPost2010PropOp46
 70
     1
102
RTVSPost2010Prop47
 90
       50
102
RTVSPost2010PropOp47
 70
     1
102
RTVSPost2010Prop48
 90
       50
102
RTVSPost2010PropOp48
 70
     1
102
RTVSPost2010Prop49
280
     0
102
RTVSPost2010PropOp49
 70
     1
102
RTVSPost2010Prop50
 90
       50
102
RTVSPost2010PropOp50
 70
     1
102
RTVSPost2010Prop51ColorIndex
 90
      256
102
RTVSPost2010Prop51ColorRGB
 90
-16777216
102
RTVSPost2010PropOp51
 70
     0
102
RTVSPost2010Prop52
140
1.0
102
RTVSPost2010PropOp52
 70
     0
102
RTVSPost2010Prop53
 90
        2
102
RTVSPost2010PropOp53
 70
     1
102
RTVSPost2010Prop54
  1
strokes_ogs.tif
102
RTVSPost2010PropOp54
 70
     1
102
RTVSPost2010Prop55
280
     0
102
RTVSPost2010PropOp55
 70
     1
102
RTVSPost2010Prop56
140
1.0
102
RTVSPost2010PropOp56
 70
     1
102
RTVSPost2010Prop57
140
1.0
102
RTVSPost2010PropOp57
 70
     1
  0
XRECORD
  5
346
102
{ACAD_REACTORS
330
345
102
}
330
345
100
AcDbXrecord
280
     1
102
RTVSPropertyOp0
 70
     1
102
RTVSPropertyOp1
 70
     1
102
RTVSPropertyOp2
 70
     1
102
RTVSPropertyOp3
 70
     1
102
RTVSPropertyOp4
 70
     1
102
RTVSPropertyOp5
 70
     1
102
RTVSPropertyOp6
 70
     1
102
RTVSPropertyOp7
 70
     1
102
RTVSPropertyOp8
 70
     1
102
RTVSPropertyOp9
 70
     1
102
RTVSPropertyOp10
 70
     1
102
RTVSPropertyOp11
 70
     1
102
RTVSPropertyOp12
 70
     1
102
RTVSPropertyOp13
 70
     1
102
RTVSPropertyOp14
 70
     1
102
RTVSPropertyOp15
 70
     1
102
RTVSPropertyOp16
 70
     1
102
RTVSPropertyOp17
 70
     1
102
RTVSPropertyOp18
 70
     1
102
RTVSPropertyOp19
 70
     1
102
RTVSPropertyOp20
 70
     1
102
RTVSPropertyOp21
 70
     1
102
RTVSPropertyOp22
 70
     1
102
RTVSPropertyOp23
 70
     1
102
RTVSPropertyOp24
 70
     1
102
RTVSPropertyOp25
 70
     1
102
RTVSPropertyOp26
 70
     1
102
RTVSPropertyOp27
 70
     1
102
RTVSPropertyOp28
 70
     1
102
RTVSPropertyOp29
 70
     1
102
RTVSPropertyOp30
 70
     1
102
RTVSPropertyOp31
 70
     1
102
RTVSPropertyOp32
 70
     1
102
RTVSPropertyOp33
 70
     1
102
RTVSPropertyOp34
 70
     1
102
RTVSPropertyOp35
 70
     1
102
RTVSPropertyOp36
 70
     1
102
RTVSPropertyOp37
 70
     1
102
RTVSPropertyOp38
 70
     1
102
RTVSPropertyOp39
 70
     1
102
RTVSPropertyOp40
 70
     1
102
RTVSPropertyOp41
 70
     1
102
RTVSPropertyOp42
 70
     1
102
RTVSPropertyOp43
 70
     1
102
RTVSPropertyOp44
 70
     1
102
RTVSPropertyOp45
 70
     1
102
RTVSPropertyOp46
 70
     1
102
RTVSPropertyOp47
 70
     1
102
RTVSPropertyOp48
 70
     1
102
RTVSPropertyOp49
 70
     1
102
RTVSPropertyOp50
 70
     1
102
RTVSPropertyOp51
 70
     0
102
RTVSPropertyOp52
 70
     0
102
RTVSPropertyOp53
 70
     1
102
RTVSPropertyOp54
 70
     1
102
RTVSPropertyOp55
 70
     1
102
RTVSPropertyOp56
 70
     1
102
RTVSPropertyOp57
 70
     1
102
RTVSPost2010Prop28
280
     0
102
RTVSPost2010PropOp28
 70
     1
102
RTVSPost2010Prop29
280
     1
102
RTVSPost2010PropOp29
 70
     1
102
RTVSPost2010Prop30
280
     1
102
RTVSPost2010PropOp30
 70
     1
102
RTVSPost2010Prop31
280
     0
102
RTVSPost2010PropOp31
 70
     1
102
RTVSPost2010Prop32
280
     0
102
RTVSPost2010PropOp32
 70
     1
102
RTVSPost2010Prop33
280
     0
102
RTVSPost2010PropOp33
 70
     1
102
RTVSPost2010Prop34
280
     0
102
RTVSPost2010PropOp34
 70
     1
102
RTVSPost2010Prop35
280
     0
102
RTVSPost2010PropOp35
 70
     1
102
RTVSPost2010Prop36
280
     0
102
RTVSPost2010PropOp36
 70
     1
102
RTVSPost2010Prop37
 90
       50
102
RTVSPost2010PropOp37
 70
     1
102
RTVSPost2010Prop38
140
0.0
102
RTVSPost2010PropOp38
 70
     1
102
RTVSPost2010Prop39
140
1.0
102
RTVSPost2010PropOp39
 70
     1
102
RTVSPost2010Prop40
 90
        0
102
RTVSPost2010PropOp40
 70
     1
102
RTVSPost2010Prop41ColorIndex
 90
       18
102
RTVSPost2010Prop41ColorRGB
 90
        0
102
RTVSPost2010PropOp41
 70
     1
102
RTVSPost2010Prop42
 90
       50
102
RTVSPost2010PropOp42
 70
     1
102
RTVSPost2010Prop43
 90
        3
102
RTVSPost2010PropOp43
 70
     1
102
RTVSPost2010Prop44ColorIndex
 90
        5
102
RTVSPost2010Prop44ColorRGB
 90
      255
102
RTVSPost2010PropOp44
 70
     1
102
RTVSPost2010Prop45
280
     0
102
RTVSPost2010PropOp45
 70
     1
102
RTVSPost2010Prop46
 90
       50
102
RTVSPost2010PropOp46
 70
     1
102
RTVSPost2010Prop47
 90
       50
102
RTVSPost2010PropOp47
 70
     1
102
RTVSPost2010Prop48
 90
       50
102
RTVSPost2010PropOp48
 70
     1
102
RTVSPost2010Prop49
280
     0
102
RTVSPost2010PropOp49
 70
     1
102
RTVSPost2010Prop50
 90
       50
102
RTVSPost2010PropOp50
 70
     1
102
RTVSPost2010Prop51ColorIndex
 90
      256
102
RTVSPost2010Prop51ColorRGB
 90
-16777216
102
RTVSPost2010PropOp51
 70
     0
102
RTVSPost2010Prop52
140
1.0
102
RTVSPost2010PropOp52
 70
     0
102
RTVSPost2010Prop53
 90
        2
102
RTVSPost2010PropOp53
 70
     1
102
RTVSPost2010Prop54
  1
strokes_ogs.tif
102
RTVSPost2010PropOp54
 70
     1
102
RTVSPost2010Prop55
280
     0
102
RTVSPost2010PropOp55
 70
     1
102
RTVSPost2010Prop56
140
1.0
102
RTVSPost2010PropOp56
 70
     1
102
RTVSPost2010Prop57
140
1.0
102
RTVSPost2010PropOp57
 70
     1
  0
XRECORD
  5
348
102
{ACAD_REACTORS
330
347
102
}
330
347
100
AcDbXrecord
280
     1
102
RTVSPropertyOp0
 70
     1
102
RTVSPropertyOp1
 70
     1
102
RTVSPropertyOp2
 70
     1
102
RTVSPropertyOp3
 70
     1
102
RTVSPropertyOp4
 70
     1
102
RTVSPropertyOp5
 70
     1
102
RTVSPropertyOp6
 70
     1
102
RTVSPropertyOp7
 70
     1
102
RTVSPropertyOp8
 70
     1
102
RTVSPropertyOp9
 70
     1
102
RTVSPropertyOp10
 70
     1
102
RTVSPropertyOp11
 70
     1
102
RTVSPropertyOp12
 70
     1
102
RTVSPropertyOp13
 70
     1
102
RTVSPropertyOp14
 70
     1
102
RTVSPropertyOp15
 70
     1
102
RTVSPropertyOp16
 70
     1
102
RTVSPropertyOp17
 70
     1
102
RTVSPropertyOp18
 70
     1
102
RTVSPropertyOp19
 70
     1
102
RTVSPropertyOp20
 70
     1
102
RTVSPropertyOp21
 70
     1
102
RTVSPropertyOp22
 70
     1
102
RTVSPropertyOp23
 70
     1
102
RTVSPropertyOp24
 70
     1
102
RTVSPropertyOp25
 70
     1
102
RTVSPropertyOp26
 70
     1
102
RTVSPropertyOp27
 70
     1
102
RTVSPropertyOp28
 70
     1
102
RTVSPropertyOp29
 70
     1
102
RTVSPropertyOp30
 70
     1
102
RTVSPropertyOp31
 70
     1
102
RTVSPropertyOp32
 70
     1
102
RTVSPropertyOp33
 70
     1
102
RTVSPropertyOp34
 70
     1
102
RTVSPropertyOp35
 70
     1
102
RTVSPropertyOp36
 70
     1
102
RTVSPropertyOp37
 70
     1
102
RTVSPropertyOp38
 70
     1
102
RTVSPropertyOp39
 70
     1
102
RTVSPropertyOp40
 70
     1
102
RTVSPropertyOp41
 70
     1
102
RTVSPropertyOp42
 70
     1
102
RTVSPropertyOp43
 70
     1
102
RTVSPropertyOp44
 70
     1
102
RTVSPropertyOp45
 70
     1
102
RTVSPropertyOp46
 70
     1
102
RTVSPropertyOp47
 70
     1
102
RTVSPropertyOp48
 70
     1
102
RTVSPropertyOp49
 70
     1
102
RTVSPropertyOp50
 70
     1
102
RTVSPropertyOp51
 70
     0
102
RTVSPropertyOp52
 70
     0
102
RTVSPropertyOp53
 70
     1
102
RTVSPropertyOp54
 70
     1
102
RTVSPropertyOp55
 70
     1
102
RTVSPropertyOp56
 70
     1
102
RTVSPropertyOp57
 70
     1
102
RTVSPost2010Prop28
280
     0
102
RTVSPost2010PropOp28
 70
     1
102
RTVSPost2010Prop29
280
     1
102
RTVSPost2010PropOp29
 70
     1
102
RTVSPost2010Prop30
280
     1
102
RTVSPost2010PropOp30
 70
     1
102
RTVSPost2010Prop31
280
     0
102
RTVSPost2010PropOp31
 70
     1
102
RTVSPost2010Prop32
280
     0
102
RTVSPost2010PropOp32
 70
     1
102
RTVSPost2010Prop33
280
     0
102
RTVSPost2010PropOp33
 70
     1
102
RTVSPost2010Prop34
280
     0
102
RTVSPost2010PropOp34
 70
     1
102
RTVSPost2010Prop35
280
     0
102
RTVSPost2010PropOp35
 70
     1
102
RTVSPost2010Prop36
280
     0
102
RTVSPost2010PropOp36
 70
     1
102
RTVSPost2010Prop37
 90
       50
102
RTVSPost2010PropOp37
 70
     1
102
RTVSPost2010Prop38
140
0.0
102
RTVSPost2010PropOp38
 70
     1
102
RTVSPost2010Prop39
140
1.0
102
RTVSPost2010PropOp39
 70
     1
102
RTVSPost2010Prop40
 90
        0
102
RTVSPost2010PropOp40
 70
     1
102
RTVSPost2010Prop41ColorIndex
 90
       18
102
RTVSPost2010Prop41ColorRGB
 90
        0
102
RTVSPost2010PropOp41
 70
     1
102
RTVSPost2010Prop42
 90
       50
102
RTVSPost2010PropOp42
 70
     1
102
RTVSPost2010Prop43
 90
        3
102
RTVSPost2010PropOp43
 70
     1
102
RTVSPost2010Prop44ColorIndex
 90
        5
102
RTVSPost2010Prop44ColorRGB
 90
      255
102
RTVSPost2010PropOp44
 70
     1
102
RTVSPost2010Prop45
280
     0
102
RTVSPost2010PropOp45
 70
     1
102
RTVSPost2010Prop46
 90
       50
102
RTVSPost2010PropOp46
 70
     1
102
RTVSPost2010Prop47
 90
       50
102
RTVSPost2010PropOp47
 70
     1
102
RTVSPost2010Prop48
 90
       50
102
RTVSPost2010PropOp48
 70
     1
102
RTVSPost2010Prop49
280
     0
102
RTVSPost2010PropOp49
 70
     1
102
RTVSPost2010Prop50
 90
       50
102
RTVSPost2010PropOp50
 70
     1
102
RTVSPost2010Prop51ColorIndex
 90
      256
102
RTVSPost2010Prop51ColorRGB
 90
-16777216
102
RTVSPost2010PropOp51
 70
     0
102
RTVSPost2010Prop52
140
1.0
102
RTVSPost2010PropOp52
 70
     0
102
RTVSPost2010Prop53
 90
        2
102
RTVSPost2010PropOp53
 70
     1
102
RTVSPost2010Prop54
  1
strokes_ogs.tif
102
RTVSPost2010PropOp54
 70
     1
102
RTVSPost2010Prop55
280
     0
102
RTVSPost2010PropOp55
 70
     1
102
RTVSPost2010Prop56
140
1.0
102
RTVSPost2010PropOp56
 70
     1
102
RTVSPost2010Prop57
140
1.0
102
RTVSPost2010PropOp57
 70
     1
  0
XRECORD
  5
34E
102
{ACAD_REACTORS
330
34D
102
}
330
34D
100
AcDbXrecord
280
     1
102
RTVSPropertyOp0
 70
     1
102
RTVSPropertyOp1
 70
     1
102
RTVSPropertyOp2
 70
     1
102
RTVSPropertyOp3
 70
     1
102
RTVSPropertyOp4
 70
     1
102
RTVSPropertyOp5
 70
     1
102
RTVSPropertyOp6
 70
     1
102
RTVSPropertyOp7
 70
     1
102
RTVSPropertyOp8
 70
     1
102
RTVSPropertyOp9
 70
     1
102
RTVSPropertyOp10
 70
     1
102
RTVSPropertyOp11
 70
     1
102
RTVSPropertyOp12
 70
     1
102
RTVSPropertyOp13
 70
     1
102
RTVSPropertyOp14
 70
     1
102
RTVSPropertyOp15
 70
     1
102
RTVSPropertyOp16
 70
     1
102
RTVSPropertyOp17
 70
     1
102
RTVSPropertyOp18
 70
     1
102
RTVSPropertyOp19
 70
     1
102
RTVSPropertyOp20
 70
     1
102
RTVSPropertyOp21
 70
     1
102
RTVSPropertyOp22
 70
     1
102
RTVSPropertyOp23
 70
     1
102
RTVSPropertyOp24
 70
     1
102
RTVSPropertyOp25
 70
     1
102
RTVSPropertyOp26
 70
     1
102
RTVSPropertyOp27
 70
     1
102
RTVSPropertyOp28
 70
     1
102
RTVSPropertyOp29
 70
     1
102
RTVSPropertyOp30
 70
     1
102
RTVSPropertyOp31
 70
     1
102
RTVSPropertyOp32
 70
     1
102
RTVSPropertyOp33
 70
     1
102
RTVSPropertyOp34
 70
     1
102
RTVSPropertyOp35
 70
     1
102
RTVSPropertyOp36
 70
     1
102
RTVSPropertyOp37
 70
     1
102
RTVSPropertyOp38
 70
     1
102
RTVSPropertyOp39
 70
     1
102
RTVSPropertyOp40
 70
     1
102
RTVSPropertyOp41
 70
     1
102
RTVSPropertyOp42
 70
     1
102
RTVSPropertyOp43
 70
     1
102
RTVSPropertyOp44
 70
     1
102
RTVSPropertyOp45
 70
     1
102
RTVSPropertyOp46
 70
     1
102
RTVSPropertyOp47
 70
     1
102
RTVSPropertyOp48
 70
     1
102
RTVSPropertyOp49
 70
     1
102
RTVSPropertyOp50
 70
     1
102
RTVSPropertyOp51
 70
     0
102
RTVSPropertyOp52
 70
     0
102
RTVSPropertyOp53
 70
     1
102
RTVSPropertyOp54
 70
     1
102
RTVSPropertyOp55
 70
     1
102
RTVSPropertyOp56
 70
     1
102
RTVSPropertyOp57
 70
     1
102
RTVSPost2010Prop28
280
     0
102
RTVSPost2010PropOp28
 70
     1
102
RTVSPost2010Prop29
280
     1
102
RTVSPost2010PropOp29
 70
     1
102
RTVSPost2010Prop30
280
     1
102
RTVSPost2010PropOp30
 70
     1
102
RTVSPost2010Prop31
280
     0
102
RTVSPost2010PropOp31
 70
     1
102
RTVSPost2010Prop32
280
     0
102
RTVSPost2010PropOp32
 70
     1
102
RTVSPost2010Prop33
280
     0
102
RTVSPost2010PropOp33
 70
     1
102
RTVSPost2010Prop34
280
     0
102
RTVSPost2010PropOp34
 70
     1
102
RTVSPost2010Prop35
280
     0
102
RTVSPost2010PropOp35
 70
     1
102
RTVSPost2010Prop36
280
     0
102
RTVSPost2010PropOp36
 70
     1
102
RTVSPost2010Prop37
 90
       50
102
RTVSPost2010PropOp37
 70
     1
102
RTVSPost2010Prop38
140
0.0
102
RTVSPost2010PropOp38
 70
     1
102
RTVSPost2010Prop39
140
1.0
102
RTVSPost2010PropOp39
 70
     1
102
RTVSPost2010Prop40
 90
        0
102
RTVSPost2010PropOp40
 70
     1
102
RTVSPost2010Prop41ColorIndex
 90
       18
102
RTVSPost2010Prop41ColorRGB
 90
        0
102
RTVSPost2010PropOp41
 70
     1
102
RTVSPost2010Prop42
 90
       50
102
RTVSPost2010PropOp42
 70
     1
102
RTVSPost2010Prop43
 90
        3
102
RTVSPost2010PropOp43
 70
     1
102
RTVSPost2010Prop44ColorIndex
 90
        5
102
RTVSPost2010Prop44ColorRGB
 90
      255
102
RTVSPost2010PropOp44
 70
     1
102
RTVSPost2010Prop45
280
     0
102
RTVSPost2010PropOp45
 70
     1
102
RTVSPost2010Prop46
 90
       50
102
RTVSPost2010PropOp46
 70
     1
102
RTVSPost2010Prop47
 90
       50
102
RTVSPost2010PropOp47
 70
     1
102
RTVSPost2010Prop48
 90
       50
102
RTVSPost2010PropOp48
 70
     1
102
RTVSPost2010Prop49
280
     0
102
RTVSPost2010PropOp49
 70
     1
102
RTVSPost2010Prop50
 90
       50
102
RTVSPost2010PropOp50
 70
     1
102
RTVSPost2010Prop51ColorIndex
 90
      256
102
RTVSPost2010Prop51ColorRGB
 90
-16777216
102
RTVSPost2010PropOp51
 70
     0
102
RTVSPost2010Prop52
140
1.0
102
RTVSPost2010PropOp52
 70
     0
102
RTVSPost2010Prop53
 90
        2
102
RTVSPost2010PropOp53
 70
     1
102
RTVSPost2010Prop54
  1
strokes_ogs.tif
102
RTVSPost2010PropOp54
 70
     1
102
RTVSPost2010Prop55
280
     0
102
RTVSPost2010PropOp55
 70
     1
102
RTVSPost2010Prop56
140
1.0
102
RTVSPost2010PropOp56
 70
     1
102
RTVSPost2010Prop57
140
1.0
102
RTVSPost2010PropOp57
 70
     1
  0
XRECORD
  5
362
102
{ACAD_REACTORS
330
361
102
}
330
361
100
AcDbXrecord
280
     1
102
RTVSPropertyOp0
 70
     0
102
RTVSPropertyOp1
 70
     0
102
RTVSPropertyOp2
 70
     0
102
RTVSPropertyOp3
 70
     0
102
RTVSPropertyOp4
 70
     0
102
RTVSPropertyOp5
 70
     0
102
RTVSPropertyOp6
 70
     0
102
RTVSPropertyOp7
 70
     0
102
RTVSPropertyOp8
 70
     0
102
RTVSPropertyOp9
 70
     0
102
RTVSPropertyOp10
 70
     0
102
RTVSPropertyOp11
 70
     0
102
RTVSPropertyOp12
 70
     0
102
RTVSPropertyOp13
 70
     0
102
RTVSPropertyOp14
 70
     2
102
RTVSPropertyOp15
 70
     0
102
RTVSPropertyOp16
 70
     0
102
RTVSPropertyOp17
 70
     0
102
RTVSPropertyOp18
 70
     0
102
RTVSPropertyOp19
 70
     0
102
RTVSPropertyOp20
 70
     0
102
RTVSPropertyOp21
 70
     0
102
RTVSPropertyOp22
 70
     0
102
RTVSPropertyOp23
 70
     0
102
RTVSPropertyOp24
 70
     0
102
RTVSPropertyOp25
 70
     0
102
RTVSPropertyOp26
 70
     0
102
RTVSPropertyOp27
 70
     0
102
RTVSPropertyOp28
 70
     0
102
RTVSPropertyOp29
 70
     0
102
RTVSPropertyOp30
 70
     0
102
RTVSPropertyOp31
 70
     0
102
RTVSPropertyOp32
 70
     0
102
RTVSPropertyOp33
 70
     0
102
RTVSPropertyOp34
 70
     0
102
RTVSPropertyOp35
 70
     0
102
RTVSPropertyOp36
 70
     0
102
RTVSPropertyOp37
 70
     0
102
RTVSPropertyOp38
 70
     0
102
RTVSPropertyOp39
 70
     0
102
RTVSPropertyOp40
 70
     0
102
RTVSPropertyOp41
 70
     0
102
RTVSPropertyOp42
 70
     0
102
RTVSPropertyOp43
 70
     0
102
RTVSPropertyOp44
 70
     0
102
RTVSPropertyOp45
 70
     0
102
RTVSPropertyOp46
 70
     0
102
RTVSPropertyOp47
 70
     0
102
RTVSPropertyOp48
 70
     0
102
RTVSPropertyOp49
 70
     0
102
RTVSPropertyOp50
 70
     0
102
RTVSPropertyOp51
 70
     0
102
RTVSPropertyOp52
 70
     0
102
RTVSPropertyOp53
 70
     0
102
RTVSPropertyOp54
 70
     0
102
RTVSPropertyOp55
 70
     0
102
RTVSPropertyOp56
 70
     0
102
RTVSPropertyOp57
 70
     0
102
RTVSPost2010Prop28
280
     0
102
RTVSPost2010PropOp28
 70
     0
102
RTVSPost2010Prop29
280
     1
102
RTVSPost2010PropOp29
 70
     0
102
RTVSPost2010Prop30
280
     1
102
RTVSPost2010PropOp30
 70
     0
102
RTVSPost2010Prop31
280
     0
102
RTVSPost2010PropOp31
 70
     0
102
RTVSPost2010Prop32
280
     0
102
RTVSPost2010PropOp32
 70
     0
102
RTVSPost2010Prop33
280
     0
102
RTVSPost2010PropOp33
 70
     0
102
RTVSPost2010Prop34
280
     0
102
RTVSPost2010PropOp34
 70
     0
102
RTVSPost2010Prop35
280
     0
102
RTVSPost2010PropOp35
 70
     0
102
RTVSPost2010Prop36
280
     0
102
RTVSPost2010PropOp36
 70
     0
102
RTVSPost2010Prop37
 90
       50
102
RTVSPost2010PropOp37
 70
     0
102
RTVSPost2010Prop38
140
0.0
102
RTVSPost2010PropOp38
 70
     0
102
RTVSPost2010Prop39
140
1.0
102
RTVSPost2010PropOp39
 70
     0
102
RTVSPost2010Prop40
 90
        0
102
RTVSPost2010PropOp40
 70
     0
102
RTVSPost2010Prop41ColorIndex
 90
       18
102
RTVSPost2010Prop41ColorRGB
 90
        0
102
RTVSPost2010PropOp41
 70
     0
102
RTVSPost2010Prop42
 90
       50
102
RTVSPost2010PropOp42
 70
     0
102
RTVSPost2010Prop43
 90
        3
102
RTVSPost2010PropOp43
 70
     0
102
RTVSPost2010Prop44ColorIndex
 90
        5
102
RTVSPost2010Prop44ColorRGB
 90
      255
102
RTVSPost2010PropOp44
 70
     0
102
RTVSPost2010Prop45
280
     0
102
RTVSPost2010PropOp45
 70
     0
102
RTVSPost2010Prop46
 90
       50
102
RTVSPost2010PropOp46
 70
     0
102
RTVSPost2010Prop47
 90
       50
102
RTVSPost2010PropOp47
 70
     0
102
RTVSPost2010Prop48
 90
       50
102
RTVSPost2010PropOp48
 70
     0
102
RTVSPost2010Prop49
280
     0
102
RTVSPost2010PropOp49
 70
     0
102
RTVSPost2010Prop50
 90
       50
102
RTVSPost2010PropOp50
 70
     0
102
RTVSPost2010Prop51ColorIndex
 90
      256
102
RTVSPost2010Prop51ColorRGB
 90
-16777216
102
RTVSPost2010PropOp51
 70
     0
102
RTVSPost2010Prop52
140
1.0
102
RTVSPost2010PropOp52
 70
     0
102
RTVSPost2010Prop53
 90
        2
102
RTVSPost2010PropOp53
 70
     0
102
RTVSPost2010Prop54
  1
strokes_ogs.tif
102
RTVSPost2010PropOp54
 70
     0
102
RTVSPost2010Prop55
280
     0
102
RTVSPost2010PropOp55
 70
     0
102
RTVSPost2010Prop56
140
1.0
102
RTVSPost2010PropOp56
 70
     0
102
RTVSPost2010Prop57
140
1.0
102
RTVSPost2010PropOp57
 70
     0
  0
XRECORD
  5
35C
102
{ACAD_REACTORS
330
35B
102
}
330
35B
100
AcDbXrecord
280
     1
102
RTVSPropertyOp0
 70
     1
102
RTVSPropertyOp1
 70
     1
102
RTVSPropertyOp2
 70
     1
102
RTVSPropertyOp3
 70
     1
102
RTVSPropertyOp4
 70
     1
102
RTVSPropertyOp5
 70
     1
102
RTVSPropertyOp6
 70
     1
102
RTVSPropertyOp7
 70
     1
102
RTVSPropertyOp8
 70
     1
102
RTVSPropertyOp9
 70
     1
102
RTVSPropertyOp10
 70
     1
102
RTVSPropertyOp11
 70
     1
102
RTVSPropertyOp12
 70
     1
102
RTVSPropertyOp13
 70
     1
102
RTVSPropertyOp14
 70
     1
102
RTVSPropertyOp15
 70
     1
102
RTVSPropertyOp16
 70
     1
102
RTVSPropertyOp17
 70
     1
102
RTVSPropertyOp18
 70
     1
102
RTVSPropertyOp19
 70
     1
102
RTVSPropertyOp20
 70
     1
102
RTVSPropertyOp21
 70
     1
102
RTVSPropertyOp22
 70
     1
102
RTVSPropertyOp23
 70
     1
102
RTVSPropertyOp24
 70
     1
102
RTVSPropertyOp25
 70
     1
102
RTVSPropertyOp26
 70
     1
102
RTVSPropertyOp27
 70
     1
102
RTVSPropertyOp28
 70
     1
102
RTVSPropertyOp29
 70
     1
102
RTVSPropertyOp30
 70
     1
102
RTVSPropertyOp31
 70
     1
102
RTVSPropertyOp32
 70
     1
102
RTVSPropertyOp33
 70
     1
102
RTVSPropertyOp34
 70
     1
102
RTVSPropertyOp35
 70
     1
102
RTVSPropertyOp36
 70
     1
102
RTVSPropertyOp37
 70
     1
102
RTVSPropertyOp38
 70
     1
102
RTVSPropertyOp39
 70
     1
102
RTVSPropertyOp40
 70
     1
102
RTVSPropertyOp41
 70
     1
102
RTVSPropertyOp42
 70
     1
102
RTVSPropertyOp43
 70
     1
102
RTVSPropertyOp44
 70
     1
102
RTVSPropertyOp45
 70
     1
102
RTVSPropertyOp46
 70
     1
102
RTVSPropertyOp47
 70
     1
102
RTVSPropertyOp48
 70
     1
102
RTVSPropertyOp49
 70
     1
102
RTVSPropertyOp50
 70
     1
102
RTVSPropertyOp51
 70
     0
102
RTVSPropertyOp52
 70
     0
102
RTVSPropertyOp53
 70
     1
102
RTVSPropertyOp54
 70
     1
102
RTVSPropertyOp55
 70
     1
102
RTVSPropertyOp56
 70
     1
102
RTVSPropertyOp57
 70
     1
102
RTVSPost2010Prop28
280
     0
102
RTVSPost2010PropOp28
 70
     1
102
RTVSPost2010Prop29
280
     1
102
RTVSPost2010PropOp29
 70
     1
102
RTVSPost2010Prop30
280
     1
102
RTVSPost2010PropOp30
 70
     1
102
RTVSPost2010Prop31
280
     0
102
RTVSPost2010PropOp31
 70
     1
102
RTVSPost2010Prop32
280
     0
102
RTVSPost2010PropOp32
 70
     1
102
RTVSPost2010Prop33
280
     0
102
RTVSPost2010PropOp33
 70
     1
102
RTVSPost2010Prop34
280
     0
102
RTVSPost2010PropOp34
 70
     1
102
RTVSPost2010Prop35
280
     0
102
RTVSPost2010PropOp35
 70
     1
102
RTVSPost2010Prop36
280
     0
102
RTVSPost2010PropOp36
 70
     1
102
RTVSPost2010Prop37
 90
       50
102
RTVSPost2010PropOp37
 70
     1
102
RTVSPost2010Prop38
140
0.0
102
RTVSPost2010PropOp38
 70
     1
102
RTVSPost2010Prop39
140
1.0
102
RTVSPost2010PropOp39
 70
     1
102
RTVSPost2010Prop40
 90
        0
102
RTVSPost2010PropOp40
 70
     1
102
RTVSPost2010Prop41ColorIndex
 90
       18
102
RTVSPost2010Prop41ColorRGB
 90
        0
102
RTVSPost2010PropOp41
 70
     1
102
RTVSPost2010Prop42
 90
       50
102
RTVSPost2010PropOp42
 70
     1
102
RTVSPost2010Prop43
 90
        3
102
RTVSPost2010PropOp43
 70
     1
102
RTVSPost2010Prop44ColorIndex
 90
        5
102
RTVSPost2010Prop44ColorRGB
 90
      255
102
RTVSPost2010PropOp44
 70
     1
102
RTVSPost2010Prop45
280
     0
102
RTVSPost2010PropOp45
 70
     1
102
RTVSPost2010Prop46
 90
       50
102
RTVSPost2010PropOp46
 70
     1
102
RTVSPost2010Prop47
 90
       50
102
RTVSPost2010PropOp47
 70
     1
102
RTVSPost2010Prop48
 90
       50
102
RTVSPost2010PropOp48
 70
     1
102
RTVSPost2010Prop49
280
     0
102
RTVSPost2010PropOp49
 70
     1
102
RTVSPost2010Prop50
 90
       50
102
RTVSPost2010PropOp50
 70
     1
102
RTVSPost2010Prop51ColorIndex
 90
      256
102
RTVSPost2010Prop51ColorRGB
 90
-16777216
102
RTVSPost2010PropOp51
 70
     0
102
RTVSPost2010Prop52
140
1.0
102
RTVSPost2010PropOp52
 70
     0
102
RTVSPost2010Prop53
 90
        2
102
RTVSPost2010PropOp53
 70
     1
102
RTVSPost2010Prop54
  1
strokes_ogs.tif
102
RTVSPost2010PropOp54
 70
     1
102
RTVSPost2010Prop55
280
     0
102
RTVSPost2010PropOp55
 70
     1
102
RTVSPost2010Prop56
140
1.0
102
RTVSPost2010PropOp56
 70
     1
102
RTVSPost2010Prop57
140
1.0
102
RTVSPost2010PropOp57
 70
     1
  0
XRECORD
  5
364
102
{ACAD_REACTORS
330
363
102
}
330
363
100
AcDbXrecord
280
     1
102
RTVSPropertyOp0
 70
     0
102
RTVSPropertyOp1
 70
     0
102
RTVSPropertyOp2
 70
     0
102
RTVSPropertyOp3
 70
     0
102
RTVSPropertyOp4
 70
     0
102
RTVSPropertyOp5
 70
     0
102
RTVSPropertyOp6
 70
     0
102
RTVSPropertyOp7
 70
     0
102
RTVSPropertyOp8
 70
     0
102
RTVSPropertyOp9
 70
     0
102
RTVSPropertyOp10
 70
     0
102
RTVSPropertyOp11
 70
     0
102
RTVSPropertyOp12
 70
     0
102
RTVSPropertyOp13
 70
     0
102
RTVSPropertyOp14
 70
     2
102
RTVSPropertyOp15
 70
     0
102
RTVSPropertyOp16
 70
     0
102
RTVSPropertyOp17
 70
     0
102
RTVSPropertyOp18
 70
     0
102
RTVSPropertyOp19
 70
     0
102
RTVSPropertyOp20
 70
     0
102
RTVSPropertyOp21
 70
     0
102
RTVSPropertyOp22
 70
     0
102
RTVSPropertyOp23
 70
     0
102
RTVSPropertyOp24
 70
     0
102
RTVSPropertyOp25
 70
     0
102
RTVSPropertyOp26
 70
     0
102
RTVSPropertyOp27
 70
     0
102
RTVSPropertyOp28
 70
     0
102
RTVSPropertyOp29
 70
     0
102
RTVSPropertyOp30
 70
     0
102
RTVSPropertyOp31
 70
     0
102
RTVSPropertyOp32
 70
     0
102
RTVSPropertyOp33
 70
     0
102
RTVSPropertyOp34
 70
     0
102
RTVSPropertyOp35
 70
     0
102
RTVSPropertyOp36
 70
     0
102
RTVSPropertyOp37
 70
     0
102
RTVSPropertyOp38
 70
     0
102
RTVSPropertyOp39
 70
     0
102
RTVSPropertyOp40
 70
     0
102
RTVSPropertyOp41
 70
     0
102
RTVSPropertyOp42
 70
     0
102
RTVSPropertyOp43
 70
     0
102
RTVSPropertyOp44
 70
     0
102
RTVSPropertyOp45
 70
     0
102
RTVSPropertyOp46
 70
     0
102
RTVSPropertyOp47
 70
     0
102
RTVSPropertyOp48
 70
     0
102
RTVSPropertyOp49
 70
     0
102
RTVSPropertyOp50
 70
     0
102
RTVSPropertyOp51
 70
     0
102
RTVSPropertyOp52
 70
     0
102
RTVSPropertyOp53
 70
     0
102
RTVSPropertyOp54
 70
     0
102
RTVSPropertyOp55
 70
     0
102
RTVSPropertyOp56
 70
     0
102
RTVSPropertyOp57
 70
     0
102
RTVSPost2010Prop28
280
     0
102
RTVSPost2010PropOp28
 70
     0
102
RTVSPost2010Prop29
280
     1
102
RTVSPost2010PropOp29
 70
     0
102
RTVSPost2010Prop30
280
     1
102
RTVSPost2010PropOp30
 70
     0
102
RTVSPost2010Prop31
280
     0
102
RTVSPost2010PropOp31
 70
     0
102
RTVSPost2010Prop32
280
     0
102
RTVSPost2010PropOp32
 70
     0
102
RTVSPost2010Prop33
280
     0
102
RTVSPost2010PropOp33
 70
     0
102
RTVSPost2010Prop34
280
     0
102
RTVSPost2010PropOp34
 70
     0
102
RTVSPost2010Prop35
280
     0
102
RTVSPost2010PropOp35
 70
     0
102
RTVSPost2010Prop36
280
     0
102
RTVSPost2010PropOp36
 70
     0
102
RTVSPost2010Prop37
 90
       50
102
RTVSPost2010PropOp37
 70
     0
102
RTVSPost2010Prop38
140
0.0
102
RTVSPost2010PropOp38
 70
     0
102
RTVSPost2010Prop39
140
1.0
102
RTVSPost2010PropOp39
 70
     0
102
RTVSPost2010Prop40
 90
        0
102
RTVSPost2010PropOp40
 70
     0
102
RTVSPost2010Prop41ColorIndex
 90
       18
102
RTVSPost2010Prop41ColorRGB
 90
        0
102
RTVSPost2010PropOp41
 70
     0
102
RTVSPost2010Prop42
 90
       50
102
RTVSPost2010PropOp42
 70
     0
102
RTVSPost2010Prop43
 90
        3
102
RTVSPost2010PropOp43
 70
     0
102
RTVSPost2010Prop44ColorIndex
 90
        5
102
RTVSPost2010Prop44ColorRGB
 90
      255
102
RTVSPost2010PropOp44
 70
     0
102
RTVSPost2010Prop45
280
     0
102
RTVSPost2010PropOp45
 70
     0
102
RTVSPost2010Prop46
 90
       50
102
RTVSPost2010PropOp46
 70
     0
102
RTVSPost2010Prop47
 90
       50
102
RTVSPost2010PropOp47
 70
     0
102
RTVSPost2010Prop48
 90
       50
102
RTVSPost2010PropOp48
 70
     0
102
RTVSPost2010Prop49
280
     0
102
RTVSPost2010PropOp49
 70
     0
102
RTVSPost2010Prop50
 90
       50
102
RTVSPost2010PropOp50
 70
     0
102
RTVSPost2010Prop51ColorIndex
 90
      256
102
RTVSPost2010Prop51ColorRGB
 90
-16777216
102
RTVSPost2010PropOp51
 70
     0
102
RTVSPost2010Prop52
140
1.0
102
RTVSPost2010PropOp52
 70
     0
102
RTVSPost2010Prop53
 90
        2
102
RTVSPost2010PropOp53
 70
     0
102
RTVSPost2010Prop54
  1
strokes_ogs.tif
102
RTVSPost2010PropOp54
 70
     0
102
RTVSPost2010Prop55
280
     0
102
RTVSPost2010PropOp55
 70
     0
102
RTVSPost2010Prop56
140
1.0
102
RTVSPost2010PropOp56
 70
     0
102
RTVSPost2010Prop57
140
1.0
102
RTVSPost2010PropOp57
 70
     0
  0
XRECORD
  5
352
102
{ACAD_REACTORS
330
351
102
}
330
351
100
AcDbXrecord
280
     1
102
RTVSPropertyOp0
 70
     1
102
RTVSPropertyOp1
 70
     1
102
RTVSPropertyOp2
 70
     1
102
RTVSPropertyOp3
 70
     1
102
RTVSPropertyOp4
 70
     1
102
RTVSPropertyOp5
 70
     1
102
RTVSPropertyOp6
 70
     1
102
RTVSPropertyOp7
 70
     1
102
RTVSPropertyOp8
 70
     1
102
RTVSPropertyOp9
 70
     1
102
RTVSPropertyOp10
 70
     1
102
RTVSPropertyOp11
 70
     1
102
RTVSPropertyOp12
 70
     1
102
RTVSPropertyOp13
 70
     1
102
RTVSPropertyOp14
 70
     1
102
RTVSPropertyOp15
 70
     1
102
RTVSPropertyOp16
 70
     1
102
RTVSPropertyOp17
 70
     1
102
RTVSPropertyOp18
 70
     1
102
RTVSPropertyOp19
 70
     1
102
RTVSPropertyOp20
 70
     1
102
RTVSPropertyOp21
 70
     1
102
RTVSPropertyOp22
 70
     1
102
RTVSPropertyOp23
 70
     1
102
RTVSPropertyOp24
 70
     1
102
RTVSPropertyOp25
 70
     1
102
RTVSPropertyOp26
 70
     1
102
RTVSPropertyOp27
 70
     1
102
RTVSPropertyOp28
 70
     1
102
RTVSPropertyOp29
 70
     1
102
RTVSPropertyOp30
 70
     1
102
RTVSPropertyOp31
 70
     1
102
RTVSPropertyOp32
 70
     1
102
RTVSPropertyOp33
 70
     1
102
RTVSPropertyOp34
 70
     1
102
RTVSPropertyOp35
 70
     1
102
RTVSPropertyOp36
 70
     1
102
RTVSPropertyOp37
 70
     1
102
RTVSPropertyOp38
 70
     1
102
RTVSPropertyOp39
 70
     1
102
RTVSPropertyOp40
 70
     1
102
RTVSPropertyOp41
 70
     1
102
RTVSPropertyOp42
 70
     1
102
RTVSPropertyOp43
 70
     1
102
RTVSPropertyOp44
 70
     1
102
RTVSPropertyOp45
 70
     1
102
RTVSPropertyOp46
 70
     1
102
RTVSPropertyOp47
 70
     1
102
RTVSPropertyOp48
 70
     1
102
RTVSPropertyOp49
 70
     1
102
RTVSPropertyOp50
 70
     1
102
RTVSPropertyOp51
 70
     0
102
RTVSPropertyOp52
 70
     0
102
RTVSPropertyOp53
 70
     1
102
RTVSPropertyOp54
 70
     1
102
RTVSPropertyOp55
 70
     1
102
RTVSPropertyOp56
 70
     1
102
RTVSPropertyOp57
 70
     1
102
RTVSPost2010Prop28
280
     0
102
RTVSPost2010PropOp28
 70
     1
102
RTVSPost2010Prop29
280
     1
102
RTVSPost2010PropOp29
 70
     1
102
RTVSPost2010Prop30
280
     1
102
RTVSPost2010PropOp30
 70
     1
102
RTVSPost2010Prop31
280
     0
102
RTVSPost2010PropOp31
 70
     1
102
RTVSPost2010Prop32
280
     0
102
RTVSPost2010PropOp32
 70
     1
102
RTVSPost2010Prop33
280
     0
102
RTVSPost2010PropOp33
 70
     1
102
RTVSPost2010Prop34
280
     0
102
RTVSPost2010PropOp34
 70
     1
102
RTVSPost2010Prop35
280
     0
102
RTVSPost2010PropOp35
 70
     1
102
RTVSPost2010Prop36
280
     0
102
RTVSPost2010PropOp36
 70
     1
102
RTVSPost2010Prop37
 90
       50
102
RTVSPost2010PropOp37
 70
     1
102
RTVSPost2010Prop38
140
0.0
102
RTVSPost2010PropOp38
 70
     1
102
RTVSPost2010Prop39
140
1.0
102
RTVSPost2010PropOp39
 70
     1
102
RTVSPost2010Prop40
 90
        0
102
RTVSPost2010PropOp40
 70
     1
102
RTVSPost2010Prop41ColorIndex
 90
       18
102
RTVSPost2010Prop41ColorRGB
 90
        0
102
RTVSPost2010PropOp41
 70
     1
102
RTVSPost2010Prop42
 90
       50
102
RTVSPost2010PropOp42
 70
     1
102
RTVSPost2010Prop43
 90
        3
102
RTVSPost2010PropOp43
 70
     1
102
RTVSPost2010Prop44ColorIndex
 90
        5
102
RTVSPost2010Prop44ColorRGB
 90
      255
102
RTVSPost2010PropOp44
 70
     1
102
RTVSPost2010Prop45
280
     0
102
RTVSPost2010PropOp45
 70
     1
102
RTVSPost2010Prop46
 90
       50
102
RTVSPost2010PropOp46
 70
     1
102
RTVSPost2010Prop47
 90
       50
102
RTVSPost2010PropOp47
 70
     1
102
RTVSPost2010Prop48
 90
       50
102
RTVSPost2010PropOp48
 70
     1
102
RTVSPost2010Prop49
280
     0
102
RTVSPost2010PropOp49
 70
     1
102
RTVSPost2010Prop50
 90
       50
102
RTVSPost2010PropOp50
 70
     1
102
RTVSPost2010Prop51ColorIndex
 90
      256
102
RTVSPost2010Prop51ColorRGB
 90
-16777216
102
RTVSPost2010PropOp51
 70
     0
102
RTVSPost2010Prop52
140
1.0
102
RTVSPost2010PropOp52
 70
     0
102
RTVSPost2010Prop53
 90
        2
102
RTVSPost2010PropOp53
 70
     1
102
RTVSPost2010Prop54
  1
strokes_ogs.tif
102
RTVSPost2010PropOp54
 70
     1
102
RTVSPost2010Prop55
280
     0
102
RTVSPost2010PropOp55
 70
     1
102
RTVSPost2010Prop56
140
1.0
102
RTVSPost2010PropOp56
 70
     1
102
RTVSPost2010Prop57
140
1.0
102
RTVSPost2010PropOp57
 70
     1
  0
XRECORD
  5
370
102
{ACAD_REACTORS
330
36F
102
}
330
36F
100
AcDbXrecord
280
     1
102
RTVSPropertyOp0
 70
     1
102
RTVSPropertyOp1
 70
     1
102
RTVSPropertyOp2
 70
     1
102
RTVSPropertyOp3
 70
     1
102
RTVSPropertyOp4
 70
     1
102
RTVSPropertyOp5
 70
     1
102
RTVSPropertyOp6
 70
     1
102
RTVSPropertyOp7
 70
     1
102
RTVSPropertyOp8
 70
     1
102
RTVSPropertyOp9
 70
     1
102
RTVSPropertyOp10
 70
     1
102
RTVSPropertyOp11
 70
     1
102
RTVSPropertyOp12
 70
     1
102
RTVSPropertyOp13
 70
     1
102
RTVSPropertyOp14
 70
     1
102
RTVSPropertyOp15
 70
     1
102
RTVSPropertyOp16
 70
     1
102
RTVSPropertyOp17
 70
     1
102
RTVSPropertyOp18
 70
     1
102
RTVSPropertyOp19
 70
     1
102
RTVSPropertyOp20
 70
     1
102
RTVSPropertyOp21
 70
     1
102
RTVSPropertyOp22
 70
     1
102
RTVSPropertyOp23
 70
     1
102
RTVSPropertyOp24
 70
     1
102
RTVSPropertyOp25
 70
     1
102
RTVSPropertyOp26
 70
     1
102
RTVSPropertyOp27
 70
     1
102
RTVSPropertyOp28
 70
     1
102
RTVSPropertyOp29
 70
     1
102
RTVSPropertyOp30
 70
     1
102
RTVSPropertyOp31
 70
     1
102
RTVSPropertyOp32
 70
     1
102
RTVSPropertyOp33
 70
     1
102
RTVSPropertyOp34
 70
     1
102
RTVSPropertyOp35
 70
     1
102
RTVSPropertyOp36
 70
     1
102
RTVSPropertyOp37
 70
     1
102
RTVSPropertyOp38
 70
     1
102
RTVSPropertyOp39
 70
     1
102
RTVSPropertyOp40
 70
     1
102
RTVSPropertyOp41
 70
     1
102
RTVSPropertyOp42
 70
     1
102
RTVSPropertyOp43
 70
     1
102
RTVSPropertyOp44
 70
     1
102
RTVSPropertyOp45
 70
     1
102
RTVSPropertyOp46
 70
     1
102
RTVSPropertyOp47
 70
     1
102
RTVSPropertyOp48
 70
     1
102
RTVSPropertyOp49
 70
     1
102
RTVSPropertyOp50
 70
     1
102
RTVSPropertyOp51
 70
     0
102
RTVSPropertyOp52
 70
     0
102
RTVSPropertyOp53
 70
     1
102
RTVSPropertyOp54
 70
     1
102
RTVSPropertyOp55
 70
     1
102
RTVSPropertyOp56
 70
     1
102
RTVSPropertyOp57
 70
     1
102
RTVSPost2010Prop28
280
     0
102
RTVSPost2010PropOp28
 70
     1
102
RTVSPost2010Prop29
280
     1
102
RTVSPost2010PropOp29
 70
     1
102
RTVSPost2010Prop30
280
     1
102
RTVSPost2010PropOp30
 70
     1
102
RTVSPost2010Prop31
280
     0
102
RTVSPost2010PropOp31
 70
     1
102
RTVSPost2010Prop32
280
     0
102
RTVSPost2010PropOp32
 70
     1
102
RTVSPost2010Prop33
280
     0
102
RTVSPost2010PropOp33
 70
     1
102
RTVSPost2010Prop34
280
     0
102
RTVSPost2010PropOp34
 70
     1
102
RTVSPost2010Prop35
280
     0
102
RTVSPost2010PropOp35
 70
     1
102
RTVSPost2010Prop36
280
     0
102
RTVSPost2010PropOp36
 70
     1
102
RTVSPost2010Prop37
 90
       50
102
RTVSPost2010PropOp37
 70
     1
102
RTVSPost2010Prop38
140
0.0
102
RTVSPost2010PropOp38
 70
     1
102
RTVSPost2010Prop39
140
1.0
102
RTVSPost2010PropOp39
 70
     1
102
RTVSPost2010Prop40
 90
        0
102
RTVSPost2010PropOp40
 70
     1
102
RTVSPost2010Prop41ColorIndex
 90
       18
102
RTVSPost2010Prop41ColorRGB
 90
        0
102
RTVSPost2010PropOp41
 70
     1
102
RTVSPost2010Prop42
 90
       50
102
RTVSPost2010PropOp42
 70
     1
102
RTVSPost2010Prop43
 90
        3
102
RTVSPost2010PropOp43
 70
     1
102
RTVSPost2010Prop44ColorIndex
 90
        5
102
RTVSPost2010Prop44ColorRGB
 90
      255
102
RTVSPost2010PropOp44
 70
     1
102
RTVSPost2010Prop45
280
     0
102
RTVSPost2010PropOp45
 70
     1
102
RTVSPost2010Prop46
 90
       50
102
RTVSPost2010PropOp46
 70
     1
102
RTVSPost2010Prop47
 90
       50
102
RTVSPost2010PropOp47
 70
     1
102
RTVSPost2010Prop48
 90
       50
102
RTVSPost2010PropOp48
 70
     1
102
RTVSPost2010Prop49
280
     0
102
RTVSPost2010PropOp49
 70
     1
102
RTVSPost2010Prop50
 90
       50
102
RTVSPost2010PropOp50
 70
     1
102
RTVSPost2010Prop51ColorIndex
 90
      256
102
RTVSPost2010Prop51ColorRGB
 90
-16777216
102
RTVSPost2010PropOp51
 70
     0
102
RTVSPost2010Prop52
140
1.0
102
RTVSPost2010PropOp52
 70
     0
102
RTVSPost2010Prop53
 90
        2
102
RTVSPost2010PropOp53
 70
     1
102
RTVSPost2010Prop54
  1
strokes_ogs.tif
102
RTVSPost2010PropOp54
 70
     1
102
RTVSPost2010Prop55
280
     0
102
RTVSPost2010PropOp55
 70
     1
102
RTVSPost2010Prop56
140
1.0
102
RTVSPost2010PropOp56
 70
     1
102
RTVSPost2010Prop57
140
1.0
102
RTVSPost2010PropOp57
 70
     1
  0
XRECORD
  5
36E
102
{ACAD_REACTORS
330
36D
102
}
330
36D
100
AcDbXrecord
280
     1
102
RTVSPropertyOp0
 70
     1
102
RTVSPropertyOp1
 70
     1
102
RTVSPropertyOp2
 70
     1
102
RTVSPropertyOp3
 70
     1
102
RTVSPropertyOp4
 70
     1
102
RTVSPropertyOp5
 70
     1
102
RTVSPropertyOp6
 70
     1
102
RTVSPropertyOp7
 70
     1
102
RTVSPropertyOp8
 70
     1
102
RTVSPropertyOp9
 70
     1
102
RTVSPropertyOp10
 70
     1
102
RTVSPropertyOp11
 70
     1
102
RTVSPropertyOp12
 70
     1
102
RTVSPropertyOp13
 70
     1
102
RTVSPropertyOp14
 70
     1
102
RTVSPropertyOp15
 70
     1
102
RTVSPropertyOp16
 70
     1
102
RTVSPropertyOp17
 70
     1
102
RTVSPropertyOp18
 70
     1
102
RTVSPropertyOp19
 70
     1
102
RTVSPropertyOp20
 70
     1
102
RTVSPropertyOp21
 70
     1
102
RTVSPropertyOp22
 70
     1
102
RTVSPropertyOp23
 70
     1
102
RTVSPropertyOp24
 70
     1
102
RTVSPropertyOp25
 70
     1
102
RTVSPropertyOp26
 70
     1
102
RTVSPropertyOp27
 70
     1
102
RTVSPropertyOp28
 70
     1
102
RTVSPropertyOp29
 70
     1
102
RTVSPropertyOp30
 70
     1
102
RTVSPropertyOp31
 70
     1
102
RTVSPropertyOp32
 70
     1
102
RTVSPropertyOp33
 70
     1
102
RTVSPropertyOp34
 70
     1
102
RTVSPropertyOp35
 70
     1
102
RTVSPropertyOp36
 70
     1
102
RTVSPropertyOp37
 70
     1
102
RTVSPropertyOp38
 70
     1
102
RTVSPropertyOp39
 70
     1
102
RTVSPropertyOp40
 70
     1
102
RTVSPropertyOp41
 70
     1
102
RTVSPropertyOp42
 70
     1
102
RTVSPropertyOp43
 70
     1
102
RTVSPropertyOp44
 70
     1
102
RTVSPropertyOp45
 70
     1
102
RTVSPropertyOp46
 70
     1
102
RTVSPropertyOp47
 70
     1
102
RTVSPropertyOp48
 70
     1
102
RTVSPropertyOp49
 70
     1
102
RTVSPropertyOp50
 70
     1
102
RTVSPropertyOp51
 70
     0
102
RTVSPropertyOp52
 70
     0
102
RTVSPropertyOp53
 70
     1
102
RTVSPropertyOp54
 70
     1
102
RTVSPropertyOp55
 70
     1
102
RTVSPropertyOp56
 70
     1
102
RTVSPropertyOp57
 70
     1
102
RTVSPost2010Prop28
280
     0
102
RTVSPost2010PropOp28
 70
     1
102
RTVSPost2010Prop29
280
     1
102
RTVSPost2010PropOp29
 70
     1
102
RTVSPost2010Prop30
280
     1
102
RTVSPost2010PropOp30
 70
     1
102
RTVSPost2010Prop31
280
     0
102
RTVSPost2010PropOp31
 70
     1
102
RTVSPost2010Prop32
280
     0
102
RTVSPost2010PropOp32
 70
     1
102
RTVSPost2010Prop33
280
     0
102
RTVSPost2010PropOp33
 70
     1
102
RTVSPost2010Prop34
280
     0
102
RTVSPost2010PropOp34
 70
     1
102
RTVSPost2010Prop35
280
     0
102
RTVSPost2010PropOp35
 70
     1
102
RTVSPost2010Prop36
280
     0
102
RTVSPost2010PropOp36
 70
     1
102
RTVSPost2010Prop37
 90
       50
102
RTVSPost2010PropOp37
 70
     1
102
RTVSPost2010Prop38
140
0.0
102
RTVSPost2010PropOp38
 70
     1
102
RTVSPost2010Prop39
140
1.0
102
RTVSPost2010PropOp39
 70
     1
102
RTVSPost2010Prop40
 90
        0
102
RTVSPost2010PropOp40
 70
     1
102
RTVSPost2010Prop41ColorIndex
 90
       18
102
RTVSPost2010Prop41ColorRGB
 90
        0
102
RTVSPost2010PropOp41
 70
     1
102
RTVSPost2010Prop42
 90
       50
102
RTVSPost2010PropOp42
 70
     1
102
RTVSPost2010Prop43
 90
        3
102
RTVSPost2010PropOp43
 70
     1
102
RTVSPost2010Prop44ColorIndex
 90
        5
102
RTVSPost2010Prop44ColorRGB
 90
      255
102
RTVSPost2010PropOp44
 70
     1
102
RTVSPost2010Prop45
280
     0
102
RTVSPost2010PropOp45
 70
     1
102
RTVSPost2010Prop46
 90
       50
102
RTVSPost2010PropOp46
 70
     1
102
RTVSPost2010Prop47
 90
       50
102
RTVSPost2010PropOp47
 70
     1
102
RTVSPost2010Prop48
 90
       50
102
RTVSPost2010PropOp48
 70
     1
102
RTVSPost2010Prop49
280
     0
102
RTVSPost2010PropOp49
 70
     1
102
RTVSPost2010Prop50
 90
       50
102
RTVSPost2010PropOp50
 70
     1
102
RTVSPost2010Prop51ColorIndex
 90
      256
102
RTVSPost2010Prop51ColorRGB
 90
-16777216
102
RTVSPost2010PropOp51
 70
     0
102
RTVSPost2010Prop52
140
1.0
102
RTVSPost2010PropOp52
 70
     0
102
RTVSPost2010Prop53
 90
        2
102
RTVSPost2010PropOp53
 70
     1
102
RTVSPost2010Prop54
  1
strokes_ogs.tif
102
RTVSPost2010PropOp54
 70
     1
102
RTVSPost2010Prop55
280
     0
102
RTVSPost2010PropOp55
 70
     1
102
RTVSPost2010Prop56
140
1.0
102
RTVSPost2010PropOp56
 70
     1
102
RTVSPost2010Prop57
140
1.0
102
RTVSPost2010PropOp57
 70
     1
  0
XRECORD
  5
368
102
{ACAD_REACTORS
330
367
102
}
330
367
100
AcDbXrecord
280
     1
102
RTVSPropertyOp0
 70
     1
102
RTVSPropertyOp1
 70
     1
102
RTVSPropertyOp2
 70
     1
102
RTVSPropertyOp3
 70
     1
102
RTVSPropertyOp4
 70
     1
102
RTVSPropertyOp5
 70
     1
102
RTVSPropertyOp6
 70
     1
102
RTVSPropertyOp7
 70
     1
102
RTVSPropertyOp8
 70
     1
102
RTVSPropertyOp9
 70
     1
102
RTVSPropertyOp10
 70
     1
102
RTVSPropertyOp11
 70
     1
102
RTVSPropertyOp12
 70
     1
102
RTVSPropertyOp13
 70
     1
102
RTVSPropertyOp14
 70
     1
102
RTVSPropertyOp15
 70
     1
102
RTVSPropertyOp16
 70
     1
102
RTVSPropertyOp17
 70
     1
102
RTVSPropertyOp18
 70
     1
102
RTVSPropertyOp19
 70
     1
102
RTVSPropertyOp20
 70
     1
102
RTVSPropertyOp21
 70
     1
102
RTVSPropertyOp22
 70
     1
102
RTVSPropertyOp23
 70
     1
102
RTVSPropertyOp24
 70
     1
102
RTVSPropertyOp25
 70
     1
102
RTVSPropertyOp26
 70
     1
102
RTVSPropertyOp27
 70
     1
102
RTVSPropertyOp28
 70
     1
102
RTVSPropertyOp29
 70
     1
102
RTVSPropertyOp30
 70
     1
102
RTVSPropertyOp31
 70
     1
102
RTVSPropertyOp32
 70
     1
102
RTVSPropertyOp33
 70
     1
102
RTVSPropertyOp34
 70
     1
102
RTVSPropertyOp35
 70
     1
102
RTVSPropertyOp36
 70
     1
102
RTVSPropertyOp37
 70
     1
102
RTVSPropertyOp38
 70
     1
102
RTVSPropertyOp39
 70
     1
102
RTVSPropertyOp40
 70
     1
102
RTVSPropertyOp41
 70
     1
102
RTVSPropertyOp42
 70
     1
102
RTVSPropertyOp43
 70
     1
102
RTVSPropertyOp44
 70
     1
102
RTVSPropertyOp45
 70
     1
102
RTVSPropertyOp46
 70
     1
102
RTVSPropertyOp47
 70
     1
102
RTVSPropertyOp48
 70
     1
102
RTVSPropertyOp49
 70
     1
102
RTVSPropertyOp50
 70
     1
102
RTVSPropertyOp51
 70
     0
102
RTVSPropertyOp52
 70
     0
102
RTVSPropertyOp53
 70
     1
102
RTVSPropertyOp54
 70
     1
102
RTVSPropertyOp55
 70
     1
102
RTVSPropertyOp56
 70
     1
102
RTVSPropertyOp57
 70
     1
102
RTVSPost2010Prop28
280
     0
102
RTVSPost2010PropOp28
 70
     1
102
RTVSPost2010Prop29
280
     1
102
RTVSPost2010PropOp29
 70
     1
102
RTVSPost2010Prop30
280
     1
102
RTVSPost2010PropOp30
 70
     1
102
RTVSPost2010Prop31
280
     0
102
RTVSPost2010PropOp31
 70
     1
102
RTVSPost2010Prop32
280
     0
102
RTVSPost2010PropOp32
 70
     1
102
RTVSPost2010Prop33
280
     0
102
RTVSPost2010PropOp33
 70
     1
102
RTVSPost2010Prop34
280
     0
102
RTVSPost2010PropOp34
 70
     1
102
RTVSPost2010Prop35
280
     0
102
RTVSPost2010PropOp35
 70
     1
102
RTVSPost2010Prop36
280
     0
102
RTVSPost2010PropOp36
 70
     1
102
RTVSPost2010Prop37
 90
       50
102
RTVSPost2010PropOp37
 70
     1
102
RTVSPost2010Prop38
140
0.0
102
RTVSPost2010PropOp38
 70
     1
102
RTVSPost2010Prop39
140
1.0
102
RTVSPost2010PropOp39
 70
     1
102
RTVSPost2010Prop40
 90
        0
102
RTVSPost2010PropOp40
 70
     1
102
RTVSPost2010Prop41ColorIndex
 90
       18
102
RTVSPost2010Prop41ColorRGB
 90
        0
102
RTVSPost2010PropOp41
 70
     1
102
RTVSPost2010Prop42
 90
       50
102
RTVSPost2010PropOp42
 70
     1
102
RTVSPost2010Prop43
 90
        3
102
RTVSPost2010PropOp43
 70
     1
102
RTVSPost2010Prop44ColorIndex
 90
        5
102
RTVSPost2010Prop44ColorRGB
 90
      255
102
RTVSPost2010PropOp44
 70
     1
102
RTVSPost2010Prop45
280
     0
102
RTVSPost2010PropOp45
 70
     1
102
RTVSPost2010Prop46
 90
       50
102
RTVSPost2010PropOp46
 70
     1
102
RTVSPost2010Prop47
 90
       50
102
RTVSPost2010PropOp47
 70
     1
102
RTVSPost2010Prop48
 90
       50
102
RTVSPost2010PropOp48
 70
     1
102
RTVSPost2010Prop49
280
     0
102
RTVSPost2010PropOp49
 70
     1
102
RTVSPost2010Prop50
 90
       50
102
RTVSPost2010PropOp50
 70
     1
102
RTVSPost2010Prop51ColorIndex
 90
      256
102
RTVSPost2010Prop51ColorRGB
 90
-16777216
102
RTVSPost2010PropOp51
 70
     0
102
RTVSPost2010Prop52
140
1.0
102
RTVSPost2010PropOp52
 70
     0
102
RTVSPost2010Prop53
 90
        2
102
RTVSPost2010PropOp53
 70
     1
102
RTVSPost2010Prop54
  1
strokes_ogs.tif
102
RTVSPost2010PropOp54
 70
     1
102
RTVSPost2010Prop55
280
     0
102
RTVSPost2010PropOp55
 70
     1
102
RTVSPost2010Prop56
140
1.0
102
RTVSPost2010PropOp56
 70
     1
102
RTVSPost2010Prop57
140
1.0
102
RTVSPost2010PropOp57
 70
     1
  0
XRECORD
  5
36A
102
{ACAD_REACTORS
330
369
102
}
330
369
100
AcDbXrecord
280
     1
102
RTVSPropertyOp0
 70
     1
102
RTVSPropertyOp1
 70
     1
102
RTVSPropertyOp2
 70
     1
102
RTVSPropertyOp3
 70
     1
102
RTVSPropertyOp4
 70
     1
102
RTVSPropertyOp5
 70
     1
102
RTVSPropertyOp6
 70
     1
102
RTVSPropertyOp7
 70
     1
102
RTVSPropertyOp8
 70
     1
102
RTVSPropertyOp9
 70
     1
102
RTVSPropertyOp10
 70
     1
102
RTVSPropertyOp11
 70
     1
102
RTVSPropertyOp12
 70
     1
102
RTVSPropertyOp13
 70
     1
102
RTVSPropertyOp14
 70
     1
102
RTVSPropertyOp15
 70
     1
102
RTVSPropertyOp16
 70
     1
102
RTVSPropertyOp17
 70
     1
102
RTVSPropertyOp18
 70
     1
102
RTVSPropertyOp19
 70
     1
102
RTVSPropertyOp20
 70
     1
102
RTVSPropertyOp21
 70
     1
102
RTVSPropertyOp22
 70
     1
102
RTVSPropertyOp23
 70
     1
102
RTVSPropertyOp24
 70
     1
102
RTVSPropertyOp25
 70
     1
102
RTVSPropertyOp26
 70
     1
102
RTVSPropertyOp27
 70
     1
102
RTVSPropertyOp28
 70
     1
102
RTVSPropertyOp29
 70
     1
102
RTVSPropertyOp30
 70
     1
102
RTVSPropertyOp31
 70
     1
102
RTVSPropertyOp32
 70
     1
102
RTVSPropertyOp33
 70
     1
102
RTVSPropertyOp34
 70
     1
102
RTVSPropertyOp35
 70
     1
102
RTVSPropertyOp36
 70
     1
102
RTVSPropertyOp37
 70
     1
102
RTVSPropertyOp38
 70
     1
102
RTVSPropertyOp39
 70
     1
102
RTVSPropertyOp40
 70
     1
102
RTVSPropertyOp41
 70
     1
102
RTVSPropertyOp42
 70
     1
102
RTVSPropertyOp43
 70
     1
102
RTVSPropertyOp44
 70
     1
102
RTVSPropertyOp45
 70
     1
102
RTVSPropertyOp46
 70
     1
102
RTVSPropertyOp47
 70
     1
102
RTVSPropertyOp48
 70
     1
102
RTVSPropertyOp49
 70
     1
102
RTVSPropertyOp50
 70
     1
102
RTVSPropertyOp51
 70
     0
102
RTVSPropertyOp52
 70
     0
102
RTVSPropertyOp53
 70
     1
102
RTVSPropertyOp54
 70
     1
102
RTVSPropertyOp55
 70
     1
102
RTVSPropertyOp56
 70
     1
102
RTVSPropertyOp57
 70
     1
102
RTVSPost2010Prop28
280
     0
102
RTVSPost2010PropOp28
 70
     1
102
RTVSPost2010Prop29
280
     1
102
RTVSPost2010PropOp29
 70
     1
102
RTVSPost2010Prop30
280
     1
102
RTVSPost2010PropOp30
 70
     1
102
RTVSPost2010Prop31
280
     0
102
RTVSPost2010PropOp31
 70
     1
102
RTVSPost2010Prop32
280
     0
102
RTVSPost2010PropOp32
 70
     1
102
RTVSPost2010Prop33
280
     0
102
RTVSPost2010PropOp33
 70
     1
102
RTVSPost2010Prop34
280
     0
102
RTVSPost2010PropOp34
 70
     1
102
RTVSPost2010Prop35
280
     0
102
RTVSPost2010PropOp35
 70
     1
102
RTVSPost2010Prop36
280
     0
102
RTVSPost2010PropOp36
 70
     1
102
RTVSPost2010Prop37
 90
       50
102
RTVSPost2010PropOp37
 70
     1
102
RTVSPost2010Prop38
140
0.0
102
RTVSPost2010PropOp38
 70
     1
102
RTVSPost2010Prop39
140
1.0
102
RTVSPost2010PropOp39
 70
     1
102
RTVSPost2010Prop40
 90
        0
102
RTVSPost2010PropOp40
 70
     1
102
RTVSPost2010Prop41ColorIndex
 90
       18
102
RTVSPost2010Prop41ColorRGB
 90
        0
102
RTVSPost2010PropOp41
 70
     1
102
RTVSPost2010Prop42
 90
       50
102
RTVSPost2010PropOp42
 70
     1
102
RTVSPost2010Prop43
 90
        3
102
RTVSPost2010PropOp43
 70
     1
102
RTVSPost2010Prop44ColorIndex
 90
        5
102
RTVSPost2010Prop44ColorRGB
 90
      255
102
RTVSPost2010PropOp44
 70
     1
102
RTVSPost2010Prop45
280
     0
102
RTVSPost2010PropOp45
 70
     1
102
RTVSPost2010Prop46
 90
       50
102
RTVSPost2010PropOp46
 70
     1
102
RTVSPost2010Prop47
 90
       50
102
RTVSPost2010PropOp47
 70
     1
102
RTVSPost2010Prop48
 90
       50
102
RTVSPost2010PropOp48
 70
     1
102
RTVSPost2010Prop49
280
     0
102
RTVSPost2010PropOp49
 70
     1
102
RTVSPost2010Prop50
 90
       50
102
RTVSPost2010PropOp50
 70
     1
102
RTVSPost2010Prop51ColorIndex
 90
      256
102
RTVSPost2010Prop51ColorRGB
 90
-16777216
102
RTVSPost2010PropOp51
 70
     0
102
RTVSPost2010Prop52
140
1.0
102
RTVSPost2010PropOp52
 70
     0
102
RTVSPost2010Prop53
 90
        2
102
RTVSPost2010PropOp53
 70
     1
102
RTVSPost2010Prop54
  1
strokes_ogs.tif
102
RTVSPost2010PropOp54
 70
     1
102
RTVSPost2010Prop55
280
     0
102
RTVSPost2010PropOp55
 70
     1
102
RTVSPost2010Prop56
140
1.0
102
RTVSPost2010PropOp56
 70
     1
102
RTVSPost2010Prop57
140
1.0
102
RTVSPost2010PropOp57
 70
     1
  0
XRECORD
  5
35A
102
{ACAD_REACTORS
330
359
102
}
330
359
100
AcDbXrecord
280
     1
102
RTVSPropertyOp0
 70
     1
102
RTVSPropertyOp1
 70
     1
102
RTVSPropertyOp2
 70
     1
102
RTVSPropertyOp3
 70
     1
102
RTVSPropertyOp4
 70
     1
102
RTVSPropertyOp5
 70
     1
102
RTVSPropertyOp6
 70
     1
102
RTVSPropertyOp7
 70
     1
102
RTVSPropertyOp8
 70
     1
102
RTVSPropertyOp9
 70
     1
102
RTVSPropertyOp10
 70
     1
102
RTVSPropertyOp11
 70
     1
102
RTVSPropertyOp12
 70
     1
102
RTVSPropertyOp13
 70
     1
102
RTVSPropertyOp14
 70
     1
102
RTVSPropertyOp15
 70
     1
102
RTVSPropertyOp16
 70
     1
102
RTVSPropertyOp17
 70
     1
102
RTVSPropertyOp18
 70
     1
102
RTVSPropertyOp19
 70
     1
102
RTVSPropertyOp20
 70
     1
102
RTVSPropertyOp21
 70
     1
102
RTVSPropertyOp22
 70
     1
102
RTVSPropertyOp23
 70
     1
102
RTVSPropertyOp24
 70
     1
102
RTVSPropertyOp25
 70
     1
102
RTVSPropertyOp26
 70
     1
102
RTVSPropertyOp27
 70
     1
102
RTVSPropertyOp28
 70
     1
102
RTVSPropertyOp29
 70
     1
102
RTVSPropertyOp30
 70
     1
102
RTVSPropertyOp31
 70
     1
102
RTVSPropertyOp32
 70
     1
102
RTVSPropertyOp33
 70
     1
102
RTVSPropertyOp34
 70
     1
102
RTVSPropertyOp35
 70
     1
102
RTVSPropertyOp36
 70
     1
102
RTVSPropertyOp37
 70
     1
102
RTVSPropertyOp38
 70
     1
102
RTVSPropertyOp39
 70
     1
102
RTVSPropertyOp40
 70
     1
102
RTVSPropertyOp41
 70
     1
102
RTVSPropertyOp42
 70
     1
102
RTVSPropertyOp43
 70
     1
102
RTVSPropertyOp44
 70
     1
102
RTVSPropertyOp45
 70
     1
102
RTVSPropertyOp46
 70
     1
102
RTVSPropertyOp47
 70
     1
102
RTVSPropertyOp48
 70
     1
102
RTVSPropertyOp49
 70
     1
102
RTVSPropertyOp50
 70
     1
102
RTVSPropertyOp51
 70
     0
102
RTVSPropertyOp52
 70
     0
102
RTVSPropertyOp53
 70
     1
102
RTVSPropertyOp54
 70
     1
102
RTVSPropertyOp55
 70
     1
102
RTVSPropertyOp56
 70
     1
102
RTVSPropertyOp57
 70
     1
102
RTVSPost2010Prop28
280
     0
102
RTVSPost2010PropOp28
 70
     1
102
RTVSPost2010Prop29
280
     1
102
RTVSPost2010PropOp29
 70
     1
102
RTVSPost2010Prop30
280
     1
102
RTVSPost2010PropOp30
 70
     1
102
RTVSPost2010Prop31
280
     0
102
RTVSPost2010PropOp31
 70
     1
102
RTVSPost2010Prop32
280
     0
102
RTVSPost2010PropOp32
 70
     1
102
RTVSPost2010Prop33
280
     0
102
RTVSPost2010PropOp33
 70
     1
102
RTVSPost2010Prop34
280
     0
102
RTVSPost2010PropOp34
 70
     1
102
RTVSPost2010Prop35
280
     0
102
RTVSPost2010PropOp35
 70
     1
102
RTVSPost2010Prop36
280
     0
102
RTVSPost2010PropOp36
 70
     1
102
RTVSPost2010Prop37
 90
       50
102
RTVSPost2010PropOp37
 70
     1
102
RTVSPost2010Prop38
140
0.0
102
RTVSPost2010PropOp38
 70
     1
102
RTVSPost2010Prop39
140
1.0
102
RTVSPost2010PropOp39
 70
     1
102
RTVSPost2010Prop40
 90
        0
102
RTVSPost2010PropOp40
 70
     1
102
RTVSPost2010Prop41ColorIndex
 90
       18
102
RTVSPost2010Prop41ColorRGB
 90
        0
102
RTVSPost2010PropOp41
 70
     1
102
RTVSPost2010Prop42
 90
       50
102
RTVSPost2010PropOp42
 70
     1
102
RTVSPost2010Prop43
 90
        3
102
RTVSPost2010PropOp43
 70
     1
102
RTVSPost2010Prop44ColorIndex
 90
        5
102
RTVSPost2010Prop44ColorRGB
 90
      255
102
RTVSPost2010PropOp44
 70
     1
102
RTVSPost2010Prop45
280
     0
102
RTVSPost2010PropOp45
 70
     1
102
RTVSPost2010Prop46
 90
       50
102
RTVSPost2010PropOp46
 70
     1
102
RTVSPost2010Prop47
 90
       50
102
RTVSPost2010PropOp47
 70
     1
102
RTVSPost2010Prop48
 90
       50
102
RTVSPost2010PropOp48
 70
     1
102
RTVSPost2010Prop49
280
     0
102
RTVSPost2010PropOp49
 70
     1
102
RTVSPost2010Prop50
 90
       50
102
RTVSPost2010PropOp50
 70
     1
102
RTVSPost2010Prop51ColorIndex
 90
      256
102
RTVSPost2010Prop51ColorRGB
 90
-16777216
102
RTVSPost2010PropOp51
 70
     0
102
RTVSPost2010Prop52
140
1.0
102
RTVSPost2010PropOp52
 70
     0
102
RTVSPost2010Prop53
 90
        2
102
RTVSPost2010PropOp53
 70
     1
102
RTVSPost2010Prop54
  1
strokes_ogs.tif
102
RTVSPost2010PropOp54
 70
     1
102
RTVSPost2010Prop55
280
     0
102
RTVSPost2010PropOp55
 70
     1
102
RTVSPost2010Prop56
140
1.0
102
RTVSPost2010PropOp56
 70
     1
102
RTVSPost2010Prop57
140
1.0
102
RTVSPost2010PropOp57
 70
     1
  0
XRECORD
  5
34C
102
{ACAD_REACTORS
330
34B
102
}
330
34B
100
AcDbXrecord
280
     1
102
RTVSPropertyOp0
 70
     1
102
RTVSPropertyOp1
 70
     1
102
RTVSPropertyOp2
 70
     1
102
RTVSPropertyOp3
 70
     1
102
RTVSPropertyOp4
 70
     1
102
RTVSPropertyOp5
 70
     1
102
RTVSPropertyOp6
 70
     1
102
RTVSPropertyOp7
 70
     1
102
RTVSPropertyOp8
 70
     1
102
RTVSPropertyOp9
 70
     1
102
RTVSPropertyOp10
 70
     1
102
RTVSPropertyOp11
 70
     1
102
RTVSPropertyOp12
 70
     1
102
RTVSPropertyOp13
 70
     1
102
RTVSPropertyOp14
 70
     1
102
RTVSPropertyOp15
 70
     1
102
RTVSPropertyOp16
 70
     1
102
RTVSPropertyOp17
 70
     1
102
RTVSPropertyOp18
 70
     1
102
RTVSPropertyOp19
 70
     1
102
RTVSPropertyOp20
 70
     1
102
RTVSPropertyOp21
 70
     1
102
RTVSPropertyOp22
 70
     1
102
RTVSPropertyOp23
 70
     1
102
RTVSPropertyOp24
 70
     1
102
RTVSPropertyOp25
 70
     1
102
RTVSPropertyOp26
 70
     1
102
RTVSPropertyOp27
 70
     1
102
RTVSPropertyOp28
 70
     1
102
RTVSPropertyOp29
 70
     1
102
RTVSPropertyOp30
 70
     1
102
RTVSPropertyOp31
 70
     1
102
RTVSPropertyOp32
 70
     1
102
RTVSPropertyOp33
 70
     1
102
RTVSPropertyOp34
 70
     1
102
RTVSPropertyOp35
 70
     1
102
RTVSPropertyOp36
 70
     1
102
RTVSPropertyOp37
 70
     1
102
RTVSPropertyOp38
 70
     1
102
RTVSPropertyOp39
 70
     1
102
RTVSPropertyOp40
 70
     1
102
RTVSPropertyOp41
 70
     1
102
RTVSPropertyOp42
 70
     1
102
RTVSPropertyOp43
 70
     1
102
RTVSPropertyOp44
 70
     1
102
RTVSPropertyOp45
 70
     1
102
RTVSPropertyOp46
 70
     1
102
RTVSPropertyOp47
 70
     1
102
RTVSPropertyOp48
 70
     1
102
RTVSPropertyOp49
 70
     1
102
RTVSPropertyOp50
 70
     1
102
RTVSPropertyOp51
 70
     0
102
RTVSPropertyOp52
 70
     0
102
RTVSPropertyOp53
 70
     1
102
RTVSPropertyOp54
 70
     1
102
RTVSPropertyOp55
 70
     1
102
RTVSPropertyOp56
 70
     1
102
RTVSPropertyOp57
 70
     1
102
RTVSPost2010Prop28
280
     0
102
RTVSPost2010PropOp28
 70
     1
102
RTVSPost2010Prop29
280
     1
102
RTVSPost2010PropOp29
 70
     1
102
RTVSPost2010Prop30
280
     1
102
RTVSPost2010PropOp30
 70
     1
102
RTVSPost2010Prop31
280
     0
102
RTVSPost2010PropOp31
 70
     1
102
RTVSPost2010Prop32
280
     0
102
RTVSPost2010PropOp32
 70
     1
102
RTVSPost2010Prop33
280
     0
102
RTVSPost2010PropOp33
 70
     1
102
RTVSPost2010Prop34
280
     0
102
RTVSPost2010PropOp34
 70
     1
102
RTVSPost2010Prop35
280
     0
102
RTVSPost2010PropOp35
 70
     1
102
RTVSPost2010Prop36
280
     0
102
RTVSPost2010PropOp36
 70
     1
102
RTVSPost2010Prop37
 90
       50
102
RTVSPost2010PropOp37
 70
     1
102
RTVSPost2010Prop38
140
0.0
102
RTVSPost2010PropOp38
 70
     1
102
RTVSPost2010Prop39
140
1.0
102
RTVSPost2010PropOp39
 70
     1
102
RTVSPost2010Prop40
 90
        0
102
RTVSPost2010PropOp40
 70
     1
102
RTVSPost2010Prop41ColorIndex
 90
       18
102
RTVSPost2010Prop41ColorRGB
 90
        0
102
RTVSPost2010PropOp41
 70
     1
102
RTVSPost2010Prop42
 90
       50
102
RTVSPost2010PropOp42
 70
     1
102
RTVSPost2010Prop43
 90
        3
102
RTVSPost2010PropOp43
 70
     1
102
RTVSPost2010Prop44ColorIndex
 90
        5
102
RTVSPost2010Prop44ColorRGB
 90
      255
102
RTVSPost2010PropOp44
 70
     1
102
RTVSPost2010Prop45
280
     0
102
RTVSPost2010PropOp45
 70
     1
102
RTVSPost2010Prop46
 90
       50
102
RTVSPost2010PropOp46
 70
     1
102
RTVSPost2010Prop47
 90
       50
102
RTVSPost2010PropOp47
 70
     1
102
RTVSPost2010Prop48
 90
       50
102
RTVSPost2010PropOp48
 70
     1
102
RTVSPost2010Prop49
280
     0
102
RTVSPost2010PropOp49
 70
     1
102
RTVSPost2010Prop50
 90
       50
102
RTVSPost2010PropOp50
 70
     1
102
RTVSPost2010Prop51ColorIndex
 90
      256
102
RTVSPost2010Prop51ColorRGB
 90
-16777216
102
RTVSPost2010PropOp51
 70
     0
102
RTVSPost2010Prop52
140
1.0
102
RTVSPost2010PropOp52
 70
     0
102
RTVSPost2010Prop53
 90
        2
102
RTVSPost2010PropOp53
 70
     1
102
RTVSPost2010Prop54
  1
strokes_ogs.tif
102
RTVSPost2010PropOp54
 70
     1
102
RTVSPost2010Prop55
280
     0
102
RTVSPost2010PropOp55
 70
     1
102
RTVSPost2010Prop56
140
1.0
102
RTVSPost2010PropOp56
 70
     1
102
RTVSPost2010Prop57
140
1.0
102
RTVSPost2010PropOp57
 70
     1
  0
XRECORD
  5
36C
102
{ACAD_REACTORS
330
36B
102
}
330
36B
100
AcDbXrecord
280
     1
102
RTVSPropertyOp0
 70
     1
102
RTVSPropertyOp1
 70
     1
102
RTVSPropertyOp2
 70
     1
102
RTVSPropertyOp3
 70
     1
102
RTVSPropertyOp4
 70
     1
102
RTVSPropertyOp5
 70
     1
102
RTVSPropertyOp6
 70
     1
102
RTVSPropertyOp7
 70
     1
102
RTVSPropertyOp8
 70
     1
102
RTVSPropertyOp9
 70
     1
102
RTVSPropertyOp10
 70
     1
102
RTVSPropertyOp11
 70
     1
102
RTVSPropertyOp12
 70
     1
102
RTVSPropertyOp13
 70
     1
102
RTVSPropertyOp14
 70
     1
102
RTVSPropertyOp15
 70
     1
102
RTVSPropertyOp16
 70
     1
102
RTVSPropertyOp17
 70
     1
102
RTVSPropertyOp18
 70
     1
102
RTVSPropertyOp19
 70
     1
102
RTVSPropertyOp20
 70
     1
102
RTVSPropertyOp21
 70
     1
102
RTVSPropertyOp22
 70
     1
102
RTVSPropertyOp23
 70
     1
102
RTVSPropertyOp24
 70
     1
102
RTVSPropertyOp25
 70
     1
102
RTVSPropertyOp26
 70
     1
102
RTVSPropertyOp27
 70
     1
102
RTVSPropertyOp28
 70
     1
102
RTVSPropertyOp29
 70
     1
102
RTVSPropertyOp30
 70
     1
102
RTVSPropertyOp31
 70
     1
102
RTVSPropertyOp32
 70
     1
102
RTVSPropertyOp33
 70
     1
102
RTVSPropertyOp34
 70
     1
102
RTVSPropertyOp35
 70
     1
102
RTVSPropertyOp36
 70
     1
102
RTVSPropertyOp37
 70
     1
102
RTVSPropertyOp38
 70
     1
102
RTVSPropertyOp39
 70
     1
102
RTVSPropertyOp40
 70
     1
102
RTVSPropertyOp41
 70
     1
102
RTVSPropertyOp42
 70
     1
102
RTVSPropertyOp43
 70
     1
102
RTVSPropertyOp44
 70
     1
102
RTVSPropertyOp45
 70
     1
102
RTVSPropertyOp46
 70
     1
102
RTVSPropertyOp47
 70
     1
102
RTVSPropertyOp48
 70
     1
102
RTVSPropertyOp49
 70
     1
102
RTVSPropertyOp50
 70
     1
102
RTVSPropertyOp51
 70
     0
102
RTVSPropertyOp52
 70
     0
102
RTVSPropertyOp53
 70
     1
102
RTVSPropertyOp54
 70
     1
102
RTVSPropertyOp55
 70
     1
102
RTVSPropertyOp56
 70
     1
102
RTVSPropertyOp57
 70
     1
102
RTVSPost2010Prop28
280
     0
102
RTVSPost2010PropOp28
 70
     1
102
RTVSPost2010Prop29
280
     1
102
RTVSPost2010PropOp29
 70
     1
102
RTVSPost2010Prop30
280
     1
102
RTVSPost2010PropOp30
 70
     1
102
RTVSPost2010Prop31
280
     0
102
RTVSPost2010PropOp31
 70
     1
102
RTVSPost2010Prop32
280
     0
102
RTVSPost2010PropOp32
 70
     1
102
RTVSPost2010Prop33
280
     0
102
RTVSPost2010PropOp33
 70
     1
102
RTVSPost2010Prop34
280
     0
102
RTVSPost2010PropOp34
 70
     1
102
RTVSPost2010Prop35
280
     0
102
RTVSPost2010PropOp35
 70
     1
102
RTVSPost2010Prop36
280
     0
102
RTVSPost2010PropOp36
 70
     1
102
RTVSPost2010Prop37
 90
       50
102
RTVSPost2010PropOp37
 70
     1
102
RTVSPost2010Prop38
140
0.0
102
RTVSPost2010PropOp38
 70
     1
102
RTVSPost2010Prop39
140
1.0
102
RTVSPost2010PropOp39
 70
     1
102
RTVSPost2010Prop40
 90
        0
102
RTVSPost2010PropOp40
 70
     1
102
RTVSPost2010Prop41ColorIndex
 90
       18
102
RTVSPost2010Prop41ColorRGB
 90
        0
102
RTVSPost2010PropOp41
 70
     1
102
RTVSPost2010Prop42
 90
       50
102
RTVSPost2010PropOp42
 70
     1
102
RTVSPost2010Prop43
 90
        3
102
RTVSPost2010PropOp43
 70
     1
102
RTVSPost2010Prop44ColorIndex
 90
        5
102
RTVSPost2010Prop44ColorRGB
 90
      255
102
RTVSPost2010PropOp44
 70
     1
102
RTVSPost2010Prop45
280
     0
102
RTVSPost2010PropOp45
 70
     1
102
RTVSPost2010Prop46
 90
       50
102
RTVSPost2010PropOp46
 70
     1
102
RTVSPost2010Prop47
 90
       50
102
RTVSPost2010PropOp47
 70
     1
102
RTVSPost2010Prop48
 90
       50
102
RTVSPost2010PropOp48
 70
     1
102
RTVSPost2010Prop49
280
     0
102
RTVSPost2010PropOp49
 70
     1
102
RTVSPost2010Prop50
 90
       50
102
RTVSPost2010PropOp50
 70
     1
102
RTVSPost2010Prop51ColorIndex
 90
      256
102
RTVSPost2010Prop51ColorRGB
 90
-16777216
102
RTVSPost2010PropOp51
 70
     0
102
RTVSPost2010Prop52
140
1.0
102
RTVSPost2010PropOp52
 70
     0
102
RTVSPost2010Prop53
 90
        2
102
RTVSPost2010PropOp53
 70
     1
102
RTVSPost2010Prop54
  1
strokes_ogs.tif
102
RTVSPost2010PropOp54
 70
     1
102
RTVSPost2010Prop55
280
     0
102
RTVSPost2010PropOp55
 70
     1
102
RTVSPost2010Prop56
140
1.0
102
RTVSPost2010PropOp56
 70
     1
102
RTVSPost2010Prop57
140
1.0
102
RTVSPost2010PropOp57
 70
     1
  0
ENDSEC
  0
EOF
