  0
SECTION
  2
HEADER
  9
$ACADVER
  1
AC1015
  9
$ACADMAINTVER
 70
     6
  9
$DWGCODEPAGE
  3
ANSI_1252
  9
$INSBASE
 10
0.0
 20
0.0
 30
0.0
  9
$EXTMIN
 10
0.0
 20
0.0
 30
0.0
  9
$EXTMAX
 10
297.0
 20
210.0
 30
0.0
  9
$LIMMIN
 10
0.0
 20
0.0
  9
$LIMMAX
 10
297.0
 20
210.0
  9
$ORTHOMODE
 70
     0
  9
$REGENMODE
 70
     1
  9
$FILLMODE
 70
     1
  9
$QTEXTMODE
 70
     0
  9
$MIRRTEXT
 70
     1
  9
$LTSCALE
 40
1.0
  9
$ATTMODE
 70
     1
  9
$TEXTSIZE
 40
2.0
  9
$TRACEWID
 40
1.0
  9
$TEXTSTYLE
  7
Standard
  9
$CLAYER
  8
0
  9
$CELTYPE
  6
ByLayer
  9
$CECOLOR
 62
   256
  9
$CELTSCALE
 40
1.0
  9
$DISPSILH
 70
     0
  9
$DIMSCALE
 40
1.0
  9
$DIMASZ
 40
2.5
  9
$DIMEXO
 40
0.625
  9
$DIMDLI
 40
3.75
  9
$DIMRND
 40
0.0
  9
$DIMDLE
 40
0.0
  9
$DIMEXE
 40
1.25
  9
$DIMTP
 40
0.0
  9
$DIMTM
 40
0.0
  9
$DIMTXT
 40
2.5
  9
$DIMCEN
 40
2.5
  9
$DIMTSZ
 40
0.0
  9
$DIMTOL
 70
     0
  9
$DIMLIM
 70
     0
  9
$DIMTIH
 70
     0
  9
$DIMTOH
 70
     0
  9
$DIMSE1
 70
     0
  9
$DIMSE2
 70
     0
  9
$DIMTAD
 70
     1
  9
$DIMZIN
 70
     8
  9
$DIMBLK
  1

  9
$DIMASO
 70
     1
  9
$DIMSHO
 70
     1
  9
$DIMPOST
  1

  9
$DIMAPOST
  1

  9
$DIMALT
 70
     0
  9
$DIMALTD
 70
     3
  9
$DIMALTF
 40
0.03937007874016
  9
$DIMLFAC
 40
1.0
  9
$DIMTOFL
 70
     1
  9
$DIMTVP
 40
0.0
  9
$DIMTIX
 70
     0
  9
$DIMSOXD
 70
     0
  9
$DIMSAH
 70
     0
  9
$DIMBLK1
  1

  9
$DIMBLK2
  1

  9
$DIMSTYLE
  2
ISO-25
  9
$DIMCLRD
 70
     0
  9
$DIMCLRE
 70
     0
  9
$DIMCLRT
 70
     0
  9
$DIMTFAC
 40
1.0
  9
$DIMGAP
 40
0.625
  9
$DIMJUST
 70
     0
  9
$DIMSD1
 70
     0
  9
$DIMSD2
 70
     0
  9
$DIMTOLJ
 70
     0
  9
$DIMTZIN
 70
     8
  9
$DIMALTZ
 70
     0
  9
$DIMALTTZ
 70
     0
  9
$DIMUPT
 70
     0
  9
$DIMDEC
 70
     2
  9
$DIMTDEC
 70
     2
  9
$DIMALTU
 70
     2
  9
$DIMALTTD
 70
     3
  9
$DIMTXSTY
  7
Standard
  9
$DIMAUNIT
 70
     0
  9
$DIMADEC
 70
     0
  9
$DIMALTRND
 40
0.0
  9
$DIMAZIN
 70
     0
  9
$DIMDSEP
 70
    44
  9
$DIMATFIT
 70
     3
  9
$DIMFRAC
 70
     0
  9
$DIMLDRBLK
  1

  9
$DIMLUNIT
 70
     2
  9
$DIMLWD
 70
    -2
  9
$DIMLWE
 70
    -2
  9
$DIMTMOVE
 70
     0
  9
$LUNITS
 70
     2
  9
$LUPREC
 70
     4
  9
$SKETCHINC
 40
1.0
  9
$FILLETRAD
 40
10.0
  9
$AUNITS
 70
     0
  9
$AUPREC
 70
     0
  9
$MENU
  1
.
  9
$ELEVATION
 40
0.0
  9
$PELEVATION
 40
0.0
  9
$THICKNESS
 40
0.0
  9
$LIMCHECK
 70
     0
  9
$CHAMFERA
 40
0.0
  9
$CHAMFERB
 40
0.0
  9
$CHAMFERC
 40
0.0
  9
$CHAMFERD
 40
0.0
  9
$SKPOLY
 70
     0
  9
$TDCREATE
 40
2459381.49394779
  9
$TDUCREATE
 40
2459381.410614456
  9
$TDUPDATE
 40
2460427.596753762
  9
$TDUUPDATE
 40
2460427.513420428
  9
$TDINDWG
 40
0.0000000116
  9
$TDUSRTIMER
 40
0.0000000116
  9
$USRTIMER
 70
     1
  9
$ANGBASE
 50
0.0
  9
$ANGDIR
 70
     0
  9
$PDMODE
 70
     0
  9
$PDSIZE
 40
0.0
  9
$PLINEWID
 40
0.0
  9
$SPLFRAME
 70
     0
  9
$SPLINETYPE
 70
     6
  9
$SPLINESEGS
 70
     8
  9
$HANDSEED
  5
3E9
  9
$SURFTAB1
 70
     6
  9
$SURFTAB2
 70
     6
  9
$SURFTYPE
 70
     6
  9
$SURFU
 70
     6
  9
$SURFV
 70
     6
  9
$UCSBASE
  2

  9
$UCSNAME
  2

  9
$UCSORG
 10
0.0
 20
0.0
 30
0.0
  9
$UCSXDIR
 10
1.0
 20
0.0
 30
0.0
  9
$UCSYDIR
 10
0.0
 20
1.0
 30
0.0
  9
$UCSORTHOREF
  2

  9
$UCSORTHOVIEW
 70
     0
  9
$UCSORGTOP
 10
0.0
 20
0.0
 30
0.0
  9
$UCSORGBOTTOM
 10
0.0
 20
0.0
 30
0.0
  9
$UCSORGLEFT
 10
0.0
 20
0.0
 30
0.0
  9
$UCSORGRIGHT
 10
0.0
 20
0.0
 30
0.0
  9
$UCSORGFRONT
 10
0.0
 20
0.0
 30
0.0
  9
$UCSORGBACK
 10
0.0
 20
0.0
 30
0.0
  9
$PUCSBASE
  2

  9
$PUCSNAME
  2

  9
$PUCSORG
 10
0.0
 20
0.0
 30
0.0
  9
$PUCSXDIR
 10
1.0
 20
0.0
 30
0.0
  9
$PUCSYDIR
 10
0.0
 20
1.0
 30
0.0
  9
$PUCSORTHOREF
  2

  9
$PUCSORTHOVIEW
 70
     0
  9
$PUCSORGTOP
 10
0.0
 20
0.0
 30
0.0
  9
$PUCSORGBOTTOM
 10
0.0
 20
0.0
 30
0.0
  9
$PUCSORGLEFT
 10
0.0
 20
0.0
 30
0.0
  9
$PUCSORGRIGHT
 10
0.0
 20
0.0
 30
0.0
  9
$PUCSORGFRONT
 10
0.0
 20
0.0
 30
0.0
  9
$PUCSORGBACK
 10
0.0
 20
0.0
 30
0.0
  9
$USERI1
 70
     0
  9
$USERI2
 70
     0
  9
$USERI3
 70
     0
  9
$USERI4
 70
     0
  9
$USERI5
 70
     0
  9
$USERR1
 40
0.0
  9
$USERR2
 40
0.0
  9
$USERR3
 40
0.0
  9
$USERR4
 40
0.0
  9
$USERR5
 40
0.0
  9
$WORLDVIEW
 70
     1
  9
$SHADEDGE
 70
     3
  9
$SHADEDIF
 70
    70
  9
$TILEMODE
 70
     1
  9
$MAXACTVP
 70
    64
  9
$PINSBASE
 10
0.0
 20
0.0
 30
0.0
  9
$PLIMCHECK
 70
     0
  9
$PEXTMIN
 10
0.0
 20
0.0
 30
0.0
  9
$PEXTMAX
 10
297.0
 20
210.0
 30
0.0
  9
$PLIMMIN
 10
0.0
 20
0.0
  9
$PLIMMAX
 10
297.0
 20
210.0
  9
$UNITMODE
 70
     0
  9
$VISRETAIN
 70
     1
  9
$PLINEGEN
 70
     0
  9
$PSLTSCALE
 70
     1
  9
$TREEDEPTH
 70
  3020
  9
$CMLSTYLE
  2
Standard
  9
$CMLJUST
 70
     0
  9
$CMLSCALE
 40
20.0
  9
$PROXYGRAPHICS
 70
     1
  9
$MEASUREMENT
 70
     1
  9
$CELWEIGHT
370
    -1
  9
$ENDCAPS
280
     0
  9
$JOINSTYLE
280
     0
  9
$LWDISPLAY
290
     0
  9
$INSUNITS
 70
     4
  9
$HYPERLINKBASE
  1

  9
$STYLESHEET
  1

  9
$XEDIT
290
     1
  9
$CEPSNTYPE
380
     0
  9
$PSTYLEMODE
290
     1
  9
$FINGERPRINTGUID
  2
{292DD13C-77A2-40D1-98BD-4F09691BE771}
  9
$VERSIONGUID
  2
{FAEB1C32-E019-11D5-929B-00C0DF256EC4}
  9
$EXTNAMES
290
     1
  9
$PSVPSCALE
 40
0.0
  9
$OLESTARTUP
290
     0
  0
ENDSEC
  0
SECTION
  2
CLASSES
  0
CLASS
  1
ACDBDICTIONARYWDFLT
  2
AcDbDictionaryWithDefault
  3
ObjectDBX Classes
 90
        0
280
     0
281
     0
  0
CLASS
  1
VISUALSTYLE
  2
AcDbVisualStyle
  3
ObjectDBX Classes
 90
     4095
280
     0
281
     0
  0
CLASS
  1
MATERIAL
  2
AcDbMaterial
  3
ObjectDBX Classes
 90
     1153
280
     0
281
     0
  0
CLASS
  1
SCALE
  2
AcDbScale
  3
ObjectDBX Classes
 90
     1153
280
     0
281
     0
  0
CLASS
  1
TABLESTYLE
  2
AcDbTableStyle
  3
ObjectDBX Classes
 90
     4095
280
     0
281
     0
  0
CLASS
  1
MLEADERSTYLE
  2
AcDbMLeaderStyle
  3
ACDB_MLEADERSTYLE_CLASS
 90
     4095
280
     0
281
     0
  0
CLASS
  1
SUN
  2
AcDbSun
  3
SCENEOE
 90
     1153
280
     0
281
     0
  0
CLASS
  1
DICTIONARYVAR
  2
AcDbDictionaryVar
  3
ObjectDBX Classes
 90
        0
280
     0
281
     0
  0
CLASS
  1
CELLSTYLEMAP
  2
AcDbCellStyleMap
  3
ObjectDBX Classes
 90
     1152
280
     0
281
     0
  0
CLASS
  1
ACDBPLACEHOLDER
  2
AcDbPlaceHolder
  3
ObjectDBX Classes
 90
        0
280
     0
281
     0
  0
CLASS
  1
LAYOUT
  2
AcDbLayout
  3
ObjectDBX Classes
 90
        0
280
     0
281
     0
  0
ENDSEC
  0
SECTION
  2
TABLES
  0
TABLE
  2
VPORT
  5
8
102
{ACAD_XDICTIONARY
360
3AD
102
}
330
0
100
AcDbSymbolTable
 70
     1
  0
VPORT
  5
29
330
8
100
AcDbSymbolTableRecord
100
AcDbViewportTableRecord
  2
*Active
 70
     0
 10
0.0
 20
0.0
 11
1.0
 21
1.0
 12
344.1869158878504
 22
148.5
 13
0.0
 23
0.0
 14
10.0
 24
10.0
 15
10.0
 25
10.0
 16
0.0
 26
0.0
 36
1.0
 17
0.0
 27
0.0
 37
0.0
 40
297.0
 41
1.972972972850329
 42
50.0
 43
0.0
 44
0.0
 50
0.0
 51
0.0
 71
     0
 72
   100
 73
     1
 74
     3
 75
     0
 76
     0
 77
     0
 78
     0
281
     0
 65
     1
110
0.0
120
0.0
130
0.0
111
1.0
121
0.0
131
0.0
112
0.0
122
1.0
132
0.0
 79
     0
146
0.0
  0
ENDTAB
  0
TABLE
  2
LTYPE
  5
5
330
0
100
AcDbSymbolTable
 70
     1
  0
LTYPE
  5
14
330
5
100
AcDbSymbolTableRecord
100
AcDbLinetypeTableRecord
  2
ByBlock
 70
     0
  3

 72
    65
 73
     0
 40
0.0
  0
LTYPE
  5
15
330
5
100
AcDbSymbolTableRecord
100
AcDbLinetypeTableRecord
  2
ByLayer
 70
     0
  3

 72
    65
 73
     0
 40
0.0
  0
LTYPE
  5
16
330
5
100
AcDbSymbolTableRecord
100
AcDbLinetypeTableRecord
  2
Continuous
 70
     0
  3
Solid line
 72
    65
 73
     0
 40
0.0
  0
ENDTAB
  0
TABLE
  2
LAYER
  5
2
330
0
100
AcDbSymbolTable
 70
     8
  0
LAYER
  5
10
330
2
100
AcDbSymbolTableRecord
100
AcDbLayerTableRecord
  2
0
 70
     0
 62
     7
  6
Continuous
370
    -3
390
F
  0
LAYER
  5
6E
330
2
100
AcDbSymbolTableRecord
100
AcDbLayerTableRecord
  2
Default
 70
     0
 62
     7
  6
Continuous
370
    -3
390
F
  0
LAYER
  5
71
330
2
100
AcDbSymbolTableRecord
100
AcDbLayerTableRecord
  2
DV1_0
 70
     0
 62
     7
  6
Continuous
370
    -3
390
F
  0
LAYER
  5
F8
330
2
100
AcDbSymbolTableRecord
100
AcDbLayerTableRecord
  2
DV2_0
 70
     0
 62
     7
  6
Continuous
370
    -3
390
F
  0
LAYER
  5
173
330
2
100
AcDbSymbolTableRecord
100
AcDbLayerTableRecord
  2
DV3_0
 70
     0
 62
     7
  6
Continuous
370
    -3
390
F
  0
LAYER
  5
20C
330
2
100
AcDbSymbolTableRecord
100
AcDbLayerTableRecord
  2
DV4_0
 70
     0
 62
     7
  6
Continuous
370
    -3
390
F
  0
LAYER
  5
347
330
2
100
AcDbSymbolTableRecord
100
AcDbLayerTableRecord
  2
Predeterminado
 70
     0
 62
     7
  6
Continuous
370
    -3
390
F
  0
LAYER
  5
362
330
2
100
AcDbSymbolTableRecord
100
AcDbLayerTableRecord
  2
D
 70
     0
 62
     7
  6
Continuous
370
    -3
390
F
  0
ENDTAB
  0
TABLE
  2
STYLE
  5
3
330
0
100
AcDbSymbolTable
 70
     4
  0
STYLE
  5
11
330
3
100
AcDbSymbolTableRecord
100
AcDbTextStyleTableRecord
  2
Standard
 70
     0
 40
0.0
 41
1.0
 50
0.0
 71
     0
 42
2.0
  3
txt
  4

  0
STYLE
  5
325
330
3
100
AcDbSymbolTableRecord
100
AcDbTextStyleTableRecord
  2
SEACAD_Solid_Edge_ANSI
 70
     0
 40
0.0
 41
1.0
 50
0.0
 71
     0
 42
2.5
  3
seans.ttf
  4

1001
ACAD
1000
Solid Edge ANSI
1071
        0
  0
STYLE
  5
3A4
330
3
100
AcDbSymbolTableRecord
100
AcDbTextStyleTableRecord
  2
MtXpl_Arial
 70
     0
 40
0.2
 41
1.0
 50
0.0
 71
     0
 42
2.0
  3
arialbd.ttf
  4

1001
ACAD
1000
Arial
1071
 33554466
  0
STYLE
  5
3A5
330
3
100
AcDbSymbolTableRecord
100
AcDbTextStyleTableRecord
  2
MtXpl_Arial1
 70
     0
 40
0.2
 41
1.0
 50
0.0
 71
     0
 42
2.0
  3

  4

1001
ACAD
1000
Arial
1071
       34
  0
ENDTAB
  0
TABLE
  2
VIEW
  5
6
330
0
100
AcDbSymbolTable
 70
     0
  0
ENDTAB
  0
TABLE
  2
UCS
  5
7
330
0
100
AcDbSymbolTable
 70
     0
  0
ENDTAB
  0
TABLE
  2
APPID
  5
9
330
0
100
AcDbSymbolTable
 70
     2
  0
APPID
  5
12
330
9
100
AcDbSymbolTableRecord
100
AcDbRegAppTableRecord
  2
ACAD
 70
     0
  0
APPID
  5
39B
330
9
100
AcDbSymbolTableRecord
100
AcDbRegAppTableRecord
  2
ACAD_MLEADERVER
 70
     0
  0
ENDTAB
  0
TABLE
  2
DIMSTYLE
  5
A
330
0
100
AcDbSymbolTable
 70
     1
100
AcDbDimStyleTable
  0
DIMSTYLE
105
27
330
A
100
AcDbSymbolTableRecord
100
AcDbDimStyleTableRecord
  2
ISO-25
 70
     0
 41
2.5
 42
0.625
 43
3.75
 44
1.25
 73
     0
 74
     0
 77
     1
 78
     8
140
2.5
141
2.5
143
0.03937007874016
147
0.625
171
     3
172
     1
178
     0
271
     2
272
     2
274
     3
278
    44
283
     0
284
     8
340
11
  0
ENDTAB
  0
TABLE
  2
BLOCK_RECORD
  5
1
330
0
100
AcDbSymbolTable
 70
    11
  0
BLOCK_RECORD
  5
1F
330
1
100
AcDbSymbolTableRecord
100
AcDbBlockTableRecord
  2
*Model_Space
340
22
  0
BLOCK_RECORD
  5
1B
330
1
100
AcDbSymbolTableRecord
100
AcDbBlockTableRecord
  2
*Paper_Space
340
1E
  0
BLOCK_RECORD
  5
6F
330
1
100
AcDbSymbolTableRecord
100
AcDbBlockTableRecord
  2
SE
340
0
102
{BLKREFS
331
70
102
}
  0
BLOCK_RECORD
  5
F6
330
1
100
AcDbSymbolTableRecord
100
AcDbBlockTableRecord
  2
SE1
340
0
102
{BLKREFS
331
F7
102
}
  0
BLOCK_RECORD
  5
171
330
1
100
AcDbSymbolTableRecord
100
AcDbBlockTableRecord
  2
SE2
340
0
102
{BLKREFS
331
172
102
}
  0
BLOCK_RECORD
  5
20A
330
1
100
AcDbSymbolTableRecord
100
AcDbBlockTableRecord
  2
SE3
340
0
102
{BLKREFS
331
20B
102
}
  0
BLOCK_RECORD
  5
31E
330
1
100
AcDbSymbolTableRecord
100
AcDbBlockTableRecord
  2
GDimGGroup
340
0
102
{BLKREFS
331
31F
102
}
  0
BLOCK_RECORD
  5
329
330
1
100
AcDbSymbolTableRecord
100
AcDbBlockTableRecord
  2
GDimGGroup1
340
0
102
{BLKREFS
331
32A
102
}
  0
BLOCK_RECORD
  5
333
330
1
100
AcDbSymbolTableRecord
100
AcDbBlockTableRecord
  2
GDimGGroup2
340
0
102
{BLKREFS
331
334
102
}
  0
BLOCK_RECORD
  5
33D
330
1
100
AcDbSymbolTableRecord
100
AcDbBlockTableRecord
  2
GDimGGroup3
340
0
102
{BLKREFS
331
33E
102
}
  0
BLOCK_RECORD
  5
34E
330
1
100
AcDbSymbolTableRecord
100
AcDbBlockTableRecord
  2
SEANNOT_GROUP
340
0
102
{BLKREFS
331
34F
102
}
  0
BLOCK_RECORD
  5
358
330
1
100
AcDbSymbolTableRecord
100
AcDbBlockTableRecord
  2
SEANNOT_GROUP1
340
0
102
{BLKREFS
331
359
102
}
  0
BLOCK_RECORD
  5
35D
330
1
100
AcDbSymbolTableRecord
100
AcDbBlockTableRecord
  2
SEANNOT_GROUP2
340
0
102
{BLKREFS
331
35E
102
}
  0
ENDTAB
  0
ENDSEC
  0
SECTION
  2
BLOCKS
  0
BLOCK
  5
20
330
1F
100
AcDbEntity
  8
0
100
AcDbBlockBegin
  2
*Model_Space
 70
     0
 10
0.0
 20
0.0
 30
0.0
  3
*Model_Space
  1

  0
ENDBLK
  5
21
330
1F
100
AcDbEntity
  8
0
100
AcDbBlockEnd
  0
BLOCK
  5
1C
330
1B
100
AcDbEntity
 67
     1
  8
0
100
AcDbBlockBegin
  2
*Paper_Space
 70
     0
 10
0.0
 20
0.0
 30
0.0
  3
*Paper_Space
  1

  0
ENDBLK
  5
1D
330
1B
100
AcDbEntity
 67
     1
  8
0
100
AcDbBlockEnd
  0
BLOCK
  5
F4
330
6F
100
AcDbEntity
  8
0
100
AcDbBlockBegin
  2
SE
 70
     0
 10
0.0
 20
0.0
 30
0.0
  3
SE
  1

  0
LINE
  5
72
330
6F
100
AcDbEntity
  8
DV1_0
 62
     7
370
    35
100
AcDbLine
 10
121.4159049170085
 20
106.5964843011705
 30
0.0
 11
121.4977893619169
 21
106.5964843011705
 31
0.0
  0
LINE
  5
73
330
6F
100
AcDbEntity
  8
DV1_0
 62
     7
370
    35
100
AcDbLine
 10
121.4159049170085
 20
106.5964843011705
 30
0.0
 11
116.4089966215788
 21
106.5964843011705
 31
0.0
  0
LINE
  5
74
330
6F
100
AcDbEntity
  8
DV1_0
 62
     7
370
    25
100
AcDbLine
 10
121.4159049170085
 20
126.9382563148005
 30
0.0
 11
121.4159049170085
 21
106.5964843011705
 31
0.0
  0
LINE
  5
75
330
6F
100
AcDbEntity
  8
DV1_0
 62
     7
370
    35
100
AcDbLine
 10
121.4977893619169
 20
126.9964843011705
 30
0.0
 11
121.4977893619169
 21
106.5964843011705
 31
0.0
  0
ELLIPSE
  5
76
330
6F
100
AcDbEntity
  8
DV1_0
 62
     7
370
    35
100
AcDbEllipse
 10
121.1477893619169
 20
126.9964843011705
 30
0.0
 11
-0.04999999999999935
 21
-2.775557561562891E-15
 31
0.0
210
0.0
220
0.0
230
1.0
 40
0.2588190451025191
 41
2.443460952792053
 42
3.141592653589793
  0
LINE
  5
77
330
6F
100
AcDbEntity
  8
DV1_0
 62
     7
370
    35
100
AcDbLine
 10
121.4977893619169
 20
126.9964843011705
 30
0.0
 11
121.1977893619169
 21
126.9964843011705
 31
0.0
  0
LINE
  5
78
330
6F
100
AcDbEntity
  8
DV1_0
 62
     7
370
    35
100
AcDbLine
 10
121.1860915840728
 20
126.9881660174034
 30
0.0
 11
121.4159049170085
 21
126.9382563148006
 31
0.0
  0
ELLIPSE
  5
79
330
6F
100
AcDbEntity
  8
DV1_0
 62
     7
370
    35
100
AcDbEllipse
 10
121.1477893619169
 20
126.9964843011705
 30
0.0
 11
-0.3499999999999934
 21
-9.714451465470121E-15
 31
0.0
210
0.0
220
0.0
230
1.0
 40
0.2588190451025117
 41
2.44346095279213
 42
3.14159265359
  0
LINE
  5
7A
330
6F
100
AcDbEntity
  8
DV1_0
 62
     7
370
    35
100
AcDbLine
 10
116.4977893619169
 20
127.0464843011705
 30
0.0
 11
121.1477893619169
 21
127.0464843011705
 31
0.0
  0
ARC
  5
7B
330
6F
100
AcDbEntity
  8
DV1_0
 62
     7
370
    35
100
AcDbCircle
 10
121.1477893619169
 20
126.9964843011705
 30
0.0
 40
0.0500000000000001
100
AcDbArc
 50
45.0
 51
90.0
  0
LINE
  5
7C
330
6F
100
AcDbEntity
  8
DV1_0
 62
     7
370
    35
100
AcDbLine
 10
121.1831447009762
 20
127.0318396402298
 30
0.0
 11
121.1987019013571
 21
127.0473968406107
 31
0.0
  0
LINE
  5
7D
330
6F
100
AcDbEntity
  8
DV1_0
 62
     7
370
    35
100
AcDbLine
 10
116.4977893619169
 20
127.3464843011705
 30
0.0
 11
116.4977893619169
 21
127.0464843011705
 31
0.0
  0
LINE
  5
7E
330
6F
100
AcDbEntity
  8
DV1_0
 62
     7
370
    35
100
AcDbLine
 10
116.4977893619169
 20
127.3464843011705
 30
0.0
 11
121.1477893619169
 21
127.3464843011705
 31
0.0
  0
ARC
  5
7F
330
6F
100
AcDbEntity
  8
DV1_0
 62
     7
370
    35
100
AcDbCircle
 10
121.1477893619169
 20
126.9964843011705
 30
0.0
 40
0.0500000000000022
100
AcDbArc
 50
0.0
 51
45.0
  0
ARC
  5
80
330
6F
100
AcDbEntity
  8
DV1_0
 62
     7
370
    35
100
AcDbCircle
 10
121.1477893619169
 20
126.9964843011705
 30
0.0
 40
0.3500000000000003
100
AcDbArc
 50
71.35800352923489
 51
90.0
  0
ARC
  5
81
330
6F
100
AcDbEntity
  8
DV1_0
 62
     7
370
    35
100
AcDbCircle
 10
121.1477893619169
 20
126.9964843011705
 30
0.0
 40
0.3499999999999949
100
AcDbArc
 50
0.0
 51
45.00000000000165
  0
LINE
  5
82
330
6F
100
AcDbEntity
  8
DV1_0
 62
     7
370
    35
100
AcDbLine
 10
121.2059954860795
 20
127.0546904253332
 30
0.0
 11
121.3952767353322
 21
127.2439716745858
 31
0.0
  0
LINE
  5
83
330
6F
100
AcDbEntity
  8
DV1_0
 62
     7
370
    35
100
AcDbLine
 10
121.1987019013571
 20
127.0473968406107
 30
0.0
 11
121.1995028560399
 21
127.0426525429535
 31
0.0
  0
LINE
  5
84
330
6F
100
AcDbEntity
  8
DV1_0
 62
     7
370
    35
100
AcDbLine
 10
121.2059954860795
 20
127.0546904253332
 30
0.0
 11
121.1995028560399
 21
127.0426525429536
 31
0.0
  0
ARC
  5
85
330
6F
100
AcDbEntity
  8
DV1_0
 62
     7
370
    35
100
AcDbCircle
 10
121.1477893619169
 20
126.9964843011705
 30
0.0
 40
0.3499999999999996
100
AcDbArc
 50
45.00000000000165
 51
67.18927144920409
  0
LINE
  5
86
330
6F
100
AcDbEntity
  8
DV1_0
 62
     7
370
    35
100
AcDbLine
 10
116.4089966215788
 20
106.5964843011705
 30
0.0
 11
116.1668985523961
 21
106.5964843011705
 31
0.0
  0
LINE
  5
87
330
6F
100
AcDbEntity
  8
DV1_0
 62
     7
370
    35
100
AcDbLine
 10
116.1668985523961
 20
106.5964843011705
 30
0.0
 11
121.1860915840729
 21
126.9881660174034
 31
0.0
  0
LINE
  5
88
330
6F
100
AcDbEntity
  8
DV1_0
 62
     7
370
    35
100
AcDbLine
 10
121.1995028560399
 20
127.0426525429535
 30
0.0
 11
121.2689603129875
 21
127.324840206579
 31
0.0
  0
ARC
  5
89
330
6F
100
AcDbEntity
  8
DV1_0
 62
     7
370
    35
100
AcDbCircle
 10
121.1477893619165
 20
126.9964843011696
 30
0.0
 40
0.3500000000010416
100
AcDbArc
 50
67.18927144920752
 51
69.7447685996906
  0
ARC
  5
8A
330
6F
100
AcDbEntity
  8
DV1_0
 62
     7
370
    35
100
AcDbCircle
 10
121.1477893619172
 20
126.9964843011713
 30
0.0
 40
0.3499999999992145
100
AcDbArc
 50
69.74476859969354
 51
71.35800352923884
  0
LINE
  5
8B
330
6F
100
AcDbEntity
  8
DV1_0
 62
     7
370
    35
100
AcDbLine
 10
121.1987019013571
 20
127.0473968406107
 30
0.0
 11
121.2596682324139
 21
127.3281213291639
 31
0.0
  0
LINE
  5
8C
330
6F
100
AcDbEntity
  8
DV1_0
 62
     7
370
    35
100
AcDbLine
 10
116.4089966215788
 20
106.5964843011705
 30
0.0
 11
121.4159049170085
 21
126.9382563148006
 31
0.0
  0
LINE
  5
8D
330
6F
100
AcDbEntity
  8
DV1_0
 62
     7
370
    35
100
AcDbLine
 10
121.2059954860795
 20
127.0546904253332
 30
0.0
 11
121.2834802309308
 21
127.3191110019661
 31
0.0
  0
LINE
  5
8E
330
6F
100
AcDbEntity
  8
DV1_0
 62
     7
370
    35
100
AcDbLine
 10
28.99778936191688
 20
106.5964843011705
 30
0.0
 11
29.07967380682523
 21
106.5964843011705
 31
0.0
  0
LINE
  5
8F
330
6F
100
AcDbEntity
  8
DV1_0
 62
     7
370
    35
100
AcDbLine
 10
28.99778936191688
 20
126.9964843011705
 30
0.0
 11
28.99778936191688
 21
106.5964843011705
 31
0.0
  0
LINE
  5
90
330
6F
100
AcDbEntity
  8
DV1_0
 62
     7
370
    25
100
AcDbLine
 10
29.07967380682524
 20
126.9382563148005
 30
0.0
 11
29.07967380682524
 21
106.5964843011705
 31
0.0
  0
ELLIPSE
  5
91
330
6F
100
AcDbEntity
  8
DV1_0
 62
     7
370
    35
100
AcDbEllipse
 10
29.34778936191687
 20
126.9964843011705
 30
0.0
 11
-0.04999999999998339
 21
0.0
 31
0.0
210
0.0
220
0.0
230
1.0
 40
0.2588190451025649
 41
0.0
 42
0.6981317007975669
  0
LINE
  5
92
330
6F
100
AcDbEntity
  8
DV1_0
 62
     7
370
    35
100
AcDbLine
 10
28.99778936191688
 20
126.9964843011705
 30
0.0
 11
29.29778936191688
 21
126.9964843011705
 31
0.0
  0
ELLIPSE
  5
93
330
6F
100
AcDbEntity
  8
DV1_0
 62
     7
370
    35
100
AcDbEllipse
 10
29.34778936191687
 20
126.9964843011705
 30
0.0
 11
-0.3499999999999837
 21
-1.387778780781446E-15
 31
0.0
210
0.0
220
0.0
230
1.0
 40
0.2588190451025314
 41
0.0
 42
0.6981317007977167
  0
LINE
  5
94
330
6F
100
AcDbEntity
  8
DV1_0
 62
     7
370
    35
100
AcDbLine
 10
29.30948713976094
 20
126.9881660174034
 30
0.0
 11
29.07967380682524
 21
126.9382563148005
 31
0.0
  0
ARC
  5
95
330
6F
100
AcDbEntity
  8
DV1_0
 62
     7
370
    35
100
AcDbCircle
 10
29.34778936191688
 20
126.9964843011705
 30
0.0
 40
0.0500000000000008
100
AcDbArc
 50
90.0
 51
134.9999999999712
  0
LINE
  5
96
330
6F
100
AcDbEntity
  8
DV1_0
 62
     7
370
    35
100
AcDbLine
 10
29.34778936191688
 20
127.0464843011705
 30
0.0
 11
33.99778936191687
 21
127.0464843011705
 31
0.0
  0
LINE
  5
97
330
6F
100
AcDbEntity
  8
DV1_0
 62
     7
370
    35
100
AcDbLine
 10
29.34778936191688
 20
127.3464843011705
 30
0.0
 11
33.99778936191687
 21
127.3464843011705
 31
0.0
  0
LINE
  5
98
330
6F
100
AcDbEntity
  8
DV1_0
 62
     7
370
    35
100
AcDbLine
 10
33.99778936191688
 20
127.3464843011705
 30
0.0
 11
33.99778936191688
 21
127.0464843011705
 31
0.0
  0
LINE
  5
99
330
6F
100
AcDbEntity
  8
DV1_0
 62
     7
370
    35
100
AcDbLine
 10
29.31243402285755
 20
127.0318396402298
 30
0.0
 11
29.29687682247665
 21
127.0473968406108
 31
0.0
  0
ARC
  5
9A
330
6F
100
AcDbEntity
  8
DV1_0
 62
     7
370
    35
100
AcDbCircle
 10
29.34778936191689
 20
126.9964843011705
 30
0.0
 40
0.3500000000000071
100
AcDbArc
 50
134.9999999999959
 51
180.0
  0
ARC
  5
9B
330
6F
100
AcDbEntity
  8
DV1_0
 62
     7
370
    35
100
AcDbCircle
 10
29.34778936191688
 20
126.9964843011705
 30
0.0
 40
0.3499999999999988
100
AcDbArc
 50
112.8107285507954
 51
134.9999999999992
  0
ARC
  5
9C
330
6F
100
AcDbEntity
  8
DV1_0
 62
     7
370
    35
100
AcDbCircle
 10
29.34829150328772
 20
126.9962763074045
 30
0.0
 40
0.0505025696816178
100
AcDbArc
 50
135.2359721242516
 51
179.7640278757609
  0
ARC
  5
9D
330
6F
100
AcDbEntity
  8
DV1_0
 62
     7
370
    35
100
AcDbCircle
 10
29.34778936191688
 20
126.9964843011705
 30
0.0
 40
0.3499999999999977
100
AcDbArc
 50
90.0
 51
108.6419964707624
  0
ARC
  5
9E
330
6F
100
AcDbEntity
  8
DV1_0
 62
     7
370
    35
100
AcDbCircle
 10
29.34778936191366
 20
126.9964843011796
 30
0.0
 40
0.3499999999903328
100
AcDbArc
 50
108.6419964707425
 51
110.2552314003277
  0
ARC
  5
9F
330
6F
100
AcDbEntity
  8
DV1_0
 62
     7
370
    35
100
AcDbCircle
 10
29.347789361919
 20
126.996484301165
 30
0.0
 40
0.3500000000058844
100
AcDbArc
 50
110.2552314003247
 51
112.8107285507696
  0
LINE
  5
A0
330
6F
100
AcDbEntity
  8
DV1_0
 62
     7
370
    35
100
AcDbLine
 10
29.28958323775424
 20
127.0546904253331
 30
0.0
 11
29.10030198850159
 21
127.2439716745858
 31
0.0
  0
LINE
  5
A1
330
6F
100
AcDbEntity
  8
DV1_0
 62
     7
370
    35
100
AcDbLine
 10
34.08658210225494
 20
106.5964843011705
 30
0.0
 11
29.07967380682523
 21
106.5964843011705
 31
0.0
  0
LINE
  5
A2
330
6F
100
AcDbEntity
  8
DV1_0
 62
     7
370
    35
100
AcDbLine
 10
29.30948713976094
 20
126.9881660174034
 30
0.0
 11
34.32868017143767
 21
106.5964843011705
 31
0.0
  0
LINE
  5
A3
330
6F
100
AcDbEntity
  8
DV1_0
 62
     7
370
    35
100
AcDbLine
 10
34.32868017143767
 20
106.5964843011705
 30
0.0
 11
34.08658210225494
 21
106.5964843011705
 31
0.0
  0
LINE
  5
A4
330
6F
100
AcDbEntity
  8
DV1_0
 62
     7
370
    35
100
AcDbLine
 10
29.22661841084631
 20
127.324840206579
 30
0.0
 11
29.2960758677939
 21
127.0426525429535
 31
0.0
  0
LINE
  5
A5
330
6F
100
AcDbEntity
  8
DV1_0
 62
     7
370
    35
100
AcDbLine
 10
29.2960758677939
 20
127.0426525429535
 30
0.0
 11
29.28958323775424
 21
127.0546904253331
 31
0.0
  0
LINE
  5
A6
330
6F
100
AcDbEntity
  8
DV1_0
 62
     7
370
    35
100
AcDbLine
 10
29.2960758677939
 20
127.0426525429535
 30
0.0
 11
29.29687682247665
 21
127.0473968406107
 31
0.0
  0
LINE
  5
A7
330
6F
100
AcDbEntity
  8
DV1_0
 62
     7
370
    35
100
AcDbLine
 10
29.23591049141985
 20
127.3281213291639
 30
0.0
 11
29.29687682247664
 21
127.0473968406108
 31
0.0
  0
LINE
  5
A8
330
6F
100
AcDbEntity
  8
DV1_0
 62
     7
370
    35
100
AcDbLine
 10
29.21209849290301
 20
127.3191110019661
 30
0.0
 11
29.28958323775424
 21
127.0546904253331
 31
0.0
  0
LINE
  5
A9
330
6F
100
AcDbEntity
  8
DV1_0
 62
     7
370
    35
100
AcDbLine
 10
29.07967380682524
 20
126.9382563148005
 30
0.0
 11
34.08658210225494
 21
106.5964843011705
 31
0.0
  0
LINE
  5
AA
330
6F
100
AcDbEntity
  8
DV1_0
 62
     7
370
    35
100
AcDbLine
 10
120.4977893619169
 20
126.6887532950006
 30
0.0
 11
116.4977893619169
 21
126.6887532950006
 31
0.0
  0
LINE
  5
AB
330
6F
100
AcDbEntity
  8
DV1_0
 62
     7
370
    35
100
AcDbLine
 10
120.4977893619169
 20
127.0464843011705
 30
0.0
 11
120.4977893619169
 21
127.0387532950006
 31
0.0
  0
LINE
  5
AC
330
6F
100
AcDbEntity
  8
DV1_0
 62
     7
370
    35
100
AcDbLine
 10
116.4977893619169
 20
127.0464843011705
 30
0.0
 11
116.4977893619169
 21
127.0387532950006
 31
0.0
  0
LINE
  5
AD
330
6F
100
AcDbEntity
  8
DV1_0
 62
     7
370
    25
100
AcDbLine
 10
120.4977893619169
 20
127.0387532950006
 30
0.0
 11
116.4977893619169
 21
127.0387532950006
 31
0.0
  0
LINE
  5
AE
330
6F
100
AcDbEntity
  8
DV1_0
 62
     7
370
    35
100
AcDbLine
 10
120.4977893619169
 20
126.9887532950006
 30
0.0
 11
116.4977893619169
 21
126.9887532950006
 31
0.0
  0
LINE
  5
AF
330
6F
100
AcDbEntity
  8
DV1_0
 62
     7
370
    35
100
AcDbLine
 10
116.4977893619169
 20
126.9887532950006
 30
0.0
 11
116.4977893619169
 21
126.6887532950006
 31
0.0
  0
LINE
  5
B0
330
6F
100
AcDbEntity
  8
DV1_0
 62
     7
370
    35
100
AcDbLine
 10
120.4977893619169
 20
126.9887532950006
 30
0.0
 11
120.4977893619169
 21
126.6887532950006
 31
0.0
  0
LINE
  5
B1
330
6F
100
AcDbEntity
  8
DV1_0
 62
     7
370
    35
100
AcDbLine
 10
116.4977893619169
 20
139.1208968096864
 30
0.0
 11
116.4977893619169
 21
129.5964843011705
 31
0.0
  0
LINE
  5
B2
330
6F
100
AcDbEntity
  8
DV1_0
 62
     7
370
    35
100
AcDbLine
 10
120.4977893619169
 20
139.1208968096864
 30
0.0
 11
120.4977893619169
 21
129.5964843011705
 31
0.0
  0
LINE
  5
B3
330
6F
100
AcDbEntity
  8
DV1_0
 62
     7
370
    35
100
AcDbLine
 10
116.4977893619169
 20
127.0387532950006
 30
0.0
 11
116.4977893619169
 21
126.9887532950006
 31
0.0
  0
LINE
  5
B4
330
6F
100
AcDbEntity
  8
DV1_0
 62
     7
370
    35
100
AcDbLine
 10
120.4977893619169
 20
127.0387532950006
 30
0.0
 11
120.4977893619169
 21
126.9887532950006
 31
0.0
  0
LINE
  5
B5
330
6F
100
AcDbEntity
  8
DV1_0
 62
     7
370
    25
100
AcDbLine
 10
121.2477893619169
 20
129.3464843011705
 30
0.0
 11
29.24778936191687
 21
129.3464843011705
 31
0.0
  0
LINE
  5
B6
330
6F
100
AcDbEntity
  8
DV1_0
 62
     7
370
    25
100
AcDbLine
 10
29.24778936191688
 20
129.3464843011705
 30
0.0
 11
29.24778936191688
 21
127.5964843011705
 31
0.0
  0
LINE
  5
B7
330
6F
100
AcDbEntity
  8
DV1_0
 62
     7
370
    25
100
AcDbLine
 10
29.24778936191688
 20
127.5964843011705
 30
0.0
 11
121.2477893619169
 21
127.5964843011705
 31
0.0
  0
LINE
  5
B8
330
6F
100
AcDbEntity
  8
DV1_0
 62
     7
370
    25
100
AcDbLine
 10
121.2477893619169
 20
127.5964843011705
 30
0.0
 11
121.2477893619169
 21
129.3464843011705
 31
0.0
  0
LINE
  5
B9
330
6F
100
AcDbEntity
  8
DV1_0
 62
     7
370
    35
100
AcDbLine
 10
121.4977893619169
 20
129.3464843011705
 30
0.0
 11
121.4977893619169
 21
127.5964843011705
 31
0.0
  0
LINE
  5
BA
330
6F
100
AcDbEntity
  8
DV1_0
 62
     7
370
    35
100
AcDbLine
 10
116.4977893619169
 20
127.3464843011705
 30
0.0
 11
33.99778936191689
 21
127.3464843011705
 31
0.0
  0
LINE
  5
BB
330
6F
100
AcDbEntity
  8
DV1_0
 62
     7
370
    35
100
AcDbLine
 10
28.99778936191688
 20
127.5964843011705
 30
0.0
 11
28.99778936191688
 21
129.3464843011705
 31
0.0
  0
LINE
  5
BC
330
6F
100
AcDbEntity
  8
DV1_0
 62
     7
370
    35
100
AcDbLine
 10
29.24778936191688
 20
129.5964843011705
 30
0.0
 11
121.2477893619169
 21
129.5964843011705
 31
0.0
  0
ARC
  5
BD
330
6F
100
AcDbEntity
  8
DV1_0
 62
     7
370
    35
100
AcDbCircle
 10
29.24778936191688
 20
127.5964843011705
 30
0.0
 40
0.2499999999999947
100
AcDbArc
 50
180.0
 51
270.0
  0
LINE
  5
BE
330
6F
100
AcDbEntity
  8
DV1_0
 62
     7
370
    25
100
AcDbLine
 10
29.24778936191688
 20
127.5964843011705
 30
0.0
 11
28.99778936191689
 21
127.5964843011705
 31
0.0
  0
LINE
  5
BF
330
6F
100
AcDbEntity
  8
DV1_0
 62
     7
370
    25
100
AcDbLine
 10
28.99778936191688
 20
129.3464843011705
 30
0.0
 11
29.24778936191688
 21
129.3464843011705
 31
0.0
  0
ARC
  5
C0
330
6F
100
AcDbEntity
  8
DV1_0
 62
     7
370
    35
100
AcDbCircle
 10
29.24778936191688
 20
129.3464843011705
 30
0.0
 40
0.2500000000000002
100
AcDbArc
 50
90.0
 51
179.9999999999935
  0
LINE
  5
C1
330
6F
100
AcDbEntity
  8
DV1_0
 62
     7
370
    25
100
AcDbLine
 10
29.24778936191688
 20
127.5964843011705
 30
0.0
 11
29.24778936191688
 21
127.3464843011705
 31
0.0
  0
LINE
  5
C2
330
6F
100
AcDbEntity
  8
DV1_0
 62
     7
370
    25
100
AcDbLine
 10
29.24778936191688
 20
129.5964843011705
 30
0.0
 11
29.24778936191688
 21
129.3464843011705
 31
0.0
  0
ARC
  5
C3
330
6F
100
AcDbEntity
  8
DV1_0
 62
     7
370
    35
100
AcDbCircle
 10
121.2477893619169
 20
127.5964843011705
 30
0.0
 40
0.2500000000000002
100
AcDbArc
 50
270.0
 51
0.0
  0
LINE
  5
C4
330
6F
100
AcDbEntity
  8
DV1_0
 62
     7
370
    25
100
AcDbLine
 10
121.2477893619169
 20
127.5964843011705
 30
0.0
 11
121.2477893619169
 21
127.3464843011705
 31
0.0
  0
LINE
  5
C5
330
6F
100
AcDbEntity
  8
DV1_0
 62
     7
370
    25
100
AcDbLine
 10
121.2477893619169
 20
129.5964843011705
 30
0.0
 11
121.2477893619169
 21
129.3464843011705
 31
0.0
  0
ARC
  5
C6
330
6F
100
AcDbEntity
  8
DV1_0
 62
     7
370
    35
100
AcDbCircle
 10
121.2477893619169
 20
129.3464843011705
 30
0.0
 40
0.2500000000000002
100
AcDbArc
 50
0.0
 51
90.0
  0
LINE
  5
C7
330
6F
100
AcDbEntity
  8
DV1_0
 62
     7
370
    25
100
AcDbLine
 10
121.2477893619169
 20
127.5964843011705
 30
0.0
 11
121.4977893619169
 21
127.5964843011705
 31
0.0
  0
LINE
  5
C8
330
6F
100
AcDbEntity
  8
DV1_0
 62
     7
370
    25
100
AcDbLine
 10
121.4977893619169
 20
129.3464843011705
 30
0.0
 11
121.2477893619169
 21
129.3464843011705
 31
0.0
  0
LINE
  5
C9
330
6F
100
AcDbEntity
  8
DV1_0
 62
     7
370
    25
100
AcDbLine
 10
121.2759745239509
 20
139.4607085422811
 30
0.0
 11
29.27597452395094
 21
139.4607085422811
 31
0.0
  0
LINE
  5
CA
330
6F
100
AcDbEntity
  8
DV1_0
 62
     7
370
    25
100
AcDbLine
 10
29.27597452395094
 20
139.4607085422811
 30
0.0
 11
29.27597452395094
 21
139.1255252804355
 31
0.0
  0
LINE
  5
CB
330
6F
100
AcDbEntity
  8
DV1_0
 62
     7
370
    25
100
AcDbLine
 10
29.27597452395094
 20
139.1255252804355
 30
0.0
 11
121.2759745239509
 21
139.1255252804355
 31
0.0
  0
LINE
  5
CC
330
6F
100
AcDbEntity
  8
DV1_0
 62
     7
370
    25
100
AcDbLine
 10
121.2759745239509
 20
139.1255252804355
 30
0.0
 11
121.2759745239509
 21
139.4607085422811
 31
0.0
  0
LINE
  5
CD
330
6F
100
AcDbEntity
  8
DV1_0
 62
     7
370
    35
100
AcDbLine
 10
121.5259745239509
 20
149.5209412415667
 30
0.0
 11
121.5259745239509
 21
139.706080071532
 31
0.0
  0
LINE
  5
CE
330
6F
100
AcDbEntity
  8
DV1_0
 62
     7
370
    35
100
AcDbLine
 10
121.5259745239509
 20
139.706080071532
 30
0.0
 11
121.5259745239509
 21
139.3708968096864
 31
0.0
  0
LINE
  5
CF
330
6F
100
AcDbEntity
  8
DV1_0
 62
     7
370
    35
100
AcDbLine
 10
29.02597452395093
 20
139.706080071532
 30
0.0
 11
29.02597452395093
 21
149.5209412415667
 31
0.0
  0
LINE
  5
D0
330
6F
100
AcDbEntity
  8
DV1_0
 62
     7
370
    35
100
AcDbLine
 10
29.02597452395093
 20
139.3708968096864
 30
0.0
 11
29.02597452395093
 21
139.706080071532
 31
0.0
  0
LINE
  5
D1
330
6F
100
AcDbEntity
  8
DV1_0
 62
     7
370
    25
100
AcDbLine
 10
121.2759745239509
 20
149.5688245646875
 30
0.0
 11
29.27597452395094
 21
149.5688245646875
 31
0.0
  0
LINE
  5
D2
330
6F
100
AcDbEntity
  8
DV1_0
 62
     7
370
    25
100
AcDbLine
 10
29.27597452395094
 20
149.5688245646875
 30
0.0
 11
29.27597452395094
 21
139.7539633946528
 31
0.0
  0
LINE
  5
D3
330
6F
100
AcDbEntity
  8
DV1_0
 62
     7
370
    25
100
AcDbLine
 10
121.2759745239509
 20
139.7539633946528
 30
0.0
 11
121.2759745239509
 21
149.5688245646875
 31
0.0
  0
LINE
  5
D4
330
6F
100
AcDbEntity
  8
DV1_0
 62
     7
370
    25
100
AcDbLine
 10
29.27597452395094
 20
139.7539633946528
 30
0.0
 11
121.2759745239509
 21
139.7539633946528
 31
0.0
  0
ELLIPSE
  5
D5
330
6F
100
AcDbEntity
  8
DV1_0
 62
     7
370
    25
100
AcDbEllipse
 10
29.27597452395094
 20
149.5209412415667
 30
0.0
 11
0.2499999999999947
 21
0.0
 31
0.0
210
0.0
220
0.0
230
1.0
 40
0.1915332924831855
 41
1.570796326794897
 42
3.141592653589793
  0
LINE
  5
D6
330
6F
100
AcDbEntity
  8
DV1_0
 62
     7
370
    25
100
AcDbLine
 10
29.27597452395095
 20
149.7709412415667
 30
0.0
 11
29.27597452395094
 21
149.5688245646875
 31
0.0
  0
ELLIPSE
  5
D7
330
6F
100
AcDbEntity
  8
DV1_0
 62
     7
370
    25
100
AcDbEllipse
 10
29.27597452395094
 20
139.3708968096864
 30
0.0
 11
0.2499999999999947
 21
-6.938893903907228E-14
 31
0.0
210
0.0
220
0.0
230
1.0
 40
0.981486117003474
 41
3.141592653589793
 42
4.712388980384962
  0
ELLIPSE
  5
D8
330
6F
100
AcDbEntity
  8
DV1_0
 62
     7
370
    25
100
AcDbEllipse
 10
29.27597452395095
 20
139.706080071532
 30
0.0
 11
-0.2500000000000169
 21
-3.053113317719180E-13
 31
0.0
210
0.0
220
0.0
230
1.0
 40
0.9814861170034266
 41
0.0
 42
1.570796326793641
  0
ELLIPSE
  5
D9
330
6F
100
AcDbEntity
  8
DV1_0
 62
     7
370
    25
100
AcDbEllipse
 10
29.27597452395094
 20
139.706080071532
 30
0.0
 11
0.2499999999999947
 21
0.0
 31
0.0
210
0.0
220
0.0
230
1.0
 40
0.1915332924831855
 41
1.570796326794897
 42
3.141592653589793
  0
LINE
  5
DA
330
6F
100
AcDbEntity
  8
DV1_0
 62
     7
370
    25
100
AcDbLine
 10
121.2759745239509
 20
149.7709412415667
 30
0.0
 11
121.2759745239509
 21
149.5688245646875
 31
0.0
  0
LINE
  5
DB
330
6F
100
AcDbEntity
  8
DV1_0
 62
     7
370
    25
100
AcDbLine
 10
29.27597452395094
 20
139.1208968096864
 30
0.0
 11
29.27597452395094
 21
139.1255252804356
 31
0.0
  0
LINE
  5
DC
330
6F
100
AcDbEntity
  8
DV1_0
 62
     7
370
    25
100
AcDbLine
 10
29.27597452395094
 20
139.7539633946528
 30
0.0
 11
29.27597452395094
 21
139.4607085422811
 31
0.0
  0
ELLIPSE
  5
DD
330
6F
100
AcDbEntity
  8
DV1_0
 62
     7
370
    25
100
AcDbEllipse
 10
121.2759745239509
 20
149.5209412415667
 30
0.0
 11
0.2500000000000002
 21
0.0
 31
0.0
210
0.0
220
0.0
230
1.0
 40
0.1915332924831812
 41
0.0
 42
1.570796326794897
  0
LINE
  5
DE
330
6F
100
AcDbEntity
  8
DV1_0
 62
     7
370
    25
100
AcDbLine
 10
121.2759745239509
 20
139.1208968096864
 30
0.0
 11
121.2759745239509
 21
139.1255252804355
 31
0.0
  0
LINE
  5
DF
330
6F
100
AcDbEntity
  8
DV1_0
 62
     7
370
    25
100
AcDbLine
 10
121.2759745239509
 20
139.7539633946528
 30
0.0
 11
121.2759745239509
 21
139.4607085422811
 31
0.0
  0
ELLIPSE
  5
E0
330
6F
100
AcDbEntity
  8
DV1_0
 62
     7
370
    25
100
AcDbEllipse
 10
121.2759745239509
 20
139.706080071532
 30
0.0
 11
0.2500000000000002
 21
0.0
 31
0.0
210
0.0
220
0.0
230
1.0
 40
0.1915332924831812
 41
0.0
 42
1.570796326794897
  0
ELLIPSE
  5
E1
330
6F
100
AcDbEntity
  8
DV1_0
 62
     7
370
    25
100
AcDbEllipse
 10
121.2759745239509
 20
139.3708968096864
 30
0.0
 11
-0.2500000000000016
 21
-6.938893903907228E-14
 31
0.0
210
0.0
220
0.0
230
1.0
 40
0.9814861170034517
 41
1.570796326794624
 42
3.141592653589793
  0
ELLIPSE
  5
E2
330
6F
100
AcDbEntity
  8
DV1_0
 62
     7
370
    25
100
AcDbEllipse
 10
121.2759745239509
 20
139.706080071532
 30
0.0
 11
0.2500000000000016
 21
-5.551115123125783E-15
 31
0.0
210
0.0
220
0.0
230
1.0
 40
0.9814861170034653
 41
4.712388980384711
 42
6.283185307179586
  0
ARC
  5
E3
330
6F
100
AcDbEntity
  8
DV1_0
 62
     7
370
    35
100
AcDbCircle
 10
29.27597452395094
 20
149.5209412415667
 30
0.0
 40
0.2500000000000002
100
AcDbArc
 50
90.0
 51
180.0
  0
LINE
  5
E4
330
6F
100
AcDbEntity
  8
DV1_0
 62
     7
370
    35
100
AcDbLine
 10
121.2759745239509
 20
149.7709412415667
 30
0.0
 11
29.27597452395092
 21
149.7709412415667
 31
0.0
  0
ARC
  5
E5
330
6F
100
AcDbEntity
  8
DV1_0
 62
     7
370
    35
100
AcDbCircle
 10
29.27597452395094
 20
139.3708968096864
 30
0.0
 40
0.2500000000000058
100
AcDbArc
 50
180.0000000000065
 51
270.0
  0
ARC
  5
E6
330
6F
100
AcDbEntity
  8
DV1_0
 62
     7
370
    35
100
AcDbCircle
 10
121.2759745239509
 20
149.5209412415667
 30
0.0
 40
0.2500000000000002
100
AcDbArc
 50
0.0
 51
90.0
  0
LINE
  5
E7
330
6F
100
AcDbEntity
  8
DV1_0
 62
     7
370
    35
100
AcDbLine
 10
29.27597452395092
 20
139.1208968096864
 30
0.0
 11
121.2759745239509
 21
139.1208968096864
 31
0.0
  0
ARC
  5
E8
330
6F
100
AcDbEntity
  8
DV1_0
 62
     7
370
    35
100
AcDbCircle
 10
121.2759745239509
 20
139.3708968096864
 30
0.0
 40
0.2500000000000002
100
AcDbArc
 50
270.0
 51
0.0
  0
LINE
  5
E9
330
6F
100
AcDbEntity
  8
DV1_0
 62
     7
370
    35
100
AcDbLine
 10
33.99778936191688
 20
126.6887532950006
 30
0.0
 11
29.99778936191689
 21
126.6887532950006
 31
0.0
  0
LINE
  5
EA
330
6F
100
AcDbEntity
  8
DV1_0
 62
     7
370
    35
100
AcDbLine
 10
33.99778936191689
 20
127.0464843011705
 30
0.0
 11
33.99778936191689
 21
127.0387532950006
 31
0.0
  0
LINE
  5
EB
330
6F
100
AcDbEntity
  8
DV1_0
 62
     7
370
    35
100
AcDbLine
 10
29.99778936191688
 20
127.0464843011705
 30
0.0
 11
29.99778936191688
 21
127.0387532950006
 31
0.0
  0
LINE
  5
EC
330
6F
100
AcDbEntity
  8
DV1_0
 62
     7
370
    25
100
AcDbLine
 10
33.99778936191689
 20
127.0387532950006
 30
0.0
 11
29.99778936191688
 21
127.0387532950006
 31
0.0
  0
LINE
  5
ED
330
6F
100
AcDbEntity
  8
DV1_0
 62
     7
370
    35
100
AcDbLine
 10
33.99778936191688
 20
126.9887532950006
 30
0.0
 11
29.99778936191689
 21
126.9887532950006
 31
0.0
  0
LINE
  5
EE
330
6F
100
AcDbEntity
  8
DV1_0
 62
     7
370
    35
100
AcDbLine
 10
29.99778936191688
 20
126.9887532950006
 30
0.0
 11
29.99778936191688
 21
126.6887532950006
 31
0.0
  0
LINE
  5
EF
330
6F
100
AcDbEntity
  8
DV1_0
 62
     7
370
    35
100
AcDbLine
 10
33.99778936191688
 20
126.9887532950006
 30
0.0
 11
33.99778936191688
 21
126.6887532950006
 31
0.0
  0
LINE
  5
F0
330
6F
100
AcDbEntity
  8
DV1_0
 62
     7
370
    35
100
AcDbLine
 10
29.99778936191688
 20
139.1208968096864
 30
0.0
 11
29.99778936191688
 21
129.5964843011705
 31
0.0
  0
LINE
  5
F1
330
6F
100
AcDbEntity
  8
DV1_0
 62
     7
370
    35
100
AcDbLine
 10
33.99778936191689
 20
139.1208968096864
 30
0.0
 11
33.99778936191689
 21
129.5964843011705
 31
0.0
  0
LINE
  5
F2
330
6F
100
AcDbEntity
  8
DV1_0
 62
     7
370
    35
100
AcDbLine
 10
29.99778936191688
 20
127.0387532950006
 30
0.0
 11
29.99778936191688
 21
126.9887532950006
 31
0.0
  0
LINE
  5
F3
330
6F
100
AcDbEntity
  8
DV1_0
 62
     7
370
    35
100
AcDbLine
 10
33.99778936191689
 20
127.0387532950006
 30
0.0
 11
33.99778936191689
 21
126.9887532950006
 31
0.0
  0
ENDBLK
  5
F5
330
6F
100
AcDbEntity
  8
0
100
AcDbBlockEnd
  0
BLOCK
  5
16F
330
F6
100
AcDbEntity
  8
0
100
AcDbBlockBegin
  2
SE1
 70
     0
 10
0.0
 20
0.0
 30
0.0
  3
SE1
  1

  0
LINE
  5
F9
330
F6
100
AcDbEntity
  8
DV2_0
 62
     7
370
    35
100
AcDbLine
 10
193.7787438257179
 20
106.5964843011705
 30
0.0
 11
205.1588523398263
 21
106.5964843011705
 31
0.0
  0
LINE
  5
FA
330
F6
100
AcDbEntity
  8
DV2_0
 62
     7
370
    35
100
AcDbLine
 10
205.1588523398263
 20
106.5964843011705
 30
0.0
 11
205.3917642853062
 21
106.5964843011705
 31
0.0
  0
LINE
  5
FB
330
F6
100
AcDbEntity
  8
DV2_0
 62
     7
370
    35
100
AcDbLine
 10
193.545831880238
 20
106.5964843011705
 30
0.0
 11
193.7787438257179
 21
106.5964843011705
 31
0.0
  0
LINE
  5
FC
330
F6
100
AcDbEntity
  8
DV2_0
 62
     7
370
    35
100
AcDbLine
 10
193.545831880238
 20
106.5964843011705
 30
0.0
 11
187.3683379293904
 21
106.5964843011705
 31
0.0
  0
LINE
  5
FD
330
F6
100
AcDbEntity
  8
DV2_0
 62
     7
370
    25
100
AcDbLine
 10
210.6250158654212
 20
126.9964843011705
 30
0.0
 11
205.1588523398263
 21
106.5964843011705
 31
0.0
  0
LINE
  5
FE
330
F6
100
AcDbEntity
  8
DV2_0
 62
     7
370
    25
100
AcDbLine
 10
210.8423256689764
 20
126.9382563148005
 30
0.0
 11
205.3917642853062
 21
106.5964843011705
 31
0.0
  0
LINE
  5
FF
330
F6
100
AcDbEntity
  8
DV2_0
 62
     7
370
    35
100
AcDbLine
 10
210.6250158654212
 20
126.9964843011705
 30
0.0
 11
210.8423256689764
 21
126.9382563148005
 31
0.0
  0
LINE
  5
100
330
F6
100
AcDbEntity
  8
DV2_0
 62
     7
370
    25
100
AcDbLine
 10
188.0952704965678
 20
126.9382563148005
 30
0.0
 11
193.545831880238
 21
106.5964843011705
 31
0.0
  0
LINE
  5
101
330
F6
100
AcDbEntity
  8
DV2_0
 62
     7
370
    25
100
AcDbLine
 10
188.312580300123
 20
126.9964843011705
 30
0.0
 11
193.7787438257179
 21
106.5964843011705
 31
0.0
  0
LINE
  5
102
330
F6
100
AcDbEntity
  8
DV2_0
 62
     7
370
    35
100
AcDbLine
 10
188.0952704965678
 20
126.9382563148005
 30
0.0
 11
188.312580300123
 21
126.9964843011705
 31
0.0
  0
LINE
  5
103
330
F6
100
AcDbEntity
  8
DV2_0
 62
     7
370
    25
100
AcDbLine
 10
210.6250158654212
 20
126.9964843011705
 30
0.0
 11
188.312580300123
 21
126.9964843011705
 31
0.0
  0
LINE
  5
104
330
F6
100
AcDbEntity
  8
DV2_0
 62
     7
370
    35
100
AcDbLine
 10
188.2812237263837
 20
127.0318396402298
 30
0.0
 11
188.2812237263837
 21
127.0473968406107
 31
0.0
  0
LINE
  5
105
330
F6
100
AcDbEntity
  8
DV2_0
 62
     7
370
    35
100
AcDbLine
 10
188.2812237263837
 20
127.3464843011705
 30
0.0
 11
188.5312237263837
 21
127.3464843011705
 31
0.0
  0
LINE
  5
106
330
F6
100
AcDbEntity
  8
DV2_0
 62
     7
370
    35
100
AcDbLine
 10
198.5312237263837
 20
127.3464843011705
 30
0.0
 11
200.3632456475515
 21
127.3464843011705
 31
0.0
  0
LINE
  5
107
330
F6
100
AcDbEntity
  8
DV2_0
 62
     7
370
    35
100
AcDbLine
 10
210.3632456475515
 20
127.3464843011705
 30
0.0
 11
210.6563724391605
 21
127.3464843011705
 31
0.0
  0
ARC
  5
108
330
F6
100
AcDbEntity
  8
DV2_0
 62
     7
370
    35
100
AcDbCircle
 10
188.0816206921626
 20
126.8232294326713
 30
0.0
 40
0.2887206088381469
100
AcDbArc
 50
36.87547996853149
 51
46.26401899225938
  0
LINE
  5
109
330
F6
100
AcDbEntity
  8
DV2_0
 62
     7
370
    35
100
AcDbLine
 10
210.6563724391605
 20
127.0318396402298
 30
0.0
 11
210.6563724391605
 21
127.0473968406108
 31
0.0
  0
ARC
  5
10A
330
F6
100
AcDbEntity
  8
DV2_0
 62
     7
370
    35
100
AcDbCircle
 10
216.6225552747161
 20
126.3623280320342
 30
0.0
 40
6.030972818686051
100
AcDbArc
 50
171.5940375873944
 51
173.9641962261958
  0
LINE
  5
10B
330
F6
100
AcDbEntity
  8
DV2_0
 62
     7
370
    35
100
AcDbLine
 10
210.6563724391605
 20
127.2439716745858
 30
0.0
 11
210.6563724391605
 21
127.3191110019661
 31
0.0
  0
LINE
  5
10C
330
F6
100
AcDbEntity
  8
DV2_0
 62
     7
370
    35
100
AcDbLine
 10
188.2812237263837
 20
127.3464843011705
 30
0.0
 11
188.2812237263837
 21
127.3281213291639
 31
0.0
  0
ARC
  5
10D
330
F6
100
AcDbEntity
  8
DV2_0
 62
     7
370
    35
100
AcDbCircle
 10
182.3150408908081
 20
126.3623280320314
 30
0.0
 40
6.030972818706261
100
AcDbArc
 50
6.035803773810643
 51
8.405962412604138
  0
ARC
  5
10E
330
F6
100
AcDbEntity
  8
DV2_0
 62
     7
370
    35
100
AcDbCircle
 10
210.849028233138
 20
126.8293909250167
 30
0.0
 40
0.2794668804072968
100
AcDbArc
 50
133.5801776827828
 51
143.2803233564286
  0
LINE
  5
10F
330
F6
100
AcDbEntity
  8
DV2_0
 62
     7
370
    35
100
AcDbLine
 10
210.6563724391605
 20
127.3281213291639
 30
0.0
 11
210.6563724391605
 21
127.3464843011705
 31
0.0
  0
ELLIPSE
  5
110
330
F6
100
AcDbEntity
  8
DV2_0
 62
     7
370
    35
100
AcDbEllipse
 10
210.7055460572567
 20
126.9964842965917
 30
0.0
 11
0.4255863791995537
 21
0.1635982509142597
 31
0.0
210
0.0
220
0.0
230
0.9999999999999999
 40
0.7270245008457882
 41
1.409786422886155
 42
1.437942683819518
  0
ELLIPSE
  5
111
330
F6
100
AcDbEntity
  8
DV2_0
 62
     7
370
    35
100
AcDbEllipse
 10
210.6250158654311
 20
126.9964843012964
 30
0.0
 11
-0.1566522157592551
 21
0.3329135786417873
 31
0.0
210
0.0
220
0.0
230
1.0
 40
0.6895597226075156
 41
-0.7118763779009836
 42
-0.6672745385909487
  0
LINE
  5
112
330
F6
100
AcDbEntity
  8
DV2_0
 62
     7
370
    35
100
AcDbLine
 10
210.6563724391605
 20
127.0546904253331
 30
0.0
 11
210.6563724391605
 21
127.2439716745858
 31
0.0
  0
LINE
  5
113
330
F6
100
AcDbEntity
  8
DV2_0
 62
     7
370
    35
100
AcDbLine
 10
211.5692582361538
 20
106.5964843011705
 30
0.0
 11
205.3917642853062
 21
106.5964843011705
 31
0.0
  0
LINE
  5
114
330
F6
100
AcDbEntity
  8
DV2_0
 62
     7
370
    35
100
AcDbLine
 10
210.6541129952668
 20
127.0426525429535
 30
0.0
 11
210.6563724391605
 21
127.0546904253331
 31
0.0
  0
LINE
  5
115
330
F6
100
AcDbEntity
  8
DV2_0
 62
     7
370
    35
100
AcDbLine
 10
210.6541129952668
 20
127.0426525429535
 30
0.0
 11
210.6563724391605
 21
127.0473968406107
 31
0.0
  0
LINE
  5
116
330
F6
100
AcDbEntity
  8
DV2_0
 62
     7
370
    35
100
AcDbLine
 10
210.6563724391605
 20
127.3281213291639
 30
0.0
 11
210.6563724391605
 21
127.3191110019661
 31
0.0
  0
LINE
  5
117
330
F6
100
AcDbEntity
  8
DV2_0
 62
     7
370
    35
100
AcDbLine
 10
210.6563724391605
 20
127.0546904253332
 30
0.0
 11
210.6563724391605
 21
127.0473968406108
 31
0.0
  0
LINE
  5
118
330
F6
100
AcDbEntity
  8
DV2_0
 62
     7
370
    35
100
AcDbLine
 10
210.8423256689764
 20
126.9382563148005
 30
0.0
 11
211.5692582361537
 21
106.5964843011705
 31
0.0
  0
LINE
  5
119
330
F6
100
AcDbEntity
  8
DV2_0
 62
     7
370
    35
100
AcDbLine
 10
188.2812237263837
 20
127.0546904253331
 30
0.0
 11
188.2812237263837
 21
127.2439716745858
 31
0.0
  0
LINE
  5
11A
330
F6
100
AcDbEntity
  8
DV2_0
 62
     7
370
    35
100
AcDbLine
 10
188.2812237263837
 20
127.0473968406107
 30
0.0
 11
188.2834831702775
 21
127.0426525429535
 31
0.0
  0
LINE
  5
11B
330
F6
100
AcDbEntity
  8
DV2_0
 62
     7
370
    35
100
AcDbLine
 10
188.2812237263837
 20
127.0546904253331
 30
0.0
 11
188.2834831702775
 21
127.0426525429535
 31
0.0
  0
LINE
  5
11C
330
F6
100
AcDbEntity
  8
DV2_0
 62
     7
370
    35
100
AcDbLine
 10
188.2812237263837
 20
127.3191110019661
 30
0.0
 11
188.2812237263837
 21
127.2439716745858
 31
0.0
  0
ELLIPSE
  5
11D
330
F6
100
AcDbEntity
  8
DV2_0
 62
     7
370
    35
100
AcDbEllipse
 10
188.3125803001628
 20
126.996484300635
 30
0.0
 11
0.1566522155777017
 21
0.3329135793865138
 31
0.0
210
0.0
220
0.0
230
0.9999999999999999
 40
0.6895597224709222
 41
0.6672745372115907
 42
0.7118763764761799
  0
ELLIPSE
  5
11E
330
F6
100
AcDbEntity
  8
DV2_0
 62
     7
370
    35
100
AcDbEllipse
 10
188.2320501089259
 20
126.9964843003805
 30
0.0
 11
-0.4255863771279678
 21
0.1635982488596436
 31
0.0
210
0.0
220
0.0
230
0.9999999999999997
 40
0.727024496846078
 41
-1.437942686599126
 42
-1.40978642550434
  0
LINE
  5
11F
330
F6
100
AcDbEntity
  8
DV2_0
 62
     7
370
    35
100
AcDbLine
 10
188.2812237263837
 20
127.0473968406107
 30
0.0
 11
188.2812237263837
 21
127.0546904253332
 31
0.0
  0
LINE
  5
120
330
F6
100
AcDbEntity
  8
DV2_0
 62
     7
370
    35
100
AcDbLine
 10
188.2812237263837
 20
127.3191110019661
 30
0.0
 11
188.2812237263837
 21
127.3281213291639
 31
0.0
  0
LINE
  5
121
330
F6
100
AcDbEntity
  8
DV2_0
 62
     7
370
    35
100
AcDbLine
 10
187.3683379293905
 20
106.5964843011705
 30
0.0
 11
188.0952704965678
 21
126.9382563148006
 31
0.0
  0
LINE
  5
122
330
F6
100
AcDbEntity
  8
DV2_0
 62
     7
370
    35
100
AcDbLine
 10
198.7812237263837
 20
129.3464843011705
 30
0.0
 11
198.7812237263837
 21
127.5964843011705
 31
0.0
  0
LINE
  5
123
330
F6
100
AcDbEntity
  8
DV2_0
 62
     7
370
    35
100
AcDbLine
 10
198.5312237263837
 20
127.3464843011705
 30
0.0
 11
188.5312237263837
 21
127.3464843011705
 31
0.0
  0
LINE
  5
124
330
F6
100
AcDbEntity
  8
DV2_0
 62
     7
370
    25
100
AcDbLine
 10
188.5312237263837
 20
129.3464843011705
 30
0.0
 11
188.5312237263837
 21
127.5964843011705
 31
0.0
  0
LINE
  5
125
330
F6
100
AcDbEntity
  8
DV2_0
 62
     7
370
    25
100
AcDbLine
 10
198.5312237263837
 20
129.3464843011705
 30
0.0
 11
188.5312237263837
 21
129.3464843011705
 31
0.0
  0
LINE
  5
126
330
F6
100
AcDbEntity
  8
DV2_0
 62
     7
370
    25
100
AcDbLine
 10
188.5312237263837
 20
127.5964843011705
 30
0.0
 11
198.5312237263837
 21
127.5964843011705
 31
0.0
  0
LINE
  5
127
330
F6
100
AcDbEntity
  8
DV2_0
 62
     7
370
    25
100
AcDbLine
 10
198.5312237263837
 20
127.5964843011705
 30
0.0
 11
198.5312237263837
 21
129.3464843011705
 31
0.0
  0
LINE
  5
128
330
F6
100
AcDbEntity
  8
DV2_0
 62
     7
370
    35
100
AcDbLine
 10
188.5312237263837
 20
129.5964843011705
 30
0.0
 11
198.5312237263837
 21
129.5964843011705
 31
0.0
  0
LINE
  5
129
330
F6
100
AcDbEntity
  8
DV2_0
 62
     7
370
    35
100
AcDbLine
 10
188.2812237263837
 20
127.5964843011705
 30
0.0
 11
188.2812237263837
 21
129.3464843011705
 31
0.0
  0
LINE
  5
12A
330
F6
100
AcDbEntity
  8
DV2_0
 62
     7
370
    25
100
AcDbLine
 10
188.5312237263837
 20
127.5964843011705
 30
0.0
 11
188.2812237263837
 21
127.5964843011705
 31
0.0
  0
LINE
  5
12B
330
F6
100
AcDbEntity
  8
DV2_0
 62
     7
370
    25
100
AcDbLine
 10
188.2812237263837
 20
129.3464843011705
 30
0.0
 11
188.5312237263837
 21
129.3464843011705
 31
0.0
  0
ARC
  5
12C
330
F6
100
AcDbEntity
  8
DV2_0
 62
     7
370
    35
100
AcDbCircle
 10
188.5312237263837
 20
127.5964843011705
 30
0.0
 40
0.2500000000000002
100
AcDbArc
 50
180.0
 51
270.0
  0
LINE
  5
12D
330
F6
100
AcDbEntity
  8
DV2_0
 62
     7
370
    25
100
AcDbLine
 10
188.5312237263837
 20
127.5964843011705
 30
0.0
 11
188.5312237263837
 21
127.3464843011705
 31
0.0
  0
LINE
  5
12E
330
F6
100
AcDbEntity
  8
DV2_0
 62
     7
370
    25
100
AcDbLine
 10
188.5312237263837
 20
129.5964843011705
 30
0.0
 11
188.5312237263837
 21
129.3464843011705
 31
0.0
  0
ARC
  5
12F
330
F6
100
AcDbEntity
  8
DV2_0
 62
     7
370
    35
100
AcDbCircle
 10
188.5312237263837
 20
129.3464843011705
 30
0.0
 40
0.2500000000000002
100
AcDbArc
 50
90.0
 51
179.9999999999935
  0
LINE
  5
130
330
F6
100
AcDbEntity
  8
DV2_0
 62
     7
370
    25
100
AcDbLine
 10
198.5312237263837
 20
127.5964843011705
 30
0.0
 11
198.5312237263837
 21
127.3464843011705
 31
0.0
  0
LINE
  5
131
330
F6
100
AcDbEntity
  8
DV2_0
 62
     7
370
    25
100
AcDbLine
 10
198.7812237263837
 20
127.5964843011705
 30
0.0
 11
198.5312237263837
 21
127.5964843011705
 31
0.0
  0
LINE
  5
132
330
F6
100
AcDbEntity
  8
DV2_0
 62
     7
370
    25
100
AcDbLine
 10
198.5312237263837
 20
129.3464843011705
 30
0.0
 11
198.7812237263837
 21
129.3464843011705
 31
0.0
  0
LINE
  5
133
330
F6
100
AcDbEntity
  8
DV2_0
 62
     7
370
    25
100
AcDbLine
 10
198.5312237263837
 20
129.5964843011705
 30
0.0
 11
198.5312237263837
 21
129.3464843011705
 31
0.0
  0
ARC
  5
134
330
F6
100
AcDbEntity
  8
DV2_0
 62
     7
370
    35
100
AcDbCircle
 10
198.5312237263837
 20
127.5964843011705
 30
0.0
 40
0.2500000000000002
100
AcDbArc
 50
270.0
 51
0.0
  0
ARC
  5
135
330
F6
100
AcDbEntity
  8
DV2_0
 62
     7
370
    35
100
AcDbCircle
 10
198.5312237263837
 20
129.3464843011705
 30
0.0
 40
0.2500000000000002
100
AcDbArc
 50
0.0000000000065138
 51
90.0
  0
LINE
  5
136
330
F6
100
AcDbEntity
  8
DV2_0
 62
     7
370
    35
100
AcDbLine
 10
210.6132456475515
 20
129.3464843011705
 30
0.0
 11
210.6132456475515
 21
127.5964843011705
 31
0.0
  0
LINE
  5
137
330
F6
100
AcDbEntity
  8
DV2_0
 62
     7
370
    35
100
AcDbLine
 10
210.3632456475515
 20
127.3464843011705
 30
0.0
 11
200.3632456475515
 21
127.3464843011705
 31
0.0
  0
LINE
  5
138
330
F6
100
AcDbEntity
  8
DV2_0
 62
     7
370
    25
100
AcDbLine
 10
200.3632456475515
 20
129.3464843011705
 30
0.0
 11
200.3632456475515
 21
127.5964843011705
 31
0.0
  0
LINE
  5
139
330
F6
100
AcDbEntity
  8
DV2_0
 62
     7
370
    25
100
AcDbLine
 10
210.3632456475515
 20
129.3464843011705
 30
0.0
 11
200.3632456475515
 21
129.3464843011705
 31
0.0
  0
LINE
  5
13A
330
F6
100
AcDbEntity
  8
DV2_0
 62
     7
370
    25
100
AcDbLine
 10
200.3632456475515
 20
127.5964843011705
 30
0.0
 11
210.3632456475515
 21
127.5964843011705
 31
0.0
  0
LINE
  5
13B
330
F6
100
AcDbEntity
  8
DV2_0
 62
     7
370
    25
100
AcDbLine
 10
210.3632456475515
 20
127.5964843011705
 30
0.0
 11
210.3632456475515
 21
129.3464843011705
 31
0.0
  0
LINE
  5
13C
330
F6
100
AcDbEntity
  8
DV2_0
 62
     7
370
    35
100
AcDbLine
 10
200.3632456475515
 20
129.5964843011705
 30
0.0
 11
210.3632456475515
 21
129.5964843011705
 31
0.0
  0
LINE
  5
13D
330
F6
100
AcDbEntity
  8
DV2_0
 62
     7
370
    35
100
AcDbLine
 10
200.1132456475515
 20
127.5964843011705
 30
0.0
 11
200.1132456475515
 21
129.3464843011705
 31
0.0
  0
LINE
  5
13E
330
F6
100
AcDbEntity
  8
DV2_0
 62
     7
370
    25
100
AcDbLine
 10
200.3632456475515
 20
127.5964843011705
 30
0.0
 11
200.1132456475515
 21
127.5964843011705
 31
0.0
  0
LINE
  5
13F
330
F6
100
AcDbEntity
  8
DV2_0
 62
     7
370
    25
100
AcDbLine
 10
200.1132456475515
 20
129.3464843011705
 30
0.0
 11
200.3632456475515
 21
129.3464843011705
 31
0.0
  0
ARC
  5
140
330
F6
100
AcDbEntity
  8
DV2_0
 62
     7
370
    35
100
AcDbCircle
 10
200.3632456475515
 20
127.5964843011705
 30
0.0
 40
0.2500000000000002
100
AcDbArc
 50
180.0
 51
270.0
  0
LINE
  5
141
330
F6
100
AcDbEntity
  8
DV2_0
 62
     7
370
    25
100
AcDbLine
 10
200.3632456475515
 20
127.5964843011705
 30
0.0
 11
200.3632456475515
 21
127.3464843011705
 31
0.0
  0
LINE
  5
142
330
F6
100
AcDbEntity
  8
DV2_0
 62
     7
370
    25
100
AcDbLine
 10
200.3632456475515
 20
129.5964843011705
 30
0.0
 11
200.3632456475515
 21
129.3464843011705
 31
0.0
  0
ARC
  5
143
330
F6
100
AcDbEntity
  8
DV2_0
 62
     7
370
    35
100
AcDbCircle
 10
200.3632456475515
 20
129.3464843011705
 30
0.0
 40
0.2500000000000002
100
AcDbArc
 50
90.0
 51
179.9999999999935
  0
LINE
  5
144
330
F6
100
AcDbEntity
  8
DV2_0
 62
     7
370
    25
100
AcDbLine
 10
210.3632456475515
 20
127.5964843011705
 30
0.0
 11
210.3632456475515
 21
127.3464843011705
 31
0.0
  0
LINE
  5
145
330
F6
100
AcDbEntity
  8
DV2_0
 62
     7
370
    25
100
AcDbLine
 10
210.6132456475515
 20
127.5964843011705
 30
0.0
 11
210.3632456475515
 21
127.5964843011705
 31
0.0
  0
LINE
  5
146
330
F6
100
AcDbEntity
  8
DV2_0
 62
     7
370
    25
100
AcDbLine
 10
210.3632456475515
 20
129.3464843011705
 30
0.0
 11
210.6132456475515
 21
129.3464843011705
 31
0.0
  0
LINE
  5
147
330
F6
100
AcDbEntity
  8
DV2_0
 62
     7
370
    25
100
AcDbLine
 10
210.3632456475515
 20
129.5964843011705
 30
0.0
 11
210.3632456475515
 21
129.3464843011705
 31
0.0
  0
ARC
  5
148
330
F6
100
AcDbEntity
  8
DV2_0
 62
     7
370
    35
100
AcDbCircle
 10
210.3632456475515
 20
127.5964843011705
 30
0.0
 40
0.2500000000000002
100
AcDbArc
 50
270.0
 51
0.0
  0
ARC
  5
149
330
F6
100
AcDbEntity
  8
DV2_0
 62
     7
370
    35
100
AcDbCircle
 10
210.3632456475515
 20
129.3464843011705
 30
0.0
 40
0.2500000000000002
100
AcDbArc
 50
0.0000000000065138
 51
90.0
  0
LINE
  5
14A
330
F6
100
AcDbEntity
  8
DV2_0
 62
     7
370
    35
100
AcDbLine
 10
187.5533046575271
 20
139.4607085422811
 30
0.0
 11
185.835703952771
 21
139.1255252804355
 31
0.0
  0
LINE
  5
14B
330
F6
100
AcDbEntity
  8
DV2_0
 62
     7
370
    35
100
AcDbLine
 10
185.5424491003994
 20
139.3230134865656
 30
0.0
 11
183.6271161755676
 21
149.1378746566003
 31
0.0
  0
LINE
  5
14C
330
F6
100
AcDbEntity
  8
DV2_0
 62
     7
370
    25
100
AcDbLine
 10
185.5900884095745
 20
149.5209412415667
 30
0.0
 11
183.8724877048184
 21
149.1857579797211
 31
0.0
  0
LINE
  5
14D
330
F6
100
AcDbEntity
  8
DV2_0
 62
     7
370
    25
100
AcDbLine
 10
187.5054213344063
 20
139.706080071532
 30
0.0
 11
185.5900884095745
 21
149.5209412415667
 31
0.0
  0
LINE
  5
14E
330
F6
100
AcDbEntity
  8
DV2_0
 62
     7
370
    25
100
AcDbLine
 10
183.8724877048184
 20
149.1857579797211
 30
0.0
 11
185.7878206296503
 21
139.3708968096864
 31
0.0
  0
LINE
  5
14F
330
F6
100
AcDbEntity
  8
DV2_0
 62
     7
370
    25
100
AcDbLine
 10
185.7878206296503
 20
139.3708968096864
 30
0.0
 11
187.5054213344063
 21
139.706080071532
 31
0.0
  0
LINE
  5
150
330
F6
100
AcDbEntity
  8
DV2_0
 62
     7
370
    35
100
AcDbLine
 10
185.8354599388254
 20
149.5688245646875
 30
0.0
 11
187.7507928636572
 21
139.7539633946528
 31
0.0
  0
LINE
  5
151
330
F6
100
AcDbEntity
  8
DV2_0
 62
     7
370
    35
100
AcDbLine
 10
183.8246043816976
 20
149.431129508972
 30
0.0
 11
185.5422050864537
 21
149.7663127708176
 31
0.0
  0
LINE
  5
152
330
F6
100
AcDbEntity
  8
DV2_0
 62
     7
370
    25
100
AcDbLine
 10
183.8724877048184
 20
149.1857579797211
 30
0.0
 11
183.8246043816976
 21
149.431129508972
 31
0.0
  0
LINE
  5
153
330
F6
100
AcDbEntity
  8
DV2_0
 62
     7
370
    25
100
AcDbLine
 10
185.5422050864537
 20
149.7663127708176
 30
0.0
 11
185.5900884095745
 21
149.5209412415667
 31
0.0
  0
ARC
  5
154
330
F6
100
AcDbEntity
  8
DV2_0
 62
     7
370
    35
100
AcDbCircle
 10
183.8724877048184
 20
149.1857579797211
 30
0.0
 40
0.2500000000000001
100
AcDbArc
 50
101.0422789305463
 51
191.0422789305399
  0
LINE
  5
155
330
F6
100
AcDbEntity
  8
DV2_0
 62
     7
370
    25
100
AcDbLine
 10
183.8724877048184
 20
149.1857579797211
 30
0.0
 11
183.6271161755676
 21
149.1378746566003
 31
0.0
  0
LINE
  5
156
330
F6
100
AcDbEntity
  8
DV2_0
 62
     7
370
    25
100
AcDbLine
 10
185.8354599388254
 20
149.5688245646875
 30
0.0
 11
185.5900884095745
 21
149.5209412415667
 31
0.0
  0
ARC
  5
157
330
F6
100
AcDbEntity
  8
DV2_0
 62
     7
370
    35
100
AcDbCircle
 10
185.5900884095745
 20
149.5209412415667
 30
0.0
 40
0.2499999999999973
100
AcDbArc
 50
11.04227893053988
 51
101.0422789305399
  0
LINE
  5
158
330
F6
100
AcDbEntity
  8
DV2_0
 62
     7
370
    25
100
AcDbLine
 10
185.7878206296503
 20
139.3708968096864
 30
0.0
 11
185.5424491003994
 21
139.3230134865656
 31
0.0
  0
LINE
  5
159
330
F6
100
AcDbEntity
  8
DV2_0
 62
     7
370
    25
100
AcDbLine
 10
185.835703952771
 20
139.1255252804355
 30
0.0
 11
185.7878206296502
 21
139.3708968096864
 31
0.0
  0
LINE
  5
15A
330
F6
100
AcDbEntity
  8
DV2_0
 62
     7
370
    25
100
AcDbLine
 10
187.5054213344063
 20
139.706080071532
 30
0.0
 11
187.5533046575271
 21
139.4607085422811
 31
0.0
  0
LINE
  5
15B
330
F6
100
AcDbEntity
  8
DV2_0
 62
     7
370
    25
100
AcDbLine
 10
187.7507928636572
 20
139.7539633946528
 30
0.0
 11
187.5054213344063
 21
139.706080071532
 31
0.0
  0
ARC
  5
15C
330
F6
100
AcDbEntity
  8
DV2_0
 62
     7
370
    35
100
AcDbCircle
 10
185.7878206296503
 20
139.3708968096864
 30
0.0
 40
0.2500000000000001
100
AcDbArc
 50
191.0422789305462
 51
281.0422789305399
  0
ARC
  5
15D
330
F6
100
AcDbEntity
  8
DV2_0
 62
     7
370
    35
100
AcDbCircle
 10
187.5054213344063
 20
139.706080071532
 30
0.0
 40
0.2500000000000014
100
AcDbArc
 50
281.0422789305411
 51
11.04227893055266
  0
LINE
  5
15E
330
F6
100
AcDbEntity
  8
DV2_0
 62
     7
370
    35
100
AcDbLine
 10
187.5596790542783
 20
126.6887532950006
 30
0.0
 11
188.0863542688871
 21
126.6887532950006
 31
0.0
  0
LINE
  5
15F
330
F6
100
AcDbEntity
  8
DV2_0
 62
     7
370
    35
100
AcDbLine
 10
187.2096790542782
 20
129.2083815987211
 30
0.0
 11
187.2096790542782
 21
127.0387532950006
 31
0.0
  0
LINE
  5
160
330
F6
100
AcDbEntity
  8
DV2_0
 62
     7
370
    35
100
AcDbLine
 10
187.5096790542782
 20
129.2083815987211
 30
0.0
 11
187.5096790542782
 21
127.0387532950006
 31
0.0
  0
LINE
  5
161
330
F6
100
AcDbEntity
  8
DV2_0
 62
     7
370
    35
100
AcDbLine
 10
187.5596790542783
 20
126.9887532950006
 30
0.0
 11
188.2837277923033
 21
126.9887532950006
 31
0.0
  0
LINE
  5
162
330
F6
100
AcDbEntity
  8
DV2_0
 62
     7
370
    35
100
AcDbLine
 10
183.5242036329497
 20
148.0989285518519
 30
0.0
 11
187.2087533601284
 21
129.2179582633453
 31
0.0
  0
LINE
  5
163
330
F6
100
AcDbEntity
  8
DV2_0
 62
     7
370
    35
100
AcDbLine
 10
185.5424491003994
 20
139.3230134865656
 30
0.0
 11
187.5031991952295
 21
129.2754182510902
 31
0.0
  0
LINE
  5
164
330
F6
100
AcDbEntity
  8
DV2_0
 62
     7
370
    25
100
AcDbLine
 10
183.8186494680508
 20
148.1563885395969
 30
0.0
 11
183.5242036329497
 21
148.0989285518519
 31
0.0
  0
LINE
  5
165
330
F6
100
AcDbEntity
  8
DV2_0
 62
     7
370
    35
100
AcDbLine
 10
183.5242036329497
 20
148.0989285518519
 30
0.0
 11
183.3326703404665
 21
149.0804146688554
 31
0.0
  0
LINE
  5
166
330
F6
100
AcDbEntity
  8
DV2_0
 62
     7
370
    35
100
AcDbLine
 10
183.3326703404665
 20
149.0804146688554
 30
0.0
 11
183.6271161755676
 21
149.1378746566004
 31
0.0
  0
LINE
  5
167
330
F6
100
AcDbEntity
  8
DV2_0
 62
     7
370
    25
100
AcDbLine
 10
187.5596790542783
 20
126.9887532950006
 30
0.0
 11
187.5596790542783
 21
126.6887532950006
 31
0.0
  0
LINE
  5
168
330
F6
100
AcDbEntity
  8
DV2_0
 62
     7
370
    25
100
AcDbLine
 10
187.5096790542782
 20
127.0387532950006
 30
0.0
 11
187.2096790542782
 21
127.0387532950006
 31
0.0
  0
LINE
  5
169
330
F6
100
AcDbEntity
  8
DV2_0
 62
     7
370
    25
100
AcDbLine
 10
187.2087533601284
 20
129.2179582633453
 30
0.0
 11
187.5031991952295
 21
129.2754182510902
 31
0.0
  0
LINE
  5
16A
330
F6
100
AcDbEntity
  8
DV2_0
 62
     7
370
    25
100
AcDbLine
 10
187.2096790542782
 20
129.2083815987211
 30
0.0
 11
187.5096790542783
 21
129.2083815987211
 31
0.0
  0
ARC
  5
16B
330
F6
100
AcDbEntity
  8
DV2_0
 62
     7
370
    35
100
AcDbCircle
 10
187.5596790542783
 20
127.0387532950006
 30
0.0
 40
0.3500000000000003
100
AcDbArc
 50
180.0
 51
270.0
  0
ARC
  5
16C
330
F6
100
AcDbEntity
  8
DV2_0
 62
     7
370
    35
100
AcDbCircle
 10
187.5596790542783
 20
127.0387532950006
 30
0.0
 40
0.0500000000000014
100
AcDbArc
 50
180.0
 51
270.0
  0
ARC
  5
16D
330
F6
100
AcDbEntity
  8
DV2_0
 62
     7
370
    35
100
AcDbCircle
 10
187.1596790542783
 20
129.2083815987211
 30
0.0
 40
0.349999999999999
100
AcDbArc
 50
0.0
 51
11.04227893054736
  0
ARC
  5
16E
330
F6
100
AcDbEntity
  8
DV2_0
 62
     7
370
    35
100
AcDbCircle
 10
187.1596790542783
 20
129.2083815987211
 30
0.0
 40
0.0500000000000001
100
AcDbArc
 50
0.0
 51
11.04227893056919
  0
ENDBLK
  5
170
330
F6
100
AcDbEntity
  8
0
100
AcDbBlockEnd
  0
BLOCK
  5
208
330
171
100
AcDbEntity
  8
0
100
AcDbBlockBegin
  2
SE2
 70
     0
 10
0.0
 20
0.0
 30
0.0
  3
SE2
  1

  0
LINE
  5
174
330
171
100
AcDbEntity
  8
DV3_0
 62
     7
370
    35
100
AcDbLine
 10
116.3311086329861
 20
65.56001965746628
 30
0.0
 11
116.4977893619169
 21
65.35436995630582
 31
0.0
  0
LINE
  5
175
330
171
100
AcDbEntity
  8
DV3_0
 62
     7
370
    35
100
AcDbLine
 10
116.757275680513
 20
42.65906855271218
 30
0.0
 11
116.1668985523961
 21
41.93066473093857
 31
0.0
  0
ELLIPSE
  5
176
330
171
100
AcDbEntity
  8
DV3_0
 62
     7
370
    35
100
AcDbEllipse
 10
121.1477893619169
 20
65.00286069174965
 30
0.0
 11
0.3500000000000059
 21
2.914335439641036E-14
 31
0.0
210
0.0
220
0.0
230
1.0
 40
0.9659258262890551
 41
0.0
 42
0.6981317007976184
  0
LINE
  5
177
330
171
100
AcDbEntity
  8
DV3_0
 62
     7
370
    35
100
AcDbLine
 10
121.1864769178225
 20
65.03421726548893
 30
0.0
 11
121.4159049170085
 21
65.22017049530486
 31
0.0
  0
LINE
  5
178
330
171
100
AcDbEntity
  8
DV3_0
 62
     7
370
    35
100
AcDbLine
 10
121.1864769178225
 20
42.65906855271218
 30
0.0
 11
121.4159049170085
 21
42.47311532289624
 31
0.0
  0
ELLIPSE
  5
179
330
171
100
AcDbEntity
  8
DV3_0
 62
     7
370
    35
100
AcDbEllipse
 10
121.1477893619169
 20
42.69042512645144
 30
0.0
 11
-0.349999999999992
 21
1.110223024625157E-14
 31
0.0
210
0.0
220
0.0
230
1.0
 40
0.9659258262890884
 41
2.443460952792172
 42
3.141592653589826
  0
LINE
  5
17A
330
171
100
AcDbEntity
  8
DV3_0
 62
     7
370
    35
100
AcDbLine
 10
121.4977893619169
 20
65.00286069174965
 30
0.0
 11
121.4977893619169
 21
64.78421726548893
 31
0.0
  0
LINE
  5
17B
330
171
100
AcDbEntity
  8
DV3_0
 62
     7
370
    35
100
AcDbLine
 10
121.4977893619169
 20
54.78421726548893
 30
0.0
 11
121.4977893619169
 21
52.9521953443211
 31
0.0
  0
LINE
  5
17C
330
171
100
AcDbEntity
  8
DV3_0
 62
     7
370
    35
100
AcDbLine
 10
121.4977893619169
 20
42.9521953443211
 30
0.0
 11
121.4977893619169
 21
42.69042512645143
 31
0.0
  0
LINE
  5
17D
330
171
100
AcDbEntity
  8
DV3_0
 62
     7
370
    35
100
AcDbLine
 10
116.4977893619169
 20
42.65906855271218
 30
0.0
 11
121.1477893619169
 21
42.65906855271218
 31
0.0
  0
LINE
  5
17E
330
171
100
AcDbEntity
  8
DV3_0
 62
     7
370
    25
100
AcDbLine
 10
121.1477893619169
 20
42.65906855271218
 30
0.0
 11
121.1477893619169
 21
42.70219534432111
 31
0.0
  0
LINE
  5
17F
330
171
100
AcDbEntity
  8
DV3_0
 62
     7
370
    25
100
AcDbLine
 10
121.1477893619169
 20
53.20219534432111
 30
0.0
 11
121.1477893619169
 21
54.53421726548895
 31
0.0
  0
LINE
  5
180
330
171
100
AcDbEntity
  8
DV3_0
 62
     7
370
    35
100
AcDbLine
 10
116.4977893619169
 20
54.53421726548896
 30
0.0
 11
116.4977893619169
 21
53.20219534432112
 31
0.0
  0
LINE
  5
181
330
171
100
AcDbEntity
  8
DV3_0
 62
     7
370
    35
100
AcDbLine
 10
116.4977893619169
 20
42.70219534432113
 30
0.0
 11
116.4977893619169
 21
42.65906855271218
 31
0.0
  0
SPLINE
  5
182
330
171
100
AcDbEntity
  8
DV3_0
 62
     7
370
    35
100
AcDbSpline
210
0.0
220
0.0
230
1.0
 70
     8
 71
     3
 72
    10
 73
     6
 74
     0
 42
0.000000001
 43
0.0000000001
 40
0.0
 40
0.0
 40
0.0
 40
0.0
 40
0.5
 40
0.5
 40
1.0
 40
1.0
 40
1.0
 40
1.0
 10
121.3952767353322
 20
65.03421726548893
 30
0.0
 10
121.4276784993177
 20
65.0289902434811
 30
0.0
 10
121.4536146069287
 20
65.02376507424252
 30
0.0
 10
121.488679789663
 20
65.01331288299609
 30
0.0
 10
121.4977893619169
 20
65.00808771614938
 30
0.0
 10
121.4977893619169
 20
65.00286069174965
 30
0.0
  0
LINE
  5
183
330
171
100
AcDbEntity
  8
DV3_0
 62
     7
370
    35
100
AcDbLine
 10
121.3952767353322
 20
65.03421726548893
 30
0.0
 11
121.2834802309308
 21
65.03421726548893
 31
0.0
  0
LINE
  5
184
330
171
100
AcDbEntity
  8
DV3_0
 62
     7
370
    35
100
AcDbLine
 10
121.1477893619169
 20
42.65906855271218
 30
0.0
 11
121.2596682324139
 21
42.65906855271218
 31
0.0
  0
SPLINE
  5
185
330
171
100
AcDbEntity
  8
DV3_0
 62
     7
370
    35
100
AcDbSpline
210
0.0
220
0.0
230
1.0
 70
     8
 71
     3
 72
    10
 73
     6
 74
     0
 42
0.000000001
 43
0.0000000001
 40
0.0
 40
0.0
 40
0.0
 40
0.0
 40
0.5
 40
0.5
 40
1.0
 40
1.0
 40
1.0
 40
1.0
 10
121.3952767353322
 20
42.65906855271216
 30
0.0
 10
121.4276727567563
 20
42.66429464833538
 30
0.0
 10
121.4536145978409
 20
42.66952074395859
 30
0.0
 10
121.4886797987508
 20
42.67997293520501
 30
0.0
 10
121.4977893619169
 20
42.68519903082822
 30
0.0
 10
121.4977893619169
 20
42.69042512645144
 30
0.0
  0
LINE
  5
186
330
171
100
AcDbEntity
  8
DV3_0
 62
     7
370
    35
100
AcDbLine
 10
121.2596682324139
 20
65.03421726548893
 30
0.0
 11
121.2477893619169
 21
65.03421726548893
 31
0.0
  0
LINE
  5
187
330
171
100
AcDbEntity
  8
DV3_0
 62
     7
370
    35
100
AcDbLine
 10
121.1839404381686
 20
65.03421726548895
 30
0.0
 11
120.4977893619169
 21
65.13383673800584
 31
0.0
  0
LINE
  5
188
330
171
100
AcDbEntity
  8
DV3_0
 62
     7
370
    35
100
AcDbLine
 10
121.2834802309308
 20
65.03421726548893
 30
0.0
 11
121.2596682324139
 21
65.03421726548893
 31
0.0
  0
LINE
  5
189
330
171
100
AcDbEntity
  8
DV3_0
 62
     7
370
    35
100
AcDbLine
 10
121.4159049170085
 20
65.22017049530486
 30
0.0
 11
120.4977893619169
 21
65.35346794316054
 31
0.0
  0
LINE
  5
18A
330
171
100
AcDbEntity
  8
DV3_0
 62
     7
370
    35
100
AcDbLine
 10
121.2834802309308
 20
42.65906855271218
 30
0.0
 11
121.3952767353322
 21
42.65906855271218
 31
0.0
  0
LINE
  5
18B
330
171
100
AcDbEntity
  8
DV3_0
 62
     7
370
    35
100
AcDbLine
 10
116.4089966215788
 20
41.74618275571891
 30
0.0
 11
116.1668985523961
 21
41.93066473093857
 31
0.0
  0
LINE
  5
18C
330
171
100
AcDbEntity
  8
DV3_0
 62
     7
370
    35
100
AcDbLine
 10
116.1668985523961
 20
41.93066473093857
 30
0.0
 11
121.1839404381688
 21
42.65906855271218
 31
0.0
  0
ELLIPSE
  5
18D
330
171
100
AcDbEntity
  8
DV3_0
 62
     7
370
    35
100
AcDbEllipse
 10
121.1477893617774
 20
42.69042512647771
 30
0.0
 11
0.3479085500939637
 21
-0.2736421111259713
 31
0.0
210
0.0
220
0.0
230
1.0
 40
0.1396175726970764
 41
1.282049806009806
 42
1.326651645286411
  0
ELLIPSE
  5
18E
330
171
100
AcDbEntity
  8
DV3_0
 62
     7
370
    35
100
AcDbEllipse
 10
121.147789363612
 20
42.60989493619473
 30
0.0
 11
0.3469656488076263
 21
0.4404064472077835
 31
0.0
210
0.0
220
0.0
230
1.0
 40
0.1044202521994675
 41
-1.377205574620703
 42
-1.349049313287344
  0
LINE
  5
18F
330
171
100
AcDbEntity
  8
DV3_0
 62
     7
370
    35
100
AcDbLine
 10
116.4089966215788
 20
41.74618275571891
 30
0.0
 11
121.4159049170085
 21
42.47311532289624
 31
0.0
  0
LINE
  5
190
330
171
100
AcDbEntity
  8
DV3_0
 62
     7
370
    35
100
AcDbLine
 10
121.2596682324139
 20
42.65906855271217
 30
0.0
 11
121.2834802309308
 21
42.65906855271218
 31
0.0
  0
LINE
  5
191
330
171
100
AcDbEntity
  8
DV3_0
 62
     7
370
    35
100
AcDbLine
 10
34.32868017143767
 20
41.93066473093856
 30
0.0
 11
33.73830304332076
 21
42.65906855271216
 31
0.0
  0
LINE
  5
192
330
171
100
AcDbEntity
  8
DV3_0
 62
     7
370
    35
100
AcDbLine
 10
33.99778936191689
 20
65.35436995630582
 30
0.0
 11
34.16447009084772
 21
65.5600196574663
 31
0.0
  0
ELLIPSE
  5
193
330
171
100
AcDbEntity
  8
DV3_0
 62
     7
370
    35
100
AcDbEllipse
 10
29.34778936191687
 20
42.69042512645143
 30
0.0
 11
-0.3499999999999837
 21
3.885780586188049E-14
 31
0.0
210
0.0
220
0.0
230
1.0
 40
0.9659258262890972
 41
0.0000000000000939
 42
0.6981317007978249
  0
LINE
  5
194
330
171
100
AcDbEntity
  8
DV3_0
 62
     7
370
    35
100
AcDbLine
 10
29.30910180601129
 20
42.65906855271216
 30
0.0
 11
29.07967380682524
 21
42.47311532289623
 31
0.0
  0
LINE
  5
195
330
171
100
AcDbEntity
  8
DV3_0
 62
     7
370
    35
100
AcDbLine
 10
29.3091018060113
 20
65.03421726548892
 30
0.0
 11
29.07967380682525
 21
65.22017049530486
 31
0.0
  0
ELLIPSE
  5
196
330
171
100
AcDbEntity
  8
DV3_0
 62
     7
370
    35
100
AcDbEllipse
 10
29.34778936191684
 20
65.00286069174965
 30
0.0
 11
0.3499999999999615
 21
1.679212324745550E-13
 31
0.0
210
0.0
220
0.0
230
1.0
 40
0.9659258262891379
 41
2.443460952791562
 42
3.141592653589801
  0
LINE
  5
197
330
171
100
AcDbEntity
  8
DV3_0
 62
     7
370
    35
100
AcDbLine
 10
28.99778936191688
 20
42.69042512645143
 30
0.0
 11
28.99778936191688
 21
42.95219534432111
 31
0.0
  0
LINE
  5
198
330
171
100
AcDbEntity
  8
DV3_0
 62
     7
370
    35
100
AcDbLine
 10
28.99778936191688
 20
52.95219534432111
 30
0.0
 11
28.99778936191688
 21
54.78421726548895
 31
0.0
  0
LINE
  5
199
330
171
100
AcDbEntity
  8
DV3_0
 62
     7
370
    35
100
AcDbLine
 10
28.99778936191688
 20
64.78421726548895
 30
0.0
 11
28.99778936191688
 21
65.00286069174965
 31
0.0
  0
LINE
  5
19A
330
171
100
AcDbEntity
  8
DV3_0
 62
     7
370
    25
100
AcDbLine
 10
29.34778936191689
 20
54.53421726548895
 30
0.0
 11
29.34778936191688
 21
53.20219534432112
 31
0.0
  0
LINE
  5
19B
330
171
100
AcDbEntity
  8
DV3_0
 62
     7
370
    25
100
AcDbLine
 10
29.34778936191688
 20
42.70219534432112
 30
0.0
 11
29.34778936191688
 21
42.65906855271217
 31
0.0
  0
LINE
  5
19C
330
171
100
AcDbEntity
  8
DV3_0
 62
     7
370
    35
100
AcDbLine
 10
29.34778936191688
 20
42.65906855271217
 30
0.0
 11
33.99778936191687
 21
42.65906855271217
 31
0.0
  0
LINE
  5
19D
330
171
100
AcDbEntity
  8
DV3_0
 62
     7
370
    35
100
AcDbLine
 10
33.99778936191688
 20
42.65906855271217
 30
0.0
 11
33.99778936191688
 21
42.70219534432112
 31
0.0
  0
LINE
  5
19E
330
171
100
AcDbEntity
  8
DV3_0
 62
     7
370
    35
100
AcDbLine
 10
33.99778936191689
 20
53.20219534432111
 30
0.0
 11
33.99778936191689
 21
54.53421726548895
 31
0.0
  0
SPLINE
  5
19F
330
171
100
AcDbEntity
  8
DV3_0
 62
     7
370
    35
100
AcDbSpline
210
0.0
220
0.0
230
1.0
 70
     8
 71
     3
 72
    10
 73
     6
 74
     0
 42
0.000000001
 43
0.0000000001
 40
0.0
 40
0.0
 40
0.0
 40
0.0
 40
0.5
 40
0.5
 40
1.0
 40
1.0
 40
1.0
 40
1.0
 10
29.10030198850159
 20
42.65906855271216
 30
0.0
 10
29.06790022451603
 20
42.66429557471998
 30
0.0
 10
29.04196411690507
 20
42.66952074395859
 30
0.0
 10
29.0068989341708
 20
42.67997293520501
 30
0.0
 10
28.99778936191688
 20
42.6851981020517
 30
0.0
 10
28.99778936191688
 20
42.69042512645143
 30
0.0
  0
LINE
  5
1A0
330
171
100
AcDbEntity
  8
DV3_0
 62
     7
370
    35
100
AcDbLine
 10
29.10030198850159
 20
42.65906855271217
 30
0.0
 11
29.21209849290301
 21
42.65906855271217
 31
0.0
  0
LINE
  5
1A1
330
171
100
AcDbEntity
  8
DV3_0
 62
     7
370
    35
100
AcDbLine
 10
29.24778936191688
 20
65.03421726548892
 30
0.0
 11
29.23591049141985
 21
65.03421726548892
 31
0.0
  0
SPLINE
  5
1A2
330
171
100
AcDbEntity
  8
DV3_0
 62
     7
370
    35
100
AcDbSpline
210
0.0
220
0.0
230
1.0
 70
     8
 71
     3
 72
    10
 73
     6
 74
     0
 42
0.000000001
 43
0.0000000001
 40
0.0
 40
0.0
 40
0.0
 40
0.0
 40
0.5
 40
0.5
 40
1.0
 40
1.0
 40
1.0
 40
1.0
 10
29.10030198850159
 20
65.03421726548893
 30
0.0
 10
29.06790596707753
 20
65.02899116986572
 30
0.0
 10
29.04196412599289
 20
65.0237650742425
 30
0.0
 10
29.00689892508297
 20
65.01331288299609
 30
0.0
 10
28.99778936191688
 20
65.00808678737287
 30
0.0
 10
28.99778936191688
 20
65.00286069174965
 30
0.0
  0
LINE
  5
1A3
330
171
100
AcDbEntity
  8
DV3_0
 62
     7
370
    35
100
AcDbLine
 10
29.23591049141986
 20
42.65906855271217
 30
0.0
 11
29.34778936191689
 21
42.65906855271217
 31
0.0
  0
ELLIPSE
  5
1A4
330
171
100
AcDbEntity
  8
DV3_0
 62
     7
370
    35
100
AcDbEllipse
 10
29.34778936355712
 20
42.60989493461599
 30
0.0
 11
-0.3469656542163468
 21
0.4404064535159083
 31
0.0
210
0.0
220
0.0
230
1.0
 40
0.1044202535831425
 41
1.349049310521378
 42
1.377205571454948
  0
ELLIPSE
  5
1A5
330
171
100
AcDbEntity
  8
DV3_0
 62
     7
370
    35
100
AcDbEllipse
 10
29.34778936185073
 20
42.69042512644152
 30
0.0
 11
-0.3479085497969714
 21
-0.273642110927895
 31
0.0
210
0.0
220
0.0
230
0.9999999999999998
 40
0.139617572587856
 41
-1.326651645521948
 42
-1.282049806211888
  0
LINE
  5
1A6
330
171
100
AcDbEntity
  8
DV3_0
 62
     7
370
    35
100
AcDbLine
 10
29.31163828566498
 20
42.65906855271217
 30
0.0
 11
34.32868017143767
 21
41.93066473093856
 31
0.0
  0
LINE
  5
1A7
330
171
100
AcDbEntity
  8
DV3_0
 62
     7
370
    35
100
AcDbLine
 10
34.32868017143767
 20
41.93066473093856
 30
0.0
 11
34.08658210225494
 21
41.7461827557189
 31
0.0
  0
LINE
  5
1A8
330
171
100
AcDbEntity
  8
DV3_0
 62
     7
370
    35
100
AcDbLine
 10
29.21209849290301
 20
42.65906855271217
 30
0.0
 11
29.23591049141985
 21
42.65906855271217
 31
0.0
  0
LINE
  5
1A9
330
171
100
AcDbEntity
  8
DV3_0
 62
     7
370
    35
100
AcDbLine
 10
29.07967380682524
 20
42.47311532289623
 30
0.0
 11
34.08658210225494
 21
41.74618275571889
 31
0.0
  0
LINE
  5
1AA
330
171
100
AcDbEntity
  8
DV3_0
 62
     7
370
    35
100
AcDbLine
 10
29.21209849290302
 20
65.03421726548892
 30
0.0
 11
29.1003019885016
 21
65.03421726548892
 31
0.0
  0
LINE
  5
1AB
330
171
100
AcDbEntity
  8
DV3_0
 62
     7
370
    35
100
AcDbLine
 10
29.99778936191689
 20
65.13383673800584
 30
0.0
 11
29.31163828566498
 21
65.03421726548892
 31
0.0
  0
LINE
  5
1AC
330
171
100
AcDbEntity
  8
DV3_0
 62
     7
370
    35
100
AcDbLine
 10
29.99778936191689
 20
65.35346794316055
 30
0.0
 11
29.07967380682525
 21
65.22017049530487
 31
0.0
  0
LINE
  5
1AD
330
171
100
AcDbEntity
  8
DV3_0
 62
     7
370
    35
100
AcDbLine
 10
29.23591049141985
 20
65.03421726548892
 30
0.0
 11
29.21209849290302
 21
65.03421726548892
 31
0.0
  0
LINE
  5
1AE
330
171
100
AcDbEntity
  8
DV3_0
 62
     7
370
    35
100
AcDbLine
 10
121.2477893619169
 20
54.53421726548895
 30
0.0
 11
29.24778936191687
 21
54.53421726548895
 31
0.0
  0
LINE
  5
1AF
330
171
100
AcDbEntity
  8
DV3_0
 62
     7
370
    35
100
AcDbLine
 10
121.4977893619169
 20
64.78421726548895
 30
0.0
 11
121.4977893619169
 21
54.78421726548895
 31
0.0
  0
LINE
  5
1B0
330
171
100
AcDbEntity
  8
DV3_0
 62
     7
370
    35
100
AcDbLine
 10
28.99778936191688
 20
54.78421726548895
 30
0.0
 11
28.99778936191688
 21
64.78421726548895
 31
0.0
  0
LINE
  5
1B1
330
171
100
AcDbEntity
  8
DV3_0
 62
     7
370
    25
100
AcDbLine
 10
121.2477893619169
 20
64.78421726548895
 30
0.0
 11
29.24778936191687
 21
64.78421726548895
 31
0.0
  0
LINE
  5
1B2
330
171
100
AcDbEntity
  8
DV3_0
 62
     7
370
    25
100
AcDbLine
 10
29.24778936191688
 20
64.78421726548895
 30
0.0
 11
29.24778936191688
 21
54.78421726548895
 31
0.0
  0
LINE
  5
1B3
330
171
100
AcDbEntity
  8
DV3_0
 62
     7
370
    25
100
AcDbLine
 10
121.2477893619169
 20
54.78421726548895
 30
0.0
 11
121.2477893619169
 21
64.78421726548895
 31
0.0
  0
LINE
  5
1B4
330
171
100
AcDbEntity
  8
DV3_0
 62
     7
370
    25
100
AcDbLine
 10
29.24778936191688
 20
54.78421726548895
 30
0.0
 11
121.2477893619169
 21
54.78421726548895
 31
0.0
  0
LINE
  5
1B5
330
171
100
AcDbEntity
  8
DV3_0
 62
     7
370
    35
100
AcDbLine
 10
29.24778936191688
 20
65.03421726548895
 30
0.0
 11
121.2477893619169
 21
65.03421726548895
 31
0.0
  0
ARC
  5
1B6
330
171
100
AcDbEntity
  8
DV3_0
 62
     7
370
    35
100
AcDbCircle
 10
29.24778936191688
 20
64.78421726548895
 30
0.0
 40
0.2500000000000002
100
AcDbArc
 50
90.0
 51
180.0
  0
LINE
  5
1B7
330
171
100
AcDbEntity
  8
DV3_0
 62
     7
370
    25
100
AcDbLine
 10
29.24778936191688
 20
64.78421726548895
 30
0.0
 11
28.99778936191689
 21
64.78421726548895
 31
0.0
  0
LINE
  5
1B8
330
171
100
AcDbEntity
  8
DV3_0
 62
     7
370
    25
100
AcDbLine
 10
29.24778936191688
 20
65.03421726548895
 30
0.0
 11
29.24778936191688
 21
64.78421726548895
 31
0.0
  0
ARC
  5
1B9
330
171
100
AcDbEntity
  8
DV3_0
 62
     7
370
    35
100
AcDbCircle
 10
29.24778936191688
 20
54.78421726548895
 30
0.0
 40
0.2499999999999947
100
AcDbArc
 50
180.0
 51
270.0
  0
LINE
  5
1BA
330
171
100
AcDbEntity
  8
DV3_0
 62
     7
370
    25
100
AcDbLine
 10
29.24778936191688
 20
54.78421726548895
 30
0.0
 11
28.99778936191689
 21
54.78421726548895
 31
0.0
  0
LINE
  5
1BB
330
171
100
AcDbEntity
  8
DV3_0
 62
     7
370
    25
100
AcDbLine
 10
121.2477893619169
 20
65.03421726548895
 30
0.0
 11
121.2477893619169
 21
64.78421726548895
 31
0.0
  0
ARC
  5
1BC
330
171
100
AcDbEntity
  8
DV3_0
 62
     7
370
    35
100
AcDbCircle
 10
121.2477893619169
 20
64.78421726548895
 30
0.0
 40
0.2500000000000002
100
AcDbArc
 50
0.0
 51
90.0
  0
LINE
  5
1BD
330
171
100
AcDbEntity
  8
DV3_0
 62
     7
370
    25
100
AcDbLine
 10
29.24778936191688
 20
54.78421726548895
 30
0.0
 11
29.24778936191688
 21
54.53421726548895
 31
0.0
  0
LINE
  5
1BE
330
171
100
AcDbEntity
  8
DV3_0
 62
     7
370
    25
100
AcDbLine
 10
121.4977893619169
 20
64.78421726548895
 30
0.0
 11
121.2477893619169
 21
64.78421726548895
 31
0.0
  0
LINE
  5
1BF
330
171
100
AcDbEntity
  8
DV3_0
 62
     7
370
    25
100
AcDbLine
 10
121.2477893619169
 20
54.78421726548895
 30
0.0
 11
121.2477893619169
 21
54.53421726548895
 31
0.0
  0
LINE
  5
1C0
330
171
100
AcDbEntity
  8
DV3_0
 62
     7
370
    25
100
AcDbLine
 10
121.4977893619169
 20
54.78421726548895
 30
0.0
 11
121.2477893619169
 21
54.78421726548895
 31
0.0
  0
ARC
  5
1C1
330
171
100
AcDbEntity
  8
DV3_0
 62
     7
370
    35
100
AcDbCircle
 10
121.2477893619169
 20
54.78421726548895
 30
0.0
 40
0.2500000000000002
100
AcDbArc
 50
270.0
 51
0.0
  0
LINE
  5
1C2
330
171
100
AcDbEntity
  8
DV3_0
 62
     7
370
    35
100
AcDbLine
 10
120.4977893619169
 20
65.56001965746627
 30
0.0
 11
120.4977893619169
 21
65.03421726548893
 31
0.0
  0
LINE
  5
1C3
330
171
100
AcDbEntity
  8
DV3_0
 62
     7
370
    35
100
AcDbLine
 10
116.4977893619169
 20
65.56001965746627
 30
0.0
 11
116.4977893619169
 21
65.03421726548893
 31
0.0
  0
LINE
  5
1C4
330
171
100
AcDbEntity
  8
DV3_0
 62
     7
370
    35
100
AcDbLine
 10
116.4977893619169
 20
69.6929532870542
 30
0.0
 11
116.4977893619169
 21
69.79123735892293
 31
0.0
  0
LINE
  5
1C5
330
171
100
AcDbEntity
  8
DV3_0
 62
     7
370
    35
100
AcDbLine
 10
119.4977893619169
 20
69.9827706514061
 30
0.0
 11
117.4977893619169
 21
69.9827706514061
 31
0.0
  0
ELLIPSE
  5
1C6
330
171
100
AcDbEntity
  8
DV3_0
 62
     7
370
    35
100
AcDbEllipse
 10
119.4977893619169
 20
69.7912373589229
 30
0.0
 11
-0.9999999999999989
 21
0.0
 31
0.0
210
0.0
220
0.0
230
1.0
 40
0.191533292483188
 41
3.141592653589793
 42
4.71238898038469
  0
ELLIPSE
  5
1C7
330
171
100
AcDbEntity
  8
DV3_0
 62
     7
370
    35
100
AcDbEllipse
 10
117.4977893619169
 20
69.79123735892291
 30
0.0
 11
-1.0
 21
0.0
 31
0.0
210
0.0
220
0.0
230
1.0
 40
0.1915332924831814
 41
4.71238898038469
 42
6.283185307179586
  0
LINE
  5
1C8
330
171
100
AcDbEntity
  8
DV3_0
 62
     7
370
    25
100
AcDbLine
 10
119.4977893619169
 20
69.69295328705417
 30
0.0
 11
119.4977893619169
 21
69.98277065140608
 31
0.0
  0
LINE
  5
1C9
330
171
100
AcDbEntity
  8
DV3_0
 62
     7
370
    25
100
AcDbLine
 10
117.4977893619169
 20
69.9827706514061
 30
0.0
 11
117.4977893619169
 21
69.69295328705418
 31
0.0
  0
LINE
  5
1CA
330
171
100
AcDbEntity
  8
DV3_0
 62
     7
370
    35
100
AcDbLine
 10
120.4977893619169
 20
69.79123735892291
 30
0.0
 11
120.4977893619169
 21
69.69295328705418
 31
0.0
  0
LINE
  5
1CB
330
171
100
AcDbEntity
  8
DV3_0
 62
     7
370
    35
100
AcDbLine
 10
121.2477893619169
 20
42.70219534432111
 30
0.0
 11
29.24778936191687
 21
42.70219534432111
 31
0.0
  0
LINE
  5
1CC
330
171
100
AcDbEntity
  8
DV3_0
 62
     7
370
    35
100
AcDbLine
 10
121.4977893619169
 20
52.95219534432111
 30
0.0
 11
121.4977893619169
 21
42.95219534432111
 31
0.0
  0
LINE
  5
1CD
330
171
100
AcDbEntity
  8
DV3_0
 62
     7
370
    35
100
AcDbLine
 10
28.99778936191688
 20
42.95219534432111
 30
0.0
 11
28.99778936191688
 21
52.95219534432111
 31
0.0
  0
LINE
  5
1CE
330
171
100
AcDbEntity
  8
DV3_0
 62
     7
370
    25
100
AcDbLine
 10
121.2477893619169
 20
52.95219534432111
 30
0.0
 11
29.24778936191687
 21
52.95219534432111
 31
0.0
  0
LINE
  5
1CF
330
171
100
AcDbEntity
  8
DV3_0
 62
     7
370
    25
100
AcDbLine
 10
29.24778936191688
 20
52.95219534432111
 30
0.0
 11
29.24778936191688
 21
42.95219534432111
 31
0.0
  0
LINE
  5
1D0
330
171
100
AcDbEntity
  8
DV3_0
 62
     7
370
    25
100
AcDbLine
 10
121.2477893619169
 20
42.95219534432111
 30
0.0
 11
121.2477893619169
 21
52.95219534432111
 31
0.0
  0
LINE
  5
1D1
330
171
100
AcDbEntity
  8
DV3_0
 62
     7
370
    25
100
AcDbLine
 10
29.24778936191688
 20
42.95219534432111
 30
0.0
 11
121.2477893619169
 21
42.95219534432111
 31
0.0
  0
LINE
  5
1D2
330
171
100
AcDbEntity
  8
DV3_0
 62
     7
370
    35
100
AcDbLine
 10
29.24778936191688
 20
53.20219534432111
 30
0.0
 11
121.2477893619169
 21
53.20219534432111
 31
0.0
  0
ARC
  5
1D3
330
171
100
AcDbEntity
  8
DV3_0
 62
     7
370
    35
100
AcDbCircle
 10
29.24778936191688
 20
52.95219534432111
 30
0.0
 40
0.2500000000000002
100
AcDbArc
 50
90.0
 51
180.0
  0
LINE
  5
1D4
330
171
100
AcDbEntity
  8
DV3_0
 62
     7
370
    25
100
AcDbLine
 10
29.24778936191688
 20
52.95219534432111
 30
0.0
 11
28.99778936191689
 21
52.95219534432111
 31
0.0
  0
LINE
  5
1D5
330
171
100
AcDbEntity
  8
DV3_0
 62
     7
370
    25
100
AcDbLine
 10
29.24778936191688
 20
53.20219534432111
 30
0.0
 11
29.24778936191688
 21
52.95219534432111
 31
0.0
  0
ARC
  5
1D6
330
171
100
AcDbEntity
  8
DV3_0
 62
     7
370
    35
100
AcDbCircle
 10
29.24778936191688
 20
42.95219534432111
 30
0.0
 40
0.2499999999999947
100
AcDbArc
 50
180.0
 51
270.0
  0
LINE
  5
1D7
330
171
100
AcDbEntity
  8
DV3_0
 62
     7
370
    25
100
AcDbLine
 10
29.24778936191688
 20
42.95219534432111
 30
0.0
 11
28.99778936191689
 21
42.95219534432111
 31
0.0
  0
LINE
  5
1D8
330
171
100
AcDbEntity
  8
DV3_0
 62
     7
370
    25
100
AcDbLine
 10
121.2477893619169
 20
53.20219534432111
 30
0.0
 11
121.2477893619169
 21
52.95219534432111
 31
0.0
  0
ARC
  5
1D9
330
171
100
AcDbEntity
  8
DV3_0
 62
     7
370
    35
100
AcDbCircle
 10
121.2477893619169
 20
52.95219534432111
 30
0.0
 40
0.2500000000000002
100
AcDbArc
 50
0.0
 51
90.0
  0
LINE
  5
1DA
330
171
100
AcDbEntity
  8
DV3_0
 62
     7
370
    25
100
AcDbLine
 10
29.24778936191688
 20
42.95219534432111
 30
0.0
 11
29.24778936191688
 21
42.70219534432111
 31
0.0
  0
LINE
  5
1DB
330
171
100
AcDbEntity
  8
DV3_0
 62
     7
370
    25
100
AcDbLine
 10
121.4977893619169
 20
52.95219534432111
 30
0.0
 11
121.2477893619169
 21
52.95219534432111
 31
0.0
  0
LINE
  5
1DC
330
171
100
AcDbEntity
  8
DV3_0
 62
     7
370
    25
100
AcDbLine
 10
121.2477893619169
 20
42.95219534432111
 30
0.0
 11
121.2477893619169
 21
42.70219534432111
 31
0.0
  0
LINE
  5
1DD
330
171
100
AcDbEntity
  8
DV3_0
 62
     7
370
    25
100
AcDbLine
 10
121.4977893619169
 20
42.95219534432111
 30
0.0
 11
121.2477893619169
 21
42.95219534432111
 31
0.0
  0
ARC
  5
1DE
330
171
100
AcDbEntity
  8
DV3_0
 62
     7
370
    35
100
AcDbCircle
 10
121.2477893619169
 20
42.95219534432111
 30
0.0
 40
0.2500000000000002
100
AcDbArc
 50
270.0
 51
0.0
  0
LINE
  5
1DF
330
171
100
AcDbEntity
  8
DV3_0
 62
     7
370
    35
100
AcDbLine
 10
121.5259745239509
 20
67.72535258229811
 30
0.0
 11
121.5259745239509
 21
65.81001965746628
 31
0.0
  0
LINE
  5
1E0
330
171
100
AcDbEntity
  8
DV3_0
 62
     7
370
    35
100
AcDbLine
 10
121.5259745239509
 20
69.4429532870542
 30
0.0
 11
121.5259745239509
 21
67.72535258229813
 31
0.0
  0
LINE
  5
1E1
330
171
100
AcDbEntity
  8
DV3_0
 62
     7
370
    35
100
AcDbLine
 10
29.02597452395093
 20
67.72535258229814
 30
0.0
 11
29.02597452395093
 21
69.44295328705421
 31
0.0
  0
LINE
  5
1E2
330
171
100
AcDbEntity
  8
DV3_0
 62
     7
370
    35
100
AcDbLine
 10
29.02597452395093
 20
65.81001965746631
 30
0.0
 11
29.02597452395093
 21
67.72535258229814
 31
0.0
  0
LINE
  5
1E3
330
171
100
AcDbEntity
  8
DV3_0
 62
     7
370
    25
100
AcDbLine
 10
121.2759745239509
 20
67.47998105304724
 30
0.0
 11
29.27597452395094
 21
67.47998105304727
 31
0.0
  0
LINE
  5
1E4
330
171
100
AcDbEntity
  8
DV3_0
 62
     7
370
    25
100
AcDbLine
 10
29.27597452395094
 20
67.47998105304727
 30
0.0
 11
29.27597452395094
 21
65.56464812821544
 31
0.0
  0
LINE
  5
1E5
330
171
100
AcDbEntity
  8
DV3_0
 62
     7
370
    25
100
AcDbLine
 10
121.2759745239509
 20
65.56464812821541
 30
0.0
 11
121.2759745239509
 21
67.47998105304724
 31
0.0
  0
LINE
  5
1E6
330
171
100
AcDbEntity
  8
DV3_0
 62
     7
370
    25
100
AcDbLine
 10
29.27597452395094
 20
65.56464812821544
 30
0.0
 11
121.2759745239509
 21
65.56464812821541
 31
0.0
  0
LINE
  5
1E7
330
171
100
AcDbEntity
  8
DV3_0
 62
     7
370
    25
100
AcDbLine
 10
29.27597452395094
 20
69.49083661017501
 30
0.0
 11
29.27597452395094
 21
67.77323590541894
 31
0.0
  0
LINE
  5
1E8
330
171
100
AcDbEntity
  8
DV3_0
 62
     7
370
    25
100
AcDbLine
 10
29.27597452395094
 20
67.77323590541893
 30
0.0
 11
121.2759745239509
 21
67.7732359054189
 31
0.0
  0
LINE
  5
1E9
330
171
100
AcDbEntity
  8
DV3_0
 62
     7
370
    25
100
AcDbLine
 10
121.2759745239509
 20
69.49083661017498
 30
0.0
 11
29.27597452395094
 21
69.49083661017501
 31
0.0
  0
LINE
  5
1EA
330
171
100
AcDbEntity
  8
DV3_0
 62
     7
370
    25
100
AcDbLine
 10
121.2759745239509
 20
67.77323590541891
 30
0.0
 11
121.2759745239509
 21
69.49083661017498
 31
0.0
  0
ELLIPSE
  5
1EB
330
171
100
AcDbEntity
  8
DV3_0
 62
     7
370
    25
100
AcDbEllipse
 10
29.27597452395095
 20
69.44295328705421
 30
0.0
 11
-0.2500000000000169
 21
2.775557561562891E-15
 31
0.0
210
0.0
220
0.0
230
1.0
 40
0.1915332924831685
 41
4.712388980384748
 42
6.283185307179586
  0
ELLIPSE
  5
1EC
330
171
100
AcDbEntity
  8
DV3_0
 62
     7
370
    25
100
AcDbEllipse
 10
29.27597452395094
 20
67.72535258229814
 30
0.0
 11
0.2499999999999947
 21
0.0
 31
0.0
210
0.0
220
0.0
230
1.0
 40
0.1915332924831855
 41
1.570796326794897
 42
3.141592653589793
  0
LINE
  5
1ED
330
171
100
AcDbEntity
  8
DV3_0
 62
     7
370
    25
100
AcDbLine
 10
29.27597452395092
 20
69.69295328705421
 30
0.0
 11
29.27597452395093
 21
69.49083661017501
 31
0.0
  0
ELLIPSE
  5
1EE
330
171
100
AcDbEntity
  8
DV3_0
 62
     7
370
    25
100
AcDbEllipse
 10
29.27597452395094
 20
67.72535258229814
 30
0.0
 11
0.2499999999999947
 21
8.326672684688676E-15
 31
0.0
210
0.0
220
0.0
230
1.0
 40
0.9814861170034921
 41
3.141592653589793
 42
4.712388980384657
  0
LINE
  5
1EF
330
171
100
AcDbEntity
  8
DV3_0
 62
     7
370
    25
100
AcDbLine
 10
29.27597452395094
 20
67.77323590541893
 30
0.0
 11
29.27597452395094
 21
67.47998105304727
 31
0.0
  0
ELLIPSE
  5
1F0
330
171
100
AcDbEntity
  8
DV3_0
 62
     7
370
    25
100
AcDbEllipse
 10
121.2759745239509
 20
69.4429532870542
 30
0.0
 11
-0.250000000000003
 21
0.0
 31
0.0
210
0.0
220
0.0
230
1.0
 40
0.1915332924831791
 41
3.141592653589793
 42
4.71238898038469
  0
LINE
  5
1F1
330
171
100
AcDbEntity
  8
DV3_0
 62
     7
370
    25
100
AcDbLine
 10
121.2759745239509
 20
69.6929532870542
 30
0.0
 11
121.2759745239509
 21
69.490836610175
 31
0.0
  0
ELLIPSE
  5
1F2
330
171
100
AcDbEntity
  8
DV3_0
 62
     7
370
    25
100
AcDbEllipse
 10
29.27597452395094
 20
65.8100196574663
 30
0.0
 11
0.2499999999999947
 21
-3.053113317719180E-14
 31
0.0
210
0.0
220
0.0
230
1.0
 40
0.9814861170034829
 41
3.141592653589793
 42
4.71238898038481
  0
LINE
  5
1F3
330
171
100
AcDbEntity
  8
DV3_0
 62
     7
370
    25
100
AcDbLine
 10
121.2759745239509
 20
67.77323590541891
 30
0.0
 11
121.2759745239509
 21
67.47998105304725
 31
0.0
  0
ELLIPSE
  5
1F4
330
171
100
AcDbEntity
  8
DV3_0
 62
     7
370
    25
100
AcDbEllipse
 10
121.2759745239509
 20
67.72535258229811
 30
0.0
 11
0.2500000000000002
 21
0.0
 31
0.0
210
0.0
220
0.0
230
1.0
 40
0.1915332924831812
 41
0.0
 42
1.570796326794897
  0
LINE
  5
1F5
330
171
100
AcDbEntity
  8
DV3_0
 62
     7
370
    25
100
AcDbLine
 10
29.27597452395095
 20
65.56001965746631
 30
0.0
 11
29.27597452395095
 21
65.56464812821544
 31
0.0
  0
ELLIPSE
  5
1F6
330
171
100
AcDbEntity
  8
DV3_0
 62
     7
370
    25
100
AcDbEllipse
 10
121.2759745239509
 20
67.72535258229811
 30
0.0
 11
0.2500000000000016
 21
-5.551115123125783E-15
 31
0.0
210
0.0
220
0.0
230
1.0
 40
0.9814861170034653
 41
4.712388980384711
 42
6.283185307179586
  0
LINE
  5
1F7
330
171
100
AcDbEntity
  8
DV3_0
 62
     7
370
    25
100
AcDbLine
 10
121.2759745239509
 20
65.56001965746628
 30
0.0
 11
121.2759745239509
 21
65.56464812821541
 31
0.0
  0
ELLIPSE
  5
1F8
330
171
100
AcDbEntity
  8
DV3_0
 62
     7
370
    25
100
AcDbEllipse
 10
121.2759745239509
 20
65.81001965746627
 30
0.0
 11
0.2500000000000016
 21
-4.163336342344338E-15
 31
0.0
210
0.0
220
0.0
230
1.0
 40
0.9814861170034653
 41
4.712388980384706
 42
6.283185307179586
  0
ARC
  5
1F9
330
171
100
AcDbEntity
  8
DV3_0
 62
     7
370
    35
100
AcDbCircle
 10
29.27597452395094
 20
69.44295328705421
 30
0.0
 40
0.2500000000000002
100
AcDbArc
 50
90.0
 51
180.0
  0
LINE
  5
1FA
330
171
100
AcDbEntity
  8
DV3_0
 62
     7
370
    35
100
AcDbLine
 10
121.2759745239509
 20
69.6929532870542
 30
0.0
 11
29.27597452395092
 21
69.69295328705422
 31
0.0
  0
ARC
  5
1FB
330
171
100
AcDbEntity
  8
DV3_0
 62
     7
370
    35
100
AcDbCircle
 10
121.2759745239509
 20
69.4429532870542
 30
0.0
 40
0.2500000000000002
100
AcDbArc
 50
0.0
 51
90.0
  0
ARC
  5
1FC
330
171
100
AcDbEntity
  8
DV3_0
 62
     7
370
    35
100
AcDbCircle
 10
29.27597452395094
 20
65.81001965746631
 30
0.0
 40
0.2500000000000058
100
AcDbArc
 50
180.0
 51
270.0
  0
LINE
  5
1FD
330
171
100
AcDbEntity
  8
DV3_0
 62
     7
370
    35
100
AcDbLine
 10
29.27597452395092
 20
65.56001965746631
 30
0.0
 11
121.2759745239509
 21
65.56001965746628
 31
0.0
  0
ARC
  5
1FE
330
171
100
AcDbEntity
  8
DV3_0
 62
     7
370
    35
100
AcDbCircle
 10
121.2759745239509
 20
65.81001965746627
 30
0.0
 40
0.2500000000000002
100
AcDbArc
 50
270.0
 51
0.0
  0
LINE
  5
1FF
330
171
100
AcDbEntity
  8
DV3_0
 62
     7
370
    35
100
AcDbLine
 10
33.99778936191689
 20
65.5600196574663
 30
0.0
 11
33.99778936191689
 21
65.0342172654889
 31
0.0
  0
LINE
  5
200
330
171
100
AcDbEntity
  8
DV3_0
 62
     7
370
    35
100
AcDbLine
 10
29.99778936191688
 20
65.56001965746631
 30
0.0
 11
29.99778936191688
 21
65.03421726548892
 31
0.0
  0
LINE
  5
201
330
171
100
AcDbEntity
  8
DV3_0
 62
     7
370
    35
100
AcDbLine
 10
29.99778936191688
 20
69.69295328705422
 30
0.0
 11
29.99778936191688
 21
69.79123735892294
 31
0.0
  0
LINE
  5
202
330
171
100
AcDbEntity
  8
DV3_0
 62
     7
370
    35
100
AcDbLine
 10
32.99778936191689
 20
69.98277065140611
 30
0.0
 11
30.99778936191689
 21
69.98277065140611
 31
0.0
  0
ELLIPSE
  5
203
330
171
100
AcDbEntity
  8
DV3_0
 62
     7
370
    35
100
AcDbEllipse
 10
32.99778936191689
 20
69.79123735892293
 30
0.0
 11
-1.000000000000001
 21
0.0
 31
0.0
210
0.0
220
0.0
230
1.0
 40
0.191533292483184
 41
3.141592653589793
 42
4.71238898038469
  0
ELLIPSE
  5
204
330
171
100
AcDbEntity
  8
DV3_0
 62
     7
370
    35
100
AcDbEllipse
 10
30.99778936191688
 20
69.79123735892293
 30
0.0
 11
-0.9999999999999898
 21
0.0
 31
0.0
210
0.0
220
0.0
230
1.0
 40
0.1915332924831861
 41
4.712388980384683
 42
6.283185307179586
  0
LINE
  5
205
330
171
100
AcDbEntity
  8
DV3_0
 62
     7
370
    25
100
AcDbLine
 10
32.99778936191689
 20
69.69295328705421
 30
0.0
 11
32.99778936191689
 21
69.98277065140611
 31
0.0
  0
LINE
  5
206
330
171
100
AcDbEntity
  8
DV3_0
 62
     7
370
    25
100
AcDbLine
 10
30.99778936191688
 20
69.98277065140611
 30
0.0
 11
30.99778936191688
 21
69.69295328705421
 31
0.0
  0
LINE
  5
207
330
171
100
AcDbEntity
  8
DV3_0
 62
     7
370
    35
100
AcDbLine
 10
33.99778936191689
 20
69.79123735892293
 30
0.0
 11
33.99778936191689
 21
69.69295328705421
 31
0.0
  0
ENDBLK
  5
209
330
171
100
AcDbEntity
  8
0
100
AcDbBlockEnd
  0
BLOCK
  5
31C
330
20A
100
AcDbEntity
  8
0
100
AcDbBlockBegin
  2
SE3
 70
     0
 10
0.0
 20
0.0
 30
0.0
  3
SE3
  1

  0
ELLIPSE
  5
20D
330
20A
100
AcDbEntity
  8
DV4_0
 62
     7
370
    35
100
AcDbEllipse
 10
248.6629594115834
 20
53.82896212632947
 30
0.0
 11
0.0508819411028536
 21
-0.001525672848435598
 31
0.0
210
0.0
220
0.0
230
1.0
 40
0.57665753854948
 41
0.1218862097649449
 42
0.820017910563906
  0
LINE
  5
20E
330
20A
100
AcDbEntity
  8
DV4_0
 62
     7
370
    35
100
AcDbLine
 10
235.4619675681783
 20
58.81574965529609
 30
0.0
 11
240.4701272548284
 21
58.51312245469671
 31
0.0
  0
LINE
  5
20F
330
20A
100
AcDbEntity
  8
DV4_0
 62
     7
370
    35
100
AcDbLine
 10
248.7135708320428
 20
53.83101524253548
 30
0.0
 11
249.5433307675884
 21
49.25379917100511
 31
0.0
  0
LINE
  5
210
330
20A
100
AcDbEntity
  8
DV4_0
 62
     7
370
    25
100
AcDbLine
 10
240.0443895053715
 20
61.46141219427502
 30
0.0
 11
240.6289484628738
 21
58.6048179219147
 31
0.0
  0
LINE
  5
211
330
20A
100
AcDbEntity
  8
DV4_0
 62
     7
370
    25
100
AcDbLine
 10
240.0175622473589
 20
61.44592346963984
 30
0.0
 11
240.6021212048612
 21
58.58932919727953
 31
0.0
  0
LINE
  5
212
330
20A
100
AcDbEntity
  8
DV4_0
 62
     7
370
    25
100
AcDbLine
 10
252.5771560737289
 20
68.25011166388148
 30
0.0
 11
248.7135708320427
 21
53.83101524253549
 31
0.0
  0
LINE
  5
213
330
20A
100
AcDbEntity
  8
DV4_0
 62
     7
370
    25
100
AcDbLine
 10
252.5634760466655
 20
68.27435287705822
 30
0.0
 11
248.6983147506428
 21
53.84937454085265
 31
0.0
  0
ELLIPSE
  5
214
330
20A
100
AcDbEntity
  8
DV4_0
 62
     7
370
    35
100
AcDbEllipse
 10
252.5281207076061
 20
68.25394046253504
 30
0.0
 11
0.04829629131444917
 21
-0.01294095225513986
 31
0.0
210
0.0
220
0.0
230
0.9999999999999998
 40
0.7071067811865059
 41
0.2571849173272662
 42
0.9553166181233075
  0
LINE
  5
215
330
20A
100
AcDbEntity
  8
DV4_0
 62
     7
370
    35
100
AcDbLine
 10
252.7756080810215
 20
68.39682736419739
 30
0.0
 11
252.5634760466655
 21
68.27435287705823
 31
0.0
  0
LINE
  5
216
330
20A
100
AcDbEntity
  8
DV4_0
 62
     7
370
    35
100
AcDbLine
 10
252.5771560737289
 20
68.25011166388147
 30
0.0
 11
252.8713682704652
 21
68.22713887196015
 31
0.0
  0
ELLIPSE
  5
217
330
20A
100
AcDbEntity
  8
DV4_0
 62
     7
370
    35
100
AcDbEllipse
 10
252.5281207076061
 20
68.25394046253503
 30
0.0
 11
0.3380740392011683
 21
-0.09058666578587907
 31
0.0
210
0.0
220
0.0
230
0.9999999999999999
 40
0.7071067811865664
 41
0.2571849173266818
 42
0.9553166181244405
  0
LINE
  5
218
330
20A
100
AcDbEntity
  8
DV4_0
 62
     7
370
    25
100
AcDbLine
 10
252.550293153532
 20
68.28196402395756
 30
0.0
 11
252.5634760466655
 21
68.27435287705823
 31
0.0
  0
LINE
  5
219
330
20A
100
AcDbEntity
  8
DV4_0
 62
     7
370
    35
100
AcDbLine
 10
249.2622466210145
 20
66.38360947330061
 30
0.0
 11
252.550293153532
 21
68.28196402395757
 31
0.0
  0
ELLIPSE
  5
21A
330
20A
100
AcDbEntity
  8
DV4_0
 62
     7
370
    35
100
AcDbEllipse
 10
252.550293153532
 20
68.24113919491116
 30
0.0
 11
-0.02499999999998765
 21
-0.04330127018922945
 31
0.0
210
0.0
220
0.0
230
1.0
 40
0.577350269189684
 41
3.141592653589793
 42
3.926990816987089
  0
LINE
  5
21B
330
20A
100
AcDbEntity
  8
DV4_0
 62
     7
370
    35
100
AcDbLine
 10
252.575293153532
 20
68.28444046510039
 30
0.0
 11
252.5862937554176
 21
68.3034940664801
 31
0.0
  0
LINE
  5
21C
330
20A
100
AcDbEntity
  8
DV4_0
 62
     7
370
    35
100
AcDbLine
 10
249.2622466210145
 20
66.62855844757891
 30
0.0
 11
249.2622466210145
 21
66.3836094733006
 31
0.0
  0
LINE
  5
21D
330
20A
100
AcDbEntity
  8
DV4_0
 62
     7
370
    35
100
AcDbLine
 10
249.2622466210145
 20
66.62855844757891
 30
0.0
 11
252.550293153532
 21
68.52691299823587
 31
0.0
  0
LINE
  5
21E
330
20A
100
AcDbEntity
  8
DV4_0
 62
     7
370
    25
100
AcDbLine
 10
252.550293153532
 20
68.52691299823587
 30
0.0
 11
252.4162445161412
 21
68.60430601511794
 31
0.0
  0
LINE
  5
21F
330
20A
100
AcDbEntity
  8
DV4_0
 62
     7
370
    35
100
AcDbLine
 10
249.1281979836238
 20
66.70595146446098
 30
0.0
 11
249.2622466210146
 21
66.62855844757891
 31
0.0
  0
LINE
  5
220
330
20A
100
AcDbEntity
  8
DV4_0
 62
     7
370
    35
100
AcDbLine
 10
248.9160659492678
 20
66.58347697732184
 30
0.0
 11
249.2622466210145
 21
66.3836094733006
 31
0.0
  0
SPLINE
  5
221
330
20A
100
AcDbEntity
  8
DV4_0
 62
     7
370
    35
100
AcDbSpline
210
0.0
220
0.0
230
1.0
 70
     8
 71
     3
 72
    10
 73
     6
 74
     0
 42
0.000000001
 43
0.0000000001
 40
0.0
 40
0.0
 40
0.0
 40
0.0
 40
0.5
 40
0.5
 40
1.0
 40
1.0
 40
1.0
 40
1.0
 10
252.575293153532
 20
68.28444046510039
 30
0.0
 10
252.5748701925081
 20
68.28468466176139
 30
0.0
 10
252.5737953531671
 20
68.28380253083196
 30
0.0
 10
252.5699466562149
 20
68.28024032199883
 30
0.0
 10
252.5671718548346
 20
68.2775636352598
 30
0.0
 10
252.5634760466655
 20
68.27435287705822
 30
0.0
  0
ELLIPSE
  5
222
330
20A
100
AcDbEntity
  8
DV4_0
 62
     7
370
    35
100
AcDbEllipse
 10
252.550293153532
 20
68.24113919491121
 30
0.0
 11
0.1749999999999631
 21
0.3031088913245077
 31
0.0
210
0.0
220
0.0
230
1.0
 40
0.5773502691896476
 41
0.4600339458373304
 42
0.7853981633973752
  0
SPLINE
  5
223
330
20A
100
AcDbEntity
  8
DV4_0
 62
     7
370
    35
100
AcDbSpline
210
0.0
220
0.0
230
1.0
 70
     8
 71
     3
 72
    10
 73
     6
 74
     0
 42
0.000000001
 43
0.0000000001
 40
0.0
 40
0.0
 40
0.0
 40
0.0
 40
0.5
 40
0.5
 40
1.0
 40
1.0
 40
1.0
 40
1.0
 10
252.725293153532
 20
68.54424808623573
 30
0.0
 10
252.7445051923101
 20
68.5331560104755
 30
0.0
 10
252.7591534364032
 20
68.5141800253129
 30
0.0
 10
252.7765574624417
 20
68.46364199982554
 30
0.0
 10
252.7793034886758
 20
68.43210152297313
 30
0.0
 10
252.7756080810215
 20
68.39682736419739
 30
0.0
  0
LINE
  5
224
330
20A
100
AcDbEntity
  8
DV4_0
 62
     7
370
    35
100
AcDbLine
 10
252.591451098634
 20
68.31242684696296
 30
0.0
 11
252.725293153532
 21
68.54424808623573
 31
0.0
  0
LINE
  5
225
330
20A
100
AcDbEntity
  8
DV4_0
 62
     7
370
    35
100
AcDbLine
 10
252.5862937554176
 20
68.3034940664801
 30
0.0
 11
252.5852624478062
 21
68.30086976615111
 31
0.0
  0
LINE
  5
226
330
20A
100
AcDbEntity
  8
DV4_0
 62
     7
370
    35
100
AcDbLine
 10
252.591451098634
 20
68.31242684696295
 30
0.0
 11
252.5852624478063
 21
68.3008697661511
 31
0.0
  0
ELLIPSE
  5
227
330
20A
100
AcDbEntity
  8
DV4_0
 62
     7
370
    35
100
AcDbEllipse
 10
252.550293153532
 20
68.24113919491099
 30
0.0
 11
-0.1750000000000249
 21
-0.3031088913247588
 31
0.0
210
0.0
220
0.0
230
1.0
 40
0.5773502691894417
 41
3.141592653589719
 42
3.528868498996917
  0
LINE
  5
228
330
20A
100
AcDbEntity
  8
DV4_0
 62
     7
370
    35
100
AcDbLine
 10
249.8449684097042
 20
49.27732084286873
 30
0.0
 11
249.5433307675884
 21
49.25379917100511
 31
0.0
  0
LINE
  5
229
330
20A
100
AcDbEntity
  8
DV4_0
 62
     7
370
    35
100
AcDbLine
 10
249.5433307675884
 20
49.25379917100511
 30
0.0
 11
252.5771560737289
 21
68.25011166388146
 31
0.0
  0
ELLIPSE
  5
22A
330
20A
100
AcDbEntity
  8
DV4_0
 62
     7
370
    35
100
AcDbEllipse
 10
252.528120707489
 20
68.25394046219382
 30
0.0
 11
0.4394602212487549
 21
-0.01313839635497427
 31
0.0
210
0.0
220
0.0
230
0.9999999999999998
 40
0.7264016385299963
 41
1.320444142821125
 42
1.365045982097895
  0
ELLIPSE
  5
22B
330
20A
100
AcDbEntity
  8
DV4_0
 62
     7
370
    35
100
AcDbEllipse
 10
252.5850641524231
 20
68.22106415464413
 30
0.0
 11
-0.005343857473276231
 21
0.4038866990597382
 31
0.0
210
0.0
220
0.0
230
0.9999999999999998
 40
0.2175013264226245
 41
-0.5887592260792482
 42
-0.56060296474607
  0
LINE
  5
22C
330
20A
100
AcDbEntity
  8
DV4_0
 62
     7
370
    35
100
AcDbLine
 10
252.5862937554176
 20
68.3034940664801
 30
0.0
 11
252.6294034615319
 21
68.55759405199628
 31
0.0
  0
LINE
  5
22D
330
20A
100
AcDbEntity
  8
DV4_0
 62
     7
370
    35
100
AcDbLine
 10
249.8449684097042
 20
49.27732084286873
 30
0.0
 11
252.8713682704653
 21
68.22713887196014
 31
0.0
  0
LINE
  5
22E
330
20A
100
AcDbEntity
  8
DV4_0
 62
     7
370
    35
100
AcDbLine
 10
252.591451098634
 20
68.31242684696295
 30
0.0
 11
252.6462410871568
 21
68.55995835833323
 31
0.0
  0
LINE
  5
22F
330
20A
100
AcDbEntity
  8
DV4_0
 62
     7
370
    35
100
AcDbLine
 10
248.6983147506428
 20
53.97184902799181
 30
0.0
 11
248.6983147506428
 21
53.84937454085265
 31
0.0
  0
LINE
  5
230
330
20A
100
AcDbEntity
  8
DV4_0
 62
     7
370
    35
100
AcDbLine
 10
240.651362849678
 20
58.61775887416983
 30
0.0
 11
239.7674793731948
 21
58.10744851109
 31
0.0
  0
LINE
  5
231
330
20A
100
AcDbEntity
  8
DV4_0
 62
     7
370
    35
100
AcDbLine
 10
248.6983147506428
 20
53.97184902799181
 30
0.0
 11
240.6513628496779
 21
58.61775887416983
 31
0.0
  0
ELLIPSE
  5
232
330
20A
100
AcDbEntity
  8
DV4_0
 62
     7
370
    35
100
AcDbEllipse
 10
247.3264892296099
 20
54.02902593900638
 30
0.0
 11
0.3000000000000009
 21
-2.271528910701879E-15
 31
0.0
210
0.0
220
0.0
230
1.0
 40
0.5773502691896252
 41
0.3613671239066099
 42
2.780225529683728
  0
ELLIPSE
  5
233
330
20A
100
AcDbEntity
  8
DV4_0
 62
     7
370
    35
100
AcDbEllipse
 10
247.3264892296099
 20
54.15150042614554
 30
0.0
 11
-0.3000000000000009
 21
1.138412281109780E-15
 31
0.0
210
0.0
220
0.0
230
1.0
 40
0.577350269189626
 41
0.0
 42
6.283185307179586
  0
ELLIPSE
  5
234
330
20A
100
AcDbEntity
  8
DV4_0
 62
     7
370
    35
100
AcDbEllipse
 10
240.962528198931
 20
57.70326055318115
 30
0.0
 11
0.3000000000000009
 21
-1.138412281109780E-15
 31
0.0
210
0.0
220
0.0
230
1.0
 40
0.5773502691896284
 41
0.3613671239066081
 42
2.780225529682922
  0
ELLIPSE
  5
235
330
20A
100
AcDbEntity
  8
DV4_0
 62
     7
370
    35
100
AcDbEllipse
 10
240.962528198931
 20
57.8257350403203
 30
0.0
 11
-0.299999999999999
 21
0.0
 31
0.0
210
0.0
220
0.0
230
1.0
 40
0.5773502691896263
 41
0.0
 42
6.283185307179586
  0
LINE
  5
236
330
20A
100
AcDbEntity
  8
DV4_0
 62
     7
370
    35
100
AcDbLine
 10
239.7674793731948
 20
57.7808498787189
 30
0.0
 11
247.4726812126933
 21
53.332249522524
 31
0.0
  0
LINE
  5
237
330
20A
100
AcDbEntity
  8
DV4_0
 62
     7
370
    35
100
AcDbLine
 10
239.7674793731948
 20
57.90332436585806
 30
0.0
 11
247.4726812126933
 21
53.45472400966316
 31
0.0
  0
LINE
  5
238
330
20A
100
AcDbEntity
  8
DV4_0
 62
     7
370
    25
100
AcDbLine
 10
239.7674793731948
 20
57.90332436585806
 30
0.0
 11
239.7674793731948
 21
57.7808498787189
 31
0.0
  0
ELLIPSE
  5
239
330
20A
100
AcDbEntity
  8
DV4_0
 62
     7
370
    35
100
AcDbEllipse
 10
239.9442560684914
 20
57.88291195133488
 30
0.0
 11
0.2499999999999972
 21
-4.531965080989409E-15
 31
0.0
210
0.0
220
0.0
230
1.0
 40
0.5773502691896382
 41
3.141592653589824
 42
3.926990816987233
  0
ELLIPSE
  5
23A
330
20A
100
AcDbEntity
  8
DV4_0
 62
     7
370
    35
100
AcDbEllipse
 10
239.9442560684914
 20
58.00538643847403
 30
0.0
 11
0.2499999999999991
 21
-3.404394821604484E-15
 31
0.0
210
0.0
220
0.0
230
1.0
 40
0.577350269189632
 41
2.356194490192364
 42
3.926990816987238
  0
LINE
  5
23B
330
20A
100
AcDbEntity
  8
DV4_0
 62
     7
370
    35
100
AcDbLine
 10
247.828582416318
 20
53.33362327983603
 30
0.0
 11
248.6983147506428
 21
53.84937454085265
 31
0.0
  0
LINE
  5
23C
330
20A
100
AcDbEntity
  8
DV4_0
 62
     7
370
    35
100
AcDbLine
 10
247.828582416318
 20
53.45609776697519
 30
0.0
 11
248.6983147506428
 21
53.97184902799181
 31
0.0
  0
LINE
  5
23D
330
20A
100
AcDbEntity
  8
DV4_0
 62
     7
370
    25
100
AcDbLine
 10
247.828582416318
 20
53.45609776697519
 30
0.0
 11
247.828582416318
 21
53.33362327983603
 31
0.0
  0
ELLIPSE
  5
23E
330
20A
100
AcDbEntity
  8
DV4_0
 62
     7
370
    35
100
AcDbEllipse
 10
247.64945790799
 20
53.43431159513997
 30
0.0
 11
0.2500000000000031
 21
5.295651517680875E-18
 31
0.0
210
0.0
220
0.0
230
1.0
 40
0.5773502691896399
 41
3.926990816987246
 42
5.51115816915197
  0
LINE
  5
23F
330
20A
100
AcDbEntity
  8
DV4_0
 62
     7
370
    25
100
AcDbLine
 10
247.4726812126933
 20
53.332249522524
 30
0.0
 11
247.4726812126933
 21
53.45472400966316
 31
0.0
  0
ELLIPSE
  5
240
330
20A
100
AcDbEntity
  8
DV4_0
 62
     7
370
    35
100
AcDbEllipse
 10
247.64945790799
 20
53.55678608227913
 30
0.0
 11
-0.2500000000000011
 21
1.133116629592099E-15
 31
0.0
210
0.0
220
0.0
230
1.0
 40
0.5773502691896245
 41
0.7853981633974474
 42
2.369565515562024
  0
ARC
  5
241
330
20A
100
AcDbEntity
  8
DV4_0
 62
     7
370
    35
100
AcDbCircle
 10
252.5084050306897
 20
68.34767761239421
 30
0.0
 40
0.0913031423502099
100
AcDbArc
 50
321.8276975243002
 51
337.1919475050736
  0
LINE
  5
242
330
20A
100
AcDbEntity
  8
DV4_0
 62
     7
370
    35
100
AcDbLine
 10
252.5962505190406
 20
68.32073968695407
 30
0.0
 11
252.5942081154352
 21
68.31646712615665
 31
0.0
  0
LINE
  5
243
330
20A
100
AcDbEntity
  8
DV4_0
 62
     7
370
    35
100
AcDbLine
 10
252.725293153532
 20
68.54424808623573
 30
0.0
 11
252.5187571427259
 21
68.66349170767197
 31
0.0
  0
LINE
  5
244
330
20A
100
AcDbEntity
  8
DV4_0
 62
     7
370
    35
100
AcDbLine
 10
239.6942560684914
 20
58.00538643847403
 30
0.0
 11
239.6942560684914
 21
57.88291195133488
 31
0.0
  0
LINE
  5
245
330
20A
100
AcDbEntity
  8
DV4_0
 62
     7
370
    35
100
AcDbLine
 10
175.4561176242782
 20
20.85479200626249
 30
0.0
 11
183.5030695252431
 21
16.20888216008447
 31
0.0
  0
ELLIPSE
  5
246
330
20A
100
AcDbEntity
  8
DV4_0
 62
     7
370
    35
100
AcDbEllipse
 10
183.7505568986584
 20
16.35176906174683
 30
0.0
 11
-0.3561735877198623
 21
0.01067970993898517
 31
0.0
210
0.0
220
0.0
230
1.0
 40
0.5766575385498183
 41
0.8200179105634042
 42
1.51814961136118
  0
ELLIPSE
  5
247
330
20A
100
AcDbEntity
  8
DV4_0
 62
     7
370
    35
100
AcDbEllipse
 10
175.7036049976936
 20
20.99767890792485
 30
0.0
 11
-0.3561735877198957
 21
0.01067970993897044
 31
0.0
210
0.0
220
0.0
230
1.0
 40
0.5766575385497215
 41
0.1218862097649014
 42
0.8200179105632464
  0
LINE
  5
248
330
20A
100
AcDbEntity
  8
DV4_0
 62
     7
370
    25
100
AcDbLine
 10
187.3682308212658
 20
30.63386049629004
 30
0.0
 11
183.5030695252431
 21
16.20888216008447
 31
0.0
  0
LINE
  5
249
330
20A
100
AcDbEntity
  8
DV4_0
 62
     7
370
    25
100
AcDbLine
 10
187.5797931032464
 20
30.53103037335162
 30
0.0
 11
183.7256641875797
 21
16.14722544116311
 31
0.0
  0
ELLIPSE
  5
24A
330
20A
100
AcDbEntity
  8
DV4_0
 62
     7
370
    35
100
AcDbEllipse
 10
187.6157181946811
 20
30.7767473979524
 30
0.0
 11
-0.04829629131442022
 21
0.01294095225516904
 31
0.0
210
0.0
220
0.0
230
1.0
 40
0.7071067811866688
 41
0.9553166181265063
 42
1.653448318923835
  0
LINE
  5
24B
330
20A
100
AcDbEntity
  8
DV4_0
 62
     7
370
    35
100
AcDbLine
 10
187.3682308212658
 20
30.63386049629004
 30
0.0
 11
187.5803628556218
 21
30.7563349834292
 31
0.0
  0
ELLIPSE
  5
24C
330
20A
100
AcDbEntity
  8
DV4_0
 62
     7
370
    35
100
AcDbEllipse
 10
187.6157181946811
 20
30.77674739795235
 30
0.0
 11
-0.3380740392011398
 21
0.09058666578593513
 31
0.0
210
0.0
220
0.0
230
1.0
 40
0.7071067811864336
 41
0.955316618124785
 42
1.653448318922475
  0
LINE
  5
24D
330
20A
100
AcDbEntity
  8
DV4_0
 62
     7
370
    35
100
AcDbLine
 10
187.6105860387619
 20
30.74164496586657
 30
0.0
 11
187.5797931032464
 21
30.53103037335162
 31
0.0
  0
LINE
  5
24E
330
20A
100
AcDbEntity
  8
DV4_0
 62
     7
370
    35
100
AcDbLine
 10
171.4951961388117
 20
39.81747676057461
 30
0.0
 11
175.3493250544784
 21
20.9833070944827
 31
0.0
  0
LINE
  5
24F
330
20A
100
AcDbEntity
  8
DV4_0
 62
     7
370
    25
100
AcDbLine
 10
171.5909563282555
 20
39.74287417190814
 30
0.0
 11
175.4561176242782
 21
20.8547920062625
 31
0.0
  0
LINE
  5
250
330
20A
100
AcDbEntity
  8
DV4_0
 62
     7
370
    35
100
AcDbLine
 10
171.5944627826426
 20
39.83722447421003
 30
0.0
 11
171.4951961388118
 21
39.81747676057465
 31
0.0
  0
ELLIPSE
  5
251
330
20A
100
AcDbEntity
  8
DV4_0
 62
     7
370
    35
100
AcDbEllipse
 10
171.8384437016708
 20
39.88576107357048
 30
0.0
 11
0.3428942017431168
 21
0.07016812959541911
 31
0.0
210
0.0
220
0.0
230
0.9999999999999999
 40
0.4082482904638937
 41
3.128180155794505
 42
3.826311856592104
  0
LINE
  5
252
330
20A
100
AcDbEntity
  8
DV4_0
 62
     7
370
    25
100
AcDbLine
 10
187.3682308212658
 20
30.63386049629004
 30
0.0
 11
171.5909563282555
 21
39.74287417190813
 31
0.0
  0
ELLIPSE
  5
253
330
20A
100
AcDbEntity
  8
DV4_0
 62
     7
370
    35
100
AcDbEllipse
 10
187.6378906406069
 20
30.76394613032852
 30
0.0
 11
0.02499999999999599
 21
0.04330127018923538
 31
0.0
210
0.0
220
0.0
230
1.0
 40
0.5773502691893532
 41
0.7853981633967813
 42
1.570796326794307
  0
LINE
  5
254
330
20A
100
AcDbEntity
  8
DV4_0
 62
     7
370
    35
100
AcDbLine
 10
187.6378906406069
 20
30.80477095937493
 30
0.0
 11
190.9259371731243
 21
32.70312551003188
 31
0.0
  0
LINE
  5
255
330
20A
100
AcDbEntity
  8
DV4_0
 62
     7
370
    25
100
AcDbLine
 10
179.1373390676105
 20
35.95751567258304
 30
0.0
 11
180.0388402085286
 21
35.43703374619917
 31
0.0
  0
LINE
  5
256
330
20A
100
AcDbEntity
  8
DV4_0
 62
     7
370
    25
100
AcDbLine
 10
187.5038420032161
 20
31.1271129505353
 30
0.0
 11
187.6378906406069
 21
31.04971993365323
 31
0.0
  0
LINE
  5
257
330
20A
100
AcDbEntity
  8
DV4_0
 62
     7
370
    35
100
AcDbLine
 10
187.6378906406069
 20
31.04971993365323
 30
0.0
 11
190.9259371731244
 21
32.9480744843102
 31
0.0
  0
LINE
  5
258
330
20A
100
AcDbEntity
  8
DV4_0
 62
     7
370
    35
100
AcDbLine
 10
190.9259371731243
 20
32.9480744843102
 30
0.0
 11
190.7918885357336
 21
33.02546750119227
 31
0.0
  0
LINE
  5
259
330
20A
100
AcDbEntity
  8
DV4_0
 62
     7
370
    35
100
AcDbLine
 10
190.9259371731243
 20
32.9480744843102
 30
0.0
 11
190.9259371731243
 21
32.70312551003188
 31
0.0
  0
LINE
  5
25A
330
20A
100
AcDbEntity
  8
DV4_0
 62
     7
370
    35
100
AcDbLine
 10
187.6128906406069
 20
30.77837988705827
 30
0.0
 11
187.6018900387213
 21
30.78473108751818
 31
0.0
  0
ARC
  5
25B
330
20A
100
AcDbEntity
  8
DV4_0
 62
     7
370
    35
100
AcDbCircle
 10
187.873337416356
 20
30.56193142954405
 30
0.0
 40
0.5102023745991292
100
AcDbArc
 50
143.5599088809522
 51
171.8953579350639
  0
ELLIPSE
  5
25C
330
20A
100
AcDbEntity
  8
DV4_0
 62
     7
370
    35
100
AcDbEllipse
 10
187.6378906406069
 20
30.7639461303286
 30
0.0
 11
-0.1750000000000219
 21
-0.3031088913244806
 31
0.0
210
0.0
220
0.0
230
1.0
 40
0.5773502691896883
 41
4.325113134977567
 42
4.712388980384989
  0
ARC
  5
25D
330
20A
100
AcDbEntity
  8
DV4_0
 62
     7
370
    35
100
AcDbCircle
 10
172.1084067105114
 20
39.77475287610496
 30
0.0
 40
0.5184314321856198
100
AcDbArc
 50
154.2971468823546
 51
183.5253807872249
  0
ARC
  5
25E
330
20A
100
AcDbEntity
  8
DV4_0
 62
     7
370
    35
100
AcDbCircle
 10
187.6867533726469
 20
30.63437343524268
 30
0.0
 40
0.1618442502807304
100
AcDbArc
 50
117.1538617638717
 51
131.099113610288
  0
ELLIPSE
  5
25F
330
20A
100
AcDbEntity
  8
DV4_0
 62
     7
370
    35
100
AcDbEllipse
 10
187.6378906406069
 20
30.7639461303285
 30
0.0
 11
0.1749999999999808
 21
0.3031088913245882
 31
0.0
210
0.0
220
0.0
230
0.9999999999999998
 40
0.5773502691896744
 41
0.7853981633974172
 42
1.1107623809574
  0
ELLIPSE
  5
260
330
20A
100
AcDbEntity
  8
DV4_0
 62
     7
370
    35
100
AcDbEllipse
 10
187.672661640583
 20
30.74387108173871
 30
0.0
 11
-0.5567950445472344
 21
0.004622519518138462
 31
0.0
210
0.0
220
0.0
230
1.0
 40
0.4484397160957194
 41
-1.361091274758538
 42
-1.332935013825139
  0
ELLIPSE
  5
261
330
20A
100
AcDbEntity
  8
DV4_0
 62
     7
370
    35
100
AcDbEllipse
 10
187.6157181946433
 20
30.77674739802303
 30
0.0
 11
-0.007004042783495252
 21
0.4053469383528551
 31
0.0
210
0.0
220
0.0
230
0.9999999999999997
 40
0.1984999293014605
 41
1.020255481792185
 42
1.064857321102305
  0
LINE
  5
262
330
20A
100
AcDbEntity
  8
DV4_0
 62
     7
370
    35
100
AcDbLine
 10
187.5967326955049
 20
30.78770868101247
 30
0.0
 11
187.4628906406069
 21
30.86498242743673
 31
0.0
  0
LINE
  5
263
330
20A
100
AcDbEntity
  8
DV4_0
 62
     7
370
    35
100
AcDbLine
 10
191.6342308594404
 20
15.66933584849726
 30
0.0
 11
183.7256641875797
 21
16.1472254411631
 31
0.0
  0
LINE
  5
264
330
20A
100
AcDbEntity
  8
DV4_0
 62
     7
370
    35
100
AcDbLine
 10
187.6105860387619
 20
30.74164496586657
 30
0.0
 11
191.6749715901871
 21
15.84348642237054
 31
0.0
  0
LINE
  5
265
330
20A
100
AcDbEntity
  8
DV4_0
 62
     7
370
    35
100
AcDbLine
 10
191.6749715901871
 20
15.84348642237053
 30
0.0
 11
191.6342308594404
 21
15.66933584849725
 31
0.0
  0
LINE
  5
266
330
20A
100
AcDbEntity
  8
DV4_0
 62
     7
370
    35
100
AcDbLine
 10
187.5434815336472
 20
30.98761906048226
 30
0.0
 11
187.5997260101347
 21
30.78145281042921
 31
0.0
  0
LINE
  5
267
330
20A
100
AcDbEntity
  8
DV4_0
 62
     7
370
    35
100
AcDbLine
 10
187.5997260101348
 20
30.78145281042921
 30
0.0
 11
187.596732695505
 21
30.78770868101246
 31
0.0
  0
LINE
  5
268
330
20A
100
AcDbEntity
  8
DV4_0
 62
     7
370
    35
100
AcDbLine
 10
187.5997260101348
 20
30.78145281042921
 30
0.0
 11
187.6018900387213
 21
30.78473108751819
 31
0.0
  0
LINE
  5
269
330
20A
100
AcDbEntity
  8
DV4_0
 62
     7
370
    35
100
AcDbLine
 10
187.558780332607
 20
30.98905227217475
 30
0.0
 11
187.6018900387213
 21
30.78473108751818
 31
0.0
  0
LINE
  5
26A
330
20A
100
AcDbEntity
  8
DV4_0
 62
     7
370
    35
100
AcDbLine
 10
187.5419427069821
 20
30.97197416313767
 30
0.0
 11
187.5967326955049
 21
30.78770868101246
 31
0.0
  0
LINE
  5
26B
330
20A
100
AcDbEntity
  8
DV4_0
 62
     7
370
    35
100
AcDbLine
 10
187.5797931032464
 20
30.53103037335162
 30
0.0
 11
191.6342308594404
 21
15.66933584849726
 31
0.0
  0
ELLIPSE
  5
26C
330
20A
100
AcDbEntity
  8
DV4_0
 62
     7
370
    35
100
AcDbEllipse
 10
171.816271255745
 20
39.89856234119443
 30
0.0
 11
0.1749999999999866
 21
0.3031088913244558
 31
0.0
210
0.0
220
0.0
230
1.0
 40
0.5773502691896049
 41
1.183520481387623
 42
1.570796326795155
  0
LINE
  5
26D
330
20A
100
AcDbEntity
  8
DV4_0
 62
     7
370
    25
100
AcDbLine
 10
244.2240056492475
 20
75.04874015013299
 30
0.0
 11
179.1701817800851
 21
37.48989742745759
 31
0.0
  0
LINE
  5
26E
330
20A
100
AcDbEntity
  8
DV4_0
 62
     7
370
    25
100
AcDbLine
 10
179.1701817800851
 20
37.48989742745758
 30
0.0
 11
179.1701817800851
 21
36.06102841083406
 31
0.0
  0
LINE
  5
26F
330
20A
100
AcDbEntity
  8
DV4_0
 62
     7
370
    25
100
AcDbLine
 10
179.1701817800851
 20
36.06102841083406
 30
0.0
 11
180.0388402085287
 21
36.56254858832979
 31
0.0
  0
LINE
  5
270
330
20A
100
AcDbEntity
  8
DV4_0
 62
     7
370
    25
100
AcDbLine
 10
244.2240056492475
 20
74.04569979514156
 30
0.0
 11
244.2240056492475
 21
75.048740150133
 31
0.0
  0
LINE
  5
271
330
20A
100
AcDbEntity
  8
DV4_0
 62
     7
370
    25
100
AcDbLine
 10
171.7455605776263
 20
41.57238033209622
 30
0.0
 11
171.7455605776263
 21
40.14351131547269
 31
0.0
  0
LINE
  5
272
330
20A
100
AcDbEntity
  8
DV4_0
 62
     7
370
    25
100
AcDbLine
 10
178.8166283894918
 20
37.48989742745758
 30
0.0
 11
171.7455605776263
 21
41.57238033209622
 31
0.0
  0
LINE
  5
273
330
20A
100
AcDbEntity
  8
DV4_0
 62
     7
370
    25
100
AcDbLine
 10
171.7455605776263
 20
40.14351131547269
 30
0.0
 11
178.8166283894918
 21
36.06102841083406
 31
0.0
  0
LINE
  5
274
330
20A
100
AcDbEntity
  8
DV4_0
 62
     7
370
    25
100
AcDbLine
 10
178.8166283894918
 20
36.06102841083406
 30
0.0
 11
178.8166283894918
 21
37.48989742745758
 31
0.0
  0
LINE
  5
275
330
20A
100
AcDbEntity
  8
DV4_0
 62
     7
370
    25
100
AcDbLine
 10
236.9761611420854
 20
79.43740927261952
 30
0.0
 11
171.922337272923
 21
41.87856654994413
 31
0.0
  0
LINE
  5
276
330
20A
100
AcDbEntity
  8
DV4_0
 62
     7
370
    25
100
AcDbLine
 10
171.922337272923
 20
41.87856654994411
 30
0.0
 11
178.9934050847884
 21
37.79608364530548
 31
0.0
  0
LINE
  5
277
330
20A
100
AcDbEntity
  8
DV4_0
 62
     7
370
    25
100
AcDbLine
 10
244.0472289539508
 20
75.35492636798088
 30
0.0
 11
236.9761611420854
 21
79.43740927261952
 31
0.0
  0
LINE
  5
278
330
20A
100
AcDbEntity
  8
DV4_0
 62
     7
370
    25
100
AcDbLine
 10
178.9934050847884
 20
37.79608364530549
 30
0.0
 11
244.0472289539508
 21
75.35492636798088
 31
0.0
  0
ELLIPSE
  5
279
330
20A
100
AcDbEntity
  8
DV4_0
 62
     7
370
    25
100
AcDbEllipse
 10
171.922337272923
 20
40.24557338808867
 30
0.0
 11
0.2499999999999991
 21
8.917245650451617E-15
 31
0.0
210
0.0
220
0.0
230
1.0
 40
0.5773502691896218
 41
3.141592653589731
 42
3.92699081698737
  0
ELLIPSE
  5
27A
330
20A
100
AcDbEntity
  8
DV4_0
 62
     7
370
    25
100
AcDbEllipse
 10
171.922337272923
 20
41.67444240471219
 30
0.0
 11
0.2499999999999991
 21
4.030680185335691E-15
 31
0.0
210
0.0
220
0.0
230
1.0
 40
0.5773502691896351
 41
3.141592653589814
 42
3.926990816987221
  0
ELLIPSE
  5
27B
330
20A
100
AcDbEntity
  8
DV4_0
 62
     7
370
    25
100
AcDbEllipse
 10
171.922337272923
 20
40.24557338808867
 30
0.0
 11
0.1250000000000045
 21
0.2165063509461094
 31
0.0
210
0.0
220
0.0
230
1.0
 40
0.5773502691896124
 41
2.356194490192311
 42
3.141592653589829
  0
ELLIPSE
  5
27C
330
20A
100
AcDbEntity
  8
DV4_0
 62
     7
370
    25
100
AcDbEllipse
 10
171.922337272923
 20
41.67444240471217
 30
0.0
 11
0.1249999999999927
 21
0.2165063509461111
 31
0.0
210
0.0
220
0.0
230
0.9999999999999999
 40
0.5773502691896264
 41
0.7853981633973959
 42
2.356194490192188
  0
ELLIPSE
  5
27D
330
20A
100
AcDbEntity
  8
DV4_0
 62
     7
370
    25
100
AcDbEllipse
 10
171.922337272923
 20
41.67444240471219
 30
0.0
 11
0.1250000000000065
 21
-0.2165063509461055
 31
0.0
210
0.0
220
0.0
230
0.9999999999999998
 40
0.5773502691896059
 41
2.356194490192285
 42
3.141592653589793
  0
ELLIPSE
  5
27E
330
20A
100
AcDbEntity
  8
DV4_0
 62
     7
370
    25
100
AcDbEllipse
 10
178.9934050847884
 20
36.16309048345003
 30
0.0
 11
0.1249999999999868
 21
0.2165063509460999
 31
0.0
210
0.0
220
0.0
230
1.0
 40
0.5773502691896445
 41
2.35619449019239
 42
3.141592653589793
  0
ELLIPSE
  5
27F
330
20A
100
AcDbEntity
  8
DV4_0
 62
     7
370
    25
100
AcDbEllipse
 10
178.9934050847884
 20
36.16309048345003
 30
0.0
 11
0.2499999999999932
 21
1.699674944388148E-15
 31
0.0
210
0.0
220
0.0
230
1.0
 40
0.5773502691896519
 41
3.926990816987363
 42
5.49778714378233
  0
ELLIPSE
  5
280
330
20A
100
AcDbEntity
  8
DV4_0
 62
     7
370
    25
100
AcDbEllipse
 10
178.9934050847884
 20
37.59195950007355
 30
0.0
 11
-0.2499999999999913
 21
-5.943315935151346E-15
 31
0.0
210
0.0
220
0.0
230
1.0
 40
0.5773502691896437
 41
0.7853981633975522
 42
2.356194490192535
  0
ELLIPSE
  5
281
330
20A
100
AcDbEntity
  8
DV4_0
 62
     7
370
    25
100
AcDbEllipse
 10
178.9934050847884
 20
37.59195950007355
 30
0.0
 11
0.1249999999999907
 21
0.2165063509461115
 31
0.0
210
0.0
220
0.0
230
0.9999999999999999
 40
0.577350269189619
 41
0.7853981633973888
 42
2.356194490192186
  0
ELLIPSE
  5
282
330
20A
100
AcDbEntity
  8
DV4_0
 62
     7
370
    25
100
AcDbEllipse
 10
236.9761611420854
 20
79.23328512738759
 30
0.0
 11
0.1249999999999956
 21
-0.2165063509461169
 31
0.0
210
0.0
220
0.0
230
1.0
 40
0.5773502691896252
 41
2.356194490192338
 42
3.141592653589793
  0
ELLIPSE
  5
283
330
20A
100
AcDbEntity
  8
DV4_0
 62
     7
370
    25
100
AcDbEllipse
 10
178.9934050847884
 20
36.16309048345003
 30
0.0
 11
-0.1250000000000104
 21
0.2165063509461038
 31
0.0
210
0.0
220
0.0
230
1.0
 40
0.5773502691896061
 41
3.141592653589897
 42
3.926990816987099
  0
ELLIPSE
  5
284
330
20A
100
AcDbEntity
  8
DV4_0
 62
     7
370
    25
100
AcDbEllipse
 10
178.9934050847884
 20
37.59195950007355
 30
0.0
 11
-0.1250000000000006
 21
0.2165063509461095
 31
0.0
210
0.0
220
0.0
230
0.9999999999999999
 40
0.5773502691896325
 41
3.926990816987161
 42
5.497787143782162
  0
ELLIPSE
  5
285
330
20A
100
AcDbEntity
  8
DV4_0
 62
     7
370
    25
100
AcDbEllipse
 10
236.9761611420854
 20
79.23328512738759
 30
0.0
 11
-0.1250000000000006
 21
-0.2165063509461084
 31
0.0
210
0.0
220
0.0
230
1.0
 40
0.5773502691896286
 41
3.141592653589793
 42
3.926990816987319
  0
ELLIPSE
  5
286
330
20A
100
AcDbEntity
  8
DV4_0
 62
     7
370
    25
100
AcDbEllipse
 10
244.0472289539508
 20
75.15080222274895
 30
0.0
 11
-0.1250000000000006
 21
0.2165063509461106
 31
0.0
210
0.0
220
0.0
230
0.9999999999999999
 40
0.5773502691896262
 41
3.926990816987246
 42
5.497787143782125
  0
ELLIPSE
  5
287
330
20A
100
AcDbEntity
  8
DV4_0
 62
     7
370
    25
100
AcDbEllipse
 10
244.0472289539508
 20
75.15080222274895
 30
0.0
 11
-0.1250000000000015
 21
-0.216506350946109
 31
0.0
210
0.0
220
0.0
230
0.9999999999999999
 40
0.5773502691896252
 41
3.141592653589793
 42
3.926990816987324
  0
ELLIPSE
  5
288
330
20A
100
AcDbEntity
  8
DV4_0
 62
     7
370
    25
100
AcDbEllipse
 10
244.0472289539508
 20
75.15080222274895
 30
0.0
 11
-0.2500000000000002
 21
5.642865670714489E-16
 31
0.0
210
0.0
220
0.0
230
1.0
 40
0.5773502691896252
 41
2.356194490192354
 42
3.141592653589793
  0
LINE
  5
289
330
20A
100
AcDbEntity
  8
DV4_0
 62
     7
370
    35
100
AcDbLine
 10
171.672337272923
 20
41.67444240471218
 30
0.0
 11
171.672337272923
 21
40.24557338808866
 31
0.0
  0
ARC
  5
28A
330
20A
100
AcDbEntity
  8
DV4_0
 62
     7
370
    35
100
AcDbCircle
 10
171.922337272923
 20
40.24557338808866
 30
0.0
 40
0.2499999999999962
100
AcDbArc
 50
179.9999999999984
 51
240.0000000000059
  0
ARC
  5
28B
330
20A
100
AcDbEntity
  8
DV4_0
 62
     7
370
    35
100
AcDbCircle
 10
171.922337272923
 20
41.67444240471218
 30
0.0
 40
0.2500000000000002
100
AcDbArc
 50
119.9999999999933
 51
179.9999999999984
  0
LINE
  5
28C
330
20A
100
AcDbEntity
  8
DV4_0
 62
     7
370
    35
100
AcDbLine
 10
171.797337272923
 20
40.02906703714255
 30
0.0
 11
178.8684050847885
 21
35.94658413250393
 31
0.0
  0
LINE
  5
28D
330
20A
100
AcDbEntity
  8
DV4_0
 62
     7
370
    35
100
AcDbLine
 10
236.8511611420854
 20
79.4497914783337
 30
0.0
 11
171.797337272923
 21
41.8909487556583
 31
0.0
  0
ARC
  5
28E
330
20A
100
AcDbEntity
  8
DV4_0
 62
     7
370
    35
100
AcDbCircle
 10
178.9934050847884
 20
36.16309048345003
 30
0.0
 40
0.2499999999999972
100
AcDbArc
 50
240.0000000000059
 51
300.0000000000062
  0
ARC
  5
28F
330
20A
100
AcDbEntity
  8
DV4_0
 62
     7
370
    35
100
AcDbCircle
 10
236.9761611420854
 20
79.23328512738759
 30
0.0
 40
0.2500000000000011
100
AcDbArc
 50
59.99999999999946
 51
120.0000000000006
  0
LINE
  5
290
330
20A
100
AcDbEntity
  8
DV4_0
 62
     7
370
    35
100
AcDbLine
 10
179.1184050847885
 20
35.94658413250392
 30
0.0
 11
180.0388402085287
 21
36.47799759896691
 31
0.0
  0
LINE
  5
291
330
20A
100
AcDbEntity
  8
DV4_0
 62
     7
370
    35
100
AcDbLine
 10
244.1722289539508
 20
75.36730857369506
 30
0.0
 11
237.1011611420854
 21
79.44979147833368
 31
0.0
  0
ARC
  5
292
330
20A
100
AcDbEntity
  8
DV4_0
 62
     7
370
    35
100
AcDbCircle
 10
244.0472289539508
 20
75.15080222274895
 30
0.0
 40
0.2500000000000006
100
AcDbArc
 50
0.0
 51
59.99999999999946
  0
LINE
  5
293
330
20A
100
AcDbEntity
  8
DV4_0
 62
     7
370
    35
100
AcDbLine
 10
244.2972289539508
 20
74.087975289823
 30
0.0
 11
244.2972289539508
 21
75.15080222274896
 31
0.0
  0
LINE
  5
294
330
20A
100
AcDbEntity
  8
DV4_0
 62
     7
370
    35
100
AcDbLine
 10
248.6631119289643
 20
66.43743390560704
 30
0.0
 11
249.231751374217
 21
66.10912976881856
 31
0.0
  0
LINE
  5
295
330
20A
100
AcDbEntity
  8
DV4_0
 62
     7
370
    35
100
AcDbLine
 10
232.6829307321626
 20
77.72086371647607
 30
0.0
 11
232.6829307321626
 21
77.04326252912038
 31
0.0
  0
LINE
  5
296
330
20A
100
AcDbEntity
  8
DV4_0
 62
     7
370
    35
100
AcDbLine
 10
252.0601784989632
 20
67.74212293067401
 30
0.0
 11
249.2317513742171
 21
66.10912976881856
 31
0.0
  0
LINE
  5
297
330
20A
100
AcDbEntity
  8
DV4_0
 62
     7
370
    25
100
AcDbLine
 10
235.7189079389902
 20
79.28876298002771
 30
0.0
 11
232.890480814244
 21
77.65576981817226
 31
0.0
  0
LINE
  5
298
330
20A
100
AcDbEntity
  8
DV4_0
 62
     7
370
    35
100
AcDbLine
 10
235.7234898912647
 20
79.23138239119237
 30
0.0
 11
235.7234898912647
 21
78.798730178115
 31
0.0
  0
LINE
  5
299
330
20A
100
AcDbEntity
  8
DV4_0
 62
     7
370
    25
100
AcDbLine
 10
235.7234898912647
 20
79.23138239119237
 30
0.0
 11
232.8950627665185
 21
77.59838922933692
 31
0.0
  0
LINE
  5
29A
330
20A
100
AcDbEntity
  8
DV4_0
 62
     7
370
    35
100
AcDbLine
 10
232.8950627665185
 20
77.59838922933692
 30
0.0
 11
232.8950627665185
 21
77.16573701625954
 31
0.0
  0
LINE
  5
29B
330
20A
100
AcDbEntity
  8
DV4_0
 62
     7
370
    35
100
AcDbLine
 10
252.0601784989632
 20
67.98707190495233
 30
0.0
 11
249.2317513742171
 21
66.35407874309688
 31
0.0
  0
LINE
  5
29C
330
20A
100
AcDbEntity
  8
DV4_0
 62
     7
370
    35
100
AcDbLine
 10
252.0498517598133
 20
67.99303405058042
 30
0.0
 11
252.0601784989632
 21
67.98707190495234
 31
0.0
  0
LINE
  5
29D
330
20A
100
AcDbEntity
  8
DV4_0
 62
     7
370
    35
100
AcDbLine
 10
248.8752439633203
 20
66.5599083927462
 30
0.0
 11
249.231751374217
 21
66.35407874309688
 31
0.0
  0
LINE
  5
29E
330
20A
100
AcDbEntity
  8
DV4_0
 62
     7
370
    35
100
AcDbLine
 10
249.2317513742171
 20
66.35407874309689
 30
0.0
 11
249.2317513742171
 21
66.10912976881858
 31
0.0
  0
LINE
  5
29F
330
20A
100
AcDbEntity
  8
DV4_0
 62
     7
370
    35
100
AcDbLine
 10
252.0601784989632
 20
67.98707190495233
 30
0.0
 11
252.0601784989632
 21
67.74212293067401
 31
0.0
  0
LINE
  5
2A0
330
20A
100
AcDbEntity
  8
DV4_0
 62
     7
370
    35
100
AcDbLine
 10
231.5464117327232
 20
85.1058813817157
 30
0.0
 11
232.6822761675519
 21
77.72906094345255
 31
0.0
  0
LINE
  5
2A1
330
20A
100
AcDbEntity
  8
DV4_0
 62
     7
370
    35
100
AcDbLine
 10
231.7272544644294
 20
85.21029098154729
 30
0.0
 11
232.890480814244
 21
77.65576981817225
 31
0.0
  0
LINE
  5
2A2
330
20A
100
AcDbEntity
  8
DV4_0
 62
     7
370
    35
100
AcDbLine
 10
232.0627919234666
 20
96.75383782524216
 30
0.0
 11
230.6485783610935
 21
95.93734124431442
 31
0.0
  0
ELLIPSE
  5
2A3
330
20A
100
AcDbEntity
  8
DV4_0
 62
     7
370
    35
100
AcDbEllipse
 10
232.1982264134045
 20
95.87426462725762
 30
0.0
 11
-0.3320430121774269
 21
-0.9432642461495782
 31
0.0
210
0.0
220
0.0
230
1.0
 40
0.6772430718317813
 41
3.436565057049004
 42
3.810177173698984
  0
ELLIPSE
  5
2A4
330
20A
100
AcDbEntity
  8
DV4_0
 62
     7
370
    35
100
AcDbEllipse
 10
230.7840128510314
 20
95.0577680463299
 30
0.0
 11
-0.3320430121774319
 21
-0.9432642461495826
 31
0.0
210
0.0
220
0.0
230
0.9999999999999999
 40
0.6772430718317777
 41
3.810177173698994
 42
4.183789290348927
  0
LINE
  5
2A5
330
20A
100
AcDbEntity
  8
DV4_0
 62
     7
370
    25
100
AcDbLine
 10
232.1338850212852
 20
96.72881199982676
 30
0.0
 11
232.0627919234666
 21
96.75383782524216
 31
0.0
  0
LINE
  5
2A6
330
20A
100
AcDbEntity
  8
DV4_0
 62
     7
370
    25
100
AcDbLine
 10
230.6485783610935
 20
95.93734124431442
 30
0.0
 11
230.7196714589121
 21
95.91231541889904
 31
0.0
  0
LINE
  5
2A7
330
20A
100
AcDbEntity
  8
DV4_0
 62
     7
370
    35
100
AcDbLine
 10
234.5556815891755
 20
86.84328414340273
 30
0.0
 11
235.7189079389902
 21
79.2887629800277
 31
0.0
  0
LINE
  5
2A8
330
20A
100
AcDbEntity
  8
DV4_0
 62
     7
370
    25
100
AcDbLine
 10
232.6822761675519
 20
77.72906094345255
 30
0.0
 11
232.890480814244
 21
77.65576981817225
 31
0.0
  0
LINE
  5
2A9
330
20A
100
AcDbEntity
  8
DV4_0
 62
     7
370
    25
100
AcDbLine
 10
232.6829307321626
 20
77.72086371647607
 30
0.0
 11
232.8950627665185
 21
77.59838922933692
 31
0.0
  0
ELLIPSE
  5
2AA
330
20A
100
AcDbEntity
  8
DV4_0
 62
     7
370
    35
100
AcDbEllipse
 10
232.6475753931034
 20
77.74127613099904
 30
0.0
 11
0.174999999999756
 21
-0.3031088913244132
 31
0.0
210
0.0
220
0.0
230
1.0
 40
0.5773502691898548
 41
0.7853981633981979
 42
0.978122287659779
  0
ELLIPSE
  5
2AB
330
20A
100
AcDbEntity
  8
DV4_0
 62
     7
370
    35
100
AcDbEllipse
 10
235.4760025178464
 20
79.37426929285574
 30
0.0
 11
0.1750000000029002
 21
-0.3031088913260788
 31
0.0
210
0.0
220
0.0
230
0.9999999999999999
 40
0.5773502691910661
 41
0.785398163392844
 42
0.9781222876533398
  0
ELLIPSE
  5
2AC
330
20A
100
AcDbEntity
  8
DV4_0
 62
     7
370
    35
100
AcDbEllipse
 10
232.6475753931034
 20
77.7412761309993
 30
0.0
 11
0.02499999999987038
 21
-0.04330127018918892
 31
0.0
210
0.0
220
0.0
230
1.0
 40
0.5773502691881599
 41
0.7853981633980798
 42
0.9781222876600529
  0
LINE
  5
2AD
330
20A
100
AcDbEntity
  8
DV4_0
 62
     7
370
    25
100
AcDbLine
 10
252.5905085848532
 20
70.21833742808526
 30
0.0
 11
187.5366847156908
 21
32.65949470540986
 31
0.0
  0
LINE
  5
2AE
330
20A
100
AcDbEntity
  8
DV4_0
 62
     7
370
    25
100
AcDbLine
 10
187.5366847156907
 20
32.65949470540988
 30
0.0
 11
187.5366847156907
 21
31.23062568878635
 31
0.0
  0
LINE
  5
2AF
330
20A
100
AcDbEntity
  8
DV4_0
 62
     7
370
    25
100
AcDbLine
 10
187.5366847156907
 20
31.23062568878635
 30
0.0
 11
252.5905085848531
 21
68.78946841146174
 31
0.0
  0
LINE
  5
2B0
330
20A
100
AcDbEntity
  8
DV4_0
 62
     7
370
    25
100
AcDbLine
 10
252.5905085848532
 20
68.78946841146174
 30
0.0
 11
252.5905085848532
 21
70.21833742808526
 31
0.0
  0
LINE
  5
2B1
330
20A
100
AcDbEntity
  8
DV4_0
 62
     7
370
    25
100
AcDbLine
 10
180.112063513232
 20
36.74197761004849
 30
0.0
 11
180.112063513232
 21
35.31310859342498
 31
0.0
  0
LINE
  5
2B2
330
20A
100
AcDbEntity
  8
DV4_0
 62
     7
370
    25
100
AcDbLine
 10
187.1831313250975
 20
32.65949470540988
 30
0.0
 11
180.112063513232
 21
36.7419776100485
 31
0.0
  0
LINE
  5
2B3
330
20A
100
AcDbEntity
  8
DV4_0
 62
     7
370
    25
100
AcDbLine
 10
180.112063513232
 20
35.31310859342499
 30
0.0
 11
187.1831313250975
 21
31.23062568878636
 31
0.0
  0
LINE
  5
2B4
330
20A
100
AcDbEntity
  8
DV4_0
 62
     7
370
    25
100
AcDbLine
 10
187.1831313250975
 20
31.23062568878635
 30
0.0
 11
187.1831313250975
 21
32.65949470540988
 31
0.0
  0
LINE
  5
2B5
330
20A
100
AcDbEntity
  8
DV4_0
 62
     7
370
    25
100
AcDbLine
 10
245.342664077691
 20
74.6070065505718
 30
0.0
 11
180.2888402085287
 21
37.0481638278964
 31
0.0
  0
LINE
  5
2B6
330
20A
100
AcDbEntity
  8
DV4_0
 62
     7
370
    25
100
AcDbLine
 10
180.2888402085287
 20
37.0481638278964
 30
0.0
 11
187.3599080203941
 21
32.96568092325777
 31
0.0
  0
LINE
  5
2B7
330
20A
100
AcDbEntity
  8
DV4_0
 62
     7
370
    25
100
AcDbLine
 10
252.4137318895565
 20
70.52452364593316
 30
0.0
 11
245.342664077691
 21
74.60700655057178
 31
0.0
  0
LINE
  5
2B8
330
20A
100
AcDbEntity
  8
DV4_0
 62
     7
370
    25
100
AcDbLine
 10
187.3599080203941
 20
32.96568092325776
 30
0.0
 11
252.4137318895565
 21
70.52452364593316
 31
0.0
  0
ELLIPSE
  5
2B9
330
20A
100
AcDbEntity
  8
DV4_0
 62
     7
370
    25
100
AcDbEllipse
 10
180.2888402085287
 20
35.41517066604094
 30
0.0
 11
0.2499999999999913
 21
-1.138662999799273E-15
 31
0.0
210
0.0
220
0.0
230
1.0
 40
0.577350269189625
 41
3.141592653589801
 42
3.92699081698704
  0
ELLIPSE
  5
2BA
330
20A
100
AcDbEntity
  8
DV4_0
 62
     7
370
    25
100
AcDbEllipse
 10
180.2888402085287
 20
36.84403968266446
 30
0.0
 11
0.2499999999999972
 21
-6.798449058863101E-15
 31
0.0
210
0.0
220
0.0
230
1.0
 40
0.577350269189619
 41
3.141592653589791
 42
3.926990816987077
  0
ELLIPSE
  5
2BB
330
20A
100
AcDbEntity
  8
DV4_0
 62
     7
370
    25
100
AcDbEllipse
 10
180.2888402085287
 20
35.41517066604094
 30
0.0
 11
0.1249999999999907
 21
0.2165063509461095
 31
0.0
210
0.0
220
0.0
230
1.0
 40
0.5773502691896187
 41
2.356194490192461
 42
3.141592653589527
  0
ELLIPSE
  5
2BC
330
20A
100
AcDbEntity
  8
DV4_0
 62
     7
370
    25
100
AcDbEllipse
 10
180.2888402085287
 20
36.84403968266446
 30
0.0
 11
0.1249999999999947
 21
0.216506350946109
 31
0.0
210
0.0
220
0.0
230
1.0
 40
0.5773502691896325
 41
0.7853981633973994
 42
2.356194490192463
  0
ELLIPSE
  5
2BD
330
20A
100
AcDbEntity
  8
DV4_0
 62
     7
370
    25
100
AcDbEllipse
 10
180.2888402085286
 20
36.84403968266445
 30
0.0
 11
0.1249999999999829
 21
-0.2165063509461203
 31
0.0
210
0.0
220
0.0
230
1.0
 40
0.5773502691896253
 41
2.356194490192335
 42
3.1415926535899
  0
ELLIPSE
  5
2BE
330
20A
100
AcDbEntity
  8
DV4_0
 62
     7
370
    25
100
AcDbEllipse
 10
187.3599080203941
 20
31.33268776140232
 30
0.0
 11
0.1249999999999947
 21
0.2165063509461095
 31
0.0
210
0.0
220
0.0
230
0.9999999999999998
 40
0.5773502691896185
 41
2.356194490192328
 42
3.14159265358977
  0
ELLIPSE
  5
2BF
330
20A
100
AcDbEntity
  8
DV4_0
 62
     7
370
    25
100
AcDbEllipse
 10
187.3599080203941
 20
31.33268776140232
 30
0.0
 11
0.2499999999999962
 21
-5.690807812101432E-16
 31
0.0
210
0.0
220
0.0
230
1.0
 40
0.5773502691896517
 41
3.926990816987219
 42
5.497787143782163
  0
ELLIPSE
  5
2C0
330
20A
100
AcDbEntity
  8
DV4_0
 62
     7
370
    25
100
AcDbEllipse
 10
187.3599080203941
 20
32.76155677802583
 30
0.0
 11
-0.2499999999999923
 21
-5.096251648060857E-15
 31
0.0
210
0.0
220
0.0
230
1.0
 40
0.5773502691896456
 41
0.7853981633973977
 42
2.356194490192212
  0
ELLIPSE
  5
2C1
330
20A
100
AcDbEntity
  8
DV4_0
 62
     7
370
    25
100
AcDbEllipse
 10
187.3599080203941
 20
32.76155677802583
 30
0.0
 11
0.1249999999999976
 21
0.2165063509461032
 31
0.0
210
0.0
220
0.0
230
1.0
 40
0.5773502691896581
 41
0.7853981633974323
 42
2.356194490192375
  0
ELLIPSE
  5
2C2
330
20A
100
AcDbEntity
  8
DV4_0
 62
     7
370
    25
100
AcDbEllipse
 10
245.342664077691
 20
74.40288240533987
 30
0.0
 11
0.1250000000000006
 21
-0.2165063509461106
 31
0.0
210
0.0
220
0.0
230
0.9999999999999999
 40
0.5773502691896252
 41
2.356194490192332
 42
3.14159265358998
  0
ELLIPSE
  5
2C3
330
20A
100
AcDbEntity
  8
DV4_0
 62
     7
370
    25
100
AcDbEllipse
 10
187.3599080203941
 20
31.33268776140232
 30
0.0
 11
-0.1250000000000015
 21
0.2165063509461078
 31
0.0
210
0.0
220
0.0
230
1.0
 40
0.5773502691896382
 41
3.141592653589793
 42
3.926990816987233
  0
ELLIPSE
  5
2C4
330
20A
100
AcDbEntity
  8
DV4_0
 62
     7
370
    25
100
AcDbEllipse
 10
187.3599080203941
 20
32.76155677802583
 30
0.0
 11
-0.1250000000000015
 21
0.2165063509461078
 31
0.0
210
0.0
220
0.0
230
1.0
 40
0.5773502691895875
 41
3.926990816987303
 42
5.497787143782093
  0
ELLIPSE
  5
2C5
330
20A
100
AcDbEntity
  8
DV4_0
 62
     7
370
    25
100
AcDbEllipse
 10
245.342664077691
 20
74.40288240533987
 30
0.0
 11
-0.1250000000000045
 21
-0.2165063509461016
 31
0.0
210
0.0
220
0.0
230
1.0
 40
0.5773502691896382
 41
3.141592653589793
 42
3.926990816987388
  0
ELLIPSE
  5
2C6
330
20A
100
AcDbEntity
  8
DV4_0
 62
     7
370
    25
100
AcDbEllipse
 10
252.4137318895565
 20
68.89153048407772
 30
0.0
 11
-0.1250000000000075
 21
0.2165063509461113
 31
0.0
210
0.0
220
0.0
230
1.0
 40
0.5773502691896157
 41
3.141592653589793
 42
3.92699081698711
  0
ELLIPSE
  5
2C7
330
20A
100
AcDbEntity
  8
DV4_0
 62
     7
370
    25
100
AcDbEllipse
 10
252.4137318895565
 20
70.32039950070124
 30
0.0
 11
-0.1250000000000006
 21
0.2165063509461106
 31
0.0
210
0.0
220
0.0
230
0.9999999999999999
 40
0.5773502691896325
 41
3.926990816987267
 42
5.497787143781964
  0
ELLIPSE
  5
2C8
330
20A
100
AcDbEntity
  8
DV4_0
 62
     7
370
    25
100
AcDbEllipse
 10
252.4137318895565
 20
70.32039950070124
 30
0.0
 11
-0.1250000000000035
 21
-0.2165063509461055
 31
0.0
210
0.0
220
0.0
230
1.0
 40
0.5773502691896252
 41
3.141592653589793
 42
3.926990816987324
  0
ELLIPSE
  5
2C9
330
20A
100
AcDbEntity
  8
DV4_0
 62
     7
370
    25
100
AcDbEllipse
 10
252.4137318895565
 20
68.89153048407772
 30
0.0
 11
-0.2500000000000006
 21
2.818925648462312E-16
 31
0.0
210
0.0
220
0.0
230
1.0
 40
0.5773502691896254
 41
2.356194490192351
 42
3.141592653589795
  0
ELLIPSE
  5
2CA
330
20A
100
AcDbEntity
  8
DV4_0
 62
     7
370
    25
100
AcDbEllipse
 10
252.4137318895565
 20
70.32039950070124
 30
0.0
 11
-0.2500000000000021
 21
1.076713044753903E-14
 31
0.0
210
0.0
220
0.0
230
1.0
 40
0.5773502691896254
 41
2.35619449019237
 42
3.14159265358977
  0
LINE
  5
2CB
330
20A
100
AcDbEntity
  8
DV4_0
 62
     7
370
    35
100
AcDbLine
 10
180.0388402085287
 20
36.84403968266446
 30
0.0
 11
180.0388402085287
 21
35.41517066604094
 31
0.0
  0
ARC
  5
2CC
330
20A
100
AcDbEntity
  8
DV4_0
 62
     7
370
    35
100
AcDbCircle
 10
180.2888402085287
 20
35.41517066604094
 30
0.0
 40
0.2499999999999967
100
AcDbArc
 50
180.0
 51
239.9999999999938
  0
ARC
  5
2CD
330
20A
100
AcDbEntity
  8
DV4_0
 62
     7
370
    35
100
AcDbCircle
 10
180.2888402085287
 20
36.84403968266446
 30
0.0
 40
0.2500000000000006
100
AcDbArc
 50
119.9999999999989
 51
179.9999999999984
  0
LINE
  5
2CE
330
20A
100
AcDbEntity
  8
DV4_0
 62
     7
370
    35
100
AcDbLine
 10
180.1638402085286
 20
35.19866431509483
 30
0.0
 11
187.2349080203941
 21
31.1161814104562
 31
0.0
  0
LINE
  5
2CF
330
20A
100
AcDbEntity
  8
DV4_0
 62
     7
370
    35
100
AcDbLine
 10
245.217664077691
 20
74.61938875628597
 30
0.0
 11
180.1638402085286
 21
37.06054603361056
 31
0.0
  0
ARC
  5
2D0
330
20A
100
AcDbEntity
  8
DV4_0
 62
     7
370
    35
100
AcDbCircle
 10
187.3599080203941
 20
31.33268776140232
 30
0.0
 40
0.2499999999999972
100
AcDbArc
 50
240.0000000000006
 51
300.0000000000005
  0
ARC
  5
2D1
330
20A
100
AcDbEntity
  8
DV4_0
 62
     7
370
    35
100
AcDbCircle
 10
245.342664077691
 20
74.40288240533987
 30
0.0
 40
0.2500000000000011
100
AcDbArc
 50
60.00000000000509
 51
120.0000000000062
  0
LINE
  5
2D2
330
20A
100
AcDbEntity
  8
DV4_0
 62
     7
370
    35
100
AcDbLine
 10
187.4849080203941
 20
31.1161814104562
 30
0.0
 11
252.5387318895565
 21
68.67502413313159
 31
0.0
  0
LINE
  5
2D3
330
20A
100
AcDbEntity
  8
DV4_0
 62
     7
370
    35
100
AcDbLine
 10
252.5387318895565
 20
70.53690585164735
 30
0.0
 11
245.467664077691
 21
74.61938875628597
 31
0.0
  0
ARC
  5
2D4
330
20A
100
AcDbEntity
  8
DV4_0
 62
     7
370
    35
100
AcDbCircle
 10
252.4137318895565
 20
68.89153048407772
 30
0.0
 40
0.2500000000000011
100
AcDbArc
 50
299.9999999999932
 51
0.0
  0
ARC
  5
2D5
330
20A
100
AcDbEntity
  8
DV4_0
 62
     7
370
    35
100
AcDbCircle
 10
252.4137318895565
 20
70.32039950070124
 30
0.0
 40
0.2500000000000011
100
AcDbArc
 50
0.0
 51
60.00000000000509
  0
LINE
  5
2D6
330
20A
100
AcDbEntity
  8
DV4_0
 62
     7
370
    35
100
AcDbLine
 10
252.6637318895565
 20
68.89153048407772
 30
0.0
 11
252.6637318895565
 21
70.32039950070124
 31
0.0
  0
LINE
  5
2D7
330
20A
100
AcDbEntity
  8
DV4_0
 62
     7
370
    25
100
AcDbLine
 10
169.6857937699264
 20
59.25697545533041
 30
0.0
 11
168.4712666642226
 21
59.68450701946549
 31
0.0
  0
LINE
  5
2D8
330
20A
100
AcDbEntity
  8
DV4_0
 62
     7
370
    25
100
AcDbLine
 10
171.0401386693049
 20
50.46124347548502
 30
0.0
 11
169.6857937699264
 21
59.25697545533041
 31
0.0
  0
LINE
  5
2D9
330
20A
100
AcDbEntity
  8
DV4_0
 62
     7
370
    25
100
AcDbLine
 10
168.4712666642226
 20
59.6845070194655
 30
0.0
 11
169.8256115636011
 21
50.88877503962011
 31
0.0
  0
LINE
  5
2DA
330
20A
100
AcDbEntity
  8
DV4_0
 62
     7
370
    25
100
AcDbLine
 10
169.8256115636011
 20
50.8887750396201
 30
0.0
 11
171.0401386693049
 21
50.46124347548502
 31
0.0
  0
LINE
  5
2DB
330
20A
100
AcDbEntity
  8
DV4_0
 62
     7
370
    25
100
AcDbLine
 10
235.0898982066289
 20
96.85680431288817
 30
0.0
 11
170.0360743374665
 21
59.2979615902128
 31
0.0
  0
LINE
  5
2DC
330
20A
100
AcDbEntity
  8
DV4_0
 62
     7
370
    25
100
AcDbLine
 10
170.0360743374665
 20
59.29796159021279
 30
0.0
 11
171.3904192368449
 21
50.50222961036741
 31
0.0
  0
LINE
  5
2DD
330
20A
100
AcDbEntity
  8
DV4_0
 62
     7
370
    25
100
AcDbLine
 10
236.4442431060073
 20
88.06107233304279
 30
0.0
 11
235.0898982066289
 21
96.85680431288817
 31
0.0
  0
LINE
  5
2DE
330
20A
100
AcDbEntity
  8
DV4_0
 62
     7
370
    25
100
AcDbLine
 10
171.3904192368449
 20
50.50222961036741
 30
0.0
 11
236.4442431060073
 21
88.0610723330428
 31
0.0
  0
LINE
  5
2DF
330
20A
100
AcDbEntity
  8
DV4_0
 62
     7
370
    25
100
AcDbLine
 10
168.6141847370348
 20
60.00646239157759
 30
0.0
 11
169.8287118427386
 21
59.57893082744251
 31
0.0
  0
LINE
  5
2E0
330
20A
100
AcDbEntity
  8
DV4_0
 62
     7
370
    25
100
AcDbLine
 10
169.8287118427386
 20
59.57893082744251
 30
0.0
 11
234.882535711901
 21
97.13777355011788
 31
0.0
  0
LINE
  5
2E1
330
20A
100
AcDbEntity
  8
DV4_0
 62
     7
370
    25
100
AcDbLine
 10
233.6680086061972
 20
97.565305114253
 30
0.0
 11
168.6141847370348
 21
60.00646239157761
 31
0.0
  0
LINE
  5
2E2
330
20A
100
AcDbEntity
  8
DV4_0
 62
     7
370
    25
100
AcDbLine
 10
234.882535711901
 20
97.1377735501179
 30
0.0
 11
233.6680086061972
 21
97.56530511425298
 31
0.0
  0
ELLIPSE
  5
2E3
330
20A
100
AcDbEntity
  8
DV4_0
 62
     7
370
    25
100
AcDbEllipse
 10
168.6480433595193
 20
59.78656909208146
 30
0.0
 11
-0.08301075304435925
 21
-0.235816061537401
 31
0.0
210
0.0
220
0.0
230
1.0
 40
0.6772430718317584
 41
3.810177173699056
 42
5.380973500493873
  0
ELLIPSE
  5
2E4
330
20A
100
AcDbEntity
  8
DV4_0
 62
     7
370
    25
100
AcDbEllipse
 10
169.8625704652231
 20
59.35903752794638
 30
0.0
 11
0.08301075304434352
 21
0.2358160615373874
 31
0.0
210
0.0
220
0.0
230
0.9999999999999997
 40
0.677243071831782
 41
0.6685845201091443
 42
2.239380846904007
  0
ELLIPSE
  5
2E5
330
20A
100
AcDbEntity
  8
DV4_0
 62
     7
370
    25
100
AcDbEllipse
 10
168.6480433595193
 20
59.78656909208146
 30
0.0
 11
0.1250000000000006
 21
-0.2165063509461106
 31
0.0
210
0.0
220
0.0
230
0.9999999999999999
 40
0.5773502691896357
 41
2.548918614454038
 42
3.14159265358998
  0
ELLIPSE
  5
2E6
330
20A
100
AcDbEntity
  8
DV4_0
 62
     7
370
    25
100
AcDbEllipse
 10
168.6480433595193
 20
59.78656909208146
 30
0.0
 11
0.2470880445578348
 21
0.03804600158475422
 31
0.0
210
0.0
220
0.0
230
1.0
 40
0.4560794758838968
 41
3.141592653589776
 42
3.847536778007687
  0
ELLIPSE
  5
2E7
330
20A
100
AcDbEntity
  8
DV4_0
 62
     7
370
    25
100
AcDbEllipse
 10
169.8625704652231
 20
59.35903752794638
 30
0.0
 11
0.247088044557823
 21
0.03804600158475196
 31
0.0
210
0.0
220
0.0
230
0.9999999999999999
 40
0.4560794758838865
 41
3.847536778007459
 42
5.418333104802602
  0
ELLIPSE
  5
2E8
330
20A
100
AcDbEntity
  8
DV4_0
 62
     7
370
    25
100
AcDbEllipse
 10
169.8625704652231
 20
59.35903752794638
 30
0.0
 11
-0.1250000000000045
 21
0.2165063509461016
 31
0.0
210
0.0
220
0.0
230
1.0
 40
0.5773502691896157
 41
4.119714941248848
 42
5.690511268043759
  0
ELLIPSE
  5
2E9
330
20A
100
AcDbEntity
  8
DV4_0
 62
     7
370
    25
100
AcDbEllipse
 10
233.7018672286817
 20
97.34541181475684
 30
0.0
 11
-0.08301075304435702
 21
-0.2358160615374068
 31
0.0
210
0.0
220
0.0
230
0.9999999999999997
 40
0.677243071831754
 41
3.141592653589793
 42
3.810177173698879
  0
ELLIPSE
  5
2EA
330
20A
100
AcDbEntity
  8
DV4_0
 62
     7
370
    25
100
AcDbEllipse
 10
233.7018672286817
 20
97.34541181475684
 30
0.0
 11
0.1250000000000011
 21
-0.2165063509461075
 31
0.0
210
0.0
220
0.0
230
1.0
 40
0.5773502691896326
 41
2.548918614453902
 42
3.141592653589793
  0
ELLIPSE
  5
2EB
330
20A
100
AcDbEntity
  8
DV4_0
 62
     7
370
    25
100
AcDbEllipse
 10
170.0023882588977
 20
50.99083711223606
 30
0.0
 11
0.247088044557823
 21
0.03804600158474741
 31
0.0
210
0.0
220
0.0
230
1.0
 40
0.4560794758839143
 41
3.141592653589757
 42
3.847536778007624
  0
ELLIPSE
  5
2EC
330
20A
100
AcDbEntity
  8
DV4_0
 62
     7
370
    25
100
AcDbEllipse
 10
170.0023882588977
 20
50.99083711223607
 30
0.0
 11
0.08301075304434746
 21
0.2358160615373885
 31
0.0
210
0.0
220
0.0
230
0.9999999999999999
 40
0.6772430718317942
 41
2.239380846904091
 42
3.141592653589701
  0
ELLIPSE
  5
2ED
330
20A
100
AcDbEntity
  8
DV4_0
 62
     7
370
    25
100
AcDbEllipse
 10
171.2169153646015
 20
50.563305548101
 30
0.0
 11
0.08301075304433962
 21
0.2358160615373965
 31
0.0
210
0.0
220
0.0
230
1.0
 40
0.6772430718317946
 41
2.239380846903952
 42
3.141592653589793
  0
ELLIPSE
  5
2EE
330
20A
100
AcDbEntity
  8
DV4_0
 62
     7
370
    25
100
AcDbEllipse
 10
171.2169153646015
 20
50.56330554810099
 30
0.0
 11
0.2470880445578308
 21
0.03804600158475988
 31
0.0
210
0.0
220
0.0
230
1.0
 40
0.4560794758838858
 41
3.847536778007647
 42
5.418333104802565
  0
ELLIPSE
  5
2EF
330
20A
100
AcDbEntity
  8
DV4_0
 62
     7
370
    25
100
AcDbEllipse
 10
234.9163943343855
 20
96.91788025062176
 30
0.0
 11
-0.1250000000000002
 21
0.2165063509461093
 31
0.0
210
0.0
220
0.0
230
1.0
 40
0.5773502691896163
 41
4.119714941248946
 42
5.690511268043793
  0
ELLIPSE
  5
2F0
330
20A
100
AcDbEntity
  8
DV4_0
 62
     7
370
    25
100
AcDbEllipse
 10
234.9163943343855
 20
96.91788025062176
 30
0.0
 11
-0.08301075304435532
 21
-0.2358160615374033
 31
0.0
210
0.0
220
0.0
230
0.9999999999999999
 40
0.6772430718317547
 41
3.141592653589793
 42
3.810177173699005
  0
ELLIPSE
  5
2F1
330
20A
100
AcDbEntity
  8
DV4_0
 62
     7
370
    25
100
AcDbEllipse
 10
171.2169153646015
 20
50.563305548101
 30
0.0
 11
-0.1250000000000006
 21
0.2165063509461118
 31
0.0
210
0.0
220
0.0
230
0.9999999999999999
 40
0.5773502691896372
 41
3.141592653589959
 42
4.119714941248827
  0
ELLIPSE
  5
2F2
330
20A
100
AcDbEntity
  8
DV4_0
 62
     7
370
    25
100
AcDbEllipse
 10
234.9163943343855
 20
96.91788025062176
 30
0.0
 11
-0.2470880445578317
 21
-0.03804600158475487
 31
0.0
210
0.0
220
0.0
230
1.0
 40
0.4560794758839088
 41
2.276740451212594
 42
3.141592653589793
  0
ELLIPSE
  5
2F3
330
20A
100
AcDbEntity
  8
DV4_0
 62
     7
370
    25
100
AcDbEllipse
 10
236.2707392337639
 20
88.12214827077636
 30
0.0
 11
-0.125000000000002
 21
0.2165063509461103
 31
0.0
210
0.0
220
0.0
230
1.0
 40
0.5773502691896125
 41
3.14159265358997
 42
4.11971494124887
  0
ELLIPSE
  5
2F4
330
20A
100
AcDbEntity
  8
DV4_0
 62
     7
370
    25
100
AcDbEllipse
 10
236.2707392337639
 20
88.12214827077636
 30
0.0
 11
-0.2470880445578313
 21
-0.03804600158475507
 31
0.0
210
0.0
220
0.0
230
0.9999999999999999
 40
0.4560794758838943
 41
2.276740451212924
 42
3.141592653589825
  0
ARC
  5
2F5
330
20A
100
AcDbEntity
  8
DV4_0
 62
     7
370
    35
100
AcDbCircle
 10
168.6480433595193
 20
59.78656909208146
 30
0.0
 40
0.2500000000000011
100
AcDbArc
 50
120.0000000000062
 51
188.753514195018
  0
LINE
  5
2F6
330
20A
100
AcDbEntity
  8
DV4_0
 62
     7
370
    35
100
AcDbLine
 10
233.5768672286817
 20
97.56191816570295
 30
0.0
 11
168.5230433595193
 21
60.00307544302756
 31
0.0
  0
LINE
  5
2F7
330
20A
100
AcDbEntity
  8
DV4_0
 62
     7
370
    35
100
AcDbLine
 10
168.4009553149614
 20
59.7485230904967
 30
0.0
 11
169.7553002143399
 21
50.95279111065131
 31
0.0
  0
LINE
  5
2F8
330
20A
100
AcDbEntity
  8
DV4_0
 62
     7
370
    35
100
AcDbLine
 10
169.9193775058534
 20
50.75502105069869
 30
0.0
 11
171.1339046115572
 21
50.3274894865636
 31
0.0
  0
LINE
  5
2F9
330
20A
100
AcDbEntity
  8
DV4_0
 62
     7
370
    35
100
AcDbLine
 10
234.9994050874298
 20
97.15369631215914
 30
0.0
 11
233.784877981726
 21
97.58122787629422
 31
0.0
  0
ARC
  5
2FA
330
20A
100
AcDbEntity
  8
DV4_0
 62
     7
370
    35
100
AcDbCircle
 10
233.7018672286817
 20
97.34541181475684
 30
0.0
 40
0.2500000000000019
100
AcDbArc
 50
70.60717498819727
 51
119.9999999999949
  0
ARC
  5
2FB
330
20A
100
AcDbEntity
  8
DV4_0
 62
     7
370
    35
100
AcDbCircle
 10
170.0023882588977
 20
50.99083711223607
 30
0.0
 40
0.2500000000000019
100
AcDbArc
 50
188.7535141950164
 51
250.6071749881922
  0
ARC
  5
2FC
330
20A
100
AcDbEntity
  8
DV4_0
 62
     7
370
    35
100
AcDbCircle
 10
171.2169153646015
 20
50.56330554810099
 30
0.0
 40
0.2499999999999983
100
AcDbArc
 50
250.6071749881978
 51
299.9999999999989
  0
ARC
  5
2FD
330
20A
100
AcDbEntity
  8
DV4_0
 62
     7
370
    35
100
AcDbCircle
 10
234.9163943343855
 20
96.91788025062176
 30
0.0
 40
0.2499999999999995
100
AcDbArc
 50
8.75351419501738
 51
70.6071749882045
  0
LINE
  5
2FE
330
20A
100
AcDbEntity
  8
DV4_0
 62
     7
370
    35
100
AcDbLine
 10
171.3419153646015
 20
50.34679919715488
 30
0.0
 11
236.3957392337639
 21
87.90564191983026
 31
0.0
  0
LINE
  5
2FF
330
20A
100
AcDbEntity
  8
DV4_0
 62
     7
370
    35
100
AcDbLine
 10
236.5178272783218
 20
88.16019427236112
 30
0.0
 11
235.1634823789433
 21
96.95592625220651
 31
0.0
  0
ARC
  5
300
330
20A
100
AcDbEntity
  8
DV4_0
 62
     7
370
    35
100
AcDbCircle
 10
236.2707392337639
 20
88.12214827077636
 30
0.0
 40
0.2500000000000011
100
AcDbArc
 50
300.0000000000078
 51
8.753514195016386
  0
LINE
  5
301
330
20A
100
AcDbEntity
  8
DV4_0
 62
     7
370
    35
100
AcDbLine
 10
187.8445560280747
 20
30.92408927646164
 30
0.0
 11
188.0670148015807
 21
30.79565264369442
 31
0.0
  0
LINE
  5
302
330
20A
100
AcDbEntity
  8
DV4_0
 62
     7
370
    35
100
AcDbLine
 10
171.5181941595262
 20
42.40738659135193
 30
0.0
 11
171.5181941595262
 21
40.63589249948011
 31
0.0
  0
LINE
  5
303
330
20A
100
AcDbEntity
  8
DV4_0
 62
     7
370
    35
100
AcDbLine
 10
190.8954419263268
 20
32.42864580554987
 30
0.0
 11
188.0670148015807
 21
30.79565264369442
 31
0.0
  0
LINE
  5
304
330
20A
100
AcDbEntity
  8
DV4_0
 62
     7
370
    25
100
AcDbLine
 10
174.5541713663538
 20
43.97528585490356
 30
0.0
 11
171.7257442416076
 21
42.34229269304811
 31
0.0
  0
LINE
  5
305
330
20A
100
AcDbEntity
  8
DV4_0
 62
     7
370
    35
100
AcDbLine
 10
174.5587533186283
 20
43.91790526606822
 30
0.0
 11
174.5587533186283
 21
43.48525305299083
 31
0.0
  0
LINE
  5
306
330
20A
100
AcDbEntity
  8
DV4_0
 62
     7
370
    25
100
AcDbLine
 10
174.5587533186283
 20
43.91790526606822
 30
0.0
 11
171.7303261938821
 21
42.28491210421277
 31
0.0
  0
LINE
  5
307
330
20A
100
AcDbEntity
  8
DV4_0
 62
     7
370
    35
100
AcDbLine
 10
171.7303261938821
 20
42.28491210421277
 30
0.0
 11
171.7303261938821
 21
41.8345415787437
 31
0.0
  0
LINE
  5
308
330
20A
100
AcDbEntity
  8
DV4_0
 62
     7
370
    35
100
AcDbLine
 10
190.8954419263268
 20
32.67359477982818
 30
0.0
 11
188.0670148015807
 21
31.04060161797273
 31
0.0
  0
LINE
  5
309
330
20A
100
AcDbEntity
  8
DV4_0
 62
     7
370
    35
100
AcDbLine
 10
190.8851151871769
 20
32.67955692545625
 30
0.0
 11
190.8954419263268
 21
32.67359477982819
 31
0.0
  0
LINE
  5
30A
330
20A
100
AcDbEntity
  8
DV4_0
 62
     7
370
    35
100
AcDbLine
 10
188.0566880624307
 20
31.04656376360081
 30
0.0
 11
188.0670148015807
 21
31.04060161797274
 31
0.0
  0
LINE
  5
30B
330
20A
100
AcDbEntity
  8
DV4_0
 62
     7
370
    35
100
AcDbLine
 10
188.0670148015807
 20
31.04060161797274
 30
0.0
 11
188.0670148015807
 21
30.79565264369442
 31
0.0
  0
LINE
  5
30C
330
20A
100
AcDbEntity
  8
DV4_0
 62
     7
370
    35
100
AcDbLine
 10
190.8954419263268
 20
32.67359477982818
 30
0.0
 11
190.8954419263268
 21
32.42864580554986
 31
0.0
  0
LINE
  5
30D
330
20A
100
AcDbEntity
  8
DV4_0
 62
     7
370
    35
100
AcDbLine
 10
170.2514531081112
 20
50.63812551088105
 30
0.0
 11
171.5175395949155
 21
42.4155838183284
 31
0.0
  0
LINE
  5
30E
330
20A
100
AcDbEntity
  8
DV4_0
 62
     7
370
    35
100
AcDbLine
 10
170.4596577548033
 20
50.56483438560075
 30
0.0
 11
171.7257442416076
 21
42.34229269304811
 31
0.0
  0
LINE
  5
30F
330
20A
100
AcDbEntity
  8
DV4_0
 62
     7
370
    35
100
AcDbLine
 10
170.8980553508302
 20
61.44036070011801
 30
0.0
 11
169.4838417884571
 21
60.62386411919028
 31
0.0
  0
ELLIPSE
  5
310
330
20A
100
AcDbEntity
  8
DV4_0
 62
     7
370
    35
100
AcDbEllipse
 10
171.0334898407681
 20
60.56078750213346
 30
0.0
 11
-0.3320430121774173
 21
-0.9432642461495814
 31
0.0
210
0.0
220
0.0
230
1.0
 40
0.6772430718317766
 41
3.43656505704903
 42
3.81017717369894
  0
ELLIPSE
  5
311
330
20A
100
AcDbEntity
  8
DV4_0
 62
     7
370
    35
100
AcDbEllipse
 10
169.619276278395
 20
59.74429092120575
 30
0.0
 11
-0.332043012177429
 21
-0.9432642461495812
 31
0.0
210
0.0
220
0.0
230
0.9999999999999998
 40
0.6772430718317806
 41
3.810177173698953
 42
4.183789290348887
  0
LINE
  5
312
330
20A
100
AcDbEntity
  8
DV4_0
 62
     7
370
    25
100
AcDbLine
 10
170.9691484486488
 20
61.41533487470262
 30
0.0
 11
170.8980553508302
 21
61.44036070011801
 31
0.0
  0
LINE
  5
313
330
20A
100
AcDbEntity
  8
DV4_0
 62
     7
370
    25
100
AcDbLine
 10
169.4838417884571
 20
60.62386411919028
 30
0.0
 11
169.5549348862757
 21
60.5988382937749
 31
0.0
  0
LINE
  5
314
330
20A
100
AcDbEntity
  8
DV4_0
 62
     7
370
    35
100
AcDbLine
 10
173.3909450165391
 20
51.52980701827859
 30
0.0
 11
174.5541713663538
 21
43.97528585490356
 31
0.0
  0
LINE
  5
315
330
20A
100
AcDbEntity
  8
DV4_0
 62
     7
370
    25
100
AcDbLine
 10
171.672337272923
 20
40.54689793146674
 30
0.0
 11
171.5181941595262
 21
40.63589249948011
 31
0.0
  0
LINE
  5
316
330
20A
100
AcDbEntity
  8
DV4_0
 62
     7
370
    25
100
AcDbLine
 10
171.5175395949155
 20
42.41558381832841
 30
0.0
 11
171.7257442416076
 21
42.34229269304812
 31
0.0
  0
LINE
  5
317
330
20A
100
AcDbEntity
  8
DV4_0
 62
     7
370
    25
100
AcDbLine
 10
171.5181941595262
 20
42.40738659135193
 30
0.0
 11
171.7303261938821
 21
42.28491210421277
 31
0.0
  0
ELLIPSE
  5
318
330
20A
100
AcDbEntity
  8
DV4_0
 62
     7
370
    35
100
AcDbEllipse
 10
171.7656815329415
 20
40.49300559781776
 30
0.0
 11
-0.1750000000000003
 21
0.3031088913245537
 31
0.0
210
0.0
220
0.0
230
1.0
 40
0.577350269189649
 41
0.785398163397522
 42
1.969458193262692
  0
ELLIPSE
  5
319
330
20A
100
AcDbEntity
  8
DV4_0
 62
     7
370
    35
100
AcDbEllipse
 10
171.4828388204672
 20
42.42779900587481
 30
0.0
 11
0.1749999999995195
 21
-0.3031088913244261
 31
0.0
210
0.0
220
0.0
230
1.0
 40
0.5773502691898614
 41
0.7853981633988267
 42
0.9781222876605123
  0
ELLIPSE
  5
31A
330
20A
100
AcDbEntity
  8
DV4_0
 62
     7
370
    35
100
AcDbEllipse
 10
174.3112659452098
 20
44.06079216773197
 30
0.0
 11
0.1750000000033408
 21
-0.3031088913261683
 31
0.0
210
0.0
220
0.0
230
0.9999999999999999
 40
0.5773502691906688
 41
0.7853981633912728
 42
0.9781222876516809
  0
ELLIPSE
  5
31B
330
20A
100
AcDbEntity
  8
DV4_0
 62
     7
370
    35
100
AcDbEllipse
 10
171.4828388204672
 20
42.42779900587523
 30
0.0
 11
0.02499999999971239
 21
-0.04330127018926371
 31
0.0
210
0.0
220
0.0
230
1.0
 40
0.5773502691855885
 41
0.7853981634002505
 42
0.9781222876624452
  0
ENDBLK
  5
31D
330
20A
100
AcDbEntity
  8
0
100
AcDbBlockEnd
  0
BLOCK
  5
327
330
31E
100
AcDbEntity
  8
0
100
AcDbBlockBegin
  2
GDimGGroup
 70
     0
 10
0.0
 20
0.0
 30
0.0
  3
GDimGGroup
  1

  0
LWPOLYLINE
  5
320
330
31E
100
AcDbEntity
  8
Default
 62
     7
370
    25
100
AcDbPolyline
 90
        4
 70
     0
 43
0.0
 10
32.02597455002796
 20
160.2466070014828
 10
32.02597455002796
 20
159.2466069927905
 10
29.02597452395093
 20
159.7466069971366
 10
32.02597455002796
 20
160.2466070014828
  0
LWPOLYLINE
  5
321
330
31E
100
AcDbEntity
  8
Default
 62
     7
370
    25
100
AcDbPolyline
 90
        4
 70
     0
 43
0.0
 10
118.5259756899668
 20
160.2466070014828
 10
118.5259756899668
 20
159.2466069927905
 10
121.5259757160438
 20
159.7466069971366
 10
118.5259756899668
 20
160.2466070014828
  0
LINE
  5
322
330
31E
100
AcDbEntity
  8
Default
 62
     7
370
    25
100
AcDbLine
 10
29.02597452395093
 20
149.5209412415667
 30
0.0
 11
29.02597452395093
 21
161.2466070101752
 31
0.0
  0
LINE
  5
323
330
31E
100
AcDbEntity
  8
Default
 62
     7
370
    25
100
AcDbLine
 10
121.5259745239509
 20
149.5209412415667
 30
0.0
 11
121.5259745239509
 21
161.2466070101752
 31
0.0
  0
LINE
  5
324
330
31E
100
AcDbEntity
  8
Default
 62
     7
370
    25
100
AcDbLine
 10
29.02597452395093
 20
159.7466069971366
 30
0.0
 11
121.5259757160438
 21
159.7466069971366
 31
0.0
  0
TEXT
  5
326
330
31E
100
AcDbEntity
  8
Default
 62
     7
370
    25
100
AcDbText
 10
70.58032294608432
 20
160.4966069971366
 30
0.0
 40
3.0
  1
1850
  7
SEACAD_Solid_Edge_ANSI
 11
70.58032294608432
 21
163.4966069971366
 31
0.0
100
AcDbText
 73
     3
  0
ENDBLK
  5
328
330
31E
100
AcDbEntity
  8
0
100
AcDbBlockEnd
  0
BLOCK
  5
331
330
329
100
AcDbEntity
  8
0
100
AcDbBlockBegin
  2
GDimGGroup1
 70
     0
 10
0.0
 20
0.0
 30
0.0
  3
GDimGGroup1
  1

  0
LWPOLYLINE
  5
32B
330
329
100
AcDbEntity
  8
Default
 62
     7
370
    25
100
AcDbPolyline
 90
        4
 70
     0
 43
0.0
 10
222.8998290382593
 20
126.5964842750935
 10
221.8998290295669
 20
126.5964842750935
 10
222.3998290339131
 20
129.5964843011705
 10
222.8998290382593
 20
126.5964842750935
  0
LWPOLYLINE
  5
32C
330
329
100
AcDbEntity
  8
Default
 62
     7
370
    25
100
AcDbPolyline
 90
        4
 70
     0
 43
0.0
 10
222.8998290382593
 20
109.5964842825441
 10
221.8998290295669
 20
109.5964842825441
 10
222.3998290339131
 20
106.5964842564671
 10
222.8998290382593
 20
109.5964842825441
  0
LINE
  5
32D
330
329
100
AcDbEntity
  8
Default
 62
     7
370
    25
100
AcDbLine
 10
210.3632456475515
 20
129.5964843011705
 30
0.0
 11
223.8998290469516
 21
129.5964843011705
 31
0.0
  0
LINE
  5
32E
330
329
100
AcDbEntity
  8
Default
 62
     7
370
    25
100
AcDbLine
 10
208.48051126073
 20
106.5964843011705
 30
0.0
 11
223.8998290469516
 21
106.5964843011705
 31
0.0
  0
LINE
  5
32F
330
329
100
AcDbEntity
  8
Default
 62
     7
370
    25
100
AcDbLine
 10
222.3998290339131
 20
129.5964843011705
 30
0.0
 11
222.3998290339131
 21
106.5964842564671
 31
0.0
  0
TEXT
  5
330
330
329
100
AcDbEntity
  8
Default
 62
     7
370
    25
100
AcDbText
 10
221.6498290339131
 20
114.574745148384
 30
0.0
 40
3.0
  1
460
 50
90.0
  7
SEACAD_Solid_Edge_ANSI
 11
218.6498290339131
 21
114.574745148384
 31
0.0
100
AcDbText
 73
     3
  0
ENDBLK
  5
332
330
329
100
AcDbEntity
  8
0
100
AcDbBlockEnd
  0
BLOCK
  5
33B
330
333
100
AcDbEntity
  8
0
100
AcDbBlockBegin
  2
GDimGGroup2
 70
     0
 10
0.0
 20
0.0
 30
0.0
  3
GDimGGroup2
  1

  0
LWPOLYLINE
  5
335
330
333
100
AcDbEntity
  8
Default
 62
     7
370
    25
100
AcDbPolyline
 90
        4
 70
     0
 43
0.0
 10
177.0387859395673
 20
146.0804146427784
 10
178.0387859482596
 20
146.0804146427784
 10
177.5387859439135
 20
149.0804146688554
 10
177.0387859395673
 20
146.0804146427784
  0
LWPOLYLINE
  5
336
330
333
100
AcDbEntity
  8
Default
 62
     7
370
    25
100
AcDbPolyline
 90
        4
 70
     0
 43
0.0
 10
177.0387859395673
 20
109.5964851502452
 10
178.0387859482596
 20
109.5964851502452
 10
177.5387859439135
 20
106.5964851241681
 10
177.0387859395673
 20
109.5964851502452
  0
LINE
  5
337
330
333
100
AcDbEntity
  8
Default
 62
     7
370
    25
100
AcDbLine
 10
183.3326703404665
 20
149.0804146688554
 30
0.0
 11
176.038785930875
 21
149.0804146688554
 31
0.0
  0
LINE
  5
338
330
333
100
AcDbEntity
  8
Default
 62
     7
370
    25
100
AcDbLine
 10
187.3683379293905
 20
106.5964843011705
 30
0.0
 11
176.038785930875
 21
106.5964843011705
 31
0.0
  0
LINE
  5
339
330
333
100
AcDbEntity
  8
Default
 62
     7
370
    25
100
AcDbLine
 10
177.5387859439135
 20
149.0804146688554
 30
0.0
 11
177.5387859439135
 21
106.5964851241681
 31
0.0
  0
TEXT
  5
33A
330
333
100
AcDbEntity
  8
Default
 62
     7
370
    25
100
AcDbText
 10
176.7887859439135
 20
124.316710766077
 30
0.0
 40
3.0
  1
850
 50
90.0
  7
SEACAD_Solid_Edge_ANSI
 11
173.7887859439135
 21
124.316710766077
 31
0.0
100
AcDbText
 73
     3
  0
ENDBLK
  5
33C
330
333
100
AcDbEntity
  8
0
100
AcDbBlockEnd
  0
BLOCK
  5
345
330
33D
100
AcDbEntity
  8
0
100
AcDbBlockBegin
  2
GDimGGroup3
 70
     0
 10
0.0
 20
0.0
 30
0.0
  3
GDimGGroup3
  1

  0
LWPOLYLINE
  5
33F
330
33D
100
AcDbEntity
  8
Default
 62
     7
370
    25
100
AcDbPolyline
 90
        4
 70
     0
 43
0.0
 10
137.8246613127171
 20
66.98277062532907
 10
136.8246613040248
 20
66.98277062532907
 10
137.324661308371
 20
69.9827706514061
 10
137.8246613127171
 20
66.98277062532907
  0
LWPOLYLINE
  5
340
330
33D
100
AcDbEntity
  8
Default
 62
     7
370
    25
100
AcDbPolyline
 90
        4
 70
     0
 43
0.0
 10
137.8246613127171
 20
44.74618221429591
 10
136.8246613040248
 20
44.74618221429591
 10
137.324661308371
 20
41.74618218821887
 10
137.8246613127171
 20
44.74618221429591
  0
LINE
  5
341
330
33D
100
AcDbEntity
  8
Default
 62
     7
370
    25
100
AcDbLine
 10
119.4977893619169
 20
69.9827706514061
 30
0.0
 11
138.8246613214095
 21
69.9827706514061
 31
0.0
  0
LINE
  5
342
330
33D
100
AcDbEntity
  8
Default
 62
     7
370
    25
100
AcDbLine
 10
116.4089966215788
 20
41.74618275571891
 30
0.0
 11
138.8246613214095
 21
41.74618275571891
 31
0.0
  0
LINE
  5
343
330
33D
100
AcDbEntity
  8
Default
 62
     7
370
    25
100
AcDbLine
 10
137.324661308371
 20
69.9827706514061
 30
0.0
 11
137.324661308371
 21
41.74618218821888
 31
0.0
  0
TEXT
  5
344
330
33D
100
AcDbEntity
  8
Default
 62
     7
370
    25
100
AcDbText
 10
136.574661308371
 20
52.34273728937771
 30
0.0
 40
3.0
  1
565
 50
90.0
  7
SEACAD_Solid_Edge_ANSI
 11
133.574661308371
 21
52.34273728937771
 31
0.0
100
AcDbText
 73
     3
  0
ENDBLK
  5
346
330
33D
100
AcDbEntity
  8
0
100
AcDbBlockEnd
  0
BLOCK
  5
354
330
34E
100
AcDbEntity
  8
0
100
AcDbBlockBegin
  2
SEANNOT_GROUP
 70
     0
 10
0.0
 20
0.0
 30
0.0
  3
SEANNOT_GROUP
  1

  0
TEXT
  5
350
330
34E
100
AcDbEntity
  8
Predeterminado
 62
     7
370
     5
100
AcDbText
 10
291.0487110700109
 20
14.25425842492689
 30
0.0
 40
1.5
  1
V 
 50
90.0
  7
SEACAD_Solid_Edge_ANSI
 11
289.5487110700109
 21
14.25425842492689
 31
0.0
100
AcDbText
 73
     3
  0
TEXT
  5
351
330
34E
100
AcDbEntity
  8
Predeterminado
 62
     7
370
     5
100
AcDbText
 10
291.0487110700109
 20
16.16675842492689
 30
0.0
 40
1.5
  1
01
 50
90.0
  7
SEACAD_Solid_Edge_ANSI
 11
289.5487110700109
 21
16.16675842492689
 31
0.0
100
AcDbText
 73
     3
  0
TEXT
  5
352
330
34E
100
AcDbEntity
  8
Predeterminado
 62
     7
370
     5
100
AcDbText
 10
291.0487110700109
 20
18.22925842492689
 30
0.0
 40
1.5
  1
 
 50
90.0
  7
SEACAD_Solid_Edge_ANSI
 11
289.5487110700109
 21
18.22925842492689
 31
0.0
100
AcDbText
 73
     3
  0
TEXT
  5
353
330
34E
100
AcDbEntity
  8
Predeterminado
 62
     7
370
     5
100
AcDbText
 10
291.0487110700109
 20
18.75425842492689
 30
0.0
 40
1.5
  1
18/09/2015
 50
90.0
  7
SEACAD_Solid_Edge_ANSI
 11
289.5487110700109
 21
18.75425842492689
 31
0.0
100
AcDbText
 73
     3
  0
ENDBLK
  5
355
330
34E
100
AcDbEntity
  8
0
100
AcDbBlockEnd
  0
BLOCK
  5
35B
330
358
100
AcDbEntity
  8
0
100
AcDbBlockBegin
  2
SEANNOT_GROUP1
 70
     0
 10
0.0
 20
0.0
 30
0.0
  3
SEANNOT_GROUP1
  1

  0
TEXT
  5
35A
330
358
100
AcDbEntity
  8
Predeterminado
 62
     7
370
     5
100
AcDbText
 10
141.3599007911795
 20
190.8725958935368
 30
0.0
 40
6.0
  1
Lao
  7
SEACAD_Solid_Edge_ANSI
 11
141.3599007911795
 21
196.8725958935368
 31
0.0
100
AcDbText
 73
     3
  0
ENDBLK
  5
35C
330
358
100
AcDbEntity
  8
0
100
AcDbBlockEnd
  0
BLOCK
  5
360
330
35D
100
AcDbEntity
  8
0
100
AcDbBlockBegin
  2
SEANNOT_GROUP2
 70
     0
 10
0.0
 20
0.0
 30
0.0
  3
SEANNOT_GROUP2
  1

  0
TEXT
  5
35F
330
35D
100
AcDbEntity
  8
Predeterminado
 62
     7
370
     5
100
AcDbText
 10
148.0454311782086
 20
186.4313175013868
 30
0.0
 40
3.0
  1
UM351
  7
SEACAD_Solid_Edge_ANSI
 11
148.0454311782086
 21
189.4313175013868
 31
0.0
100
AcDbText
 73
     3
  0
ENDBLK
  5
361
330
35D
100
AcDbEntity
  8
0
100
AcDbBlockEnd
  0
ENDSEC
  0
SECTION
  2
ENTITIES
  0
INSERT
  5
70
330
1F
100
AcDbEntity
  8
Default
100
AcDbBlockReference
  2
SE
 10
0.0
 20
0.0
 30
0.0
  0
INSERT
  5
F7
330
1F
100
AcDbEntity
  8
Default
100
AcDbBlockReference
  2
SE1
 10
0.0
 20
0.0
 30
0.0
  0
INSERT
  5
172
330
1F
100
AcDbEntity
  8
Default
100
AcDbBlockReference
  2
SE2
 10
0.0
 20
0.0
 30
0.0
  0
INSERT
  5
20B
330
1F
100
AcDbEntity
  8
Default
100
AcDbBlockReference
  2
SE3
 10
0.0
 20
0.0
 30
0.0
  0
INSERT
  5
31F
330
1F
100
AcDbEntity
  8
Default
100
AcDbBlockReference
  2
GDimGGroup
 10
0.0
 20
0.0
 30
0.0
  0
INSERT
  5
32A
330
1F
100
AcDbEntity
  8
Default
100
AcDbBlockReference
  2
GDimGGroup1
 10
0.0
 20
0.0
 30
0.0
  0
INSERT
  5
334
330
1F
100
AcDbEntity
  8
Default
100
AcDbBlockReference
  2
GDimGGroup2
 10
0.0
 20
0.0
 30
0.0
  0
INSERT
  5
33E
330
1F
100
AcDbEntity
  8
Default
100
AcDbBlockReference
  2
GDimGGroup3
 10
0.0
 20
0.0
 30
0.0
  0
LINE
  5
348
330
1F
100
AcDbEntity
  8
Predeterminado
 62
     7
370
    35
100
AcDbLine
 10
11.28870202951687
 20
8.596433905172951
 30
0.0
 11
11.28870202951684
 21
201.9479713239704
 31
0.0
  0
LINE
  5
349
330
1F
100
AcDbEntity
  8
Predeterminado
 62
     7
370
    35
100
AcDbLine
 10
11.28870202951687
 20
8.596433905172951
 30
0.0
 11
288.2887020295169
 21
8.596433905172969
 31
0.0
  0
LINE
  5
34A
330
1F
100
AcDbEntity
  8
Predeterminado
 62
     7
370
    35
100
AcDbLine
 10
191.2887020295167
 20
201.9479713239704
 30
0.0
 11
11.28870202951683
 21
201.9479713239704
 31
0.0
  0
LINE
  5
34B
330
1F
100
AcDbEntity
  8
Predeterminado
 62
     7
370
    35
100
AcDbLine
 10
288.2887020295169
 20
201.9479713239704
 30
0.0
 11
11.28870202951691
 21
201.9479713239704
 31
0.0
  0
LINE
  5
34C
330
1F
100
AcDbEntity
  8
Predeterminado
 62
     7
370
    35
100
AcDbLine
 10
11.28870202951684
 20
181.9479713239704
 30
0.0
 11
288.2887020295169
 21
181.9479713239704
 31
0.0
  0
LINE
  5
34D
330
1F
100
AcDbEntity
  8
Predeterminado
 62
     7
370
    35
100
AcDbLine
 10
288.2887020295169
 20
201.9479713239704
 30
0.0
 11
288.2887020295169
 21
8.596433905173
 31
0.0
  0
INSERT
  5
34F
330
1F
100
AcDbEntity
  8
Predeterminado
100
AcDbBlockReference
  2
SEANNOT_GROUP
 10
0.0
 20
0.0
 30
0.0
  0
LINE
  5
356
330
1F
100
AcDbEntity
  8
Predeterminado
 62
     7
370
    35
100
AcDbLine
 10
89.91055911737307
 20
185.9479713239704
 30
0.0
 11
89.91055911737307
 21
197.9479713239704
 31
0.0
  0
LINE
  5
357
330
1F
100
AcDbEntity
  8
Predeterminado
 62
     7
370
    35
100
AcDbLine
 10
199.9105591173731
 20
185.9479713239704
 30
0.0
 11
199.9105591173731
 21
197.9479713239704
 31
0.0
  0
INSERT
  5
359
330
1F
100
AcDbEntity
  8
Predeterminado
100
AcDbBlockReference
  2
SEANNOT_GROUP1
 10
0.0
 20
0.0
 30
0.0
  0
INSERT
  5
35E
330
1F
100
AcDbEntity
  8
Predeterminado
100
AcDbBlockReference
  2
SEANNOT_GROUP2
 10
0.0
 20
0.0
 30
0.0
  0
MTEXT
  5
363
102
{ACAD_XDICTIONARY
360
3AB
102
}
330
1F
100
AcDbEntity
  8
D
100
AcDbMText
 10
30.51445010131163
 20
199.4630352844171
 30
0.0
 40
6.500000000000001
 41
45.70995606879774
 71
     1
 72
     1
  1
{\C7;BENITO}\P{\fArial|b1|i0|c0|p34;\C7;–}{\C7;Urban}\P
 73
     1
 44
1.0
1001
ACAD
1000
ACAD_MTEXT_DEFINED_HEIGHT_BEGIN
1070
    46
1040
21.60001000000001
1000
ACAD_MTEXT_DEFINED_HEIGHT_END
  0
MTEXT
  5
364
330
1F
100
AcDbEntity
  8
Predeterminado
100
AcDbMText
 10
229.9135975724114
 20
195.9475188821595
 30
0.0
 40
3.0
 41
38.610011
 71
     1
 72
     1
  1
{\fSolid Edge ANSI|b0||i0||c0|p34;\C7;\H3.;\W1.;T +34 938 521 000\P}{\fSolid Edge ANSI|b0||i0||c0|p34;\C7;\H3.;\W1.;www.benito.com\P}
 73
     1
 44
1.0
1001
ACAD
1000
ACAD_MTEXT_DEFINED_HEIGHT_BEGIN
1070
    46
1040
10.80001
1000
ACAD_MTEXT_DEFINED_HEIGHT_END
  0
MTEXT
  5
365
330
1F
100
AcDbEntity
  8
Predeterminado
100
AcDbMText
 10
238.6065149365715
 20
7.329097306594801
 30
0.0
 40
2.0
 41
54.23001100000002
 71
     1
 72
     1
  1
{\fSolid Edge ANSI|b0||i0||c0|p34;\C7;\H2.;\W1.;BENITO –Urban –Light –Play –Covers}
 73
     1
 44
1.0
1001
ACAD
1000
ACAD_MTEXT_DEFINED_HEIGHT_BEGIN
1070
    46
1040
3.60001
1000
ACAD_MTEXT_DEFINED_HEIGHT_END
  0
ENDSEC
  0
SECTION
  2
OBJECTS
  0
DICTIONARY
  5
C
330
0
100
AcDbDictionary
281
     1
  3
ACAD_GROUP
350
D
  3
ACAD_LAYOUT
350
1A
  3
ACAD_MATERIAL
350
43
  3
ACAD_MLEADERSTYLE
350
6B
  3
ACAD_MLINESTYLE
350
17
  3
ACAD_PLOTSETTINGS
350
19
  3
ACAD_PLOTSTYLENAME
350
E
  3
ACAD_SCALELIST
350
47
  3
ACAD_TABLESTYLE
350
69
  3
ACAD_VISUALSTYLE
350
2A
  3
ACDB_RECOMPOSE_DATA
350
3E8
  3
AcDbVariableDictionary
350
366
  3
DWGPROPS
350
3AA
  0
DICTIONARY
  5
3AD
330
8
100
AcDbDictionary
280
     1
281
     1
  3
ACAD_XREC_ROUNDTRIP
360
3AE
  0
DICTIONARY
  5
3AB
330
363
100
AcDbDictionary
280
     1
281
     1
  3
ACAD_MTEXT_RT
360
3AC
  0
DICTIONARY
  5
D
102
{ACAD_REACTORS
330
C
102
}
330
C
100
AcDbDictionary
281
     1
  0
DICTIONARY
  5
1A
102
{ACAD_REACTORS
330
C
102
}
330
C
100
AcDbDictionary
281
     1
  3
Layout1
350
1E
  3
Model
350
22
  0
DICTIONARY
  5
43
102
{ACAD_REACTORS
330
C
102
}
330
C
100
AcDbDictionary
281
     1
  3
ByBlock
350
45
  3
ByLayer
350
44
  3
Global
350
46
  0
DICTIONARY
  5
6B
102
{ACAD_REACTORS
330
C
102
}
330
C
100
AcDbDictionary
281
     1
  3
Standard
350
6C
  0
DICTIONARY
  5
17
102
{ACAD_REACTORS
330
C
102
}
330
C
100
AcDbDictionary
281
     1
  3
Standard
350
18
  0
DICTIONARY
  5
19
102
{ACAD_REACTORS
330
C
102
}
330
C
100
AcDbDictionary
281
     1
  0
ACDBDICTIONARYWDFLT
  5
E
102
{ACAD_REACTORS
330
C
102
}
330
C
100
AcDbDictionary
281
     1
  3
Normal
350
F
100
AcDbDictionaryWithDefault
340
F
  0
DICTIONARY
  5
47
102
{ACAD_REACTORS
330
C
102
}
330
C
100
AcDbDictionary
281
     1
  3
A0
350
48
  3
A1
350
49
  3
A2
350
4A
  3
A3
350
4B
  3
A4
350
4C
  3
A5
350
4D
  3
A6
350
4E
  3
A7
350
4F
  3
A8
350
50
  3
A9
350
51
  3
B0
350
52
  3
B1
350
53
  3
B2
350
54
  3
B3
350
55
  3
B4
350
56
  3
B5
350
57
  3
B6
350
58
  3
B7
350
59
  3
B8
350
5A
  3
B9
350
5B
  3
C0
350
5C
  3
C1
350
5D
  3
C2
350
5E
  3
C3
350
5F
  3
C4
350
60
  3
C5
350
61
  3
C6
350
62
  3
C7
350
63
  3
C8
350
64
  3
C9
350
65
  3
D0
350
66
  3
D1
350
67
  3
D2
350
68
  0
DICTIONARY
  5
69
102
{ACAD_REACTORS
330
C
102
}
330
C
100
AcDbDictionary
281
     1
  3
Standard
350
6A
  0
DICTIONARY
  5
2A
102
{ACAD_REACTORS
330
C
102
}
330
C
100
AcDbDictionary
281
     1
  3
2dWireframe
350
2F
  3
Basic
350
32
  3
Brighten
350
36
  3
ColorChange
350
3A
  3
Conceptual
350
34
  3
Dim
350
35
  3
EdgeColorOff
350
3D
  3
Facepattern
350
39
  3
Flat
350
2B
  3
FlatWithEdges
350
2C
  3
Gouraud
350
2D
  3
GouraudWithEdges
350
2E
  3
Hidden
350
31
  3
JitterOff
350
3B
  3
Linepattern
350
38
  3
OverhangOff
350
3C
  3
Realistic
350
33
  3
Shaded
350
42
  3
Shaded with edges
350
41
  3
Shades of Gray
350
3E
  3
Sketchy
350
3F
  3
Thicken
350
37
  3
Wireframe
350
30
  3
X-Ray
350
40
  0
XRECORD
  5
3E8
102
{ACAD_REACTORS
330
C
102
}
330
C
100
AcDbXrecord
280
     1
 90
        1
330
363
  0
DICTIONARY
  5
366
102
{ACAD_REACTORS
330
C
102
}
330
C
100
AcDbDictionary
281
     1
  3
CANNOSCALE
350
367
  3
CMLEADERSTYLE
350
3A0
  3
CTABLESTYLE
350
39F
  3
DIMASSOC
350
3A8
  3
HIDETEXT
350
3A9
  3
MSLTSCALE
350
3AF
  3
PSOLHEIGHT
350
3A7
  3
PSOLWIDTH
350
3A6
  3
SECTIONTHICKNESSINC
350
3A3
  3
XCLIPFRAME
350
368
  0
XRECORD
  5
3AA
102
{ACAD_REACTORS
330
C
102
}
330
C
100
AcDbXrecord
280
     1
  1
DWGPROPS COOKIE
  2

  3

  4

  6

  7

  8
acae2
  9

300
=
301
=
302
=
303
=
304
=
305
=
306
=
307
=
308
=
309
=
 40
0.0
 41
2459381.410614456
 42
2460427.513420428
  1

 90
        0
  0
XRECORD
  5
3AE
102
{ACAD_REACTORS
330
3AD
102
}
330
3AD
100
AcDbXrecord
280
     1
102
VTR_0.000_0.000_1.000_1.000_VISUALSTYLE
340
2F
102
VTR_0.000_0.000_1.000_1.000_GRIDDISPLAY
 70
     3
102
VTR_0.000_0.000_1.000_1.000_GRIDMAJOR
 70
     5
102
VTR_0.000_0.000_1.000_1.000_DEFAULTLIGHTING
280
     1
102
VTR_0.000_0.000_1.000_1.000_DEFAULTLIGHTINGTYPE
 70
     1
102
VTR_0.000_0.000_1.000_1.000_BRIGHTNESS
141
0.0
102
VTR_0.000_0.000_1.000_1.000_CONTRAST
142
0.0
  0
XRECORD
  5
3AC
102
{ACAD_REACTORS
330
3AB
102
}
330
3AB
100
AcDbXrecord
280
     1
 40
129076.0
  1
{\fSolid Edge ANSI|b1||i0||c0|p34;\C7;\H6.5;\W1.;\pxsa0.9538461538;BENITO\P}{\fSolid Edge ANSI|b1||i0||c0|p34;\C7;\H6.5;\W1.;\pxse1.;–Urban\P}
  0
LAYOUT
  5
1E
102
{ACAD_REACTORS
330
1A
102
}
330
1A
100
AcDbPlotSettings
  1

  2
none_device
  4

  6

 40
0.0
 41
0.0
 42
0.0
 43
0.0
 44
0.0
 45
0.0
 46
0.0
 47
0.0
 48
0.0
 49
0.0
140
0.0
141
0.0
142
1.0
143
1.0
 70
   688
 72
     1
 73
     0
 74
     5
  7

 75
    16
147
1.0
148
0.0
149
0.0
100
AcDbLayout
  1
Layout1
 70
     1
 71
     1
 10
0.0
 20
0.0
 11
297.0
 21
210.0
 12
0.0
 22
0.0
 32
0.0
 14
0.0
 24
0.0
 34
0.0
 15
297.0
 25
210.0
 35
0.0
146
0.0
 13
0.0
 23
0.0
 33
0.0
 16
1.0
 26
0.0
 36
0.0
 17
0.0
 27
1.0
 37
0.0
 76
     0
330
1B
  0
LAYOUT
  5
22
102
{ACAD_REACTORS
330
1A
102
}
330
1A
100
AcDbPlotSettings
  1

  2
none_device
  4
Letter_(8.50_x_11.00_Inches)
  6

 40
6.35
 41
6.35
 42
6.35000508
 43
6.35000508
 44
215.9
 45
279.4
 46
0.0
 47
0.0
 48
0.0
 49
0.0
140
0.0
141
0.0
142
1.0
143
1.0
 70
  1712
 72
     1
 73
     0
 74
     0
  7

 75
     0
147
1.0
148
0.0
149
0.0
100
AcDbLayout
  1
Model
 70
     1
 71
     0
 10
0.0
 20
0.0
 11
297.0
 21
210.0
 12
0.0
 22
0.0
 32
0.0
 14
0.0
 24
0.0
 34
0.0
 15
297.0
 25
210.0
 35
0.0
146
0.0
 13
0.0
 23
0.0
 33
0.0
 16
1.0
 26
0.0
 36
0.0
 17
0.0
 27
1.0
 37
0.0
 76
     0
330
1F
331
29
  0
MATERIAL
  5
45
102
{ACAD_REACTORS
330
43
102
}
102
{ACAD_XDICTIONARY
360
3E2
102
}
330
43
100
AcDbMaterial
  1
ByBlock
  0
MATERIAL
  5
44
102
{ACAD_REACTORS
330
43
102
}
102
{ACAD_XDICTIONARY
360
3E0
102
}
330
43
100
AcDbMaterial
  1
ByLayer
  0
MATERIAL
  5
46
102
{ACAD_REACTORS
330
43
102
}
102
{ACAD_XDICTIONARY
360
3E4
102
}
330
43
100
AcDbMaterial
  1
Global
  0
MLEADERSTYLE
  5
6C
102
{ACAD_REACTORS
330
6B
102
}
102
{ACAD_XDICTIONARY
360
3E6
102
}
330
6B
100
AcDbMLeaderStyle
170
     2
171
     1
172
     0
 90
        2
 40
0.0
 41
0.0
173
     1
 91
-1056964608
340
14
 92
       -2
290
     1
 42
2.0
291
     1
 43
8.0
  3
Standard
341
0
 44
4.0
300

342
11
174
     1
178
     6
175
     1
176
     0
 93
-1056964608
 45
4.0
292
     0
297
     0
 46
4.0
343
0
 94
-1056964608
 47
1.0
 49
1.0
140
1.0
293
     1
141
0.0
294
     1
177
     0
142
1.0
295
     0
296
     0
143
3.75
1001
ACAD_MLEADERVER
1070
     2
  0
MLINESTYLE
  5
18
102
{ACAD_REACTORS
330
17
102
}
330
17
100
AcDbMlineStyle
  2
Standard
 70
     0
  3

 62
   256
 51
90.0
 52
90.0
 71
     2
 49
0.5
 62
   256
  6
BYLAYER
 49
-0.5
 62
   256
  6
BYLAYER
  0
ACDBPLACEHOLDER
  5
F
102
{ACAD_REACTORS
330
E
102
}
330
E
  0
SCALE
  5
48
102
{ACAD_REACTORS
330
47
102
}
330
47
100
AcDbScale
 70
     0
300
1:1
140
1.0
141
1.0
290
     1
  0
SCALE
  5
49
102
{ACAD_REACTORS
330
47
102
}
330
47
100
AcDbScale
 70
     0
300
1:2
140
1.0
141
2.0
290
     0
  0
SCALE
  5
4A
102
{ACAD_REACTORS
330
47
102
}
330
47
100
AcDbScale
 70
     0
300
1:4
140
1.0
141
4.0
290
     0
  0
SCALE
  5
4B
102
{ACAD_REACTORS
330
47
102
}
330
47
100
AcDbScale
 70
     0
300
1:5
140
1.0
141
5.0
290
     0
  0
SCALE
  5
4C
102
{ACAD_REACTORS
330
47
102
}
330
47
100
AcDbScale
 70
     0
300
1:8
140
1.0
141
8.0
290
     0
  0
SCALE
  5
4D
102
{ACAD_REACTORS
330
47
102
}
330
47
100
AcDbScale
 70
     0
300
1:10
140
1.0
141
10.0
290
     0
  0
SCALE
  5
4E
102
{ACAD_REACTORS
330
47
102
}
330
47
100
AcDbScale
 70
     0
300
1:16
140
1.0
141
16.0
290
     0
  0
SCALE
  5
4F
102
{ACAD_REACTORS
330
47
102
}
330
47
100
AcDbScale
 70
     0
300
1:20
140
1.0
141
20.0
290
     0
  0
SCALE
  5
50
102
{ACAD_REACTORS
330
47
102
}
330
47
100
AcDbScale
 70
     0
300
1:30
140
1.0
141
30.0
290
     0
  0
SCALE
  5
51
102
{ACAD_REACTORS
330
47
102
}
330
47
100
AcDbScale
 70
     0
300
1:40
140
1.0
141
40.0
290
     0
  0
SCALE
  5
52
102
{ACAD_REACTORS
330
47
102
}
330
47
100
AcDbScale
 70
     0
300
1:50
140
1.0
141
50.0
290
     0
  0
SCALE
  5
53
102
{ACAD_REACTORS
330
47
102
}
330
47
100
AcDbScale
 70
     0
300
1:100
140
1.0
141
100.0
290
     0
  0
SCALE
  5
54
102
{ACAD_REACTORS
330
47
102
}
330
47
100
AcDbScale
 70
     0
300
2:1
140
2.0
141
1.0
290
     0
  0
SCALE
  5
55
102
{ACAD_REACTORS
330
47
102
}
330
47
100
AcDbScale
 70
     0
300
4:1
140
4.0
141
1.0
290
     0
  0
SCALE
  5
56
102
{ACAD_REACTORS
330
47
102
}
330
47
100
AcDbScale
 70
     0
300
8:1
140
8.0
141
1.0
290
     0
  0
SCALE
  5
57
102
{ACAD_REACTORS
330
47
102
}
330
47
100
AcDbScale
 70
     0
300
10:1
140
10.0
141
1.0
290
     0
  0
SCALE
  5
58
102
{ACAD_REACTORS
330
47
102
}
330
47
100
AcDbScale
 70
     0
300
100:1
140
100.0
141
1.0
290
     0
  0
SCALE
  5
59
102
{ACAD_REACTORS
330
47
102
}
330
47
100
AcDbScale
 70
     0
300
1/128" = 1'-0"
140
0.0078125
141
12.0
290
     0
  0
SCALE
  5
5A
102
{ACAD_REACTORS
330
47
102
}
330
47
100
AcDbScale
 70
     0
300
1/64" = 1'-0"
140
0.015625
141
12.0
290
     0
  0
SCALE
  5
5B
102
{ACAD_REACTORS
330
47
102
}
330
47
100
AcDbScale
 70
     0
300
1/32" = 1'-0"
140
0.03125
141
12.0
290
     0
  0
SCALE
  5
5C
102
{ACAD_REACTORS
330
47
102
}
330
47
100
AcDbScale
 70
     0
300
1/16" = 1'-0"
140
0.0625
141
12.0
290
     0
  0
SCALE
  5
5D
102
{ACAD_REACTORS
330
47
102
}
330
47
100
AcDbScale
 70
     0
300
3/32" = 1'-0"
140
0.09375
141
12.0
290
     0
  0
SCALE
  5
5E
102
{ACAD_REACTORS
330
47
102
}
330
47
100
AcDbScale
 70
     0
300
1/8" = 1'-0"
140
0.125
141
12.0
290
     0
  0
SCALE
  5
5F
102
{ACAD_REACTORS
330
47
102
}
330
47
100
AcDbScale
 70
     0
300
3/16" = 1'-0"
140
0.1875
141
12.0
290
     0
  0
SCALE
  5
60
102
{ACAD_REACTORS
330
47
102
}
330
47
100
AcDbScale
 70
     0
300
1/4" = 1'-0"
140
0.25
141
12.0
290
     0
  0
SCALE
  5
61
102
{ACAD_REACTORS
330
47
102
}
330
47
100
AcDbScale
 70
     0
300
3/8" = 1'-0"
140
0.375
141
12.0
290
     0
  0
SCALE
  5
62
102
{ACAD_REACTORS
330
47
102
}
330
47
100
AcDbScale
 70
     0
300
1/2" = 1'-0"
140
0.5
141
12.0
290
     0
  0
SCALE
  5
63
102
{ACAD_REACTORS
330
47
102
}
330
47
100
AcDbScale
 70
     0
300
3/4" = 1'-0"
140
0.75
141
12.0
290
     0
  0
SCALE
  5
64
102
{ACAD_REACTORS
330
47
102
}
330
47
100
AcDbScale
 70
     0
300
1" = 1'-0"
140
1.0
141
12.0
290
     0
  0
SCALE
  5
65
102
{ACAD_REACTORS
330
47
102
}
330
47
100
AcDbScale
 70
     0
300
1-1/2" = 1'-0"
140
1.5
141
12.0
290
     0
  0
SCALE
  5
66
102
{ACAD_REACTORS
330
47
102
}
330
47
100
AcDbScale
 70
     0
300
3" = 1'-0"
140
3.0
141
12.0
290
     0
  0
SCALE
  5
67
102
{ACAD_REACTORS
330
47
102
}
330
47
100
AcDbScale
 70
     0
300
6" = 1'-0"
140
6.0
141
12.0
290
     0
  0
SCALE
  5
68
102
{ACAD_REACTORS
330
47
102
}
330
47
100
AcDbScale
 70
     0
300
1'-0" = 1'-0"
140
12.0
141
12.0
290
     0
  0
TABLESTYLE
  5
6A
102
{ACAD_REACTORS
330
69
102
}
330
69
100
AcDbTableStyle
  3
Standard
 70
     0
 71
     0
 40
0.06
 41
0.06
280
     0
281
     0
  7
Standard
140
4.5
170
     2
 62
     0
 63
   257
283
     0
274
    -2
284
     1
 64
     0
275
    -2
285
     1
 65
     0
276
    -2
286
     1
 66
     0
277
    -2
287
     1
 67
     0
278
    -2
288
     1
 68
     0
279
    -2
289
     1
 69
     0
  7
Standard
140
6.0
170
     5
 62
     0
 63
   257
283
     0
274
    -2
284
     1
 64
     0
275
    -2
285
     1
 65
     0
276
    -2
286
     1
 66
     0
277
    -2
287
     1
 67
     0
278
    -2
288
     1
 68
     0
279
    -2
289
     1
 69
     0
  7
Standard
140
4.5
170
     5
 62
     0
 63
   257
283
     0
274
    -2
284
     1
 64
     0
275
    -2
285
     1
 65
     0
276
    -2
286
     1
 66
     0
277
    -2
287
     1
 67
     0
278
    -2
288
     1
 68
     0
279
    -2
289
     1
 69
     0
  0
VISUALSTYLE
  5
2F
102
{ACAD_REACTORS
330
2A
102
}
102
{ACAD_XDICTIONARY
360
3B8
102
}
330
2A
100
AcDbVisualStyle
  2
2dWireframe
 70
     4
 71
     0
 72
     2
 73
     0
 90
        0
 40
0.6
 41
30.0
 62
     5
 63
     7
 74
     1
 91
        4
 64
     7
 65
   257
 75
     1
175
     1
 42
1.0
 92
        0
 66
   257
 43
1.0
 76
     1
 77
     6
 78
     2
 67
     7
 79
     5
170
     0
171
     0
290
     0
174
     0
 93
        1
 44
0.0
173
     0
291
     0
 45
0.0
1001
ACAD
1000
AcDbSavedByObjectVersion
1070
     0
  0
VISUALSTYLE
  5
32
102
{ACAD_REACTORS
330
2A
102
}
102
{ACAD_XDICTIONARY
360
3BE
102
}
330
2A
100
AcDbVisualStyle
  2
Basic
 70
     7
 71
     1
 72
     0
 73
     1
 90
        0
 40
0.6
 41
30.0
 62
     5
 63
     7
 74
     0
 91
        4
 64
     7
 65
   257
 75
     1
175
     1
 42
1.0
 92
        8
 66
     7
 43
1.0
 76
     1
 77
     6
 78
     2
 67
     7
 79
     5
170
     0
171
     0
290
     0
174
     0
 93
        1
 44
0.0
173
     0
291
     1
 45
0.0
1001
ACAD
1000
AcDbSavedByObjectVersion
1070
     0
  0
VISUALSTYLE
  5
36
102
{ACAD_REACTORS
330
2A
102
}
102
{ACAD_XDICTIONARY
360
3C6
102
}
330
2A
100
AcDbVisualStyle
  2
Brighten
 70
    12
 71
     2
 72
     2
 73
     0
 90
        0
 40
0.6
 41
30.0
 62
     5
 63
     7
 74
     1
 91
        4
 64
     7
 65
   257
 75
     1
175
     1
 42
1.0
 92
        8
 66
     7
 43
1.0
 76
     1
 77
     6
 78
     2
 67
     7
 79
     5
170
     0
171
     0
290
     0
174
     0
 93
        1
 44
50.0
173
     0
291
     1
 45
0.0
1001
ACAD
1000
AcDbSavedByObjectVersion
1070
     0
  0
VISUALSTYLE
  5
3A
102
{ACAD_REACTORS
330
2A
102
}
102
{ACAD_XDICTIONARY
360
3CE
102
}
330
2A
100
AcDbVisualStyle
  2
ColorChange
 70
    16
 71
     2
 72
     2
 73
     3
 90
        0
 40
0.6
 41
30.0
 62
     5
 63
     8
 74
     1
 91
        4
 64
     7
 65
   257
 75
     1
175
     1
 42
1.0
 92
        8
 66
     8
 43
1.0
 76
     1
 77
     6
 78
     2
 67
     7
 79
     5
170
     0
171
     0
290
     0
174
     0
 93
        1
 44
0.0
173
     0
291
     1
 45
0.0
1001
ACAD
1000
AcDbSavedByObjectVersion
1070
     0
  0
VISUALSTYLE
  5
34
102
{ACAD_REACTORS
330
2A
102
}
102
{ACAD_XDICTIONARY
360
3C2
102
}
330
2A
100
AcDbVisualStyle
  2
Conceptual
 70
     9
 71
     3
 72
     2
 73
     0
 90
        0
 40
0.6
 41
30.0
 62
     5
 63
     7
 74
     2
 91
        2
 64
     7
 65
   257
 75
     1
175
     1
 42
179.0
 92
        8
 66
     7
 43
1.0
 76
     1
 77
     6
 78
     2
 67
     7
 79
     3
170
     0
171
     0
290
     0
174
     0
 93
        1
 44
0.0
173
     0
291
     0
 45
0.0
1001
ACAD
1000
AcDbSavedByObjectVersion
1070
     0
  0
VISUALSTYLE
  5
35
102
{ACAD_REACTORS
330
2A
102
}
102
{ACAD_XDICTIONARY
360
3C4
102
}
330
2A
100
AcDbVisualStyle
  2
Dim
 70
    11
 71
     2
 72
     2
 73
     0
 90
        0
 40
0.6
 41
30.0
 62
     5
 63
     7
 74
     1
 91
        4
 64
     7
 65
   257
 75
     1
175
     1
 42
1.0
 92
        8
 66
     7
 43
1.0
 76
     1
 77
     6
 78
     2
 67
     7
 79
     5
170
     0
171
     0
290
     0
174
     0
 93
        1
 44
-50.0
173
     0
291
     1
 45
0.0
1001
ACAD
1000
AcDbSavedByObjectVersion
1070
     0
  0
VISUALSTYLE
  5
3D
102
{ACAD_REACTORS
330
2A
102
}
102
{ACAD_XDICTIONARY
360
3D4
102
}
330
2A
100
AcDbVisualStyle
  2
EdgeColorOff
 70
    22
 71
     2
 72
     2
 73
     0
 90
        0
 40
0.6
 41
30.0
 62
     5
 63
     7
 74
     1
 91
        4
 64
     7
 65
   257
 75
     1
175
     1
 42
1.0
 92
        8
 66
     7
 43
1.0
 76
     1
 77
     6
 78
     2
 67
     7
 79
     5
170
     0
171
     0
290
     0
174
     0
 93
        1
 44
0.0
173
     0
291
     1
 45
0.0
1001
ACAD
1000
AcDbSavedByObjectVersion
1070
     0
  0
VISUALSTYLE
  5
39
102
{ACAD_REACTORS
330
2A
102
}
102
{ACAD_XDICTIONARY
360
3CC
102
}
330
2A
100
AcDbVisualStyle
  2
Facepattern
 70
    15
 71
     2
 72
     2
 73
     0
 90
        0
 40
0.6
 41
30.0
 62
     5
 63
     7
 74
     1
 91
        4
 64
     7
 65
   257
 75
     1
175
     1
 42
1.0
 92
        8
 66
     7
 43
1.0
 76
     1
 77
     6
 78
     2
 67
     7
 79
     5
170
     0
171
     0
290
     0
174
     0
 93
        1
 44
0.0
173
     0
291
     1
 45
0.0
1001
ACAD
1000
AcDbSavedByObjectVersion
1070
     0
  0
VISUALSTYLE
  5
2B
102
{ACAD_REACTORS
330
2A
102
}
102
{ACAD_XDICTIONARY
360
3B0
102
}
330
2A
100
AcDbVisualStyle
  2
Flat
 70
     0
 71
     2
 72
     1
 73
     1
 90
        2
 40
0.6
 41
30.0
 62
     5
 63
     7
 74
     0
 91
        0
 64
     7
 65
   257
 75
     1
175
     1
 42
1.0
 92
        8
 66
     7
 43
1.0
 76
     1
 77
     6
 78
     2
 67
     7
 79
     5
170
     0
171
     0
290
     0
174
     0
 93
       13
 44
0.0
173
     0
291
     1
 45
0.0
1001
ACAD
1000
AcDbSavedByObjectVersion
1070
     0
  0
VISUALSTYLE
  5
2C
102
{ACAD_REACTORS
330
2A
102
}
102
{ACAD_XDICTIONARY
360
3B2
102
}
330
2A
100
AcDbVisualStyle
  2
FlatWithEdges
 70
     1
 71
     2
 72
     1
 73
     1
 90
        2
 40
0.6
 41
30.0
 62
     5
 63
     7
 74
     1
 91
        0
 64
     7
 65
   257
 75
     1
175
     1
 42
1.0
 92
        0
 66
   257
 43
1.0
 76
     1
 77
     6
 78
     2
 67
     7
 79
     5
170
     0
171
     0
290
     0
174
     0
 93
       13
 44
0.0
173
     0
291
     1
 45
0.0
1001
ACAD
1000
AcDbSavedByObjectVersion
1070
     0
  0
VISUALSTYLE
  5
2D
102
{ACAD_REACTORS
330
2A
102
}
102
{ACAD_XDICTIONARY
360
3B4
102
}
330
2A
100
AcDbVisualStyle
  2
Gouraud
 70
     2
 71
     2
 72
     2
 73
     1
 90
        2
 40
0.6
 41
30.0
 62
     5
 63
     7
 74
     0
 91
        0
 64
     7
 65
   257
 75
     1
175
     1
 42
1.0
 92
        0
 66
     7
 43
1.0
 76
     1
 77
     6
 78
     2
 67
     7
 79
     5
170
     0
171
     0
290
     0
174
     0
 93
       13
 44
0.0
173
     0
291
     1
 45
0.0
1001
ACAD
1000
AcDbSavedByObjectVersion
1070
     0
  0
VISUALSTYLE
  5
2E
102
{ACAD_REACTORS
330
2A
102
}
102
{ACAD_XDICTIONARY
360
3B6
102
}
330
2A
100
AcDbVisualStyle
  2
GouraudWithEdges
 70
     3
 71
     2
 72
     2
 73
     1
 90
        2
 40
0.6
 41
30.0
 62
     5
 63
     7
 74
     1
 91
        0
 64
     7
 65
   257
 75
     1
175
     1
 42
1.0
 92
        0
 66
   257
 43
1.0
 76
     1
 77
     6
 78
     2
 67
     7
 79
     5
170
     0
171
     0
290
     0
174
     0
 93
       13
 44
0.0
173
     0
291
     1
 45
0.0
1001
ACAD
1000
AcDbSavedByObjectVersion
1070
     0
  0
VISUALSTYLE
  5
31
102
{ACAD_REACTORS
330
2A
102
}
102
{ACAD_XDICTIONARY
360
3BC
102
}
330
2A
100
AcDbVisualStyle
  2
Hidden
 70
     6
 71
     1
 72
     2
 73
     2
 90
        0
 40
0.6
 41
30.0
 62
     5
 63
     7
 74
     2
 91
        2
 64
     7
 65
   257
 75
     2
175
     1
 42
40.0
 92
        0
 66
   257
 43
1.0
 76
     1
 77
     6
 78
     2
 67
     7
 79
     3
170
     0
171
     0
290
     0
174
     0
 93
        1
 44
0.0
173
     0
291
     0
 45
0.0
1001
ACAD
1000
AcDbSavedByObjectVersion
1070
     0
  0
VISUALSTYLE
  5
3B
102
{ACAD_REACTORS
330
2A
102
}
102
{ACAD_XDICTIONARY
360
3D0
102
}
330
2A
100
AcDbVisualStyle
  2
JitterOff
 70
    20
 71
     2
 72
     2
 73
     0
 90
        0
 40
0.6
 41
30.0
 62
     5
 63
     7
 74
     1
 91
        4
 64
     7
 65
   257
 75
     1
175
     1
 42
1.0
 92
       10
 66
     7
 43
1.0
 76
     1
 77
     6
 78
     2
 67
     7
 79
     5
170
     0
171
     0
290
     0
174
     0
 93
        1
 44
0.0
173
     0
291
     1
 45
0.0
1001
ACAD
1000
AcDbSavedByObjectVersion
1070
     0
  0
VISUALSTYLE
  5
38
102
{ACAD_REACTORS
330
2A
102
}
102
{ACAD_XDICTIONARY
360
3CA
102
}
330
2A
100
AcDbVisualStyle
  2
Linepattern
 70
    14
 71
     2
 72
     2
 73
     0
 90
        0
 40
0.6
 41
30.0
 62
     5
 63
     7
 74
     1
 91
        4
 64
     7
 65
   257
 75
     7
175
     7
 42
1.0
 92
        8
 66
     7
 43
1.0
 76
     1
 77
     6
 78
     2
 67
     7
 79
     5
170
     0
171
     0
290
     0
174
     0
 93
        1
 44
0.0
173
     0
291
     1
 45
0.0
1001
ACAD
1000
AcDbSavedByObjectVersion
1070
     0
  0
VISUALSTYLE
  5
3C
102
{ACAD_REACTORS
330
2A
102
}
102
{ACAD_XDICTIONARY
360
3D2
102
}
330
2A
100
AcDbVisualStyle
  2
OverhangOff
 70
    21
 71
     2
 72
     2
 73
     0
 90
        0
 40
0.6
 41
30.0
 62
     5
 63
     7
 74
     1
 91
        4
 64
     7
 65
   257
 75
     1
175
     1
 42
1.0
 92
        9
 66
     7
 43
1.0
 76
     1
 77
     6
 78
     2
 67
     7
 79
     5
170
     0
171
     0
290
     0
174
     0
 93
        1
 44
0.0
173
     0
291
     1
 45
0.0
1001
ACAD
1000
AcDbSavedByObjectVersion
1070
     0
  0
VISUALSTYLE
  5
33
102
{ACAD_REACTORS
330
2A
102
}
102
{ACAD_XDICTIONARY
360
3C0
102
}
330
2A
100
AcDbVisualStyle
  2
Realistic
 70
     8
 71
     2
 72
     3
 73
     0
 90
        2
 40
0.6
 41
30.0
 62
     5
 63
     7
 74
     0
 91
        0
 64
     7
 65
   257
 75
     1
175
     1
 42
1.0
 92
        8
 66
   257
 43
1.0
 76
     1
 77
     6
 78
     2
 67
     7
 79
     3
170
     0
171
     0
290
     0
174
     0
 93
       13
 44
0.0
173
     0
291
     0
 45
0.0
1001
ACAD
1000
AcDbSavedByObjectVersion
1070
     0
  0
VISUALSTYLE
  5
42
102
{ACAD_REACTORS
330
2A
102
}
102
{ACAD_XDICTIONARY
360
3DE
102
}
330
2A
100
AcDbVisualStyle
  2
Shaded
 70
    27
 71
     2
 72
     2
 73
     1
 90
        2
 40
0.6
 41
30.0
 62
     5
 63
     7
 74
     0
 91
        4
 64
     7
 65
   257
 75
     1
175
     1
 42
1.0
 92
        8
 66
   257
 43
1.0
 76
     1
 77
     6
 78
     2
 67
     8
 79
     3
170
     0
171
     0
290
     0
174
     0
 93
        5
 44
0.0
173
     0
291
     0
 45
0.0
1001
ACAD
1000
AcDbSavedByObjectVersion
1070
     0
  0
VISUALSTYLE
  5
41
102
{ACAD_REACTORS
330
2A
102
}
102
{ACAD_XDICTIONARY
360
3DC
102
}
330
2A
100
AcDbVisualStyle
  2
Shaded with edges
 70
    26
 71
     2
 72
     2
 73
     1
 90
        2
 40
0.6
 41
30.0
 62
     5
 63
     7
 74
     1
 91
       10
 64
     7
 65
   257
 75
     2
175
     1
 42
1.0
 92
        8
 66
   257
 43
1.0
 76
     1
 77
     6
 78
     2
 67
     7
 79
     3
170
     0
171
     0
290
     0
174
     0
 93
        5
 44
0.0
173
     0
291
     0
 45
0.0
1001
ACAD
1000
AcDbSavedByObjectVersion
1070
     0
  0
VISUALSTYLE
  5
3E
102
{ACAD_REACTORS
330
2A
102
}
102
{ACAD_XDICTIONARY
360
3D6
102
}
330
2A
100
AcDbVisualStyle
  2
Shades of Gray
 70
    23
 71
     2
 72
     2
 73
     3
 90
        0
 40
0.6
 41
30.0
 62
     5
 63
     7
 74
     2
 91
        2
 64
     7
 65
     7
 75
     1
175
     1
 42
40.0
 92
        8
 66
     7
 43
1.0
 76
     1
 77
     6
 78
     2
 67
     7
 79
     3
170
     0
171
     0
290
     0
174
     0
 93
        1
 44
0.0
173
     0
291
     0
 45
0.0
1001
ACAD
1000
AcDbSavedByObjectVersion
1070
     0
  0
VISUALSTYLE
  5
3F
102
{ACAD_REACTORS
330
2A
102
}
102
{ACAD_XDICTIONARY
360
3D8
102
}
330
2A
100
AcDbVisualStyle
  2
Sketchy
 70
    24
 71
     1
 72
     2
 73
     2
 90
        0
 40
0.6
 41
30.0
 62
     5
 63
     7
 74
     2
 91
        2
 64
     7
 65
     7
 75
     1
175
     1
 42
40.0
 92
       11
 66
     7
 43
1.0
 76
     1
 77
     6
 78
     2
 67
     7
 79
     6
170
     0
171
     0
290
     0
174
     0
 93
        1
 44
0.0
173
     0
291
     0
 45
0.0
1001
ACAD
1000
AcDbSavedByObjectVersion
1070
     0
  0
VISUALSTYLE
  5
37
102
{ACAD_REACTORS
330
2A
102
}
102
{ACAD_XDICTIONARY
360
3C8
102
}
330
2A
100
AcDbVisualStyle
  2
Thicken
 70
    13
 71
     2
 72
     2
 73
     0
 90
        0
 40
0.6
 41
30.0
 62
     5
 63
     7
 74
     1
 91
        4
 64
     7
 65
   257
 75
     1
175
     1
 42
1.0
 92
       12
 66
     7
 43
1.0
 76
     1
 77
     6
 78
     2
 67
     7
 79
     5
170
     0
171
     0
290
     0
174
     0
 93
        1
 44
0.0
173
     0
291
     1
 45
0.0
1001
ACAD
1000
AcDbSavedByObjectVersion
1070
     0
  0
VISUALSTYLE
  5
30
102
{ACAD_REACTORS
330
2A
102
}
102
{ACAD_XDICTIONARY
360
3BA
102
}
330
2A
100
AcDbVisualStyle
  2
Wireframe
 70
     5
 71
     0
 72
     2
 73
     0
 90
        0
 40
0.6
 41
30.0
 62
     5
 63
     7
 74
     1
 91
        4
 64
     7
 65
   257
 75
     1
175
     1
 42
1.0
 92
        0
 66
   257
 43
1.0
 76
     1
 77
     6
 78
     2
 67
     7
 79
     3
170
     0
171
     0
290
     0
174
     0
 93
        1
 44
0.0
173
     0
291
     0
 45
0.0
1001
ACAD
1000
AcDbSavedByObjectVersion
1070
     0
  0
VISUALSTYLE
  5
40
102
{ACAD_REACTORS
330
2A
102
}
102
{ACAD_XDICTIONARY
360
3DA
102
}
330
2A
100
AcDbVisualStyle
  2
X-Ray
 70
    25
 71
     2
 72
     2
 73
     1
 90
        1
 40
0.5
 41
30.0
 62
     5
 63
     7
 74
     1
 91
        0
 64
     7
 65
   257
 75
     1
175
     1
 42
1.0
 92
        8
 66
     7
 43
1.0
 76
     1
 77
     6
 78
     2
 67
     7
 79
     3
170
     0
171
     0
290
     0
174
     0
 93
       13
 44
0.0
173
     0
291
     0
 45
0.0
1001
ACAD
1000
AcDbSavedByObjectVersion
1070
     0
  0
DICTIONARYVAR
  5
367
102
{ACAD_REACTORS
330
366
102
}
330
366
100
DictionaryVariables
280
     0
  1
1:1
  0
DICTIONARYVAR
  5
3A0
102
{ACAD_REACTORS
330
366
102
}
330
366
100
DictionaryVariables
280
     0
  1
Standard
  0
DICTIONARYVAR
  5
39F
102
{ACAD_REACTORS
330
366
102
}
330
366
100
DictionaryVariables
280
     0
  1
Standard
  0
DICTIONARYVAR
  5
3A8
102
{ACAD_REACTORS
330
366
102
}
330
366
100
DictionaryVariables
280
     0
  1
2
  0
DICTIONARYVAR
  5
3A9
102
{ACAD_REACTORS
330
366
102
}
330
366
100
DictionaryVariables
280
     0
  1
1
  0
DICTIONARYVAR
  5
3AF
102
{ACAD_REACTORS
330
366
102
}
330
366
100
DictionaryVariables
280
     0
  1
1
  0
DICTIONARYVAR
  5
3A7
102
{ACAD_REACTORS
330
366
102
}
330
366
100
DictionaryVariables
280
     0
  1
80.000000
  0
DICTIONARYVAR
  5
3A6
102
{ACAD_REACTORS
330
366
102
}
330
366
100
DictionaryVariables
280
     0
  1
5.000000
  0
DICTIONARYVAR
  5
3A3
102
{ACAD_REACTORS
330
366
102
}
330
366
100
DictionaryVariables
280
     0
  1
6.000000
  0
DICTIONARYVAR
  5
368
102
{ACAD_REACTORS
330
366
102
}
330
366
100
DictionaryVariables
280
     0
  1
2
  0
DICTIONARY
  5
3E2
330
45
100
AcDbDictionary
280
     1
281
     1
  3
ACAD_XREC_ROUNDTRIP
360
3E3
  0
DICTIONARY
  5
3E0
330
44
100
AcDbDictionary
280
     1
281
     1
  3
ACAD_XREC_ROUNDTRIP
360
3E1
  0
DICTIONARY
  5
3E4
330
46
100
AcDbDictionary
280
     1
281
     1
  3
ACAD_XREC_ROUNDTRIP
360
3E5
  0
DICTIONARY
  5
3E6
330
6C
100
AcDbDictionary
280
     1
281
     1
  3
ACAD_XREC_ROUNDTRIP
360
3E7
  0
DICTIONARY
  5
3B8
330
2F
100
AcDbDictionary
280
     1
281
     1
  3
ACAD_XREC_ROUNDTRIP
360
3B9
  0
DICTIONARY
  5
3BE
330
32
100
AcDbDictionary
280
     1
281
     1
  3
ACAD_XREC_ROUNDTRIP
360
3BF
  0
DICTIONARY
  5
3C6
330
36
100
AcDbDictionary
280
     1
281
     1
  3
ACAD_XREC_ROUNDTRIP
360
3C7
  0
DICTIONARY
  5
3CE
330
3A
100
AcDbDictionary
280
     1
281
     1
  3
ACAD_XREC_ROUNDTRIP
360
3CF
  0
DICTIONARY
  5
3C2
330
34
100
AcDbDictionary
280
     1
281
     1
  3
ACAD_XREC_ROUNDTRIP
360
3C3
  0
DICTIONARY
  5
3C4
330
35
100
AcDbDictionary
280
     1
281
     1
  3
ACAD_XREC_ROUNDTRIP
360
3C5
  0
DICTIONARY
  5
3D4
330
3D
100
AcDbDictionary
280
     1
281
     1
  3
ACAD_XREC_ROUNDTRIP
360
3D5
  0
DICTIONARY
  5
3CC
330
39
100
AcDbDictionary
280
     1
281
     1
  3
ACAD_XREC_ROUNDTRIP
360
3CD
  0
DICTIONARY
  5
3B0
330
2B
100
AcDbDictionary
280
     1
281
     1
  3
ACAD_XREC_ROUNDTRIP
360
3B1
  0
DICTIONARY
  5
3B2
330
2C
100
AcDbDictionary
280
     1
281
     1
  3
ACAD_XREC_ROUNDTRIP
360
3B3
  0
DICTIONARY
  5
3B4
330
2D
100
AcDbDictionary
280
     1
281
     1
  3
ACAD_XREC_ROUNDTRIP
360
3B5
  0
DICTIONARY
  5
3B6
330
2E
100
AcDbDictionary
280
     1
281
     1
  3
ACAD_XREC_ROUNDTRIP
360
3B7
  0
DICTIONARY
  5
3BC
330
31
100
AcDbDictionary
280
     1
281
     1
  3
ACAD_XREC_ROUNDTRIP
360
3BD
  0
DICTIONARY
  5
3D0
330
3B
100
AcDbDictionary
280
     1
281
     1
  3
ACAD_XREC_ROUNDTRIP
360
3D1
  0
DICTIONARY
  5
3CA
330
38
100
AcDbDictionary
280
     1
281
     1
  3
ACAD_XREC_ROUNDTRIP
360
3CB
  0
DICTIONARY
  5
3D2
330
3C
100
AcDbDictionary
280
     1
281
     1
  3
ACAD_XREC_ROUNDTRIP
360
3D3
  0
DICTIONARY
  5
3C0
330
33
100
AcDbDictionary
280
     1
281
     1
  3
ACAD_XREC_ROUNDTRIP
360
3C1
  0
DICTIONARY
  5
3DE
330
42
100
AcDbDictionary
280
     1
281
     1
  3
ACAD_XREC_ROUNDTRIP
360
3DF
  0
DICTIONARY
  5
3DC
330
41
100
AcDbDictionary
280
     1
281
     1
  3
ACAD_XREC_ROUNDTRIP
360
3DD
  0
DICTIONARY
  5
3D6
330
3E
100
AcDbDictionary
280
     1
281
     1
  3
ACAD_XREC_ROUNDTRIP
360
3D7
  0
DICTIONARY
  5
3D8
330
3F
100
AcDbDictionary
280
     1
281
     1
  3
ACAD_XREC_ROUNDTRIP
360
3D9
  0
DICTIONARY
  5
3C8
330
37
100
AcDbDictionary
280
     1
281
     1
  3
ACAD_XREC_ROUNDTRIP
360
3C9
  0
DICTIONARY
  5
3BA
330
30
100
AcDbDictionary
280
     1
281
     1
  3
ACAD_XREC_ROUNDTRIP
360
3BB
  0
DICTIONARY
  5
3DA
330
40
100
AcDbDictionary
280
     1
281
     1
  3
ACAD_XREC_ROUNDTRIP
360
3DB
  0
XRECORD
  5
3E3
102
{ACAD_REACTORS
330
3E2
102
}
330
3E2
100
AcDbXrecord
280
     1
102
MATERIAL
148
0.0
149
0.0
149
0.0
 93
        0
 94
      127
282
     0
 72
     1
 77
     1
171
     1
175
     1
179
     1
273
     0
  0
XRECORD
  5
3E1
102
{ACAD_REACTORS
330
3E0
102
}
330
3E0
100
AcDbXrecord
280
     1
102
MATERIAL
148
0.0
149
0.0
149
0.0
 93
        0
 94
      127
282
     0
 72
     1
 77
     1
171
     1
175
     1
179
     1
273
     0
  0
XRECORD
  5
3E5
102
{ACAD_REACTORS
330
3E4
102
}
330
3E4
100
AcDbXrecord
280
     1
102
MATERIAL
148
0.0
149
0.0
149
0.0
 93
        0
 94
      127
282
     0
 72
     1
 77
     1
171
     1
175
     1
179
     1
273
     0
  0
XRECORD
  5
3E7
102
{ACAD_REACTORS
330
3E6
102
}
330
3E6
100
AcDbXrecord
280
     1
102
ACAD_ROUNDTRIP_2010_MLEADER_STYLE
  0
XRECORD
  5
3B9
102
{ACAD_REACTORS
330
3B8
102
}
330
3B8
100
AcDbXrecord
280
     1
102
RTVSPropertyOp0
 70
     1
102
RTVSPropertyOp1
 70
     1
102
RTVSPropertyOp2
 70
     1
102
RTVSPropertyOp3
 70
     1
102
RTVSPropertyOp4
 70
     1
102
RTVSPropertyOp5
 70
     1
102
RTVSPropertyOp6
 70
     1
102
RTVSPropertyOp7
 70
     1
102
RTVSPropertyOp8
 70
     1
102
RTVSPropertyOp9
 70
     1
102
RTVSPropertyOp10
 70
     1
102
RTVSPropertyOp11
 70
     1
102
RTVSPropertyOp12
 70
     1
102
RTVSPropertyOp13
 70
     1
102
RTVSPropertyOp14
 70
     1
102
RTVSPropertyOp15
 70
     1
102
RTVSPropertyOp16
 70
     1
102
RTVSPropertyOp17
 70
     1
102
RTVSPropertyOp18
 70
     1
102
RTVSPropertyOp19
 70
     1
102
RTVSPropertyOp20
 70
     1
102
RTVSPropertyOp21
 70
     1
102
RTVSPropertyOp22
 70
     1
102
RTVSPropertyOp23
 70
     1
102
RTVSPropertyOp24
 70
     1
102
RTVSPropertyOp25
 70
     1
102
RTVSPropertyOp26
 70
     1
102
RTVSPropertyOp27
 70
     1
102
RTVSPropertyOp28
 70
     1
102
RTVSPropertyOp29
 70
     1
102
RTVSPropertyOp30
 70
     1
102
RTVSPropertyOp31
 70
     1
102
RTVSPropertyOp32
 70
     1
102
RTVSPropertyOp33
 70
     1
102
RTVSPropertyOp34
 70
     1
102
RTVSPropertyOp35
 70
     1
102
RTVSPropertyOp36
 70
     1
102
RTVSPropertyOp37
 70
     1
102
RTVSPropertyOp38
 70
     1
102
RTVSPropertyOp39
 70
     1
102
RTVSPropertyOp40
 70
     1
102
RTVSPropertyOp41
 70
     1
102
RTVSPropertyOp42
 70
     1
102
RTVSPropertyOp43
 70
     1
102
RTVSPropertyOp44
 70
     1
102
RTVSPropertyOp45
 70
     1
102
RTVSPropertyOp46
 70
     1
102
RTVSPropertyOp47
 70
     1
102
RTVSPropertyOp48
 70
     1
102
RTVSPropertyOp49
 70
     1
102
RTVSPropertyOp50
 70
     1
102
RTVSPropertyOp51
 70
     0
102
RTVSPropertyOp52
 70
     0
102
RTVSPropertyOp53
 70
     1
102
RTVSPropertyOp54
 70
     1
102
RTVSPropertyOp55
 70
     1
102
RTVSPropertyOp56
 70
     1
102
RTVSPropertyOp57
 70
     1
102
RTVSPost2010Prop28
280
     1
102
RTVSPost2010PropOp28
 70
     1
102
RTVSPost2010Prop29
280
     1
102
RTVSPost2010PropOp29
 70
     1
102
RTVSPost2010Prop30
280
     0
102
RTVSPost2010PropOp30
 70
     1
102
RTVSPost2010Prop31
280
     0
102
RTVSPost2010PropOp31
 70
     1
102
RTVSPost2010Prop32
280
     0
102
RTVSPost2010PropOp32
 70
     1
102
RTVSPost2010Prop33
280
     0
102
RTVSPost2010PropOp33
 70
     1
102
RTVSPost2010Prop34
280
     0
102
RTVSPost2010PropOp34
 70
     1
102
RTVSPost2010Prop35
280
     0
102
RTVSPost2010PropOp35
 70
     1
102
RTVSPost2010Prop36
280
     0
102
RTVSPost2010PropOp36
 70
     1
102
RTVSPost2010Prop37
 90
       50
102
RTVSPost2010PropOp37
 70
     1
102
RTVSPost2010Prop38
140
0.0
102
RTVSPost2010PropOp38
 70
     1
102
RTVSPost2010Prop39
140
1.0
102
RTVSPost2010PropOp39
 70
     1
102
RTVSPost2010Prop40
 90
        0
102
RTVSPost2010PropOp40
 70
     1
102
RTVSPost2010Prop41ColorIndex
 90
       18
102
RTVSPost2010Prop41ColorRGB
 90
        0
102
RTVSPost2010PropOp41
 70
     1
102
RTVSPost2010Prop42
 90
       50
102
RTVSPost2010PropOp42
 70
     1
102
RTVSPost2010Prop43
 90
        3
102
RTVSPost2010PropOp43
 70
     1
102
RTVSPost2010Prop44ColorIndex
 90
        5
102
RTVSPost2010Prop44ColorRGB
 90
      255
102
RTVSPost2010PropOp44
 70
     1
102
RTVSPost2010Prop45
280
     0
102
RTVSPost2010PropOp45
 70
     1
102
RTVSPost2010Prop46
 90
       50
102
RTVSPost2010PropOp46
 70
     1
102
RTVSPost2010Prop47
 90
       50
102
RTVSPost2010PropOp47
 70
     1
102
RTVSPost2010Prop48
 90
       50
102
RTVSPost2010PropOp48
 70
     1
102
RTVSPost2010Prop49
280
     0
102
RTVSPost2010PropOp49
 70
     1
102
RTVSPost2010Prop50
 90
       50
102
RTVSPost2010PropOp50
 70
     1
102
RTVSPost2010Prop51ColorIndex
 90
      256
102
RTVSPost2010Prop51ColorRGB
 90
-16777216
102
RTVSPost2010PropOp51
 70
     0
102
RTVSPost2010Prop52
140
1.0
102
RTVSPost2010PropOp52
 70
     0
102
RTVSPost2010Prop53
 90
        2
102
RTVSPost2010PropOp53
 70
     1
102
RTVSPost2010Prop54
  1
strokes_ogs.tif
102
RTVSPost2010PropOp54
 70
     1
102
RTVSPost2010Prop55
280
     0
102
RTVSPost2010PropOp55
 70
     1
102
RTVSPost2010Prop56
140
1.0
102
RTVSPost2010PropOp56
 70
     1
102
RTVSPost2010Prop57
140
1.0
102
RTVSPost2010PropOp57
 70
     1
  0
XRECORD
  5
3BF
102
{ACAD_REACTORS
330
3BE
102
}
330
3BE
100
AcDbXrecord
280
     1
102
RTVSPropertyOp0
 70
     1
102
RTVSPropertyOp1
 70
     1
102
RTVSPropertyOp2
 70
     1
102
RTVSPropertyOp3
 70
     1
102
RTVSPropertyOp4
 70
     1
102
RTVSPropertyOp5
 70
     1
102
RTVSPropertyOp6
 70
     1
102
RTVSPropertyOp7
 70
     1
102
RTVSPropertyOp8
 70
     1
102
RTVSPropertyOp9
 70
     1
102
RTVSPropertyOp10
 70
     1
102
RTVSPropertyOp11
 70
     1
102
RTVSPropertyOp12
 70
     1
102
RTVSPropertyOp13
 70
     1
102
RTVSPropertyOp14
 70
     1
102
RTVSPropertyOp15
 70
     1
102
RTVSPropertyOp16
 70
     1
102
RTVSPropertyOp17
 70
     1
102
RTVSPropertyOp18
 70
     1
102
RTVSPropertyOp19
 70
     1
102
RTVSPropertyOp20
 70
     1
102
RTVSPropertyOp21
 70
     1
102
RTVSPropertyOp22
 70
     1
102
RTVSPropertyOp23
 70
     1
102
RTVSPropertyOp24
 70
     1
102
RTVSPropertyOp25
 70
     1
102
RTVSPropertyOp26
 70
     1
102
RTVSPropertyOp27
 70
     1
102
RTVSPropertyOp28
 70
     1
102
RTVSPropertyOp29
 70
     1
102
RTVSPropertyOp30
 70
     1
102
RTVSPropertyOp31
 70
     1
102
RTVSPropertyOp32
 70
     1
102
RTVSPropertyOp33
 70
     1
102
RTVSPropertyOp34
 70
     1
102
RTVSPropertyOp35
 70
     1
102
RTVSPropertyOp36
 70
     1
102
RTVSPropertyOp37
 70
     1
102
RTVSPropertyOp38
 70
     1
102
RTVSPropertyOp39
 70
     1
102
RTVSPropertyOp40
 70
     1
102
RTVSPropertyOp41
 70
     1
102
RTVSPropertyOp42
 70
     1
102
RTVSPropertyOp43
 70
     1
102
RTVSPropertyOp44
 70
     1
102
RTVSPropertyOp45
 70
     1
102
RTVSPropertyOp46
 70
     1
102
RTVSPropertyOp47
 70
     1
102
RTVSPropertyOp48
 70
     1
102
RTVSPropertyOp49
 70
     1
102
RTVSPropertyOp50
 70
     1
102
RTVSPropertyOp51
 70
     0
102
RTVSPropertyOp52
 70
     0
102
RTVSPropertyOp53
 70
     1
102
RTVSPropertyOp54
 70
     1
102
RTVSPropertyOp55
 70
     1
102
RTVSPropertyOp56
 70
     1
102
RTVSPropertyOp57
 70
     1
102
RTVSPost2010Prop28
280
     0
102
RTVSPost2010PropOp28
 70
     1
102
RTVSPost2010Prop29
280
     1
102
RTVSPost2010PropOp29
 70
     1
102
RTVSPost2010Prop30
280
     1
102
RTVSPost2010PropOp30
 70
     1
102
RTVSPost2010Prop31
280
     0
102
RTVSPost2010PropOp31
 70
     1
102
RTVSPost2010Prop32
280
     0
102
RTVSPost2010PropOp32
 70
     1
102
RTVSPost2010Prop33
280
     0
102
RTVSPost2010PropOp33
 70
     1
102
RTVSPost2010Prop34
280
     0
102
RTVSPost2010PropOp34
 70
     1
102
RTVSPost2010Prop35
280
     0
102
RTVSPost2010PropOp35
 70
     1
102
RTVSPost2010Prop36
280
     0
102
RTVSPost2010PropOp36
 70
     1
102
RTVSPost2010Prop37
 90
       50
102
RTVSPost2010PropOp37
 70
     1
102
RTVSPost2010Prop38
140
0.0
102
RTVSPost2010PropOp38
 70
     1
102
RTVSPost2010Prop39
140
1.0
102
RTVSPost2010PropOp39
 70
     1
102
RTVSPost2010Prop40
 90
        0
102
RTVSPost2010PropOp40
 70
     1
102
RTVSPost2010Prop41ColorIndex
 90
       18
102
RTVSPost2010Prop41ColorRGB
 90
        0
102
RTVSPost2010PropOp41
 70
     1
102
RTVSPost2010Prop42
 90
       50
102
RTVSPost2010PropOp42
 70
     1
102
RTVSPost2010Prop43
 90
        3
102
RTVSPost2010PropOp43
 70
     1
102
RTVSPost2010Prop44ColorIndex
 90
        5
102
RTVSPost2010Prop44ColorRGB
 90
      255
102
RTVSPost2010PropOp44
 70
     1
102
RTVSPost2010Prop45
280
     0
102
RTVSPost2010PropOp45
 70
     1
102
RTVSPost2010Prop46
 90
       50
102
RTVSPost2010PropOp46
 70
     1
102
RTVSPost2010Prop47
 90
       50
102
RTVSPost2010PropOp47
 70
     1
102
RTVSPost2010Prop48
 90
       50
102
RTVSPost2010PropOp48
 70
     1
102
RTVSPost2010Prop49
280
     0
102
RTVSPost2010PropOp49
 70
     1
102
RTVSPost2010Prop50
 90
       50
102
RTVSPost2010PropOp50
 70
     1
102
RTVSPost2010Prop51ColorIndex
 90
      256
102
RTVSPost2010Prop51ColorRGB
 90
-16777216
102
RTVSPost2010PropOp51
 70
     0
102
RTVSPost2010Prop52
140
1.0
102
RTVSPost2010PropOp52
 70
     0
102
RTVSPost2010Prop53
 90
        2
102
RTVSPost2010PropOp53
 70
     1
102
RTVSPost2010Prop54
  1
strokes_ogs.tif
102
RTVSPost2010PropOp54
 70
     1
102
RTVSPost2010Prop55
280
     0
102
RTVSPost2010PropOp55
 70
     1
102
RTVSPost2010Prop56
140
1.0
102
RTVSPost2010PropOp56
 70
     1
102
RTVSPost2010Prop57
140
1.0
102
RTVSPost2010PropOp57
 70
     1
  0
XRECORD
  5
3C7
102
{ACAD_REACTORS
330
3C6
102
}
330
3C6
100
AcDbXrecord
280
     1
102
RTVSPropertyOp0
 70
     1
102
RTVSPropertyOp1
 70
     1
102
RTVSPropertyOp2
 70
     1
102
RTVSPropertyOp3
 70
     1
102
RTVSPropertyOp4
 70
     1
102
RTVSPropertyOp5
 70
     1
102
RTVSPropertyOp6
 70
     1
102
RTVSPropertyOp7
 70
     1
102
RTVSPropertyOp8
 70
     1
102
RTVSPropertyOp9
 70
     1
102
RTVSPropertyOp10
 70
     1
102
RTVSPropertyOp11
 70
     1
102
RTVSPropertyOp12
 70
     1
102
RTVSPropertyOp13
 70
     1
102
RTVSPropertyOp14
 70
     1
102
RTVSPropertyOp15
 70
     1
102
RTVSPropertyOp16
 70
     1
102
RTVSPropertyOp17
 70
     1
102
RTVSPropertyOp18
 70
     1
102
RTVSPropertyOp19
 70
     1
102
RTVSPropertyOp20
 70
     1
102
RTVSPropertyOp21
 70
     1
102
RTVSPropertyOp22
 70
     1
102
RTVSPropertyOp23
 70
     1
102
RTVSPropertyOp24
 70
     1
102
RTVSPropertyOp25
 70
     1
102
RTVSPropertyOp26
 70
     1
102
RTVSPropertyOp27
 70
     1
102
RTVSPropertyOp28
 70
     1
102
RTVSPropertyOp29
 70
     1
102
RTVSPropertyOp30
 70
     1
102
RTVSPropertyOp31
 70
     1
102
RTVSPropertyOp32
 70
     1
102
RTVSPropertyOp33
 70
     1
102
RTVSPropertyOp34
 70
     1
102
RTVSPropertyOp35
 70
     1
102
RTVSPropertyOp36
 70
     1
102
RTVSPropertyOp37
 70
     1
102
RTVSPropertyOp38
 70
     1
102
RTVSPropertyOp39
 70
     1
102
RTVSPropertyOp40
 70
     1
102
RTVSPropertyOp41
 70
     1
102
RTVSPropertyOp42
 70
     1
102
RTVSPropertyOp43
 70
     1
102
RTVSPropertyOp44
 70
     1
102
RTVSPropertyOp45
 70
     1
102
RTVSPropertyOp46
 70
     1
102
RTVSPropertyOp47
 70
     1
102
RTVSPropertyOp48
 70
     1
102
RTVSPropertyOp49
 70
     1
102
RTVSPropertyOp50
 70
     1
102
RTVSPropertyOp51
 70
     0
102
RTVSPropertyOp52
 70
     0
102
RTVSPropertyOp53
 70
     1
102
RTVSPropertyOp54
 70
     1
102
RTVSPropertyOp55
 70
     1
102
RTVSPropertyOp56
 70
     1
102
RTVSPropertyOp57
 70
     1
102
RTVSPost2010Prop28
280
     0
102
RTVSPost2010PropOp28
 70
     1
102
RTVSPost2010Prop29
280
     1
102
RTVSPost2010PropOp29
 70
     1
102
RTVSPost2010Prop30
280
     1
102
RTVSPost2010PropOp30
 70
     1
102
RTVSPost2010Prop31
280
     0
102
RTVSPost2010PropOp31
 70
     1
102
RTVSPost2010Prop32
280
     0
102
RTVSPost2010PropOp32
 70
     1
102
RTVSPost2010Prop33
280
     0
102
RTVSPost2010PropOp33
 70
     1
102
RTVSPost2010Prop34
280
     0
102
RTVSPost2010PropOp34
 70
     1
102
RTVSPost2010Prop35
280
     0
102
RTVSPost2010PropOp35
 70
     1
102
RTVSPost2010Prop36
280
     0
102
RTVSPost2010PropOp36
 70
     1
102
RTVSPost2010Prop37
 90
       50
102
RTVSPost2010PropOp37
 70
     1
102
RTVSPost2010Prop38
140
0.0
102
RTVSPost2010PropOp38
 70
     1
102
RTVSPost2010Prop39
140
1.0
102
RTVSPost2010PropOp39
 70
     1
102
RTVSPost2010Prop40
 90
        0
102
RTVSPost2010PropOp40
 70
     1
102
RTVSPost2010Prop41ColorIndex
 90
       18
102
RTVSPost2010Prop41ColorRGB
 90
        0
102
RTVSPost2010PropOp41
 70
     1
102
RTVSPost2010Prop42
 90
       50
102
RTVSPost2010PropOp42
 70
     1
102
RTVSPost2010Prop43
 90
        3
102
RTVSPost2010PropOp43
 70
     1
102
RTVSPost2010Prop44ColorIndex
 90
        5
102
RTVSPost2010Prop44ColorRGB
 90
      255
102
RTVSPost2010PropOp44
 70
     1
102
RTVSPost2010Prop45
280
     0
102
RTVSPost2010PropOp45
 70
     1
102
RTVSPost2010Prop46
 90
       50
102
RTVSPost2010PropOp46
 70
     1
102
RTVSPost2010Prop47
 90
       50
102
RTVSPost2010PropOp47
 70
     1
102
RTVSPost2010Prop48
 90
       50
102
RTVSPost2010PropOp48
 70
     1
102
RTVSPost2010Prop49
280
     0
102
RTVSPost2010PropOp49
 70
     1
102
RTVSPost2010Prop50
 90
       50
102
RTVSPost2010PropOp50
 70
     1
102
RTVSPost2010Prop51ColorIndex
 90
      256
102
RTVSPost2010Prop51ColorRGB
 90
-16777216
102
RTVSPost2010PropOp51
 70
     0
102
RTVSPost2010Prop52
140
1.0
102
RTVSPost2010PropOp52
 70
     0
102
RTVSPost2010Prop53
 90
        2
102
RTVSPost2010PropOp53
 70
     1
102
RTVSPost2010Prop54
  1
strokes_ogs.tif
102
RTVSPost2010PropOp54
 70
     1
102
RTVSPost2010Prop55
280
     0
102
RTVSPost2010PropOp55
 70
     1
102
RTVSPost2010Prop56
140
1.0
102
RTVSPost2010PropOp56
 70
     1
102
RTVSPost2010Prop57
140
1.0
102
RTVSPost2010PropOp57
 70
     1
  0
XRECORD
  5
3CF
102
{ACAD_REACTORS
330
3CE
102
}
330
3CE
100
AcDbXrecord
280
     1
102
RTVSPropertyOp0
 70
     1
102
RTVSPropertyOp1
 70
     1
102
RTVSPropertyOp2
 70
     1
102
RTVSPropertyOp3
 70
     1
102
RTVSPropertyOp4
 70
     1
102
RTVSPropertyOp5
 70
     1
102
RTVSPropertyOp6
 70
     1
102
RTVSPropertyOp7
 70
     1
102
RTVSPropertyOp8
 70
     1
102
RTVSPropertyOp9
 70
     1
102
RTVSPropertyOp10
 70
     1
102
RTVSPropertyOp11
 70
     1
102
RTVSPropertyOp12
 70
     1
102
RTVSPropertyOp13
 70
     1
102
RTVSPropertyOp14
 70
     1
102
RTVSPropertyOp15
 70
     1
102
RTVSPropertyOp16
 70
     1
102
RTVSPropertyOp17
 70
     1
102
RTVSPropertyOp18
 70
     1
102
RTVSPropertyOp19
 70
     1
102
RTVSPropertyOp20
 70
     1
102
RTVSPropertyOp21
 70
     1
102
RTVSPropertyOp22
 70
     1
102
RTVSPropertyOp23
 70
     1
102
RTVSPropertyOp24
 70
     1
102
RTVSPropertyOp25
 70
     1
102
RTVSPropertyOp26
 70
     1
102
RTVSPropertyOp27
 70
     1
102
RTVSPropertyOp28
 70
     1
102
RTVSPropertyOp29
 70
     1
102
RTVSPropertyOp30
 70
     1
102
RTVSPropertyOp31
 70
     1
102
RTVSPropertyOp32
 70
     1
102
RTVSPropertyOp33
 70
     1
102
RTVSPropertyOp34
 70
     1
102
RTVSPropertyOp35
 70
     1
102
RTVSPropertyOp36
 70
     1
102
RTVSPropertyOp37
 70
     1
102
RTVSPropertyOp38
 70
     1
102
RTVSPropertyOp39
 70
     1
102
RTVSPropertyOp40
 70
     1
102
RTVSPropertyOp41
 70
     1
102
RTVSPropertyOp42
 70
     1
102
RTVSPropertyOp43
 70
     1
102
RTVSPropertyOp44
 70
     1
102
RTVSPropertyOp45
 70
     1
102
RTVSPropertyOp46
 70
     1
102
RTVSPropertyOp47
 70
     1
102
RTVSPropertyOp48
 70
     1
102
RTVSPropertyOp49
 70
     1
102
RTVSPropertyOp50
 70
     1
102
RTVSPropertyOp51
 70
     0
102
RTVSPropertyOp52
 70
     0
102
RTVSPropertyOp53
 70
     1
102
RTVSPropertyOp54
 70
     1
102
RTVSPropertyOp55
 70
     1
102
RTVSPropertyOp56
 70
     1
102
RTVSPropertyOp57
 70
     1
102
RTVSPost2010Prop28
280
     0
102
RTVSPost2010PropOp28
 70
     1
102
RTVSPost2010Prop29
280
     1
102
RTVSPost2010PropOp29
 70
     1
102
RTVSPost2010Prop30
280
     1
102
RTVSPost2010PropOp30
 70
     1
102
RTVSPost2010Prop31
280
     0
102
RTVSPost2010PropOp31
 70
     1
102
RTVSPost2010Prop32
280
     0
102
RTVSPost2010PropOp32
 70
     1
102
RTVSPost2010Prop33
280
     0
102
RTVSPost2010PropOp33
 70
     1
102
RTVSPost2010Prop34
280
     0
102
RTVSPost2010PropOp34
 70
     1
102
RTVSPost2010Prop35
280
     0
102
RTVSPost2010PropOp35
 70
     1
102
RTVSPost2010Prop36
280
     0
102
RTVSPost2010PropOp36
 70
     1
102
RTVSPost2010Prop37
 90
       50
102
RTVSPost2010PropOp37
 70
     1
102
RTVSPost2010Prop38
140
0.0
102
RTVSPost2010PropOp38
 70
     1
102
RTVSPost2010Prop39
140
1.0
102
RTVSPost2010PropOp39
 70
     1
102
RTVSPost2010Prop40
 90
        0
102
RTVSPost2010PropOp40
 70
     1
102
RTVSPost2010Prop41ColorIndex
 90
       18
102
RTVSPost2010Prop41ColorRGB
 90
        0
102
RTVSPost2010PropOp41
 70
     1
102
RTVSPost2010Prop42
 90
       50
102
RTVSPost2010PropOp42
 70
     1
102
RTVSPost2010Prop43
 90
        3
102
RTVSPost2010PropOp43
 70
     1
102
RTVSPost2010Prop44ColorIndex
 90
        5
102
RTVSPost2010Prop44ColorRGB
 90
      255
102
RTVSPost2010PropOp44
 70
     1
102
RTVSPost2010Prop45
280
     0
102
RTVSPost2010PropOp45
 70
     1
102
RTVSPost2010Prop46
 90
       50
102
RTVSPost2010PropOp46
 70
     1
102
RTVSPost2010Prop47
 90
       50
102
RTVSPost2010PropOp47
 70
     1
102
RTVSPost2010Prop48
 90
       50
102
RTVSPost2010PropOp48
 70
     1
102
RTVSPost2010Prop49
280
     0
102
RTVSPost2010PropOp49
 70
     1
102
RTVSPost2010Prop50
 90
       50
102
RTVSPost2010PropOp50
 70
     1
102
RTVSPost2010Prop51ColorIndex
 90
      256
102
RTVSPost2010Prop51ColorRGB
 90
-16777216
102
RTVSPost2010PropOp51
 70
     0
102
RTVSPost2010Prop52
140
1.0
102
RTVSPost2010PropOp52
 70
     0
102
RTVSPost2010Prop53
 90
        2
102
RTVSPost2010PropOp53
 70
     1
102
RTVSPost2010Prop54
  1
strokes_ogs.tif
102
RTVSPost2010PropOp54
 70
     1
102
RTVSPost2010Prop55
280
     0
102
RTVSPost2010PropOp55
 70
     1
102
RTVSPost2010Prop56
140
1.0
102
RTVSPost2010PropOp56
 70
     1
102
RTVSPost2010Prop57
140
1.0
102
RTVSPost2010PropOp57
 70
     1
  0
XRECORD
  5
3C3
102
{ACAD_REACTORS
330
3C2
102
}
330
3C2
100
AcDbXrecord
280
     1
102
RTVSPropertyOp0
 70
     1
102
RTVSPropertyOp1
 70
     1
102
RTVSPropertyOp2
 70
     1
102
RTVSPropertyOp3
 70
     1
102
RTVSPropertyOp4
 70
     1
102
RTVSPropertyOp5
 70
     1
102
RTVSPropertyOp6
 70
     1
102
RTVSPropertyOp7
 70
     1
102
RTVSPropertyOp8
 70
     1
102
RTVSPropertyOp9
 70
     1
102
RTVSPropertyOp10
 70
     1
102
RTVSPropertyOp11
 70
     1
102
RTVSPropertyOp12
 70
     1
102
RTVSPropertyOp13
 70
     1
102
RTVSPropertyOp14
 70
     1
102
RTVSPropertyOp15
 70
     1
102
RTVSPropertyOp16
 70
     1
102
RTVSPropertyOp17
 70
     1
102
RTVSPropertyOp18
 70
     1
102
RTVSPropertyOp19
 70
     1
102
RTVSPropertyOp20
 70
     1
102
RTVSPropertyOp21
 70
     1
102
RTVSPropertyOp22
 70
     1
102
RTVSPropertyOp23
 70
     1
102
RTVSPropertyOp24
 70
     1
102
RTVSPropertyOp25
 70
     1
102
RTVSPropertyOp26
 70
     1
102
RTVSPropertyOp27
 70
     1
102
RTVSPropertyOp28
 70
     1
102
RTVSPropertyOp29
 70
     1
102
RTVSPropertyOp30
 70
     1
102
RTVSPropertyOp31
 70
     1
102
RTVSPropertyOp32
 70
     1
102
RTVSPropertyOp33
 70
     1
102
RTVSPropertyOp34
 70
     1
102
RTVSPropertyOp35
 70
     1
102
RTVSPropertyOp36
 70
     1
102
RTVSPropertyOp37
 70
     1
102
RTVSPropertyOp38
 70
     1
102
RTVSPropertyOp39
 70
     1
102
RTVSPropertyOp40
 70
     1
102
RTVSPropertyOp41
 70
     1
102
RTVSPropertyOp42
 70
     1
102
RTVSPropertyOp43
 70
     1
102
RTVSPropertyOp44
 70
     1
102
RTVSPropertyOp45
 70
     1
102
RTVSPropertyOp46
 70
     1
102
RTVSPropertyOp47
 70
     1
102
RTVSPropertyOp48
 70
     1
102
RTVSPropertyOp49
 70
     1
102
RTVSPropertyOp50
 70
     1
102
RTVSPropertyOp51
 70
     0
102
RTVSPropertyOp52
 70
     0
102
RTVSPropertyOp53
 70
     1
102
RTVSPropertyOp54
 70
     1
102
RTVSPropertyOp55
 70
     1
102
RTVSPropertyOp56
 70
     1
102
RTVSPropertyOp57
 70
     1
102
RTVSPost2010Prop28
280
     0
102
RTVSPost2010PropOp28
 70
     1
102
RTVSPost2010Prop29
280
     1
102
RTVSPost2010PropOp29
 70
     1
102
RTVSPost2010Prop30
280
     1
102
RTVSPost2010PropOp30
 70
     1
102
RTVSPost2010Prop31
280
     0
102
RTVSPost2010PropOp31
 70
     1
102
RTVSPost2010Prop32
280
     0
102
RTVSPost2010PropOp32
 70
     1
102
RTVSPost2010Prop33
280
     0
102
RTVSPost2010PropOp33
 70
     1
102
RTVSPost2010Prop34
280
     0
102
RTVSPost2010PropOp34
 70
     1
102
RTVSPost2010Prop35
280
     0
102
RTVSPost2010PropOp35
 70
     1
102
RTVSPost2010Prop36
280
     0
102
RTVSPost2010PropOp36
 70
     1
102
RTVSPost2010Prop37
 90
       50
102
RTVSPost2010PropOp37
 70
     1
102
RTVSPost2010Prop38
140
0.0
102
RTVSPost2010PropOp38
 70
     1
102
RTVSPost2010Prop39
140
1.0
102
RTVSPost2010PropOp39
 70
     1
102
RTVSPost2010Prop40
 90
        0
102
RTVSPost2010PropOp40
 70
     1
102
RTVSPost2010Prop41ColorIndex
 90
       18
102
RTVSPost2010Prop41ColorRGB
 90
        0
102
RTVSPost2010PropOp41
 70
     1
102
RTVSPost2010Prop42
 90
       50
102
RTVSPost2010PropOp42
 70
     1
102
RTVSPost2010Prop43
 90
        3
102
RTVSPost2010PropOp43
 70
     1
102
RTVSPost2010Prop44ColorIndex
 90
        5
102
RTVSPost2010Prop44ColorRGB
 90
      255
102
RTVSPost2010PropOp44
 70
     1
102
RTVSPost2010Prop45
280
     0
102
RTVSPost2010PropOp45
 70
     1
102
RTVSPost2010Prop46
 90
       50
102
RTVSPost2010PropOp46
 70
     1
102
RTVSPost2010Prop47
 90
       50
102
RTVSPost2010PropOp47
 70
     1
102
RTVSPost2010Prop48
 90
       50
102
RTVSPost2010PropOp48
 70
     1
102
RTVSPost2010Prop49
280
     0
102
RTVSPost2010PropOp49
 70
     1
102
RTVSPost2010Prop50
 90
       50
102
RTVSPost2010PropOp50
 70
     1
102
RTVSPost2010Prop51ColorIndex
 90
      256
102
RTVSPost2010Prop51ColorRGB
 90
-16777216
102
RTVSPost2010PropOp51
 70
     0
102
RTVSPost2010Prop52
140
1.0
102
RTVSPost2010PropOp52
 70
     0
102
RTVSPost2010Prop53
 90
        2
102
RTVSPost2010PropOp53
 70
     1
102
RTVSPost2010Prop54
  1
strokes_ogs.tif
102
RTVSPost2010PropOp54
 70
     1
102
RTVSPost2010Prop55
280
     0
102
RTVSPost2010PropOp55
 70
     1
102
RTVSPost2010Prop56
140
1.0
102
RTVSPost2010PropOp56
 70
     1
102
RTVSPost2010Prop57
140
1.0
102
RTVSPost2010PropOp57
 70
     1
  0
XRECORD
  5
3C5
102
{ACAD_REACTORS
330
3C4
102
}
330
3C4
100
AcDbXrecord
280
     1
102
RTVSPropertyOp0
 70
     1
102
RTVSPropertyOp1
 70
     1
102
RTVSPropertyOp2
 70
     1
102
RTVSPropertyOp3
 70
     1
102
RTVSPropertyOp4
 70
     1
102
RTVSPropertyOp5
 70
     1
102
RTVSPropertyOp6
 70
     1
102
RTVSPropertyOp7
 70
     1
102
RTVSPropertyOp8
 70
     1
102
RTVSPropertyOp9
 70
     1
102
RTVSPropertyOp10
 70
     1
102
RTVSPropertyOp11
 70
     1
102
RTVSPropertyOp12
 70
     1
102
RTVSPropertyOp13
 70
     1
102
RTVSPropertyOp14
 70
     1
102
RTVSPropertyOp15
 70
     1
102
RTVSPropertyOp16
 70
     1
102
RTVSPropertyOp17
 70
     1
102
RTVSPropertyOp18
 70
     1
102
RTVSPropertyOp19
 70
     1
102
RTVSPropertyOp20
 70
     1
102
RTVSPropertyOp21
 70
     1
102
RTVSPropertyOp22
 70
     1
102
RTVSPropertyOp23
 70
     1
102
RTVSPropertyOp24
 70
     1
102
RTVSPropertyOp25
 70
     1
102
RTVSPropertyOp26
 70
     1
102
RTVSPropertyOp27
 70
     1
102
RTVSPropertyOp28
 70
     1
102
RTVSPropertyOp29
 70
     1
102
RTVSPropertyOp30
 70
     1
102
RTVSPropertyOp31
 70
     1
102
RTVSPropertyOp32
 70
     1
102
RTVSPropertyOp33
 70
     1
102
RTVSPropertyOp34
 70
     1
102
RTVSPropertyOp35
 70
     1
102
RTVSPropertyOp36
 70
     1
102
RTVSPropertyOp37
 70
     1
102
RTVSPropertyOp38
 70
     1
102
RTVSPropertyOp39
 70
     1
102
RTVSPropertyOp40
 70
     1
102
RTVSPropertyOp41
 70
     1
102
RTVSPropertyOp42
 70
     1
102
RTVSPropertyOp43
 70
     1
102
RTVSPropertyOp44
 70
     1
102
RTVSPropertyOp45
 70
     1
102
RTVSPropertyOp46
 70
     1
102
RTVSPropertyOp47
 70
     1
102
RTVSPropertyOp48
 70
     1
102
RTVSPropertyOp49
 70
     1
102
RTVSPropertyOp50
 70
     1
102
RTVSPropertyOp51
 70
     0
102
RTVSPropertyOp52
 70
     0
102
RTVSPropertyOp53
 70
     1
102
RTVSPropertyOp54
 70
     1
102
RTVSPropertyOp55
 70
     1
102
RTVSPropertyOp56
 70
     1
102
RTVSPropertyOp57
 70
     1
102
RTVSPost2010Prop28
280
     0
102
RTVSPost2010PropOp28
 70
     1
102
RTVSPost2010Prop29
280
     1
102
RTVSPost2010PropOp29
 70
     1
102
RTVSPost2010Prop30
280
     1
102
RTVSPost2010PropOp30
 70
     1
102
RTVSPost2010Prop31
280
     0
102
RTVSPost2010PropOp31
 70
     1
102
RTVSPost2010Prop32
280
     0
102
RTVSPost2010PropOp32
 70
     1
102
RTVSPost2010Prop33
280
     0
102
RTVSPost2010PropOp33
 70
     1
102
RTVSPost2010Prop34
280
     0
102
RTVSPost2010PropOp34
 70
     1
102
RTVSPost2010Prop35
280
     0
102
RTVSPost2010PropOp35
 70
     1
102
RTVSPost2010Prop36
280
     0
102
RTVSPost2010PropOp36
 70
     1
102
RTVSPost2010Prop37
 90
       50
102
RTVSPost2010PropOp37
 70
     1
102
RTVSPost2010Prop38
140
0.0
102
RTVSPost2010PropOp38
 70
     1
102
RTVSPost2010Prop39
140
1.0
102
RTVSPost2010PropOp39
 70
     1
102
RTVSPost2010Prop40
 90
        0
102
RTVSPost2010PropOp40
 70
     1
102
RTVSPost2010Prop41ColorIndex
 90
       18
102
RTVSPost2010Prop41ColorRGB
 90
        0
102
RTVSPost2010PropOp41
 70
     1
102
RTVSPost2010Prop42
 90
       50
102
RTVSPost2010PropOp42
 70
     1
102
RTVSPost2010Prop43
 90
        3
102
RTVSPost2010PropOp43
 70
     1
102
RTVSPost2010Prop44ColorIndex
 90
        5
102
RTVSPost2010Prop44ColorRGB
 90
      255
102
RTVSPost2010PropOp44
 70
     1
102
RTVSPost2010Prop45
280
     0
102
RTVSPost2010PropOp45
 70
     1
102
RTVSPost2010Prop46
 90
       50
102
RTVSPost2010PropOp46
 70
     1
102
RTVSPost2010Prop47
 90
       50
102
RTVSPost2010PropOp47
 70
     1
102
RTVSPost2010Prop48
 90
       50
102
RTVSPost2010PropOp48
 70
     1
102
RTVSPost2010Prop49
280
     0
102
RTVSPost2010PropOp49
 70
     1
102
RTVSPost2010Prop50
 90
       50
102
RTVSPost2010PropOp50
 70
     1
102
RTVSPost2010Prop51ColorIndex
 90
      256
102
RTVSPost2010Prop51ColorRGB
 90
-16777216
102
RTVSPost2010PropOp51
 70
     0
102
RTVSPost2010Prop52
140
1.0
102
RTVSPost2010PropOp52
 70
     0
102
RTVSPost2010Prop53
 90
        2
102
RTVSPost2010PropOp53
 70
     1
102
RTVSPost2010Prop54
  1
strokes_ogs.tif
102
RTVSPost2010PropOp54
 70
     1
102
RTVSPost2010Prop55
280
     0
102
RTVSPost2010PropOp55
 70
     1
102
RTVSPost2010Prop56
140
1.0
102
RTVSPost2010PropOp56
 70
     1
102
RTVSPost2010Prop57
140
1.0
102
RTVSPost2010PropOp57
 70
     1
  0
XRECORD
  5
3D5
102
{ACAD_REACTORS
330
3D4
102
}
330
3D4
100
AcDbXrecord
280
     1
102
RTVSPropertyOp0
 70
     0
102
RTVSPropertyOp1
 70
     0
102
RTVSPropertyOp2
 70
     0
102
RTVSPropertyOp3
 70
     0
102
RTVSPropertyOp4
 70
     0
102
RTVSPropertyOp5
 70
     0
102
RTVSPropertyOp6
 70
     0
102
RTVSPropertyOp7
 70
     0
102
RTVSPropertyOp8
 70
     0
102
RTVSPropertyOp9
 70
     0
102
RTVSPropertyOp10
 70
     0
102
RTVSPropertyOp11
 70
     0
102
RTVSPropertyOp12
 70
     0
102
RTVSPropertyOp13
 70
     0
102
RTVSPropertyOp14
 70
     2
102
RTVSPropertyOp15
 70
     0
102
RTVSPropertyOp16
 70
     0
102
RTVSPropertyOp17
 70
     0
102
RTVSPropertyOp18
 70
     0
102
RTVSPropertyOp19
 70
     0
102
RTVSPropertyOp20
 70
     0
102
RTVSPropertyOp21
 70
     0
102
RTVSPropertyOp22
 70
     0
102
RTVSPropertyOp23
 70
     0
102
RTVSPropertyOp24
 70
     0
102
RTVSPropertyOp25
 70
     0
102
RTVSPropertyOp26
 70
     0
102
RTVSPropertyOp27
 70
     0
102
RTVSPropertyOp28
 70
     0
102
RTVSPropertyOp29
 70
     0
102
RTVSPropertyOp30
 70
     0
102
RTVSPropertyOp31
 70
     0
102
RTVSPropertyOp32
 70
     0
102
RTVSPropertyOp33
 70
     0
102
RTVSPropertyOp34
 70
     0
102
RTVSPropertyOp35
 70
     0
102
RTVSPropertyOp36
 70
     0
102
RTVSPropertyOp37
 70
     0
102
RTVSPropertyOp38
 70
     0
102
RTVSPropertyOp39
 70
     0
102
RTVSPropertyOp40
 70
     0
102
RTVSPropertyOp41
 70
     0
102
RTVSPropertyOp42
 70
     0
102
RTVSPropertyOp43
 70
     0
102
RTVSPropertyOp44
 70
     0
102
RTVSPropertyOp45
 70
     0
102
RTVSPropertyOp46
 70
     0
102
RTVSPropertyOp47
 70
     0
102
RTVSPropertyOp48
 70
     0
102
RTVSPropertyOp49
 70
     0
102
RTVSPropertyOp50
 70
     0
102
RTVSPropertyOp51
 70
     0
102
RTVSPropertyOp52
 70
     0
102
RTVSPropertyOp53
 70
     0
102
RTVSPropertyOp54
 70
     0
102
RTVSPropertyOp55
 70
     0
102
RTVSPropertyOp56
 70
     0
102
RTVSPropertyOp57
 70
     0
102
RTVSPost2010Prop28
280
     0
102
RTVSPost2010PropOp28
 70
     0
102
RTVSPost2010Prop29
280
     1
102
RTVSPost2010PropOp29
 70
     0
102
RTVSPost2010Prop30
280
     1
102
RTVSPost2010PropOp30
 70
     0
102
RTVSPost2010Prop31
280
     0
102
RTVSPost2010PropOp31
 70
     0
102
RTVSPost2010Prop32
280
     0
102
RTVSPost2010PropOp32
 70
     0
102
RTVSPost2010Prop33
280
     0
102
RTVSPost2010PropOp33
 70
     0
102
RTVSPost2010Prop34
280
     0
102
RTVSPost2010PropOp34
 70
     0
102
RTVSPost2010Prop35
280
     0
102
RTVSPost2010PropOp35
 70
     0
102
RTVSPost2010Prop36
280
     0
102
RTVSPost2010PropOp36
 70
     0
102
RTVSPost2010Prop37
 90
       50
102
RTVSPost2010PropOp37
 70
     0
102
RTVSPost2010Prop38
140
0.0
102
RTVSPost2010PropOp38
 70
     0
102
RTVSPost2010Prop39
140
1.0
102
RTVSPost2010PropOp39
 70
     0
102
RTVSPost2010Prop40
 90
        0
102
RTVSPost2010PropOp40
 70
     0
102
RTVSPost2010Prop41ColorIndex
 90
       18
102
RTVSPost2010Prop41ColorRGB
 90
        0
102
RTVSPost2010PropOp41
 70
     0
102
RTVSPost2010Prop42
 90
       50
102
RTVSPost2010PropOp42
 70
     0
102
RTVSPost2010Prop43
 90
        3
102
RTVSPost2010PropOp43
 70
     0
102
RTVSPost2010Prop44ColorIndex
 90
        5
102
RTVSPost2010Prop44ColorRGB
 90
      255
102
RTVSPost2010PropOp44
 70
     0
102
RTVSPost2010Prop45
280
     0
102
RTVSPost2010PropOp45
 70
     0
102
RTVSPost2010Prop46
 90
       50
102
RTVSPost2010PropOp46
 70
     0
102
RTVSPost2010Prop47
 90
       50
102
RTVSPost2010PropOp47
 70
     0
102
RTVSPost2010Prop48
 90
       50
102
RTVSPost2010PropOp48
 70
     0
102
RTVSPost2010Prop49
280
     0
102
RTVSPost2010PropOp49
 70
     0
102
RTVSPost2010Prop50
 90
       50
102
RTVSPost2010PropOp50
 70
     0
102
RTVSPost2010Prop51ColorIndex
 90
      256
102
RTVSPost2010Prop51ColorRGB
 90
-16777216
102
RTVSPost2010PropOp51
 70
     0
102
RTVSPost2010Prop52
140
1.0
102
RTVSPost2010PropOp52
 70
     0
102
RTVSPost2010Prop53
 90
        2
102
RTVSPost2010PropOp53
 70
     0
102
RTVSPost2010Prop54
  1
strokes_ogs.tif
102
RTVSPost2010PropOp54
 70
     0
102
RTVSPost2010Prop55
280
     0
102
RTVSPost2010PropOp55
 70
     0
102
RTVSPost2010Prop56
140
1.0
102
RTVSPost2010PropOp56
 70
     0
102
RTVSPost2010Prop57
140
1.0
102
RTVSPost2010PropOp57
 70
     0
  0
XRECORD
  5
3CD
102
{ACAD_REACTORS
330
3CC
102
}
330
3CC
100
AcDbXrecord
280
     1
102
RTVSPropertyOp0
 70
     1
102
RTVSPropertyOp1
 70
     1
102
RTVSPropertyOp2
 70
     1
102
RTVSPropertyOp3
 70
     1
102
RTVSPropertyOp4
 70
     1
102
RTVSPropertyOp5
 70
     1
102
RTVSPropertyOp6
 70
     1
102
RTVSPropertyOp7
 70
     1
102
RTVSPropertyOp8
 70
     1
102
RTVSPropertyOp9
 70
     1
102
RTVSPropertyOp10
 70
     1
102
RTVSPropertyOp11
 70
     1
102
RTVSPropertyOp12
 70
     1
102
RTVSPropertyOp13
 70
     1
102
RTVSPropertyOp14
 70
     1
102
RTVSPropertyOp15
 70
     1
102
RTVSPropertyOp16
 70
     1
102
RTVSPropertyOp17
 70
     1
102
RTVSPropertyOp18
 70
     1
102
RTVSPropertyOp19
 70
     1
102
RTVSPropertyOp20
 70
     1
102
RTVSPropertyOp21
 70
     1
102
RTVSPropertyOp22
 70
     1
102
RTVSPropertyOp23
 70
     1
102
RTVSPropertyOp24
 70
     1
102
RTVSPropertyOp25
 70
     1
102
RTVSPropertyOp26
 70
     1
102
RTVSPropertyOp27
 70
     1
102
RTVSPropertyOp28
 70
     1
102
RTVSPropertyOp29
 70
     1
102
RTVSPropertyOp30
 70
     1
102
RTVSPropertyOp31
 70
     1
102
RTVSPropertyOp32
 70
     1
102
RTVSPropertyOp33
 70
     1
102
RTVSPropertyOp34
 70
     1
102
RTVSPropertyOp35
 70
     1
102
RTVSPropertyOp36
 70
     1
102
RTVSPropertyOp37
 70
     1
102
RTVSPropertyOp38
 70
     1
102
RTVSPropertyOp39
 70
     1
102
RTVSPropertyOp40
 70
     1
102
RTVSPropertyOp41
 70
     1
102
RTVSPropertyOp42
 70
     1
102
RTVSPropertyOp43
 70
     1
102
RTVSPropertyOp44
 70
     1
102
RTVSPropertyOp45
 70
     1
102
RTVSPropertyOp46
 70
     1
102
RTVSPropertyOp47
 70
     1
102
RTVSPropertyOp48
 70
     1
102
RTVSPropertyOp49
 70
     1
102
RTVSPropertyOp50
 70
     1
102
RTVSPropertyOp51
 70
     0
102
RTVSPropertyOp52
 70
     0
102
RTVSPropertyOp53
 70
     1
102
RTVSPropertyOp54
 70
     1
102
RTVSPropertyOp55
 70
     1
102
RTVSPropertyOp56
 70
     1
102
RTVSPropertyOp57
 70
     1
102
RTVSPost2010Prop28
280
     0
102
RTVSPost2010PropOp28
 70
     1
102
RTVSPost2010Prop29
280
     1
102
RTVSPost2010PropOp29
 70
     1
102
RTVSPost2010Prop30
280
     1
102
RTVSPost2010PropOp30
 70
     1
102
RTVSPost2010Prop31
280
     0
102
RTVSPost2010PropOp31
 70
     1
102
RTVSPost2010Prop32
280
     0
102
RTVSPost2010PropOp32
 70
     1
102
RTVSPost2010Prop33
280
     0
102
RTVSPost2010PropOp33
 70
     1
102
RTVSPost2010Prop34
280
     0
102
RTVSPost2010PropOp34
 70
     1
102
RTVSPost2010Prop35
280
     0
102
RTVSPost2010PropOp35
 70
     1
102
RTVSPost2010Prop36
280
     0
102
RTVSPost2010PropOp36
 70
     1
102
RTVSPost2010Prop37
 90
       50
102
RTVSPost2010PropOp37
 70
     1
102
RTVSPost2010Prop38
140
0.0
102
RTVSPost2010PropOp38
 70
     1
102
RTVSPost2010Prop39
140
1.0
102
RTVSPost2010PropOp39
 70
     1
102
RTVSPost2010Prop40
 90
        0
102
RTVSPost2010PropOp40
 70
     1
102
RTVSPost2010Prop41ColorIndex
 90
       18
102
RTVSPost2010Prop41ColorRGB
 90
        0
102
RTVSPost2010PropOp41
 70
     1
102
RTVSPost2010Prop42
 90
       50
102
RTVSPost2010PropOp42
 70
     1
102
RTVSPost2010Prop43
 90
        3
102
RTVSPost2010PropOp43
 70
     1
102
RTVSPost2010Prop44ColorIndex
 90
        5
102
RTVSPost2010Prop44ColorRGB
 90
      255
102
RTVSPost2010PropOp44
 70
     1
102
RTVSPost2010Prop45
280
     0
102
RTVSPost2010PropOp45
 70
     1
102
RTVSPost2010Prop46
 90
       50
102
RTVSPost2010PropOp46
 70
     1
102
RTVSPost2010Prop47
 90
       50
102
RTVSPost2010PropOp47
 70
     1
102
RTVSPost2010Prop48
 90
       50
102
RTVSPost2010PropOp48
 70
     1
102
RTVSPost2010Prop49
280
     0
102
RTVSPost2010PropOp49
 70
     1
102
RTVSPost2010Prop50
 90
       50
102
RTVSPost2010PropOp50
 70
     1
102
RTVSPost2010Prop51ColorIndex
 90
      256
102
RTVSPost2010Prop51ColorRGB
 90
-16777216
102
RTVSPost2010PropOp51
 70
     0
102
RTVSPost2010Prop52
140
1.0
102
RTVSPost2010PropOp52
 70
     0
102
RTVSPost2010Prop53
 90
        2
102
RTVSPost2010PropOp53
 70
     1
102
RTVSPost2010Prop54
  1
strokes_ogs.tif
102
RTVSPost2010PropOp54
 70
     1
102
RTVSPost2010Prop55
280
     0
102
RTVSPost2010PropOp55
 70
     1
102
RTVSPost2010Prop56
140
1.0
102
RTVSPost2010PropOp56
 70
     1
102
RTVSPost2010Prop57
140
1.0
102
RTVSPost2010PropOp57
 70
     1
  0
XRECORD
  5
3B1
102
{ACAD_REACTORS
330
3B0
102
}
330
3B0
100
AcDbXrecord
280
     1
102
RTVSPropertyOp0
 70
     1
102
RTVSPropertyOp1
 70
     1
102
RTVSPropertyOp2
 70
     1
102
RTVSPropertyOp3
 70
     1
102
RTVSPropertyOp4
 70
     1
102
RTVSPropertyOp5
 70
     1
102
RTVSPropertyOp6
 70
     1
102
RTVSPropertyOp7
 70
     1
102
RTVSPropertyOp8
 70
     1
102
RTVSPropertyOp9
 70
     1
102
RTVSPropertyOp10
 70
     1
102
RTVSPropertyOp11
 70
     1
102
RTVSPropertyOp12
 70
     1
102
RTVSPropertyOp13
 70
     1
102
RTVSPropertyOp14
 70
     1
102
RTVSPropertyOp15
 70
     1
102
RTVSPropertyOp16
 70
     1
102
RTVSPropertyOp17
 70
     1
102
RTVSPropertyOp18
 70
     1
102
RTVSPropertyOp19
 70
     1
102
RTVSPropertyOp20
 70
     1
102
RTVSPropertyOp21
 70
     1
102
RTVSPropertyOp22
 70
     1
102
RTVSPropertyOp23
 70
     1
102
RTVSPropertyOp24
 70
     1
102
RTVSPropertyOp25
 70
     1
102
RTVSPropertyOp26
 70
     1
102
RTVSPropertyOp27
 70
     1
102
RTVSPropertyOp28
 70
     1
102
RTVSPropertyOp29
 70
     1
102
RTVSPropertyOp30
 70
     1
102
RTVSPropertyOp31
 70
     1
102
RTVSPropertyOp32
 70
     1
102
RTVSPropertyOp33
 70
     1
102
RTVSPropertyOp34
 70
     1
102
RTVSPropertyOp35
 70
     1
102
RTVSPropertyOp36
 70
     1
102
RTVSPropertyOp37
 70
     1
102
RTVSPropertyOp38
 70
     1
102
RTVSPropertyOp39
 70
     1
102
RTVSPropertyOp40
 70
     1
102
RTVSPropertyOp41
 70
     1
102
RTVSPropertyOp42
 70
     1
102
RTVSPropertyOp43
 70
     1
102
RTVSPropertyOp44
 70
     1
102
RTVSPropertyOp45
 70
     1
102
RTVSPropertyOp46
 70
     1
102
RTVSPropertyOp47
 70
     1
102
RTVSPropertyOp48
 70
     1
102
RTVSPropertyOp49
 70
     1
102
RTVSPropertyOp50
 70
     1
102
RTVSPropertyOp51
 70
     0
102
RTVSPropertyOp52
 70
     0
102
RTVSPropertyOp53
 70
     1
102
RTVSPropertyOp54
 70
     1
102
RTVSPropertyOp55
 70
     1
102
RTVSPropertyOp56
 70
     1
102
RTVSPropertyOp57
 70
     1
102
RTVSPost2010Prop28
280
     0
102
RTVSPost2010PropOp28
 70
     1
102
RTVSPost2010Prop29
280
     1
102
RTVSPost2010PropOp29
 70
     1
102
RTVSPost2010Prop30
280
     1
102
RTVSPost2010PropOp30
 70
     1
102
RTVSPost2010Prop31
280
     0
102
RTVSPost2010PropOp31
 70
     1
102
RTVSPost2010Prop32
280
     0
102
RTVSPost2010PropOp32
 70
     1
102
RTVSPost2010Prop33
280
     0
102
RTVSPost2010PropOp33
 70
     1
102
RTVSPost2010Prop34
280
     0
102
RTVSPost2010PropOp34
 70
     1
102
RTVSPost2010Prop35
280
     0
102
RTVSPost2010PropOp35
 70
     1
102
RTVSPost2010Prop36
280
     0
102
RTVSPost2010PropOp36
 70
     1
102
RTVSPost2010Prop37
 90
       50
102
RTVSPost2010PropOp37
 70
     1
102
RTVSPost2010Prop38
140
0.0
102
RTVSPost2010PropOp38
 70
     1
102
RTVSPost2010Prop39
140
1.0
102
RTVSPost2010PropOp39
 70
     1
102
RTVSPost2010Prop40
 90
        0
102
RTVSPost2010PropOp40
 70
     1
102
RTVSPost2010Prop41ColorIndex
 90
       18
102
RTVSPost2010Prop41ColorRGB
 90
        0
102
RTVSPost2010PropOp41
 70
     1
102
RTVSPost2010Prop42
 90
       50
102
RTVSPost2010PropOp42
 70
     1
102
RTVSPost2010Prop43
 90
        3
102
RTVSPost2010PropOp43
 70
     1
102
RTVSPost2010Prop44ColorIndex
 90
        5
102
RTVSPost2010Prop44ColorRGB
 90
      255
102
RTVSPost2010PropOp44
 70
     1
102
RTVSPost2010Prop45
280
     0
102
RTVSPost2010PropOp45
 70
     1
102
RTVSPost2010Prop46
 90
       50
102
RTVSPost2010PropOp46
 70
     1
102
RTVSPost2010Prop47
 90
       50
102
RTVSPost2010PropOp47
 70
     1
102
RTVSPost2010Prop48
 90
       50
102
RTVSPost2010PropOp48
 70
     1
102
RTVSPost2010Prop49
280
     0
102
RTVSPost2010PropOp49
 70
     1
102
RTVSPost2010Prop50
 90
       50
102
RTVSPost2010PropOp50
 70
     1
102
RTVSPost2010Prop51ColorIndex
 90
      256
102
RTVSPost2010Prop51ColorRGB
 90
-16777216
102
RTVSPost2010PropOp51
 70
     0
102
RTVSPost2010Prop52
140
1.0
102
RTVSPost2010PropOp52
 70
     0
102
RTVSPost2010Prop53
 90
        2
102
RTVSPost2010PropOp53
 70
     1
102
RTVSPost2010Prop54
  1
strokes_ogs.tif
102
RTVSPost2010PropOp54
 70
     1
102
RTVSPost2010Prop55
280
     0
102
RTVSPost2010PropOp55
 70
     1
102
RTVSPost2010Prop56
140
1.0
102
RTVSPost2010PropOp56
 70
     1
102
RTVSPost2010Prop57
140
1.0
102
RTVSPost2010PropOp57
 70
     1
  0
XRECORD
  5
3B3
102
{ACAD_REACTORS
330
3B2
102
}
330
3B2
100
AcDbXrecord
280
     1
102
RTVSPropertyOp0
 70
     1
102
RTVSPropertyOp1
 70
     1
102
RTVSPropertyOp2
 70
     1
102
RTVSPropertyOp3
 70
     1
102
RTVSPropertyOp4
 70
     1
102
RTVSPropertyOp5
 70
     1
102
RTVSPropertyOp6
 70
     1
102
RTVSPropertyOp7
 70
     1
102
RTVSPropertyOp8
 70
     1
102
RTVSPropertyOp9
 70
     1
102
RTVSPropertyOp10
 70
     1
102
RTVSPropertyOp11
 70
     1
102
RTVSPropertyOp12
 70
     1
102
RTVSPropertyOp13
 70
     1
102
RTVSPropertyOp14
 70
     1
102
RTVSPropertyOp15
 70
     1
102
RTVSPropertyOp16
 70
     1
102
RTVSPropertyOp17
 70
     1
102
RTVSPropertyOp18
 70
     1
102
RTVSPropertyOp19
 70
     1
102
RTVSPropertyOp20
 70
     1
102
RTVSPropertyOp21
 70
     1
102
RTVSPropertyOp22
 70
     1
102
RTVSPropertyOp23
 70
     1
102
RTVSPropertyOp24
 70
     1
102
RTVSPropertyOp25
 70
     1
102
RTVSPropertyOp26
 70
     1
102
RTVSPropertyOp27
 70
     1
102
RTVSPropertyOp28
 70
     1
102
RTVSPropertyOp29
 70
     1
102
RTVSPropertyOp30
 70
     1
102
RTVSPropertyOp31
 70
     1
102
RTVSPropertyOp32
 70
     1
102
RTVSPropertyOp33
 70
     1
102
RTVSPropertyOp34
 70
     1
102
RTVSPropertyOp35
 70
     1
102
RTVSPropertyOp36
 70
     1
102
RTVSPropertyOp37
 70
     1
102
RTVSPropertyOp38
 70
     1
102
RTVSPropertyOp39
 70
     1
102
RTVSPropertyOp40
 70
     1
102
RTVSPropertyOp41
 70
     1
102
RTVSPropertyOp42
 70
     1
102
RTVSPropertyOp43
 70
     1
102
RTVSPropertyOp44
 70
     1
102
RTVSPropertyOp45
 70
     1
102
RTVSPropertyOp46
 70
     1
102
RTVSPropertyOp47
 70
     1
102
RTVSPropertyOp48
 70
     1
102
RTVSPropertyOp49
 70
     1
102
RTVSPropertyOp50
 70
     1
102
RTVSPropertyOp51
 70
     0
102
RTVSPropertyOp52
 70
     0
102
RTVSPropertyOp53
 70
     1
102
RTVSPropertyOp54
 70
     1
102
RTVSPropertyOp55
 70
     1
102
RTVSPropertyOp56
 70
     1
102
RTVSPropertyOp57
 70
     1
102
RTVSPost2010Prop28
280
     0
102
RTVSPost2010PropOp28
 70
     1
102
RTVSPost2010Prop29
280
     1
102
RTVSPost2010PropOp29
 70
     1
102
RTVSPost2010Prop30
280
     1
102
RTVSPost2010PropOp30
 70
     1
102
RTVSPost2010Prop31
280
     0
102
RTVSPost2010PropOp31
 70
     1
102
RTVSPost2010Prop32
280
     0
102
RTVSPost2010PropOp32
 70
     1
102
RTVSPost2010Prop33
280
     0
102
RTVSPost2010PropOp33
 70
     1
102
RTVSPost2010Prop34
280
     0
102
RTVSPost2010PropOp34
 70
     1
102
RTVSPost2010Prop35
280
     0
102
RTVSPost2010PropOp35
 70
     1
102
RTVSPost2010Prop36
280
     0
102
RTVSPost2010PropOp36
 70
     1
102
RTVSPost2010Prop37
 90
       50
102
RTVSPost2010PropOp37
 70
     1
102
RTVSPost2010Prop38
140
0.0
102
RTVSPost2010PropOp38
 70
     1
102
RTVSPost2010Prop39
140
1.0
102
RTVSPost2010PropOp39
 70
     1
102
RTVSPost2010Prop40
 90
        0
102
RTVSPost2010PropOp40
 70
     1
102
RTVSPost2010Prop41ColorIndex
 90
       18
102
RTVSPost2010Prop41ColorRGB
 90
        0
102
RTVSPost2010PropOp41
 70
     1
102
RTVSPost2010Prop42
 90
       50
102
RTVSPost2010PropOp42
 70
     1
102
RTVSPost2010Prop43
 90
        3
102
RTVSPost2010PropOp43
 70
     1
102
RTVSPost2010Prop44ColorIndex
 90
        5
102
RTVSPost2010Prop44ColorRGB
 90
      255
102
RTVSPost2010PropOp44
 70
     1
102
RTVSPost2010Prop45
280
     0
102
RTVSPost2010PropOp45
 70
     1
102
RTVSPost2010Prop46
 90
       50
102
RTVSPost2010PropOp46
 70
     1
102
RTVSPost2010Prop47
 90
       50
102
RTVSPost2010PropOp47
 70
     1
102
RTVSPost2010Prop48
 90
       50
102
RTVSPost2010PropOp48
 70
     1
102
RTVSPost2010Prop49
280
     0
102
RTVSPost2010PropOp49
 70
     1
102
RTVSPost2010Prop50
 90
       50
102
RTVSPost2010PropOp50
 70
     1
102
RTVSPost2010Prop51ColorIndex
 90
      256
102
RTVSPost2010Prop51ColorRGB
 90
-16777216
102
RTVSPost2010PropOp51
 70
     0
102
RTVSPost2010Prop52
140
1.0
102
RTVSPost2010PropOp52
 70
     0
102
RTVSPost2010Prop53
 90
        2
102
RTVSPost2010PropOp53
 70
     1
102
RTVSPost2010Prop54
  1
strokes_ogs.tif
102
RTVSPost2010PropOp54
 70
     1
102
RTVSPost2010Prop55
280
     0
102
RTVSPost2010PropOp55
 70
     1
102
RTVSPost2010Prop56
140
1.0
102
RTVSPost2010PropOp56
 70
     1
102
RTVSPost2010Prop57
140
1.0
102
RTVSPost2010PropOp57
 70
     1
  0
XRECORD
  5
3B5
102
{ACAD_REACTORS
330
3B4
102
}
330
3B4
100
AcDbXrecord
280
     1
102
RTVSPropertyOp0
 70
     1
102
RTVSPropertyOp1
 70
     1
102
RTVSPropertyOp2
 70
     1
102
RTVSPropertyOp3
 70
     1
102
RTVSPropertyOp4
 70
     1
102
RTVSPropertyOp5
 70
     1
102
RTVSPropertyOp6
 70
     1
102
RTVSPropertyOp7
 70
     1
102
RTVSPropertyOp8
 70
     1
102
RTVSPropertyOp9
 70
     1
102
RTVSPropertyOp10
 70
     1
102
RTVSPropertyOp11
 70
     1
102
RTVSPropertyOp12
 70
     1
102
RTVSPropertyOp13
 70
     1
102
RTVSPropertyOp14
 70
     1
102
RTVSPropertyOp15
 70
     1
102
RTVSPropertyOp16
 70
     1
102
RTVSPropertyOp17
 70
     1
102
RTVSPropertyOp18
 70
     1
102
RTVSPropertyOp19
 70
     1
102
RTVSPropertyOp20
 70
     1
102
RTVSPropertyOp21
 70
     1
102
RTVSPropertyOp22
 70
     1
102
RTVSPropertyOp23
 70
     1
102
RTVSPropertyOp24
 70
     1
102
RTVSPropertyOp25
 70
     1
102
RTVSPropertyOp26
 70
     1
102
RTVSPropertyOp27
 70
     1
102
RTVSPropertyOp28
 70
     1
102
RTVSPropertyOp29
 70
     1
102
RTVSPropertyOp30
 70
     1
102
RTVSPropertyOp31
 70
     1
102
RTVSPropertyOp32
 70
     1
102
RTVSPropertyOp33
 70
     1
102
RTVSPropertyOp34
 70
     1
102
RTVSPropertyOp35
 70
     1
102
RTVSPropertyOp36
 70
     1
102
RTVSPropertyOp37
 70
     1
102
RTVSPropertyOp38
 70
     1
102
RTVSPropertyOp39
 70
     1
102
RTVSPropertyOp40
 70
     1
102
RTVSPropertyOp41
 70
     1
102
RTVSPropertyOp42
 70
     1
102
RTVSPropertyOp43
 70
     1
102
RTVSPropertyOp44
 70
     1
102
RTVSPropertyOp45
 70
     1
102
RTVSPropertyOp46
 70
     1
102
RTVSPropertyOp47
 70
     1
102
RTVSPropertyOp48
 70
     1
102
RTVSPropertyOp49
 70
     1
102
RTVSPropertyOp50
 70
     1
102
RTVSPropertyOp51
 70
     0
102
RTVSPropertyOp52
 70
     0
102
RTVSPropertyOp53
 70
     1
102
RTVSPropertyOp54
 70
     1
102
RTVSPropertyOp55
 70
     1
102
RTVSPropertyOp56
 70
     1
102
RTVSPropertyOp57
 70
     1
102
RTVSPost2010Prop28
280
     0
102
RTVSPost2010PropOp28
 70
     1
102
RTVSPost2010Prop29
280
     1
102
RTVSPost2010PropOp29
 70
     1
102
RTVSPost2010Prop30
280
     1
102
RTVSPost2010PropOp30
 70
     1
102
RTVSPost2010Prop31
280
     0
102
RTVSPost2010PropOp31
 70
     1
102
RTVSPost2010Prop32
280
     0
102
RTVSPost2010PropOp32
 70
     1
102
RTVSPost2010Prop33
280
     0
102
RTVSPost2010PropOp33
 70
     1
102
RTVSPost2010Prop34
280
     0
102
RTVSPost2010PropOp34
 70
     1
102
RTVSPost2010Prop35
280
     0
102
RTVSPost2010PropOp35
 70
     1
102
RTVSPost2010Prop36
280
     0
102
RTVSPost2010PropOp36
 70
     1
102
RTVSPost2010Prop37
 90
       50
102
RTVSPost2010PropOp37
 70
     1
102
RTVSPost2010Prop38
140
0.0
102
RTVSPost2010PropOp38
 70
     1
102
RTVSPost2010Prop39
140
1.0
102
RTVSPost2010PropOp39
 70
     1
102
RTVSPost2010Prop40
 90
        0
102
RTVSPost2010PropOp40
 70
     1
102
RTVSPost2010Prop41ColorIndex
 90
       18
102
RTVSPost2010Prop41ColorRGB
 90
        0
102
RTVSPost2010PropOp41
 70
     1
102
RTVSPost2010Prop42
 90
       50
102
RTVSPost2010PropOp42
 70
     1
102
RTVSPost2010Prop43
 90
        3
102
RTVSPost2010PropOp43
 70
     1
102
RTVSPost2010Prop44ColorIndex
 90
        5
102
RTVSPost2010Prop44ColorRGB
 90
      255
102
RTVSPost2010PropOp44
 70
     1
102
RTVSPost2010Prop45
280
     0
102
RTVSPost2010PropOp45
 70
     1
102
RTVSPost2010Prop46
 90
       50
102
RTVSPost2010PropOp46
 70
     1
102
RTVSPost2010Prop47
 90
       50
102
RTVSPost2010PropOp47
 70
     1
102
RTVSPost2010Prop48
 90
       50
102
RTVSPost2010PropOp48
 70
     1
102
RTVSPost2010Prop49
280
     0
102
RTVSPost2010PropOp49
 70
     1
102
RTVSPost2010Prop50
 90
       50
102
RTVSPost2010PropOp50
 70
     1
102
RTVSPost2010Prop51ColorIndex
 90
      256
102
RTVSPost2010Prop51ColorRGB
 90
-16777216
102
RTVSPost2010PropOp51
 70
     0
102
RTVSPost2010Prop52
140
1.0
102
RTVSPost2010PropOp52
 70
     0
102
RTVSPost2010Prop53
 90
        2
102
RTVSPost2010PropOp53
 70
     1
102
RTVSPost2010Prop54
  1
strokes_ogs.tif
102
RTVSPost2010PropOp54
 70
     1
102
RTVSPost2010Prop55
280
     0
102
RTVSPost2010PropOp55
 70
     1
102
RTVSPost2010Prop56
140
1.0
102
RTVSPost2010PropOp56
 70
     1
102
RTVSPost2010Prop57
140
1.0
102
RTVSPost2010PropOp57
 70
     1
  0
XRECORD
  5
3B7
102
{ACAD_REACTORS
330
3B6
102
}
330
3B6
100
AcDbXrecord
280
     1
102
RTVSPropertyOp0
 70
     1
102
RTVSPropertyOp1
 70
     1
102
RTVSPropertyOp2
 70
     1
102
RTVSPropertyOp3
 70
     1
102
RTVSPropertyOp4
 70
     1
102
RTVSPropertyOp5
 70
     1
102
RTVSPropertyOp6
 70
     1
102
RTVSPropertyOp7
 70
     1
102
RTVSPropertyOp8
 70
     1
102
RTVSPropertyOp9
 70
     1
102
RTVSPropertyOp10
 70
     1
102
RTVSPropertyOp11
 70
     1
102
RTVSPropertyOp12
 70
     1
102
RTVSPropertyOp13
 70
     1
102
RTVSPropertyOp14
 70
     1
102
RTVSPropertyOp15
 70
     1
102
RTVSPropertyOp16
 70
     1
102
RTVSPropertyOp17
 70
     1
102
RTVSPropertyOp18
 70
     1
102
RTVSPropertyOp19
 70
     1
102
RTVSPropertyOp20
 70
     1
102
RTVSPropertyOp21
 70
     1
102
RTVSPropertyOp22
 70
     1
102
RTVSPropertyOp23
 70
     1
102
RTVSPropertyOp24
 70
     1
102
RTVSPropertyOp25
 70
     1
102
RTVSPropertyOp26
 70
     1
102
RTVSPropertyOp27
 70
     1
102
RTVSPropertyOp28
 70
     1
102
RTVSPropertyOp29
 70
     1
102
RTVSPropertyOp30
 70
     1
102
RTVSPropertyOp31
 70
     1
102
RTVSPropertyOp32
 70
     1
102
RTVSPropertyOp33
 70
     1
102
RTVSPropertyOp34
 70
     1
102
RTVSPropertyOp35
 70
     1
102
RTVSPropertyOp36
 70
     1
102
RTVSPropertyOp37
 70
     1
102
RTVSPropertyOp38
 70
     1
102
RTVSPropertyOp39
 70
     1
102
RTVSPropertyOp40
 70
     1
102
RTVSPropertyOp41
 70
     1
102
RTVSPropertyOp42
 70
     1
102
RTVSPropertyOp43
 70
     1
102
RTVSPropertyOp44
 70
     1
102
RTVSPropertyOp45
 70
     1
102
RTVSPropertyOp46
 70
     1
102
RTVSPropertyOp47
 70
     1
102
RTVSPropertyOp48
 70
     1
102
RTVSPropertyOp49
 70
     1
102
RTVSPropertyOp50
 70
     1
102
RTVSPropertyOp51
 70
     0
102
RTVSPropertyOp52
 70
     0
102
RTVSPropertyOp53
 70
     1
102
RTVSPropertyOp54
 70
     1
102
RTVSPropertyOp55
 70
     1
102
RTVSPropertyOp56
 70
     1
102
RTVSPropertyOp57
 70
     1
102
RTVSPost2010Prop28
280
     0
102
RTVSPost2010PropOp28
 70
     1
102
RTVSPost2010Prop29
280
     1
102
RTVSPost2010PropOp29
 70
     1
102
RTVSPost2010Prop30
280
     1
102
RTVSPost2010PropOp30
 70
     1
102
RTVSPost2010Prop31
280
     0
102
RTVSPost2010PropOp31
 70
     1
102
RTVSPost2010Prop32
280
     0
102
RTVSPost2010PropOp32
 70
     1
102
RTVSPost2010Prop33
280
     0
102
RTVSPost2010PropOp33
 70
     1
102
RTVSPost2010Prop34
280
     0
102
RTVSPost2010PropOp34
 70
     1
102
RTVSPost2010Prop35
280
     0
102
RTVSPost2010PropOp35
 70
     1
102
RTVSPost2010Prop36
280
     0
102
RTVSPost2010PropOp36
 70
     1
102
RTVSPost2010Prop37
 90
       50
102
RTVSPost2010PropOp37
 70
     1
102
RTVSPost2010Prop38
140
0.0
102
RTVSPost2010PropOp38
 70
     1
102
RTVSPost2010Prop39
140
1.0
102
RTVSPost2010PropOp39
 70
     1
102
RTVSPost2010Prop40
 90
        0
102
RTVSPost2010PropOp40
 70
     1
102
RTVSPost2010Prop41ColorIndex
 90
       18
102
RTVSPost2010Prop41ColorRGB
 90
        0
102
RTVSPost2010PropOp41
 70
     1
102
RTVSPost2010Prop42
 90
       50
102
RTVSPost2010PropOp42
 70
     1
102
RTVSPost2010Prop43
 90
        3
102
RTVSPost2010PropOp43
 70
     1
102
RTVSPost2010Prop44ColorIndex
 90
        5
102
RTVSPost2010Prop44ColorRGB
 90
      255
102
RTVSPost2010PropOp44
 70
     1
102
RTVSPost2010Prop45
280
     0
102
RTVSPost2010PropOp45
 70
     1
102
RTVSPost2010Prop46
 90
       50
102
RTVSPost2010PropOp46
 70
     1
102
RTVSPost2010Prop47
 90
       50
102
RTVSPost2010PropOp47
 70
     1
102
RTVSPost2010Prop48
 90
       50
102
RTVSPost2010PropOp48
 70
     1
102
RTVSPost2010Prop49
280
     0
102
RTVSPost2010PropOp49
 70
     1
102
RTVSPost2010Prop50
 90
       50
102
RTVSPost2010PropOp50
 70
     1
102
RTVSPost2010Prop51ColorIndex
 90
      256
102
RTVSPost2010Prop51ColorRGB
 90
-16777216
102
RTVSPost2010PropOp51
 70
     0
102
RTVSPost2010Prop52
140
1.0
102
RTVSPost2010PropOp52
 70
     0
102
RTVSPost2010Prop53
 90
        2
102
RTVSPost2010PropOp53
 70
     1
102
RTVSPost2010Prop54
  1
strokes_ogs.tif
102
RTVSPost2010PropOp54
 70
     1
102
RTVSPost2010Prop55
280
     0
102
RTVSPost2010PropOp55
 70
     1
102
RTVSPost2010Prop56
140
1.0
102
RTVSPost2010PropOp56
 70
     1
102
RTVSPost2010Prop57
140
1.0
102
RTVSPost2010PropOp57
 70
     1
  0
XRECORD
  5
3BD
102
{ACAD_REACTORS
330
3BC
102
}
330
3BC
100
AcDbXrecord
280
     1
102
RTVSPropertyOp0
 70
     1
102
RTVSPropertyOp1
 70
     1
102
RTVSPropertyOp2
 70
     1
102
RTVSPropertyOp3
 70
     1
102
RTVSPropertyOp4
 70
     1
102
RTVSPropertyOp5
 70
     1
102
RTVSPropertyOp6
 70
     1
102
RTVSPropertyOp7
 70
     1
102
RTVSPropertyOp8
 70
     1
102
RTVSPropertyOp9
 70
     1
102
RTVSPropertyOp10
 70
     1
102
RTVSPropertyOp11
 70
     1
102
RTVSPropertyOp12
 70
     1
102
RTVSPropertyOp13
 70
     1
102
RTVSPropertyOp14
 70
     1
102
RTVSPropertyOp15
 70
     1
102
RTVSPropertyOp16
 70
     1
102
RTVSPropertyOp17
 70
     1
102
RTVSPropertyOp18
 70
     1
102
RTVSPropertyOp19
 70
     1
102
RTVSPropertyOp20
 70
     1
102
RTVSPropertyOp21
 70
     1
102
RTVSPropertyOp22
 70
     1
102
RTVSPropertyOp23
 70
     1
102
RTVSPropertyOp24
 70
     1
102
RTVSPropertyOp25
 70
     1
102
RTVSPropertyOp26
 70
     1
102
RTVSPropertyOp27
 70
     1
102
RTVSPropertyOp28
 70
     1
102
RTVSPropertyOp29
 70
     1
102
RTVSPropertyOp30
 70
     1
102
RTVSPropertyOp31
 70
     1
102
RTVSPropertyOp32
 70
     1
102
RTVSPropertyOp33
 70
     1
102
RTVSPropertyOp34
 70
     1
102
RTVSPropertyOp35
 70
     1
102
RTVSPropertyOp36
 70
     1
102
RTVSPropertyOp37
 70
     1
102
RTVSPropertyOp38
 70
     1
102
RTVSPropertyOp39
 70
     1
102
RTVSPropertyOp40
 70
     1
102
RTVSPropertyOp41
 70
     1
102
RTVSPropertyOp42
 70
     1
102
RTVSPropertyOp43
 70
     1
102
RTVSPropertyOp44
 70
     1
102
RTVSPropertyOp45
 70
     1
102
RTVSPropertyOp46
 70
     1
102
RTVSPropertyOp47
 70
     1
102
RTVSPropertyOp48
 70
     1
102
RTVSPropertyOp49
 70
     1
102
RTVSPropertyOp50
 70
     1
102
RTVSPropertyOp51
 70
     0
102
RTVSPropertyOp52
 70
     0
102
RTVSPropertyOp53
 70
     1
102
RTVSPropertyOp54
 70
     1
102
RTVSPropertyOp55
 70
     1
102
RTVSPropertyOp56
 70
     1
102
RTVSPropertyOp57
 70
     1
102
RTVSPost2010Prop28
280
     0
102
RTVSPost2010PropOp28
 70
     1
102
RTVSPost2010Prop29
280
     1
102
RTVSPost2010PropOp29
 70
     1
102
RTVSPost2010Prop30
280
     1
102
RTVSPost2010PropOp30
 70
     1
102
RTVSPost2010Prop31
280
     0
102
RTVSPost2010PropOp31
 70
     1
102
RTVSPost2010Prop32
280
     0
102
RTVSPost2010PropOp32
 70
     1
102
RTVSPost2010Prop33
280
     0
102
RTVSPost2010PropOp33
 70
     1
102
RTVSPost2010Prop34
280
     0
102
RTVSPost2010PropOp34
 70
     1
102
RTVSPost2010Prop35
280
     0
102
RTVSPost2010PropOp35
 70
     1
102
RTVSPost2010Prop36
280
     0
102
RTVSPost2010PropOp36
 70
     1
102
RTVSPost2010Prop37
 90
       50
102
RTVSPost2010PropOp37
 70
     1
102
RTVSPost2010Prop38
140
0.0
102
RTVSPost2010PropOp38
 70
     1
102
RTVSPost2010Prop39
140
1.0
102
RTVSPost2010PropOp39
 70
     1
102
RTVSPost2010Prop40
 90
        0
102
RTVSPost2010PropOp40
 70
     1
102
RTVSPost2010Prop41ColorIndex
 90
       18
102
RTVSPost2010Prop41ColorRGB
 90
        0
102
RTVSPost2010PropOp41
 70
     1
102
RTVSPost2010Prop42
 90
       50
102
RTVSPost2010PropOp42
 70
     1
102
RTVSPost2010Prop43
 90
        3
102
RTVSPost2010PropOp43
 70
     1
102
RTVSPost2010Prop44ColorIndex
 90
        5
102
RTVSPost2010Prop44ColorRGB
 90
      255
102
RTVSPost2010PropOp44
 70
     1
102
RTVSPost2010Prop45
280
     0
102
RTVSPost2010PropOp45
 70
     1
102
RTVSPost2010Prop46
 90
       50
102
RTVSPost2010PropOp46
 70
     1
102
RTVSPost2010Prop47
 90
       50
102
RTVSPost2010PropOp47
 70
     1
102
RTVSPost2010Prop48
 90
       50
102
RTVSPost2010PropOp48
 70
     1
102
RTVSPost2010Prop49
280
     0
102
RTVSPost2010PropOp49
 70
     1
102
RTVSPost2010Prop50
 90
       50
102
RTVSPost2010PropOp50
 70
     1
102
RTVSPost2010Prop51ColorIndex
 90
      256
102
RTVSPost2010Prop51ColorRGB
 90
-16777216
102
RTVSPost2010PropOp51
 70
     0
102
RTVSPost2010Prop52
140
1.0
102
RTVSPost2010PropOp52
 70
     0
102
RTVSPost2010Prop53
 90
        2
102
RTVSPost2010PropOp53
 70
     1
102
RTVSPost2010Prop54
  1
strokes_ogs.tif
102
RTVSPost2010PropOp54
 70
     1
102
RTVSPost2010Prop55
280
     0
102
RTVSPost2010PropOp55
 70
     1
102
RTVSPost2010Prop56
140
1.0
102
RTVSPost2010PropOp56
 70
     1
102
RTVSPost2010Prop57
140
1.0
102
RTVSPost2010PropOp57
 70
     1
  0
XRECORD
  5
3D1
102
{ACAD_REACTORS
330
3D0
102
}
330
3D0
100
AcDbXrecord
280
     1
102
RTVSPropertyOp0
 70
     0
102
RTVSPropertyOp1
 70
     0
102
RTVSPropertyOp2
 70
     0
102
RTVSPropertyOp3
 70
     0
102
RTVSPropertyOp4
 70
     0
102
RTVSPropertyOp5
 70
     0
102
RTVSPropertyOp6
 70
     0
102
RTVSPropertyOp7
 70
     0
102
RTVSPropertyOp8
 70
     0
102
RTVSPropertyOp9
 70
     0
102
RTVSPropertyOp10
 70
     0
102
RTVSPropertyOp11
 70
     0
102
RTVSPropertyOp12
 70
     0
102
RTVSPropertyOp13
 70
     0
102
RTVSPropertyOp14
 70
     2
102
RTVSPropertyOp15
 70
     0
102
RTVSPropertyOp16
 70
     0
102
RTVSPropertyOp17
 70
     0
102
RTVSPropertyOp18
 70
     0
102
RTVSPropertyOp19
 70
     0
102
RTVSPropertyOp20
 70
     0
102
RTVSPropertyOp21
 70
     0
102
RTVSPropertyOp22
 70
     0
102
RTVSPropertyOp23
 70
     0
102
RTVSPropertyOp24
 70
     0
102
RTVSPropertyOp25
 70
     0
102
RTVSPropertyOp26
 70
     0
102
RTVSPropertyOp27
 70
     0
102
RTVSPropertyOp28
 70
     0
102
RTVSPropertyOp29
 70
     0
102
RTVSPropertyOp30
 70
     0
102
RTVSPropertyOp31
 70
     0
102
RTVSPropertyOp32
 70
     0
102
RTVSPropertyOp33
 70
     0
102
RTVSPropertyOp34
 70
     0
102
RTVSPropertyOp35
 70
     0
102
RTVSPropertyOp36
 70
     0
102
RTVSPropertyOp37
 70
     0
102
RTVSPropertyOp38
 70
     0
102
RTVSPropertyOp39
 70
     0
102
RTVSPropertyOp40
 70
     0
102
RTVSPropertyOp41
 70
     0
102
RTVSPropertyOp42
 70
     0
102
RTVSPropertyOp43
 70
     0
102
RTVSPropertyOp44
 70
     0
102
RTVSPropertyOp45
 70
     0
102
RTVSPropertyOp46
 70
     0
102
RTVSPropertyOp47
 70
     0
102
RTVSPropertyOp48
 70
     0
102
RTVSPropertyOp49
 70
     0
102
RTVSPropertyOp50
 70
     0
102
RTVSPropertyOp51
 70
     0
102
RTVSPropertyOp52
 70
     0
102
RTVSPropertyOp53
 70
     0
102
RTVSPropertyOp54
 70
     0
102
RTVSPropertyOp55
 70
     0
102
RTVSPropertyOp56
 70
     0
102
RTVSPropertyOp57
 70
     0
102
RTVSPost2010Prop28
280
     0
102
RTVSPost2010PropOp28
 70
     0
102
RTVSPost2010Prop29
280
     1
102
RTVSPost2010PropOp29
 70
     0
102
RTVSPost2010Prop30
280
     1
102
RTVSPost2010PropOp30
 70
     0
102
RTVSPost2010Prop31
280
     0
102
RTVSPost2010PropOp31
 70
     0
102
RTVSPost2010Prop32
280
     0
102
RTVSPost2010PropOp32
 70
     0
102
RTVSPost2010Prop33
280
     0
102
RTVSPost2010PropOp33
 70
     0
102
RTVSPost2010Prop34
280
     0
102
RTVSPost2010PropOp34
 70
     0
102
RTVSPost2010Prop35
280
     0
102
RTVSPost2010PropOp35
 70
     0
102
RTVSPost2010Prop36
280
     0
102
RTVSPost2010PropOp36
 70
     0
102
RTVSPost2010Prop37
 90
       50
102
RTVSPost2010PropOp37
 70
     0
102
RTVSPost2010Prop38
140
0.0
102
RTVSPost2010PropOp38
 70
     0
102
RTVSPost2010Prop39
140
1.0
102
RTVSPost2010PropOp39
 70
     0
102
RTVSPost2010Prop40
 90
        0
102
RTVSPost2010PropOp40
 70
     0
102
RTVSPost2010Prop41ColorIndex
 90
       18
102
RTVSPost2010Prop41ColorRGB
 90
        0
102
RTVSPost2010PropOp41
 70
     0
102
RTVSPost2010Prop42
 90
       50
102
RTVSPost2010PropOp42
 70
     0
102
RTVSPost2010Prop43
 90
        3
102
RTVSPost2010PropOp43
 70
     0
102
RTVSPost2010Prop44ColorIndex
 90
        5
102
RTVSPost2010Prop44ColorRGB
 90
      255
102
RTVSPost2010PropOp44
 70
     0
102
RTVSPost2010Prop45
280
     0
102
RTVSPost2010PropOp45
 70
     0
102
RTVSPost2010Prop46
 90
       50
102
RTVSPost2010PropOp46
 70
     0
102
RTVSPost2010Prop47
 90
       50
102
RTVSPost2010PropOp47
 70
     0
102
RTVSPost2010Prop48
 90
       50
102
RTVSPost2010PropOp48
 70
     0
102
RTVSPost2010Prop49
280
     0
102
RTVSPost2010PropOp49
 70
     0
102
RTVSPost2010Prop50
 90
       50
102
RTVSPost2010PropOp50
 70
     0
102
RTVSPost2010Prop51ColorIndex
 90
      256
102
RTVSPost2010Prop51ColorRGB
 90
-16777216
102
RTVSPost2010PropOp51
 70
     0
102
RTVSPost2010Prop52
140
1.0
102
RTVSPost2010PropOp52
 70
     0
102
RTVSPost2010Prop53
 90
        2
102
RTVSPost2010PropOp53
 70
     0
102
RTVSPost2010Prop54
  1
strokes_ogs.tif
102
RTVSPost2010PropOp54
 70
     0
102
RTVSPost2010Prop55
280
     0
102
RTVSPost2010PropOp55
 70
     0
102
RTVSPost2010Prop56
140
1.0
102
RTVSPost2010PropOp56
 70
     0
102
RTVSPost2010Prop57
140
1.0
102
RTVSPost2010PropOp57
 70
     0
  0
XRECORD
  5
3CB
102
{ACAD_REACTORS
330
3CA
102
}
330
3CA
100
AcDbXrecord
280
     1
102
RTVSPropertyOp0
 70
     1
102
RTVSPropertyOp1
 70
     1
102
RTVSPropertyOp2
 70
     1
102
RTVSPropertyOp3
 70
     1
102
RTVSPropertyOp4
 70
     1
102
RTVSPropertyOp5
 70
     1
102
RTVSPropertyOp6
 70
     1
102
RTVSPropertyOp7
 70
     1
102
RTVSPropertyOp8
 70
     1
102
RTVSPropertyOp9
 70
     1
102
RTVSPropertyOp10
 70
     1
102
RTVSPropertyOp11
 70
     1
102
RTVSPropertyOp12
 70
     1
102
RTVSPropertyOp13
 70
     1
102
RTVSPropertyOp14
 70
     1
102
RTVSPropertyOp15
 70
     1
102
RTVSPropertyOp16
 70
     1
102
RTVSPropertyOp17
 70
     1
102
RTVSPropertyOp18
 70
     1
102
RTVSPropertyOp19
 70
     1
102
RTVSPropertyOp20
 70
     1
102
RTVSPropertyOp21
 70
     1
102
RTVSPropertyOp22
 70
     1
102
RTVSPropertyOp23
 70
     1
102
RTVSPropertyOp24
 70
     1
102
RTVSPropertyOp25
 70
     1
102
RTVSPropertyOp26
 70
     1
102
RTVSPropertyOp27
 70
     1
102
RTVSPropertyOp28
 70
     1
102
RTVSPropertyOp29
 70
     1
102
RTVSPropertyOp30
 70
     1
102
RTVSPropertyOp31
 70
     1
102
RTVSPropertyOp32
 70
     1
102
RTVSPropertyOp33
 70
     1
102
RTVSPropertyOp34
 70
     1
102
RTVSPropertyOp35
 70
     1
102
RTVSPropertyOp36
 70
     1
102
RTVSPropertyOp37
 70
     1
102
RTVSPropertyOp38
 70
     1
102
RTVSPropertyOp39
 70
     1
102
RTVSPropertyOp40
 70
     1
102
RTVSPropertyOp41
 70
     1
102
RTVSPropertyOp42
 70
     1
102
RTVSPropertyOp43
 70
     1
102
RTVSPropertyOp44
 70
     1
102
RTVSPropertyOp45
 70
     1
102
RTVSPropertyOp46
 70
     1
102
RTVSPropertyOp47
 70
     1
102
RTVSPropertyOp48
 70
     1
102
RTVSPropertyOp49
 70
     1
102
RTVSPropertyOp50
 70
     1
102
RTVSPropertyOp51
 70
     0
102
RTVSPropertyOp52
 70
     0
102
RTVSPropertyOp53
 70
     1
102
RTVSPropertyOp54
 70
     1
102
RTVSPropertyOp55
 70
     1
102
RTVSPropertyOp56
 70
     1
102
RTVSPropertyOp57
 70
     1
102
RTVSPost2010Prop28
280
     0
102
RTVSPost2010PropOp28
 70
     1
102
RTVSPost2010Prop29
280
     1
102
RTVSPost2010PropOp29
 70
     1
102
RTVSPost2010Prop30
280
     1
102
RTVSPost2010PropOp30
 70
     1
102
RTVSPost2010Prop31
280
     0
102
RTVSPost2010PropOp31
 70
     1
102
RTVSPost2010Prop32
280
     0
102
RTVSPost2010PropOp32
 70
     1
102
RTVSPost2010Prop33
280
     0
102
RTVSPost2010PropOp33
 70
     1
102
RTVSPost2010Prop34
280
     0
102
RTVSPost2010PropOp34
 70
     1
102
RTVSPost2010Prop35
280
     0
102
RTVSPost2010PropOp35
 70
     1
102
RTVSPost2010Prop36
280
     0
102
RTVSPost2010PropOp36
 70
     1
102
RTVSPost2010Prop37
 90
       50
102
RTVSPost2010PropOp37
 70
     1
102
RTVSPost2010Prop38
140
0.0
102
RTVSPost2010PropOp38
 70
     1
102
RTVSPost2010Prop39
140
1.0
102
RTVSPost2010PropOp39
 70
     1
102
RTVSPost2010Prop40
 90
        0
102
RTVSPost2010PropOp40
 70
     1
102
RTVSPost2010Prop41ColorIndex
 90
       18
102
RTVSPost2010Prop41ColorRGB
 90
        0
102
RTVSPost2010PropOp41
 70
     1
102
RTVSPost2010Prop42
 90
       50
102
RTVSPost2010PropOp42
 70
     1
102
RTVSPost2010Prop43
 90
        3
102
RTVSPost2010PropOp43
 70
     1
102
RTVSPost2010Prop44ColorIndex
 90
        5
102
RTVSPost2010Prop44ColorRGB
 90
      255
102
RTVSPost2010PropOp44
 70
     1
102
RTVSPost2010Prop45
280
     0
102
RTVSPost2010PropOp45
 70
     1
102
RTVSPost2010Prop46
 90
       50
102
RTVSPost2010PropOp46
 70
     1
102
RTVSPost2010Prop47
 90
       50
102
RTVSPost2010PropOp47
 70
     1
102
RTVSPost2010Prop48
 90
       50
102
RTVSPost2010PropOp48
 70
     1
102
RTVSPost2010Prop49
280
     0
102
RTVSPost2010PropOp49
 70
     1
102
RTVSPost2010Prop50
 90
       50
102
RTVSPost2010PropOp50
 70
     1
102
RTVSPost2010Prop51ColorIndex
 90
      256
102
RTVSPost2010Prop51ColorRGB
 90
-16777216
102
RTVSPost2010PropOp51
 70
     0
102
RTVSPost2010Prop52
140
1.0
102
RTVSPost2010PropOp52
 70
     0
102
RTVSPost2010Prop53
 90
        2
102
RTVSPost2010PropOp53
 70
     1
102
RTVSPost2010Prop54
  1
strokes_ogs.tif
102
RTVSPost2010PropOp54
 70
     1
102
RTVSPost2010Prop55
280
     0
102
RTVSPost2010PropOp55
 70
     1
102
RTVSPost2010Prop56
140
1.0
102
RTVSPost2010PropOp56
 70
     1
102
RTVSPost2010Prop57
140
1.0
102
RTVSPost2010PropOp57
 70
     1
  0
XRECORD
  5
3D3
102
{ACAD_REACTORS
330
3D2
102
}
330
3D2
100
AcDbXrecord
280
     1
102
RTVSPropertyOp0
 70
     0
102
RTVSPropertyOp1
 70
     0
102
RTVSPropertyOp2
 70
     0
102
RTVSPropertyOp3
 70
     0
102
RTVSPropertyOp4
 70
     0
102
RTVSPropertyOp5
 70
     0
102
RTVSPropertyOp6
 70
     0
102
RTVSPropertyOp7
 70
     0
102
RTVSPropertyOp8
 70
     0
102
RTVSPropertyOp9
 70
     0
102
RTVSPropertyOp10
 70
     0
102
RTVSPropertyOp11
 70
     0
102
RTVSPropertyOp12
 70
     0
102
RTVSPropertyOp13
 70
     0
102
RTVSPropertyOp14
 70
     2
102
RTVSPropertyOp15
 70
     0
102
RTVSPropertyOp16
 70
     0
102
RTVSPropertyOp17
 70
     0
102
RTVSPropertyOp18
 70
     0
102
RTVSPropertyOp19
 70
     0
102
RTVSPropertyOp20
 70
     0
102
RTVSPropertyOp21
 70
     0
102
RTVSPropertyOp22
 70
     0
102
RTVSPropertyOp23
 70
     0
102
RTVSPropertyOp24
 70
     0
102
RTVSPropertyOp25
 70
     0
102
RTVSPropertyOp26
 70
     0
102
RTVSPropertyOp27
 70
     0
102
RTVSPropertyOp28
 70
     0
102
RTVSPropertyOp29
 70
     0
102
RTVSPropertyOp30
 70
     0
102
RTVSPropertyOp31
 70
     0
102
RTVSPropertyOp32
 70
     0
102
RTVSPropertyOp33
 70
     0
102
RTVSPropertyOp34
 70
     0
102
RTVSPropertyOp35
 70
     0
102
RTVSPropertyOp36
 70
     0
102
RTVSPropertyOp37
 70
     0
102
RTVSPropertyOp38
 70
     0
102
RTVSPropertyOp39
 70
     0
102
RTVSPropertyOp40
 70
     0
102
RTVSPropertyOp41
 70
     0
102
RTVSPropertyOp42
 70
     0
102
RTVSPropertyOp43
 70
     0
102
RTVSPropertyOp44
 70
     0
102
RTVSPropertyOp45
 70
     0
102
RTVSPropertyOp46
 70
     0
102
RTVSPropertyOp47
 70
     0
102
RTVSPropertyOp48
 70
     0
102
RTVSPropertyOp49
 70
     0
102
RTVSPropertyOp50
 70
     0
102
RTVSPropertyOp51
 70
     0
102
RTVSPropertyOp52
 70
     0
102
RTVSPropertyOp53
 70
     0
102
RTVSPropertyOp54
 70
     0
102
RTVSPropertyOp55
 70
     0
102
RTVSPropertyOp56
 70
     0
102
RTVSPropertyOp57
 70
     0
102
RTVSPost2010Prop28
280
     0
102
RTVSPost2010PropOp28
 70
     0
102
RTVSPost2010Prop29
280
     1
102
RTVSPost2010PropOp29
 70
     0
102
RTVSPost2010Prop30
280
     1
102
RTVSPost2010PropOp30
 70
     0
102
RTVSPost2010Prop31
280
     0
102
RTVSPost2010PropOp31
 70
     0
102
RTVSPost2010Prop32
280
     0
102
RTVSPost2010PropOp32
 70
     0
102
RTVSPost2010Prop33
280
     0
102
RTVSPost2010PropOp33
 70
     0
102
RTVSPost2010Prop34
280
     0
102
RTVSPost2010PropOp34
 70
     0
102
RTVSPost2010Prop35
280
     0
102
RTVSPost2010PropOp35
 70
     0
102
RTVSPost2010Prop36
280
     0
102
RTVSPost2010PropOp36
 70
     0
102
RTVSPost2010Prop37
 90
       50
102
RTVSPost2010PropOp37
 70
     0
102
RTVSPost2010Prop38
140
0.0
102
RTVSPost2010PropOp38
 70
     0
102
RTVSPost2010Prop39
140
1.0
102
RTVSPost2010PropOp39
 70
     0
102
RTVSPost2010Prop40
 90
        0
102
RTVSPost2010PropOp40
 70
     0
102
RTVSPost2010Prop41ColorIndex
 90
       18
102
RTVSPost2010Prop41ColorRGB
 90
        0
102
RTVSPost2010PropOp41
 70
     0
102
RTVSPost2010Prop42
 90
       50
102
RTVSPost2010PropOp42
 70
     0
102
RTVSPost2010Prop43
 90
        3
102
RTVSPost2010PropOp43
 70
     0
102
RTVSPost2010Prop44ColorIndex
 90
        5
102
RTVSPost2010Prop44ColorRGB
 90
      255
102
RTVSPost2010PropOp44
 70
     0
102
RTVSPost2010Prop45
280
     0
102
RTVSPost2010PropOp45
 70
     0
102
RTVSPost2010Prop46
 90
       50
102
RTVSPost2010PropOp46
 70
     0
102
RTVSPost2010Prop47
 90
       50
102
RTVSPost2010PropOp47
 70
     0
102
RTVSPost2010Prop48
 90
       50
102
RTVSPost2010PropOp48
 70
     0
102
RTVSPost2010Prop49
280
     0
102
RTVSPost2010PropOp49
 70
     0
102
RTVSPost2010Prop50
 90
       50
102
RTVSPost2010PropOp50
 70
     0
102
RTVSPost2010Prop51ColorIndex
 90
      256
102
RTVSPost2010Prop51ColorRGB
 90
-16777216
102
RTVSPost2010PropOp51
 70
     0
102
RTVSPost2010Prop52
140
1.0
102
RTVSPost2010PropOp52
 70
     0
102
RTVSPost2010Prop53
 90
        2
102
RTVSPost2010PropOp53
 70
     0
102
RTVSPost2010Prop54
  1
strokes_ogs.tif
102
RTVSPost2010PropOp54
 70
     0
102
RTVSPost2010Prop55
280
     0
102
RTVSPost2010PropOp55
 70
     0
102
RTVSPost2010Prop56
140
1.0
102
RTVSPost2010PropOp56
 70
     0
102
RTVSPost2010Prop57
140
1.0
102
RTVSPost2010PropOp57
 70
     0
  0
XRECORD
  5
3C1
102
{ACAD_REACTORS
330
3C0
102
}
330
3C0
100
AcDbXrecord
280
     1
102
RTVSPropertyOp0
 70
     1
102
RTVSPropertyOp1
 70
     1
102
RTVSPropertyOp2
 70
     1
102
RTVSPropertyOp3
 70
     1
102
RTVSPropertyOp4
 70
     1
102
RTVSPropertyOp5
 70
     1
102
RTVSPropertyOp6
 70
     1
102
RTVSPropertyOp7
 70
     1
102
RTVSPropertyOp8
 70
     1
102
RTVSPropertyOp9
 70
     1
102
RTVSPropertyOp10
 70
     1
102
RTVSPropertyOp11
 70
     1
102
RTVSPropertyOp12
 70
     1
102
RTVSPropertyOp13
 70
     1
102
RTVSPropertyOp14
 70
     1
102
RTVSPropertyOp15
 70
     1
102
RTVSPropertyOp16
 70
     1
102
RTVSPropertyOp17
 70
     1
102
RTVSPropertyOp18
 70
     1
102
RTVSPropertyOp19
 70
     1
102
RTVSPropertyOp20
 70
     1
102
RTVSPropertyOp21
 70
     1
102
RTVSPropertyOp22
 70
     1
102
RTVSPropertyOp23
 70
     1
102
RTVSPropertyOp24
 70
     1
102
RTVSPropertyOp25
 70
     1
102
RTVSPropertyOp26
 70
     1
102
RTVSPropertyOp27
 70
     1
102
RTVSPropertyOp28
 70
     1
102
RTVSPropertyOp29
 70
     1
102
RTVSPropertyOp30
 70
     1
102
RTVSPropertyOp31
 70
     1
102
RTVSPropertyOp32
 70
     1
102
RTVSPropertyOp33
 70
     1
102
RTVSPropertyOp34
 70
     1
102
RTVSPropertyOp35
 70
     1
102
RTVSPropertyOp36
 70
     1
102
RTVSPropertyOp37
 70
     1
102
RTVSPropertyOp38
 70
     1
102
RTVSPropertyOp39
 70
     1
102
RTVSPropertyOp40
 70
     1
102
RTVSPropertyOp41
 70
     1
102
RTVSPropertyOp42
 70
     1
102
RTVSPropertyOp43
 70
     1
102
RTVSPropertyOp44
 70
     1
102
RTVSPropertyOp45
 70
     1
102
RTVSPropertyOp46
 70
     1
102
RTVSPropertyOp47
 70
     1
102
RTVSPropertyOp48
 70
     1
102
RTVSPropertyOp49
 70
     1
102
RTVSPropertyOp50
 70
     1
102
RTVSPropertyOp51
 70
     0
102
RTVSPropertyOp52
 70
     0
102
RTVSPropertyOp53
 70
     1
102
RTVSPropertyOp54
 70
     1
102
RTVSPropertyOp55
 70
     1
102
RTVSPropertyOp56
 70
     1
102
RTVSPropertyOp57
 70
     1
102
RTVSPost2010Prop28
280
     0
102
RTVSPost2010PropOp28
 70
     1
102
RTVSPost2010Prop29
280
     1
102
RTVSPost2010PropOp29
 70
     1
102
RTVSPost2010Prop30
280
     1
102
RTVSPost2010PropOp30
 70
     1
102
RTVSPost2010Prop31
280
     0
102
RTVSPost2010PropOp31
 70
     1
102
RTVSPost2010Prop32
280
     0
102
RTVSPost2010PropOp32
 70
     1
102
RTVSPost2010Prop33
280
     0
102
RTVSPost2010PropOp33
 70
     1
102
RTVSPost2010Prop34
280
     0
102
RTVSPost2010PropOp34
 70
     1
102
RTVSPost2010Prop35
280
     0
102
RTVSPost2010PropOp35
 70
     1
102
RTVSPost2010Prop36
280
     0
102
RTVSPost2010PropOp36
 70
     1
102
RTVSPost2010Prop37
 90
       50
102
RTVSPost2010PropOp37
 70
     1
102
RTVSPost2010Prop38
140
0.0
102
RTVSPost2010PropOp38
 70
     1
102
RTVSPost2010Prop39
140
1.0
102
RTVSPost2010PropOp39
 70
     1
102
RTVSPost2010Prop40
 90
        0
102
RTVSPost2010PropOp40
 70
     1
102
RTVSPost2010Prop41ColorIndex
 90
       18
102
RTVSPost2010Prop41ColorRGB
 90
        0
102
RTVSPost2010PropOp41
 70
     1
102
RTVSPost2010Prop42
 90
       50
102
RTVSPost2010PropOp42
 70
     1
102
RTVSPost2010Prop43
 90
        3
102
RTVSPost2010PropOp43
 70
     1
102
RTVSPost2010Prop44ColorIndex
 90
        5
102
RTVSPost2010Prop44ColorRGB
 90
      255
102
RTVSPost2010PropOp44
 70
     1
102
RTVSPost2010Prop45
280
     0
102
RTVSPost2010PropOp45
 70
     1
102
RTVSPost2010Prop46
 90
       50
102
RTVSPost2010PropOp46
 70
     1
102
RTVSPost2010Prop47
 90
       50
102
RTVSPost2010PropOp47
 70
     1
102
RTVSPost2010Prop48
 90
       50
102
RTVSPost2010PropOp48
 70
     1
102
RTVSPost2010Prop49
280
     0
102
RTVSPost2010PropOp49
 70
     1
102
RTVSPost2010Prop50
 90
       50
102
RTVSPost2010PropOp50
 70
     1
102
RTVSPost2010Prop51ColorIndex
 90
      256
102
RTVSPost2010Prop51ColorRGB
 90
-16777216
102
RTVSPost2010PropOp51
 70
     0
102
RTVSPost2010Prop52
140
1.0
102
RTVSPost2010PropOp52
 70
     0
102
RTVSPost2010Prop53
 90
        2
102
RTVSPost2010PropOp53
 70
     1
102
RTVSPost2010Prop54
  1
strokes_ogs.tif
102
RTVSPost2010PropOp54
 70
     1
102
RTVSPost2010Prop55
280
     0
102
RTVSPost2010PropOp55
 70
     1
102
RTVSPost2010Prop56
140
1.0
102
RTVSPost2010PropOp56
 70
     1
102
RTVSPost2010Prop57
140
1.0
102
RTVSPost2010PropOp57
 70
     1
  0
XRECORD
  5
3DF
102
{ACAD_REACTORS
330
3DE
102
}
330
3DE
100
AcDbXrecord
280
     1
102
RTVSPropertyOp0
 70
     1
102
RTVSPropertyOp1
 70
     1
102
RTVSPropertyOp2
 70
     1
102
RTVSPropertyOp3
 70
     1
102
RTVSPropertyOp4
 70
     1
102
RTVSPropertyOp5
 70
     1
102
RTVSPropertyOp6
 70
     1
102
RTVSPropertyOp7
 70
     1
102
RTVSPropertyOp8
 70
     1
102
RTVSPropertyOp9
 70
     1
102
RTVSPropertyOp10
 70
     1
102
RTVSPropertyOp11
 70
     1
102
RTVSPropertyOp12
 70
     1
102
RTVSPropertyOp13
 70
     1
102
RTVSPropertyOp14
 70
     1
102
RTVSPropertyOp15
 70
     1
102
RTVSPropertyOp16
 70
     1
102
RTVSPropertyOp17
 70
     1
102
RTVSPropertyOp18
 70
     1
102
RTVSPropertyOp19
 70
     1
102
RTVSPropertyOp20
 70
     1
102
RTVSPropertyOp21
 70
     1
102
RTVSPropertyOp22
 70
     1
102
RTVSPropertyOp23
 70
     1
102
RTVSPropertyOp24
 70
     1
102
RTVSPropertyOp25
 70
     1
102
RTVSPropertyOp26
 70
     1
102
RTVSPropertyOp27
 70
     1
102
RTVSPropertyOp28
 70
     1
102
RTVSPropertyOp29
 70
     1
102
RTVSPropertyOp30
 70
     1
102
RTVSPropertyOp31
 70
     1
102
RTVSPropertyOp32
 70
     1
102
RTVSPropertyOp33
 70
     1
102
RTVSPropertyOp34
 70
     1
102
RTVSPropertyOp35
 70
     1
102
RTVSPropertyOp36
 70
     1
102
RTVSPropertyOp37
 70
     1
102
RTVSPropertyOp38
 70
     1
102
RTVSPropertyOp39
 70
     1
102
RTVSPropertyOp40
 70
     1
102
RTVSPropertyOp41
 70
     1
102
RTVSPropertyOp42
 70
     1
102
RTVSPropertyOp43
 70
     1
102
RTVSPropertyOp44
 70
     1
102
RTVSPropertyOp45
 70
     1
102
RTVSPropertyOp46
 70
     1
102
RTVSPropertyOp47
 70
     1
102
RTVSPropertyOp48
 70
     1
102
RTVSPropertyOp49
 70
     1
102
RTVSPropertyOp50
 70
     1
102
RTVSPropertyOp51
 70
     0
102
RTVSPropertyOp52
 70
     0
102
RTVSPropertyOp53
 70
     1
102
RTVSPropertyOp54
 70
     1
102
RTVSPropertyOp55
 70
     1
102
RTVSPropertyOp56
 70
     1
102
RTVSPropertyOp57
 70
     1
102
RTVSPost2010Prop28
280
     0
102
RTVSPost2010PropOp28
 70
     1
102
RTVSPost2010Prop29
280
     1
102
RTVSPost2010PropOp29
 70
     1
102
RTVSPost2010Prop30
280
     1
102
RTVSPost2010PropOp30
 70
     1
102
RTVSPost2010Prop31
280
     0
102
RTVSPost2010PropOp31
 70
     1
102
RTVSPost2010Prop32
280
     0
102
RTVSPost2010PropOp32
 70
     1
102
RTVSPost2010Prop33
280
     0
102
RTVSPost2010PropOp33
 70
     1
102
RTVSPost2010Prop34
280
     0
102
RTVSPost2010PropOp34
 70
     1
102
RTVSPost2010Prop35
280
     0
102
RTVSPost2010PropOp35
 70
     1
102
RTVSPost2010Prop36
280
     0
102
RTVSPost2010PropOp36
 70
     1
102
RTVSPost2010Prop37
 90
       50
102
RTVSPost2010PropOp37
 70
     1
102
RTVSPost2010Prop38
140
0.0
102
RTVSPost2010PropOp38
 70
     1
102
RTVSPost2010Prop39
140
1.0
102
RTVSPost2010PropOp39
 70
     1
102
RTVSPost2010Prop40
 90
        0
102
RTVSPost2010PropOp40
 70
     1
102
RTVSPost2010Prop41ColorIndex
 90
       18
102
RTVSPost2010Prop41ColorRGB
 90
        0
102
RTVSPost2010PropOp41
 70
     1
102
RTVSPost2010Prop42
 90
       50
102
RTVSPost2010PropOp42
 70
     1
102
RTVSPost2010Prop43
 90
        3
102
RTVSPost2010PropOp43
 70
     1
102
RTVSPost2010Prop44ColorIndex
 90
        5
102
RTVSPost2010Prop44ColorRGB
 90
      255
102
RTVSPost2010PropOp44
 70
     1
102
RTVSPost2010Prop45
280
     0
102
RTVSPost2010PropOp45
 70
     1
102
RTVSPost2010Prop46
 90
       50
102
RTVSPost2010PropOp46
 70
     1
102
RTVSPost2010Prop47
 90
       50
102
RTVSPost2010PropOp47
 70
     1
102
RTVSPost2010Prop48
 90
       50
102
RTVSPost2010PropOp48
 70
     1
102
RTVSPost2010Prop49
280
     0
102
RTVSPost2010PropOp49
 70
     1
102
RTVSPost2010Prop50
 90
       50
102
RTVSPost2010PropOp50
 70
     1
102
RTVSPost2010Prop51ColorIndex
 90
      256
102
RTVSPost2010Prop51ColorRGB
 90
-16777216
102
RTVSPost2010PropOp51
 70
     0
102
RTVSPost2010Prop52
140
1.0
102
RTVSPost2010PropOp52
 70
     0
102
RTVSPost2010Prop53
 90
        2
102
RTVSPost2010PropOp53
 70
     1
102
RTVSPost2010Prop54
  1
strokes_ogs.tif
102
RTVSPost2010PropOp54
 70
     1
102
RTVSPost2010Prop55
280
     0
102
RTVSPost2010PropOp55
 70
     1
102
RTVSPost2010Prop56
140
1.0
102
RTVSPost2010PropOp56
 70
     1
102
RTVSPost2010Prop57
140
1.0
102
RTVSPost2010PropOp57
 70
     1
  0
XRECORD
  5
3DD
102
{ACAD_REACTORS
330
3DC
102
}
330
3DC
100
AcDbXrecord
280
     1
102
RTVSPropertyOp0
 70
     1
102
RTVSPropertyOp1
 70
     1
102
RTVSPropertyOp2
 70
     1
102
RTVSPropertyOp3
 70
     1
102
RTVSPropertyOp4
 70
     1
102
RTVSPropertyOp5
 70
     1
102
RTVSPropertyOp6
 70
     1
102
RTVSPropertyOp7
 70
     1
102
RTVSPropertyOp8
 70
     1
102
RTVSPropertyOp9
 70
     1
102
RTVSPropertyOp10
 70
     1
102
RTVSPropertyOp11
 70
     1
102
RTVSPropertyOp12
 70
     1
102
RTVSPropertyOp13
 70
     1
102
RTVSPropertyOp14
 70
     1
102
RTVSPropertyOp15
 70
     1
102
RTVSPropertyOp16
 70
     1
102
RTVSPropertyOp17
 70
     1
102
RTVSPropertyOp18
 70
     1
102
RTVSPropertyOp19
 70
     1
102
RTVSPropertyOp20
 70
     1
102
RTVSPropertyOp21
 70
     1
102
RTVSPropertyOp22
 70
     1
102
RTVSPropertyOp23
 70
     1
102
RTVSPropertyOp24
 70
     1
102
RTVSPropertyOp25
 70
     1
102
RTVSPropertyOp26
 70
     1
102
RTVSPropertyOp27
 70
     1
102
RTVSPropertyOp28
 70
     1
102
RTVSPropertyOp29
 70
     1
102
RTVSPropertyOp30
 70
     1
102
RTVSPropertyOp31
 70
     1
102
RTVSPropertyOp32
 70
     1
102
RTVSPropertyOp33
 70
     1
102
RTVSPropertyOp34
 70
     1
102
RTVSPropertyOp35
 70
     1
102
RTVSPropertyOp36
 70
     1
102
RTVSPropertyOp37
 70
     1
102
RTVSPropertyOp38
 70
     1
102
RTVSPropertyOp39
 70
     1
102
RTVSPropertyOp40
 70
     1
102
RTVSPropertyOp41
 70
     1
102
RTVSPropertyOp42
 70
     1
102
RTVSPropertyOp43
 70
     1
102
RTVSPropertyOp44
 70
     1
102
RTVSPropertyOp45
 70
     1
102
RTVSPropertyOp46
 70
     1
102
RTVSPropertyOp47
 70
     1
102
RTVSPropertyOp48
 70
     1
102
RTVSPropertyOp49
 70
     1
102
RTVSPropertyOp50
 70
     1
102
RTVSPropertyOp51
 70
     0
102
RTVSPropertyOp52
 70
     0
102
RTVSPropertyOp53
 70
     1
102
RTVSPropertyOp54
 70
     1
102
RTVSPropertyOp55
 70
     1
102
RTVSPropertyOp56
 70
     1
102
RTVSPropertyOp57
 70
     1
102
RTVSPost2010Prop28
280
     0
102
RTVSPost2010PropOp28
 70
     1
102
RTVSPost2010Prop29
280
     1
102
RTVSPost2010PropOp29
 70
     1
102
RTVSPost2010Prop30
280
     1
102
RTVSPost2010PropOp30
 70
     1
102
RTVSPost2010Prop31
280
     0
102
RTVSPost2010PropOp31
 70
     1
102
RTVSPost2010Prop32
280
     0
102
RTVSPost2010PropOp32
 70
     1
102
RTVSPost2010Prop33
280
     0
102
RTVSPost2010PropOp33
 70
     1
102
RTVSPost2010Prop34
280
     0
102
RTVSPost2010PropOp34
 70
     1
102
RTVSPost2010Prop35
280
     0
102
RTVSPost2010PropOp35
 70
     1
102
RTVSPost2010Prop36
280
     0
102
RTVSPost2010PropOp36
 70
     1
102
RTVSPost2010Prop37
 90
       50
102
RTVSPost2010PropOp37
 70
     1
102
RTVSPost2010Prop38
140
0.0
102
RTVSPost2010PropOp38
 70
     1
102
RTVSPost2010Prop39
140
1.0
102
RTVSPost2010PropOp39
 70
     1
102
RTVSPost2010Prop40
 90
        0
102
RTVSPost2010PropOp40
 70
     1
102
RTVSPost2010Prop41ColorIndex
 90
       18
102
RTVSPost2010Prop41ColorRGB
 90
        0
102
RTVSPost2010PropOp41
 70
     1
102
RTVSPost2010Prop42
 90
       50
102
RTVSPost2010PropOp42
 70
     1
102
RTVSPost2010Prop43
 90
        3
102
RTVSPost2010PropOp43
 70
     1
102
RTVSPost2010Prop44ColorIndex
 90
        5
102
RTVSPost2010Prop44ColorRGB
 90
      255
102
RTVSPost2010PropOp44
 70
     1
102
RTVSPost2010Prop45
280
     0
102
RTVSPost2010PropOp45
 70
     1
102
RTVSPost2010Prop46
 90
       50
102
RTVSPost2010PropOp46
 70
     1
102
RTVSPost2010Prop47
 90
       50
102
RTVSPost2010PropOp47
 70
     1
102
RTVSPost2010Prop48
 90
       50
102
RTVSPost2010PropOp48
 70
     1
102
RTVSPost2010Prop49
280
     0
102
RTVSPost2010PropOp49
 70
     1
102
RTVSPost2010Prop50
 90
       50
102
RTVSPost2010PropOp50
 70
     1
102
RTVSPost2010Prop51ColorIndex
 90
      256
102
RTVSPost2010Prop51ColorRGB
 90
-16777216
102
RTVSPost2010PropOp51
 70
     0
102
RTVSPost2010Prop52
140
1.0
102
RTVSPost2010PropOp52
 70
     0
102
RTVSPost2010Prop53
 90
        2
102
RTVSPost2010PropOp53
 70
     1
102
RTVSPost2010Prop54
  1
strokes_ogs.tif
102
RTVSPost2010PropOp54
 70
     1
102
RTVSPost2010Prop55
280
     0
102
RTVSPost2010PropOp55
 70
     1
102
RTVSPost2010Prop56
140
1.0
102
RTVSPost2010PropOp56
 70
     1
102
RTVSPost2010Prop57
140
1.0
102
RTVSPost2010PropOp57
 70
     1
  0
XRECORD
  5
3D7
102
{ACAD_REACTORS
330
3D6
102
}
330
3D6
100
AcDbXrecord
280
     1
102
RTVSPropertyOp0
 70
     1
102
RTVSPropertyOp1
 70
     1
102
RTVSPropertyOp2
 70
     1
102
RTVSPropertyOp3
 70
     1
102
RTVSPropertyOp4
 70
     1
102
RTVSPropertyOp5
 70
     1
102
RTVSPropertyOp6
 70
     1
102
RTVSPropertyOp7
 70
     1
102
RTVSPropertyOp8
 70
     1
102
RTVSPropertyOp9
 70
     1
102
RTVSPropertyOp10
 70
     1
102
RTVSPropertyOp11
 70
     1
102
RTVSPropertyOp12
 70
     1
102
RTVSPropertyOp13
 70
     1
102
RTVSPropertyOp14
 70
     1
102
RTVSPropertyOp15
 70
     1
102
RTVSPropertyOp16
 70
     1
102
RTVSPropertyOp17
 70
     1
102
RTVSPropertyOp18
 70
     1
102
RTVSPropertyOp19
 70
     1
102
RTVSPropertyOp20
 70
     1
102
RTVSPropertyOp21
 70
     1
102
RTVSPropertyOp22
 70
     1
102
RTVSPropertyOp23
 70
     1
102
RTVSPropertyOp24
 70
     1
102
RTVSPropertyOp25
 70
     1
102
RTVSPropertyOp26
 70
     1
102
RTVSPropertyOp27
 70
     1
102
RTVSPropertyOp28
 70
     1
102
RTVSPropertyOp29
 70
     1
102
RTVSPropertyOp30
 70
     1
102
RTVSPropertyOp31
 70
     1
102
RTVSPropertyOp32
 70
     1
102
RTVSPropertyOp33
 70
     1
102
RTVSPropertyOp34
 70
     1
102
RTVSPropertyOp35
 70
     1
102
RTVSPropertyOp36
 70
     1
102
RTVSPropertyOp37
 70
     1
102
RTVSPropertyOp38
 70
     1
102
RTVSPropertyOp39
 70
     1
102
RTVSPropertyOp40
 70
     1
102
RTVSPropertyOp41
 70
     1
102
RTVSPropertyOp42
 70
     1
102
RTVSPropertyOp43
 70
     1
102
RTVSPropertyOp44
 70
     1
102
RTVSPropertyOp45
 70
     1
102
RTVSPropertyOp46
 70
     1
102
RTVSPropertyOp47
 70
     1
102
RTVSPropertyOp48
 70
     1
102
RTVSPropertyOp49
 70
     1
102
RTVSPropertyOp50
 70
     1
102
RTVSPropertyOp51
 70
     0
102
RTVSPropertyOp52
 70
     0
102
RTVSPropertyOp53
 70
     1
102
RTVSPropertyOp54
 70
     1
102
RTVSPropertyOp55
 70
     1
102
RTVSPropertyOp56
 70
     1
102
RTVSPropertyOp57
 70
     1
102
RTVSPost2010Prop28
280
     0
102
RTVSPost2010PropOp28
 70
     1
102
RTVSPost2010Prop29
280
     1
102
RTVSPost2010PropOp29
 70
     1
102
RTVSPost2010Prop30
280
     1
102
RTVSPost2010PropOp30
 70
     1
102
RTVSPost2010Prop31
280
     0
102
RTVSPost2010PropOp31
 70
     1
102
RTVSPost2010Prop32
280
     0
102
RTVSPost2010PropOp32
 70
     1
102
RTVSPost2010Prop33
280
     0
102
RTVSPost2010PropOp33
 70
     1
102
RTVSPost2010Prop34
280
     0
102
RTVSPost2010PropOp34
 70
     1
102
RTVSPost2010Prop35
280
     0
102
RTVSPost2010PropOp35
 70
     1
102
RTVSPost2010Prop36
280
     0
102
RTVSPost2010PropOp36
 70
     1
102
RTVSPost2010Prop37
 90
       50
102
RTVSPost2010PropOp37
 70
     1
102
RTVSPost2010Prop38
140
0.0
102
RTVSPost2010PropOp38
 70
     1
102
RTVSPost2010Prop39
140
1.0
102
RTVSPost2010PropOp39
 70
     1
102
RTVSPost2010Prop40
 90
        0
102
RTVSPost2010PropOp40
 70
     1
102
RTVSPost2010Prop41ColorIndex
 90
       18
102
RTVSPost2010Prop41ColorRGB
 90
        0
102
RTVSPost2010PropOp41
 70
     1
102
RTVSPost2010Prop42
 90
       50
102
RTVSPost2010PropOp42
 70
     1
102
RTVSPost2010Prop43
 90
        3
102
RTVSPost2010PropOp43
 70
     1
102
RTVSPost2010Prop44ColorIndex
 90
        5
102
RTVSPost2010Prop44ColorRGB
 90
      255
102
RTVSPost2010PropOp44
 70
     1
102
RTVSPost2010Prop45
280
     0
102
RTVSPost2010PropOp45
 70
     1
102
RTVSPost2010Prop46
 90
       50
102
RTVSPost2010PropOp46
 70
     1
102
RTVSPost2010Prop47
 90
       50
102
RTVSPost2010PropOp47
 70
     1
102
RTVSPost2010Prop48
 90
       50
102
RTVSPost2010PropOp48
 70
     1
102
RTVSPost2010Prop49
280
     0
102
RTVSPost2010PropOp49
 70
     1
102
RTVSPost2010Prop50
 90
       50
102
RTVSPost2010PropOp50
 70
     1
102
RTVSPost2010Prop51ColorIndex
 90
      256
102
RTVSPost2010Prop51ColorRGB
 90
-16777216
102
RTVSPost2010PropOp51
 70
     0
102
RTVSPost2010Prop52
140
1.0
102
RTVSPost2010PropOp52
 70
     0
102
RTVSPost2010Prop53
 90
        2
102
RTVSPost2010PropOp53
 70
     1
102
RTVSPost2010Prop54
  1
strokes_ogs.tif
102
RTVSPost2010PropOp54
 70
     1
102
RTVSPost2010Prop55
280
     0
102
RTVSPost2010PropOp55
 70
     1
102
RTVSPost2010Prop56
140
1.0
102
RTVSPost2010PropOp56
 70
     1
102
RTVSPost2010Prop57
140
1.0
102
RTVSPost2010PropOp57
 70
     1
  0
XRECORD
  5
3D9
102
{ACAD_REACTORS
330
3D8
102
}
330
3D8
100
AcDbXrecord
280
     1
102
RTVSPropertyOp0
 70
     1
102
RTVSPropertyOp1
 70
     1
102
RTVSPropertyOp2
 70
     1
102
RTVSPropertyOp3
 70
     1
102
RTVSPropertyOp4
 70
     1
102
RTVSPropertyOp5
 70
     1
102
RTVSPropertyOp6
 70
     1
102
RTVSPropertyOp7
 70
     1
102
RTVSPropertyOp8
 70
     1
102
RTVSPropertyOp9
 70
     1
102
RTVSPropertyOp10
 70
     1
102
RTVSPropertyOp11
 70
     1
102
RTVSPropertyOp12
 70
     1
102
RTVSPropertyOp13
 70
     1
102
RTVSPropertyOp14
 70
     1
102
RTVSPropertyOp15
 70
     1
102
RTVSPropertyOp16
 70
     1
102
RTVSPropertyOp17
 70
     1
102
RTVSPropertyOp18
 70
     1
102
RTVSPropertyOp19
 70
     1
102
RTVSPropertyOp20
 70
     1
102
RTVSPropertyOp21
 70
     1
102
RTVSPropertyOp22
 70
     1
102
RTVSPropertyOp23
 70
     1
102
RTVSPropertyOp24
 70
     1
102
RTVSPropertyOp25
 70
     1
102
RTVSPropertyOp26
 70
     1
102
RTVSPropertyOp27
 70
     1
102
RTVSPropertyOp28
 70
     1
102
RTVSPropertyOp29
 70
     1
102
RTVSPropertyOp30
 70
     1
102
RTVSPropertyOp31
 70
     1
102
RTVSPropertyOp32
 70
     1
102
RTVSPropertyOp33
 70
     1
102
RTVSPropertyOp34
 70
     1
102
RTVSPropertyOp35
 70
     1
102
RTVSPropertyOp36
 70
     1
102
RTVSPropertyOp37
 70
     1
102
RTVSPropertyOp38
 70
     1
102
RTVSPropertyOp39
 70
     1
102
RTVSPropertyOp40
 70
     1
102
RTVSPropertyOp41
 70
     1
102
RTVSPropertyOp42
 70
     1
102
RTVSPropertyOp43
 70
     1
102
RTVSPropertyOp44
 70
     1
102
RTVSPropertyOp45
 70
     1
102
RTVSPropertyOp46
 70
     1
102
RTVSPropertyOp47
 70
     1
102
RTVSPropertyOp48
 70
     1
102
RTVSPropertyOp49
 70
     1
102
RTVSPropertyOp50
 70
     1
102
RTVSPropertyOp51
 70
     0
102
RTVSPropertyOp52
 70
     0
102
RTVSPropertyOp53
 70
     1
102
RTVSPropertyOp54
 70
     1
102
RTVSPropertyOp55
 70
     1
102
RTVSPropertyOp56
 70
     1
102
RTVSPropertyOp57
 70
     1
102
RTVSPost2010Prop28
280
     0
102
RTVSPost2010PropOp28
 70
     1
102
RTVSPost2010Prop29
280
     1
102
RTVSPost2010PropOp29
 70
     1
102
RTVSPost2010Prop30
280
     1
102
RTVSPost2010PropOp30
 70
     1
102
RTVSPost2010Prop31
280
     0
102
RTVSPost2010PropOp31
 70
     1
102
RTVSPost2010Prop32
280
     0
102
RTVSPost2010PropOp32
 70
     1
102
RTVSPost2010Prop33
280
     0
102
RTVSPost2010PropOp33
 70
     1
102
RTVSPost2010Prop34
280
     0
102
RTVSPost2010PropOp34
 70
     1
102
RTVSPost2010Prop35
280
     0
102
RTVSPost2010PropOp35
 70
     1
102
RTVSPost2010Prop36
280
     0
102
RTVSPost2010PropOp36
 70
     1
102
RTVSPost2010Prop37
 90
       50
102
RTVSPost2010PropOp37
 70
     1
102
RTVSPost2010Prop38
140
0.0
102
RTVSPost2010PropOp38
 70
     1
102
RTVSPost2010Prop39
140
1.0
102
RTVSPost2010PropOp39
 70
     1
102
RTVSPost2010Prop40
 90
        0
102
RTVSPost2010PropOp40
 70
     1
102
RTVSPost2010Prop41ColorIndex
 90
       18
102
RTVSPost2010Prop41ColorRGB
 90
        0
102
RTVSPost2010PropOp41
 70
     1
102
RTVSPost2010Prop42
 90
       50
102
RTVSPost2010PropOp42
 70
     1
102
RTVSPost2010Prop43
 90
        3
102
RTVSPost2010PropOp43
 70
     1
102
RTVSPost2010Prop44ColorIndex
 90
        5
102
RTVSPost2010Prop44ColorRGB
 90
      255
102
RTVSPost2010PropOp44
 70
     1
102
RTVSPost2010Prop45
280
     0
102
RTVSPost2010PropOp45
 70
     1
102
RTVSPost2010Prop46
 90
       50
102
RTVSPost2010PropOp46
 70
     1
102
RTVSPost2010Prop47
 90
       50
102
RTVSPost2010PropOp47
 70
     1
102
RTVSPost2010Prop48
 90
       50
102
RTVSPost2010PropOp48
 70
     1
102
RTVSPost2010Prop49
280
     0
102
RTVSPost2010PropOp49
 70
     1
102
RTVSPost2010Prop50
 90
       50
102
RTVSPost2010PropOp50
 70
     1
102
RTVSPost2010Prop51ColorIndex
 90
      256
102
RTVSPost2010Prop51ColorRGB
 90
-16777216
102
RTVSPost2010PropOp51
 70
     0
102
RTVSPost2010Prop52
140
1.0
102
RTVSPost2010PropOp52
 70
     0
102
RTVSPost2010Prop53
 90
        2
102
RTVSPost2010PropOp53
 70
     1
102
RTVSPost2010Prop54
  1
strokes_ogs.tif
102
RTVSPost2010PropOp54
 70
     1
102
RTVSPost2010Prop55
280
     0
102
RTVSPost2010PropOp55
 70
     1
102
RTVSPost2010Prop56
140
1.0
102
RTVSPost2010PropOp56
 70
     1
102
RTVSPost2010Prop57
140
1.0
102
RTVSPost2010PropOp57
 70
     1
  0
XRECORD
  5
3C9
102
{ACAD_REACTORS
330
3C8
102
}
330
3C8
100
AcDbXrecord
280
     1
102
RTVSPropertyOp0
 70
     1
102
RTVSPropertyOp1
 70
     1
102
RTVSPropertyOp2
 70
     1
102
RTVSPropertyOp3
 70
     1
102
RTVSPropertyOp4
 70
     1
102
RTVSPropertyOp5
 70
     1
102
RTVSPropertyOp6
 70
     1
102
RTVSPropertyOp7
 70
     1
102
RTVSPropertyOp8
 70
     1
102
RTVSPropertyOp9
 70
     1
102
RTVSPropertyOp10
 70
     1
102
RTVSPropertyOp11
 70
     1
102
RTVSPropertyOp12
 70
     1
102
RTVSPropertyOp13
 70
     1
102
RTVSPropertyOp14
 70
     1
102
RTVSPropertyOp15
 70
     1
102
RTVSPropertyOp16
 70
     1
102
RTVSPropertyOp17
 70
     1
102
RTVSPropertyOp18
 70
     1
102
RTVSPropertyOp19
 70
     1
102
RTVSPropertyOp20
 70
     1
102
RTVSPropertyOp21
 70
     1
102
RTVSPropertyOp22
 70
     1
102
RTVSPropertyOp23
 70
     1
102
RTVSPropertyOp24
 70
     1
102
RTVSPropertyOp25
 70
     1
102
RTVSPropertyOp26
 70
     1
102
RTVSPropertyOp27
 70
     1
102
RTVSPropertyOp28
 70
     1
102
RTVSPropertyOp29
 70
     1
102
RTVSPropertyOp30
 70
     1
102
RTVSPropertyOp31
 70
     1
102
RTVSPropertyOp32
 70
     1
102
RTVSPropertyOp33
 70
     1
102
RTVSPropertyOp34
 70
     1
102
RTVSPropertyOp35
 70
     1
102
RTVSPropertyOp36
 70
     1
102
RTVSPropertyOp37
 70
     1
102
RTVSPropertyOp38
 70
     1
102
RTVSPropertyOp39
 70
     1
102
RTVSPropertyOp40
 70
     1
102
RTVSPropertyOp41
 70
     1
102
RTVSPropertyOp42
 70
     1
102
RTVSPropertyOp43
 70
     1
102
RTVSPropertyOp44
 70
     1
102
RTVSPropertyOp45
 70
     1
102
RTVSPropertyOp46
 70
     1
102
RTVSPropertyOp47
 70
     1
102
RTVSPropertyOp48
 70
     1
102
RTVSPropertyOp49
 70
     1
102
RTVSPropertyOp50
 70
     1
102
RTVSPropertyOp51
 70
     0
102
RTVSPropertyOp52
 70
     0
102
RTVSPropertyOp53
 70
     1
102
RTVSPropertyOp54
 70
     1
102
RTVSPropertyOp55
 70
     1
102
RTVSPropertyOp56
 70
     1
102
RTVSPropertyOp57
 70
     1
102
RTVSPost2010Prop28
280
     0
102
RTVSPost2010PropOp28
 70
     1
102
RTVSPost2010Prop29
280
     1
102
RTVSPost2010PropOp29
 70
     1
102
RTVSPost2010Prop30
280
     1
102
RTVSPost2010PropOp30
 70
     1
102
RTVSPost2010Prop31
280
     0
102
RTVSPost2010PropOp31
 70
     1
102
RTVSPost2010Prop32
280
     0
102
RTVSPost2010PropOp32
 70
     1
102
RTVSPost2010Prop33
280
     0
102
RTVSPost2010PropOp33
 70
     1
102
RTVSPost2010Prop34
280
     0
102
RTVSPost2010PropOp34
 70
     1
102
RTVSPost2010Prop35
280
     0
102
RTVSPost2010PropOp35
 70
     1
102
RTVSPost2010Prop36
280
     0
102
RTVSPost2010PropOp36
 70
     1
102
RTVSPost2010Prop37
 90
       50
102
RTVSPost2010PropOp37
 70
     1
102
RTVSPost2010Prop38
140
0.0
102
RTVSPost2010PropOp38
 70
     1
102
RTVSPost2010Prop39
140
1.0
102
RTVSPost2010PropOp39
 70
     1
102
RTVSPost2010Prop40
 90
        0
102
RTVSPost2010PropOp40
 70
     1
102
RTVSPost2010Prop41ColorIndex
 90
       18
102
RTVSPost2010Prop41ColorRGB
 90
        0
102
RTVSPost2010PropOp41
 70
     1
102
RTVSPost2010Prop42
 90
       50
102
RTVSPost2010PropOp42
 70
     1
102
RTVSPost2010Prop43
 90
        3
102
RTVSPost2010PropOp43
 70
     1
102
RTVSPost2010Prop44ColorIndex
 90
        5
102
RTVSPost2010Prop44ColorRGB
 90
      255
102
RTVSPost2010PropOp44
 70
     1
102
RTVSPost2010Prop45
280
     0
102
RTVSPost2010PropOp45
 70
     1
102
RTVSPost2010Prop46
 90
       50
102
RTVSPost2010PropOp46
 70
     1
102
RTVSPost2010Prop47
 90
       50
102
RTVSPost2010PropOp47
 70
     1
102
RTVSPost2010Prop48
 90
       50
102
RTVSPost2010PropOp48
 70
     1
102
RTVSPost2010Prop49
280
     0
102
RTVSPost2010PropOp49
 70
     1
102
RTVSPost2010Prop50
 90
       50
102
RTVSPost2010PropOp50
 70
     1
102
RTVSPost2010Prop51ColorIndex
 90
      256
102
RTVSPost2010Prop51ColorRGB
 90
-16777216
102
RTVSPost2010PropOp51
 70
     0
102
RTVSPost2010Prop52
140
1.0
102
RTVSPost2010PropOp52
 70
     0
102
RTVSPost2010Prop53
 90
        2
102
RTVSPost2010PropOp53
 70
     1
102
RTVSPost2010Prop54
  1
strokes_ogs.tif
102
RTVSPost2010PropOp54
 70
     1
102
RTVSPost2010Prop55
280
     0
102
RTVSPost2010PropOp55
 70
     1
102
RTVSPost2010Prop56
140
1.0
102
RTVSPost2010PropOp56
 70
     1
102
RTVSPost2010Prop57
140
1.0
102
RTVSPost2010PropOp57
 70
     1
  0
XRECORD
  5
3BB
102
{ACAD_REACTORS
330
3BA
102
}
330
3BA
100
AcDbXrecord
280
     1
102
RTVSPropertyOp0
 70
     1
102
RTVSPropertyOp1
 70
     1
102
RTVSPropertyOp2
 70
     1
102
RTVSPropertyOp3
 70
     1
102
RTVSPropertyOp4
 70
     1
102
RTVSPropertyOp5
 70
     1
102
RTVSPropertyOp6
 70
     1
102
RTVSPropertyOp7
 70
     1
102
RTVSPropertyOp8
 70
     1
102
RTVSPropertyOp9
 70
     1
102
RTVSPropertyOp10
 70
     1
102
RTVSPropertyOp11
 70
     1
102
RTVSPropertyOp12
 70
     1
102
RTVSPropertyOp13
 70
     1
102
RTVSPropertyOp14
 70
     1
102
RTVSPropertyOp15
 70
     1
102
RTVSPropertyOp16
 70
     1
102
RTVSPropertyOp17
 70
     1
102
RTVSPropertyOp18
 70
     1
102
RTVSPropertyOp19
 70
     1
102
RTVSPropertyOp20
 70
     1
102
RTVSPropertyOp21
 70
     1
102
RTVSPropertyOp22
 70
     1
102
RTVSPropertyOp23
 70
     1
102
RTVSPropertyOp24
 70
     1
102
RTVSPropertyOp25
 70
     1
102
RTVSPropertyOp26
 70
     1
102
RTVSPropertyOp27
 70
     1
102
RTVSPropertyOp28
 70
     1
102
RTVSPropertyOp29
 70
     1
102
RTVSPropertyOp30
 70
     1
102
RTVSPropertyOp31
 70
     1
102
RTVSPropertyOp32
 70
     1
102
RTVSPropertyOp33
 70
     1
102
RTVSPropertyOp34
 70
     1
102
RTVSPropertyOp35
 70
     1
102
RTVSPropertyOp36
 70
     1
102
RTVSPropertyOp37
 70
     1
102
RTVSPropertyOp38
 70
     1
102
RTVSPropertyOp39
 70
     1
102
RTVSPropertyOp40
 70
     1
102
RTVSPropertyOp41
 70
     1
102
RTVSPropertyOp42
 70
     1
102
RTVSPropertyOp43
 70
     1
102
RTVSPropertyOp44
 70
     1
102
RTVSPropertyOp45
 70
     1
102
RTVSPropertyOp46
 70
     1
102
RTVSPropertyOp47
 70
     1
102
RTVSPropertyOp48
 70
     1
102
RTVSPropertyOp49
 70
     1
102
RTVSPropertyOp50
 70
     1
102
RTVSPropertyOp51
 70
     0
102
RTVSPropertyOp52
 70
     0
102
RTVSPropertyOp53
 70
     1
102
RTVSPropertyOp54
 70
     1
102
RTVSPropertyOp55
 70
     1
102
RTVSPropertyOp56
 70
     1
102
RTVSPropertyOp57
 70
     1
102
RTVSPost2010Prop28
280
     0
102
RTVSPost2010PropOp28
 70
     1
102
RTVSPost2010Prop29
280
     1
102
RTVSPost2010PropOp29
 70
     1
102
RTVSPost2010Prop30
280
     1
102
RTVSPost2010PropOp30
 70
     1
102
RTVSPost2010Prop31
280
     0
102
RTVSPost2010PropOp31
 70
     1
102
RTVSPost2010Prop32
280
     0
102
RTVSPost2010PropOp32
 70
     1
102
RTVSPost2010Prop33
280
     0
102
RTVSPost2010PropOp33
 70
     1
102
RTVSPost2010Prop34
280
     0
102
RTVSPost2010PropOp34
 70
     1
102
RTVSPost2010Prop35
280
     0
102
RTVSPost2010PropOp35
 70
     1
102
RTVSPost2010Prop36
280
     0
102
RTVSPost2010PropOp36
 70
     1
102
RTVSPost2010Prop37
 90
       50
102
RTVSPost2010PropOp37
 70
     1
102
RTVSPost2010Prop38
140
0.0
102
RTVSPost2010PropOp38
 70
     1
102
RTVSPost2010Prop39
140
1.0
102
RTVSPost2010PropOp39
 70
     1
102
RTVSPost2010Prop40
 90
        0
102
RTVSPost2010PropOp40
 70
     1
102
RTVSPost2010Prop41ColorIndex
 90
       18
102
RTVSPost2010Prop41ColorRGB
 90
        0
102
RTVSPost2010PropOp41
 70
     1
102
RTVSPost2010Prop42
 90
       50
102
RTVSPost2010PropOp42
 70
     1
102
RTVSPost2010Prop43
 90
        3
102
RTVSPost2010PropOp43
 70
     1
102
RTVSPost2010Prop44ColorIndex
 90
        5
102
RTVSPost2010Prop44ColorRGB
 90
      255
102
RTVSPost2010PropOp44
 70
     1
102
RTVSPost2010Prop45
280
     0
102
RTVSPost2010PropOp45
 70
     1
102
RTVSPost2010Prop46
 90
       50
102
RTVSPost2010PropOp46
 70
     1
102
RTVSPost2010Prop47
 90
       50
102
RTVSPost2010PropOp47
 70
     1
102
RTVSPost2010Prop48
 90
       50
102
RTVSPost2010PropOp48
 70
     1
102
RTVSPost2010Prop49
280
     0
102
RTVSPost2010PropOp49
 70
     1
102
RTVSPost2010Prop50
 90
       50
102
RTVSPost2010PropOp50
 70
     1
102
RTVSPost2010Prop51ColorIndex
 90
      256
102
RTVSPost2010Prop51ColorRGB
 90
-16777216
102
RTVSPost2010PropOp51
 70
     0
102
RTVSPost2010Prop52
140
1.0
102
RTVSPost2010PropOp52
 70
     0
102
RTVSPost2010Prop53
 90
        2
102
RTVSPost2010PropOp53
 70
     1
102
RTVSPost2010Prop54
  1
strokes_ogs.tif
102
RTVSPost2010PropOp54
 70
     1
102
RTVSPost2010Prop55
280
     0
102
RTVSPost2010PropOp55
 70
     1
102
RTVSPost2010Prop56
140
1.0
102
RTVSPost2010PropOp56
 70
     1
102
RTVSPost2010Prop57
140
1.0
102
RTVSPost2010PropOp57
 70
     1
  0
XRECORD
  5
3DB
102
{ACAD_REACTORS
330
3DA
102
}
330
3DA
100
AcDbXrecord
280
     1
102
RTVSPropertyOp0
 70
     1
102
RTVSPropertyOp1
 70
     1
102
RTVSPropertyOp2
 70
     1
102
RTVSPropertyOp3
 70
     1
102
RTVSPropertyOp4
 70
     1
102
RTVSPropertyOp5
 70
     1
102
RTVSPropertyOp6
 70
     1
102
RTVSPropertyOp7
 70
     1
102
RTVSPropertyOp8
 70
     1
102
RTVSPropertyOp9
 70
     1
102
RTVSPropertyOp10
 70
     1
102
RTVSPropertyOp11
 70
     1
102
RTVSPropertyOp12
 70
     1
102
RTVSPropertyOp13
 70
     1
102
RTVSPropertyOp14
 70
     1
102
RTVSPropertyOp15
 70
     1
102
RTVSPropertyOp16
 70
     1
102
RTVSPropertyOp17
 70
     1
102
RTVSPropertyOp18
 70
     1
102
RTVSPropertyOp19
 70
     1
102
RTVSPropertyOp20
 70
     1
102
RTVSPropertyOp21
 70
     1
102
RTVSPropertyOp22
 70
     1
102
RTVSPropertyOp23
 70
     1
102
RTVSPropertyOp24
 70
     1
102
RTVSPropertyOp25
 70
     1
102
RTVSPropertyOp26
 70
     1
102
RTVSPropertyOp27
 70
     1
102
RTVSPropertyOp28
 70
     1
102
RTVSPropertyOp29
 70
     1
102
RTVSPropertyOp30
 70
     1
102
RTVSPropertyOp31
 70
     1
102
RTVSPropertyOp32
 70
     1
102
RTVSPropertyOp33
 70
     1
102
RTVSPropertyOp34
 70
     1
102
RTVSPropertyOp35
 70
     1
102
RTVSPropertyOp36
 70
     1
102
RTVSPropertyOp37
 70
     1
102
RTVSPropertyOp38
 70
     1
102
RTVSPropertyOp39
 70
     1
102
RTVSPropertyOp40
 70
     1
102
RTVSPropertyOp41
 70
     1
102
RTVSPropertyOp42
 70
     1
102
RTVSPropertyOp43
 70
     1
102
RTVSPropertyOp44
 70
     1
102
RTVSPropertyOp45
 70
     1
102
RTVSPropertyOp46
 70
     1
102
RTVSPropertyOp47
 70
     1
102
RTVSPropertyOp48
 70
     1
102
RTVSPropertyOp49
 70
     1
102
RTVSPropertyOp50
 70
     1
102
RTVSPropertyOp51
 70
     0
102
RTVSPropertyOp52
 70
     0
102
RTVSPropertyOp53
 70
     1
102
RTVSPropertyOp54
 70
     1
102
RTVSPropertyOp55
 70
     1
102
RTVSPropertyOp56
 70
     1
102
RTVSPropertyOp57
 70
     1
102
RTVSPost2010Prop28
280
     0
102
RTVSPost2010PropOp28
 70
     1
102
RTVSPost2010Prop29
280
     1
102
RTVSPost2010PropOp29
 70
     1
102
RTVSPost2010Prop30
280
     1
102
RTVSPost2010PropOp30
 70
     1
102
RTVSPost2010Prop31
280
     0
102
RTVSPost2010PropOp31
 70
     1
102
RTVSPost2010Prop32
280
     0
102
RTVSPost2010PropOp32
 70
     1
102
RTVSPost2010Prop33
280
     0
102
RTVSPost2010PropOp33
 70
     1
102
RTVSPost2010Prop34
280
     0
102
RTVSPost2010PropOp34
 70
     1
102
RTVSPost2010Prop35
280
     0
102
RTVSPost2010PropOp35
 70
     1
102
RTVSPost2010Prop36
280
     0
102
RTVSPost2010PropOp36
 70
     1
102
RTVSPost2010Prop37
 90
       50
102
RTVSPost2010PropOp37
 70
     1
102
RTVSPost2010Prop38
140
0.0
102
RTVSPost2010PropOp38
 70
     1
102
RTVSPost2010Prop39
140
1.0
102
RTVSPost2010PropOp39
 70
     1
102
RTVSPost2010Prop40
 90
        0
102
RTVSPost2010PropOp40
 70
     1
102
RTVSPost2010Prop41ColorIndex
 90
       18
102
RTVSPost2010Prop41ColorRGB
 90
        0
102
RTVSPost2010PropOp41
 70
     1
102
RTVSPost2010Prop42
 90
       50
102
RTVSPost2010PropOp42
 70
     1
102
RTVSPost2010Prop43
 90
        3
102
RTVSPost2010PropOp43
 70
     1
102
RTVSPost2010Prop44ColorIndex
 90
        5
102
RTVSPost2010Prop44ColorRGB
 90
      255
102
RTVSPost2010PropOp44
 70
     1
102
RTVSPost2010Prop45
280
     0
102
RTVSPost2010PropOp45
 70
     1
102
RTVSPost2010Prop46
 90
       50
102
RTVSPost2010PropOp46
 70
     1
102
RTVSPost2010Prop47
 90
       50
102
RTVSPost2010PropOp47
 70
     1
102
RTVSPost2010Prop48
 90
       50
102
RTVSPost2010PropOp48
 70
     1
102
RTVSPost2010Prop49
280
     0
102
RTVSPost2010PropOp49
 70
     1
102
RTVSPost2010Prop50
 90
       50
102
RTVSPost2010PropOp50
 70
     1
102
RTVSPost2010Prop51ColorIndex
 90
      256
102
RTVSPost2010Prop51ColorRGB
 90
-16777216
102
RTVSPost2010PropOp51
 70
     0
102
RTVSPost2010Prop52
140
1.0
102
RTVSPost2010PropOp52
 70
     0
102
RTVSPost2010Prop53
 90
        2
102
RTVSPost2010PropOp53
 70
     1
102
RTVSPost2010Prop54
  1
strokes_ogs.tif
102
RTVSPost2010PropOp54
 70
     1
102
RTVSPost2010Prop55
280
     0
102
RTVSPost2010PropOp55
 70
     1
102
RTVSPost2010Prop56
140
1.0
102
RTVSPost2010PropOp56
 70
     1
102
RTVSPost2010Prop57
140
1.0
102
RTVSPost2010PropOp57
 70
     1
  0
ENDSEC
  0
EOF
