  0
SECTION
  2
HEADER
  9
$ACADVER
  1
AC1015
  9
$ACADMAINTVER
 70
     6
  9
$DWGCODEPAGE
  3
ANSI_1252
  9
$INSBASE
 10
0.0
 20
0.0
 30
0.0
  9
$EXTMIN
 10
0.0
 20
0.0
 30
0.0
  9
$EXTMAX
 10
297.0
 20
210.0
 30
0.0
  9
$LIMMIN
 10
0.0
 20
0.0
  9
$LIMMAX
 10
297.0
 20
210.0
  9
$ORTHOMODE
 70
     0
  9
$REGENMODE
 70
     1
  9
$FILLMODE
 70
     1
  9
$QTEXTMODE
 70
     0
  9
$MIRRTEXT
 70
     1
  9
$LTSCALE
 40
1.0
  9
$ATTMODE
 70
     1
  9
$TEXTSIZE
 40
2.0
  9
$TRACEWID
 40
1.0
  9
$TEXTSTYLE
  7
Standard
  9
$CLAYER
  8
0
  9
$CELTYPE
  6
ByLayer
  9
$CECOLOR
 62
   256
  9
$CELTSCALE
 40
1.0
  9
$DISPSILH
 70
     0
  9
$DIMSCALE
 40
1.0
  9
$DIMASZ
 40
2.5
  9
$DIMEXO
 40
0.625
  9
$DIMDLI
 40
3.75
  9
$DIMRND
 40
0.0
  9
$DIMDLE
 40
0.0
  9
$DIMEXE
 40
1.25
  9
$DIMTP
 40
0.0
  9
$DIMTM
 40
0.0
  9
$DIMTXT
 40
2.5
  9
$DIMCEN
 40
2.5
  9
$DIMTSZ
 40
0.0
  9
$DIMTOL
 70
     0
  9
$DIMLIM
 70
     0
  9
$DIMTIH
 70
     0
  9
$DIMTOH
 70
     0
  9
$DIMSE1
 70
     0
  9
$DIMSE2
 70
     0
  9
$DIMTAD
 70
     1
  9
$DIMZIN
 70
     8
  9
$DIMBLK
  1

  9
$DIMASO
 70
     1
  9
$DIMSHO
 70
     1
  9
$DIMPOST
  1

  9
$DIMAPOST
  1

  9
$DIMALT
 70
     0
  9
$DIMALTD
 70
     3
  9
$DIMALTF
 40
0.03937007874016
  9
$DIMLFAC
 40
1.0
  9
$DIMTOFL
 70
     1
  9
$DIMTVP
 40
0.0
  9
$DIMTIX
 70
     0
  9
$DIMSOXD
 70
     0
  9
$DIMSAH
 70
     0
  9
$DIMBLK1
  1

  9
$DIMBLK2
  1

  9
$DIMSTYLE
  2
ISO-25
  9
$DIMCLRD
 70
     0
  9
$DIMCLRE
 70
     0
  9
$DIMCLRT
 70
     0
  9
$DIMTFAC
 40
1.0
  9
$DIMGAP
 40
0.625
  9
$DIMJUST
 70
     0
  9
$DIMSD1
 70
     0
  9
$DIMSD2
 70
     0
  9
$DIMTOLJ
 70
     0
  9
$DIMTZIN
 70
     8
  9
$DIMALTZ
 70
     0
  9
$DIMALTTZ
 70
     0
  9
$DIMUPT
 70
     0
  9
$DIMDEC
 70
     2
  9
$DIMTDEC
 70
     2
  9
$DIMALTU
 70
     2
  9
$DIMALTTD
 70
     3
  9
$DIMTXSTY
  7
Standard
  9
$DIMAUNIT
 70
     0
  9
$DIMADEC
 70
     0
  9
$DIMALTRND
 40
0.0
  9
$DIMAZIN
 70
     0
  9
$DIMDSEP
 70
    44
  9
$DIMATFIT
 70
     3
  9
$DIMFRAC
 70
     0
  9
$DIMLDRBLK
  1

  9
$DIMLUNIT
 70
     2
  9
$DIMLWD
 70
    -2
  9
$DIMLWE
 70
    -2
  9
$DIMTMOVE
 70
     0
  9
$LUNITS
 70
     2
  9
$LUPREC
 70
     4
  9
$SKETCHINC
 40
1.0
  9
$FILLETRAD
 40
10.0
  9
$AUNITS
 70
     0
  9
$AUPREC
 70
     0
  9
$MENU
  1
.
  9
$ELEVATION
 40
0.0
  9
$PELEVATION
 40
0.0
  9
$THICKNESS
 40
0.0
  9
$LIMCHECK
 70
     0
  9
$CHAMFERA
 40
0.0
  9
$CHAMFERB
 40
0.0
  9
$CHAMFERC
 40
0.0
  9
$CHAMFERD
 40
0.0
  9
$SKPOLY
 70
     0
  9
$TDCREATE
 40
2459381.465781922
  9
$TDUCREATE
 40
2459381.424115255
  9
$TDUPDATE
 40
2460396.621602326
  9
$TDUUPDATE
 40
2460396.57993566
  9
$TDINDWG
 40
0.0000000116
  9
$TDUSRTIMER
 40
0.0000000116
  9
$USRTIMER
 70
     1
  9
$ANGBASE
 50
0.0
  9
$ANGDIR
 70
     0
  9
$PDMODE
 70
     0
  9
$PDSIZE
 40
0.0
  9
$PLINEWID
 40
0.0
  9
$SPLFRAME
 70
     0
  9
$SPLINETYPE
 70
     6
  9
$SPLINESEGS
 70
     8
  9
$HANDSEED
  5
2E1
  9
$SURFTAB1
 70
     6
  9
$SURFTAB2
 70
     6
  9
$SURFTYPE
 70
     6
  9
$SURFU
 70
     6
  9
$SURFV
 70
     6
  9
$UCSBASE
  2

  9
$UCSNAME
  2

  9
$UCSORG
 10
0.0
 20
0.0
 30
0.0
  9
$UCSXDIR
 10
1.0
 20
0.0
 30
0.0
  9
$UCSYDIR
 10
0.0
 20
1.0
 30
0.0
  9
$UCSORTHOREF
  2

  9
$UCSORTHOVIEW
 70
     0
  9
$UCSORGTOP
 10
0.0
 20
0.0
 30
0.0
  9
$UCSORGBOTTOM
 10
0.0
 20
0.0
 30
0.0
  9
$UCSORGLEFT
 10
0.0
 20
0.0
 30
0.0
  9
$UCSORGRIGHT
 10
0.0
 20
0.0
 30
0.0
  9
$UCSORGFRONT
 10
0.0
 20
0.0
 30
0.0
  9
$UCSORGBACK
 10
0.0
 20
0.0
 30
0.0
  9
$PUCSBASE
  2

  9
$PUCSNAME
  2

  9
$PUCSORG
 10
0.0
 20
0.0
 30
0.0
  9
$PUCSXDIR
 10
1.0
 20
0.0
 30
0.0
  9
$PUCSYDIR
 10
0.0
 20
1.0
 30
0.0
  9
$PUCSORTHOREF
  2

  9
$PUCSORTHOVIEW
 70
     0
  9
$PUCSORGTOP
 10
0.0
 20
0.0
 30
0.0
  9
$PUCSORGBOTTOM
 10
0.0
 20
0.0
 30
0.0
  9
$PUCSORGLEFT
 10
0.0
 20
0.0
 30
0.0
  9
$PUCSORGRIGHT
 10
0.0
 20
0.0
 30
0.0
  9
$PUCSORGFRONT
 10
0.0
 20
0.0
 30
0.0
  9
$PUCSORGBACK
 10
0.0
 20
0.0
 30
0.0
  9
$USERI1
 70
     0
  9
$USERI2
 70
     0
  9
$USERI3
 70
     0
  9
$USERI4
 70
     0
  9
$USERI5
 70
     0
  9
$USERR1
 40
0.0
  9
$USERR2
 40
0.0
  9
$USERR3
 40
0.0
  9
$USERR4
 40
0.0
  9
$USERR5
 40
0.0
  9
$WORLDVIEW
 70
     1
  9
$SHADEDGE
 70
     3
  9
$SHADEDIF
 70
    70
  9
$TILEMODE
 70
     1
  9
$MAXACTVP
 70
    64
  9
$PINSBASE
 10
0.0
 20
0.0
 30
0.0
  9
$PLIMCHECK
 70
     0
  9
$PEXTMIN
 10
0.0
 20
0.0
 30
0.0
  9
$PEXTMAX
 10
297.0
 20
210.0
 30
0.0
  9
$PLIMMIN
 10
0.0
 20
0.0
  9
$PLIMMAX
 10
297.0
 20
210.0
  9
$UNITMODE
 70
     0
  9
$VISRETAIN
 70
     1
  9
$PLINEGEN
 70
     0
  9
$PSLTSCALE
 70
     1
  9
$TREEDEPTH
 70
  3020
  9
$CMLSTYLE
  2
Standard
  9
$CMLJUST
 70
     0
  9
$CMLSCALE
 40
20.0
  9
$PROXYGRAPHICS
 70
     1
  9
$MEASUREMENT
 70
     1
  9
$CELWEIGHT
370
    -1
  9
$ENDCAPS
280
     0
  9
$JOINSTYLE
280
     0
  9
$LWDISPLAY
290
     0
  9
$INSUNITS
 70
     4
  9
$HYPERLINKBASE
  1

  9
$STYLESHEET
  1

  9
$XEDIT
290
     1
  9
$CEPSNTYPE
380
     0
  9
$PSTYLEMODE
290
     1
  9
$FINGERPRINTGUID
  2
{273742EA-2D5F-4FF5-A1F1-06D3EEA81606}
  9
$VERSIONGUID
  2
{FAEB1C32-E019-11D5-929B-00C0DF256EC4}
  9
$EXTNAMES
290
     1
  9
$PSVPSCALE
 40
0.0
  9
$OLESTARTUP
290
     0
  0
ENDSEC
  0
SECTION
  2
CLASSES
  0
CLASS
  1
ACDBDICTIONARYWDFLT
  2
AcDbDictionaryWithDefault
  3
ObjectDBX Classes
 90
        0
280
     0
281
     0
  0
CLASS
  1
VISUALSTYLE
  2
AcDbVisualStyle
  3
ObjectDBX Classes
 90
     4095
280
     0
281
     0
  0
CLASS
  1
MATERIAL
  2
AcDbMaterial
  3
ObjectDBX Classes
 90
     1153
280
     0
281
     0
  0
CLASS
  1
SCALE
  2
AcDbScale
  3
ObjectDBX Classes
 90
     1153
280
     0
281
     0
  0
CLASS
  1
TABLESTYLE
  2
AcDbTableStyle
  3
ObjectDBX Classes
 90
     4095
280
     0
281
     0
  0
CLASS
  1
MLEADERSTYLE
  2
AcDbMLeaderStyle
  3
ACDB_MLEADERSTYLE_CLASS
 90
     4095
280
     0
281
     0
  0
CLASS
  1
SUN
  2
AcDbSun
  3
SCENEOE
 90
     1153
280
     0
281
     0
  0
CLASS
  1
DICTIONARYVAR
  2
AcDbDictionaryVar
  3
ObjectDBX Classes
 90
        0
280
     0
281
     0
  0
CLASS
  1
CELLSTYLEMAP
  2
AcDbCellStyleMap
  3
ObjectDBX Classes
 90
     1152
280
     0
281
     0
  0
CLASS
  1
ACDBPLACEHOLDER
  2
AcDbPlaceHolder
  3
ObjectDBX Classes
 90
        0
280
     0
281
     0
  0
CLASS
  1
LAYOUT
  2
AcDbLayout
  3
ObjectDBX Classes
 90
        0
280
     0
281
     0
  0
ENDSEC
  0
SECTION
  2
TABLES
  0
TABLE
  2
VPORT
  5
8
102
{ACAD_XDICTIONARY
360
2A5
102
}
330
0
100
AcDbSymbolTable
 70
     1
  0
VPORT
  5
29
330
8
100
AcDbSymbolTableRecord
100
AcDbViewportTableRecord
  2
*Active
 70
     0
 10
0.0
 20
0.0
 11
1.0
 21
1.0
 12
344.1869158878504
 22
148.5
 13
0.0
 23
0.0
 14
10.0
 24
10.0
 15
10.0
 25
10.0
 16
0.0
 26
0.0
 36
1.0
 17
0.0
 27
0.0
 37
0.0
 40
297.0
 41
1.972972972850329
 42
50.0
 43
0.0
 44
0.0
 50
0.0
 51
0.0
 71
     0
 72
   100
 73
     1
 74
     3
 75
     0
 76
     0
 77
     0
 78
     0
281
     0
 65
     1
110
0.0
120
0.0
130
0.0
111
1.0
121
0.0
131
0.0
112
0.0
122
1.0
132
0.0
 79
     0
146
0.0
  0
ENDTAB
  0
TABLE
  2
LTYPE
  5
5
330
0
100
AcDbSymbolTable
 70
     1
  0
LTYPE
  5
14
330
5
100
AcDbSymbolTableRecord
100
AcDbLinetypeTableRecord
  2
ByBlock
 70
     0
  3

 72
    65
 73
     0
 40
0.0
  0
LTYPE
  5
15
330
5
100
AcDbSymbolTableRecord
100
AcDbLinetypeTableRecord
  2
ByLayer
 70
     0
  3

 72
    65
 73
     0
 40
0.0
  0
LTYPE
  5
16
330
5
100
AcDbSymbolTableRecord
100
AcDbLinetypeTableRecord
  2
Continuous
 70
     0
  3
Solid line
 72
    65
 73
     0
 40
0.0
  0
ENDTAB
  0
TABLE
  2
LAYER
  5
2
330
0
100
AcDbSymbolTable
 70
     8
  0
LAYER
  5
10
330
2
100
AcDbSymbolTableRecord
100
AcDbLayerTableRecord
  2
0
 70
     0
 62
     7
  6
Continuous
370
    -3
390
F
  0
LAYER
  5
6E
330
2
100
AcDbSymbolTableRecord
100
AcDbLayerTableRecord
  2
Default
 70
     0
 62
     7
  6
Continuous
370
    -3
390
F
  0
LAYER
  5
71
330
2
100
AcDbSymbolTableRecord
100
AcDbLayerTableRecord
  2
DV1_0
 70
     0
 62
     7
  6
Continuous
370
    -3
390
F
  0
LAYER
  5
E7
330
2
100
AcDbSymbolTableRecord
100
AcDbLayerTableRecord
  2
DV2_0
 70
     0
 62
     7
  6
Continuous
370
    -3
390
F
  0
LAYER
  5
147
330
2
100
AcDbSymbolTableRecord
100
AcDbLayerTableRecord
  2
DV3_0
 70
     0
 62
     7
  6
Continuous
370
    -3
390
F
  0
LAYER
  5
194
330
2
100
AcDbSymbolTableRecord
100
AcDbLayerTableRecord
  2
DV4_0
 70
     0
 62
     7
  6
Continuous
370
    -3
390
F
  0
LAYER
  5
23F
330
2
100
AcDbSymbolTableRecord
100
AcDbLayerTableRecord
  2
Predeterminado
 70
     0
 62
     7
  6
Continuous
370
    -3
390
F
  0
LAYER
  5
25A
330
2
100
AcDbSymbolTableRecord
100
AcDbLayerTableRecord
  2
D
 70
     0
 62
     7
  6
Continuous
370
    -3
390
F
  0
ENDTAB
  0
TABLE
  2
STYLE
  5
3
330
0
100
AcDbSymbolTable
 70
     4
  0
STYLE
  5
11
330
3
100
AcDbSymbolTableRecord
100
AcDbTextStyleTableRecord
  2
Standard
 70
     0
 40
0.0
 41
1.0
 50
0.0
 71
     0
 42
2.0
  3
txt
  4

  0
STYLE
  5
170
330
3
100
AcDbSymbolTableRecord
100
AcDbTextStyleTableRecord
  2
SEACAD_Solid_Edge_ANSI
 70
     0
 40
0.0
 41
1.0
 50
0.0
 71
     0
 42
2.5
  3
seans.ttf
  4

1001
ACAD
1000
Solid Edge ANSI
1071
        0
  0
STYLE
  5
29C
330
3
100
AcDbSymbolTableRecord
100
AcDbTextStyleTableRecord
  2
MtXpl_Arial
 70
     0
 40
0.2
 41
1.0
 50
0.0
 71
     0
 42
2.0
  3
arialbd.ttf
  4

1001
ACAD
1000
Arial
1071
 33554466
  0
STYLE
  5
29D
330
3
100
AcDbSymbolTableRecord
100
AcDbTextStyleTableRecord
  2
MtXpl_Arial1
 70
     0
 40
0.2
 41
1.0
 50
0.0
 71
     0
 42
2.0
  3

  4

1001
ACAD
1000
Arial
1071
       34
  0
ENDTAB
  0
TABLE
  2
VIEW
  5
6
330
0
100
AcDbSymbolTable
 70
     0
  0
ENDTAB
  0
TABLE
  2
UCS
  5
7
330
0
100
AcDbSymbolTable
 70
     0
  0
ENDTAB
  0
TABLE
  2
APPID
  5
9
330
0
100
AcDbSymbolTable
 70
     2
  0
APPID
  5
12
330
9
100
AcDbSymbolTableRecord
100
AcDbRegAppTableRecord
  2
ACAD
 70
     0
  0
APPID
  5
293
330
9
100
AcDbSymbolTableRecord
100
AcDbRegAppTableRecord
  2
ACAD_MLEADERVER
 70
     0
  0
ENDTAB
  0
TABLE
  2
DIMSTYLE
  5
A
330
0
100
AcDbSymbolTable
 70
     1
100
AcDbDimStyleTable
  0
DIMSTYLE
105
27
330
A
100
AcDbSymbolTableRecord
100
AcDbDimStyleTableRecord
  2
ISO-25
 70
     0
 41
2.5
 42
0.625
 43
3.75
 44
1.25
 73
     0
 74
     0
 77
     1
 78
     8
140
2.5
141
2.5
143
0.03937007874016
147
0.625
171
     3
172
     1
178
     0
271
     2
272
     2
274
     3
278
    44
283
     0
284
     8
340
11
  0
ENDTAB
  0
TABLE
  2
BLOCK_RECORD
  5
1
330
0
100
AcDbSymbolTable
 70
    11
  0
BLOCK_RECORD
  5
1F
330
1
100
AcDbSymbolTableRecord
100
AcDbBlockTableRecord
  2
*Model_Space
340
22
  0
BLOCK_RECORD
  5
1B
330
1
100
AcDbSymbolTableRecord
100
AcDbBlockTableRecord
  2
*Paper_Space
340
1E
  0
BLOCK_RECORD
  5
6F
330
1
100
AcDbSymbolTableRecord
100
AcDbBlockTableRecord
  2
SE
340
0
102
{BLKREFS
331
70
102
}
  0
BLOCK_RECORD
  5
E5
330
1
100
AcDbSymbolTableRecord
100
AcDbBlockTableRecord
  2
SE1
340
0
102
{BLKREFS
331
E6
102
}
  0
BLOCK_RECORD
  5
145
330
1
100
AcDbSymbolTableRecord
100
AcDbBlockTableRecord
  2
SE2
340
0
102
{BLKREFS
331
146
102
}
  0
BLOCK_RECORD
  5
169
330
1
100
AcDbSymbolTableRecord
100
AcDbBlockTableRecord
  2
GDimGGroup
340
0
102
{BLKREFS
331
16A
102
}
  0
BLOCK_RECORD
  5
174
330
1
100
AcDbSymbolTableRecord
100
AcDbBlockTableRecord
  2
GDimGGroup1
340
0
102
{BLKREFS
331
175
102
}
  0
BLOCK_RECORD
  5
17E
330
1
100
AcDbSymbolTableRecord
100
AcDbBlockTableRecord
  2
GDimGGroup2
340
0
102
{BLKREFS
331
17F
102
}
  0
BLOCK_RECORD
  5
188
330
1
100
AcDbSymbolTableRecord
100
AcDbBlockTableRecord
  2
GDimGGroup3
340
0
102
{BLKREFS
331
189
102
}
  0
BLOCK_RECORD
  5
192
330
1
100
AcDbSymbolTableRecord
100
AcDbBlockTableRecord
  2
SE3
340
0
102
{BLKREFS
331
193
102
}
  0
BLOCK_RECORD
  5
246
330
1
100
AcDbSymbolTableRecord
100
AcDbBlockTableRecord
  2
SEANNOT_GROUP
340
0
102
{BLKREFS
331
247
102
}
  0
BLOCK_RECORD
  5
250
330
1
100
AcDbSymbolTableRecord
100
AcDbBlockTableRecord
  2
SEANNOT_GROUP1
340
0
102
{BLKREFS
331
251
102
}
  0
BLOCK_RECORD
  5
255
330
1
100
AcDbSymbolTableRecord
100
AcDbBlockTableRecord
  2
SEANNOT_GROUP2
340
0
102
{BLKREFS
331
256
102
}
  0
ENDTAB
  0
ENDSEC
  0
SECTION
  2
BLOCKS
  0
BLOCK
  5
20
330
1F
100
AcDbEntity
  8
0
100
AcDbBlockBegin
  2
*Model_Space
 70
     0
 10
0.0
 20
0.0
 30
0.0
  3
*Model_Space
  1

  0
ENDBLK
  5
21
330
1F
100
AcDbEntity
  8
0
100
AcDbBlockEnd
  0
BLOCK
  5
1C
330
1B
100
AcDbEntity
 67
     1
  8
0
100
AcDbBlockBegin
  2
*Paper_Space
 70
     0
 10
0.0
 20
0.0
 30
0.0
  3
*Paper_Space
  1

  0
ENDBLK
  5
1D
330
1B
100
AcDbEntity
 67
     1
  8
0
100
AcDbBlockEnd
  0
BLOCK
  5
E3
330
6F
100
AcDbEntity
  8
0
100
AcDbBlockBegin
  2
SE
 70
     0
 10
0.0
 20
0.0
 30
0.0
  3
SE
  1

  0
LINE
  5
72
330
6F
100
AcDbEntity
  8
DV1_0
 62
     7
370
    35
100
AcDbLine
 10
121.7436354167038
 20
129.3242013077071
 30
0.0
 11
121.7436354167038
 21
129.0242013077071
 31
0.0
  0
LINE
  5
73
330
6F
100
AcDbEntity
  8
DV1_0
 62
     7
370
    35
100
AcDbLine
 10
121.7436354167038
 20
129.0242013077071
 30
0.0
 11
126.3936354167038
 21
129.0242013077071
 31
0.0
  0
LINE
  5
74
330
6F
100
AcDbEntity
  8
DV1_0
 62
     7
370
    35
100
AcDbLine
 10
126.7436354167038
 20
129.3742013077071
 30
0.0
 11
126.7436354167038
 21
142.1742013077071
 31
0.0
  0
ARC
  5
75
330
6F
100
AcDbEntity
  8
DV1_0
 62
     7
370
    35
100
AcDbCircle
 10
126.7936354167038
 20
142.1742013077071
 30
0.0
 40
0.0500000000000001
100
AcDbArc
 50
90.0
 51
180.0
  0
LINE
  5
76
330
6F
100
AcDbEntity
  8
DV1_0
 62
     7
370
    35
100
AcDbLine
 10
126.7936354167038
 20
142.2242013077071
 30
0.0
 11
129.2001710798129
 21
142.2242013077071
 31
0.0
  0
ARC
  5
77
330
6F
100
AcDbEntity
  8
DV1_0
 62
     7
370
    35
100
AcDbCircle
 10
129.200171079813
 20
142.1742013077071
 30
0.0
 40
0.0500000000000001
100
AcDbArc
 50
7.99999999997326
 51
90.0
  0
LINE
  5
78
330
6F
100
AcDbEntity
  8
DV1_0
 62
     7
370
    35
100
AcDbLine
 10
129.24968448325
 20
142.1811599627551
 30
0.0
 11
133.965626247291
 21
108.6254907223711
 31
0.0
  0
ARC
  5
79
330
6F
100
AcDbEntity
  8
DV1_0
 62
     7
370
    35
100
AcDbCircle
 10
134.3122200713505
 20
108.6742013077071
 30
0.0
 40
0.3499999999999975
100
AcDbArc
 50
187.9999999999982
 51
270.0
  0
LINE
  5
7A
330
6F
100
AcDbEntity
  8
DV1_0
 62
     7
370
    35
100
AcDbLine
 10
134.3122200713505
 20
108.3242013077071
 30
0.0
 11
136.4437197131148
 21
108.3242013077071
 31
0.0
  0
LINE
  5
7B
330
6F
100
AcDbEntity
  8
DV1_0
 62
     7
370
    35
100
AcDbLine
 10
121.7436354167038
 20
129.3242013077071
 30
0.0
 11
126.3936354167038
 21
129.3242013077071
 31
0.0
  0
LINE
  5
7C
330
6F
100
AcDbEntity
  8
DV1_0
 62
     7
370
    35
100
AcDbLine
 10
126.4436354167038
 20
129.3742013077071
 30
0.0
 11
126.4436354167038
 21
142.1742013077071
 31
0.0
  0
ARC
  5
7D
330
6F
100
AcDbEntity
  8
DV1_0
 62
     7
370
    35
100
AcDbCircle
 10
126.7936354167038
 20
142.1742013077071
 30
0.0
 40
0.3500000000000004
100
AcDbArc
 50
90.0
 51
180.0
  0
LINE
  5
7E
330
6F
100
AcDbEntity
  8
DV1_0
 62
     7
370
    35
100
AcDbLine
 10
126.7936354167038
 20
142.5242013077071
 30
0.0
 11
129.2001710798129
 21
142.5242013077071
 31
0.0
  0
ARC
  5
7F
330
6F
100
AcDbEntity
  8
DV1_0
 62
     7
370
    35
100
AcDbCircle
 10
129.200171079813
 20
142.1742013077071
 30
0.0
 40
0.3500000000000004
100
AcDbArc
 50
8.000000000002848
 51
90.0
  0
LINE
  5
80
330
6F
100
AcDbEntity
  8
DV1_0
 62
     7
370
    35
100
AcDbLine
 10
129.5467649038725
 20
142.2229118930432
 30
0.0
 11
134.2627066679134
 21
108.6672426526592
 31
0.0
  0
ARC
  5
81
330
6F
100
AcDbEntity
  8
DV1_0
 62
     7
370
    35
100
AcDbCircle
 10
134.3122200713505
 20
108.6742013077071
 30
0.0
 40
0.0500000000000042
100
AcDbArc
 50
187.9999999999894
 51
270.0
  0
LINE
  5
82
330
6F
100
AcDbEntity
  8
DV1_0
 62
     7
370
    35
100
AcDbLine
 10
134.3122200713505
 20
108.6242013077071
 30
0.0
 11
136.4437197131148
 21
108.6242013077071
 31
0.0
  0
LINE
  5
83
330
6F
100
AcDbEntity
  8
DV1_0
 62
     7
370
    35
100
AcDbLine
 10
136.4437197131148
 20
108.6242013077071
 30
0.0
 11
136.4437197131148
 21
108.3242013077071
 31
0.0
  0
LINE
  5
84
330
6F
100
AcDbEntity
  8
DV1_0
 62
     7
370
    25
100
AcDbLine
 10
134.3122200713505
 20
108.6242013077071
 30
0.0
 11
134.3122200713505
 21
108.3242013077071
 31
0.0
  0
LINE
  5
85
330
6F
100
AcDbEntity
  8
DV1_0
 62
     7
370
    25
100
AcDbLine
 10
134.2627066679134
 20
108.6672426526591
 30
0.0
 11
133.965626247291
 21
108.6254907223711
 31
0.0
  0
LINE
  5
86
330
6F
100
AcDbEntity
  8
DV1_0
 62
     7
370
    25
100
AcDbLine
 10
129.5467649038725
 20
142.2229118930432
 30
0.0
 11
129.24968448325
 21
142.1811599627551
 31
0.0
  0
LINE
  5
87
330
6F
100
AcDbEntity
  8
DV1_0
 62
     7
370
    25
100
AcDbLine
 10
129.200171079813
 20
142.5242013077071
 30
0.0
 11
129.200171079813
 21
142.2242013077071
 31
0.0
  0
LINE
  5
88
330
6F
100
AcDbEntity
  8
DV1_0
 62
     7
370
    25
100
AcDbLine
 10
126.7936354167038
 20
142.5242013077071
 30
0.0
 11
126.7936354167038
 21
142.2242013077071
 31
0.0
  0
LINE
  5
89
330
6F
100
AcDbEntity
  8
DV1_0
 62
     7
370
    25
100
AcDbLine
 10
126.4436354167038
 20
142.1742013077071
 30
0.0
 11
126.7436354167038
 21
142.1742013077071
 31
0.0
  0
LINE
  5
8A
330
6F
100
AcDbEntity
  8
DV1_0
 62
     7
370
    25
100
AcDbLine
 10
126.4436354167038
 20
129.3742013077071
 30
0.0
 11
126.7436354167038
 21
129.3742013077071
 31
0.0
  0
LINE
  5
8B
330
6F
100
AcDbEntity
  8
DV1_0
 62
     7
370
    25
100
AcDbLine
 10
126.3936354167038
 20
129.3242013077071
 30
0.0
 11
126.3936354167038
 21
129.0242013077071
 31
0.0
  0
ARC
  5
8C
330
6F
100
AcDbEntity
  8
DV1_0
 62
     7
370
    35
100
AcDbCircle
 10
126.3936354167038
 20
129.3742013077071
 30
0.0
 40
0.0500000000000001
100
AcDbArc
 50
270.0
 51
0.0
  0
ARC
  5
8D
330
6F
100
AcDbEntity
  8
DV1_0
 62
     7
370
    35
100
AcDbCircle
 10
126.3936354167038
 20
129.3742013077071
 30
0.0
 40
0.3500000000000004
100
AcDbArc
 50
270.0
 51
0.0
  0
LINE
  5
8E
330
6F
100
AcDbEntity
  8
DV1_0
 62
     7
370
    35
100
AcDbLine
 10
26.49363541670377
 20
129.0242013077072
 30
0.0
 11
31.14363541670377
 21
129.0242013077072
 31
0.0
  0
LINE
  5
8F
330
6F
100
AcDbEntity
  8
DV1_0
 62
     7
370
    35
100
AcDbLine
 10
26.14363541670377
 20
142.1742013077072
 30
0.0
 11
26.14363541670377
 21
129.3742013077072
 31
0.0
  0
ARC
  5
90
330
6F
100
AcDbEntity
  8
DV1_0
 62
     7
370
    35
100
AcDbCircle
 10
26.09363541670377
 20
142.1742013077072
 30
0.0
 40
0.0500000000000001
100
AcDbArc
 50
0.0
 51
90.0
  0
LINE
  5
91
330
6F
100
AcDbEntity
  8
DV1_0
 62
     7
370
    35
100
AcDbLine
 10
23.68709975359457
 20
142.2242013077072
 30
0.0
 11
26.09363541670377
 21
142.2242013077072
 31
0.0
  0
ARC
  5
92
330
6F
100
AcDbEntity
  8
DV1_0
 62
     7
370
    35
100
AcDbCircle
 10
23.68709975359457
 20
142.1742013077072
 30
0.0
 40
0.0499999999999948
100
AcDbArc
 50
90.0
 51
171.9999999999922
  0
LINE
  5
93
330
6F
100
AcDbEntity
  8
DV1_0
 62
     7
370
    35
100
AcDbLine
 10
18.92164458611657
 20
108.6254907223712
 30
0.0
 11
23.63758635015751
 21
142.1811599627552
 31
0.0
  0
ARC
  5
94
330
6F
100
AcDbEntity
  8
DV1_0
 62
     7
370
    35
100
AcDbCircle
 10
18.57505076205702
 20
108.6742013077072
 30
0.0
 40
0.350000000000003
100
AcDbArc
 50
270.0
 51
352.0000000000045
  0
LINE
  5
95
330
6F
100
AcDbEntity
  8
DV1_0
 62
     7
370
    35
100
AcDbLine
 10
16.44355112029269
 20
108.3242013077072
 30
0.0
 11
18.57505076205702
 21
108.3242013077072
 31
0.0
  0
LINE
  5
96
330
6F
100
AcDbEntity
  8
DV1_0
 62
     7
370
    35
100
AcDbLine
 10
16.44355112029269
 20
108.6242013077072
 30
0.0
 11
18.57505076205702
 21
108.6242013077072
 31
0.0
  0
ARC
  5
97
330
6F
100
AcDbEntity
  8
DV1_0
 62
     7
370
    35
100
AcDbCircle
 10
18.57505076205702
 20
108.6742013077072
 30
0.0
 40
0.050000000000003
100
AcDbArc
 50
270.0
 51
352.0000000000095
  0
LINE
  5
98
330
6F
100
AcDbEntity
  8
DV1_0
 62
     7
370
    35
100
AcDbLine
 10
18.62456416549409
 20
108.6672426526592
 30
0.0
 11
23.34050592953502
 21
142.2229118930432
 31
0.0
  0
ARC
  5
99
330
6F
100
AcDbEntity
  8
DV1_0
 62
     7
370
    35
100
AcDbCircle
 10
23.68709975359457
 20
142.1742013077072
 30
0.0
 40
0.3499999999999991
100
AcDbArc
 50
90.0
 51
171.9999999999973
  0
LINE
  5
9A
330
6F
100
AcDbEntity
  8
DV1_0
 62
     7
370
    35
100
AcDbLine
 10
23.68709975359457
 20
142.5242013077072
 30
0.0
 11
26.09363541670377
 21
142.5242013077072
 31
0.0
  0
ARC
  5
9B
330
6F
100
AcDbEntity
  8
DV1_0
 62
     7
370
    35
100
AcDbCircle
 10
26.09363541670377
 20
142.1742013077072
 30
0.0
 40
0.3500000000000004
100
AcDbArc
 50
0.0
 51
90.0
  0
LINE
  5
9C
330
6F
100
AcDbEntity
  8
DV1_0
 62
     7
370
    35
100
AcDbLine
 10
26.44363541670377
 20
142.1742013077072
 30
0.0
 11
26.44363541670377
 21
129.3742013077072
 31
0.0
  0
LINE
  5
9D
330
6F
100
AcDbEntity
  8
DV1_0
 62
     7
370
    35
100
AcDbLine
 10
26.49363541670377
 20
129.3242013077072
 30
0.0
 11
31.14363541670378
 21
129.3242013077072
 31
0.0
  0
LINE
  5
9E
330
6F
100
AcDbEntity
  8
DV1_0
 62
     7
370
    35
100
AcDbLine
 10
16.44355112029269
 20
108.6242013077072
 30
0.0
 11
16.44355112029269
 21
108.3242013077072
 31
0.0
  0
LINE
  5
9F
330
6F
100
AcDbEntity
  8
DV1_0
 62
     7
370
    35
100
AcDbLine
 10
31.14363541670378
 20
129.3242013077072
 30
0.0
 11
31.14363541670378
 21
129.0242013077072
 31
0.0
  0
LINE
  5
A0
330
6F
100
AcDbEntity
  8
DV1_0
 62
     7
370
    25
100
AcDbLine
 10
26.44363541670377
 20
129.3742013077072
 30
0.0
 11
26.14363541670377
 21
129.3742013077072
 31
0.0
  0
LINE
  5
A1
330
6F
100
AcDbEntity
  8
DV1_0
 62
     7
370
    25
100
AcDbLine
 10
26.49363541670377
 20
129.3242013077072
 30
0.0
 11
26.49363541670378
 21
129.0242013077072
 31
0.0
  0
LINE
  5
A2
330
6F
100
AcDbEntity
  8
DV1_0
 62
     7
370
    25
100
AcDbLine
 10
26.14363541670377
 20
142.1742013077072
 30
0.0
 11
26.44363541670377
 21
142.1742013077072
 31
0.0
  0
LINE
  5
A3
330
6F
100
AcDbEntity
  8
DV1_0
 62
     7
370
    25
100
AcDbLine
 10
26.09363541670377
 20
142.2242013077072
 30
0.0
 11
26.09363541670377
 21
142.5242013077072
 31
0.0
  0
LINE
  5
A4
330
6F
100
AcDbEntity
  8
DV1_0
 62
     7
370
    25
100
AcDbLine
 10
23.68709975359457
 20
142.2242013077072
 30
0.0
 11
23.68709975359457
 21
142.5242013077072
 31
0.0
  0
LINE
  5
A5
330
6F
100
AcDbEntity
  8
DV1_0
 62
     7
370
    25
100
AcDbLine
 10
23.63758635015751
 20
142.1811599627552
 30
0.0
 11
23.34050592953503
 21
142.2229118930432
 31
0.0
  0
LINE
  5
A6
330
6F
100
AcDbEntity
  8
DV1_0
 62
     7
370
    25
100
AcDbLine
 10
18.57505076205702
 20
108.6242013077072
 30
0.0
 11
18.57505076205702
 21
108.3242013077072
 31
0.0
  0
LINE
  5
A7
330
6F
100
AcDbEntity
  8
DV1_0
 62
     7
370
    25
100
AcDbLine
 10
18.62456416549409
 20
108.6672426526592
 30
0.0
 11
18.92164458611656
 21
108.6254907223712
 31
0.0
  0
ARC
  5
A8
330
6F
100
AcDbEntity
  8
DV1_0
 62
     7
370
    35
100
AcDbCircle
 10
26.49363541670377
 20
129.3742013077072
 30
0.0
 40
0.0499999999999945
100
AcDbArc
 50
180.0
 51
270.0
  0
ARC
  5
A9
330
6F
100
AcDbEntity
  8
DV1_0
 62
     7
370
    35
100
AcDbCircle
 10
26.49363541670377
 20
129.3742013077072
 30
0.0
 40
0.3499999999999949
100
AcDbArc
 50
180.0
 51
270.0
  0
LINE
  5
AA
330
6F
100
AcDbEntity
  8
DV1_0
 62
     7
370
    35
100
AcDbLine
 10
125.7436354167038
 20
129.023818557552
 30
0.0
 11
121.7436354167038
 21
129.023818557552
 31
0.0
  0
LINE
  5
AB
330
6F
100
AcDbEntity
  8
DV1_0
 62
     7
370
    35
100
AcDbLine
 10
121.7436354167037
 20
139.8363786094354
 30
0.0
 11
121.7436354167037
 21
131.5742013077071
 31
0.0
  0
LINE
  5
AC
330
6F
100
AcDbEntity
  8
DV1_0
 62
     7
370
    35
100
AcDbLine
 10
125.7436354167038
 20
139.8363786094354
 30
0.0
 11
125.7436354167038
 21
131.5742013077071
 31
0.0
  0
LINE
  5
AD
330
6F
100
AcDbEntity
  8
DV1_0
 62
     7
370
    35
100
AcDbLine
 10
121.7436354167037
 20
129.0242013077071
 30
0.0
 11
121.7436354167037
 21
129.0238185575521
 31
0.0
  0
LINE
  5
AE
330
6F
100
AcDbEntity
  8
DV1_0
 62
     7
370
    35
100
AcDbLine
 10
125.7436354167038
 20
129.0242013077071
 30
0.0
 11
125.7436354167038
 21
129.0238185575521
 31
0.0
  0
LINE
  5
AF
330
6F
100
AcDbEntity
  8
DV1_0
 62
     7
370
    35
100
AcDbLine
 10
26.44363541670376
 20
129.3242013077071
 30
0.0
 11
26.44363541670376
 21
131.5742013077071
 31
0.0
  0
LINE
  5
B0
330
6F
100
AcDbEntity
  8
DV1_0
 62
     7
370
    35
100
AcDbLine
 10
126.4436354167038
 20
129.3242013077071
 30
0.0
 11
126.4436354167038
 21
131.5742013077071
 31
0.0
  0
LINE
  5
B1
330
6F
100
AcDbEntity
  8
DV1_0
 62
     7
370
    35
100
AcDbLine
 10
26.44363541670376
 20
131.5742013077071
 30
0.0
 11
126.4436354167038
 21
131.5742013077071
 31
0.0
  0
LINE
  5
B2
330
6F
100
AcDbEntity
  8
DV1_0
 62
     7
370
    35
100
AcDbLine
 10
26.44363541670376
 20
129.3242013077071
 30
0.0
 11
126.4436354167038
 21
129.3242013077071
 31
0.0
  0
LINE
  5
B3
330
6F
100
AcDbEntity
  8
DV1_0
 62
     7
370
    35
100
AcDbLine
 10
31.11863541670379
 20
129.0238185575521
 30
0.0
 11
30.01863541670378
 21
129.0238185575521
 31
0.0
  0
LINE
  5
B4
330
6F
100
AcDbEntity
  8
DV1_0
 62
     7
370
    35
100
AcDbLine
 10
29.76863541670378
 20
129.0238185575521
 30
0.0
 11
27.76876759843231
 21
129.0238185575521
 31
0.0
  0
LINE
  5
B5
330
6F
100
AcDbEntity
  8
DV1_0
 62
     7
370
    35
100
AcDbLine
 10
27.51876759843232
 20
129.0238185575521
 30
0.0
 11
27.11863541670379
 21
129.0238185575521
 31
0.0
  0
LINE
  5
B6
330
6F
100
AcDbEntity
  8
DV1_0
 62
     7
370
    35
100
AcDbLine
 10
27.11863541670379
 20
139.8363786094354
 30
0.0
 11
27.11863541670379
 21
131.5742013077071
 31
0.0
  0
LINE
  5
B7
330
6F
100
AcDbEntity
  8
DV1_0
 62
     7
370
    35
100
AcDbLine
 10
31.11863541670379
 20
139.8363786094354
 30
0.0
 11
31.11863541670379
 21
131.5742013077071
 31
0.0
  0
LINE
  5
B8
330
6F
100
AcDbEntity
  8
DV1_0
 62
     7
370
    35
100
AcDbLine
 10
27.11863541670379
 20
129.0242013077072
 30
0.0
 11
27.11863541670379
 21
129.0238185575521
 31
0.0
  0
LINE
  5
B9
330
6F
100
AcDbEntity
  8
DV1_0
 62
     7
370
    35
100
AcDbLine
 10
31.11863541670379
 20
129.0242013077072
 30
0.0
 11
31.11863541670379
 21
129.0238185575521
 31
0.0
  0
LINE
  5
BA
330
6F
100
AcDbEntity
  8
DV1_0
 62
     7
370
    35
100
AcDbLine
 10
26.44363541670376
 20
142.1742013077072
 30
0.0
 11
26.44363541670376
 21
150.5441443060329
 31
0.0
  0
LINE
  5
BB
330
6F
100
AcDbEntity
  8
DV1_0
 62
     7
370
    35
100
AcDbLine
 10
126.4436354167038
 20
142.1742013077071
 30
0.0
 11
126.4436354167038
 21
150.5441443060329
 31
0.0
  0
LINE
  5
BC
330
6F
100
AcDbEntity
  8
DV1_0
 62
     7
370
    35
100
AcDbLine
 10
26.44363541670376
 20
150.5441443060329
 30
0.0
 11
126.4436354167038
 21
150.5441443060329
 31
0.0
  0
LINE
  5
BD
330
6F
100
AcDbEntity
  8
DV1_0
 62
     7
370
    35
100
AcDbLine
 10
26.44363541670376
 20
140.4724463074851
 30
0.0
 11
126.4436354167038
 21
140.4724463074851
 31
0.0
  0
LINE
  5
BE
330
6F
100
AcDbEntity
  8
DV1_0
 62
     7
370
    35
100
AcDbLine
 10
26.44363541670376
 20
139.8363786094354
 30
0.0
 11
126.4436354167038
 21
139.8363786094354
 31
0.0
  0
LINE
  5
BF
330
6F
100
AcDbEntity
  8
DV1_0
 62
     7
370
    35
100
AcDbLine
 10
18.57505076205702
 20
108.6242013077072
 30
0.0
 11
20.57505076205701
 21
108.6242013077072
 31
0.0
  0
LINE
  5
C0
330
6F
100
AcDbEntity
  8
DV1_0
 62
     7
370
    35
100
AcDbLine
 10
18.57505076205702
 20
108.3242013077072
 30
0.0
 11
20.57505076205701
 21
108.3242013077072
 31
0.0
  0
LINE
  5
C1
330
6F
100
AcDbEntity
  8
DV1_0
 62
     7
370
    35
100
AcDbLine
 10
18.57505076205702
 20
108.6242013077072
 30
0.0
 11
18.57505076205702
 21
108.3242013077072
 31
0.0
  0
LINE
  5
C2
330
6F
100
AcDbEntity
  8
DV1_0
 62
     7
370
    35
100
AcDbLine
 10
21.07505076205702
 20
108.6242013077072
 30
0.0
 11
21.07505076205702
 21
108.3242013077072
 31
0.0
  0
LINE
  5
C3
330
6F
100
AcDbEntity
  8
DV1_0
 62
     7
370
    35
100
AcDbLine
 10
21.07505076205702
 20
108.3242013077072
 30
0.0
 11
20.57505076205702
 21
108.3242013077072
 31
0.0
  0
LINE
  5
C4
330
6F
100
AcDbEntity
  8
DV1_0
 62
     7
370
    25
100
AcDbLine
 10
20.57505076205702
 20
108.3242013077072
 30
0.0
 11
20.57505076205702
 21
108.6242013077072
 31
0.0
  0
LINE
  5
C5
330
6F
100
AcDbEntity
  8
DV1_0
 62
     7
370
    35
100
AcDbLine
 10
20.57505076205702
 20
108.6242013077072
 30
0.0
 11
21.07505076205702
 21
108.6242013077072
 31
0.0
  0
LINE
  5
C6
330
6F
100
AcDbEntity
  8
DV1_0
 62
     7
370
    35
100
AcDbLine
 10
134.3122200713505
 20
108.6242013077071
 30
0.0
 11
134.3122200713505
 21
108.3242013077071
 31
0.0
  0
LINE
  5
C7
330
6F
100
AcDbEntity
  8
DV1_0
 62
     7
370
    35
100
AcDbLine
 10
132.3122200713505
 20
108.3242013077071
 30
0.0
 11
134.3122200713505
 21
108.3242013077071
 31
0.0
  0
LINE
  5
C8
330
6F
100
AcDbEntity
  8
DV1_0
 62
     7
370
    35
100
AcDbLine
 10
132.3122200713505
 20
108.6242013077071
 30
0.0
 11
134.3122200713505
 21
108.6242013077071
 31
0.0
  0
LINE
  5
C9
330
6F
100
AcDbEntity
  8
DV1_0
 62
     7
370
    25
100
AcDbLine
 10
132.3122200713505
 20
108.6242013077071
 30
0.0
 11
132.3122200713505
 21
108.3242013077071
 31
0.0
  0
LINE
  5
CA
330
6F
100
AcDbEntity
  8
DV1_0
 62
     7
370
    35
100
AcDbLine
 10
132.3122200713505
 20
108.3242013077071
 30
0.0
 11
131.8122200713505
 21
108.3242013077071
 31
0.0
  0
LINE
  5
CB
330
6F
100
AcDbEntity
  8
DV1_0
 62
     7
370
    35
100
AcDbLine
 10
131.8122200713505
 20
108.3242013077071
 30
0.0
 11
131.8122200713505
 21
108.6242013077071
 31
0.0
  0
LINE
  5
CC
330
6F
100
AcDbEntity
  8
DV1_0
 62
     7
370
    35
100
AcDbLine
 10
131.8122200713505
 20
108.6242013077071
 30
0.0
 11
132.3122200713505
 21
108.6242013077071
 31
0.0
  0
LINE
  5
CD
330
6F
100
AcDbEntity
  8
DV1_0
 62
     7
370
    35
100
AcDbLine
 10
27.11863541670379
 20
139.6742013077072
 30
0.0
 11
26.44363541670378
 21
139.6742013077072
 31
0.0
  0
LINE
  5
CE
330
6F
100
AcDbEntity
  8
DV1_0
 62
     7
370
    35
100
AcDbLine
 10
126.7436354167038
 20
139.6742013077072
 30
0.0
 11
126.7936354167038
 21
139.6742013077072
 31
0.0
  0
LINE
  5
CF
330
6F
100
AcDbEntity
  8
DV1_0
 62
     7
370
    35
100
AcDbLine
 10
126.7436354167038
 20
142.1742013077072
 30
0.0
 11
126.7936354167038
 21
142.1742013077072
 31
0.0
  0
LINE
  5
D0
330
6F
100
AcDbEntity
  8
DV1_0
 62
     7
370
    35
100
AcDbLine
 10
126.7936354167038
 20
139.6742013077072
 30
0.0
 11
126.7936354167038
 21
142.1742013077072
 31
0.0
  0
LINE
  5
D1
330
6F
100
AcDbEntity
  8
DV1_0
 62
     7
370
    35
100
AcDbLine
 10
125.7936354167038
 20
139.6742013077072
 30
0.0
 11
126.4436354167038
 21
139.6742013077072
 31
0.0
  0
LINE
  5
D2
330
6F
100
AcDbEntity
  8
DV1_0
 62
     7
370
    35
100
AcDbLine
 10
125.7936354167038
 20
139.6742013077072
 30
0.0
 11
125.7936354167038
 21
139.8363786094354
 31
0.0
  0
LINE
  5
D3
330
6F
100
AcDbEntity
  8
DV1_0
 62
     7
370
    35
100
AcDbLine
 10
27.88876759843231
 20
128.274200994803
 30
0.0
 11
27.39876759843233
 21
128.274200994803
 31
0.0
  0
LINE
  5
D4
330
6F
100
AcDbEntity
  8
DV1_0
 62
     7
370
    35
100
AcDbLine
 10
27.76876759843231
 20
128.4211397703132
 30
0.0
 11
27.51876759843232
 21
128.4211397703132
 31
0.0
  0
LINE
  5
D5
330
6F
100
AcDbEntity
  8
DV1_0
 62
     7
370
    35
100
AcDbLine
 10
27.88876759843231
 20
128.274200994803
 30
0.0
 11
27.76876759843231
 21
128.4211397703132
 31
0.0
  0
LINE
  5
D6
330
6F
100
AcDbEntity
  8
DV1_0
 62
     7
370
    35
100
AcDbLine
 10
27.51876759843232
 20
128.4211397703133
 30
0.0
 11
27.39876759843231
 21
128.2742009948031
 31
0.0
  0
LINE
  5
D7
330
6F
100
AcDbEntity
  8
DV1_0
 62
     7
370
    35
100
AcDbLine
 10
27.76876759843231
 20
128.4211397703133
 30
0.0
 11
27.76876759843231
 21
129.0242013077072
 31
0.0
  0
LINE
  5
D8
330
6F
100
AcDbEntity
  8
DV1_0
 62
     7
370
    35
100
AcDbLine
 10
27.51876759843232
 20
129.0242013077072
 30
0.0
 11
27.51876759843232
 21
128.4211397703133
 31
0.0
  0
LINE
  5
D9
330
6F
100
AcDbEntity
  8
DV1_0
 62
     7
370
    15
100
AcDbLine
 10
27.74424259843231
 20
129.0242013077072
 30
0.0
 11
27.74424259843231
 21
128.4211397703133
 31
0.0
  0
LINE
  5
DA
330
6F
100
AcDbEntity
  8
DV1_0
 62
     7
370
    15
100
AcDbLine
 10
27.54329259843232
 20
129.0242013077072
 30
0.0
 11
27.54329259843232
 21
128.4211397703133
 31
0.0
  0
LINE
  5
DB
330
6F
100
AcDbEntity
  8
DV1_0
 62
     7
370
    35
100
AcDbLine
 10
29.64863541670378
 20
128.2742009678176
 30
0.0
 11
30.13863541670379
 21
128.2742009678176
 31
0.0
  0
LINE
  5
DC
330
6F
100
AcDbEntity
  8
DV1_0
 62
     7
370
    35
100
AcDbLine
 10
29.76863541670378
 20
128.4211397433278
 30
0.0
 11
30.01863541670378
 21
128.4211397433278
 31
0.0
  0
LINE
  5
DD
330
6F
100
AcDbEntity
  8
DV1_0
 62
     7
370
    35
100
AcDbLine
 10
30.13863541670378
 20
128.2742009678176
 30
0.0
 11
30.01863541670378
 21
128.4211397433278
 31
0.0
  0
LINE
  5
DE
330
6F
100
AcDbEntity
  8
DV1_0
 62
     7
370
    35
100
AcDbLine
 10
29.76863541670378
 20
128.4211397433278
 30
0.0
 11
29.64863541670378
 21
128.2742009678176
 31
0.0
  0
LINE
  5
DF
330
6F
100
AcDbEntity
  8
DV1_0
 62
     7
370
    35
100
AcDbLine
 10
30.01863541670378
 20
128.4211397433278
 30
0.0
 11
30.01863541670378
 21
129.0242013077072
 31
0.0
  0
LINE
  5
E0
330
6F
100
AcDbEntity
  8
DV1_0
 62
     7
370
    35
100
AcDbLine
 10
29.76863541670378
 20
129.0242013077072
 30
0.0
 11
29.76863541670378
 21
128.4211397433278
 31
0.0
  0
LINE
  5
E1
330
6F
100
AcDbEntity
  8
DV1_0
 62
     7
370
    15
100
AcDbLine
 10
29.99411041670378
 20
129.0242013077072
 30
0.0
 11
29.99411041670378
 21
128.4211397433278
 31
0.0
  0
LINE
  5
E2
330
6F
100
AcDbEntity
  8
DV1_0
 62
     7
370
    15
100
AcDbLine
 10
29.79316041670378
 20
129.0242013077072
 30
0.0
 11
29.79316041670378
 21
128.4211397433278
 31
0.0
  0
ENDBLK
  5
E4
330
6F
100
AcDbEntity
  8
0
100
AcDbBlockEnd
  0
BLOCK
  5
143
330
E5
100
AcDbEntity
  8
0
100
AcDbBlockBegin
  2
SE1
 70
     0
 10
0.0
 20
0.0
 30
0.0
  3
SE1
  1

  0
LINE
  5
E8
330
E5
100
AcDbEntity
  8
DV2_0
 62
     7
370
    35
100
AcDbLine
 10
121.7436354167038
 20
58.04997724825616
 30
0.0
 11
121.7436354167038
 21
57.0499772482562
 31
0.0
  0
LINE
  5
E9
330
E5
100
AcDbEntity
  8
DV2_0
 62
     7
370
    25
100
AcDbLine
 10
126.3936354167038
 20
58.04997724825616
 30
0.0
 11
126.3936354167038
 21
57.0499772482562
 31
0.0
  0
LINE
  5
EA
330
E5
100
AcDbEntity
  8
DV2_0
 62
     7
370
    35
100
AcDbLine
 10
126.4436354167038
 20
68.54997724825618
 30
0.0
 11
126.7936354167038
 21
68.54997724825618
 31
0.0
  0
LINE
  5
EB
330
E5
100
AcDbEntity
  8
DV2_0
 62
     7
370
    35
100
AcDbLine
 10
126.4436354167038
 20
68.54997724825618
 30
0.0
 11
126.4436354167038
 21
46.54997724825618
 31
0.0
  0
LINE
  5
EC
330
E5
100
AcDbEntity
  8
DV2_0
 62
     7
370
    35
100
AcDbLine
 10
126.4436354167038
 20
46.54997724825617
 30
0.0
 11
126.7936354167038
 21
46.54997724825617
 31
0.0
  0
LINE
  5
ED
330
E5
100
AcDbEntity
  8
DV2_0
 62
     7
370
    35
100
AcDbLine
 10
126.7936354167038
 20
68.54997724825618
 30
0.0
 11
129.2001710798129
 21
68.54997724825618
 31
0.0
  0
LINE
  5
EE
330
E5
100
AcDbEntity
  8
DV2_0
 62
     7
370
    25
100
AcDbLine
 10
126.7936354167038
 20
68.54997724825618
 30
0.0
 11
126.7936354167038
 21
46.54997724825618
 31
0.0
  0
LINE
  5
EF
330
E5
100
AcDbEntity
  8
DV2_0
 62
     7
370
    35
100
AcDbLine
 10
126.7936354167038
 20
46.54997724825618
 30
0.0
 11
129.2001710798129
 21
46.54997724825618
 31
0.0
  0
LINE
  5
F0
330
E5
100
AcDbEntity
  8
DV2_0
 62
     7
370
    35
100
AcDbLine
 10
129.200171079813
 20
68.54997724825618
 30
0.0
 11
129.5467649038725
 21
68.54997724825618
 31
0.0
  0
LINE
  5
F1
330
E5
100
AcDbEntity
  8
DV2_0
 62
     7
370
    25
100
AcDbLine
 10
129.200171079813
 20
68.54997724825618
 30
0.0
 11
129.200171079813
 21
46.54997724825618
 31
0.0
  0
LINE
  5
F2
330
E5
100
AcDbEntity
  8
DV2_0
 62
     7
370
    35
100
AcDbLine
 10
129.200171079813
 20
46.54997724825618
 30
0.0
 11
129.5467649038725
 21
46.54997724825618
 31
0.0
  0
LINE
  5
F3
330
E5
100
AcDbEntity
  8
DV2_0
 62
     7
370
    35
100
AcDbLine
 10
129.5467649038725
 20
68.54997724825618
 30
0.0
 11
134.2627066679134
 21
68.54997724825618
 31
0.0
  0
LINE
  5
F4
330
E5
100
AcDbEntity
  8
DV2_0
 62
     7
370
    25
100
AcDbLine
 10
129.5467649038725
 20
68.54997724825618
 30
0.0
 11
129.5467649038725
 21
46.54997724825618
 31
0.0
  0
LINE
  5
F5
330
E5
100
AcDbEntity
  8
DV2_0
 62
     7
370
    35
100
AcDbLine
 10
129.5467649038725
 20
46.54997724825617
 30
0.0
 11
134.2627066679134
 21
46.54997724825616
 31
0.0
  0
LINE
  5
F6
330
E5
100
AcDbEntity
  8
DV2_0
 62
     7
370
    35
100
AcDbLine
 10
134.2627066679134
 20
68.54997724825618
 30
0.0
 11
134.3122200713505
 21
68.54997724825618
 31
0.0
  0
LINE
  5
F7
330
E5
100
AcDbEntity
  8
DV2_0
 62
     7
370
    25
100
AcDbLine
 10
134.2627066679134
 20
68.54997724825618
 30
0.0
 11
134.2627066679134
 21
46.54997724825617
 31
0.0
  0
LINE
  5
F8
330
E5
100
AcDbEntity
  8
DV2_0
 62
     7
370
    35
100
AcDbLine
 10
134.2627066679134
 20
46.54997724825616
 30
0.0
 11
134.3122200713505
 21
46.54997724825617
 31
0.0
  0
LINE
  5
F9
330
E5
100
AcDbEntity
  8
DV2_0
 62
     7
370
    35
100
AcDbLine
 10
134.3122200713505
 20
68.54997724825618
 30
0.0
 11
136.4437197131148
 21
68.54997724825618
 31
0.0
  0
LINE
  5
FA
330
E5
100
AcDbEntity
  8
DV2_0
 62
     7
370
    25
100
AcDbLine
 10
134.3122200713505
 20
68.54997724825618
 30
0.0
 11
134.3122200713505
 21
46.54997724825618
 31
0.0
  0
LINE
  5
FB
330
E5
100
AcDbEntity
  8
DV2_0
 62
     7
370
    35
100
AcDbLine
 10
134.3122200713505
 20
46.54997724825617
 30
0.0
 11
136.4437197131148
 21
46.54997724825617
 31
0.0
  0
LINE
  5
FC
330
E5
100
AcDbEntity
  8
DV2_0
 62
     7
370
    35
100
AcDbLine
 10
136.4437197131148
 20
46.54997724825617
 30
0.0
 11
136.4437197131148
 21
68.54997724825617
 31
0.0
  0
LINE
  5
FD
330
E5
100
AcDbEntity
  8
DV2_0
 62
     7
370
    35
100
AcDbLine
 10
16.44355112029269
 20
68.54997724825618
 30
0.0
 11
18.57505076205702
 21
68.54997724825618
 31
0.0
  0
LINE
  5
FE
330
E5
100
AcDbEntity
  8
DV2_0
 62
     7
370
    35
100
AcDbLine
 10
16.44355112029269
 20
68.54997724825618
 30
0.0
 11
16.44355112029269
 21
46.54997724825618
 31
0.0
  0
LINE
  5
FF
330
E5
100
AcDbEntity
  8
DV2_0
 62
     7
370
    35
100
AcDbLine
 10
16.44355112029269
 20
46.54997724825618
 30
0.0
 11
18.57505076205702
 21
46.54997724825618
 31
0.0
  0
LINE
  5
100
330
E5
100
AcDbEntity
  8
DV2_0
 62
     7
370
    35
100
AcDbLine
 10
18.57505076205702
 20
68.54997724825618
 30
0.0
 11
18.62456416549411
 21
68.54997724825618
 31
0.0
  0
LINE
  5
101
330
E5
100
AcDbEntity
  8
DV2_0
 62
     7
370
    25
100
AcDbLine
 10
18.57505076205702
 20
68.54997724825618
 30
0.0
 11
18.57505076205702
 21
46.54997724825618
 31
0.0
  0
LINE
  5
102
330
E5
100
AcDbEntity
  8
DV2_0
 62
     7
370
    35
100
AcDbLine
 10
18.57505076205702
 20
46.54997724825618
 30
0.0
 11
18.62456416549411
 21
46.54997724825618
 31
0.0
  0
LINE
  5
103
330
E5
100
AcDbEntity
  8
DV2_0
 62
     7
370
    35
100
AcDbLine
 10
18.62456416549409
 20
68.54997724825618
 30
0.0
 11
23.34050592953502
 21
68.54997724825618
 31
0.0
  0
LINE
  5
104
330
E5
100
AcDbEntity
  8
DV2_0
 62
     7
370
    25
100
AcDbLine
 10
18.62456416549409
 20
68.54997724825618
 30
0.0
 11
18.62456416549409
 21
46.54997724825618
 31
0.0
  0
LINE
  5
105
330
E5
100
AcDbEntity
  8
DV2_0
 62
     7
370
    35
100
AcDbLine
 10
18.62456416549409
 20
46.54997724825618
 30
0.0
 11
23.34050592953502
 21
46.54997724825617
 31
0.0
  0
LINE
  5
106
330
E5
100
AcDbEntity
  8
DV2_0
 62
     7
370
    35
100
AcDbLine
 10
23.34050592953502
 20
68.54997724825618
 30
0.0
 11
23.68709975359457
 21
68.54997724825618
 31
0.0
  0
LINE
  5
107
330
E5
100
AcDbEntity
  8
DV2_0
 62
     7
370
    25
100
AcDbLine
 10
23.34050592953502
 20
68.54997724825618
 30
0.0
 11
23.34050592953502
 21
46.54997724825617
 31
0.0
  0
LINE
  5
108
330
E5
100
AcDbEntity
  8
DV2_0
 62
     7
370
    35
100
AcDbLine
 10
23.34050592953502
 20
46.54997724825617
 30
0.0
 11
23.68709975359457
 21
46.54997724825618
 31
0.0
  0
LINE
  5
109
330
E5
100
AcDbEntity
  8
DV2_0
 62
     7
370
    35
100
AcDbLine
 10
23.68709975359457
 20
68.54997724825618
 30
0.0
 11
26.09363541670377
 21
68.54997724825618
 31
0.0
  0
LINE
  5
10A
330
E5
100
AcDbEntity
  8
DV2_0
 62
     7
370
    25
100
AcDbLine
 10
23.68709975359457
 20
68.54997724825618
 30
0.0
 11
23.68709975359457
 21
46.54997724825618
 31
0.0
  0
LINE
  5
10B
330
E5
100
AcDbEntity
  8
DV2_0
 62
     7
370
    35
100
AcDbLine
 10
23.68709975359457
 20
46.54997724825618
 30
0.0
 11
26.09363541670377
 21
46.54997724825618
 31
0.0
  0
LINE
  5
10C
330
E5
100
AcDbEntity
  8
DV2_0
 62
     7
370
    35
100
AcDbLine
 10
26.09363541670377
 20
68.54997724825618
 30
0.0
 11
26.44363541670378
 21
68.54997724825618
 31
0.0
  0
LINE
  5
10D
330
E5
100
AcDbEntity
  8
DV2_0
 62
     7
370
    25
100
AcDbLine
 10
26.09363541670377
 20
68.54997724825618
 30
0.0
 11
26.09363541670377
 21
46.54997724825618
 31
0.0
  0
LINE
  5
10E
330
E5
100
AcDbEntity
  8
DV2_0
 62
     7
370
    35
100
AcDbLine
 10
26.09363541670377
 20
46.54997724825618
 30
0.0
 11
26.44363541670378
 21
46.54997724825618
 31
0.0
  0
LINE
  5
10F
330
E5
100
AcDbEntity
  8
DV2_0
 62
     7
370
    35
100
AcDbLine
 10
26.44363541670377
 20
68.54997724825618
 30
0.0
 11
26.44363541670377
 21
46.54997724825618
 31
0.0
  0
LINE
  5
110
330
E5
100
AcDbEntity
  8
DV2_0
 62
     7
370
    35
100
AcDbLine
 10
31.14363541670378
 20
58.04997724825617
 30
0.0
 11
31.14363541670378
 21
57.0499772482562
 31
0.0
  0
LINE
  5
111
330
E5
100
AcDbEntity
  8
DV2_0
 62
     7
370
    25
100
AcDbLine
 10
26.49363541670377
 20
58.04997724825617
 30
0.0
 11
26.49363541670376
 21
57.0499772482562
 31
0.0
  0
LINE
  5
112
330
E5
100
AcDbEntity
  8
DV2_0
 62
     7
370
    25
100
AcDbLine
 10
125.7436354167038
 20
68.56425398163792
 30
0.0
 11
121.7436354167038
 21
68.56425398163792
 31
0.0
  0
LINE
  5
113
330
E5
100
AcDbEntity
  8
DV2_0
 62
     7
370
    35
100
AcDbLine
 10
121.7436354167037
 20
69.12972512228754
 30
0.0
 11
121.7436354167037
 21
68.56425398163792
 31
0.0
  0
LINE
  5
114
330
E5
100
AcDbEntity
  8
DV2_0
 62
     7
370
    35
100
AcDbLine
 10
121.7436354167037
 20
74.25626204620819
 30
0.0
 11
121.7436354167037
 21
74.26132805325872
 31
0.0
  0
LINE
  5
115
330
E5
100
AcDbEntity
  8
DV2_0
 62
     7
370
    35
100
AcDbLine
 10
124.7436354167037
 20
74.54402484616665
 30
0.0
 11
122.7436354167037
 21
74.54402484616665
 31
0.0
  0
ELLIPSE
  5
116
330
E5
100
AcDbEntity
  8
DV2_0
 62
     7
370
    35
100
AcDbEllipse
 10
124.7436354167037
 20
74.2613280914779
 30
0.0
 11
-0.9999999999999954
 21
0.0
 31
0.0
210
0.0
220
0.0
230
1.0
 40
0.2826967546887418
 41
3.141592653589793
 42
4.71238898038469
  0
ELLIPSE
  5
117
330
E5
100
AcDbEntity
  8
DV2_0
 62
     7
370
    35
100
AcDbEllipse
 10
122.7436354167037
 20
74.2613280914779
 30
0.0
 11
-1.000000000000012
 21
2.775557561562892E-15
 31
0.0
210
0.0
220
0.0
230
1.0
 40
0.2826967546887456
 41
4.712388980384705
 42
6.283185307179586
  0
LINE
  5
118
330
E5
100
AcDbEntity
  8
DV2_0
 62
     7
370
    35
100
AcDbLine
 10
124.7436354167037
 20
74.25626204620815
 30
0.0
 11
122.7436354167037
 21
74.25626204620815
 31
0.0
  0
LINE
  5
119
330
E5
100
AcDbEntity
  8
DV2_0
 62
     7
370
    25
100
AcDbLine
 10
124.7436354167037
 20
74.25626204620815
 30
0.0
 11
124.7436354167037
 21
74.54402484616665
 31
0.0
  0
LINE
  5
11A
330
E5
100
AcDbEntity
  8
DV2_0
 62
     7
370
    25
100
AcDbLine
 10
122.7436354167037
 20
74.54402484616665
 30
0.0
 11
122.7436354167037
 21
74.25626204620815
 31
0.0
  0
LINE
  5
11B
330
E5
100
AcDbEntity
  8
DV2_0
 62
     7
370
    35
100
AcDbLine
 10
125.7436354167038
 20
69.12972512228752
 30
0.0
 11
125.7436354167038
 21
68.5642539816379
 31
0.0
  0
LINE
  5
11C
330
E5
100
AcDbEntity
  8
DV2_0
 62
     7
370
    35
100
AcDbLine
 10
125.7436354167038
 20
74.26132805325926
 30
0.0
 11
125.7436354167038
 21
74.25626204620819
 31
0.0
  0
LINE
  5
11D
330
E5
100
AcDbEntity
  8
DV2_0
 62
     7
370
    35
100
AcDbLine
 10
121.7436354167037
 20
68.54997753673562
 30
0.0
 11
121.7436354167037
 21
68.56425398163792
 31
0.0
  0
LINE
  5
11E
330
E5
100
AcDbEntity
  8
DV2_0
 62
     7
370
    35
100
AcDbLine
 10
125.7436354167038
 20
68.54997753673562
 30
0.0
 11
125.7436354167038
 21
68.56425398163792
 31
0.0
  0
LINE
  5
11F
330
E5
100
AcDbEntity
  8
DV2_0
 62
     7
370
    35
100
AcDbLine
 10
26.44363541670376
 20
57.04997724825621
 30
0.0
 11
126.4436354167038
 21
57.04997724825621
 31
0.0
  0
LINE
  5
120
330
E5
100
AcDbEntity
  8
DV2_0
 62
     7
370
    35
100
AcDbLine
 10
26.44363541670376
 20
46.5499772482562
 30
0.0
 11
126.4436354167038
 21
46.54997724825619
 31
0.0
  0
LINE
  5
121
330
E5
100
AcDbEntity
  8
DV2_0
 62
     7
370
    35
100
AcDbLine
 10
26.44363541670376
 20
68.54997724825618
 30
0.0
 11
126.4436354167038
 21
68.54997724825617
 31
0.0
  0
LINE
  5
122
330
E5
100
AcDbEntity
  8
DV2_0
 62
     7
370
    35
100
AcDbLine
 10
26.44363541670376
 20
58.04997724825617
 30
0.0
 11
126.4436354167038
 21
58.04997724825616
 31
0.0
  0
LINE
  5
123
330
E5
100
AcDbEntity
  8
DV2_0
 62
     7
370
    25
100
AcDbLine
 10
31.11863541670379
 20
68.56425398163795
 30
0.0
 11
27.11863541670379
 21
68.56425398163795
 31
0.0
  0
LINE
  5
124
330
E5
100
AcDbEntity
  8
DV2_0
 62
     7
370
    35
100
AcDbLine
 10
27.11863541670379
 20
69.12972512228752
 30
0.0
 11
27.11863541670379
 21
68.56425398163795
 31
0.0
  0
LINE
  5
125
330
E5
100
AcDbEntity
  8
DV2_0
 62
     7
370
    35
100
AcDbLine
 10
27.11863541670379
 20
74.25626204620818
 30
0.0
 11
27.11863541670379
 21
74.26132805325874
 31
0.0
  0
LINE
  5
126
330
E5
100
AcDbEntity
  8
DV2_0
 62
     7
370
    35
100
AcDbLine
 10
30.11863541670379
 20
74.54402484616668
 30
0.0
 11
28.11863541670379
 21
74.54402484616668
 31
0.0
  0
ELLIPSE
  5
127
330
E5
100
AcDbEntity
  8
DV2_0
 62
     7
370
    35
100
AcDbEllipse
 10
30.1186354167038
 20
74.26132809147794
 30
0.0
 11
-0.99999999999999
 21
2.775557561562892E-15
 31
0.0
210
0.0
220
0.0
230
1.0
 40
0.2826967546887476
 41
3.141592653589803
 42
4.712388980384701
  0
ELLIPSE
  5
128
330
E5
100
AcDbEntity
  8
DV2_0
 62
     7
370
    35
100
AcDbEllipse
 10
28.1186354167038
 20
74.26132809147794
 30
0.0
 11
-1.000000000000012
 21
2.775557561562892E-15
 31
0.0
210
0.0
220
0.0
230
1.0
 40
0.2826967546887456
 41
4.712388980384691
 42
6.283185307179586
  0
LINE
  5
129
330
E5
100
AcDbEntity
  8
DV2_0
 62
     7
370
    35
100
AcDbLine
 10
30.11863541670379
 20
74.25626204620818
 30
0.0
 11
28.11863541670379
 21
74.25626204620818
 31
0.0
  0
LINE
  5
12A
330
E5
100
AcDbEntity
  8
DV2_0
 62
     7
370
    25
100
AcDbLine
 10
30.11863541670379
 20
74.25626204620818
 30
0.0
 11
30.11863541670379
 21
74.54402484616669
 31
0.0
  0
LINE
  5
12B
330
E5
100
AcDbEntity
  8
DV2_0
 62
     7
370
    25
100
AcDbLine
 10
28.11863541670379
 20
74.54402484616668
 30
0.0
 11
28.11863541670379
 21
74.25626204620816
 31
0.0
  0
LINE
  5
12C
330
E5
100
AcDbEntity
  8
DV2_0
 62
     7
370
    35
100
AcDbLine
 10
31.11863541670379
 20
69.12972512228751
 30
0.0
 11
31.11863541670379
 21
68.56425398163793
 31
0.0
  0
LINE
  5
12D
330
E5
100
AcDbEntity
  8
DV2_0
 62
     7
370
    35
100
AcDbLine
 10
31.11863541670379
 20
74.26132805325928
 30
0.0
 11
31.11863541670379
 21
74.25626204620818
 31
0.0
  0
LINE
  5
12E
330
E5
100
AcDbEntity
  8
DV2_0
 62
     7
370
    35
100
AcDbLine
 10
27.11863541670379
 20
68.54997753673565
 30
0.0
 11
27.11863541670379
 21
68.56425398163795
 31
0.0
  0
LINE
  5
12F
330
E5
100
AcDbEntity
  8
DV2_0
 62
     7
370
    35
100
AcDbLine
 10
31.11863541670379
 20
68.54997753673565
 30
0.0
 11
31.11863541670379
 21
68.56425398163793
 31
0.0
  0
LINE
  5
130
330
E5
100
AcDbEntity
  8
DV2_0
 62
     7
370
    35
100
AcDbLine
 10
26.44363541670376
 20
69.63126383671569
 30
0.0
 11
26.44363541670376
 21
72.09804104651934
 31
0.0
  0
LINE
  5
131
330
E5
100
AcDbEntity
  8
DV2_0
 62
     7
370
    35
100
AcDbLine
 10
26.44363541670376
 20
72.09804104651936
 30
0.0
 11
26.44363541670376
 21
74.25626204620816
 31
0.0
  0
LINE
  5
132
330
E5
100
AcDbEntity
  8
DV2_0
 62
     7
370
    35
100
AcDbLine
 10
126.4436354167038
 20
72.09804104651937
 30
0.0
 11
126.4436354167038
 21
74.25626204620818
 31
0.0
  0
LINE
  5
133
330
E5
100
AcDbEntity
  8
DV2_0
 62
     7
370
    35
100
AcDbLine
 10
126.4436354167038
 20
69.12972512228752
 30
0.0
 11
126.4436354167038
 21
72.09804104651937
 31
0.0
  0
LINE
  5
134
330
E5
100
AcDbEntity
  8
DV2_0
 62
     7
370
    35
100
AcDbLine
 10
26.44363541670376
 20
74.25626204620816
 30
0.0
 11
126.4436354167038
 21
74.25626204620818
 31
0.0
  0
LINE
  5
135
330
E5
100
AcDbEntity
  8
DV2_0
 62
     7
370
    35
100
AcDbLine
 10
26.44363541670376
 20
72.09804104651936
 30
0.0
 11
126.4436354167038
 21
72.09804104651937
 31
0.0
  0
LINE
  5
136
330
E5
100
AcDbEntity
  8
DV2_0
 62
     7
370
    35
100
AcDbLine
 10
26.44363541670376
 20
69.12972512228751
 30
0.0
 11
126.4436354167038
 21
69.12972512228752
 31
0.0
  0
LINE
  5
137
330
E5
100
AcDbEntity
  8
DV2_0
 62
     7
370
    35
100
AcDbLine
 10
18.57505076205702
 20
49.04997724825618
 30
0.0
 11
18.57505076205702
 21
46.54997724825618
 31
0.0
  0
LINE
  5
138
330
E5
100
AcDbEntity
  8
DV2_0
 62
     7
370
    35
100
AcDbLine
 10
18.57505076205702
 20
68.54997724825618
 30
0.0
 11
18.57505076205702
 21
66.04997724825618
 31
0.0
  0
LINE
  5
139
330
E5
100
AcDbEntity
  8
DV2_0
 62
     7
370
    35
100
AcDbLine
 10
134.3122200713505
 20
66.04997724825617
 30
0.0
 11
134.3122200713505
 21
68.54997724825617
 31
0.0
  0
LINE
  5
13A
330
E5
100
AcDbEntity
  8
DV2_0
 62
     7
370
    35
100
AcDbLine
 10
134.3122200713505
 20
46.54997724825617
 30
0.0
 11
134.3122200713505
 21
49.04997724825617
 31
0.0
  0
LINE
  5
13B
330
E5
100
AcDbEntity
  8
DV2_0
 62
     7
370
    35
100
AcDbLine
 10
26.14363541670379
 20
72.28825227621155
 30
0.0
 11
26.14363541670379
 21
68.54997724825623
 31
0.0
  0
LINE
  5
13C
330
E5
100
AcDbEntity
  8
DV2_0
 62
     7
370
    35
100
AcDbLine
 10
26.44363541670375
 20
72.28825227621155
 30
0.0
 11
26.14363541670378
 21
72.28825227621155
 31
0.0
  0
LINE
  5
13D
330
E5
100
AcDbEntity
  8
DV2_0
 62
     7
370
    35
100
AcDbLine
 10
26.44363541670377
 20
69.63126383671569
 30
0.0
 11
26.44363541670377
 21
68.54997724825621
 31
0.0
  0
LINE
  5
13E
330
E5
100
AcDbEntity
  8
DV2_0
 62
     7
370
    35
100
AcDbLine
 10
126.4436354167038
 20
72.28825227621155
 30
0.0
 11
126.7936354167038
 21
72.28825227621155
 31
0.0
  0
LINE
  5
13F
330
E5
100
AcDbEntity
  8
DV2_0
 62
     7
370
    35
100
AcDbLine
 10
126.4936354167038
 20
68.54997724825621
 30
0.0
 11
126.4936354167038
 21
71.9756691702284
 31
0.0
  0
LINE
  5
140
330
E5
100
AcDbEntity
  8
DV2_0
 62
     7
370
    35
100
AcDbLine
 10
126.7936354167038
 20
68.54997724825621
 30
0.0
 11
126.7936354167038
 21
72.28825227621154
 31
0.0
  0
LINE
  5
141
330
E5
100
AcDbEntity
  8
DV2_0
 62
     7
370
    35
100
AcDbLine
 10
126.4436354167038
 20
71.24403296423456
 30
0.0
 11
126.4936354167038
 21
71.24403296423456
 31
0.0
  0
LINE
  5
142
330
E5
100
AcDbEntity
  8
DV2_0
 62
     7
370
    35
100
AcDbLine
 10
126.4436354167038
 20
71.9756691702284
 30
0.0
 11
126.4936354167038
 21
71.9756691702284
 31
0.0
  0
ENDBLK
  5
144
330
E5
100
AcDbEntity
  8
0
100
AcDbBlockEnd
  0
BLOCK
  5
167
330
145
100
AcDbEntity
  8
0
100
AcDbBlockBegin
  2
SE2
 70
     0
 10
0.0
 20
0.0
 30
0.0
  3
SE2
  1

  0
LINE
  5
148
330
145
100
AcDbEntity
  8
DV3_0
 62
     7
370
    35
100
AcDbLine
 10
207.4996521880393
 20
108.3242013077072
 30
0.0
 11
229.4996521880393
 21
108.3242013077072
 31
0.0
  0
LINE
  5
149
330
145
100
AcDbEntity
  8
DV3_0
 62
     7
370
    35
100
AcDbLine
 10
207.4996521880393
 20
108.6242013077072
 30
0.0
 11
229.4996521880393
 21
108.6242013077072
 31
0.0
  0
LINE
  5
14A
330
145
100
AcDbEntity
  8
DV3_0
 62
     7
370
    35
100
AcDbLine
 10
207.4996521880393
 20
108.6242013077072
 30
0.0
 11
207.4996521880393
 21
108.6672426526592
 31
0.0
  0
LINE
  5
14B
330
145
100
AcDbEntity
  8
DV3_0
 62
     7
370
    35
100
AcDbLine
 10
229.4996521880394
 20
108.6242013077072
 30
0.0
 11
229.4996521880394
 21
108.6672426526592
 31
0.0
  0
LINE
  5
14C
330
145
100
AcDbEntity
  8
DV3_0
 62
     7
370
    35
100
AcDbLine
 10
207.4996521880393
 20
108.6672426526592
 30
0.0
 11
207.4996521880393
 21
142.2229118930432
 31
0.0
  0
LINE
  5
14D
330
145
100
AcDbEntity
  8
DV3_0
 62
     7
370
    25
100
AcDbLine
 10
207.4996521880393
 20
108.6672426526592
 30
0.0
 11
229.4996521880393
 21
108.6672426526592
 31
0.0
  0
LINE
  5
14E
330
145
100
AcDbEntity
  8
DV3_0
 62
     7
370
    35
100
AcDbLine
 10
229.4996521880394
 20
108.6672426526592
 30
0.0
 11
229.4996521880394
 21
142.2229118930433
 31
0.0
  0
LINE
  5
14F
330
145
100
AcDbEntity
  8
DV3_0
 62
     7
370
    35
100
AcDbLine
 10
207.4996521880393
 20
142.2229118930432
 30
0.0
 11
207.4996521880393
 21
142.5242013077072
 31
0.0
  0
LINE
  5
150
330
145
100
AcDbEntity
  8
DV3_0
 62
     7
370
    25
100
AcDbLine
 10
207.4996521880393
 20
142.2229118930432
 30
0.0
 11
229.4996521880394
 21
142.2229118930433
 31
0.0
  0
LINE
  5
151
330
145
100
AcDbEntity
  8
DV3_0
 62
     7
370
    35
100
AcDbLine
 10
229.4996521880394
 20
142.2229118930433
 30
0.0
 11
229.4996521880394
 21
142.5242013077072
 31
0.0
  0
LINE
  5
152
330
145
100
AcDbEntity
  8
DV3_0
 62
     7
370
    35
100
AcDbLine
 10
207.4996521880393
 20
142.5242013077072
 30
0.0
 11
229.4996521880393
 21
142.5242013077072
 31
0.0
  0
LINE
  5
153
330
145
100
AcDbEntity
  8
DV3_0
 62
     7
370
    35
100
AcDbLine
 10
229.4996521880394
 20
108.6242013077072
 30
0.0
 11
229.4996521880394
 21
108.3242013077072
 31
0.0
  0
LINE
  5
154
330
145
100
AcDbEntity
  8
DV3_0
 62
     7
370
    35
100
AcDbLine
 10
207.4996521880393
 20
108.6242013077072
 30
0.0
 11
207.4996521880393
 21
108.3242013077072
 31
0.0
  0
LINE
  5
155
330
145
100
AcDbEntity
  8
DV3_0
 62
     7
370
    35
100
AcDbLine
 10
207.199652146828
 20
130.4958260942759
 30
0.0
 11
207.201542089894
 21
129.0238185575522
 31
0.0
  0
LINE
  5
156
330
145
100
AcDbEntity
  8
DV3_0
 62
     7
370
    35
100
AcDbLine
 10
201.7883013830368
 20
148.8640581187012
 30
0.0
 11
203.9671222001161
 21
141.4711707634745
 31
0.0
  0
LINE
  5
157
330
145
100
AcDbEntity
  8
DV3_0
 62
     7
370
    35
100
AcDbLine
 10
204.4967223779293
 20
139.6742013077072
 30
0.0
 11
207.1976126546991
 21
130.5098967359562
 31
0.0
  0
LINE
  5
158
330
145
100
AcDbEntity
  8
DV3_0
 62
     7
370
    35
100
AcDbLine
 10
204.8094799686012
 20
139.6742013077072
 30
0.0
 11
207.4853754546576
 21
130.5947057623628
 31
0.0
  0
LINE
  5
159
330
145
100
AcDbEntity
  8
DV3_0
 62
     7
370
    25
100
AcDbLine
 10
202.0760641804529
 20
148.9488671537345
 30
0.0
 11
201.7883013830368
 21
148.8640581187012
 31
0.0
  0
LINE
  5
15A
330
145
100
AcDbEntity
  8
DV3_0
 62
     7
370
    35
100
AcDbLine
 10
201.7883013830368
 20
148.8640581187012
 30
0.0
 11
201.5056045901289
 21
149.8232675815766
 31
0.0
  0
LINE
  5
15B
330
145
100
AcDbEntity
  8
DV3_0
 62
     7
370
    35
100
AcDbLine
 10
201.5056045901288
 20
149.8232675815766
 30
0.0
 11
201.7933673900873
 21
149.9080766079832
 31
0.0
  0
LINE
  5
15C
330
145
100
AcDbEntity
  8
DV3_0
 62
     7
370
    35
100
AcDbLine
 10
207.4996521880329
 20
129.0242013077072
 30
0.0
 11
207.201542089894
 21
129.0238185575521
 31
0.0
  0
LINE
  5
15D
330
145
100
AcDbEntity
  8
DV3_0
 62
     7
370
    25
100
AcDbLine
 10
207.1976126546991
 20
130.5098967359562
 30
0.0
 11
207.4853754546576
 21
130.5947057623628
 31
0.0
  0
LINE
  5
15E
330
145
100
AcDbEntity
  8
DV3_0
 62
     7
370
    25
100
AcDbLine
 10
207.199652146828
 20
130.4958260942759
 30
0.0
 11
207.4996518995599
 21
130.4962112706003
 31
0.0
  0
ARC
  5
15F
330
145
100
AcDbEntity
  8
DV3_0
 62
     7
370
    35
100
AcDbCircle
 10
207.1496521880393
 20
130.4957618982218
 30
0.0
 40
0.3500000000000001
100
AcDbArc
 50
0.0735632794065961
 51
16.42122159968234
  0
ARC
  5
160
330
145
100
AcDbEntity
  8
DV3_0
 62
     7
370
    35
100
AcDbCircle
 10
207.1496521880393
 20
130.4957618982218
 30
0.0
 40
0.0499999999999996
100
AcDbArc
 50
0.0735632794344764
 51
16.42122159971673
  0
LINE
  5
161
330
145
100
AcDbEntity
  8
DV3_0
 62
     7
370
    35
100
AcDbLine
 10
206.4183655995799
 20
142.1742013077072
 30
0.0
 11
203.9515883897762
 21
150.5441443060329
 31
0.0
  0
LINE
  5
162
330
145
100
AcDbEntity
  8
DV3_0
 62
     7
370
    35
100
AcDbLine
 10
203.9515883897762
 20
150.5441443060329
 30
0.0
 11
201.7933673900874
 21
149.9080766079832
 31
0.0
  0
LINE
  5
163
330
145
100
AcDbEntity
  8
DV3_0
 62
     7
370
    35
100
AcDbLine
 10
201.7933673900874
 20
149.9080766079832
 30
0.0
 11
204.0726836695412
 21
142.1742013077072
 31
0.0
  0
LINE
  5
164
330
145
100
AcDbEntity
  8
DV3_0
 62
     7
370
    35
100
AcDbLine
 10
207.4996521880393
 20
139.6742013077072
 30
0.0
 11
204.4930133660778
 21
139.6742013077072
 31
0.0
  0
LINE
  5
165
330
145
100
AcDbEntity
  8
DV3_0
 62
     7
370
    35
100
AcDbLine
 10
203.761377160084
 20
142.1742013077072
 30
0.0
 11
207.4996521880393
 21
142.1742013077072
 31
0.0
  0
LINE
  5
166
330
145
100
AcDbEntity
  8
DV3_0
 62
     7
370
    35
100
AcDbLine
 10
204.4930133660778
 20
139.6742013077072
 30
0.0
 11
203.761377160084
 21
142.1742013077072
 31
0.0
  0
ENDBLK
  5
168
330
145
100
AcDbEntity
  8
0
100
AcDbBlockEnd
  0
BLOCK
  5
172
330
169
100
AcDbEntity
  8
0
100
AcDbBlockBegin
  2
GDimGGroup
 70
     0
 10
0.0
 20
0.0
 30
0.0
  3
GDimGGroup
  1

  0
LWPOLYLINE
  5
16B
330
169
100
AcDbEntity
  8
Default
 62
     7
370
    25
100
AcDbPolyline
 90
        4
 70
     0
 43
0.0
 10
19.44355114636972
 20
161.4655693614365
 10
19.44355114636972
 20
160.4655693527442
 10
16.44355112029269
 20
160.9655693570904
 10
19.44355114636972
 20
161.4655693614365
  0
LWPOLYLINE
  5
16C
330
169
100
AcDbEntity
  8
Default
 62
     7
370
    25
100
AcDbPolyline
 90
        4
 70
     0
 43
0.0
 10
133.4437197753604
 20
161.4655693614365
 10
133.4437197753604
 20
160.4655693527442
 10
136.4437198014374
 20
160.9655693570904
 10
133.4437197753604
 20
161.4655693614365
  0
LINE
  5
16D
330
169
100
AcDbEntity
  8
Default
 62
     7
370
    25
100
AcDbLine
 10
16.44355112029269
 20
108.6242013077072
 30
0.0
 11
16.44355112029269
 21
162.4655693701289
 31
0.0
  0
LINE
  5
16E
330
169
100
AcDbEntity
  8
Default
 62
     7
370
    25
100
AcDbLine
 10
136.4437197131148
 20
108.3242013077071
 30
0.0
 11
136.4437197131148
 21
162.4655693701289
 31
0.0
  0
LINE
  5
16F
330
169
100
AcDbEntity
  8
Default
 62
     7
370
    25
100
AcDbLine
 10
16.44355112029269
 20
160.9655693570904
 30
0.0
 11
136.4437198014374
 21
160.9655693570904
 31
0.0
  0
TEXT
  5
171
330
169
100
AcDbEntity
  8
Default
 62
     7
370
    25
100
AcDbText
 10
71.747983286952
 20
161.7155693570904
 30
0.0
 40
3.0
  1
2400
  7
SEACAD_Solid_Edge_ANSI
 11
71.747983286952
 21
164.7155693570904
 31
0.0
100
AcDbText
 73
     3
  0
ENDBLK
  5
173
330
169
100
AcDbEntity
  8
0
100
AcDbBlockEnd
  0
BLOCK
  5
17C
330
174
100
AcDbEntity
  8
0
100
AcDbBlockBegin
  2
GDimGGroup1
 70
     0
 10
0.0
 20
0.0
 30
0.0
  3
GDimGGroup1
  1

  0
LWPOLYLINE
  5
176
330
174
100
AcDbEntity
  8
Default
 62
     7
370
    25
100
AcDbPolyline
 90
        4
 70
     0
 43
0.0
 10
153.6485949924115
 20
128.5742012816301
 10
152.6485949837192
 20
128.5742012816301
 10
153.1485949880653
 20
131.5742013077071
 10
153.6485949924115
 20
128.5742012816301
  0
LWPOLYLINE
  5
177
330
174
100
AcDbEntity
  8
Default
 62
     7
370
    25
100
AcDbPolyline
 90
        4
 70
     0
 43
0.0
 10
153.6485949924115
 20
111.3242007824412
 10
152.6485949837192
 20
111.3242007824412
 10
153.1485949880653
 20
108.3242007563642
 10
153.6485949924115
 20
111.3242007824412
  0
LINE
  5
178
330
174
100
AcDbEntity
  8
Default
 62
     7
370
    25
100
AcDbLine
 10
126.4436354167038
 20
131.5742013077071
 30
0.0
 11
154.6485950011038
 21
131.5742013077071
 31
0.0
  0
LINE
  5
179
330
174
100
AcDbEntity
  8
Default
 62
     7
370
    25
100
AcDbLine
 10
135.3779698922327
 20
108.3242013077071
 30
0.0
 11
154.6485950011038
 21
108.3242013077071
 31
0.0
  0
LINE
  5
17A
330
174
100
AcDbEntity
  8
Default
 62
     7
370
    25
100
AcDbLine
 10
153.1485949880653
 20
131.5742013077071
 30
0.0
 11
153.1485949880653
 21
108.3242007563642
 31
0.0
  0
TEXT
  5
17B
330
174
100
AcDbEntity
  8
Default
 62
     7
370
    25
100
AcDbText
 10
152.3985949880653
 20
116.4274619016009
 30
0.0
 40
3.0
  1
465
 50
90.0
  7
SEACAD_Solid_Edge_ANSI
 11
149.3985949880653
 21
116.4274619016009
 31
0.0
100
AcDbText
 73
     3
  0
ENDBLK
  5
17D
330
174
100
AcDbEntity
  8
0
100
AcDbBlockEnd
  0
BLOCK
  5
186
330
17E
100
AcDbEntity
  8
0
100
AcDbBlockBegin
  2
GDimGGroup2
 70
     0
 10
0.0
 20
0.0
 30
0.0
  3
GDimGGroup2
  1

  0
LWPOLYLINE
  5
180
330
17E
100
AcDbEntity
  8
Default
 62
     7
370
    25
100
AcDbPolyline
 90
        4
 70
     0
 43
0.0
 10
148.1543272187832
 20
71.54402482008962
 10
147.1543272100909
 20
71.54402482008962
 10
147.654327214437
 20
74.54402484616665
 10
148.1543272187832
 20
71.54402482008962
  0
LWPOLYLINE
  5
181
330
17E
100
AcDbEntity
  8
Default
 62
     7
370
    25
100
AcDbPolyline
 90
        4
 70
     0
 43
0.0
 10
148.1543272187832
 20
49.54997702187327
 10
147.1543272100909
 20
49.54997702187327
 10
147.654327214437
 20
46.54997699579624
 10
148.1543272187832
 20
49.54997702187327
  0
LINE
  5
182
330
17E
100
AcDbEntity
  8
Default
 62
     7
370
    25
100
AcDbLine
 10
124.7436354167037
 20
74.54402484616665
 30
0.0
 11
149.1543272274756
 21
74.54402484616665
 31
0.0
  0
LINE
  5
183
330
17E
100
AcDbEntity
  8
Default
 62
     7
370
    25
100
AcDbLine
 10
126.4436354167038
 20
46.54997724825619
 30
0.0
 11
149.1543272274756
 21
46.54997724825619
 31
0.0
  0
LINE
  5
184
330
17E
100
AcDbEntity
  8
Default
 62
     7
370
    25
100
AcDbLine
 10
147.654327214437
 20
74.54402484616665
 30
0.0
 11
147.654327214437
 21
46.54997699579624
 31
0.0
  0
TEXT
  5
185
330
17E
100
AcDbEntity
  8
Default
 62
     7
370
    25
100
AcDbText
 10
146.904327214437
 20
57.02526179054667
 30
0.0
 40
3.0
  1
560
 50
90.0
  7
SEACAD_Solid_Edge_ANSI
 11
143.904327214437
 21
57.02526179054667
 31
0.0
100
AcDbText
 73
     3
  0
ENDBLK
  5
187
330
17E
100
AcDbEntity
  8
0
100
AcDbBlockEnd
  0
BLOCK
  5
190
330
188
100
AcDbEntity
  8
0
100
AcDbBlockBegin
  2
GDimGGroup3
 70
     0
 10
0.0
 20
0.0
 30
0.0
  3
GDimGGroup3
  1

  0
LWPOLYLINE
  5
18A
330
188
100
AcDbEntity
  8
Default
 62
     7
370
    25
100
AcDbPolyline
 90
        4
 70
     0
 43
0.0
 10
194.2980662008385
 20
146.8232675554996
 10
195.2980662095308
 20
146.8232675554996
 10
194.7980662051846
 20
149.8232675815766
 10
194.2980662008385
 20
146.8232675554996
  0
LWPOLYLINE
  5
18B
330
188
100
AcDbEntity
  8
Default
 62
     7
370
    25
100
AcDbPolyline
 90
        4
 70
     0
 43
0.0
 10
194.2980662008385
 20
111.3242005097513
 10
195.2980662095308
 20
111.3242005097513
 10
194.7980662051846
 20
108.3242004836743
 10
194.2980662008385
 20
111.3242005097513
  0
LINE
  5
18C
330
188
100
AcDbEntity
  8
Default
 62
     7
370
    25
100
AcDbLine
 10
201.5056045901288
 20
149.8232675815766
 30
0.0
 11
193.2980661921461
 21
149.8232675815766
 31
0.0
  0
LINE
  5
18D
330
188
100
AcDbEntity
  8
Default
 62
     7
370
    25
100
AcDbLine
 10
207.4996521880393
 20
108.3242013077072
 30
0.0
 11
193.2980661921461
 21
108.3242013077072
 31
0.0
  0
LINE
  5
18E
330
188
100
AcDbEntity
  8
Default
 62
     7
370
    25
100
AcDbLine
 10
194.7980662051846
 20
149.8232675815766
 30
0.0
 11
194.7980662051846
 21
108.3242004836743
 31
0.0
  0
TEXT
  5
18F
330
188
100
AcDbEntity
  8
Default
 62
     7
370
    25
100
AcDbText
 10
194.0480662051846
 20
125.5519949021907
 30
0.0
 40
3.0
  1
830
 50
90.0
  7
SEACAD_Solid_Edge_ANSI
 11
191.0480662051846
 21
125.5519949021907
 31
0.0
100
AcDbText
 73
     3
  0
ENDBLK
  5
191
330
188
100
AcDbEntity
  8
0
100
AcDbBlockEnd
  0
BLOCK
  5
23D
330
192
100
AcDbEntity
  8
0
100
AcDbBlockBegin
  2
SE3
 70
     0
 10
0.0
 20
0.0
 30
0.0
  3
SE3
  1

  0
LINE
  5
195
330
192
100
AcDbEntity
  8
DV4_0
 62
     7
370
    35
100
AcDbLine
 10
265.5955661035262
 20
75.30775623894644
 30
0.0
 11
265.5955661035262
 21
75.06280726466812
 31
0.0
  0
LINE
  5
196
330
192
100
AcDbEntity
  8
DV4_0
 62
     7
370
    35
100
AcDbLine
 10
265.3834340691702
 20
75.18528175180731
 30
0.0
 11
265.5955661035262
 21
75.06280726466812
 31
0.0
  0
LINE
  5
197
330
192
100
AcDbEntity
  8
DV4_0
 62
     7
370
    35
100
AcDbLine
 10
265.5955661035262
 20
75.06280726466811
 30
0.0
 11
268.8836126360437
 21
76.96116181532507
 31
0.0
  0
LINE
  5
198
330
192
100
AcDbEntity
  8
DV4_0
 62
     7
370
    35
100
AcDbLine
 10
269.1311000094589
 20
77.38982252031214
 30
0.0
 11
269.1311000094589
 21
87.84097875618703
 31
0.0
  0
ELLIPSE
  5
199
330
192
100
AcDbEntity
  8
DV4_0
 62
     7
370
    35
100
AcDbEllipse
 10
269.1664553485182
 20
87.86139117071023
 30
0.0
 11
-0.0250000000000009
 21
-0.04330127018921895
 31
0.0
210
0.0
220
0.0
230
0.9999999999999997
 40
0.5773502691895612
 41
3.926990816987233
 42
5.497787143781778
  0
LINE
  5
19A
330
192
100
AcDbEntity
  8
DV4_0
 62
     7
370
    35
100
AcDbLine
 10
269.1664553485182
 20
87.90221599975662
 30
0.0
 11
270.86813303507
 21
88.88468007016127
 31
0.0
  0
ELLIPSE
  5
19B
330
192
100
AcDbEntity
  8
DV4_0
 62
     7
370
    35
100
AcDbEllipse
 10
270.86813303507
 20
88.84385524111488
 30
0.0
 11
-0.02500000000000286
 21
-0.04330127018922234
 31
0.0
210
0.0
220
0.0
230
1.0
 40
0.5773502691896083
 41
2.495820830351546
 42
3.926990816987312
  0
LINE
  5
19C
330
192
100
AcDbEntity
  8
DV4_0
 62
     7
370
    25
100
AcDbLine
 10
270.8730535472424
 20
88.88712362475863
 30
0.0
 11
270.9031442984
 21
88.86975072147767
 31
0.0
  0
LINE
  5
19D
330
192
100
AcDbEntity
  8
DV4_0
 62
     7
370
    35
100
AcDbLine
 10
270.9031442984
 20
88.86975072147767
 30
0.0
 11
274.2378186994342
 21
63.3969366790593
 31
0.0
  0
LINE
  5
19E
330
192
100
AcDbEntity
  8
DV4_0
 62
     7
370
    25
100
AcDbLine
 10
259.6016200827253
 20
71.847149890329
 30
0.0
 11
274.2378186994342
 21
63.39693667905931
 31
0.0
  0
ELLIPSE
  5
19F
330
192
100
AcDbEntity
  8
DV4_0
 62
     7
370
    35
100
AcDbEllipse
 10
274.4828975427441
 20
63.57820504159878
 30
0.0
 11
0.1750000000000063
 21
0.3031088913245532
 31
0.0
210
0.0
220
0.0
230
0.9999999999999999
 40
0.5773502691896184
 41
2.495820830351818
 42
3.926990816987267
  0
LINE
  5
1A0
330
192
100
AcDbEntity
  8
DV4_0
 62
     7
370
    35
100
AcDbLine
 10
274.4828975427441
 20
63.29243123827408
 30
0.0
 11
275.9900953935323
 21
64.16261232314869
 31
0.0
  0
LINE
  5
1A1
330
192
100
AcDbEntity
  8
DV4_0
 62
     7
370
    35
100
AcDbLine
 10
265.5955661035262
 20
75.30775623894644
 30
0.0
 11
268.8836126360437
 21
77.2061107896034
 31
0.0
  0
LINE
  5
1A2
330
192
100
AcDbEntity
  8
DV4_0
 62
     7
370
    35
100
AcDbLine
 10
253.3626187889989
 20
88.045102901419
 30
0.0
 11
253.3626187889989
 21
96.69996665925287
 31
0.0
  0
LINE
  5
1A3
330
192
100
AcDbEntity
  8
DV4_0
 62
     7
370
    35
100
AcDbLine
 10
268.9189679751029
 20
77.267348033173
 30
0.0
 11
268.9189679751029
 21
87.71850426904788
 31
0.0
  0
ELLIPSE
  5
1A4
330
192
100
AcDbEntity
  8
DV4_0
 62
     7
370
    35
100
AcDbEllipse
 10
253.6101061624142
 20
96.84285356091523
 30
0.0
 11
-0.1749999999999964
 21
-0.3031088913245564
 31
0.0
210
0.0
220
0.0
230
0.9999999999999998
 40
0.5773502691896266
 41
3.926990816987294
 42
5.497787143782105
  0
LINE
  5
1A5
330
192
100
AcDbEntity
  8
DV4_0
 62
     7
370
    25
100
AcDbLine
 10
253.3626187889989
 20
96.69996665925288
 30
0.0
 11
268.9189679751029
 21
87.7185042690479
 31
0.0
  0
ELLIPSE
  5
1A6
330
192
100
AcDbEntity
  8
DV4_0
 62
     7
370
    35
100
AcDbEllipse
 10
269.1664553485182
 20
87.86139117071023
 30
0.0
 11
-0.1749999999999964
 21
-0.3031088913245564
 31
0.0
210
0.0
220
0.0
230
0.9999999999999998
 40
0.5773502691896175
 41
3.926990816987246
 42
5.497787143782212
  0
LINE
  5
1A7
330
192
100
AcDbEntity
  8
DV4_0
 62
     7
370
    35
100
AcDbLine
 10
253.6101061624142
 20
97.12862736423993
 30
0.0
 11
255.3117838489659
 21
98.11109143464458
 31
0.0
  0
LINE
  5
1A8
330
192
100
AcDbEntity
  8
DV4_0
 62
     7
370
    25
100
AcDbLine
 10
253.6101061624142
 20
97.12862736423993
 30
0.0
 11
269.1664553485182
 21
88.14716497403494
 31
0.0
  0
LINE
  5
1A9
330
192
100
AcDbEntity
  8
DV4_0
 62
     7
370
    35
100
AcDbLine
 10
269.1664553485182
 20
88.14716497403494
 30
0.0
 11
270.86813303507
 21
89.12962904443958
 31
0.0
  0
ELLIPSE
  5
1AA
330
192
100
AcDbEntity
  8
DV4_0
 62
     7
370
    35
100
AcDbEllipse
 10
255.311783848966
 20
97.82531763131986
 30
0.0
 11
-0.1750000000000058
 21
-0.303108891324542
 31
0.0
210
0.0
220
0.0
230
0.9999999999999998
 40
0.5773502691896326
 41
3.141592653589793
 42
3.926990816987297
  0
LINE
  5
1AB
330
192
100
AcDbEntity
  8
DV4_0
 62
     7
370
    25
100
AcDbLine
 10
255.311783848966
 20
98.11109143464458
 30
0.0
 11
270.86813303507
 21
89.1296290444396
 31
0.0
  0
ELLIPSE
  5
1AC
330
192
100
AcDbEntity
  8
DV4_0
 62
     7
370
    35
100
AcDbEllipse
 10
270.86813303507
 20
88.84385524111488
 30
0.0
 11
-0.1750000000000161
 21
-0.3031088913245543
 31
0.0
210
0.0
220
0.0
230
1.0
 40
0.5773502691896122
 41
2.495820830351925
 42
3.926990816987297
  0
LINE
  5
1AD
330
192
100
AcDbEntity
  8
DV4_0
 62
     7
370
    35
100
AcDbLine
 10
271.1132118783799
 20
89.0251236036544
 30
0.0
 11
274.4478862794141
 21
63.55230956123601
 31
0.0
  0
ELLIPSE
  5
1AE
330
192
100
AcDbEntity
  8
DV4_0
 62
     7
370
    35
100
AcDbEllipse
 10
274.4828975427441
 20
63.57820504159878
 30
0.0
 11
0.02499999999998912
 21
0.04330127018923482
 31
0.0
210
0.0
220
0.0
230
1.0
 40
0.5773502691894485
 41
2.495820830350696
 42
3.926990816987007
  0
LINE
  5
1AF
330
192
100
AcDbEntity
  8
DV4_0
 62
     7
370
    25
100
AcDbLine
 10
274.447137929494
 20
63.55802603488842
 30
0.0
 11
274.4828975427441
 21
63.53738021255239
 31
0.0
  0
LINE
  5
1B0
330
192
100
AcDbEntity
  8
DV4_0
 62
     7
370
    35
100
AcDbLine
 10
274.4828975427441
 20
63.5373802125524
 30
0.0
 11
275.9900953935323
 21
64.40756129742701
 31
0.0
  0
LINE
  5
1B1
330
192
100
AcDbEntity
  8
DV4_0
 62
     7
370
    35
100
AcDbLine
 10
275.9900953935323
 20
64.40756129742701
 30
0.0
 11
274.2006773033652
 21
65.44068231347781
 31
0.0
  0
LINE
  5
1B2
330
192
100
AcDbEntity
  8
DV4_0
 62
     7
370
    35
100
AcDbLine
 10
275.9900953935323
 20
64.40756129742701
 30
0.0
 11
275.9900953935323
 21
64.16261232314869
 31
0.0
  0
LINE
  5
1B3
330
192
100
AcDbEntity
  8
DV4_0
 62
     7
370
    25
100
AcDbLine
 10
274.4828975427441
 20
63.5373802125524
 30
0.0
 11
274.4828975427441
 21
63.29243123827408
 31
0.0
  0
LINE
  5
1B4
330
192
100
AcDbEntity
  8
DV4_0
 62
     7
370
    25
100
AcDbLine
 10
274.4478862794141
 20
63.552309561236
 30
0.0
 11
274.2378186994342
 21
63.39693667905929
 31
0.0
  0
LINE
  5
1B5
330
192
100
AcDbEntity
  8
DV4_0
 62
     7
370
    25
100
AcDbLine
 10
271.1132118783799
 20
89.0251236036544
 30
0.0
 11
270.9031442984
 21
88.86975072147767
 31
0.0
  0
LINE
  5
1B6
330
192
100
AcDbEntity
  8
DV4_0
 62
     7
370
    25
100
AcDbLine
 10
270.86813303507
 20
89.12962904443958
 30
0.0
 11
270.86813303507
 21
88.88468007016127
 31
0.0
  0
LINE
  5
1B7
330
192
100
AcDbEntity
  8
DV4_0
 62
     7
370
    25
100
AcDbLine
 10
269.1664553485182
 20
88.14716497403494
 30
0.0
 11
269.1664553485182
 21
87.90221599975662
 31
0.0
  0
LINE
  5
1B8
330
192
100
AcDbEntity
  8
DV4_0
 62
     7
370
    25
100
AcDbLine
 10
268.9189679751029
 20
87.71850426904788
 30
0.0
 11
269.1311000094589
 21
87.84097875618704
 31
0.0
  0
LINE
  5
1B9
330
192
100
AcDbEntity
  8
DV4_0
 62
     7
370
    25
100
AcDbLine
 10
268.9189679751029
 20
77.267348033173
 30
0.0
 11
269.1311000094589
 21
77.38982252031215
 31
0.0
  0
LINE
  5
1BA
330
192
100
AcDbEntity
  8
DV4_0
 62
     7
370
    25
100
AcDbLine
 10
268.8836126360437
 20
77.2061107896034
 30
0.0
 11
268.8836126360437
 21
76.96116181532508
 31
0.0
  0
ELLIPSE
  5
1BB
330
192
100
AcDbEntity
  8
DV4_0
 62
     7
370
    35
100
AcDbEllipse
 10
268.8836126360437
 20
77.24693561864979
 30
0.0
 11
-0.02499999999999894
 21
-0.04330127018922916
 31
0.0
210
0.0
220
0.0
230
1.0
 40
0.5773502691895617
 41
0.7853981633975184
 42
2.356194490191294
  0
ELLIPSE
  5
1BC
330
192
100
AcDbEntity
  8
DV4_0
 62
     7
370
    35
100
AcDbEllipse
 10
268.8836126360437
 20
77.2469356186498
 30
0.0
 11
-0.1749999999999964
 21
-0.3031088913245564
 31
0.0
210
0.0
220
0.0
230
0.9999999999999998
 40
0.5773502691896357
 41
0.7853981633974518
 42
2.356194490192205
  0
LINE
  5
1BD
330
192
100
AcDbEntity
  8
DV4_0
 62
     7
370
    35
100
AcDbLine
 10
259.5311425112419
 20
71.80645964546119
 30
0.0
 11
272.4004859288371
 21
64.37634075901887
 31
0.0
  0
LINE
  5
1BE
330
192
100
AcDbEntity
  8
DV4_0
 62
     7
370
    35
100
AcDbLine
 10
271.04313303507
 20
89.14696413243944
 30
0.0
 11
255.486783848966
 21
98.12842652264443
 31
0.0
  0
LINE
  5
1BF
330
192
100
AcDbEntity
  8
DV4_0
 62
     7
370
    35
100
AcDbLine
 10
198.2436451955075
 20
36.17715759798523
 30
0.0
 11
201.531691728025
 21
38.07551214864219
 31
0.0
  0
LINE
  5
1C0
330
192
100
AcDbEntity
  8
DV4_0
 62
     7
370
    35
100
AcDbLine
 10
197.9961578220922
 20
46.77120073552248
 30
0.0
 11
197.9961578220922
 21
36.32004449964758
 31
0.0
  0
ELLIPSE
  5
1C1
330
192
100
AcDbEntity
  8
DV4_0
 62
     7
370
    35
100
AcDbEllipse
 10
197.9608024830329
 20
46.75078832099928
 30
0.0
 11
-0.02500000000000286
 21
-0.04330127018922122
 31
0.0
210
0.0
220
0.0
230
1.0
 40
0.5773502691896097
 41
2.356194490192682
 42
3.926990816987473
  0
LINE
  5
1C2
330
192
100
AcDbEntity
  8
DV4_0
 62
     7
370
    35
100
AcDbLine
 10
196.2591247964811
 20
45.80914907964103
 30
0.0
 11
197.9608024830329
 21
46.79161315004568
 31
0.0
  0
ELLIPSE
  5
1C3
330
192
100
AcDbEntity
  8
DV4_0
 62
     7
370
    35
100
AcDbEllipse
 10
196.2591247964811
 20
45.76832425059465
 30
0.0
 11
-0.02499999999999501
 21
-0.04330127018921443
 31
0.0
210
0.0
220
0.0
230
1.0
 40
0.5773502691895667
 41
3.926990816987237
 42
5.358160803622834
  0
LINE
  5
1C4
330
192
100
AcDbEntity
  8
DV4_0
 62
     7
370
    35
100
AcDbLine
 10
192.889439132117
 20
16.4304278377289
 30
0.0
 11
196.2241135331512
 21
45.75379220634095
 31
0.0
  0
ELLIPSE
  5
1C5
330
192
100
AcDbEntity
  8
DV4_0
 62
     7
370
    35
100
AcDbEllipse
 10
192.6443602888071
 20
16.32870352795311
 30
0.0
 11
-0.174999999999997
 21
-0.3031088913245608
 31
0.0
210
0.0
220
0.0
230
1.0
 40
0.577350269189605
 41
0.785398163397435
 42
2.216568150032824
  0
LINE
  5
1C6
330
192
100
AcDbEntity
  8
DV4_0
 62
     7
370
    35
100
AcDbLine
 10
191.1371624380188
 20
15.17274863975376
 30
0.0
 11
192.6443602888071
 21
16.04292972462839
 31
0.0
  0
LINE
  5
1C7
330
192
100
AcDbEntity
  8
DV4_0
 62
     7
370
    25
100
AcDbLine
 10
197.9608024830329
 20
46.79161315004568
 30
0.0
 11
197.9961578220922
 21
46.77120073552248
 31
0.0
  0
LINE
  5
1C8
330
192
100
AcDbEntity
  8
DV4_0
 62
     7
370
    25
100
AcDbLine
 10
195.32657672687
 20
37.86132786359765
 30
0.0
 11
197.9961578220922
 21
36.32004449964759
 31
0.0
  0
LINE
  5
1C9
330
192
100
AcDbEntity
  8
DV4_0
 62
     7
370
    35
100
AcDbLine
 10
175.5808132519148
 20
24.15421102995875
 30
0.0
 11
191.1371624380188
 21
15.17274863975376
 31
0.0
  0
LINE
  5
1CA
330
192
100
AcDbEntity
  8
DV4_0
 62
     7
370
    35
100
AcDbLine
 10
175.5808132519148
 20
24.39916000423708
 30
0.0
 11
177.088011102703
 21
25.2693410891117
 31
0.0
  0
LINE
  5
1CB
330
192
100
AcDbEntity
  8
DV4_0
 62
     7
370
    35
100
AcDbLine
 10
175.5808132519148
 20
24.39916000423708
 30
0.0
 11
191.1371624380188
 21
15.41769761403209
 31
0.0
  0
LINE
  5
1CC
330
192
100
AcDbEntity
  8
DV4_0
 62
     7
370
    35
100
AcDbLine
 10
191.1371624380188
 20
15.41769761403209
 30
0.0
 11
192.6443602888071
 21
16.28787869890671
 31
0.0
  0
ELLIPSE
  5
1CD
330
192
100
AcDbEntity
  8
DV4_0
 62
     7
370
    35
100
AcDbEllipse
 10
177.088011102703
 20
25.31016591815809
 30
0.0
 11
-0.02500000000000483
 21
-0.04330127018921896
 31
0.0
210
0.0
220
0.0
230
0.9999999999999997
 40
0.5773502691897414
 41
0.7853981633975193
 42
2.216568150033288
  0
LINE
  5
1CE
330
192
100
AcDbEntity
  8
DV4_0
 62
     7
370
    25
100
AcDbLine
 10
177.088011102703
 20
25.2693410891117
 30
0.0
 11
192.6443602888071
 21
16.28787869890671
 31
0.0
  0
ELLIPSE
  5
1CF
330
192
100
AcDbEntity
  8
DV4_0
 62
     7
370
    35
100
AcDbEllipse
 10
192.644360288807
 20
16.32870352795309
 30
0.0
 11
-0.02500000000001071
 21
-0.04330127018922009
 31
0.0
210
0.0
220
0.0
230
1.0
 40
0.5773502691897311
 41
0.7853981633977369
 42
2.216568150033204
  0
LINE
  5
1D0
330
192
100
AcDbEntity
  8
DV4_0
 62
     7
370
    35
100
AcDbLine
 10
177.123022366033
 20
25.32469796241178
 30
0.0
 11
180.4576967670672
 21
54.64806233102382
 31
0.0
  0
LINE
  5
1D1
330
192
100
AcDbEntity
  8
DV4_0
 62
     7
370
    25
100
AcDbLine
 10
177.123022366033
 20
25.32469796241178
 30
0.0
 11
192.6793715521371
 21
16.34323557220678
 31
0.0
  0
LINE
  5
1D2
330
192
100
AcDbEntity
  8
DV4_0
 62
     7
370
    35
100
AcDbLine
 10
192.679371552137
 20
16.34323557220678
 30
0.0
 11
196.0140459531712
 21
45.66659994081884
 31
0.0
  0
ELLIPSE
  5
1D3
330
192
100
AcDbEntity
  8
DV4_0
 62
     7
370
    35
100
AcDbEllipse
 10
180.7027756103771
 20
54.74978664079963
 30
0.0
 11
-0.1750000000000023
 21
-0.3031088913245485
 31
0.0
210
0.0
220
0.0
230
1.0
 40
0.5773502691896372
 41
3.926990816987223
 42
5.358160803622641
  0
LINE
  5
1D4
330
192
100
AcDbEntity
  8
DV4_0
 62
     7
370
    25
100
AcDbLine
 10
180.4576967670672
 20
54.64806233102382
 30
0.0
 11
196.0140459531712
 21
45.66659994081884
 31
0.0
  0
ELLIPSE
  5
1D5
330
192
100
AcDbEntity
  8
DV4_0
 62
     7
370
    35
100
AcDbEllipse
 10
196.2591247964811
 20
45.76832425059463
 30
0.0
 11
-0.1749999999999867
 21
-0.3031088913245633
 31
0.0
210
0.0
220
0.0
230
1.0
 40
0.577350269189621
 41
3.926990816987203
 42
5.358160803622523
  0
LINE
  5
1D6
330
192
100
AcDbEntity
  8
DV4_0
 62
     7
370
    35
100
AcDbLine
 10
180.7027756103771
 20
55.03556044412434
 30
0.0
 11
182.4044532969289
 21
56.01802451452898
 31
0.0
  0
LINE
  5
1D7
330
192
100
AcDbEntity
  8
DV4_0
 62
     7
370
    25
100
AcDbLine
 10
180.7027756103771
 20
55.03556044412434
 30
0.0
 11
196.2591247964811
 21
46.05409805391935
 31
0.0
  0
LINE
  5
1D8
330
192
100
AcDbEntity
  8
DV4_0
 62
     7
370
    35
100
AcDbLine
 10
196.2591247964811
 20
46.05409805391934
 30
0.0
 11
197.9608024830329
 21
47.03656212432399
 31
0.0
  0
ELLIPSE
  5
1D9
330
192
100
AcDbEntity
  8
DV4_0
 62
     7
370
    35
100
AcDbEllipse
 10
182.4044532969288
 20
55.73225071120427
 30
0.0
 11
-0.175000000000022
 21
-0.3031088913245532
 31
0.0
210
0.0
220
0.0
230
1.0
 40
0.577350269189625
 41
3.141592653589793
 42
3.926990816987287
  0
LINE
  5
1DA
330
192
100
AcDbEntity
  8
DV4_0
 62
     7
370
    25
100
AcDbLine
 10
182.4044532969288
 20
56.01802451452898
 30
0.0
 11
197.9608024830329
 21
47.03656212432399
 31
0.0
  0
ELLIPSE
  5
1DB
330
192
100
AcDbEntity
  8
DV4_0
 62
     7
370
    35
100
AcDbEllipse
 10
197.9608024830329
 20
46.75078832099928
 30
0.0
 11
-0.1750000000000102
 21
-0.3031088913245554
 31
0.0
210
0.0
220
0.0
230
1.0
 40
0.5773502691896203
 41
2.35619449019234
 42
3.926990816987257
  0
LINE
  5
1DC
330
192
100
AcDbEntity
  8
DV4_0
 62
     7
370
    35
100
AcDbLine
 10
198.2082898564482
 20
46.89367522266163
 30
0.0
 11
198.2082898564482
 21
36.44251898678674
 31
0.0
  0
LINE
  5
1DD
330
192
100
AcDbEntity
  8
DV4_0
 62
     7
370
    35
100
AcDbLine
 10
198.2436451955075
 20
36.42210657226355
 30
0.0
 11
201.531691728025
 21
38.32046112292052
 31
0.0
  0
LINE
  5
1DE
330
192
100
AcDbEntity
  8
DV4_0
 62
     7
370
    35
100
AcDbLine
 10
191.1371624380188
 20
15.41769761403209
 30
0.0
 11
191.1371624380188
 21
15.17274863975377
 31
0.0
  0
LINE
  5
1DF
330
192
100
AcDbEntity
  8
DV4_0
 62
     7
370
    35
100
AcDbLine
 10
201.531691728025
 20
38.32046112292051
 30
0.0
 11
201.531691728025
 21
38.07551214864219
 31
0.0
  0
LINE
  5
1E0
330
192
100
AcDbEntity
  8
DV4_0
 62
     7
370
    35
100
AcDbLine
 10
175.5808132519148
 20
24.39916000423708
 30
0.0
 11
175.5808132519148
 21
24.15421102995876
 31
0.0
  0
LINE
  5
1E1
330
192
100
AcDbEntity
  8
DV4_0
 62
     7
370
    25
100
AcDbLine
 10
198.2082898564482
 20
36.44251898678674
 30
0.0
 11
197.9961578220922
 21
36.32004449964758
 31
0.0
  0
LINE
  5
1E2
330
192
100
AcDbEntity
  8
DV4_0
 62
     7
370
    25
100
AcDbLine
 10
198.2436451955075
 20
36.42210657226355
 30
0.0
 11
198.2436451955075
 21
36.17715759798524
 31
0.0
  0
LINE
  5
1E3
330
192
100
AcDbEntity
  8
DV4_0
 62
     7
370
    25
100
AcDbLine
 10
197.9961578220922
 20
46.77120073552248
 30
0.0
 11
198.2082898564482
 21
46.89367522266163
 31
0.0
  0
LINE
  5
1E4
330
192
100
AcDbEntity
  8
DV4_0
 62
     7
370
    25
100
AcDbLine
 10
197.9608024830329
 20
46.79161315004567
 30
0.0
 11
197.9608024830329
 21
47.03656212432399
 31
0.0
  0
LINE
  5
1E5
330
192
100
AcDbEntity
  8
DV4_0
 62
     7
370
    25
100
AcDbLine
 10
196.2591247964811
 20
45.80914907964103
 30
0.0
 11
196.2591247964811
 21
46.05409805391935
 31
0.0
  0
LINE
  5
1E6
330
192
100
AcDbEntity
  8
DV4_0
 62
     7
370
    25
100
AcDbLine
 10
196.2241135331511
 20
45.75379220634096
 30
0.0
 11
196.0140459531712
 21
45.66659994081884
 31
0.0
  0
LINE
  5
1E7
330
192
100
AcDbEntity
  8
DV4_0
 62
     7
370
    25
100
AcDbLine
 10
192.6443602888071
 20
16.28787869890671
 30
0.0
 11
192.6443602888071
 21
16.04292972462839
 31
0.0
  0
LINE
  5
1E8
330
192
100
AcDbEntity
  8
DV4_0
 62
     7
370
    25
100
AcDbLine
 10
192.679371552137
 20
16.34323557220678
 30
0.0
 11
192.8894391321169
 21
16.4304278377289
 31
0.0
  0
ELLIPSE
  5
1E9
330
192
100
AcDbEntity
  8
DV4_0
 62
     7
370
    35
100
AcDbEllipse
 10
198.2436451955075
 20
36.46293140130992
 30
0.0
 11
0.02499999999999796
 21
0.04330127018921633
 31
0.0
210
0.0
220
0.0
230
1.0
 40
0.577350269189659
 41
2.356194490192046
 42
3.926990816987318
  0
ELLIPSE
  5
1EA
330
192
100
AcDbEntity
  8
DV4_0
 62
     7
370
    35
100
AcDbEllipse
 10
198.2436451955075
 20
36.46293140130993
 30
0.0
 11
0.1749999999999994
 21
0.3031088913245444
 31
0.0
210
0.0
220
0.0
230
1.0
 40
0.5773502691896297
 41
2.356194490192351
 42
3.926990816987258
  0
LINE
  5
1EB
330
192
100
AcDbEntity
  8
DV4_0
 62
     7
370
    35
100
AcDbLine
 10
198.1358024830329
 20
47.05389721232384
 30
0.0
 11
182.5794532969289
 21
56.03535960252883
 31
0.0
  0
LINE
  5
1EC
330
192
100
AcDbEntity
  8
DV4_0
 62
     7
370
    35
100
AcDbLine
 10
195.3139448160525
 20
37.75024951560051
 30
0.0
 11
198.0686451955075
 21
36.15982250998538
 31
0.0
  0
LINE
  5
1ED
330
192
100
AcDbEntity
  8
DV4_0
 62
     7
370
    35
100
AcDbLine
 10
248.1773741959266
 20
92.79014931531728
 30
0.0
 11
249.7029487872909
 21
85.93219144078763
 31
0.0
  0
LINE
  5
1EE
330
192
100
AcDbEntity
  8
DV4_0
 62
     7
370
    35
100
AcDbLine
 10
248.3481858510312
 20
92.88876747037267
 30
0.0
 11
249.8737604423955
 21
86.03080959584304
 31
0.0
  0
LINE
  5
1EF
330
192
100
AcDbEntity
  8
DV4_0
 62
     7
370
    35
100
AcDbLine
 10
247.9221055577443
 20
104.6984407101742
 30
0.0
 11
246.5078919953712
 21
103.8819441292464
 31
0.0
  0
ELLIPSE
  5
1F0
330
192
100
AcDbEntity
  8
DV4_0
 62
     7
370
    35
100
AcDbEllipse
 10
248.1220023500042
 20
103.7998391024051
 30
0.0
 11
-0.2306474543321782
 21
-0.9730373845901518
 31
0.0
210
0.0
220
0.0
230
1.0
 40
0.7170148141479397
 41
3.141592653589793
 42
3.736380718080494
  0
ELLIPSE
  5
1F1
330
192
100
AcDbEntity
  8
DV4_0
 62
     7
370
    35
100
AcDbEllipse
 10
246.707788787631
 20
102.9833425214774
 30
0.0
 11
-0.2306474543321842
 21
-0.9730373845901891
 31
0.0
210
0.0
220
0.0
230
1.0
 40
0.7170148141479267
 41
3.736380718080497
 42
4.316168726199075
  0
LINE
  5
1F2
330
192
100
AcDbEntity
  8
DV4_0
 62
     7
370
    35
100
AcDbLine
 10
248.1255845849682
 20
104.6502083191249
 30
0.0
 11
246.7113710225951
 21
103.8337117381971
 31
0.0
  0
LINE
  5
1F3
330
192
100
AcDbEntity
  8
DV4_0
 62
     7
370
    25
100
AcDbLine
 10
248.1255845849682
 20
104.6502083191249
 30
0.0
 11
247.9221055577443
 21
104.6984407101742
 31
0.0
  0
LINE
  5
1F4
330
192
100
AcDbEntity
  8
DV4_0
 62
     7
370
    25
100
AcDbLine
 10
246.5078919953712
 20
103.8819441292464
 30
0.0
 11
246.7113710225951
 21
103.8337117381971
 31
0.0
  0
LINE
  5
1F5
330
192
100
AcDbEntity
  8
DV4_0
 62
     7
370
    35
100
AcDbLine
 10
251.1766129757774
 20
94.52176063222814
 30
0.0
 11
252.7021875671417
 21
87.66380275769846
 31
0.0
  0
LINE
  5
1F6
330
192
100
AcDbEntity
  8
DV4_0
 62
     7
370
    35
100
AcDbLine
 10
198.2082898564482
 20
36.44251898678674
 30
0.0
 11
198.2082898564482
 21
38.2388114648277
 31
0.0
  0
LINE
  5
1F7
330
192
100
AcDbEntity
  8
DV4_0
 62
     7
370
    35
100
AcDbLine
 10
268.9189679751029
 20
79.063640511214
 30
0.0
 11
261.4943467726442
 21
83.35024756108456
 31
0.0
  0
LINE
  5
1F8
330
192
100
AcDbEntity
  8
DV4_0
 62
     7
370
    35
100
AcDbLine
 10
268.9189679751029
 20
77.22652320412662
 30
0.0
 11
268.9189679751029
 21
79.063640511214
 31
0.0
  0
LINE
  5
1F9
330
192
100
AcDbEntity
  8
DV4_0
 62
     7
370
    35
100
AcDbLine
 10
198.2082898564482
 20
46.81202556456883
 30
0.0
 11
261.4943467726442
 21
83.35024756108457
 31
0.0
  0
LINE
  5
1FA
330
192
100
AcDbEntity
  8
DV4_0
 62
     7
370
    35
100
AcDbLine
 10
198.2082898564482
 20
38.2388114648277
 30
0.0
 11
268.918967975103
 21
79.063640511214
 31
0.0
  0
LINE
  5
1FB
330
192
100
AcDbEntity
  8
DV4_0
 62
     7
370
    35
100
AcDbLine
 10
201.531691728025
 20
38.32046112292048
 30
0.0
 11
268.918967975103
 21
77.22652320412662
 31
0.0
  0
LINE
  5
1FC
330
192
100
AcDbEntity
  8
DV4_0
 62
     7
370
    35
100
AcDbLine
 10
260.7872399914577
 20
83.75849585154845
 30
0.0
 11
253.3626187889989
 21
88.045102901419
 31
0.0
  0
LINE
  5
1FD
330
192
100
AcDbEntity
  8
DV4_0
 62
     7
370
    35
100
AcDbLine
 10
260.7872399914577
 20
82.94199927062073
 30
0.0
 11
260.7872399914577
 21
83.75849585154843
 31
0.0
  0
LINE
  5
1FE
330
192
100
AcDbEntity
  8
DV4_0
 62
     7
370
    35
100
AcDbLine
 10
190.2497851775063
 20
51.60689142650365
 30
0.0
 11
253.3626187889989
 21
88.04510290141899
 31
0.0
  0
LINE
  5
1FF
330
192
100
AcDbEntity
  8
DV4_0
 62
     7
370
    35
100
AcDbLine
 10
197.6744063799651
 20
47.3202843766331
 30
0.0
 11
260.7872399914577
 21
83.75849585154845
 31
0.0
  0
LINE
  5
200
330
192
100
AcDbEntity
  8
DV4_0
 62
     7
370
    35
100
AcDbLine
 10
181.0121263879673
 20
66.06794622503125
 30
0.0
 11
179.5979128255942
 21
65.25144964410352
 31
0.0
  0
ELLIPSE
  5
201
330
192
100
AcDbEntity
  8
DV4_0
 62
     7
370
    35
100
AcDbEllipse
 10
181.2120231802271
 20
65.16934461726218
 30
0.0
 11
-0.2306474543321553
 21
-0.9730373845901673
 31
0.0
210
0.0
220
0.0
230
0.9999999999999999
 40
0.7170148141479322
 41
3.141592653589734
 42
3.736380718080429
  0
ELLIPSE
  5
202
330
192
100
AcDbEntity
  8
DV4_0
 62
     7
370
    35
100
AcDbEllipse
 10
179.797809617854
 20
64.35284803633446
 30
0.0
 11
-0.2306474543321788
 21
-0.973037384590183
 31
0.0
210
0.0
220
0.0
230
0.9999999999999999
 40
0.7170148141479404
 41
3.736380718080461
 42
4.316168726199301
  0
LINE
  5
203
330
192
100
AcDbEntity
  8
DV4_0
 62
     7
370
    35
100
AcDbLine
 10
181.2156054151912
 20
66.01971383398192
 30
0.0
 11
179.8013918528181
 21
65.2032172530542
 31
0.0
  0
LINE
  5
204
330
192
100
AcDbEntity
  8
DV4_0
 62
     7
370
    25
100
AcDbLine
 10
181.2156054151912
 20
66.01971383398192
 30
0.0
 11
181.0121263879673
 21
66.06794622503126
 31
0.0
  0
LINE
  5
205
330
192
100
AcDbEntity
  8
DV4_0
 62
     7
370
    25
100
AcDbLine
 10
179.5979128255942
 20
65.25144964410353
 30
0.0
 11
179.8013918528181
 21
65.2032172530542
 31
0.0
  0
LINE
  5
206
330
192
100
AcDbEntity
  8
DV4_0
 62
     7
370
    35
100
AcDbLine
 10
184.2666338060004
 20
55.89126614708509
 30
0.0
 11
184.4784779676111
 21
54.9389571977127
 31
0.0
  0
LINE
  5
207
330
192
100
AcDbEntity
  8
DV4_0
 62
     7
370
    35
100
AcDbLine
 10
180.7159043130589
 20
55.084084484952
 30
0.0
 11
180.7661802691087
 21
55.07216714091091
 31
0.0
  0
LINE
  5
208
330
192
100
AcDbEntity
  8
DV4_0
 62
     7
370
    35
100
AcDbLine
 10
181.8873555912383
 20
56.31657101410676
 30
0.0
 11
180.1430806985097
 21
64.15765843365718
 31
0.0
  0
LINE
  5
209
330
192
100
AcDbEntity
  8
DV4_0
 62
     7
370
    35
100
AcDbLine
 10
180.1430806985097
 20
64.15765843365718
 30
0.0
 11
178.6169879943305
 21
64.5194013665272
 31
0.0
  0
LINE
  5
20A
330
192
100
AcDbEntity
  8
DV4_0
 62
     7
370
    35
100
AcDbLine
 10
178.6169879943306
 20
64.51940136652722
 30
0.0
 11
180.7159043130589
 21
55.08408448495201
 31
0.0
  0
LINE
  5
20B
330
192
100
AcDbEntity
  8
DV4_0
 62
     7
370
    35
100
AcDbLine
 10
250.8537588171645
 20
104.9824874800435
 30
0.0
 11
249.3276661129853
 21
105.3442304129135
 31
0.0
  0
LINE
  5
20C
330
192
100
AcDbEntity
  8
DV4_0
 62
     7
370
    35
100
AcDbLine
 10
252.9526751358929
 20
95.54717059846828
 30
0.0
 11
250.8537588171645
 21
104.9824874800435
 31
0.0
  0
LINE
  5
20D
330
192
100
AcDbEntity
  8
DV4_0
 62
     7
370
    35
100
AcDbLine
 10
178.6169879943306
 20
64.51940136652722
 30
0.0
 11
249.3276661129854
 21
105.3442304129136
 31
0.0
  0
LINE
  5
20E
330
192
100
AcDbEntity
  8
DV4_0
 62
     7
370
    35
100
AcDbLine
 10
180.1430806985097
 20
64.15765843365718
 30
0.0
 11
250.8537588171645
 21
104.9824874800435
 31
0.0
  0
LINE
  5
20F
330
192
100
AcDbEntity
  8
DV4_0
 62
     7
370
    35
100
AcDbLine
 10
183.547832144398
 20
55.476265814265
 30
0.0
 11
252.9526751358928
 21
95.5471705984683
 31
0.0
  0
LINE
  5
210
330
192
100
AcDbEntity
  8
DV4_0
 62
     7
370
    35
100
AcDbLine
 10
192.6443602888071
 20
16.2878786989067
 30
0.0
 11
194.0585738511801
 21
17.10437527983442
 31
0.0
  0
LINE
  5
211
330
192
100
AcDbEntity
  8
DV4_0
 62
     7
370
    35
100
AcDbLine
 10
190.8765933358407
 20
17.30849942506635
 30
0.0
 11
192.6443602888071
 21
16.28787869890669
 31
0.0
  0
LINE
  5
212
330
192
100
AcDbEntity
  8
DV4_0
 62
     7
370
    35
100
AcDbLine
 10
192.6443602888071
 20
16.04292972462838
 30
0.0
 11
194.0585738511801
 21
16.8594263055561
 31
0.0
  0
LINE
  5
213
330
192
100
AcDbEntity
  8
DV4_0
 62
     7
370
    35
100
AcDbLine
 10
192.6443602888071
 20
16.2878786989067
 30
0.0
 11
192.6443602888071
 21
16.04292972462838
 31
0.0
  0
LINE
  5
214
330
192
100
AcDbEntity
  8
DV4_0
 62
     7
370
    35
100
AcDbLine
 10
194.0585738511802
 20
17.51262357029828
 30
0.0
 11
193.0769569418855
 21
18.07936035712062
 31
0.0
  0
ELLIPSE
  5
215
330
192
100
AcDbEntity
  8
DV4_0
 62
     7
370
    35
100
AcDbEllipse
 10
193.7050204605869
 20
17.06355045078804
 30
0.0
 11
-0.4999999999999978
 21
4.261666693936512E-15
 31
0.0
210
0.0
220
0.0
230
1.0
 40
0.5773502691896254
 41
2.356194490192443
 42
3.141592653589808
  0
LINE
  5
216
330
192
100
AcDbEntity
  8
DV4_0
 62
     7
370
    25
100
AcDbLine
 10
194.0585738511802
 20
16.85942630555611
 30
0.0
 11
194.0585738511802
 21
17.10437527983443
 31
0.0
  0
ELLIPSE
  5
217
330
192
100
AcDbEntity
  8
DV4_0
 62
     7
370
    35
100
AcDbEllipse
 10
193.7050204605869
 20
17.30849942506635
 30
0.0
 11
-0.5000000000000068
 21
-1.972746516544632E-15
 31
0.0
210
0.0
220
0.0
230
1.0
 40
0.5773502691896156
 41
2.356194490192417
 42
3.926990816987164
  0
ELLIPSE
  5
218
330
192
100
AcDbEntity
  8
DV4_0
 62
     7
370
    35
100
AcDbEllipse
 10
193.1393350356377
 20
17.59427322839106
 30
0.0
 11
-0.2999999999999975
 21
3.675696083415354E-15
 31
0.0
210
0.0
220
0.0
230
1.0
 40
0.5773502691896256
 41
1.103552036553632
 42
5.048508084617452
  0
ELLIPSE
  5
219
330
192
100
AcDbEntity
  8
DV4_0
 62
     7
370
    35
100
AcDbEllipse
 10
193.1393350356377
 20
17.34932425411273
 30
0.0
 11
-0.2999999999999975
 21
3.675696083415354E-15
 31
0.0
210
0.0
220
0.0
230
1.0
 40
0.5773502691896256
 41
3.92699081698699
 42
5.15161203565375
  0
LINE
  5
21A
330
192
100
AcDbEntity
  8
DV4_0
 62
     7
370
    35
100
AcDbLine
 10
194.2050204605869
 20
17.06355045078804
 30
0.0
 11
194.2050204605869
 21
17.30849942506635
 31
0.0
  0
LINE
  5
21B
330
192
100
AcDbEntity
  8
DV4_0
 62
     7
370
    35
100
AcDbLine
 10
257.8658881848602
 20
70.84502461185556
 30
0.0
 11
258.5729949660468
 21
70.43677632139169
 31
0.0
  0
LINE
  5
21C
330
192
100
AcDbEntity
  8
DV4_0
 62
     7
370
    35
100
AcDbLine
 10
258.0780202192162
 20
70.96749909899471
 30
0.0
 11
258.5729949660468
 21
70.68172529566999
 31
0.0
  0
LINE
  5
21D
330
192
100
AcDbEntity
  8
DV4_0
 62
     7
370
    35
100
AcDbLine
 10
259.2801017472333
 20
70.43677632139169
 30
0.0
 11
260.5918026830217
 21
71.19408720976539
 31
0.0
  0
LINE
  5
21E
330
192
100
AcDbEntity
  8
DV4_0
 62
     7
370
    35
100
AcDbLine
 10
259.2801017472333
 20
70.68172529567
 30
0.0
 11
260.6943153096064
 21
71.49822187659773
 31
0.0
  0
LINE
  5
21F
330
192
100
AcDbEntity
  8
DV4_0
 62
     7
370
    25
100
AcDbLine
 10
259.2801017472333
 20
70.68172529567
 30
0.0
 11
259.2801017472333
 21
70.43677632139169
 31
0.0
  0
ELLIPSE
  5
220
330
192
100
AcDbEntity
  8
DV4_0
 62
     7
370
    35
100
AcDbEllipse
 10
258.92654835664
 20
70.64090046662362
 30
0.0
 11
0.5000000000000003
 21
3.404896258983471E-15
 31
0.0
210
0.0
220
0.0
230
1.0
 40
0.5773502691896296
 41
3.92699081698723
 42
5.497787143782142
  0
LINE
  5
221
330
192
100
AcDbEntity
  8
DV4_0
 62
     7
370
    25
100
AcDbLine
 10
258.5729949660468
 20
70.43677632139169
 30
0.0
 11
258.5729949660468
 21
70.68172529567
 31
0.0
  0
ELLIPSE
  5
222
330
192
100
AcDbEntity
  8
DV4_0
 62
     7
370
    35
100
AcDbEllipse
 10
258.92654835664
 20
70.88584944090192
 30
0.0
 11
-0.5000000000000003
 21
3.404394821604485E-15
 31
0.0
210
0.0
220
0.0
230
1.0
 40
0.577350269189623
 41
0.7853981633976055
 42
2.356194490192356
  0
ELLIPSE
  5
223
330
192
100
AcDbEntity
  8
DV4_0
 62
     7
370
    35
100
AcDbEllipse
 10
258.4315736098094
 20
71.21244807327301
 30
0.0
 11
-0.299999999999999
 21
2.265982540494705E-15
 31
0.0
210
0.0
220
0.0
230
1.0
 40
0.5773502691896161
 41
0.952846242616971
 42
3.759542737767704
  0
ELLIPSE
  5
224
330
192
100
AcDbEntity
  8
DV4_0
 62
     7
370
    35
100
AcDbEllipse
 10
258.4315736098094
 20
70.96749909899471
 30
0.0
 11
-0.299999999999999
 21
4.532466518368397E-15
 31
0.0
210
0.0
220
0.0
230
1.0
 40
0.577350269189616
 41
3.926990816987399
 42
4.912101600325265
  0
LINE
  5
225
330
192
100
AcDbEntity
  8
DV4_0
 62
     7
370
    35
100
AcDbLine
 10
272.7151305897777
 20
64.55800093871206
 30
0.0
 11
271.3009170274046
 21
63.74150435778434
 31
0.0
  0
LINE
  5
226
330
192
100
AcDbEntity
  8
DV4_0
 62
     7
370
    35
100
AcDbLine
 10
274.4828975427441
 20
63.5373802125524
 30
0.0
 11
274.447137929494
 21
63.55802603488844
 31
0.0
  0
LINE
  5
227
330
192
100
AcDbEntity
  8
DV4_0
 62
     7
370
    35
100
AcDbLine
 10
274.4828975427441
 20
63.5373802125524
 30
0.0
 11
274.4828975427441
 21
63.29243123827408
 31
0.0
  0
LINE
  5
228
330
192
100
AcDbEntity
  8
DV4_0
 62
     7
370
    35
100
AcDbLine
 10
271.3009170274046
 20
63.08830709304214
 30
0.0
 11
272.3615771991845
 21
62.47593465734635
 31
0.0
  0
LINE
  5
229
330
192
100
AcDbEntity
  8
DV4_0
 62
     7
370
    35
100
AcDbLine
 10
271.3009170274046
 20
63.33325606732046
 30
0.0
 11
272.3615771991845
 21
62.72088363162467
 31
0.0
  0
LINE
  5
22A
330
192
100
AcDbEntity
  8
DV4_0
 62
     7
370
    25
100
AcDbLine
 10
271.3009170274046
 20
63.33325606732046
 30
0.0
 11
271.3009170274046
 21
63.08830709304215
 31
0.0
  0
ELLIPSE
  5
22B
330
192
100
AcDbEntity
  8
DV4_0
 62
     7
370
    35
100
AcDbEllipse
 10
271.6544704179979
 20
63.29243123827408
 30
0.0
 11
0.5000000000000063
 21
1.059130303536175E-17
 31
0.0
210
0.0
220
0.0
230
1.0
 40
0.5773502691896253
 41
3.141592653589793
 42
3.926990816987246
  0
ELLIPSE
  5
22C
330
192
100
AcDbEntity
  8
DV4_0
 62
     7
370
    35
100
AcDbEllipse
 10
271.6544704179979
 20
63.5373802125524
 30
0.0
 11
0.5000000000000063
 21
4.543057821403758E-15
 31
0.0
210
0.0
220
0.0
230
1.0
 40
0.5773502691896255
 41
2.356194490192335
 42
3.926990816987241
  0
LINE
  5
22D
330
192
100
AcDbEntity
  8
DV4_0
 62
     7
370
    35
100
AcDbLine
 10
273.068683980371
 20
62.47593465734636
 30
0.0
 11
274.4828975427441
 21
63.29243123827408
 31
0.0
  0
LINE
  5
22E
330
192
100
AcDbEntity
  8
DV4_0
 62
     7
370
    35
100
AcDbLine
 10
273.068683980371
 20
62.72088363162467
 30
0.0
 11
274.4828975427441
 21
63.53738021255239
 31
0.0
  0
LINE
  5
22F
330
192
100
AcDbEntity
  8
DV4_0
 62
     7
370
    25
100
AcDbLine
 10
273.068683980371
 20
62.72088363162467
 30
0.0
 11
273.068683980371
 21
62.47593465734636
 31
0.0
  0
ELLIPSE
  5
230
330
192
100
AcDbEntity
  8
DV4_0
 62
     7
370
    35
100
AcDbEllipse
 10
272.7151305897777
 20
62.68005880257829
 30
0.0
 11
0.4999999999999984
 21
1.109274041434834E-17
 31
0.0
210
0.0
220
0.0
230
1.0
 40
0.5773502691896261
 41
3.926990816987391
 42
5.497787143782149
  0
LINE
  5
231
330
192
100
AcDbEntity
  8
DV4_0
 62
     7
370
    25
100
AcDbLine
 10
272.3615771991845
 20
62.47593465734636
 30
0.0
 11
272.3615771991845
 21
62.72088363162467
 31
0.0
  0
ELLIPSE
  5
232
330
192
100
AcDbEntity
  8
DV4_0
 62
     7
370
    35
100
AcDbEllipse
 10
272.7151305897777
 20
62.92500777685661
 30
0.0
 11
-0.5000000000000023
 21
4.531965080989410E-15
 31
0.0
210
0.0
220
0.0
230
1.0
 40
0.5773502691896325
 41
0.7853981633976108
 42
2.356194490192354
  0
ELLIPSE
  5
233
330
192
100
AcDbEntity
  8
DV4_0
 62
     7
370
    35
100
AcDbEllipse
 10
272.2201558429471
 20
63.2516064092277
 30
0.0
 11
-0.299999999999999
 21
2.507186894932942E-19
 31
0.0
210
0.0
220
0.0
230
1.0
 40
0.5773502691896254
 41
0.0
 42
6.283185307179586
  0
ELLIPSE
  5
234
330
192
100
AcDbEntity
  8
DV4_0
 62
     7
370
    35
100
AcDbEllipse
 10
272.2201558429471
 20
63.00665743494937
 30
0.0
 11
-0.3000000000000029
 21
2.266233259184198E-15
 31
0.0
210
0.0
220
0.0
230
1.0
 40
0.577350269189622
 41
3.926990816987139
 42
5.497787143781176
  0
LINE
  5
235
330
192
100
AcDbEntity
  8
DV4_0
 62
     7
370
    35
100
AcDbLine
 10
271.1544704179979
 20
63.5373802125524
 30
0.0
 11
271.1544704179979
 21
63.29243123827408
 31
0.0
  0
LINE
  5
236
330
192
100
AcDbEntity
  8
DV4_0
 62
     7
370
    35
100
AcDbLine
 10
180.5130846482731
 20
54.82381628636955
 30
0.0
 11
180.3137939364005
 21
54.93887683251624
 31
0.0
  0
LINE
  5
237
330
192
100
AcDbEntity
  8
DV4_0
 62
     7
370
    35
100
AcDbLine
 10
179.7964490137806
 20
57.27880751517401
 30
0.0
 11
182.1923212625729
 21
55.89555002738982
 31
0.0
  0
LINE
  5
238
330
192
100
AcDbEntity
  8
DV4_0
 62
     7
370
    35
100
AcDbLine
 10
180.3137939364005
 20
54.93887683251624
 30
0.0
 11
179.7964490137806
 21
57.27880751517401
 31
0.0
  0
LINE
  5
239
330
192
100
AcDbEntity
  8
DV4_0
 62
     7
370
    35
100
AcDbLine
 10
180.1786001994256
 20
57.49944260507728
 30
0.0
 11
179.7964490137806
 21
57.27880751517401
 31
0.0
  0
LINE
  5
23A
330
192
100
AcDbEntity
  8
DV4_0
 62
     7
370
    35
100
AcDbLine
 10
253.3648460361655
 20
96.73950558654815
 30
0.0
 11
252.5876138367047
 21
97.18824080612966
 31
0.0
  0
LINE
  5
23B
330
192
100
AcDbEntity
  8
DV4_0
 62
     7
370
    35
100
AcDbLine
 10
253.4351061624142
 20
96.94388985802347
 30
0.0
 11
252.5250945975745
 21
97.46928527994935
 31
0.0
  0
LINE
  5
23C
330
192
100
AcDbEntity
  8
DV4_0
 62
     7
370
    35
100
AcDbLine
 10
252.423586022561
 20
95.24170085646082
 30
0.0
 11
253.3626187889989
 21
94.69955003598001
 31
0.0
  0
ENDBLK
  5
23E
330
192
100
AcDbEntity
  8
0
100
AcDbBlockEnd
  0
BLOCK
  5
24C
330
246
100
AcDbEntity
  8
0
100
AcDbBlockBegin
  2
SEANNOT_GROUP
 70
     0
 10
0.0
 20
0.0
 30
0.0
  3
SEANNOT_GROUP
  1

  0
TEXT
  5
248
330
246
100
AcDbEntity
  8
Predeterminado
 62
     7
370
     5
100
AcDbText
 10
291.0487110700109
 20
14.25425842492689
 30
0.0
 40
1.5
  1
V 
 50
90.0
  7
SEACAD_Solid_Edge_ANSI
 11
289.5487110700109
 21
14.25425842492689
 31
0.0
100
AcDbText
 73
     3
  0
TEXT
  5
249
330
246
100
AcDbEntity
  8
Predeterminado
 62
     7
370
     5
100
AcDbText
 10
291.0487110700109
 20
16.16675842492689
 30
0.0
 40
1.5
  1
01
 50
90.0
  7
SEACAD_Solid_Edge_ANSI
 11
289.5487110700109
 21
16.16675842492689
 31
0.0
100
AcDbText
 73
     3
  0
TEXT
  5
24A
330
246
100
AcDbEntity
  8
Predeterminado
 62
     7
370
     5
100
AcDbText
 10
291.0487110700109
 20
18.22925842492689
 30
0.0
 40
1.5
  1
 
 50
90.0
  7
SEACAD_Solid_Edge_ANSI
 11
289.5487110700109
 21
18.22925842492689
 31
0.0
100
AcDbText
 73
     3
  0
TEXT
  5
24B
330
246
100
AcDbEntity
  8
Predeterminado
 62
     7
370
     5
100
AcDbText
 10
291.0487110700109
 20
18.75425842492689
 30
0.0
 40
1.5
  1
04/02/2021
 50
90.0
  7
SEACAD_Solid_Edge_ANSI
 11
289.5487110700109
 21
18.75425842492689
 31
0.0
100
AcDbText
 73
     3
  0
ENDBLK
  5
24D
330
246
100
AcDbEntity
  8
0
100
AcDbBlockEnd
  0
BLOCK
  5
253
330
250
100
AcDbEntity
  8
0
100
AcDbBlockBegin
  2
SEANNOT_GROUP1
 70
     0
 10
0.0
 20
0.0
 30
0.0
  3
SEANNOT_GROUP1
  1

  0
TEXT
  5
252
330
250
100
AcDbEntity
  8
Predeterminado
 62
     7
370
     5
100
AcDbText
 10
142.6267604793572
 20
190.8725958935368
 30
0.0
 40
6.0
  1
Alp
  7
SEACAD_Solid_Edge_ANSI
 11
142.6267604793572
 21
196.8725958935368
 31
0.0
100
AcDbText
 73
     3
  0
ENDBLK
  5
254
330
250
100
AcDbEntity
  8
0
100
AcDbBlockEnd
  0
BLOCK
  5
258
330
255
100
AcDbEntity
  8
0
100
AcDbBlockBegin
  2
SEANNOT_GROUP2
 70
     0
 10
0.0
 20
0.0
 30
0.0
  3
SEANNOT_GROUP2
  1

  0
TEXT
  5
257
330
255
100
AcDbEntity
  8
Predeterminado
 62
     7
370
     5
100
AcDbText
 10
149.9889767222462
 20
185.5598182248004
 30
0.0
 40
3.0
  1
UM352
  7
SEACAD_Solid_Edge_ANSI
 11
149.9889767222462
 21
188.5598182248004
 31
0.0
100
AcDbText
 73
     3
  0
ENDBLK
  5
259
330
255
100
AcDbEntity
  8
0
100
AcDbBlockEnd
  0
ENDSEC
  0
SECTION
  2
ENTITIES
  0
INSERT
  5
70
330
1F
100
AcDbEntity
  8
Default
100
AcDbBlockReference
  2
SE
 10
0.0
 20
0.0
 30
0.0
  0
INSERT
  5
E6
330
1F
100
AcDbEntity
  8
Default
100
AcDbBlockReference
  2
SE1
 10
0.0
 20
0.0
 30
0.0
  0
INSERT
  5
146
330
1F
100
AcDbEntity
  8
Default
100
AcDbBlockReference
  2
SE2
 10
0.0
 20
0.0
 30
0.0
  0
INSERT
  5
16A
330
1F
100
AcDbEntity
  8
Default
100
AcDbBlockReference
  2
GDimGGroup
 10
0.0
 20
0.0
 30
0.0
  0
INSERT
  5
175
330
1F
100
AcDbEntity
  8
Default
100
AcDbBlockReference
  2
GDimGGroup1
 10
0.0
 20
0.0
 30
0.0
  0
INSERT
  5
17F
330
1F
100
AcDbEntity
  8
Default
100
AcDbBlockReference
  2
GDimGGroup2
 10
0.0
 20
0.0
 30
0.0
  0
INSERT
  5
189
330
1F
100
AcDbEntity
  8
Default
100
AcDbBlockReference
  2
GDimGGroup3
 10
0.0
 20
0.0
 30
0.0
  0
INSERT
  5
193
330
1F
100
AcDbEntity
  8
Default
100
AcDbBlockReference
  2
SE3
 10
0.0
 20
0.0
 30
0.0
  0
LINE
  5
240
330
1F
100
AcDbEntity
  8
Predeterminado
 62
     7
370
    35
100
AcDbLine
 10
11.28870202951687
 20
8.596433905172951
 30
0.0
 11
11.28870202951684
 21
201.9479713239704
 31
0.0
  0
LINE
  5
241
330
1F
100
AcDbEntity
  8
Predeterminado
 62
     7
370
    35
100
AcDbLine
 10
11.28870202951687
 20
8.596433905172951
 30
0.0
 11
288.2887020295169
 21
8.596433905172969
 31
0.0
  0
LINE
  5
242
330
1F
100
AcDbEntity
  8
Predeterminado
 62
     7
370
    35
100
AcDbLine
 10
191.2887020295167
 20
201.9479713239704
 30
0.0
 11
11.28870202951683
 21
201.9479713239704
 31
0.0
  0
LINE
  5
243
330
1F
100
AcDbEntity
  8
Predeterminado
 62
     7
370
    35
100
AcDbLine
 10
288.2887020295169
 20
201.9479713239704
 30
0.0
 11
11.28870202951691
 21
201.9479713239704
 31
0.0
  0
LINE
  5
244
330
1F
100
AcDbEntity
  8
Predeterminado
 62
     7
370
    35
100
AcDbLine
 10
11.28870202951684
 20
181.9479713239704
 30
0.0
 11
288.2887020295169
 21
181.9479713239704
 31
0.0
  0
LINE
  5
245
330
1F
100
AcDbEntity
  8
Predeterminado
 62
     7
370
    35
100
AcDbLine
 10
288.2887020295169
 20
201.9479713239704
 30
0.0
 11
288.2887020295169
 21
8.596433905173
 31
0.0
  0
INSERT
  5
247
330
1F
100
AcDbEntity
  8
Predeterminado
100
AcDbBlockReference
  2
SEANNOT_GROUP
 10
0.0
 20
0.0
 30
0.0
  0
LINE
  5
24E
330
1F
100
AcDbEntity
  8
Predeterminado
 62
     7
370
    35
100
AcDbLine
 10
89.91055911737307
 20
185.9479713239704
 30
0.0
 11
89.91055911737307
 21
197.9479713239704
 31
0.0
  0
LINE
  5
24F
330
1F
100
AcDbEntity
  8
Predeterminado
 62
     7
370
    35
100
AcDbLine
 10
199.9105591173731
 20
185.9479713239704
 30
0.0
 11
199.9105591173731
 21
197.9479713239704
 31
0.0
  0
INSERT
  5
251
330
1F
100
AcDbEntity
  8
Predeterminado
100
AcDbBlockReference
  2
SEANNOT_GROUP1
 10
0.0
 20
0.0
 30
0.0
  0
INSERT
  5
256
330
1F
100
AcDbEntity
  8
Predeterminado
100
AcDbBlockReference
  2
SEANNOT_GROUP2
 10
0.0
 20
0.0
 30
0.0
  0
MTEXT
  5
25B
102
{ACAD_XDICTIONARY
360
2A3
102
}
330
1F
100
AcDbEntity
  8
D
100
AcDbMText
 10
30.51445010131163
 20
199.4630352844171
 30
0.0
 40
6.500000000000001
 41
45.70995606879774
 71
     1
 72
     1
  1
{\C7;BENITO}\P{\fArial|b1|i0|c0|p34;\C7;–}{\C7;Urban}\P
 73
     1
 44
1.0
1001
ACAD
1000
ACAD_MTEXT_DEFINED_HEIGHT_BEGIN
1070
    46
1040
21.60001000000001
1000
ACAD_MTEXT_DEFINED_HEIGHT_END
  0
MTEXT
  5
25C
330
1F
100
AcDbEntity
  8
Predeterminado
100
AcDbMText
 10
229.9135975724114
 20
195.9475188821595
 30
0.0
 40
3.0
 41
38.610011
 71
     1
 72
     1
  1
{\fSolid Edge ANSI|b0||i0||c0|p34;\C7;\H3.;\W1.;T +34 938 521 000\P}{\fSolid Edge ANSI|b0||i0||c0|p34;\C7;\H3.;\W1.;www.benito.com\P}
 73
     1
 44
1.0
1001
ACAD
1000
ACAD_MTEXT_DEFINED_HEIGHT_BEGIN
1070
    46
1040
10.80001
1000
ACAD_MTEXT_DEFINED_HEIGHT_END
  0
MTEXT
  5
25D
330
1F
100
AcDbEntity
  8
Predeterminado
100
AcDbMText
 10
238.6065149365715
 20
7.329097306594801
 30
0.0
 40
2.0
 41
54.23001100000002
 71
     1
 72
     1
  1
{\fSolid Edge ANSI|b0||i0||c0|p34;\C7;\H2.;\W1.;BENITO –Urban –Light –Play –Covers}
 73
     1
 44
1.0
1001
ACAD
1000
ACAD_MTEXT_DEFINED_HEIGHT_BEGIN
1070
    46
1040
3.60001
1000
ACAD_MTEXT_DEFINED_HEIGHT_END
  0
ENDSEC
  0
SECTION
  2
OBJECTS
  0
DICTIONARY
  5
C
330
0
100
AcDbDictionary
281
     1
  3
ACAD_GROUP
350
D
  3
ACAD_LAYOUT
350
1A
  3
ACAD_MATERIAL
350
43
  3
ACAD_MLEADERSTYLE
350
6B
  3
ACAD_MLINESTYLE
350
17
  3
ACAD_PLOTSETTINGS
350
19
  3
ACAD_PLOTSTYLENAME
350
E
  3
ACAD_SCALELIST
350
47
  3
ACAD_TABLESTYLE
350
69
  3
ACAD_VISUALSTYLE
350
2A
  3
ACDB_RECOMPOSE_DATA
350
2E0
  3
AcDbVariableDictionary
350
25E
  3
DWGPROPS
350
2A2
  0
DICTIONARY
  5
2A5
330
8
100
AcDbDictionary
280
     1
281
     1
  3
ACAD_XREC_ROUNDTRIP
360
2A6
  0
DICTIONARY
  5
2A3
330
25B
100
AcDbDictionary
280
     1
281
     1
  3
ACAD_MTEXT_RT
360
2A4
  0
DICTIONARY
  5
D
102
{ACAD_REACTORS
330
C
102
}
330
C
100
AcDbDictionary
281
     1
  0
DICTIONARY
  5
1A
102
{ACAD_REACTORS
330
C
102
}
330
C
100
AcDbDictionary
281
     1
  3
Layout1
350
1E
  3
Model
350
22
  0
DICTIONARY
  5
43
102
{ACAD_REACTORS
330
C
102
}
330
C
100
AcDbDictionary
281
     1
  3
ByBlock
350
45
  3
ByLayer
350
44
  3
Global
350
46
  0
DICTIONARY
  5
6B
102
{ACAD_REACTORS
330
C
102
}
330
C
100
AcDbDictionary
281
     1
  3
Standard
350
6C
  0
DICTIONARY
  5
17
102
{ACAD_REACTORS
330
C
102
}
330
C
100
AcDbDictionary
281
     1
  3
Standard
350
18
  0
DICTIONARY
  5
19
102
{ACAD_REACTORS
330
C
102
}
330
C
100
AcDbDictionary
281
     1
  0
ACDBDICTIONARYWDFLT
  5
E
102
{ACAD_REACTORS
330
C
102
}
330
C
100
AcDbDictionary
281
     1
  3
Normal
350
F
100
AcDbDictionaryWithDefault
340
F
  0
DICTIONARY
  5
47
102
{ACAD_REACTORS
330
C
102
}
330
C
100
AcDbDictionary
281
     1
  3
A0
350
48
  3
A1
350
49
  3
A2
350
4A
  3
A3
350
4B
  3
A4
350
4C
  3
A5
350
4D
  3
A6
350
4E
  3
A7
350
4F
  3
A8
350
50
  3
A9
350
51
  3
B0
350
52
  3
B1
350
53
  3
B2
350
54
  3
B3
350
55
  3
B4
350
56
  3
B5
350
57
  3
B6
350
58
  3
B7
350
59
  3
B8
350
5A
  3
B9
350
5B
  3
C0
350
5C
  3
C1
350
5D
  3
C2
350
5E
  3
C3
350
5F
  3
C4
350
60
  3
C5
350
61
  3
C6
350
62
  3
C7
350
63
  3
C8
350
64
  3
C9
350
65
  3
D0
350
66
  3
D1
350
67
  3
D2
350
68
  0
DICTIONARY
  5
69
102
{ACAD_REACTORS
330
C
102
}
330
C
100
AcDbDictionary
281
     1
  3
Standard
350
6A
  0
DICTIONARY
  5
2A
102
{ACAD_REACTORS
330
C
102
}
330
C
100
AcDbDictionary
281
     1
  3
2dWireframe
350
2F
  3
Basic
350
32
  3
Brighten
350
36
  3
ColorChange
350
3A
  3
Conceptual
350
34
  3
Dim
350
35
  3
EdgeColorOff
350
3D
  3
Facepattern
350
39
  3
Flat
350
2B
  3
FlatWithEdges
350
2C
  3
Gouraud
350
2D
  3
GouraudWithEdges
350
2E
  3
Hidden
350
31
  3
JitterOff
350
3B
  3
Linepattern
350
38
  3
OverhangOff
350
3C
  3
Realistic
350
33
  3
Shaded
350
42
  3
Shaded with edges
350
41
  3
Shades of Gray
350
3E
  3
Sketchy
350
3F
  3
Thicken
350
37
  3
Wireframe
350
30
  3
X-Ray
350
40
  0
XRECORD
  5
2E0
102
{ACAD_REACTORS
330
C
102
}
330
C
100
AcDbXrecord
280
     1
 90
        1
330
25B
  0
DICTIONARY
  5
25E
102
{ACAD_REACTORS
330
C
102
}
330
C
100
AcDbDictionary
281
     1
  3
CANNOSCALE
350
25F
  3
CMLEADERSTYLE
350
298
  3
CTABLESTYLE
350
297
  3
DIMASSOC
350
2A0
  3
HIDETEXT
350
2A1
  3
MSLTSCALE
350
2A7
  3
PSOLHEIGHT
350
29F
  3
PSOLWIDTH
350
29E
  3
SECTIONTHICKNESSINC
350
29B
  3
XCLIPFRAME
350
260
  0
XRECORD
  5
2A2
102
{ACAD_REACTORS
330
C
102
}
330
C
100
AcDbXrecord
280
     1
  1
DWGPROPS COOKIE
  2

  3

  4

  6

  7

  8
acae2
  9

300
=
301
=
302
=
303
=
304
=
305
=
306
=
307
=
308
=
309
=
 40
0.0
 41
2459381.424115255
 42
2460396.57993566
  1

 90
        0
  0
XRECORD
  5
2A6
102
{ACAD_REACTORS
330
2A5
102
}
330
2A5
100
AcDbXrecord
280
     1
102
VTR_0.000_0.000_1.000_1.000_VISUALSTYLE
340
2F
102
VTR_0.000_0.000_1.000_1.000_GRIDDISPLAY
 70
     3
102
VTR_0.000_0.000_1.000_1.000_GRIDMAJOR
 70
     5
102
VTR_0.000_0.000_1.000_1.000_DEFAULTLIGHTING
280
     1
102
VTR_0.000_0.000_1.000_1.000_DEFAULTLIGHTINGTYPE
 70
     1
102
VTR_0.000_0.000_1.000_1.000_BRIGHTNESS
141
0.0
102
VTR_0.000_0.000_1.000_1.000_CONTRAST
142
0.0
  0
XRECORD
  5
2A4
102
{ACAD_REACTORS
330
2A3
102
}
330
2A3
100
AcDbXrecord
280
     1
 40
129076.0
  1
{\fSolid Edge ANSI|b1||i0||c0|p34;\C7;\H6.5;\W1.;\pxsa0.9538461538;BENITO\P}{\fSolid Edge ANSI|b1||i0||c0|p34;\C7;\H6.5;\W1.;\pxse1.;–Urban\P}
  0
LAYOUT
  5
1E
102
{ACAD_REACTORS
330
1A
102
}
330
1A
100
AcDbPlotSettings
  1

  2
none_device
  4

  6

 40
0.0
 41
0.0
 42
0.0
 43
0.0
 44
0.0
 45
0.0
 46
0.0
 47
0.0
 48
0.0
 49
0.0
140
0.0
141
0.0
142
1.0
143
1.0
 70
   688
 72
     1
 73
     0
 74
     5
  7

 75
    16
147
1.0
148
0.0
149
0.0
100
AcDbLayout
  1
Layout1
 70
     1
 71
     1
 10
0.0
 20
0.0
 11
297.0
 21
210.0
 12
0.0
 22
0.0
 32
0.0
 14
0.0
 24
0.0
 34
0.0
 15
297.0
 25
210.0
 35
0.0
146
0.0
 13
0.0
 23
0.0
 33
0.0
 16
1.0
 26
0.0
 36
0.0
 17
0.0
 27
1.0
 37
0.0
 76
     0
330
1B
  0
LAYOUT
  5
22
102
{ACAD_REACTORS
330
1A
102
}
330
1A
100
AcDbPlotSettings
  1

  2
none_device
  4
Letter_(8.50_x_11.00_Inches)
  6

 40
6.35
 41
6.35
 42
6.35000508
 43
6.35000508
 44
215.9
 45
279.4
 46
0.0
 47
0.0
 48
0.0
 49
0.0
140
0.0
141
0.0
142
1.0
143
1.0
 70
  1712
 72
     1
 73
     0
 74
     0
  7

 75
     0
147
1.0
148
0.0
149
0.0
100
AcDbLayout
  1
Model
 70
     1
 71
     0
 10
0.0
 20
0.0
 11
297.0
 21
210.0
 12
0.0
 22
0.0
 32
0.0
 14
0.0
 24
0.0
 34
0.0
 15
297.0
 25
210.0
 35
0.0
146
0.0
 13
0.0
 23
0.0
 33
0.0
 16
1.0
 26
0.0
 36
0.0
 17
0.0
 27
1.0
 37
0.0
 76
     0
330
1F
331
29
  0
MATERIAL
  5
45
102
{ACAD_REACTORS
330
43
102
}
102
{ACAD_XDICTIONARY
360
2DA
102
}
330
43
100
AcDbMaterial
  1
ByBlock
  0
MATERIAL
  5
44
102
{ACAD_REACTORS
330
43
102
}
102
{ACAD_XDICTIONARY
360
2D8
102
}
330
43
100
AcDbMaterial
  1
ByLayer
  0
MATERIAL
  5
46
102
{ACAD_REACTORS
330
43
102
}
102
{ACAD_XDICTIONARY
360
2DC
102
}
330
43
100
AcDbMaterial
  1
Global
  0
MLEADERSTYLE
  5
6C
102
{ACAD_REACTORS
330
6B
102
}
102
{ACAD_XDICTIONARY
360
2DE
102
}
330
6B
100
AcDbMLeaderStyle
170
     2
171
     1
172
     0
 90
        2
 40
0.0
 41
0.0
173
     1
 91
-1056964608
340
14
 92
       -2
290
     1
 42
2.0
291
     1
 43
8.0
  3
Standard
341
0
 44
4.0
300

342
11
174
     1
178
     6
175
     1
176
     0
 93
-1056964608
 45
4.0
292
     0
297
     0
 46
4.0
343
0
 94
-1056964608
 47
1.0
 49
1.0
140
1.0
293
     1
141
0.0
294
     1
177
     0
142
1.0
295
     0
296
     0
143
3.75
1001
ACAD_MLEADERVER
1070
     2
  0
MLINESTYLE
  5
18
102
{ACAD_REACTORS
330
17
102
}
330
17
100
AcDbMlineStyle
  2
Standard
 70
     0
  3

 62
   256
 51
90.0
 52
90.0
 71
     2
 49
0.5
 62
   256
  6
BYLAYER
 49
-0.5
 62
   256
  6
BYLAYER
  0
ACDBPLACEHOLDER
  5
F
102
{ACAD_REACTORS
330
E
102
}
330
E
  0
SCALE
  5
48
102
{ACAD_REACTORS
330
47
102
}
330
47
100
AcDbScale
 70
     0
300
1:1
140
1.0
141
1.0
290
     1
  0
SCALE
  5
49
102
{ACAD_REACTORS
330
47
102
}
330
47
100
AcDbScale
 70
     0
300
1:2
140
1.0
141
2.0
290
     0
  0
SCALE
  5
4A
102
{ACAD_REACTORS
330
47
102
}
330
47
100
AcDbScale
 70
     0
300
1:4
140
1.0
141
4.0
290
     0
  0
SCALE
  5
4B
102
{ACAD_REACTORS
330
47
102
}
330
47
100
AcDbScale
 70
     0
300
1:5
140
1.0
141
5.0
290
     0
  0
SCALE
  5
4C
102
{ACAD_REACTORS
330
47
102
}
330
47
100
AcDbScale
 70
     0
300
1:8
140
1.0
141
8.0
290
     0
  0
SCALE
  5
4D
102
{ACAD_REACTORS
330
47
102
}
330
47
100
AcDbScale
 70
     0
300
1:10
140
1.0
141
10.0
290
     0
  0
SCALE
  5
4E
102
{ACAD_REACTORS
330
47
102
}
330
47
100
AcDbScale
 70
     0
300
1:16
140
1.0
141
16.0
290
     0
  0
SCALE
  5
4F
102
{ACAD_REACTORS
330
47
102
}
330
47
100
AcDbScale
 70
     0
300
1:20
140
1.0
141
20.0
290
     0
  0
SCALE
  5
50
102
{ACAD_REACTORS
330
47
102
}
330
47
100
AcDbScale
 70
     0
300
1:30
140
1.0
141
30.0
290
     0
  0
SCALE
  5
51
102
{ACAD_REACTORS
330
47
102
}
330
47
100
AcDbScale
 70
     0
300
1:40
140
1.0
141
40.0
290
     0
  0
SCALE
  5
52
102
{ACAD_REACTORS
330
47
102
}
330
47
100
AcDbScale
 70
     0
300
1:50
140
1.0
141
50.0
290
     0
  0
SCALE
  5
53
102
{ACAD_REACTORS
330
47
102
}
330
47
100
AcDbScale
 70
     0
300
1:100
140
1.0
141
100.0
290
     0
  0
SCALE
  5
54
102
{ACAD_REACTORS
330
47
102
}
330
47
100
AcDbScale
 70
     0
300
2:1
140
2.0
141
1.0
290
     0
  0
SCALE
  5
55
102
{ACAD_REACTORS
330
47
102
}
330
47
100
AcDbScale
 70
     0
300
4:1
140
4.0
141
1.0
290
     0
  0
SCALE
  5
56
102
{ACAD_REACTORS
330
47
102
}
330
47
100
AcDbScale
 70
     0
300
8:1
140
8.0
141
1.0
290
     0
  0
SCALE
  5
57
102
{ACAD_REACTORS
330
47
102
}
330
47
100
AcDbScale
 70
     0
300
10:1
140
10.0
141
1.0
290
     0
  0
SCALE
  5
58
102
{ACAD_REACTORS
330
47
102
}
330
47
100
AcDbScale
 70
     0
300
100:1
140
100.0
141
1.0
290
     0
  0
SCALE
  5
59
102
{ACAD_REACTORS
330
47
102
}
330
47
100
AcDbScale
 70
     0
300
1/128" = 1'-0"
140
0.0078125
141
12.0
290
     0
  0
SCALE
  5
5A
102
{ACAD_REACTORS
330
47
102
}
330
47
100
AcDbScale
 70
     0
300
1/64" = 1'-0"
140
0.015625
141
12.0
290
     0
  0
SCALE
  5
5B
102
{ACAD_REACTORS
330
47
102
}
330
47
100
AcDbScale
 70
     0
300
1/32" = 1'-0"
140
0.03125
141
12.0
290
     0
  0
SCALE
  5
5C
102
{ACAD_REACTORS
330
47
102
}
330
47
100
AcDbScale
 70
     0
300
1/16" = 1'-0"
140
0.0625
141
12.0
290
     0
  0
SCALE
  5
5D
102
{ACAD_REACTORS
330
47
102
}
330
47
100
AcDbScale
 70
     0
300
3/32" = 1'-0"
140
0.09375
141
12.0
290
     0
  0
SCALE
  5
5E
102
{ACAD_REACTORS
330
47
102
}
330
47
100
AcDbScale
 70
     0
300
1/8" = 1'-0"
140
0.125
141
12.0
290
     0
  0
SCALE
  5
5F
102
{ACAD_REACTORS
330
47
102
}
330
47
100
AcDbScale
 70
     0
300
3/16" = 1'-0"
140
0.1875
141
12.0
290
     0
  0
SCALE
  5
60
102
{ACAD_REACTORS
330
47
102
}
330
47
100
AcDbScale
 70
     0
300
1/4" = 1'-0"
140
0.25
141
12.0
290
     0
  0
SCALE
  5
61
102
{ACAD_REACTORS
330
47
102
}
330
47
100
AcDbScale
 70
     0
300
3/8" = 1'-0"
140
0.375
141
12.0
290
     0
  0
SCALE
  5
62
102
{ACAD_REACTORS
330
47
102
}
330
47
100
AcDbScale
 70
     0
300
1/2" = 1'-0"
140
0.5
141
12.0
290
     0
  0
SCALE
  5
63
102
{ACAD_REACTORS
330
47
102
}
330
47
100
AcDbScale
 70
     0
300
3/4" = 1'-0"
140
0.75
141
12.0
290
     0
  0
SCALE
  5
64
102
{ACAD_REACTORS
330
47
102
}
330
47
100
AcDbScale
 70
     0
300
1" = 1'-0"
140
1.0
141
12.0
290
     0
  0
SCALE
  5
65
102
{ACAD_REACTORS
330
47
102
}
330
47
100
AcDbScale
 70
     0
300
1-1/2" = 1'-0"
140
1.5
141
12.0
290
     0
  0
SCALE
  5
66
102
{ACAD_REACTORS
330
47
102
}
330
47
100
AcDbScale
 70
     0
300
3" = 1'-0"
140
3.0
141
12.0
290
     0
  0
SCALE
  5
67
102
{ACAD_REACTORS
330
47
102
}
330
47
100
AcDbScale
 70
     0
300
6" = 1'-0"
140
6.0
141
12.0
290
     0
  0
SCALE
  5
68
102
{ACAD_REACTORS
330
47
102
}
330
47
100
AcDbScale
 70
     0
300
1'-0" = 1'-0"
140
12.0
141
12.0
290
     0
  0
TABLESTYLE
  5
6A
102
{ACAD_REACTORS
330
69
102
}
330
69
100
AcDbTableStyle
  3
Standard
 70
     0
 71
     0
 40
0.06
 41
0.06
280
     0
281
     0
  7
Standard
140
4.5
170
     2
 62
     0
 63
   257
283
     0
274
    -2
284
     1
 64
     0
275
    -2
285
     1
 65
     0
276
    -2
286
     1
 66
     0
277
    -2
287
     1
 67
     0
278
    -2
288
     1
 68
     0
279
    -2
289
     1
 69
     0
  7
Standard
140
6.0
170
     5
 62
     0
 63
   257
283
     0
274
    -2
284
     1
 64
     0
275
    -2
285
     1
 65
     0
276
    -2
286
     1
 66
     0
277
    -2
287
     1
 67
     0
278
    -2
288
     1
 68
     0
279
    -2
289
     1
 69
     0
  7
Standard
140
4.5
170
     5
 62
     0
 63
   257
283
     0
274
    -2
284
     1
 64
     0
275
    -2
285
     1
 65
     0
276
    -2
286
     1
 66
     0
277
    -2
287
     1
 67
     0
278
    -2
288
     1
 68
     0
279
    -2
289
     1
 69
     0
  0
VISUALSTYLE
  5
2F
102
{ACAD_REACTORS
330
2A
102
}
102
{ACAD_XDICTIONARY
360
2B0
102
}
330
2A
100
AcDbVisualStyle
  2
2dWireframe
 70
     4
 71
     0
 72
     2
 73
     0
 90
        0
 40
0.6
 41
30.0
 62
     5
 63
     7
 74
     1
 91
        4
 64
     7
 65
   257
 75
     1
175
     1
 42
1.0
 92
        0
 66
   257
 43
1.0
 76
     1
 77
     6
 78
     2
 67
     7
 79
     5
170
     0
171
     0
290
     0
174
     0
 93
        1
 44
0.0
173
     0
291
     0
 45
0.0
1001
ACAD
1000
AcDbSavedByObjectVersion
1070
     0
  0
VISUALSTYLE
  5
32
102
{ACAD_REACTORS
330
2A
102
}
102
{ACAD_XDICTIONARY
360
2B6
102
}
330
2A
100
AcDbVisualStyle
  2
Basic
 70
     7
 71
     1
 72
     0
 73
     1
 90
        0
 40
0.6
 41
30.0
 62
     5
 63
     7
 74
     0
 91
        4
 64
     7
 65
   257
 75
     1
175
     1
 42
1.0
 92
        8
 66
     7
 43
1.0
 76
     1
 77
     6
 78
     2
 67
     7
 79
     5
170
     0
171
     0
290
     0
174
     0
 93
        1
 44
0.0
173
     0
291
     1
 45
0.0
1001
ACAD
1000
AcDbSavedByObjectVersion
1070
     0
  0
VISUALSTYLE
  5
36
102
{ACAD_REACTORS
330
2A
102
}
102
{ACAD_XDICTIONARY
360
2BE
102
}
330
2A
100
AcDbVisualStyle
  2
Brighten
 70
    12
 71
     2
 72
     2
 73
     0
 90
        0
 40
0.6
 41
30.0
 62
     5
 63
     7
 74
     1
 91
        4
 64
     7
 65
   257
 75
     1
175
     1
 42
1.0
 92
        8
 66
     7
 43
1.0
 76
     1
 77
     6
 78
     2
 67
     7
 79
     5
170
     0
171
     0
290
     0
174
     0
 93
        1
 44
50.0
173
     0
291
     1
 45
0.0
1001
ACAD
1000
AcDbSavedByObjectVersion
1070
     0
  0
VISUALSTYLE
  5
3A
102
{ACAD_REACTORS
330
2A
102
}
102
{ACAD_XDICTIONARY
360
2C6
102
}
330
2A
100
AcDbVisualStyle
  2
ColorChange
 70
    16
 71
     2
 72
     2
 73
     3
 90
        0
 40
0.6
 41
30.0
 62
     5
 63
     8
 74
     1
 91
        4
 64
     7
 65
   257
 75
     1
175
     1
 42
1.0
 92
        8
 66
     8
 43
1.0
 76
     1
 77
     6
 78
     2
 67
     7
 79
     5
170
     0
171
     0
290
     0
174
     0
 93
        1
 44
0.0
173
     0
291
     1
 45
0.0
1001
ACAD
1000
AcDbSavedByObjectVersion
1070
     0
  0
VISUALSTYLE
  5
34
102
{ACAD_REACTORS
330
2A
102
}
102
{ACAD_XDICTIONARY
360
2BA
102
}
330
2A
100
AcDbVisualStyle
  2
Conceptual
 70
     9
 71
     3
 72
     2
 73
     0
 90
        0
 40
0.6
 41
30.0
 62
     5
 63
     7
 74
     2
 91
        2
 64
     7
 65
   257
 75
     1
175
     1
 42
179.0
 92
        8
 66
     7
 43
1.0
 76
     1
 77
     6
 78
     2
 67
     7
 79
     3
170
     0
171
     0
290
     0
174
     0
 93
        1
 44
0.0
173
     0
291
     0
 45
0.0
1001
ACAD
1000
AcDbSavedByObjectVersion
1070
     0
  0
VISUALSTYLE
  5
35
102
{ACAD_REACTORS
330
2A
102
}
102
{ACAD_XDICTIONARY
360
2BC
102
}
330
2A
100
AcDbVisualStyle
  2
Dim
 70
    11
 71
     2
 72
     2
 73
     0
 90
        0
 40
0.6
 41
30.0
 62
     5
 63
     7
 74
     1
 91
        4
 64
     7
 65
   257
 75
     1
175
     1
 42
1.0
 92
        8
 66
     7
 43
1.0
 76
     1
 77
     6
 78
     2
 67
     7
 79
     5
170
     0
171
     0
290
     0
174
     0
 93
        1
 44
-50.0
173
     0
291
     1
 45
0.0
1001
ACAD
1000
AcDbSavedByObjectVersion
1070
     0
  0
VISUALSTYLE
  5
3D
102
{ACAD_REACTORS
330
2A
102
}
102
{ACAD_XDICTIONARY
360
2CC
102
}
330
2A
100
AcDbVisualStyle
  2
EdgeColorOff
 70
    22
 71
     2
 72
     2
 73
     0
 90
        0
 40
0.6
 41
30.0
 62
     5
 63
     7
 74
     1
 91
        4
 64
     7
 65
   257
 75
     1
175
     1
 42
1.0
 92
        8
 66
     7
 43
1.0
 76
     1
 77
     6
 78
     2
 67
     7
 79
     5
170
     0
171
     0
290
     0
174
     0
 93
        1
 44
0.0
173
     0
291
     1
 45
0.0
1001
ACAD
1000
AcDbSavedByObjectVersion
1070
     0
  0
VISUALSTYLE
  5
39
102
{ACAD_REACTORS
330
2A
102
}
102
{ACAD_XDICTIONARY
360
2C4
102
}
330
2A
100
AcDbVisualStyle
  2
Facepattern
 70
    15
 71
     2
 72
     2
 73
     0
 90
        0
 40
0.6
 41
30.0
 62
     5
 63
     7
 74
     1
 91
        4
 64
     7
 65
   257
 75
     1
175
     1
 42
1.0
 92
        8
 66
     7
 43
1.0
 76
     1
 77
     6
 78
     2
 67
     7
 79
     5
170
     0
171
     0
290
     0
174
     0
 93
        1
 44
0.0
173
     0
291
     1
 45
0.0
1001
ACAD
1000
AcDbSavedByObjectVersion
1070
     0
  0
VISUALSTYLE
  5
2B
102
{ACAD_REACTORS
330
2A
102
}
102
{ACAD_XDICTIONARY
360
2A8
102
}
330
2A
100
AcDbVisualStyle
  2
Flat
 70
     0
 71
     2
 72
     1
 73
     1
 90
        2
 40
0.6
 41
30.0
 62
     5
 63
     7
 74
     0
 91
        0
 64
     7
 65
   257
 75
     1
175
     1
 42
1.0
 92
        8
 66
     7
 43
1.0
 76
     1
 77
     6
 78
     2
 67
     7
 79
     5
170
     0
171
     0
290
     0
174
     0
 93
       13
 44
0.0
173
     0
291
     1
 45
0.0
1001
ACAD
1000
AcDbSavedByObjectVersion
1070
     0
  0
VISUALSTYLE
  5
2C
102
{ACAD_REACTORS
330
2A
102
}
102
{ACAD_XDICTIONARY
360
2AA
102
}
330
2A
100
AcDbVisualStyle
  2
FlatWithEdges
 70
     1
 71
     2
 72
     1
 73
     1
 90
        2
 40
0.6
 41
30.0
 62
     5
 63
     7
 74
     1
 91
        0
 64
     7
 65
   257
 75
     1
175
     1
 42
1.0
 92
        0
 66
   257
 43
1.0
 76
     1
 77
     6
 78
     2
 67
     7
 79
     5
170
     0
171
     0
290
     0
174
     0
 93
       13
 44
0.0
173
     0
291
     1
 45
0.0
1001
ACAD
1000
AcDbSavedByObjectVersion
1070
     0
  0
VISUALSTYLE
  5
2D
102
{ACAD_REACTORS
330
2A
102
}
102
{ACAD_XDICTIONARY
360
2AC
102
}
330
2A
100
AcDbVisualStyle
  2
Gouraud
 70
     2
 71
     2
 72
     2
 73
     1
 90
        2
 40
0.6
 41
30.0
 62
     5
 63
     7
 74
     0
 91
        0
 64
     7
 65
   257
 75
     1
175
     1
 42
1.0
 92
        0
 66
     7
 43
1.0
 76
     1
 77
     6
 78
     2
 67
     7
 79
     5
170
     0
171
     0
290
     0
174
     0
 93
       13
 44
0.0
173
     0
291
     1
 45
0.0
1001
ACAD
1000
AcDbSavedByObjectVersion
1070
     0
  0
VISUALSTYLE
  5
2E
102
{ACAD_REACTORS
330
2A
102
}
102
{ACAD_XDICTIONARY
360
2AE
102
}
330
2A
100
AcDbVisualStyle
  2
GouraudWithEdges
 70
     3
 71
     2
 72
     2
 73
     1
 90
        2
 40
0.6
 41
30.0
 62
     5
 63
     7
 74
     1
 91
        0
 64
     7
 65
   257
 75
     1
175
     1
 42
1.0
 92
        0
 66
   257
 43
1.0
 76
     1
 77
     6
 78
     2
 67
     7
 79
     5
170
     0
171
     0
290
     0
174
     0
 93
       13
 44
0.0
173
     0
291
     1
 45
0.0
1001
ACAD
1000
AcDbSavedByObjectVersion
1070
     0
  0
VISUALSTYLE
  5
31
102
{ACAD_REACTORS
330
2A
102
}
102
{ACAD_XDICTIONARY
360
2B4
102
}
330
2A
100
AcDbVisualStyle
  2
Hidden
 70
     6
 71
     1
 72
     2
 73
     2
 90
        0
 40
0.6
 41
30.0
 62
     5
 63
     7
 74
     2
 91
        2
 64
     7
 65
   257
 75
     2
175
     1
 42
40.0
 92
        0
 66
   257
 43
1.0
 76
     1
 77
     6
 78
     2
 67
     7
 79
     3
170
     0
171
     0
290
     0
174
     0
 93
        1
 44
0.0
173
     0
291
     0
 45
0.0
1001
ACAD
1000
AcDbSavedByObjectVersion
1070
     0
  0
VISUALSTYLE
  5
3B
102
{ACAD_REACTORS
330
2A
102
}
102
{ACAD_XDICTIONARY
360
2C8
102
}
330
2A
100
AcDbVisualStyle
  2
JitterOff
 70
    20
 71
     2
 72
     2
 73
     0
 90
        0
 40
0.6
 41
30.0
 62
     5
 63
     7
 74
     1
 91
        4
 64
     7
 65
   257
 75
     1
175
     1
 42
1.0
 92
       10
 66
     7
 43
1.0
 76
     1
 77
     6
 78
     2
 67
     7
 79
     5
170
     0
171
     0
290
     0
174
     0
 93
        1
 44
0.0
173
     0
291
     1
 45
0.0
1001
ACAD
1000
AcDbSavedByObjectVersion
1070
     0
  0
VISUALSTYLE
  5
38
102
{ACAD_REACTORS
330
2A
102
}
102
{ACAD_XDICTIONARY
360
2C2
102
}
330
2A
100
AcDbVisualStyle
  2
Linepattern
 70
    14
 71
     2
 72
     2
 73
     0
 90
        0
 40
0.6
 41
30.0
 62
     5
 63
     7
 74
     1
 91
        4
 64
     7
 65
   257
 75
     7
175
     7
 42
1.0
 92
        8
 66
     7
 43
1.0
 76
     1
 77
     6
 78
     2
 67
     7
 79
     5
170
     0
171
     0
290
     0
174
     0
 93
        1
 44
0.0
173
     0
291
     1
 45
0.0
1001
ACAD
1000
AcDbSavedByObjectVersion
1070
     0
  0
VISUALSTYLE
  5
3C
102
{ACAD_REACTORS
330
2A
102
}
102
{ACAD_XDICTIONARY
360
2CA
102
}
330
2A
100
AcDbVisualStyle
  2
OverhangOff
 70
    21
 71
     2
 72
     2
 73
     0
 90
        0
 40
0.6
 41
30.0
 62
     5
 63
     7
 74
     1
 91
        4
 64
     7
 65
   257
 75
     1
175
     1
 42
1.0
 92
        9
 66
     7
 43
1.0
 76
     1
 77
     6
 78
     2
 67
     7
 79
     5
170
     0
171
     0
290
     0
174
     0
 93
        1
 44
0.0
173
     0
291
     1
 45
0.0
1001
ACAD
1000
AcDbSavedByObjectVersion
1070
     0
  0
VISUALSTYLE
  5
33
102
{ACAD_REACTORS
330
2A
102
}
102
{ACAD_XDICTIONARY
360
2B8
102
}
330
2A
100
AcDbVisualStyle
  2
Realistic
 70
     8
 71
     2
 72
     3
 73
     0
 90
        2
 40
0.6
 41
30.0
 62
     5
 63
     7
 74
     0
 91
        0
 64
     7
 65
   257
 75
     1
175
     1
 42
1.0
 92
        8
 66
   257
 43
1.0
 76
     1
 77
     6
 78
     2
 67
     7
 79
     3
170
     0
171
     0
290
     0
174
     0
 93
       13
 44
0.0
173
     0
291
     0
 45
0.0
1001
ACAD
1000
AcDbSavedByObjectVersion
1070
     0
  0
VISUALSTYLE
  5
42
102
{ACAD_REACTORS
330
2A
102
}
102
{ACAD_XDICTIONARY
360
2D6
102
}
330
2A
100
AcDbVisualStyle
  2
Shaded
 70
    27
 71
     2
 72
     2
 73
     1
 90
        2
 40
0.6
 41
30.0
 62
     5
 63
     7
 74
     0
 91
        4
 64
     7
 65
   257
 75
     1
175
     1
 42
1.0
 92
        8
 66
   257
 43
1.0
 76
     1
 77
     6
 78
     2
 67
     8
 79
     3
170
     0
171
     0
290
     0
174
     0
 93
        5
 44
0.0
173
     0
291
     0
 45
0.0
1001
ACAD
1000
AcDbSavedByObjectVersion
1070
     0
  0
VISUALSTYLE
  5
41
102
{ACAD_REACTORS
330
2A
102
}
102
{ACAD_XDICTIONARY
360
2D4
102
}
330
2A
100
AcDbVisualStyle
  2
Shaded with edges
 70
    26
 71
     2
 72
     2
 73
     1
 90
        2
 40
0.6
 41
30.0
 62
     5
 63
     7
 74
     1
 91
       10
 64
     7
 65
   257
 75
     2
175
     1
 42
1.0
 92
        8
 66
   257
 43
1.0
 76
     1
 77
     6
 78
     2
 67
     7
 79
     3
170
     0
171
     0
290
     0
174
     0
 93
        5
 44
0.0
173
     0
291
     0
 45
0.0
1001
ACAD
1000
AcDbSavedByObjectVersion
1070
     0
  0
VISUALSTYLE
  5
3E
102
{ACAD_REACTORS
330
2A
102
}
102
{ACAD_XDICTIONARY
360
2CE
102
}
330
2A
100
AcDbVisualStyle
  2
Shades of Gray
 70
    23
 71
     2
 72
     2
 73
     3
 90
        0
 40
0.6
 41
30.0
 62
     5
 63
     7
 74
     2
 91
        2
 64
     7
 65
     7
 75
     1
175
     1
 42
40.0
 92
        8
 66
     7
 43
1.0
 76
     1
 77
     6
 78
     2
 67
     7
 79
     3
170
     0
171
     0
290
     0
174
     0
 93
        1
 44
0.0
173
     0
291
     0
 45
0.0
1001
ACAD
1000
AcDbSavedByObjectVersion
1070
     0
  0
VISUALSTYLE
  5
3F
102
{ACAD_REACTORS
330
2A
102
}
102
{ACAD_XDICTIONARY
360
2D0
102
}
330
2A
100
AcDbVisualStyle
  2
Sketchy
 70
    24
 71
     1
 72
     2
 73
     2
 90
        0
 40
0.6
 41
30.0
 62
     5
 63
     7
 74
     2
 91
        2
 64
     7
 65
     7
 75
     1
175
     1
 42
40.0
 92
       11
 66
     7
 43
1.0
 76
     1
 77
     6
 78
     2
 67
     7
 79
     6
170
     0
171
     0
290
     0
174
     0
 93
        1
 44
0.0
173
     0
291
     0
 45
0.0
1001
ACAD
1000
AcDbSavedByObjectVersion
1070
     0
  0
VISUALSTYLE
  5
37
102
{ACAD_REACTORS
330
2A
102
}
102
{ACAD_XDICTIONARY
360
2C0
102
}
330
2A
100
AcDbVisualStyle
  2
Thicken
 70
    13
 71
     2
 72
     2
 73
     0
 90
        0
 40
0.6
 41
30.0
 62
     5
 63
     7
 74
     1
 91
        4
 64
     7
 65
   257
 75
     1
175
     1
 42
1.0
 92
       12
 66
     7
 43
1.0
 76
     1
 77
     6
 78
     2
 67
     7
 79
     5
170
     0
171
     0
290
     0
174
     0
 93
        1
 44
0.0
173
     0
291
     1
 45
0.0
1001
ACAD
1000
AcDbSavedByObjectVersion
1070
     0
  0
VISUALSTYLE
  5
30
102
{ACAD_REACTORS
330
2A
102
}
102
{ACAD_XDICTIONARY
360
2B2
102
}
330
2A
100
AcDbVisualStyle
  2
Wireframe
 70
     5
 71
     0
 72
     2
 73
     0
 90
        0
 40
0.6
 41
30.0
 62
     5
 63
     7
 74
     1
 91
        4
 64
     7
 65
   257
 75
     1
175
     1
 42
1.0
 92
        0
 66
   257
 43
1.0
 76
     1
 77
     6
 78
     2
 67
     7
 79
     3
170
     0
171
     0
290
     0
174
     0
 93
        1
 44
0.0
173
     0
291
     0
 45
0.0
1001
ACAD
1000
AcDbSavedByObjectVersion
1070
     0
  0
VISUALSTYLE
  5
40
102
{ACAD_REACTORS
330
2A
102
}
102
{ACAD_XDICTIONARY
360
2D2
102
}
330
2A
100
AcDbVisualStyle
  2
X-Ray
 70
    25
 71
     2
 72
     2
 73
     1
 90
        1
 40
0.5
 41
30.0
 62
     5
 63
     7
 74
     1
 91
        0
 64
     7
 65
   257
 75
     1
175
     1
 42
1.0
 92
        8
 66
     7
 43
1.0
 76
     1
 77
     6
 78
     2
 67
     7
 79
     3
170
     0
171
     0
290
     0
174
     0
 93
       13
 44
0.0
173
     0
291
     0
 45
0.0
1001
ACAD
1000
AcDbSavedByObjectVersion
1070
     0
  0
DICTIONARYVAR
  5
25F
102
{ACAD_REACTORS
330
25E
102
}
330
25E
100
DictionaryVariables
280
     0
  1
1:1
  0
DICTIONARYVAR
  5
298
102
{ACAD_REACTORS
330
25E
102
}
330
25E
100
DictionaryVariables
280
     0
  1
Standard
  0
DICTIONARYVAR
  5
297
102
{ACAD_REACTORS
330
25E
102
}
330
25E
100
DictionaryVariables
280
     0
  1
Standard
  0
DICTIONARYVAR
  5
2A0
102
{ACAD_REACTORS
330
25E
102
}
330
25E
100
DictionaryVariables
280
     0
  1
2
  0
DICTIONARYVAR
  5
2A1
102
{ACAD_REACTORS
330
25E
102
}
330
25E
100
DictionaryVariables
280
     0
  1
1
  0
DICTIONARYVAR
  5
2A7
102
{ACAD_REACTORS
330
25E
102
}
330
25E
100
DictionaryVariables
280
     0
  1
1
  0
DICTIONARYVAR
  5
29F
102
{ACAD_REACTORS
330
25E
102
}
330
25E
100
DictionaryVariables
280
     0
  1
80.000000
  0
DICTIONARYVAR
  5
29E
102
{ACAD_REACTORS
330
25E
102
}
330
25E
100
DictionaryVariables
280
     0
  1
5.000000
  0
DICTIONARYVAR
  5
29B
102
{ACAD_REACTORS
330
25E
102
}
330
25E
100
DictionaryVariables
280
     0
  1
6.000000
  0
DICTIONARYVAR
  5
260
102
{ACAD_REACTORS
330
25E
102
}
330
25E
100
DictionaryVariables
280
     0
  1
2
  0
DICTIONARY
  5
2DA
330
45
100
AcDbDictionary
280
     1
281
     1
  3
ACAD_XREC_ROUNDTRIP
360
2DB
  0
DICTIONARY
  5
2D8
330
44
100
AcDbDictionary
280
     1
281
     1
  3
ACAD_XREC_ROUNDTRIP
360
2D9
  0
DICTIONARY
  5
2DC
330
46
100
AcDbDictionary
280
     1
281
     1
  3
ACAD_XREC_ROUNDTRIP
360
2DD
  0
DICTIONARY
  5
2DE
330
6C
100
AcDbDictionary
280
     1
281
     1
  3
ACAD_XREC_ROUNDTRIP
360
2DF
  0
DICTIONARY
  5
2B0
330
2F
100
AcDbDictionary
280
     1
281
     1
  3
ACAD_XREC_ROUNDTRIP
360
2B1
  0
DICTIONARY
  5
2B6
330
32
100
AcDbDictionary
280
     1
281
     1
  3
ACAD_XREC_ROUNDTRIP
360
2B7
  0
DICTIONARY
  5
2BE
330
36
100
AcDbDictionary
280
     1
281
     1
  3
ACAD_XREC_ROUNDTRIP
360
2BF
  0
DICTIONARY
  5
2C6
330
3A
100
AcDbDictionary
280
     1
281
     1
  3
ACAD_XREC_ROUNDTRIP
360
2C7
  0
DICTIONARY
  5
2BA
330
34
100
AcDbDictionary
280
     1
281
     1
  3
ACAD_XREC_ROUNDTRIP
360
2BB
  0
DICTIONARY
  5
2BC
330
35
100
AcDbDictionary
280
     1
281
     1
  3
ACAD_XREC_ROUNDTRIP
360
2BD
  0
DICTIONARY
  5
2CC
330
3D
100
AcDbDictionary
280
     1
281
     1
  3
ACAD_XREC_ROUNDTRIP
360
2CD
  0
DICTIONARY
  5
2C4
330
39
100
AcDbDictionary
280
     1
281
     1
  3
ACAD_XREC_ROUNDTRIP
360
2C5
  0
DICTIONARY
  5
2A8
330
2B
100
AcDbDictionary
280
     1
281
     1
  3
ACAD_XREC_ROUNDTRIP
360
2A9
  0
DICTIONARY
  5
2AA
330
2C
100
AcDbDictionary
280
     1
281
     1
  3
ACAD_XREC_ROUNDTRIP
360
2AB
  0
DICTIONARY
  5
2AC
330
2D
100
AcDbDictionary
280
     1
281
     1
  3
ACAD_XREC_ROUNDTRIP
360
2AD
  0
DICTIONARY
  5
2AE
330
2E
100
AcDbDictionary
280
     1
281
     1
  3
ACAD_XREC_ROUNDTRIP
360
2AF
  0
DICTIONARY
  5
2B4
330
31
100
AcDbDictionary
280
     1
281
     1
  3
ACAD_XREC_ROUNDTRIP
360
2B5
  0
DICTIONARY
  5
2C8
330
3B
100
AcDbDictionary
280
     1
281
     1
  3
ACAD_XREC_ROUNDTRIP
360
2C9
  0
DICTIONARY
  5
2C2
330
38
100
AcDbDictionary
280
     1
281
     1
  3
ACAD_XREC_ROUNDTRIP
360
2C3
  0
DICTIONARY
  5
2CA
330
3C
100
AcDbDictionary
280
     1
281
     1
  3
ACAD_XREC_ROUNDTRIP
360
2CB
  0
DICTIONARY
  5
2B8
330
33
100
AcDbDictionary
280
     1
281
     1
  3
ACAD_XREC_ROUNDTRIP
360
2B9
  0
DICTIONARY
  5
2D6
330
42
100
AcDbDictionary
280
     1
281
     1
  3
ACAD_XREC_ROUNDTRIP
360
2D7
  0
DICTIONARY
  5
2D4
330
41
100
AcDbDictionary
280
     1
281
     1
  3
ACAD_XREC_ROUNDTRIP
360
2D5
  0
DICTIONARY
  5
2CE
330
3E
100
AcDbDictionary
280
     1
281
     1
  3
ACAD_XREC_ROUNDTRIP
360
2CF
  0
DICTIONARY
  5
2D0
330
3F
100
AcDbDictionary
280
     1
281
     1
  3
ACAD_XREC_ROUNDTRIP
360
2D1
  0
DICTIONARY
  5
2C0
330
37
100
AcDbDictionary
280
     1
281
     1
  3
ACAD_XREC_ROUNDTRIP
360
2C1
  0
DICTIONARY
  5
2B2
330
30
100
AcDbDictionary
280
     1
281
     1
  3
ACAD_XREC_ROUNDTRIP
360
2B3
  0
DICTIONARY
  5
2D2
330
40
100
AcDbDictionary
280
     1
281
     1
  3
ACAD_XREC_ROUNDTRIP
360
2D3
  0
XRECORD
  5
2DB
102
{ACAD_REACTORS
330
2DA
102
}
330
2DA
100
AcDbXrecord
280
     1
102
MATERIAL
148
0.0
149
0.0
149
0.0
 93
        0
 94
      127
282
     0
 72
     1
 77
     1
171
     1
175
     1
179
     1
273
     0
  0
XRECORD
  5
2D9
102
{ACAD_REACTORS
330
2D8
102
}
330
2D8
100
AcDbXrecord
280
     1
102
MATERIAL
148
0.0
149
0.0
149
0.0
 93
        0
 94
      127
282
     0
 72
     1
 77
     1
171
     1
175
     1
179
     1
273
     0
  0
XRECORD
  5
2DD
102
{ACAD_REACTORS
330
2DC
102
}
330
2DC
100
AcDbXrecord
280
     1
102
MATERIAL
148
0.0
149
0.0
149
0.0
 93
        0
 94
      127
282
     0
 72
     1
 77
     1
171
     1
175
     1
179
     1
273
     0
  0
XRECORD
  5
2DF
102
{ACAD_REACTORS
330
2DE
102
}
330
2DE
100
AcDbXrecord
280
     1
102
ACAD_ROUNDTRIP_2010_MLEADER_STYLE
  0
XRECORD
  5
2B1
102
{ACAD_REACTORS
330
2B0
102
}
330
2B0
100
AcDbXrecord
280
     1
102
RTVSPropertyOp0
 70
     1
102
RTVSPropertyOp1
 70
     1
102
RTVSPropertyOp2
 70
     1
102
RTVSPropertyOp3
 70
     1
102
RTVSPropertyOp4
 70
     1
102
RTVSPropertyOp5
 70
     1
102
RTVSPropertyOp6
 70
     1
102
RTVSPropertyOp7
 70
     1
102
RTVSPropertyOp8
 70
     1
102
RTVSPropertyOp9
 70
     1
102
RTVSPropertyOp10
 70
     1
102
RTVSPropertyOp11
 70
     1
102
RTVSPropertyOp12
 70
     1
102
RTVSPropertyOp13
 70
     1
102
RTVSPropertyOp14
 70
     1
102
RTVSPropertyOp15
 70
     1
102
RTVSPropertyOp16
 70
     1
102
RTVSPropertyOp17
 70
     1
102
RTVSPropertyOp18
 70
     1
102
RTVSPropertyOp19
 70
     1
102
RTVSPropertyOp20
 70
     1
102
RTVSPropertyOp21
 70
     1
102
RTVSPropertyOp22
 70
     1
102
RTVSPropertyOp23
 70
     1
102
RTVSPropertyOp24
 70
     1
102
RTVSPropertyOp25
 70
     1
102
RTVSPropertyOp26
 70
     1
102
RTVSPropertyOp27
 70
     1
102
RTVSPropertyOp28
 70
     1
102
RTVSPropertyOp29
 70
     1
102
RTVSPropertyOp30
 70
     1
102
RTVSPropertyOp31
 70
     1
102
RTVSPropertyOp32
 70
     1
102
RTVSPropertyOp33
 70
     1
102
RTVSPropertyOp34
 70
     1
102
RTVSPropertyOp35
 70
     1
102
RTVSPropertyOp36
 70
     1
102
RTVSPropertyOp37
 70
     1
102
RTVSPropertyOp38
 70
     1
102
RTVSPropertyOp39
 70
     1
102
RTVSPropertyOp40
 70
     1
102
RTVSPropertyOp41
 70
     1
102
RTVSPropertyOp42
 70
     1
102
RTVSPropertyOp43
 70
     1
102
RTVSPropertyOp44
 70
     1
102
RTVSPropertyOp45
 70
     1
102
RTVSPropertyOp46
 70
     1
102
RTVSPropertyOp47
 70
     1
102
RTVSPropertyOp48
 70
     1
102
RTVSPropertyOp49
 70
     1
102
RTVSPropertyOp50
 70
     1
102
RTVSPropertyOp51
 70
     0
102
RTVSPropertyOp52
 70
     0
102
RTVSPropertyOp53
 70
     1
102
RTVSPropertyOp54
 70
     1
102
RTVSPropertyOp55
 70
     1
102
RTVSPropertyOp56
 70
     1
102
RTVSPropertyOp57
 70
     1
102
RTVSPost2010Prop28
280
     1
102
RTVSPost2010PropOp28
 70
     1
102
RTVSPost2010Prop29
280
     1
102
RTVSPost2010PropOp29
 70
     1
102
RTVSPost2010Prop30
280
     0
102
RTVSPost2010PropOp30
 70
     1
102
RTVSPost2010Prop31
280
     0
102
RTVSPost2010PropOp31
 70
     1
102
RTVSPost2010Prop32
280
     0
102
RTVSPost2010PropOp32
 70
     1
102
RTVSPost2010Prop33
280
     0
102
RTVSPost2010PropOp33
 70
     1
102
RTVSPost2010Prop34
280
     0
102
RTVSPost2010PropOp34
 70
     1
102
RTVSPost2010Prop35
280
     0
102
RTVSPost2010PropOp35
 70
     1
102
RTVSPost2010Prop36
280
     0
102
RTVSPost2010PropOp36
 70
     1
102
RTVSPost2010Prop37
 90
       50
102
RTVSPost2010PropOp37
 70
     1
102
RTVSPost2010Prop38
140
0.0
102
RTVSPost2010PropOp38
 70
     1
102
RTVSPost2010Prop39
140
1.0
102
RTVSPost2010PropOp39
 70
     1
102
RTVSPost2010Prop40
 90
        0
102
RTVSPost2010PropOp40
 70
     1
102
RTVSPost2010Prop41ColorIndex
 90
       18
102
RTVSPost2010Prop41ColorRGB
 90
        0
102
RTVSPost2010PropOp41
 70
     1
102
RTVSPost2010Prop42
 90
       50
102
RTVSPost2010PropOp42
 70
     1
102
RTVSPost2010Prop43
 90
        3
102
RTVSPost2010PropOp43
 70
     1
102
RTVSPost2010Prop44ColorIndex
 90
        5
102
RTVSPost2010Prop44ColorRGB
 90
      255
102
RTVSPost2010PropOp44
 70
     1
102
RTVSPost2010Prop45
280
     0
102
RTVSPost2010PropOp45
 70
     1
102
RTVSPost2010Prop46
 90
       50
102
RTVSPost2010PropOp46
 70
     1
102
RTVSPost2010Prop47
 90
       50
102
RTVSPost2010PropOp47
 70
     1
102
RTVSPost2010Prop48
 90
       50
102
RTVSPost2010PropOp48
 70
     1
102
RTVSPost2010Prop49
280
     0
102
RTVSPost2010PropOp49
 70
     1
102
RTVSPost2010Prop50
 90
       50
102
RTVSPost2010PropOp50
 70
     1
102
RTVSPost2010Prop51ColorIndex
 90
      256
102
RTVSPost2010Prop51ColorRGB
 90
-16777216
102
RTVSPost2010PropOp51
 70
     0
102
RTVSPost2010Prop52
140
1.0
102
RTVSPost2010PropOp52
 70
     0
102
RTVSPost2010Prop53
 90
        2
102
RTVSPost2010PropOp53
 70
     1
102
RTVSPost2010Prop54
  1
strokes_ogs.tif
102
RTVSPost2010PropOp54
 70
     1
102
RTVSPost2010Prop55
280
     0
102
RTVSPost2010PropOp55
 70
     1
102
RTVSPost2010Prop56
140
1.0
102
RTVSPost2010PropOp56
 70
     1
102
RTVSPost2010Prop57
140
1.0
102
RTVSPost2010PropOp57
 70
     1
  0
XRECORD
  5
2B7
102
{ACAD_REACTORS
330
2B6
102
}
330
2B6
100
AcDbXrecord
280
     1
102
RTVSPropertyOp0
 70
     1
102
RTVSPropertyOp1
 70
     1
102
RTVSPropertyOp2
 70
     1
102
RTVSPropertyOp3
 70
     1
102
RTVSPropertyOp4
 70
     1
102
RTVSPropertyOp5
 70
     1
102
RTVSPropertyOp6
 70
     1
102
RTVSPropertyOp7
 70
     1
102
RTVSPropertyOp8
 70
     1
102
RTVSPropertyOp9
 70
     1
102
RTVSPropertyOp10
 70
     1
102
RTVSPropertyOp11
 70
     1
102
RTVSPropertyOp12
 70
     1
102
RTVSPropertyOp13
 70
     1
102
RTVSPropertyOp14
 70
     1
102
RTVSPropertyOp15
 70
     1
102
RTVSPropertyOp16
 70
     1
102
RTVSPropertyOp17
 70
     1
102
RTVSPropertyOp18
 70
     1
102
RTVSPropertyOp19
 70
     1
102
RTVSPropertyOp20
 70
     1
102
RTVSPropertyOp21
 70
     1
102
RTVSPropertyOp22
 70
     1
102
RTVSPropertyOp23
 70
     1
102
RTVSPropertyOp24
 70
     1
102
RTVSPropertyOp25
 70
     1
102
RTVSPropertyOp26
 70
     1
102
RTVSPropertyOp27
 70
     1
102
RTVSPropertyOp28
 70
     1
102
RTVSPropertyOp29
 70
     1
102
RTVSPropertyOp30
 70
     1
102
RTVSPropertyOp31
 70
     1
102
RTVSPropertyOp32
 70
     1
102
RTVSPropertyOp33
 70
     1
102
RTVSPropertyOp34
 70
     1
102
RTVSPropertyOp35
 70
     1
102
RTVSPropertyOp36
 70
     1
102
RTVSPropertyOp37
 70
     1
102
RTVSPropertyOp38
 70
     1
102
RTVSPropertyOp39
 70
     1
102
RTVSPropertyOp40
 70
     1
102
RTVSPropertyOp41
 70
     1
102
RTVSPropertyOp42
 70
     1
102
RTVSPropertyOp43
 70
     1
102
RTVSPropertyOp44
 70
     1
102
RTVSPropertyOp45
 70
     1
102
RTVSPropertyOp46
 70
     1
102
RTVSPropertyOp47
 70
     1
102
RTVSPropertyOp48
 70
     1
102
RTVSPropertyOp49
 70
     1
102
RTVSPropertyOp50
 70
     1
102
RTVSPropertyOp51
 70
     0
102
RTVSPropertyOp52
 70
     0
102
RTVSPropertyOp53
 70
     1
102
RTVSPropertyOp54
 70
     1
102
RTVSPropertyOp55
 70
     1
102
RTVSPropertyOp56
 70
     1
102
RTVSPropertyOp57
 70
     1
102
RTVSPost2010Prop28
280
     0
102
RTVSPost2010PropOp28
 70
     1
102
RTVSPost2010Prop29
280
     1
102
RTVSPost2010PropOp29
 70
     1
102
RTVSPost2010Prop30
280
     1
102
RTVSPost2010PropOp30
 70
     1
102
RTVSPost2010Prop31
280
     0
102
RTVSPost2010PropOp31
 70
     1
102
RTVSPost2010Prop32
280
     0
102
RTVSPost2010PropOp32
 70
     1
102
RTVSPost2010Prop33
280
     0
102
RTVSPost2010PropOp33
 70
     1
102
RTVSPost2010Prop34
280
     0
102
RTVSPost2010PropOp34
 70
     1
102
RTVSPost2010Prop35
280
     0
102
RTVSPost2010PropOp35
 70
     1
102
RTVSPost2010Prop36
280
     0
102
RTVSPost2010PropOp36
 70
     1
102
RTVSPost2010Prop37
 90
       50
102
RTVSPost2010PropOp37
 70
     1
102
RTVSPost2010Prop38
140
0.0
102
RTVSPost2010PropOp38
 70
     1
102
RTVSPost2010Prop39
140
1.0
102
RTVSPost2010PropOp39
 70
     1
102
RTVSPost2010Prop40
 90
        0
102
RTVSPost2010PropOp40
 70
     1
102
RTVSPost2010Prop41ColorIndex
 90
       18
102
RTVSPost2010Prop41ColorRGB
 90
        0
102
RTVSPost2010PropOp41
 70
     1
102
RTVSPost2010Prop42
 90
       50
102
RTVSPost2010PropOp42
 70
     1
102
RTVSPost2010Prop43
 90
        3
102
RTVSPost2010PropOp43
 70
     1
102
RTVSPost2010Prop44ColorIndex
 90
        5
102
RTVSPost2010Prop44ColorRGB
 90
      255
102
RTVSPost2010PropOp44
 70
     1
102
RTVSPost2010Prop45
280
     0
102
RTVSPost2010PropOp45
 70
     1
102
RTVSPost2010Prop46
 90
       50
102
RTVSPost2010PropOp46
 70
     1
102
RTVSPost2010Prop47
 90
       50
102
RTVSPost2010PropOp47
 70
     1
102
RTVSPost2010Prop48
 90
       50
102
RTVSPost2010PropOp48
 70
     1
102
RTVSPost2010Prop49
280
     0
102
RTVSPost2010PropOp49
 70
     1
102
RTVSPost2010Prop50
 90
       50
102
RTVSPost2010PropOp50
 70
     1
102
RTVSPost2010Prop51ColorIndex
 90
      256
102
RTVSPost2010Prop51ColorRGB
 90
-16777216
102
RTVSPost2010PropOp51
 70
     0
102
RTVSPost2010Prop52
140
1.0
102
RTVSPost2010PropOp52
 70
     0
102
RTVSPost2010Prop53
 90
        2
102
RTVSPost2010PropOp53
 70
     1
102
RTVSPost2010Prop54
  1
strokes_ogs.tif
102
RTVSPost2010PropOp54
 70
     1
102
RTVSPost2010Prop55
280
     0
102
RTVSPost2010PropOp55
 70
     1
102
RTVSPost2010Prop56
140
1.0
102
RTVSPost2010PropOp56
 70
     1
102
RTVSPost2010Prop57
140
1.0
102
RTVSPost2010PropOp57
 70
     1
  0
XRECORD
  5
2BF
102
{ACAD_REACTORS
330
2BE
102
}
330
2BE
100
AcDbXrecord
280
     1
102
RTVSPropertyOp0
 70
     1
102
RTVSPropertyOp1
 70
     1
102
RTVSPropertyOp2
 70
     1
102
RTVSPropertyOp3
 70
     1
102
RTVSPropertyOp4
 70
     1
102
RTVSPropertyOp5
 70
     1
102
RTVSPropertyOp6
 70
     1
102
RTVSPropertyOp7
 70
     1
102
RTVSPropertyOp8
 70
     1
102
RTVSPropertyOp9
 70
     1
102
RTVSPropertyOp10
 70
     1
102
RTVSPropertyOp11
 70
     1
102
RTVSPropertyOp12
 70
     1
102
RTVSPropertyOp13
 70
     1
102
RTVSPropertyOp14
 70
     1
102
RTVSPropertyOp15
 70
     1
102
RTVSPropertyOp16
 70
     1
102
RTVSPropertyOp17
 70
     1
102
RTVSPropertyOp18
 70
     1
102
RTVSPropertyOp19
 70
     1
102
RTVSPropertyOp20
 70
     1
102
RTVSPropertyOp21
 70
     1
102
RTVSPropertyOp22
 70
     1
102
RTVSPropertyOp23
 70
     1
102
RTVSPropertyOp24
 70
     1
102
RTVSPropertyOp25
 70
     1
102
RTVSPropertyOp26
 70
     1
102
RTVSPropertyOp27
 70
     1
102
RTVSPropertyOp28
 70
     1
102
RTVSPropertyOp29
 70
     1
102
RTVSPropertyOp30
 70
     1
102
RTVSPropertyOp31
 70
     1
102
RTVSPropertyOp32
 70
     1
102
RTVSPropertyOp33
 70
     1
102
RTVSPropertyOp34
 70
     1
102
RTVSPropertyOp35
 70
     1
102
RTVSPropertyOp36
 70
     1
102
RTVSPropertyOp37
 70
     1
102
RTVSPropertyOp38
 70
     1
102
RTVSPropertyOp39
 70
     1
102
RTVSPropertyOp40
 70
     1
102
RTVSPropertyOp41
 70
     1
102
RTVSPropertyOp42
 70
     1
102
RTVSPropertyOp43
 70
     1
102
RTVSPropertyOp44
 70
     1
102
RTVSPropertyOp45
 70
     1
102
RTVSPropertyOp46
 70
     1
102
RTVSPropertyOp47
 70
     1
102
RTVSPropertyOp48
 70
     1
102
RTVSPropertyOp49
 70
     1
102
RTVSPropertyOp50
 70
     1
102
RTVSPropertyOp51
 70
     0
102
RTVSPropertyOp52
 70
     0
102
RTVSPropertyOp53
 70
     1
102
RTVSPropertyOp54
 70
     1
102
RTVSPropertyOp55
 70
     1
102
RTVSPropertyOp56
 70
     1
102
RTVSPropertyOp57
 70
     1
102
RTVSPost2010Prop28
280
     0
102
RTVSPost2010PropOp28
 70
     1
102
RTVSPost2010Prop29
280
     1
102
RTVSPost2010PropOp29
 70
     1
102
RTVSPost2010Prop30
280
     1
102
RTVSPost2010PropOp30
 70
     1
102
RTVSPost2010Prop31
280
     0
102
RTVSPost2010PropOp31
 70
     1
102
RTVSPost2010Prop32
280
     0
102
RTVSPost2010PropOp32
 70
     1
102
RTVSPost2010Prop33
280
     0
102
RTVSPost2010PropOp33
 70
     1
102
RTVSPost2010Prop34
280
     0
102
RTVSPost2010PropOp34
 70
     1
102
RTVSPost2010Prop35
280
     0
102
RTVSPost2010PropOp35
 70
     1
102
RTVSPost2010Prop36
280
     0
102
RTVSPost2010PropOp36
 70
     1
102
RTVSPost2010Prop37
 90
       50
102
RTVSPost2010PropOp37
 70
     1
102
RTVSPost2010Prop38
140
0.0
102
RTVSPost2010PropOp38
 70
     1
102
RTVSPost2010Prop39
140
1.0
102
RTVSPost2010PropOp39
 70
     1
102
RTVSPost2010Prop40
 90
        0
102
RTVSPost2010PropOp40
 70
     1
102
RTVSPost2010Prop41ColorIndex
 90
       18
102
RTVSPost2010Prop41ColorRGB
 90
        0
102
RTVSPost2010PropOp41
 70
     1
102
RTVSPost2010Prop42
 90
       50
102
RTVSPost2010PropOp42
 70
     1
102
RTVSPost2010Prop43
 90
        3
102
RTVSPost2010PropOp43
 70
     1
102
RTVSPost2010Prop44ColorIndex
 90
        5
102
RTVSPost2010Prop44ColorRGB
 90
      255
102
RTVSPost2010PropOp44
 70
     1
102
RTVSPost2010Prop45
280
     0
102
RTVSPost2010PropOp45
 70
     1
102
RTVSPost2010Prop46
 90
       50
102
RTVSPost2010PropOp46
 70
     1
102
RTVSPost2010Prop47
 90
       50
102
RTVSPost2010PropOp47
 70
     1
102
RTVSPost2010Prop48
 90
       50
102
RTVSPost2010PropOp48
 70
     1
102
RTVSPost2010Prop49
280
     0
102
RTVSPost2010PropOp49
 70
     1
102
RTVSPost2010Prop50
 90
       50
102
RTVSPost2010PropOp50
 70
     1
102
RTVSPost2010Prop51ColorIndex
 90
      256
102
RTVSPost2010Prop51ColorRGB
 90
-16777216
102
RTVSPost2010PropOp51
 70
     0
102
RTVSPost2010Prop52
140
1.0
102
RTVSPost2010PropOp52
 70
     0
102
RTVSPost2010Prop53
 90
        2
102
RTVSPost2010PropOp53
 70
     1
102
RTVSPost2010Prop54
  1
strokes_ogs.tif
102
RTVSPost2010PropOp54
 70
     1
102
RTVSPost2010Prop55
280
     0
102
RTVSPost2010PropOp55
 70
     1
102
RTVSPost2010Prop56
140
1.0
102
RTVSPost2010PropOp56
 70
     1
102
RTVSPost2010Prop57
140
1.0
102
RTVSPost2010PropOp57
 70
     1
  0
XRECORD
  5
2C7
102
{ACAD_REACTORS
330
2C6
102
}
330
2C6
100
AcDbXrecord
280
     1
102
RTVSPropertyOp0
 70
     1
102
RTVSPropertyOp1
 70
     1
102
RTVSPropertyOp2
 70
     1
102
RTVSPropertyOp3
 70
     1
102
RTVSPropertyOp4
 70
     1
102
RTVSPropertyOp5
 70
     1
102
RTVSPropertyOp6
 70
     1
102
RTVSPropertyOp7
 70
     1
102
RTVSPropertyOp8
 70
     1
102
RTVSPropertyOp9
 70
     1
102
RTVSPropertyOp10
 70
     1
102
RTVSPropertyOp11
 70
     1
102
RTVSPropertyOp12
 70
     1
102
RTVSPropertyOp13
 70
     1
102
RTVSPropertyOp14
 70
     1
102
RTVSPropertyOp15
 70
     1
102
RTVSPropertyOp16
 70
     1
102
RTVSPropertyOp17
 70
     1
102
RTVSPropertyOp18
 70
     1
102
RTVSPropertyOp19
 70
     1
102
RTVSPropertyOp20
 70
     1
102
RTVSPropertyOp21
 70
     1
102
RTVSPropertyOp22
 70
     1
102
RTVSPropertyOp23
 70
     1
102
RTVSPropertyOp24
 70
     1
102
RTVSPropertyOp25
 70
     1
102
RTVSPropertyOp26
 70
     1
102
RTVSPropertyOp27
 70
     1
102
RTVSPropertyOp28
 70
     1
102
RTVSPropertyOp29
 70
     1
102
RTVSPropertyOp30
 70
     1
102
RTVSPropertyOp31
 70
     1
102
RTVSPropertyOp32
 70
     1
102
RTVSPropertyOp33
 70
     1
102
RTVSPropertyOp34
 70
     1
102
RTVSPropertyOp35
 70
     1
102
RTVSPropertyOp36
 70
     1
102
RTVSPropertyOp37
 70
     1
102
RTVSPropertyOp38
 70
     1
102
RTVSPropertyOp39
 70
     1
102
RTVSPropertyOp40
 70
     1
102
RTVSPropertyOp41
 70
     1
102
RTVSPropertyOp42
 70
     1
102
RTVSPropertyOp43
 70
     1
102
RTVSPropertyOp44
 70
     1
102
RTVSPropertyOp45
 70
     1
102
RTVSPropertyOp46
 70
     1
102
RTVSPropertyOp47
 70
     1
102
RTVSPropertyOp48
 70
     1
102
RTVSPropertyOp49
 70
     1
102
RTVSPropertyOp50
 70
     1
102
RTVSPropertyOp51
 70
     0
102
RTVSPropertyOp52
 70
     0
102
RTVSPropertyOp53
 70
     1
102
RTVSPropertyOp54
 70
     1
102
RTVSPropertyOp55
 70
     1
102
RTVSPropertyOp56
 70
     1
102
RTVSPropertyOp57
 70
     1
102
RTVSPost2010Prop28
280
     0
102
RTVSPost2010PropOp28
 70
     1
102
RTVSPost2010Prop29
280
     1
102
RTVSPost2010PropOp29
 70
     1
102
RTVSPost2010Prop30
280
     1
102
RTVSPost2010PropOp30
 70
     1
102
RTVSPost2010Prop31
280
     0
102
RTVSPost2010PropOp31
 70
     1
102
RTVSPost2010Prop32
280
     0
102
RTVSPost2010PropOp32
 70
     1
102
RTVSPost2010Prop33
280
     0
102
RTVSPost2010PropOp33
 70
     1
102
RTVSPost2010Prop34
280
     0
102
RTVSPost2010PropOp34
 70
     1
102
RTVSPost2010Prop35
280
     0
102
RTVSPost2010PropOp35
 70
     1
102
RTVSPost2010Prop36
280
     0
102
RTVSPost2010PropOp36
 70
     1
102
RTVSPost2010Prop37
 90
       50
102
RTVSPost2010PropOp37
 70
     1
102
RTVSPost2010Prop38
140
0.0
102
RTVSPost2010PropOp38
 70
     1
102
RTVSPost2010Prop39
140
1.0
102
RTVSPost2010PropOp39
 70
     1
102
RTVSPost2010Prop40
 90
        0
102
RTVSPost2010PropOp40
 70
     1
102
RTVSPost2010Prop41ColorIndex
 90
       18
102
RTVSPost2010Prop41ColorRGB
 90
        0
102
RTVSPost2010PropOp41
 70
     1
102
RTVSPost2010Prop42
 90
       50
102
RTVSPost2010PropOp42
 70
     1
102
RTVSPost2010Prop43
 90
        3
102
RTVSPost2010PropOp43
 70
     1
102
RTVSPost2010Prop44ColorIndex
 90
        5
102
RTVSPost2010Prop44ColorRGB
 90
      255
102
RTVSPost2010PropOp44
 70
     1
102
RTVSPost2010Prop45
280
     0
102
RTVSPost2010PropOp45
 70
     1
102
RTVSPost2010Prop46
 90
       50
102
RTVSPost2010PropOp46
 70
     1
102
RTVSPost2010Prop47
 90
       50
102
RTVSPost2010PropOp47
 70
     1
102
RTVSPost2010Prop48
 90
       50
102
RTVSPost2010PropOp48
 70
     1
102
RTVSPost2010Prop49
280
     0
102
RTVSPost2010PropOp49
 70
     1
102
RTVSPost2010Prop50
 90
       50
102
RTVSPost2010PropOp50
 70
     1
102
RTVSPost2010Prop51ColorIndex
 90
      256
102
RTVSPost2010Prop51ColorRGB
 90
-16777216
102
RTVSPost2010PropOp51
 70
     0
102
RTVSPost2010Prop52
140
1.0
102
RTVSPost2010PropOp52
 70
     0
102
RTVSPost2010Prop53
 90
        2
102
RTVSPost2010PropOp53
 70
     1
102
RTVSPost2010Prop54
  1
strokes_ogs.tif
102
RTVSPost2010PropOp54
 70
     1
102
RTVSPost2010Prop55
280
     0
102
RTVSPost2010PropOp55
 70
     1
102
RTVSPost2010Prop56
140
1.0
102
RTVSPost2010PropOp56
 70
     1
102
RTVSPost2010Prop57
140
1.0
102
RTVSPost2010PropOp57
 70
     1
  0
XRECORD
  5
2BB
102
{ACAD_REACTORS
330
2BA
102
}
330
2BA
100
AcDbXrecord
280
     1
102
RTVSPropertyOp0
 70
     1
102
RTVSPropertyOp1
 70
     1
102
RTVSPropertyOp2
 70
     1
102
RTVSPropertyOp3
 70
     1
102
RTVSPropertyOp4
 70
     1
102
RTVSPropertyOp5
 70
     1
102
RTVSPropertyOp6
 70
     1
102
RTVSPropertyOp7
 70
     1
102
RTVSPropertyOp8
 70
     1
102
RTVSPropertyOp9
 70
     1
102
RTVSPropertyOp10
 70
     1
102
RTVSPropertyOp11
 70
     1
102
RTVSPropertyOp12
 70
     1
102
RTVSPropertyOp13
 70
     1
102
RTVSPropertyOp14
 70
     1
102
RTVSPropertyOp15
 70
     1
102
RTVSPropertyOp16
 70
     1
102
RTVSPropertyOp17
 70
     1
102
RTVSPropertyOp18
 70
     1
102
RTVSPropertyOp19
 70
     1
102
RTVSPropertyOp20
 70
     1
102
RTVSPropertyOp21
 70
     1
102
RTVSPropertyOp22
 70
     1
102
RTVSPropertyOp23
 70
     1
102
RTVSPropertyOp24
 70
     1
102
RTVSPropertyOp25
 70
     1
102
RTVSPropertyOp26
 70
     1
102
RTVSPropertyOp27
 70
     1
102
RTVSPropertyOp28
 70
     1
102
RTVSPropertyOp29
 70
     1
102
RTVSPropertyOp30
 70
     1
102
RTVSPropertyOp31
 70
     1
102
RTVSPropertyOp32
 70
     1
102
RTVSPropertyOp33
 70
     1
102
RTVSPropertyOp34
 70
     1
102
RTVSPropertyOp35
 70
     1
102
RTVSPropertyOp36
 70
     1
102
RTVSPropertyOp37
 70
     1
102
RTVSPropertyOp38
 70
     1
102
RTVSPropertyOp39
 70
     1
102
RTVSPropertyOp40
 70
     1
102
RTVSPropertyOp41
 70
     1
102
RTVSPropertyOp42
 70
     1
102
RTVSPropertyOp43
 70
     1
102
RTVSPropertyOp44
 70
     1
102
RTVSPropertyOp45
 70
     1
102
RTVSPropertyOp46
 70
     1
102
RTVSPropertyOp47
 70
     1
102
RTVSPropertyOp48
 70
     1
102
RTVSPropertyOp49
 70
     1
102
RTVSPropertyOp50
 70
     1
102
RTVSPropertyOp51
 70
     0
102
RTVSPropertyOp52
 70
     0
102
RTVSPropertyOp53
 70
     1
102
RTVSPropertyOp54
 70
     1
102
RTVSPropertyOp55
 70
     1
102
RTVSPropertyOp56
 70
     1
102
RTVSPropertyOp57
 70
     1
102
RTVSPost2010Prop28
280
     0
102
RTVSPost2010PropOp28
 70
     1
102
RTVSPost2010Prop29
280
     1
102
RTVSPost2010PropOp29
 70
     1
102
RTVSPost2010Prop30
280
     1
102
RTVSPost2010PropOp30
 70
     1
102
RTVSPost2010Prop31
280
     0
102
RTVSPost2010PropOp31
 70
     1
102
RTVSPost2010Prop32
280
     0
102
RTVSPost2010PropOp32
 70
     1
102
RTVSPost2010Prop33
280
     0
102
RTVSPost2010PropOp33
 70
     1
102
RTVSPost2010Prop34
280
     0
102
RTVSPost2010PropOp34
 70
     1
102
RTVSPost2010Prop35
280
     0
102
RTVSPost2010PropOp35
 70
     1
102
RTVSPost2010Prop36
280
     0
102
RTVSPost2010PropOp36
 70
     1
102
RTVSPost2010Prop37
 90
       50
102
RTVSPost2010PropOp37
 70
     1
102
RTVSPost2010Prop38
140
0.0
102
RTVSPost2010PropOp38
 70
     1
102
RTVSPost2010Prop39
140
1.0
102
RTVSPost2010PropOp39
 70
     1
102
RTVSPost2010Prop40
 90
        0
102
RTVSPost2010PropOp40
 70
     1
102
RTVSPost2010Prop41ColorIndex
 90
       18
102
RTVSPost2010Prop41ColorRGB
 90
        0
102
RTVSPost2010PropOp41
 70
     1
102
RTVSPost2010Prop42
 90
       50
102
RTVSPost2010PropOp42
 70
     1
102
RTVSPost2010Prop43
 90
        3
102
RTVSPost2010PropOp43
 70
     1
102
RTVSPost2010Prop44ColorIndex
 90
        5
102
RTVSPost2010Prop44ColorRGB
 90
      255
102
RTVSPost2010PropOp44
 70
     1
102
RTVSPost2010Prop45
280
     0
102
RTVSPost2010PropOp45
 70
     1
102
RTVSPost2010Prop46
 90
       50
102
RTVSPost2010PropOp46
 70
     1
102
RTVSPost2010Prop47
 90
       50
102
RTVSPost2010PropOp47
 70
     1
102
RTVSPost2010Prop48
 90
       50
102
RTVSPost2010PropOp48
 70
     1
102
RTVSPost2010Prop49
280
     0
102
RTVSPost2010PropOp49
 70
     1
102
RTVSPost2010Prop50
 90
       50
102
RTVSPost2010PropOp50
 70
     1
102
RTVSPost2010Prop51ColorIndex
 90
      256
102
RTVSPost2010Prop51ColorRGB
 90
-16777216
102
RTVSPost2010PropOp51
 70
     0
102
RTVSPost2010Prop52
140
1.0
102
RTVSPost2010PropOp52
 70
     0
102
RTVSPost2010Prop53
 90
        2
102
RTVSPost2010PropOp53
 70
     1
102
RTVSPost2010Prop54
  1
strokes_ogs.tif
102
RTVSPost2010PropOp54
 70
     1
102
RTVSPost2010Prop55
280
     0
102
RTVSPost2010PropOp55
 70
     1
102
RTVSPost2010Prop56
140
1.0
102
RTVSPost2010PropOp56
 70
     1
102
RTVSPost2010Prop57
140
1.0
102
RTVSPost2010PropOp57
 70
     1
  0
XRECORD
  5
2BD
102
{ACAD_REACTORS
330
2BC
102
}
330
2BC
100
AcDbXrecord
280
     1
102
RTVSPropertyOp0
 70
     1
102
RTVSPropertyOp1
 70
     1
102
RTVSPropertyOp2
 70
     1
102
RTVSPropertyOp3
 70
     1
102
RTVSPropertyOp4
 70
     1
102
RTVSPropertyOp5
 70
     1
102
RTVSPropertyOp6
 70
     1
102
RTVSPropertyOp7
 70
     1
102
RTVSPropertyOp8
 70
     1
102
RTVSPropertyOp9
 70
     1
102
RTVSPropertyOp10
 70
     1
102
RTVSPropertyOp11
 70
     1
102
RTVSPropertyOp12
 70
     1
102
RTVSPropertyOp13
 70
     1
102
RTVSPropertyOp14
 70
     1
102
RTVSPropertyOp15
 70
     1
102
RTVSPropertyOp16
 70
     1
102
RTVSPropertyOp17
 70
     1
102
RTVSPropertyOp18
 70
     1
102
RTVSPropertyOp19
 70
     1
102
RTVSPropertyOp20
 70
     1
102
RTVSPropertyOp21
 70
     1
102
RTVSPropertyOp22
 70
     1
102
RTVSPropertyOp23
 70
     1
102
RTVSPropertyOp24
 70
     1
102
RTVSPropertyOp25
 70
     1
102
RTVSPropertyOp26
 70
     1
102
RTVSPropertyOp27
 70
     1
102
RTVSPropertyOp28
 70
     1
102
RTVSPropertyOp29
 70
     1
102
RTVSPropertyOp30
 70
     1
102
RTVSPropertyOp31
 70
     1
102
RTVSPropertyOp32
 70
     1
102
RTVSPropertyOp33
 70
     1
102
RTVSPropertyOp34
 70
     1
102
RTVSPropertyOp35
 70
     1
102
RTVSPropertyOp36
 70
     1
102
RTVSPropertyOp37
 70
     1
102
RTVSPropertyOp38
 70
     1
102
RTVSPropertyOp39
 70
     1
102
RTVSPropertyOp40
 70
     1
102
RTVSPropertyOp41
 70
     1
102
RTVSPropertyOp42
 70
     1
102
RTVSPropertyOp43
 70
     1
102
RTVSPropertyOp44
 70
     1
102
RTVSPropertyOp45
 70
     1
102
RTVSPropertyOp46
 70
     1
102
RTVSPropertyOp47
 70
     1
102
RTVSPropertyOp48
 70
     1
102
RTVSPropertyOp49
 70
     1
102
RTVSPropertyOp50
 70
     1
102
RTVSPropertyOp51
 70
     0
102
RTVSPropertyOp52
 70
     0
102
RTVSPropertyOp53
 70
     1
102
RTVSPropertyOp54
 70
     1
102
RTVSPropertyOp55
 70
     1
102
RTVSPropertyOp56
 70
     1
102
RTVSPropertyOp57
 70
     1
102
RTVSPost2010Prop28
280
     0
102
RTVSPost2010PropOp28
 70
     1
102
RTVSPost2010Prop29
280
     1
102
RTVSPost2010PropOp29
 70
     1
102
RTVSPost2010Prop30
280
     1
102
RTVSPost2010PropOp30
 70
     1
102
RTVSPost2010Prop31
280
     0
102
RTVSPost2010PropOp31
 70
     1
102
RTVSPost2010Prop32
280
     0
102
RTVSPost2010PropOp32
 70
     1
102
RTVSPost2010Prop33
280
     0
102
RTVSPost2010PropOp33
 70
     1
102
RTVSPost2010Prop34
280
     0
102
RTVSPost2010PropOp34
 70
     1
102
RTVSPost2010Prop35
280
     0
102
RTVSPost2010PropOp35
 70
     1
102
RTVSPost2010Prop36
280
     0
102
RTVSPost2010PropOp36
 70
     1
102
RTVSPost2010Prop37
 90
       50
102
RTVSPost2010PropOp37
 70
     1
102
RTVSPost2010Prop38
140
0.0
102
RTVSPost2010PropOp38
 70
     1
102
RTVSPost2010Prop39
140
1.0
102
RTVSPost2010PropOp39
 70
     1
102
RTVSPost2010Prop40
 90
        0
102
RTVSPost2010PropOp40
 70
     1
102
RTVSPost2010Prop41ColorIndex
 90
       18
102
RTVSPost2010Prop41ColorRGB
 90
        0
102
RTVSPost2010PropOp41
 70
     1
102
RTVSPost2010Prop42
 90
       50
102
RTVSPost2010PropOp42
 70
     1
102
RTVSPost2010Prop43
 90
        3
102
RTVSPost2010PropOp43
 70
     1
102
RTVSPost2010Prop44ColorIndex
 90
        5
102
RTVSPost2010Prop44ColorRGB
 90
      255
102
RTVSPost2010PropOp44
 70
     1
102
RTVSPost2010Prop45
280
     0
102
RTVSPost2010PropOp45
 70
     1
102
RTVSPost2010Prop46
 90
       50
102
RTVSPost2010PropOp46
 70
     1
102
RTVSPost2010Prop47
 90
       50
102
RTVSPost2010PropOp47
 70
     1
102
RTVSPost2010Prop48
 90
       50
102
RTVSPost2010PropOp48
 70
     1
102
RTVSPost2010Prop49
280
     0
102
RTVSPost2010PropOp49
 70
     1
102
RTVSPost2010Prop50
 90
       50
102
RTVSPost2010PropOp50
 70
     1
102
RTVSPost2010Prop51ColorIndex
 90
      256
102
RTVSPost2010Prop51ColorRGB
 90
-16777216
102
RTVSPost2010PropOp51
 70
     0
102
RTVSPost2010Prop52
140
1.0
102
RTVSPost2010PropOp52
 70
     0
102
RTVSPost2010Prop53
 90
        2
102
RTVSPost2010PropOp53
 70
     1
102
RTVSPost2010Prop54
  1
strokes_ogs.tif
102
RTVSPost2010PropOp54
 70
     1
102
RTVSPost2010Prop55
280
     0
102
RTVSPost2010PropOp55
 70
     1
102
RTVSPost2010Prop56
140
1.0
102
RTVSPost2010PropOp56
 70
     1
102
RTVSPost2010Prop57
140
1.0
102
RTVSPost2010PropOp57
 70
     1
  0
XRECORD
  5
2CD
102
{ACAD_REACTORS
330
2CC
102
}
330
2CC
100
AcDbXrecord
280
     1
102
RTVSPropertyOp0
 70
     0
102
RTVSPropertyOp1
 70
     0
102
RTVSPropertyOp2
 70
     0
102
RTVSPropertyOp3
 70
     0
102
RTVSPropertyOp4
 70
     0
102
RTVSPropertyOp5
 70
     0
102
RTVSPropertyOp6
 70
     0
102
RTVSPropertyOp7
 70
     0
102
RTVSPropertyOp8
 70
     0
102
RTVSPropertyOp9
 70
     0
102
RTVSPropertyOp10
 70
     0
102
RTVSPropertyOp11
 70
     0
102
RTVSPropertyOp12
 70
     0
102
RTVSPropertyOp13
 70
     0
102
RTVSPropertyOp14
 70
     2
102
RTVSPropertyOp15
 70
     0
102
RTVSPropertyOp16
 70
     0
102
RTVSPropertyOp17
 70
     0
102
RTVSPropertyOp18
 70
     0
102
RTVSPropertyOp19
 70
     0
102
RTVSPropertyOp20
 70
     0
102
RTVSPropertyOp21
 70
     0
102
RTVSPropertyOp22
 70
     0
102
RTVSPropertyOp23
 70
     0
102
RTVSPropertyOp24
 70
     0
102
RTVSPropertyOp25
 70
     0
102
RTVSPropertyOp26
 70
     0
102
RTVSPropertyOp27
 70
     0
102
RTVSPropertyOp28
 70
     0
102
RTVSPropertyOp29
 70
     0
102
RTVSPropertyOp30
 70
     0
102
RTVSPropertyOp31
 70
     0
102
RTVSPropertyOp32
 70
     0
102
RTVSPropertyOp33
 70
     0
102
RTVSPropertyOp34
 70
     0
102
RTVSPropertyOp35
 70
     0
102
RTVSPropertyOp36
 70
     0
102
RTVSPropertyOp37
 70
     0
102
RTVSPropertyOp38
 70
     0
102
RTVSPropertyOp39
 70
     0
102
RTVSPropertyOp40
 70
     0
102
RTVSPropertyOp41
 70
     0
102
RTVSPropertyOp42
 70
     0
102
RTVSPropertyOp43
 70
     0
102
RTVSPropertyOp44
 70
     0
102
RTVSPropertyOp45
 70
     0
102
RTVSPropertyOp46
 70
     0
102
RTVSPropertyOp47
 70
     0
102
RTVSPropertyOp48
 70
     0
102
RTVSPropertyOp49
 70
     0
102
RTVSPropertyOp50
 70
     0
102
RTVSPropertyOp51
 70
     0
102
RTVSPropertyOp52
 70
     0
102
RTVSPropertyOp53
 70
     0
102
RTVSPropertyOp54
 70
     0
102
RTVSPropertyOp55
 70
     0
102
RTVSPropertyOp56
 70
     0
102
RTVSPropertyOp57
 70
     0
102
RTVSPost2010Prop28
280
     0
102
RTVSPost2010PropOp28
 70
     0
102
RTVSPost2010Prop29
280
     1
102
RTVSPost2010PropOp29
 70
     0
102
RTVSPost2010Prop30
280
     1
102
RTVSPost2010PropOp30
 70
     0
102
RTVSPost2010Prop31
280
     0
102
RTVSPost2010PropOp31
 70
     0
102
RTVSPost2010Prop32
280
     0
102
RTVSPost2010PropOp32
 70
     0
102
RTVSPost2010Prop33
280
     0
102
RTVSPost2010PropOp33
 70
     0
102
RTVSPost2010Prop34
280
     0
102
RTVSPost2010PropOp34
 70
     0
102
RTVSPost2010Prop35
280
     0
102
RTVSPost2010PropOp35
 70
     0
102
RTVSPost2010Prop36
280
     0
102
RTVSPost2010PropOp36
 70
     0
102
RTVSPost2010Prop37
 90
       50
102
RTVSPost2010PropOp37
 70
     0
102
RTVSPost2010Prop38
140
0.0
102
RTVSPost2010PropOp38
 70
     0
102
RTVSPost2010Prop39
140
1.0
102
RTVSPost2010PropOp39
 70
     0
102
RTVSPost2010Prop40
 90
        0
102
RTVSPost2010PropOp40
 70
     0
102
RTVSPost2010Prop41ColorIndex
 90
       18
102
RTVSPost2010Prop41ColorRGB
 90
        0
102
RTVSPost2010PropOp41
 70
     0
102
RTVSPost2010Prop42
 90
       50
102
RTVSPost2010PropOp42
 70
     0
102
RTVSPost2010Prop43
 90
        3
102
RTVSPost2010PropOp43
 70
     0
102
RTVSPost2010Prop44ColorIndex
 90
        5
102
RTVSPost2010Prop44ColorRGB
 90
      255
102
RTVSPost2010PropOp44
 70
     0
102
RTVSPost2010Prop45
280
     0
102
RTVSPost2010PropOp45
 70
     0
102
RTVSPost2010Prop46
 90
       50
102
RTVSPost2010PropOp46
 70
     0
102
RTVSPost2010Prop47
 90
       50
102
RTVSPost2010PropOp47
 70
     0
102
RTVSPost2010Prop48
 90
       50
102
RTVSPost2010PropOp48
 70
     0
102
RTVSPost2010Prop49
280
     0
102
RTVSPost2010PropOp49
 70
     0
102
RTVSPost2010Prop50
 90
       50
102
RTVSPost2010PropOp50
 70
     0
102
RTVSPost2010Prop51ColorIndex
 90
      256
102
RTVSPost2010Prop51ColorRGB
 90
-16777216
102
RTVSPost2010PropOp51
 70
     0
102
RTVSPost2010Prop52
140
1.0
102
RTVSPost2010PropOp52
 70
     0
102
RTVSPost2010Prop53
 90
        2
102
RTVSPost2010PropOp53
 70
     0
102
RTVSPost2010Prop54
  1
strokes_ogs.tif
102
RTVSPost2010PropOp54
 70
     0
102
RTVSPost2010Prop55
280
     0
102
RTVSPost2010PropOp55
 70
     0
102
RTVSPost2010Prop56
140
1.0
102
RTVSPost2010PropOp56
 70
     0
102
RTVSPost2010Prop57
140
1.0
102
RTVSPost2010PropOp57
 70
     0
  0
XRECORD
  5
2C5
102
{ACAD_REACTORS
330
2C4
102
}
330
2C4
100
AcDbXrecord
280
     1
102
RTVSPropertyOp0
 70
     1
102
RTVSPropertyOp1
 70
     1
102
RTVSPropertyOp2
 70
     1
102
RTVSPropertyOp3
 70
     1
102
RTVSPropertyOp4
 70
     1
102
RTVSPropertyOp5
 70
     1
102
RTVSPropertyOp6
 70
     1
102
RTVSPropertyOp7
 70
     1
102
RTVSPropertyOp8
 70
     1
102
RTVSPropertyOp9
 70
     1
102
RTVSPropertyOp10
 70
     1
102
RTVSPropertyOp11
 70
     1
102
RTVSPropertyOp12
 70
     1
102
RTVSPropertyOp13
 70
     1
102
RTVSPropertyOp14
 70
     1
102
RTVSPropertyOp15
 70
     1
102
RTVSPropertyOp16
 70
     1
102
RTVSPropertyOp17
 70
     1
102
RTVSPropertyOp18
 70
     1
102
RTVSPropertyOp19
 70
     1
102
RTVSPropertyOp20
 70
     1
102
RTVSPropertyOp21
 70
     1
102
RTVSPropertyOp22
 70
     1
102
RTVSPropertyOp23
 70
     1
102
RTVSPropertyOp24
 70
     1
102
RTVSPropertyOp25
 70
     1
102
RTVSPropertyOp26
 70
     1
102
RTVSPropertyOp27
 70
     1
102
RTVSPropertyOp28
 70
     1
102
RTVSPropertyOp29
 70
     1
102
RTVSPropertyOp30
 70
     1
102
RTVSPropertyOp31
 70
     1
102
RTVSPropertyOp32
 70
     1
102
RTVSPropertyOp33
 70
     1
102
RTVSPropertyOp34
 70
     1
102
RTVSPropertyOp35
 70
     1
102
RTVSPropertyOp36
 70
     1
102
RTVSPropertyOp37
 70
     1
102
RTVSPropertyOp38
 70
     1
102
RTVSPropertyOp39
 70
     1
102
RTVSPropertyOp40
 70
     1
102
RTVSPropertyOp41
 70
     1
102
RTVSPropertyOp42
 70
     1
102
RTVSPropertyOp43
 70
     1
102
RTVSPropertyOp44
 70
     1
102
RTVSPropertyOp45
 70
     1
102
RTVSPropertyOp46
 70
     1
102
RTVSPropertyOp47
 70
     1
102
RTVSPropertyOp48
 70
     1
102
RTVSPropertyOp49
 70
     1
102
RTVSPropertyOp50
 70
     1
102
RTVSPropertyOp51
 70
     0
102
RTVSPropertyOp52
 70
     0
102
RTVSPropertyOp53
 70
     1
102
RTVSPropertyOp54
 70
     1
102
RTVSPropertyOp55
 70
     1
102
RTVSPropertyOp56
 70
     1
102
RTVSPropertyOp57
 70
     1
102
RTVSPost2010Prop28
280
     0
102
RTVSPost2010PropOp28
 70
     1
102
RTVSPost2010Prop29
280
     1
102
RTVSPost2010PropOp29
 70
     1
102
RTVSPost2010Prop30
280
     1
102
RTVSPost2010PropOp30
 70
     1
102
RTVSPost2010Prop31
280
     0
102
RTVSPost2010PropOp31
 70
     1
102
RTVSPost2010Prop32
280
     0
102
RTVSPost2010PropOp32
 70
     1
102
RTVSPost2010Prop33
280
     0
102
RTVSPost2010PropOp33
 70
     1
102
RTVSPost2010Prop34
280
     0
102
RTVSPost2010PropOp34
 70
     1
102
RTVSPost2010Prop35
280
     0
102
RTVSPost2010PropOp35
 70
     1
102
RTVSPost2010Prop36
280
     0
102
RTVSPost2010PropOp36
 70
     1
102
RTVSPost2010Prop37
 90
       50
102
RTVSPost2010PropOp37
 70
     1
102
RTVSPost2010Prop38
140
0.0
102
RTVSPost2010PropOp38
 70
     1
102
RTVSPost2010Prop39
140
1.0
102
RTVSPost2010PropOp39
 70
     1
102
RTVSPost2010Prop40
 90
        0
102
RTVSPost2010PropOp40
 70
     1
102
RTVSPost2010Prop41ColorIndex
 90
       18
102
RTVSPost2010Prop41ColorRGB
 90
        0
102
RTVSPost2010PropOp41
 70
     1
102
RTVSPost2010Prop42
 90
       50
102
RTVSPost2010PropOp42
 70
     1
102
RTVSPost2010Prop43
 90
        3
102
RTVSPost2010PropOp43
 70
     1
102
RTVSPost2010Prop44ColorIndex
 90
        5
102
RTVSPost2010Prop44ColorRGB
 90
      255
102
RTVSPost2010PropOp44
 70
     1
102
RTVSPost2010Prop45
280
     0
102
RTVSPost2010PropOp45
 70
     1
102
RTVSPost2010Prop46
 90
       50
102
RTVSPost2010PropOp46
 70
     1
102
RTVSPost2010Prop47
 90
       50
102
RTVSPost2010PropOp47
 70
     1
102
RTVSPost2010Prop48
 90
       50
102
RTVSPost2010PropOp48
 70
     1
102
RTVSPost2010Prop49
280
     0
102
RTVSPost2010PropOp49
 70
     1
102
RTVSPost2010Prop50
 90
       50
102
RTVSPost2010PropOp50
 70
     1
102
RTVSPost2010Prop51ColorIndex
 90
      256
102
RTVSPost2010Prop51ColorRGB
 90
-16777216
102
RTVSPost2010PropOp51
 70
     0
102
RTVSPost2010Prop52
140
1.0
102
RTVSPost2010PropOp52
 70
     0
102
RTVSPost2010Prop53
 90
        2
102
RTVSPost2010PropOp53
 70
     1
102
RTVSPost2010Prop54
  1
strokes_ogs.tif
102
RTVSPost2010PropOp54
 70
     1
102
RTVSPost2010Prop55
280
     0
102
RTVSPost2010PropOp55
 70
     1
102
RTVSPost2010Prop56
140
1.0
102
RTVSPost2010PropOp56
 70
     1
102
RTVSPost2010Prop57
140
1.0
102
RTVSPost2010PropOp57
 70
     1
  0
XRECORD
  5
2A9
102
{ACAD_REACTORS
330
2A8
102
}
330
2A8
100
AcDbXrecord
280
     1
102
RTVSPropertyOp0
 70
     1
102
RTVSPropertyOp1
 70
     1
102
RTVSPropertyOp2
 70
     1
102
RTVSPropertyOp3
 70
     1
102
RTVSPropertyOp4
 70
     1
102
RTVSPropertyOp5
 70
     1
102
RTVSPropertyOp6
 70
     1
102
RTVSPropertyOp7
 70
     1
102
RTVSPropertyOp8
 70
     1
102
RTVSPropertyOp9
 70
     1
102
RTVSPropertyOp10
 70
     1
102
RTVSPropertyOp11
 70
     1
102
RTVSPropertyOp12
 70
     1
102
RTVSPropertyOp13
 70
     1
102
RTVSPropertyOp14
 70
     1
102
RTVSPropertyOp15
 70
     1
102
RTVSPropertyOp16
 70
     1
102
RTVSPropertyOp17
 70
     1
102
RTVSPropertyOp18
 70
     1
102
RTVSPropertyOp19
 70
     1
102
RTVSPropertyOp20
 70
     1
102
RTVSPropertyOp21
 70
     1
102
RTVSPropertyOp22
 70
     1
102
RTVSPropertyOp23
 70
     1
102
RTVSPropertyOp24
 70
     1
102
RTVSPropertyOp25
 70
     1
102
RTVSPropertyOp26
 70
     1
102
RTVSPropertyOp27
 70
     1
102
RTVSPropertyOp28
 70
     1
102
RTVSPropertyOp29
 70
     1
102
RTVSPropertyOp30
 70
     1
102
RTVSPropertyOp31
 70
     1
102
RTVSPropertyOp32
 70
     1
102
RTVSPropertyOp33
 70
     1
102
RTVSPropertyOp34
 70
     1
102
RTVSPropertyOp35
 70
     1
102
RTVSPropertyOp36
 70
     1
102
RTVSPropertyOp37
 70
     1
102
RTVSPropertyOp38
 70
     1
102
RTVSPropertyOp39
 70
     1
102
RTVSPropertyOp40
 70
     1
102
RTVSPropertyOp41
 70
     1
102
RTVSPropertyOp42
 70
     1
102
RTVSPropertyOp43
 70
     1
102
RTVSPropertyOp44
 70
     1
102
RTVSPropertyOp45
 70
     1
102
RTVSPropertyOp46
 70
     1
102
RTVSPropertyOp47
 70
     1
102
RTVSPropertyOp48
 70
     1
102
RTVSPropertyOp49
 70
     1
102
RTVSPropertyOp50
 70
     1
102
RTVSPropertyOp51
 70
     0
102
RTVSPropertyOp52
 70
     0
102
RTVSPropertyOp53
 70
     1
102
RTVSPropertyOp54
 70
     1
102
RTVSPropertyOp55
 70
     1
102
RTVSPropertyOp56
 70
     1
102
RTVSPropertyOp57
 70
     1
102
RTVSPost2010Prop28
280
     0
102
RTVSPost2010PropOp28
 70
     1
102
RTVSPost2010Prop29
280
     1
102
RTVSPost2010PropOp29
 70
     1
102
RTVSPost2010Prop30
280
     1
102
RTVSPost2010PropOp30
 70
     1
102
RTVSPost2010Prop31
280
     0
102
RTVSPost2010PropOp31
 70
     1
102
RTVSPost2010Prop32
280
     0
102
RTVSPost2010PropOp32
 70
     1
102
RTVSPost2010Prop33
280
     0
102
RTVSPost2010PropOp33
 70
     1
102
RTVSPost2010Prop34
280
     0
102
RTVSPost2010PropOp34
 70
     1
102
RTVSPost2010Prop35
280
     0
102
RTVSPost2010PropOp35
 70
     1
102
RTVSPost2010Prop36
280
     0
102
RTVSPost2010PropOp36
 70
     1
102
RTVSPost2010Prop37
 90
       50
102
RTVSPost2010PropOp37
 70
     1
102
RTVSPost2010Prop38
140
0.0
102
RTVSPost2010PropOp38
 70
     1
102
RTVSPost2010Prop39
140
1.0
102
RTVSPost2010PropOp39
 70
     1
102
RTVSPost2010Prop40
 90
        0
102
RTVSPost2010PropOp40
 70
     1
102
RTVSPost2010Prop41ColorIndex
 90
       18
102
RTVSPost2010Prop41ColorRGB
 90
        0
102
RTVSPost2010PropOp41
 70
     1
102
RTVSPost2010Prop42
 90
       50
102
RTVSPost2010PropOp42
 70
     1
102
RTVSPost2010Prop43
 90
        3
102
RTVSPost2010PropOp43
 70
     1
102
RTVSPost2010Prop44ColorIndex
 90
        5
102
RTVSPost2010Prop44ColorRGB
 90
      255
102
RTVSPost2010PropOp44
 70
     1
102
RTVSPost2010Prop45
280
     0
102
RTVSPost2010PropOp45
 70
     1
102
RTVSPost2010Prop46
 90
       50
102
RTVSPost2010PropOp46
 70
     1
102
RTVSPost2010Prop47
 90
       50
102
RTVSPost2010PropOp47
 70
     1
102
RTVSPost2010Prop48
 90
       50
102
RTVSPost2010PropOp48
 70
     1
102
RTVSPost2010Prop49
280
     0
102
RTVSPost2010PropOp49
 70
     1
102
RTVSPost2010Prop50
 90
       50
102
RTVSPost2010PropOp50
 70
     1
102
RTVSPost2010Prop51ColorIndex
 90
      256
102
RTVSPost2010Prop51ColorRGB
 90
-16777216
102
RTVSPost2010PropOp51
 70
     0
102
RTVSPost2010Prop52
140
1.0
102
RTVSPost2010PropOp52
 70
     0
102
RTVSPost2010Prop53
 90
        2
102
RTVSPost2010PropOp53
 70
     1
102
RTVSPost2010Prop54
  1
strokes_ogs.tif
102
RTVSPost2010PropOp54
 70
     1
102
RTVSPost2010Prop55
280
     0
102
RTVSPost2010PropOp55
 70
     1
102
RTVSPost2010Prop56
140
1.0
102
RTVSPost2010PropOp56
 70
     1
102
RTVSPost2010Prop57
140
1.0
102
RTVSPost2010PropOp57
 70
     1
  0
XRECORD
  5
2AB
102
{ACAD_REACTORS
330
2AA
102
}
330
2AA
100
AcDbXrecord
280
     1
102
RTVSPropertyOp0
 70
     1
102
RTVSPropertyOp1
 70
     1
102
RTVSPropertyOp2
 70
     1
102
RTVSPropertyOp3
 70
     1
102
RTVSPropertyOp4
 70
     1
102
RTVSPropertyOp5
 70
     1
102
RTVSPropertyOp6
 70
     1
102
RTVSPropertyOp7
 70
     1
102
RTVSPropertyOp8
 70
     1
102
RTVSPropertyOp9
 70
     1
102
RTVSPropertyOp10
 70
     1
102
RTVSPropertyOp11
 70
     1
102
RTVSPropertyOp12
 70
     1
102
RTVSPropertyOp13
 70
     1
102
RTVSPropertyOp14
 70
     1
102
RTVSPropertyOp15
 70
     1
102
RTVSPropertyOp16
 70
     1
102
RTVSPropertyOp17
 70
     1
102
RTVSPropertyOp18
 70
     1
102
RTVSPropertyOp19
 70
     1
102
RTVSPropertyOp20
 70
     1
102
RTVSPropertyOp21
 70
     1
102
RTVSPropertyOp22
 70
     1
102
RTVSPropertyOp23
 70
     1
102
RTVSPropertyOp24
 70
     1
102
RTVSPropertyOp25
 70
     1
102
RTVSPropertyOp26
 70
     1
102
RTVSPropertyOp27
 70
     1
102
RTVSPropertyOp28
 70
     1
102
RTVSPropertyOp29
 70
     1
102
RTVSPropertyOp30
 70
     1
102
RTVSPropertyOp31
 70
     1
102
RTVSPropertyOp32
 70
     1
102
RTVSPropertyOp33
 70
     1
102
RTVSPropertyOp34
 70
     1
102
RTVSPropertyOp35
 70
     1
102
RTVSPropertyOp36
 70
     1
102
RTVSPropertyOp37
 70
     1
102
RTVSPropertyOp38
 70
     1
102
RTVSPropertyOp39
 70
     1
102
RTVSPropertyOp40
 70
     1
102
RTVSPropertyOp41
 70
     1
102
RTVSPropertyOp42
 70
     1
102
RTVSPropertyOp43
 70
     1
102
RTVSPropertyOp44
 70
     1
102
RTVSPropertyOp45
 70
     1
102
RTVSPropertyOp46
 70
     1
102
RTVSPropertyOp47
 70
     1
102
RTVSPropertyOp48
 70
     1
102
RTVSPropertyOp49
 70
     1
102
RTVSPropertyOp50
 70
     1
102
RTVSPropertyOp51
 70
     0
102
RTVSPropertyOp52
 70
     0
102
RTVSPropertyOp53
 70
     1
102
RTVSPropertyOp54
 70
     1
102
RTVSPropertyOp55
 70
     1
102
RTVSPropertyOp56
 70
     1
102
RTVSPropertyOp57
 70
     1
102
RTVSPost2010Prop28
280
     0
102
RTVSPost2010PropOp28
 70
     1
102
RTVSPost2010Prop29
280
     1
102
RTVSPost2010PropOp29
 70
     1
102
RTVSPost2010Prop30
280
     1
102
RTVSPost2010PropOp30
 70
     1
102
RTVSPost2010Prop31
280
     0
102
RTVSPost2010PropOp31
 70
     1
102
RTVSPost2010Prop32
280
     0
102
RTVSPost2010PropOp32
 70
     1
102
RTVSPost2010Prop33
280
     0
102
RTVSPost2010PropOp33
 70
     1
102
RTVSPost2010Prop34
280
     0
102
RTVSPost2010PropOp34
 70
     1
102
RTVSPost2010Prop35
280
     0
102
RTVSPost2010PropOp35
 70
     1
102
RTVSPost2010Prop36
280
     0
102
RTVSPost2010PropOp36
 70
     1
102
RTVSPost2010Prop37
 90
       50
102
RTVSPost2010PropOp37
 70
     1
102
RTVSPost2010Prop38
140
0.0
102
RTVSPost2010PropOp38
 70
     1
102
RTVSPost2010Prop39
140
1.0
102
RTVSPost2010PropOp39
 70
     1
102
RTVSPost2010Prop40
 90
        0
102
RTVSPost2010PropOp40
 70
     1
102
RTVSPost2010Prop41ColorIndex
 90
       18
102
RTVSPost2010Prop41ColorRGB
 90
        0
102
RTVSPost2010PropOp41
 70
     1
102
RTVSPost2010Prop42
 90
       50
102
RTVSPost2010PropOp42
 70
     1
102
RTVSPost2010Prop43
 90
        3
102
RTVSPost2010PropOp43
 70
     1
102
RTVSPost2010Prop44ColorIndex
 90
        5
102
RTVSPost2010Prop44ColorRGB
 90
      255
102
RTVSPost2010PropOp44
 70
     1
102
RTVSPost2010Prop45
280
     0
102
RTVSPost2010PropOp45
 70
     1
102
RTVSPost2010Prop46
 90
       50
102
RTVSPost2010PropOp46
 70
     1
102
RTVSPost2010Prop47
 90
       50
102
RTVSPost2010PropOp47
 70
     1
102
RTVSPost2010Prop48
 90
       50
102
RTVSPost2010PropOp48
 70
     1
102
RTVSPost2010Prop49
280
     0
102
RTVSPost2010PropOp49
 70
     1
102
RTVSPost2010Prop50
 90
       50
102
RTVSPost2010PropOp50
 70
     1
102
RTVSPost2010Prop51ColorIndex
 90
      256
102
RTVSPost2010Prop51ColorRGB
 90
-16777216
102
RTVSPost2010PropOp51
 70
     0
102
RTVSPost2010Prop52
140
1.0
102
RTVSPost2010PropOp52
 70
     0
102
RTVSPost2010Prop53
 90
        2
102
RTVSPost2010PropOp53
 70
     1
102
RTVSPost2010Prop54
  1
strokes_ogs.tif
102
RTVSPost2010PropOp54
 70
     1
102
RTVSPost2010Prop55
280
     0
102
RTVSPost2010PropOp55
 70
     1
102
RTVSPost2010Prop56
140
1.0
102
RTVSPost2010PropOp56
 70
     1
102
RTVSPost2010Prop57
140
1.0
102
RTVSPost2010PropOp57
 70
     1
  0
XRECORD
  5
2AD
102
{ACAD_REACTORS
330
2AC
102
}
330
2AC
100
AcDbXrecord
280
     1
102
RTVSPropertyOp0
 70
     1
102
RTVSPropertyOp1
 70
     1
102
RTVSPropertyOp2
 70
     1
102
RTVSPropertyOp3
 70
     1
102
RTVSPropertyOp4
 70
     1
102
RTVSPropertyOp5
 70
     1
102
RTVSPropertyOp6
 70
     1
102
RTVSPropertyOp7
 70
     1
102
RTVSPropertyOp8
 70
     1
102
RTVSPropertyOp9
 70
     1
102
RTVSPropertyOp10
 70
     1
102
RTVSPropertyOp11
 70
     1
102
RTVSPropertyOp12
 70
     1
102
RTVSPropertyOp13
 70
     1
102
RTVSPropertyOp14
 70
     1
102
RTVSPropertyOp15
 70
     1
102
RTVSPropertyOp16
 70
     1
102
RTVSPropertyOp17
 70
     1
102
RTVSPropertyOp18
 70
     1
102
RTVSPropertyOp19
 70
     1
102
RTVSPropertyOp20
 70
     1
102
RTVSPropertyOp21
 70
     1
102
RTVSPropertyOp22
 70
     1
102
RTVSPropertyOp23
 70
     1
102
RTVSPropertyOp24
 70
     1
102
RTVSPropertyOp25
 70
     1
102
RTVSPropertyOp26
 70
     1
102
RTVSPropertyOp27
 70
     1
102
RTVSPropertyOp28
 70
     1
102
RTVSPropertyOp29
 70
     1
102
RTVSPropertyOp30
 70
     1
102
RTVSPropertyOp31
 70
     1
102
RTVSPropertyOp32
 70
     1
102
RTVSPropertyOp33
 70
     1
102
RTVSPropertyOp34
 70
     1
102
RTVSPropertyOp35
 70
     1
102
RTVSPropertyOp36
 70
     1
102
RTVSPropertyOp37
 70
     1
102
RTVSPropertyOp38
 70
     1
102
RTVSPropertyOp39
 70
     1
102
RTVSPropertyOp40
 70
     1
102
RTVSPropertyOp41
 70
     1
102
RTVSPropertyOp42
 70
     1
102
RTVSPropertyOp43
 70
     1
102
RTVSPropertyOp44
 70
     1
102
RTVSPropertyOp45
 70
     1
102
RTVSPropertyOp46
 70
     1
102
RTVSPropertyOp47
 70
     1
102
RTVSPropertyOp48
 70
     1
102
RTVSPropertyOp49
 70
     1
102
RTVSPropertyOp50
 70
     1
102
RTVSPropertyOp51
 70
     0
102
RTVSPropertyOp52
 70
     0
102
RTVSPropertyOp53
 70
     1
102
RTVSPropertyOp54
 70
     1
102
RTVSPropertyOp55
 70
     1
102
RTVSPropertyOp56
 70
     1
102
RTVSPropertyOp57
 70
     1
102
RTVSPost2010Prop28
280
     0
102
RTVSPost2010PropOp28
 70
     1
102
RTVSPost2010Prop29
280
     1
102
RTVSPost2010PropOp29
 70
     1
102
RTVSPost2010Prop30
280
     1
102
RTVSPost2010PropOp30
 70
     1
102
RTVSPost2010Prop31
280
     0
102
RTVSPost2010PropOp31
 70
     1
102
RTVSPost2010Prop32
280
     0
102
RTVSPost2010PropOp32
 70
     1
102
RTVSPost2010Prop33
280
     0
102
RTVSPost2010PropOp33
 70
     1
102
RTVSPost2010Prop34
280
     0
102
RTVSPost2010PropOp34
 70
     1
102
RTVSPost2010Prop35
280
     0
102
RTVSPost2010PropOp35
 70
     1
102
RTVSPost2010Prop36
280
     0
102
RTVSPost2010PropOp36
 70
     1
102
RTVSPost2010Prop37
 90
       50
102
RTVSPost2010PropOp37
 70
     1
102
RTVSPost2010Prop38
140
0.0
102
RTVSPost2010PropOp38
 70
     1
102
RTVSPost2010Prop39
140
1.0
102
RTVSPost2010PropOp39
 70
     1
102
RTVSPost2010Prop40
 90
        0
102
RTVSPost2010PropOp40
 70
     1
102
RTVSPost2010Prop41ColorIndex
 90
       18
102
RTVSPost2010Prop41ColorRGB
 90
        0
102
RTVSPost2010PropOp41
 70
     1
102
RTVSPost2010Prop42
 90
       50
102
RTVSPost2010PropOp42
 70
     1
102
RTVSPost2010Prop43
 90
        3
102
RTVSPost2010PropOp43
 70
     1
102
RTVSPost2010Prop44ColorIndex
 90
        5
102
RTVSPost2010Prop44ColorRGB
 90
      255
102
RTVSPost2010PropOp44
 70
     1
102
RTVSPost2010Prop45
280
     0
102
RTVSPost2010PropOp45
 70
     1
102
RTVSPost2010Prop46
 90
       50
102
RTVSPost2010PropOp46
 70
     1
102
RTVSPost2010Prop47
 90
       50
102
RTVSPost2010PropOp47
 70
     1
102
RTVSPost2010Prop48
 90
       50
102
RTVSPost2010PropOp48
 70
     1
102
RTVSPost2010Prop49
280
     0
102
RTVSPost2010PropOp49
 70
     1
102
RTVSPost2010Prop50
 90
       50
102
RTVSPost2010PropOp50
 70
     1
102
RTVSPost2010Prop51ColorIndex
 90
      256
102
RTVSPost2010Prop51ColorRGB
 90
-16777216
102
RTVSPost2010PropOp51
 70
     0
102
RTVSPost2010Prop52
140
1.0
102
RTVSPost2010PropOp52
 70
     0
102
RTVSPost2010Prop53
 90
        2
102
RTVSPost2010PropOp53
 70
     1
102
RTVSPost2010Prop54
  1
strokes_ogs.tif
102
RTVSPost2010PropOp54
 70
     1
102
RTVSPost2010Prop55
280
     0
102
RTVSPost2010PropOp55
 70
     1
102
RTVSPost2010Prop56
140
1.0
102
RTVSPost2010PropOp56
 70
     1
102
RTVSPost2010Prop57
140
1.0
102
RTVSPost2010PropOp57
 70
     1
  0
XRECORD
  5
2AF
102
{ACAD_REACTORS
330
2AE
102
}
330
2AE
100
AcDbXrecord
280
     1
102
RTVSPropertyOp0
 70
     1
102
RTVSPropertyOp1
 70
     1
102
RTVSPropertyOp2
 70
     1
102
RTVSPropertyOp3
 70
     1
102
RTVSPropertyOp4
 70
     1
102
RTVSPropertyOp5
 70
     1
102
RTVSPropertyOp6
 70
     1
102
RTVSPropertyOp7
 70
     1
102
RTVSPropertyOp8
 70
     1
102
RTVSPropertyOp9
 70
     1
102
RTVSPropertyOp10
 70
     1
102
RTVSPropertyOp11
 70
     1
102
RTVSPropertyOp12
 70
     1
102
RTVSPropertyOp13
 70
     1
102
RTVSPropertyOp14
 70
     1
102
RTVSPropertyOp15
 70
     1
102
RTVSPropertyOp16
 70
     1
102
RTVSPropertyOp17
 70
     1
102
RTVSPropertyOp18
 70
     1
102
RTVSPropertyOp19
 70
     1
102
RTVSPropertyOp20
 70
     1
102
RTVSPropertyOp21
 70
     1
102
RTVSPropertyOp22
 70
     1
102
RTVSPropertyOp23
 70
     1
102
RTVSPropertyOp24
 70
     1
102
RTVSPropertyOp25
 70
     1
102
RTVSPropertyOp26
 70
     1
102
RTVSPropertyOp27
 70
     1
102
RTVSPropertyOp28
 70
     1
102
RTVSPropertyOp29
 70
     1
102
RTVSPropertyOp30
 70
     1
102
RTVSPropertyOp31
 70
     1
102
RTVSPropertyOp32
 70
     1
102
RTVSPropertyOp33
 70
     1
102
RTVSPropertyOp34
 70
     1
102
RTVSPropertyOp35
 70
     1
102
RTVSPropertyOp36
 70
     1
102
RTVSPropertyOp37
 70
     1
102
RTVSPropertyOp38
 70
     1
102
RTVSPropertyOp39
 70
     1
102
RTVSPropertyOp40
 70
     1
102
RTVSPropertyOp41
 70
     1
102
RTVSPropertyOp42
 70
     1
102
RTVSPropertyOp43
 70
     1
102
RTVSPropertyOp44
 70
     1
102
RTVSPropertyOp45
 70
     1
102
RTVSPropertyOp46
 70
     1
102
RTVSPropertyOp47
 70
     1
102
RTVSPropertyOp48
 70
     1
102
RTVSPropertyOp49
 70
     1
102
RTVSPropertyOp50
 70
     1
102
RTVSPropertyOp51
 70
     0
102
RTVSPropertyOp52
 70
     0
102
RTVSPropertyOp53
 70
     1
102
RTVSPropertyOp54
 70
     1
102
RTVSPropertyOp55
 70
     1
102
RTVSPropertyOp56
 70
     1
102
RTVSPropertyOp57
 70
     1
102
RTVSPost2010Prop28
280
     0
102
RTVSPost2010PropOp28
 70
     1
102
RTVSPost2010Prop29
280
     1
102
RTVSPost2010PropOp29
 70
     1
102
RTVSPost2010Prop30
280
     1
102
RTVSPost2010PropOp30
 70
     1
102
RTVSPost2010Prop31
280
     0
102
RTVSPost2010PropOp31
 70
     1
102
RTVSPost2010Prop32
280
     0
102
RTVSPost2010PropOp32
 70
     1
102
RTVSPost2010Prop33
280
     0
102
RTVSPost2010PropOp33
 70
     1
102
RTVSPost2010Prop34
280
     0
102
RTVSPost2010PropOp34
 70
     1
102
RTVSPost2010Prop35
280
     0
102
RTVSPost2010PropOp35
 70
     1
102
RTVSPost2010Prop36
280
     0
102
RTVSPost2010PropOp36
 70
     1
102
RTVSPost2010Prop37
 90
       50
102
RTVSPost2010PropOp37
 70
     1
102
RTVSPost2010Prop38
140
0.0
102
RTVSPost2010PropOp38
 70
     1
102
RTVSPost2010Prop39
140
1.0
102
RTVSPost2010PropOp39
 70
     1
102
RTVSPost2010Prop40
 90
        0
102
RTVSPost2010PropOp40
 70
     1
102
RTVSPost2010Prop41ColorIndex
 90
       18
102
RTVSPost2010Prop41ColorRGB
 90
        0
102
RTVSPost2010PropOp41
 70
     1
102
RTVSPost2010Prop42
 90
       50
102
RTVSPost2010PropOp42
 70
     1
102
RTVSPost2010Prop43
 90
        3
102
RTVSPost2010PropOp43
 70
     1
102
RTVSPost2010Prop44ColorIndex
 90
        5
102
RTVSPost2010Prop44ColorRGB
 90
      255
102
RTVSPost2010PropOp44
 70
     1
102
RTVSPost2010Prop45
280
     0
102
RTVSPost2010PropOp45
 70
     1
102
RTVSPost2010Prop46
 90
       50
102
RTVSPost2010PropOp46
 70
     1
102
RTVSPost2010Prop47
 90
       50
102
RTVSPost2010PropOp47
 70
     1
102
RTVSPost2010Prop48
 90
       50
102
RTVSPost2010PropOp48
 70
     1
102
RTVSPost2010Prop49
280
     0
102
RTVSPost2010PropOp49
 70
     1
102
RTVSPost2010Prop50
 90
       50
102
RTVSPost2010PropOp50
 70
     1
102
RTVSPost2010Prop51ColorIndex
 90
      256
102
RTVSPost2010Prop51ColorRGB
 90
-16777216
102
RTVSPost2010PropOp51
 70
     0
102
RTVSPost2010Prop52
140
1.0
102
RTVSPost2010PropOp52
 70
     0
102
RTVSPost2010Prop53
 90
        2
102
RTVSPost2010PropOp53
 70
     1
102
RTVSPost2010Prop54
  1
strokes_ogs.tif
102
RTVSPost2010PropOp54
 70
     1
102
RTVSPost2010Prop55
280
     0
102
RTVSPost2010PropOp55
 70
     1
102
RTVSPost2010Prop56
140
1.0
102
RTVSPost2010PropOp56
 70
     1
102
RTVSPost2010Prop57
140
1.0
102
RTVSPost2010PropOp57
 70
     1
  0
XRECORD
  5
2B5
102
{ACAD_REACTORS
330
2B4
102
}
330
2B4
100
AcDbXrecord
280
     1
102
RTVSPropertyOp0
 70
     1
102
RTVSPropertyOp1
 70
     1
102
RTVSPropertyOp2
 70
     1
102
RTVSPropertyOp3
 70
     1
102
RTVSPropertyOp4
 70
     1
102
RTVSPropertyOp5
 70
     1
102
RTVSPropertyOp6
 70
     1
102
RTVSPropertyOp7
 70
     1
102
RTVSPropertyOp8
 70
     1
102
RTVSPropertyOp9
 70
     1
102
RTVSPropertyOp10
 70
     1
102
RTVSPropertyOp11
 70
     1
102
RTVSPropertyOp12
 70
     1
102
RTVSPropertyOp13
 70
     1
102
RTVSPropertyOp14
 70
     1
102
RTVSPropertyOp15
 70
     1
102
RTVSPropertyOp16
 70
     1
102
RTVSPropertyOp17
 70
     1
102
RTVSPropertyOp18
 70
     1
102
RTVSPropertyOp19
 70
     1
102
RTVSPropertyOp20
 70
     1
102
RTVSPropertyOp21
 70
     1
102
RTVSPropertyOp22
 70
     1
102
RTVSPropertyOp23
 70
     1
102
RTVSPropertyOp24
 70
     1
102
RTVSPropertyOp25
 70
     1
102
RTVSPropertyOp26
 70
     1
102
RTVSPropertyOp27
 70
     1
102
RTVSPropertyOp28
 70
     1
102
RTVSPropertyOp29
 70
     1
102
RTVSPropertyOp30
 70
     1
102
RTVSPropertyOp31
 70
     1
102
RTVSPropertyOp32
 70
     1
102
RTVSPropertyOp33
 70
     1
102
RTVSPropertyOp34
 70
     1
102
RTVSPropertyOp35
 70
     1
102
RTVSPropertyOp36
 70
     1
102
RTVSPropertyOp37
 70
     1
102
RTVSPropertyOp38
 70
     1
102
RTVSPropertyOp39
 70
     1
102
RTVSPropertyOp40
 70
     1
102
RTVSPropertyOp41
 70
     1
102
RTVSPropertyOp42
 70
     1
102
RTVSPropertyOp43
 70
     1
102
RTVSPropertyOp44
 70
     1
102
RTVSPropertyOp45
 70
     1
102
RTVSPropertyOp46
 70
     1
102
RTVSPropertyOp47
 70
     1
102
RTVSPropertyOp48
 70
     1
102
RTVSPropertyOp49
 70
     1
102
RTVSPropertyOp50
 70
     1
102
RTVSPropertyOp51
 70
     0
102
RTVSPropertyOp52
 70
     0
102
RTVSPropertyOp53
 70
     1
102
RTVSPropertyOp54
 70
     1
102
RTVSPropertyOp55
 70
     1
102
RTVSPropertyOp56
 70
     1
102
RTVSPropertyOp57
 70
     1
102
RTVSPost2010Prop28
280
     0
102
RTVSPost2010PropOp28
 70
     1
102
RTVSPost2010Prop29
280
     1
102
RTVSPost2010PropOp29
 70
     1
102
RTVSPost2010Prop30
280
     1
102
RTVSPost2010PropOp30
 70
     1
102
RTVSPost2010Prop31
280
     0
102
RTVSPost2010PropOp31
 70
     1
102
RTVSPost2010Prop32
280
     0
102
RTVSPost2010PropOp32
 70
     1
102
RTVSPost2010Prop33
280
     0
102
RTVSPost2010PropOp33
 70
     1
102
RTVSPost2010Prop34
280
     0
102
RTVSPost2010PropOp34
 70
     1
102
RTVSPost2010Prop35
280
     0
102
RTVSPost2010PropOp35
 70
     1
102
RTVSPost2010Prop36
280
     0
102
RTVSPost2010PropOp36
 70
     1
102
RTVSPost2010Prop37
 90
       50
102
RTVSPost2010PropOp37
 70
     1
102
RTVSPost2010Prop38
140
0.0
102
RTVSPost2010PropOp38
 70
     1
102
RTVSPost2010Prop39
140
1.0
102
RTVSPost2010PropOp39
 70
     1
102
RTVSPost2010Prop40
 90
        0
102
RTVSPost2010PropOp40
 70
     1
102
RTVSPost2010Prop41ColorIndex
 90
       18
102
RTVSPost2010Prop41ColorRGB
 90
        0
102
RTVSPost2010PropOp41
 70
     1
102
RTVSPost2010Prop42
 90
       50
102
RTVSPost2010PropOp42
 70
     1
102
RTVSPost2010Prop43
 90
        3
102
RTVSPost2010PropOp43
 70
     1
102
RTVSPost2010Prop44ColorIndex
 90
        5
102
RTVSPost2010Prop44ColorRGB
 90
      255
102
RTVSPost2010PropOp44
 70
     1
102
RTVSPost2010Prop45
280
     0
102
RTVSPost2010PropOp45
 70
     1
102
RTVSPost2010Prop46
 90
       50
102
RTVSPost2010PropOp46
 70
     1
102
RTVSPost2010Prop47
 90
       50
102
RTVSPost2010PropOp47
 70
     1
102
RTVSPost2010Prop48
 90
       50
102
RTVSPost2010PropOp48
 70
     1
102
RTVSPost2010Prop49
280
     0
102
RTVSPost2010PropOp49
 70
     1
102
RTVSPost2010Prop50
 90
       50
102
RTVSPost2010PropOp50
 70
     1
102
RTVSPost2010Prop51ColorIndex
 90
      256
102
RTVSPost2010Prop51ColorRGB
 90
-16777216
102
RTVSPost2010PropOp51
 70
     0
102
RTVSPost2010Prop52
140
1.0
102
RTVSPost2010PropOp52
 70
     0
102
RTVSPost2010Prop53
 90
        2
102
RTVSPost2010PropOp53
 70
     1
102
RTVSPost2010Prop54
  1
strokes_ogs.tif
102
RTVSPost2010PropOp54
 70
     1
102
RTVSPost2010Prop55
280
     0
102
RTVSPost2010PropOp55
 70
     1
102
RTVSPost2010Prop56
140
1.0
102
RTVSPost2010PropOp56
 70
     1
102
RTVSPost2010Prop57
140
1.0
102
RTVSPost2010PropOp57
 70
     1
  0
XRECORD
  5
2C9
102
{ACAD_REACTORS
330
2C8
102
}
330
2C8
100
AcDbXrecord
280
     1
102
RTVSPropertyOp0
 70
     0
102
RTVSPropertyOp1
 70
     0
102
RTVSPropertyOp2
 70
     0
102
RTVSPropertyOp3
 70
     0
102
RTVSPropertyOp4
 70
     0
102
RTVSPropertyOp5
 70
     0
102
RTVSPropertyOp6
 70
     0
102
RTVSPropertyOp7
 70
     0
102
RTVSPropertyOp8
 70
     0
102
RTVSPropertyOp9
 70
     0
102
RTVSPropertyOp10
 70
     0
102
RTVSPropertyOp11
 70
     0
102
RTVSPropertyOp12
 70
     0
102
RTVSPropertyOp13
 70
     0
102
RTVSPropertyOp14
 70
     2
102
RTVSPropertyOp15
 70
     0
102
RTVSPropertyOp16
 70
     0
102
RTVSPropertyOp17
 70
     0
102
RTVSPropertyOp18
 70
     0
102
RTVSPropertyOp19
 70
     0
102
RTVSPropertyOp20
 70
     0
102
RTVSPropertyOp21
 70
     0
102
RTVSPropertyOp22
 70
     0
102
RTVSPropertyOp23
 70
     0
102
RTVSPropertyOp24
 70
     0
102
RTVSPropertyOp25
 70
     0
102
RTVSPropertyOp26
 70
     0
102
RTVSPropertyOp27
 70
     0
102
RTVSPropertyOp28
 70
     0
102
RTVSPropertyOp29
 70
     0
102
RTVSPropertyOp30
 70
     0
102
RTVSPropertyOp31
 70
     0
102
RTVSPropertyOp32
 70
     0
102
RTVSPropertyOp33
 70
     0
102
RTVSPropertyOp34
 70
     0
102
RTVSPropertyOp35
 70
     0
102
RTVSPropertyOp36
 70
     0
102
RTVSPropertyOp37
 70
     0
102
RTVSPropertyOp38
 70
     0
102
RTVSPropertyOp39
 70
     0
102
RTVSPropertyOp40
 70
     0
102
RTVSPropertyOp41
 70
     0
102
RTVSPropertyOp42
 70
     0
102
RTVSPropertyOp43
 70
     0
102
RTVSPropertyOp44
 70
     0
102
RTVSPropertyOp45
 70
     0
102
RTVSPropertyOp46
 70
     0
102
RTVSPropertyOp47
 70
     0
102
RTVSPropertyOp48
 70
     0
102
RTVSPropertyOp49
 70
     0
102
RTVSPropertyOp50
 70
     0
102
RTVSPropertyOp51
 70
     0
102
RTVSPropertyOp52
 70
     0
102
RTVSPropertyOp53
 70
     0
102
RTVSPropertyOp54
 70
     0
102
RTVSPropertyOp55
 70
     0
102
RTVSPropertyOp56
 70
     0
102
RTVSPropertyOp57
 70
     0
102
RTVSPost2010Prop28
280
     0
102
RTVSPost2010PropOp28
 70
     0
102
RTVSPost2010Prop29
280
     1
102
RTVSPost2010PropOp29
 70
     0
102
RTVSPost2010Prop30
280
     1
102
RTVSPost2010PropOp30
 70
     0
102
RTVSPost2010Prop31
280
     0
102
RTVSPost2010PropOp31
 70
     0
102
RTVSPost2010Prop32
280
     0
102
RTVSPost2010PropOp32
 70
     0
102
RTVSPost2010Prop33
280
     0
102
RTVSPost2010PropOp33
 70
     0
102
RTVSPost2010Prop34
280
     0
102
RTVSPost2010PropOp34
 70
     0
102
RTVSPost2010Prop35
280
     0
102
RTVSPost2010PropOp35
 70
     0
102
RTVSPost2010Prop36
280
     0
102
RTVSPost2010PropOp36
 70
     0
102
RTVSPost2010Prop37
 90
       50
102
RTVSPost2010PropOp37
 70
     0
102
RTVSPost2010Prop38
140
0.0
102
RTVSPost2010PropOp38
 70
     0
102
RTVSPost2010Prop39
140
1.0
102
RTVSPost2010PropOp39
 70
     0
102
RTVSPost2010Prop40
 90
        0
102
RTVSPost2010PropOp40
 70
     0
102
RTVSPost2010Prop41ColorIndex
 90
       18
102
RTVSPost2010Prop41ColorRGB
 90
        0
102
RTVSPost2010PropOp41
 70
     0
102
RTVSPost2010Prop42
 90
       50
102
RTVSPost2010PropOp42
 70
     0
102
RTVSPost2010Prop43
 90
        3
102
RTVSPost2010PropOp43
 70
     0
102
RTVSPost2010Prop44ColorIndex
 90
        5
102
RTVSPost2010Prop44ColorRGB
 90
      255
102
RTVSPost2010PropOp44
 70
     0
102
RTVSPost2010Prop45
280
     0
102
RTVSPost2010PropOp45
 70
     0
102
RTVSPost2010Prop46
 90
       50
102
RTVSPost2010PropOp46
 70
     0
102
RTVSPost2010Prop47
 90
       50
102
RTVSPost2010PropOp47
 70
     0
102
RTVSPost2010Prop48
 90
       50
102
RTVSPost2010PropOp48
 70
     0
102
RTVSPost2010Prop49
280
     0
102
RTVSPost2010PropOp49
 70
     0
102
RTVSPost2010Prop50
 90
       50
102
RTVSPost2010PropOp50
 70
     0
102
RTVSPost2010Prop51ColorIndex
 90
      256
102
RTVSPost2010Prop51ColorRGB
 90
-16777216
102
RTVSPost2010PropOp51
 70
     0
102
RTVSPost2010Prop52
140
1.0
102
RTVSPost2010PropOp52
 70
     0
102
RTVSPost2010Prop53
 90
        2
102
RTVSPost2010PropOp53
 70
     0
102
RTVSPost2010Prop54
  1
strokes_ogs.tif
102
RTVSPost2010PropOp54
 70
     0
102
RTVSPost2010Prop55
280
     0
102
RTVSPost2010PropOp55
 70
     0
102
RTVSPost2010Prop56
140
1.0
102
RTVSPost2010PropOp56
 70
     0
102
RTVSPost2010Prop57
140
1.0
102
RTVSPost2010PropOp57
 70
     0
  0
XRECORD
  5
2C3
102
{ACAD_REACTORS
330
2C2
102
}
330
2C2
100
AcDbXrecord
280
     1
102
RTVSPropertyOp0
 70
     1
102
RTVSPropertyOp1
 70
     1
102
RTVSPropertyOp2
 70
     1
102
RTVSPropertyOp3
 70
     1
102
RTVSPropertyOp4
 70
     1
102
RTVSPropertyOp5
 70
     1
102
RTVSPropertyOp6
 70
     1
102
RTVSPropertyOp7
 70
     1
102
RTVSPropertyOp8
 70
     1
102
RTVSPropertyOp9
 70
     1
102
RTVSPropertyOp10
 70
     1
102
RTVSPropertyOp11
 70
     1
102
RTVSPropertyOp12
 70
     1
102
RTVSPropertyOp13
 70
     1
102
RTVSPropertyOp14
 70
     1
102
RTVSPropertyOp15
 70
     1
102
RTVSPropertyOp16
 70
     1
102
RTVSPropertyOp17
 70
     1
102
RTVSPropertyOp18
 70
     1
102
RTVSPropertyOp19
 70
     1
102
RTVSPropertyOp20
 70
     1
102
RTVSPropertyOp21
 70
     1
102
RTVSPropertyOp22
 70
     1
102
RTVSPropertyOp23
 70
     1
102
RTVSPropertyOp24
 70
     1
102
RTVSPropertyOp25
 70
     1
102
RTVSPropertyOp26
 70
     1
102
RTVSPropertyOp27
 70
     1
102
RTVSPropertyOp28
 70
     1
102
RTVSPropertyOp29
 70
     1
102
RTVSPropertyOp30
 70
     1
102
RTVSPropertyOp31
 70
     1
102
RTVSPropertyOp32
 70
     1
102
RTVSPropertyOp33
 70
     1
102
RTVSPropertyOp34
 70
     1
102
RTVSPropertyOp35
 70
     1
102
RTVSPropertyOp36
 70
     1
102
RTVSPropertyOp37
 70
     1
102
RTVSPropertyOp38
 70
     1
102
RTVSPropertyOp39
 70
     1
102
RTVSPropertyOp40
 70
     1
102
RTVSPropertyOp41
 70
     1
102
RTVSPropertyOp42
 70
     1
102
RTVSPropertyOp43
 70
     1
102
RTVSPropertyOp44
 70
     1
102
RTVSPropertyOp45
 70
     1
102
RTVSPropertyOp46
 70
     1
102
RTVSPropertyOp47
 70
     1
102
RTVSPropertyOp48
 70
     1
102
RTVSPropertyOp49
 70
     1
102
RTVSPropertyOp50
 70
     1
102
RTVSPropertyOp51
 70
     0
102
RTVSPropertyOp52
 70
     0
102
RTVSPropertyOp53
 70
     1
102
RTVSPropertyOp54
 70
     1
102
RTVSPropertyOp55
 70
     1
102
RTVSPropertyOp56
 70
     1
102
RTVSPropertyOp57
 70
     1
102
RTVSPost2010Prop28
280
     0
102
RTVSPost2010PropOp28
 70
     1
102
RTVSPost2010Prop29
280
     1
102
RTVSPost2010PropOp29
 70
     1
102
RTVSPost2010Prop30
280
     1
102
RTVSPost2010PropOp30
 70
     1
102
RTVSPost2010Prop31
280
     0
102
RTVSPost2010PropOp31
 70
     1
102
RTVSPost2010Prop32
280
     0
102
RTVSPost2010PropOp32
 70
     1
102
RTVSPost2010Prop33
280
     0
102
RTVSPost2010PropOp33
 70
     1
102
RTVSPost2010Prop34
280
     0
102
RTVSPost2010PropOp34
 70
     1
102
RTVSPost2010Prop35
280
     0
102
RTVSPost2010PropOp35
 70
     1
102
RTVSPost2010Prop36
280
     0
102
RTVSPost2010PropOp36
 70
     1
102
RTVSPost2010Prop37
 90
       50
102
RTVSPost2010PropOp37
 70
     1
102
RTVSPost2010Prop38
140
0.0
102
RTVSPost2010PropOp38
 70
     1
102
RTVSPost2010Prop39
140
1.0
102
RTVSPost2010PropOp39
 70
     1
102
RTVSPost2010Prop40
 90
        0
102
RTVSPost2010PropOp40
 70
     1
102
RTVSPost2010Prop41ColorIndex
 90
       18
102
RTVSPost2010Prop41ColorRGB
 90
        0
102
RTVSPost2010PropOp41
 70
     1
102
RTVSPost2010Prop42
 90
       50
102
RTVSPost2010PropOp42
 70
     1
102
RTVSPost2010Prop43
 90
        3
102
RTVSPost2010PropOp43
 70
     1
102
RTVSPost2010Prop44ColorIndex
 90
        5
102
RTVSPost2010Prop44ColorRGB
 90
      255
102
RTVSPost2010PropOp44
 70
     1
102
RTVSPost2010Prop45
280
     0
102
RTVSPost2010PropOp45
 70
     1
102
RTVSPost2010Prop46
 90
       50
102
RTVSPost2010PropOp46
 70
     1
102
RTVSPost2010Prop47
 90
       50
102
RTVSPost2010PropOp47
 70
     1
102
RTVSPost2010Prop48
 90
       50
102
RTVSPost2010PropOp48
 70
     1
102
RTVSPost2010Prop49
280
     0
102
RTVSPost2010PropOp49
 70
     1
102
RTVSPost2010Prop50
 90
       50
102
RTVSPost2010PropOp50
 70
     1
102
RTVSPost2010Prop51ColorIndex
 90
      256
102
RTVSPost2010Prop51ColorRGB
 90
-16777216
102
RTVSPost2010PropOp51
 70
     0
102
RTVSPost2010Prop52
140
1.0
102
RTVSPost2010PropOp52
 70
     0
102
RTVSPost2010Prop53
 90
        2
102
RTVSPost2010PropOp53
 70
     1
102
RTVSPost2010Prop54
  1
strokes_ogs.tif
102
RTVSPost2010PropOp54
 70
     1
102
RTVSPost2010Prop55
280
     0
102
RTVSPost2010PropOp55
 70
     1
102
RTVSPost2010Prop56
140
1.0
102
RTVSPost2010PropOp56
 70
     1
102
RTVSPost2010Prop57
140
1.0
102
RTVSPost2010PropOp57
 70
     1
  0
XRECORD
  5
2CB
102
{ACAD_REACTORS
330
2CA
102
}
330
2CA
100
AcDbXrecord
280
     1
102
RTVSPropertyOp0
 70
     0
102
RTVSPropertyOp1
 70
     0
102
RTVSPropertyOp2
 70
     0
102
RTVSPropertyOp3
 70
     0
102
RTVSPropertyOp4
 70
     0
102
RTVSPropertyOp5
 70
     0
102
RTVSPropertyOp6
 70
     0
102
RTVSPropertyOp7
 70
     0
102
RTVSPropertyOp8
 70
     0
102
RTVSPropertyOp9
 70
     0
102
RTVSPropertyOp10
 70
     0
102
RTVSPropertyOp11
 70
     0
102
RTVSPropertyOp12
 70
     0
102
RTVSPropertyOp13
 70
     0
102
RTVSPropertyOp14
 70
     2
102
RTVSPropertyOp15
 70
     0
102
RTVSPropertyOp16
 70
     0
102
RTVSPropertyOp17
 70
     0
102
RTVSPropertyOp18
 70
     0
102
RTVSPropertyOp19
 70
     0
102
RTVSPropertyOp20
 70
     0
102
RTVSPropertyOp21
 70
     0
102
RTVSPropertyOp22
 70
     0
102
RTVSPropertyOp23
 70
     0
102
RTVSPropertyOp24
 70
     0
102
RTVSPropertyOp25
 70
     0
102
RTVSPropertyOp26
 70
     0
102
RTVSPropertyOp27
 70
     0
102
RTVSPropertyOp28
 70
     0
102
RTVSPropertyOp29
 70
     0
102
RTVSPropertyOp30
 70
     0
102
RTVSPropertyOp31
 70
     0
102
RTVSPropertyOp32
 70
     0
102
RTVSPropertyOp33
 70
     0
102
RTVSPropertyOp34
 70
     0
102
RTVSPropertyOp35
 70
     0
102
RTVSPropertyOp36
 70
     0
102
RTVSPropertyOp37
 70
     0
102
RTVSPropertyOp38
 70
     0
102
RTVSPropertyOp39
 70
     0
102
RTVSPropertyOp40
 70
     0
102
RTVSPropertyOp41
 70
     0
102
RTVSPropertyOp42
 70
     0
102
RTVSPropertyOp43
 70
     0
102
RTVSPropertyOp44
 70
     0
102
RTVSPropertyOp45
 70
     0
102
RTVSPropertyOp46
 70
     0
102
RTVSPropertyOp47
 70
     0
102
RTVSPropertyOp48
 70
     0
102
RTVSPropertyOp49
 70
     0
102
RTVSPropertyOp50
 70
     0
102
RTVSPropertyOp51
 70
     0
102
RTVSPropertyOp52
 70
     0
102
RTVSPropertyOp53
 70
     0
102
RTVSPropertyOp54
 70
     0
102
RTVSPropertyOp55
 70
     0
102
RTVSPropertyOp56
 70
     0
102
RTVSPropertyOp57
 70
     0
102
RTVSPost2010Prop28
280
     0
102
RTVSPost2010PropOp28
 70
     0
102
RTVSPost2010Prop29
280
     1
102
RTVSPost2010PropOp29
 70
     0
102
RTVSPost2010Prop30
280
     1
102
RTVSPost2010PropOp30
 70
     0
102
RTVSPost2010Prop31
280
     0
102
RTVSPost2010PropOp31
 70
     0
102
RTVSPost2010Prop32
280
     0
102
RTVSPost2010PropOp32
 70
     0
102
RTVSPost2010Prop33
280
     0
102
RTVSPost2010PropOp33
 70
     0
102
RTVSPost2010Prop34
280
     0
102
RTVSPost2010PropOp34
 70
     0
102
RTVSPost2010Prop35
280
     0
102
RTVSPost2010PropOp35
 70
     0
102
RTVSPost2010Prop36
280
     0
102
RTVSPost2010PropOp36
 70
     0
102
RTVSPost2010Prop37
 90
       50
102
RTVSPost2010PropOp37
 70
     0
102
RTVSPost2010Prop38
140
0.0
102
RTVSPost2010PropOp38
 70
     0
102
RTVSPost2010Prop39
140
1.0
102
RTVSPost2010PropOp39
 70
     0
102
RTVSPost2010Prop40
 90
        0
102
RTVSPost2010PropOp40
 70
     0
102
RTVSPost2010Prop41ColorIndex
 90
       18
102
RTVSPost2010Prop41ColorRGB
 90
        0
102
RTVSPost2010PropOp41
 70
     0
102
RTVSPost2010Prop42
 90
       50
102
RTVSPost2010PropOp42
 70
     0
102
RTVSPost2010Prop43
 90
        3
102
RTVSPost2010PropOp43
 70
     0
102
RTVSPost2010Prop44ColorIndex
 90
        5
102
RTVSPost2010Prop44ColorRGB
 90
      255
102
RTVSPost2010PropOp44
 70
     0
102
RTVSPost2010Prop45
280
     0
102
RTVSPost2010PropOp45
 70
     0
102
RTVSPost2010Prop46
 90
       50
102
RTVSPost2010PropOp46
 70
     0
102
RTVSPost2010Prop47
 90
       50
102
RTVSPost2010PropOp47
 70
     0
102
RTVSPost2010Prop48
 90
       50
102
RTVSPost2010PropOp48
 70
     0
102
RTVSPost2010Prop49
280
     0
102
RTVSPost2010PropOp49
 70
     0
102
RTVSPost2010Prop50
 90
       50
102
RTVSPost2010PropOp50
 70
     0
102
RTVSPost2010Prop51ColorIndex
 90
      256
102
RTVSPost2010Prop51ColorRGB
 90
-16777216
102
RTVSPost2010PropOp51
 70
     0
102
RTVSPost2010Prop52
140
1.0
102
RTVSPost2010PropOp52
 70
     0
102
RTVSPost2010Prop53
 90
        2
102
RTVSPost2010PropOp53
 70
     0
102
RTVSPost2010Prop54
  1
strokes_ogs.tif
102
RTVSPost2010PropOp54
 70
     0
102
RTVSPost2010Prop55
280
     0
102
RTVSPost2010PropOp55
 70
     0
102
RTVSPost2010Prop56
140
1.0
102
RTVSPost2010PropOp56
 70
     0
102
RTVSPost2010Prop57
140
1.0
102
RTVSPost2010PropOp57
 70
     0
  0
XRECORD
  5
2B9
102
{ACAD_REACTORS
330
2B8
102
}
330
2B8
100
AcDbXrecord
280
     1
102
RTVSPropertyOp0
 70
     1
102
RTVSPropertyOp1
 70
     1
102
RTVSPropertyOp2
 70
     1
102
RTVSPropertyOp3
 70
     1
102
RTVSPropertyOp4
 70
     1
102
RTVSPropertyOp5
 70
     1
102
RTVSPropertyOp6
 70
     1
102
RTVSPropertyOp7
 70
     1
102
RTVSPropertyOp8
 70
     1
102
RTVSPropertyOp9
 70
     1
102
RTVSPropertyOp10
 70
     1
102
RTVSPropertyOp11
 70
     1
102
RTVSPropertyOp12
 70
     1
102
RTVSPropertyOp13
 70
     1
102
RTVSPropertyOp14
 70
     1
102
RTVSPropertyOp15
 70
     1
102
RTVSPropertyOp16
 70
     1
102
RTVSPropertyOp17
 70
     1
102
RTVSPropertyOp18
 70
     1
102
RTVSPropertyOp19
 70
     1
102
RTVSPropertyOp20
 70
     1
102
RTVSPropertyOp21
 70
     1
102
RTVSPropertyOp22
 70
     1
102
RTVSPropertyOp23
 70
     1
102
RTVSPropertyOp24
 70
     1
102
RTVSPropertyOp25
 70
     1
102
RTVSPropertyOp26
 70
     1
102
RTVSPropertyOp27
 70
     1
102
RTVSPropertyOp28
 70
     1
102
RTVSPropertyOp29
 70
     1
102
RTVSPropertyOp30
 70
     1
102
RTVSPropertyOp31
 70
     1
102
RTVSPropertyOp32
 70
     1
102
RTVSPropertyOp33
 70
     1
102
RTVSPropertyOp34
 70
     1
102
RTVSPropertyOp35
 70
     1
102
RTVSPropertyOp36
 70
     1
102
RTVSPropertyOp37
 70
     1
102
RTVSPropertyOp38
 70
     1
102
RTVSPropertyOp39
 70
     1
102
RTVSPropertyOp40
 70
     1
102
RTVSPropertyOp41
 70
     1
102
RTVSPropertyOp42
 70
     1
102
RTVSPropertyOp43
 70
     1
102
RTVSPropertyOp44
 70
     1
102
RTVSPropertyOp45
 70
     1
102
RTVSPropertyOp46
 70
     1
102
RTVSPropertyOp47
 70
     1
102
RTVSPropertyOp48
 70
     1
102
RTVSPropertyOp49
 70
     1
102
RTVSPropertyOp50
 70
     1
102
RTVSPropertyOp51
 70
     0
102
RTVSPropertyOp52
 70
     0
102
RTVSPropertyOp53
 70
     1
102
RTVSPropertyOp54
 70
     1
102
RTVSPropertyOp55
 70
     1
102
RTVSPropertyOp56
 70
     1
102
RTVSPropertyOp57
 70
     1
102
RTVSPost2010Prop28
280
     0
102
RTVSPost2010PropOp28
 70
     1
102
RTVSPost2010Prop29
280
     1
102
RTVSPost2010PropOp29
 70
     1
102
RTVSPost2010Prop30
280
     1
102
RTVSPost2010PropOp30
 70
     1
102
RTVSPost2010Prop31
280
     0
102
RTVSPost2010PropOp31
 70
     1
102
RTVSPost2010Prop32
280
     0
102
RTVSPost2010PropOp32
 70
     1
102
RTVSPost2010Prop33
280
     0
102
RTVSPost2010PropOp33
 70
     1
102
RTVSPost2010Prop34
280
     0
102
RTVSPost2010PropOp34
 70
     1
102
RTVSPost2010Prop35
280
     0
102
RTVSPost2010PropOp35
 70
     1
102
RTVSPost2010Prop36
280
     0
102
RTVSPost2010PropOp36
 70
     1
102
RTVSPost2010Prop37
 90
       50
102
RTVSPost2010PropOp37
 70
     1
102
RTVSPost2010Prop38
140
0.0
102
RTVSPost2010PropOp38
 70
     1
102
RTVSPost2010Prop39
140
1.0
102
RTVSPost2010PropOp39
 70
     1
102
RTVSPost2010Prop40
 90
        0
102
RTVSPost2010PropOp40
 70
     1
102
RTVSPost2010Prop41ColorIndex
 90
       18
102
RTVSPost2010Prop41ColorRGB
 90
        0
102
RTVSPost2010PropOp41
 70
     1
102
RTVSPost2010Prop42
 90
       50
102
RTVSPost2010PropOp42
 70
     1
102
RTVSPost2010Prop43
 90
        3
102
RTVSPost2010PropOp43
 70
     1
102
RTVSPost2010Prop44ColorIndex
 90
        5
102
RTVSPost2010Prop44ColorRGB
 90
      255
102
RTVSPost2010PropOp44
 70
     1
102
RTVSPost2010Prop45
280
     0
102
RTVSPost2010PropOp45
 70
     1
102
RTVSPost2010Prop46
 90
       50
102
RTVSPost2010PropOp46
 70
     1
102
RTVSPost2010Prop47
 90
       50
102
RTVSPost2010PropOp47
 70
     1
102
RTVSPost2010Prop48
 90
       50
102
RTVSPost2010PropOp48
 70
     1
102
RTVSPost2010Prop49
280
     0
102
RTVSPost2010PropOp49
 70
     1
102
RTVSPost2010Prop50
 90
       50
102
RTVSPost2010PropOp50
 70
     1
102
RTVSPost2010Prop51ColorIndex
 90
      256
102
RTVSPost2010Prop51ColorRGB
 90
-16777216
102
RTVSPost2010PropOp51
 70
     0
102
RTVSPost2010Prop52
140
1.0
102
RTVSPost2010PropOp52
 70
     0
102
RTVSPost2010Prop53
 90
        2
102
RTVSPost2010PropOp53
 70
     1
102
RTVSPost2010Prop54
  1
strokes_ogs.tif
102
RTVSPost2010PropOp54
 70
     1
102
RTVSPost2010Prop55
280
     0
102
RTVSPost2010PropOp55
 70
     1
102
RTVSPost2010Prop56
140
1.0
102
RTVSPost2010PropOp56
 70
     1
102
RTVSPost2010Prop57
140
1.0
102
RTVSPost2010PropOp57
 70
     1
  0
XRECORD
  5
2D7
102
{ACAD_REACTORS
330
2D6
102
}
330
2D6
100
AcDbXrecord
280
     1
102
RTVSPropertyOp0
 70
     1
102
RTVSPropertyOp1
 70
     1
102
RTVSPropertyOp2
 70
     1
102
RTVSPropertyOp3
 70
     1
102
RTVSPropertyOp4
 70
     1
102
RTVSPropertyOp5
 70
     1
102
RTVSPropertyOp6
 70
     1
102
RTVSPropertyOp7
 70
     1
102
RTVSPropertyOp8
 70
     1
102
RTVSPropertyOp9
 70
     1
102
RTVSPropertyOp10
 70
     1
102
RTVSPropertyOp11
 70
     1
102
RTVSPropertyOp12
 70
     1
102
RTVSPropertyOp13
 70
     1
102
RTVSPropertyOp14
 70
     1
102
RTVSPropertyOp15
 70
     1
102
RTVSPropertyOp16
 70
     1
102
RTVSPropertyOp17
 70
     1
102
RTVSPropertyOp18
 70
     1
102
RTVSPropertyOp19
 70
     1
102
RTVSPropertyOp20
 70
     1
102
RTVSPropertyOp21
 70
     1
102
RTVSPropertyOp22
 70
     1
102
RTVSPropertyOp23
 70
     1
102
RTVSPropertyOp24
 70
     1
102
RTVSPropertyOp25
 70
     1
102
RTVSPropertyOp26
 70
     1
102
RTVSPropertyOp27
 70
     1
102
RTVSPropertyOp28
 70
     1
102
RTVSPropertyOp29
 70
     1
102
RTVSPropertyOp30
 70
     1
102
RTVSPropertyOp31
 70
     1
102
RTVSPropertyOp32
 70
     1
102
RTVSPropertyOp33
 70
     1
102
RTVSPropertyOp34
 70
     1
102
RTVSPropertyOp35
 70
     1
102
RTVSPropertyOp36
 70
     1
102
RTVSPropertyOp37
 70
     1
102
RTVSPropertyOp38
 70
     1
102
RTVSPropertyOp39
 70
     1
102
RTVSPropertyOp40
 70
     1
102
RTVSPropertyOp41
 70
     1
102
RTVSPropertyOp42
 70
     1
102
RTVSPropertyOp43
 70
     1
102
RTVSPropertyOp44
 70
     1
102
RTVSPropertyOp45
 70
     1
102
RTVSPropertyOp46
 70
     1
102
RTVSPropertyOp47
 70
     1
102
RTVSPropertyOp48
 70
     1
102
RTVSPropertyOp49
 70
     1
102
RTVSPropertyOp50
 70
     1
102
RTVSPropertyOp51
 70
     0
102
RTVSPropertyOp52
 70
     0
102
RTVSPropertyOp53
 70
     1
102
RTVSPropertyOp54
 70
     1
102
RTVSPropertyOp55
 70
     1
102
RTVSPropertyOp56
 70
     1
102
RTVSPropertyOp57
 70
     1
102
RTVSPost2010Prop28
280
     0
102
RTVSPost2010PropOp28
 70
     1
102
RTVSPost2010Prop29
280
     1
102
RTVSPost2010PropOp29
 70
     1
102
RTVSPost2010Prop30
280
     1
102
RTVSPost2010PropOp30
 70
     1
102
RTVSPost2010Prop31
280
     0
102
RTVSPost2010PropOp31
 70
     1
102
RTVSPost2010Prop32
280
     0
102
RTVSPost2010PropOp32
 70
     1
102
RTVSPost2010Prop33
280
     0
102
RTVSPost2010PropOp33
 70
     1
102
RTVSPost2010Prop34
280
     0
102
RTVSPost2010PropOp34
 70
     1
102
RTVSPost2010Prop35
280
     0
102
RTVSPost2010PropOp35
 70
     1
102
RTVSPost2010Prop36
280
     0
102
RTVSPost2010PropOp36
 70
     1
102
RTVSPost2010Prop37
 90
       50
102
RTVSPost2010PropOp37
 70
     1
102
RTVSPost2010Prop38
140
0.0
102
RTVSPost2010PropOp38
 70
     1
102
RTVSPost2010Prop39
140
1.0
102
RTVSPost2010PropOp39
 70
     1
102
RTVSPost2010Prop40
 90
        0
102
RTVSPost2010PropOp40
 70
     1
102
RTVSPost2010Prop41ColorIndex
 90
       18
102
RTVSPost2010Prop41ColorRGB
 90
        0
102
RTVSPost2010PropOp41
 70
     1
102
RTVSPost2010Prop42
 90
       50
102
RTVSPost2010PropOp42
 70
     1
102
RTVSPost2010Prop43
 90
        3
102
RTVSPost2010PropOp43
 70
     1
102
RTVSPost2010Prop44ColorIndex
 90
        5
102
RTVSPost2010Prop44ColorRGB
 90
      255
102
RTVSPost2010PropOp44
 70
     1
102
RTVSPost2010Prop45
280
     0
102
RTVSPost2010PropOp45
 70
     1
102
RTVSPost2010Prop46
 90
       50
102
RTVSPost2010PropOp46
 70
     1
102
RTVSPost2010Prop47
 90
       50
102
RTVSPost2010PropOp47
 70
     1
102
RTVSPost2010Prop48
 90
       50
102
RTVSPost2010PropOp48
 70
     1
102
RTVSPost2010Prop49
280
     0
102
RTVSPost2010PropOp49
 70
     1
102
RTVSPost2010Prop50
 90
       50
102
RTVSPost2010PropOp50
 70
     1
102
RTVSPost2010Prop51ColorIndex
 90
      256
102
RTVSPost2010Prop51ColorRGB
 90
-16777216
102
RTVSPost2010PropOp51
 70
     0
102
RTVSPost2010Prop52
140
1.0
102
RTVSPost2010PropOp52
 70
     0
102
RTVSPost2010Prop53
 90
        2
102
RTVSPost2010PropOp53
 70
     1
102
RTVSPost2010Prop54
  1
strokes_ogs.tif
102
RTVSPost2010PropOp54
 70
     1
102
RTVSPost2010Prop55
280
     0
102
RTVSPost2010PropOp55
 70
     1
102
RTVSPost2010Prop56
140
1.0
102
RTVSPost2010PropOp56
 70
     1
102
RTVSPost2010Prop57
140
1.0
102
RTVSPost2010PropOp57
 70
     1
  0
XRECORD
  5
2D5
102
{ACAD_REACTORS
330
2D4
102
}
330
2D4
100
AcDbXrecord
280
     1
102
RTVSPropertyOp0
 70
     1
102
RTVSPropertyOp1
 70
     1
102
RTVSPropertyOp2
 70
     1
102
RTVSPropertyOp3
 70
     1
102
RTVSPropertyOp4
 70
     1
102
RTVSPropertyOp5
 70
     1
102
RTVSPropertyOp6
 70
     1
102
RTVSPropertyOp7
 70
     1
102
RTVSPropertyOp8
 70
     1
102
RTVSPropertyOp9
 70
     1
102
RTVSPropertyOp10
 70
     1
102
RTVSPropertyOp11
 70
     1
102
RTVSPropertyOp12
 70
     1
102
RTVSPropertyOp13
 70
     1
102
RTVSPropertyOp14
 70
     1
102
RTVSPropertyOp15
 70
     1
102
RTVSPropertyOp16
 70
     1
102
RTVSPropertyOp17
 70
     1
102
RTVSPropertyOp18
 70
     1
102
RTVSPropertyOp19
 70
     1
102
RTVSPropertyOp20
 70
     1
102
RTVSPropertyOp21
 70
     1
102
RTVSPropertyOp22
 70
     1
102
RTVSPropertyOp23
 70
     1
102
RTVSPropertyOp24
 70
     1
102
RTVSPropertyOp25
 70
     1
102
RTVSPropertyOp26
 70
     1
102
RTVSPropertyOp27
 70
     1
102
RTVSPropertyOp28
 70
     1
102
RTVSPropertyOp29
 70
     1
102
RTVSPropertyOp30
 70
     1
102
RTVSPropertyOp31
 70
     1
102
RTVSPropertyOp32
 70
     1
102
RTVSPropertyOp33
 70
     1
102
RTVSPropertyOp34
 70
     1
102
RTVSPropertyOp35
 70
     1
102
RTVSPropertyOp36
 70
     1
102
RTVSPropertyOp37
 70
     1
102
RTVSPropertyOp38
 70
     1
102
RTVSPropertyOp39
 70
     1
102
RTVSPropertyOp40
 70
     1
102
RTVSPropertyOp41
 70
     1
102
RTVSPropertyOp42
 70
     1
102
RTVSPropertyOp43
 70
     1
102
RTVSPropertyOp44
 70
     1
102
RTVSPropertyOp45
 70
     1
102
RTVSPropertyOp46
 70
     1
102
RTVSPropertyOp47
 70
     1
102
RTVSPropertyOp48
 70
     1
102
RTVSPropertyOp49
 70
     1
102
RTVSPropertyOp50
 70
     1
102
RTVSPropertyOp51
 70
     0
102
RTVSPropertyOp52
 70
     0
102
RTVSPropertyOp53
 70
     1
102
RTVSPropertyOp54
 70
     1
102
RTVSPropertyOp55
 70
     1
102
RTVSPropertyOp56
 70
     1
102
RTVSPropertyOp57
 70
     1
102
RTVSPost2010Prop28
280
     0
102
RTVSPost2010PropOp28
 70
     1
102
RTVSPost2010Prop29
280
     1
102
RTVSPost2010PropOp29
 70
     1
102
RTVSPost2010Prop30
280
     1
102
RTVSPost2010PropOp30
 70
     1
102
RTVSPost2010Prop31
280
     0
102
RTVSPost2010PropOp31
 70
     1
102
RTVSPost2010Prop32
280
     0
102
RTVSPost2010PropOp32
 70
     1
102
RTVSPost2010Prop33
280
     0
102
RTVSPost2010PropOp33
 70
     1
102
RTVSPost2010Prop34
280
     0
102
RTVSPost2010PropOp34
 70
     1
102
RTVSPost2010Prop35
280
     0
102
RTVSPost2010PropOp35
 70
     1
102
RTVSPost2010Prop36
280
     0
102
RTVSPost2010PropOp36
 70
     1
102
RTVSPost2010Prop37
 90
       50
102
RTVSPost2010PropOp37
 70
     1
102
RTVSPost2010Prop38
140
0.0
102
RTVSPost2010PropOp38
 70
     1
102
RTVSPost2010Prop39
140
1.0
102
RTVSPost2010PropOp39
 70
     1
102
RTVSPost2010Prop40
 90
        0
102
RTVSPost2010PropOp40
 70
     1
102
RTVSPost2010Prop41ColorIndex
 90
       18
102
RTVSPost2010Prop41ColorRGB
 90
        0
102
RTVSPost2010PropOp41
 70
     1
102
RTVSPost2010Prop42
 90
       50
102
RTVSPost2010PropOp42
 70
     1
102
RTVSPost2010Prop43
 90
        3
102
RTVSPost2010PropOp43
 70
     1
102
RTVSPost2010Prop44ColorIndex
 90
        5
102
RTVSPost2010Prop44ColorRGB
 90
      255
102
RTVSPost2010PropOp44
 70
     1
102
RTVSPost2010Prop45
280
     0
102
RTVSPost2010PropOp45
 70
     1
102
RTVSPost2010Prop46
 90
       50
102
RTVSPost2010PropOp46
 70
     1
102
RTVSPost2010Prop47
 90
       50
102
RTVSPost2010PropOp47
 70
     1
102
RTVSPost2010Prop48
 90
       50
102
RTVSPost2010PropOp48
 70
     1
102
RTVSPost2010Prop49
280
     0
102
RTVSPost2010PropOp49
 70
     1
102
RTVSPost2010Prop50
 90
       50
102
RTVSPost2010PropOp50
 70
     1
102
RTVSPost2010Prop51ColorIndex
 90
      256
102
RTVSPost2010Prop51ColorRGB
 90
-16777216
102
RTVSPost2010PropOp51
 70
     0
102
RTVSPost2010Prop52
140
1.0
102
RTVSPost2010PropOp52
 70
     0
102
RTVSPost2010Prop53
 90
        2
102
RTVSPost2010PropOp53
 70
     1
102
RTVSPost2010Prop54
  1
strokes_ogs.tif
102
RTVSPost2010PropOp54
 70
     1
102
RTVSPost2010Prop55
280
     0
102
RTVSPost2010PropOp55
 70
     1
102
RTVSPost2010Prop56
140
1.0
102
RTVSPost2010PropOp56
 70
     1
102
RTVSPost2010Prop57
140
1.0
102
RTVSPost2010PropOp57
 70
     1
  0
XRECORD
  5
2CF
102
{ACAD_REACTORS
330
2CE
102
}
330
2CE
100
AcDbXrecord
280
     1
102
RTVSPropertyOp0
 70
     1
102
RTVSPropertyOp1
 70
     1
102
RTVSPropertyOp2
 70
     1
102
RTVSPropertyOp3
 70
     1
102
RTVSPropertyOp4
 70
     1
102
RTVSPropertyOp5
 70
     1
102
RTVSPropertyOp6
 70
     1
102
RTVSPropertyOp7
 70
     1
102
RTVSPropertyOp8
 70
     1
102
RTVSPropertyOp9
 70
     1
102
RTVSPropertyOp10
 70
     1
102
RTVSPropertyOp11
 70
     1
102
RTVSPropertyOp12
 70
     1
102
RTVSPropertyOp13
 70
     1
102
RTVSPropertyOp14
 70
     1
102
RTVSPropertyOp15
 70
     1
102
RTVSPropertyOp16
 70
     1
102
RTVSPropertyOp17
 70
     1
102
RTVSPropertyOp18
 70
     1
102
RTVSPropertyOp19
 70
     1
102
RTVSPropertyOp20
 70
     1
102
RTVSPropertyOp21
 70
     1
102
RTVSPropertyOp22
 70
     1
102
RTVSPropertyOp23
 70
     1
102
RTVSPropertyOp24
 70
     1
102
RTVSPropertyOp25
 70
     1
102
RTVSPropertyOp26
 70
     1
102
RTVSPropertyOp27
 70
     1
102
RTVSPropertyOp28
 70
     1
102
RTVSPropertyOp29
 70
     1
102
RTVSPropertyOp30
 70
     1
102
RTVSPropertyOp31
 70
     1
102
RTVSPropertyOp32
 70
     1
102
RTVSPropertyOp33
 70
     1
102
RTVSPropertyOp34
 70
     1
102
RTVSPropertyOp35
 70
     1
102
RTVSPropertyOp36
 70
     1
102
RTVSPropertyOp37
 70
     1
102
RTVSPropertyOp38
 70
     1
102
RTVSPropertyOp39
 70
     1
102
RTVSPropertyOp40
 70
     1
102
RTVSPropertyOp41
 70
     1
102
RTVSPropertyOp42
 70
     1
102
RTVSPropertyOp43
 70
     1
102
RTVSPropertyOp44
 70
     1
102
RTVSPropertyOp45
 70
     1
102
RTVSPropertyOp46
 70
     1
102
RTVSPropertyOp47
 70
     1
102
RTVSPropertyOp48
 70
     1
102
RTVSPropertyOp49
 70
     1
102
RTVSPropertyOp50
 70
     1
102
RTVSPropertyOp51
 70
     0
102
RTVSPropertyOp52
 70
     0
102
RTVSPropertyOp53
 70
     1
102
RTVSPropertyOp54
 70
     1
102
RTVSPropertyOp55
 70
     1
102
RTVSPropertyOp56
 70
     1
102
RTVSPropertyOp57
 70
     1
102
RTVSPost2010Prop28
280
     0
102
RTVSPost2010PropOp28
 70
     1
102
RTVSPost2010Prop29
280
     1
102
RTVSPost2010PropOp29
 70
     1
102
RTVSPost2010Prop30
280
     1
102
RTVSPost2010PropOp30
 70
     1
102
RTVSPost2010Prop31
280
     0
102
RTVSPost2010PropOp31
 70
     1
102
RTVSPost2010Prop32
280
     0
102
RTVSPost2010PropOp32
 70
     1
102
RTVSPost2010Prop33
280
     0
102
RTVSPost2010PropOp33
 70
     1
102
RTVSPost2010Prop34
280
     0
102
RTVSPost2010PropOp34
 70
     1
102
RTVSPost2010Prop35
280
     0
102
RTVSPost2010PropOp35
 70
     1
102
RTVSPost2010Prop36
280
     0
102
RTVSPost2010PropOp36
 70
     1
102
RTVSPost2010Prop37
 90
       50
102
RTVSPost2010PropOp37
 70
     1
102
RTVSPost2010Prop38
140
0.0
102
RTVSPost2010PropOp38
 70
     1
102
RTVSPost2010Prop39
140
1.0
102
RTVSPost2010PropOp39
 70
     1
102
RTVSPost2010Prop40
 90
        0
102
RTVSPost2010PropOp40
 70
     1
102
RTVSPost2010Prop41ColorIndex
 90
       18
102
RTVSPost2010Prop41ColorRGB
 90
        0
102
RTVSPost2010PropOp41
 70
     1
102
RTVSPost2010Prop42
 90
       50
102
RTVSPost2010PropOp42
 70
     1
102
RTVSPost2010Prop43
 90
        3
102
RTVSPost2010PropOp43
 70
     1
102
RTVSPost2010Prop44ColorIndex
 90
        5
102
RTVSPost2010Prop44ColorRGB
 90
      255
102
RTVSPost2010PropOp44
 70
     1
102
RTVSPost2010Prop45
280
     0
102
RTVSPost2010PropOp45
 70
     1
102
RTVSPost2010Prop46
 90
       50
102
RTVSPost2010PropOp46
 70
     1
102
RTVSPost2010Prop47
 90
       50
102
RTVSPost2010PropOp47
 70
     1
102
RTVSPost2010Prop48
 90
       50
102
RTVSPost2010PropOp48
 70
     1
102
RTVSPost2010Prop49
280
     0
102
RTVSPost2010PropOp49
 70
     1
102
RTVSPost2010Prop50
 90
       50
102
RTVSPost2010PropOp50
 70
     1
102
RTVSPost2010Prop51ColorIndex
 90
      256
102
RTVSPost2010Prop51ColorRGB
 90
-16777216
102
RTVSPost2010PropOp51
 70
     0
102
RTVSPost2010Prop52
140
1.0
102
RTVSPost2010PropOp52
 70
     0
102
RTVSPost2010Prop53
 90
        2
102
RTVSPost2010PropOp53
 70
     1
102
RTVSPost2010Prop54
  1
strokes_ogs.tif
102
RTVSPost2010PropOp54
 70
     1
102
RTVSPost2010Prop55
280
     0
102
RTVSPost2010PropOp55
 70
     1
102
RTVSPost2010Prop56
140
1.0
102
RTVSPost2010PropOp56
 70
     1
102
RTVSPost2010Prop57
140
1.0
102
RTVSPost2010PropOp57
 70
     1
  0
XRECORD
  5
2D1
102
{ACAD_REACTORS
330
2D0
102
}
330
2D0
100
AcDbXrecord
280
     1
102
RTVSPropertyOp0
 70
     1
102
RTVSPropertyOp1
 70
     1
102
RTVSPropertyOp2
 70
     1
102
RTVSPropertyOp3
 70
     1
102
RTVSPropertyOp4
 70
     1
102
RTVSPropertyOp5
 70
     1
102
RTVSPropertyOp6
 70
     1
102
RTVSPropertyOp7
 70
     1
102
RTVSPropertyOp8
 70
     1
102
RTVSPropertyOp9
 70
     1
102
RTVSPropertyOp10
 70
     1
102
RTVSPropertyOp11
 70
     1
102
RTVSPropertyOp12
 70
     1
102
RTVSPropertyOp13
 70
     1
102
RTVSPropertyOp14
 70
     1
102
RTVSPropertyOp15
 70
     1
102
RTVSPropertyOp16
 70
     1
102
RTVSPropertyOp17
 70
     1
102
RTVSPropertyOp18
 70
     1
102
RTVSPropertyOp19
 70
     1
102
RTVSPropertyOp20
 70
     1
102
RTVSPropertyOp21
 70
     1
102
RTVSPropertyOp22
 70
     1
102
RTVSPropertyOp23
 70
     1
102
RTVSPropertyOp24
 70
     1
102
RTVSPropertyOp25
 70
     1
102
RTVSPropertyOp26
 70
     1
102
RTVSPropertyOp27
 70
     1
102
RTVSPropertyOp28
 70
     1
102
RTVSPropertyOp29
 70
     1
102
RTVSPropertyOp30
 70
     1
102
RTVSPropertyOp31
 70
     1
102
RTVSPropertyOp32
 70
     1
102
RTVSPropertyOp33
 70
     1
102
RTVSPropertyOp34
 70
     1
102
RTVSPropertyOp35
 70
     1
102
RTVSPropertyOp36
 70
     1
102
RTVSPropertyOp37
 70
     1
102
RTVSPropertyOp38
 70
     1
102
RTVSPropertyOp39
 70
     1
102
RTVSPropertyOp40
 70
     1
102
RTVSPropertyOp41
 70
     1
102
RTVSPropertyOp42
 70
     1
102
RTVSPropertyOp43
 70
     1
102
RTVSPropertyOp44
 70
     1
102
RTVSPropertyOp45
 70
     1
102
RTVSPropertyOp46
 70
     1
102
RTVSPropertyOp47
 70
     1
102
RTVSPropertyOp48
 70
     1
102
RTVSPropertyOp49
 70
     1
102
RTVSPropertyOp50
 70
     1
102
RTVSPropertyOp51
 70
     0
102
RTVSPropertyOp52
 70
     0
102
RTVSPropertyOp53
 70
     1
102
RTVSPropertyOp54
 70
     1
102
RTVSPropertyOp55
 70
     1
102
RTVSPropertyOp56
 70
     1
102
RTVSPropertyOp57
 70
     1
102
RTVSPost2010Prop28
280
     0
102
RTVSPost2010PropOp28
 70
     1
102
RTVSPost2010Prop29
280
     1
102
RTVSPost2010PropOp29
 70
     1
102
RTVSPost2010Prop30
280
     1
102
RTVSPost2010PropOp30
 70
     1
102
RTVSPost2010Prop31
280
     0
102
RTVSPost2010PropOp31
 70
     1
102
RTVSPost2010Prop32
280
     0
102
RTVSPost2010PropOp32
 70
     1
102
RTVSPost2010Prop33
280
     0
102
RTVSPost2010PropOp33
 70
     1
102
RTVSPost2010Prop34
280
     0
102
RTVSPost2010PropOp34
 70
     1
102
RTVSPost2010Prop35
280
     0
102
RTVSPost2010PropOp35
 70
     1
102
RTVSPost2010Prop36
280
     0
102
RTVSPost2010PropOp36
 70
     1
102
RTVSPost2010Prop37
 90
       50
102
RTVSPost2010PropOp37
 70
     1
102
RTVSPost2010Prop38
140
0.0
102
RTVSPost2010PropOp38
 70
     1
102
RTVSPost2010Prop39
140
1.0
102
RTVSPost2010PropOp39
 70
     1
102
RTVSPost2010Prop40
 90
        0
102
RTVSPost2010PropOp40
 70
     1
102
RTVSPost2010Prop41ColorIndex
 90
       18
102
RTVSPost2010Prop41ColorRGB
 90
        0
102
RTVSPost2010PropOp41
 70
     1
102
RTVSPost2010Prop42
 90
       50
102
RTVSPost2010PropOp42
 70
     1
102
RTVSPost2010Prop43
 90
        3
102
RTVSPost2010PropOp43
 70
     1
102
RTVSPost2010Prop44ColorIndex
 90
        5
102
RTVSPost2010Prop44ColorRGB
 90
      255
102
RTVSPost2010PropOp44
 70
     1
102
RTVSPost2010Prop45
280
     0
102
RTVSPost2010PropOp45
 70
     1
102
RTVSPost2010Prop46
 90
       50
102
RTVSPost2010PropOp46
 70
     1
102
RTVSPost2010Prop47
 90
       50
102
RTVSPost2010PropOp47
 70
     1
102
RTVSPost2010Prop48
 90
       50
102
RTVSPost2010PropOp48
 70
     1
102
RTVSPost2010Prop49
280
     0
102
RTVSPost2010PropOp49
 70
     1
102
RTVSPost2010Prop50
 90
       50
102
RTVSPost2010PropOp50
 70
     1
102
RTVSPost2010Prop51ColorIndex
 90
      256
102
RTVSPost2010Prop51ColorRGB
 90
-16777216
102
RTVSPost2010PropOp51
 70
     0
102
RTVSPost2010Prop52
140
1.0
102
RTVSPost2010PropOp52
 70
     0
102
RTVSPost2010Prop53
 90
        2
102
RTVSPost2010PropOp53
 70
     1
102
RTVSPost2010Prop54
  1
strokes_ogs.tif
102
RTVSPost2010PropOp54
 70
     1
102
RTVSPost2010Prop55
280
     0
102
RTVSPost2010PropOp55
 70
     1
102
RTVSPost2010Prop56
140
1.0
102
RTVSPost2010PropOp56
 70
     1
102
RTVSPost2010Prop57
140
1.0
102
RTVSPost2010PropOp57
 70
     1
  0
XRECORD
  5
2C1
102
{ACAD_REACTORS
330
2C0
102
}
330
2C0
100
AcDbXrecord
280
     1
102
RTVSPropertyOp0
 70
     1
102
RTVSPropertyOp1
 70
     1
102
RTVSPropertyOp2
 70
     1
102
RTVSPropertyOp3
 70
     1
102
RTVSPropertyOp4
 70
     1
102
RTVSPropertyOp5
 70
     1
102
RTVSPropertyOp6
 70
     1
102
RTVSPropertyOp7
 70
     1
102
RTVSPropertyOp8
 70
     1
102
RTVSPropertyOp9
 70
     1
102
RTVSPropertyOp10
 70
     1
102
RTVSPropertyOp11
 70
     1
102
RTVSPropertyOp12
 70
     1
102
RTVSPropertyOp13
 70
     1
102
RTVSPropertyOp14
 70
     1
102
RTVSPropertyOp15
 70
     1
102
RTVSPropertyOp16
 70
     1
102
RTVSPropertyOp17
 70
     1
102
RTVSPropertyOp18
 70
     1
102
RTVSPropertyOp19
 70
     1
102
RTVSPropertyOp20
 70
     1
102
RTVSPropertyOp21
 70
     1
102
RTVSPropertyOp22
 70
     1
102
RTVSPropertyOp23
 70
     1
102
RTVSPropertyOp24
 70
     1
102
RTVSPropertyOp25
 70
     1
102
RTVSPropertyOp26
 70
     1
102
RTVSPropertyOp27
 70
     1
102
RTVSPropertyOp28
 70
     1
102
RTVSPropertyOp29
 70
     1
102
RTVSPropertyOp30
 70
     1
102
RTVSPropertyOp31
 70
     1
102
RTVSPropertyOp32
 70
     1
102
RTVSPropertyOp33
 70
     1
102
RTVSPropertyOp34
 70
     1
102
RTVSPropertyOp35
 70
     1
102
RTVSPropertyOp36
 70
     1
102
RTVSPropertyOp37
 70
     1
102
RTVSPropertyOp38
 70
     1
102
RTVSPropertyOp39
 70
     1
102
RTVSPropertyOp40
 70
     1
102
RTVSPropertyOp41
 70
     1
102
RTVSPropertyOp42
 70
     1
102
RTVSPropertyOp43
 70
     1
102
RTVSPropertyOp44
 70
     1
102
RTVSPropertyOp45
 70
     1
102
RTVSPropertyOp46
 70
     1
102
RTVSPropertyOp47
 70
     1
102
RTVSPropertyOp48
 70
     1
102
RTVSPropertyOp49
 70
     1
102
RTVSPropertyOp50
 70
     1
102
RTVSPropertyOp51
 70
     0
102
RTVSPropertyOp52
 70
     0
102
RTVSPropertyOp53
 70
     1
102
RTVSPropertyOp54
 70
     1
102
RTVSPropertyOp55
 70
     1
102
RTVSPropertyOp56
 70
     1
102
RTVSPropertyOp57
 70
     1
102
RTVSPost2010Prop28
280
     0
102
RTVSPost2010PropOp28
 70
     1
102
RTVSPost2010Prop29
280
     1
102
RTVSPost2010PropOp29
 70
     1
102
RTVSPost2010Prop30
280
     1
102
RTVSPost2010PropOp30
 70
     1
102
RTVSPost2010Prop31
280
     0
102
RTVSPost2010PropOp31
 70
     1
102
RTVSPost2010Prop32
280
     0
102
RTVSPost2010PropOp32
 70
     1
102
RTVSPost2010Prop33
280
     0
102
RTVSPost2010PropOp33
 70
     1
102
RTVSPost2010Prop34
280
     0
102
RTVSPost2010PropOp34
 70
     1
102
RTVSPost2010Prop35
280
     0
102
RTVSPost2010PropOp35
 70
     1
102
RTVSPost2010Prop36
280
     0
102
RTVSPost2010PropOp36
 70
     1
102
RTVSPost2010Prop37
 90
       50
102
RTVSPost2010PropOp37
 70
     1
102
RTVSPost2010Prop38
140
0.0
102
RTVSPost2010PropOp38
 70
     1
102
RTVSPost2010Prop39
140
1.0
102
RTVSPost2010PropOp39
 70
     1
102
RTVSPost2010Prop40
 90
        0
102
RTVSPost2010PropOp40
 70
     1
102
RTVSPost2010Prop41ColorIndex
 90
       18
102
RTVSPost2010Prop41ColorRGB
 90
        0
102
RTVSPost2010PropOp41
 70
     1
102
RTVSPost2010Prop42
 90
       50
102
RTVSPost2010PropOp42
 70
     1
102
RTVSPost2010Prop43
 90
        3
102
RTVSPost2010PropOp43
 70
     1
102
RTVSPost2010Prop44ColorIndex
 90
        5
102
RTVSPost2010Prop44ColorRGB
 90
      255
102
RTVSPost2010PropOp44
 70
     1
102
RTVSPost2010Prop45
280
     0
102
RTVSPost2010PropOp45
 70
     1
102
RTVSPost2010Prop46
 90
       50
102
RTVSPost2010PropOp46
 70
     1
102
RTVSPost2010Prop47
 90
       50
102
RTVSPost2010PropOp47
 70
     1
102
RTVSPost2010Prop48
 90
       50
102
RTVSPost2010PropOp48
 70
     1
102
RTVSPost2010Prop49
280
     0
102
RTVSPost2010PropOp49
 70
     1
102
RTVSPost2010Prop50
 90
       50
102
RTVSPost2010PropOp50
 70
     1
102
RTVSPost2010Prop51ColorIndex
 90
      256
102
RTVSPost2010Prop51ColorRGB
 90
-16777216
102
RTVSPost2010PropOp51
 70
     0
102
RTVSPost2010Prop52
140
1.0
102
RTVSPost2010PropOp52
 70
     0
102
RTVSPost2010Prop53
 90
        2
102
RTVSPost2010PropOp53
 70
     1
102
RTVSPost2010Prop54
  1
strokes_ogs.tif
102
RTVSPost2010PropOp54
 70
     1
102
RTVSPost2010Prop55
280
     0
102
RTVSPost2010PropOp55
 70
     1
102
RTVSPost2010Prop56
140
1.0
102
RTVSPost2010PropOp56
 70
     1
102
RTVSPost2010Prop57
140
1.0
102
RTVSPost2010PropOp57
 70
     1
  0
XRECORD
  5
2B3
102
{ACAD_REACTORS
330
2B2
102
}
330
2B2
100
AcDbXrecord
280
     1
102
RTVSPropertyOp0
 70
     1
102
RTVSPropertyOp1
 70
     1
102
RTVSPropertyOp2
 70
     1
102
RTVSPropertyOp3
 70
     1
102
RTVSPropertyOp4
 70
     1
102
RTVSPropertyOp5
 70
     1
102
RTVSPropertyOp6
 70
     1
102
RTVSPropertyOp7
 70
     1
102
RTVSPropertyOp8
 70
     1
102
RTVSPropertyOp9
 70
     1
102
RTVSPropertyOp10
 70
     1
102
RTVSPropertyOp11
 70
     1
102
RTVSPropertyOp12
 70
     1
102
RTVSPropertyOp13
 70
     1
102
RTVSPropertyOp14
 70
     1
102
RTVSPropertyOp15
 70
     1
102
RTVSPropertyOp16
 70
     1
102
RTVSPropertyOp17
 70
     1
102
RTVSPropertyOp18
 70
     1
102
RTVSPropertyOp19
 70
     1
102
RTVSPropertyOp20
 70
     1
102
RTVSPropertyOp21
 70
     1
102
RTVSPropertyOp22
 70
     1
102
RTVSPropertyOp23
 70
     1
102
RTVSPropertyOp24
 70
     1
102
RTVSPropertyOp25
 70
     1
102
RTVSPropertyOp26
 70
     1
102
RTVSPropertyOp27
 70
     1
102
RTVSPropertyOp28
 70
     1
102
RTVSPropertyOp29
 70
     1
102
RTVSPropertyOp30
 70
     1
102
RTVSPropertyOp31
 70
     1
102
RTVSPropertyOp32
 70
     1
102
RTVSPropertyOp33
 70
     1
102
RTVSPropertyOp34
 70
     1
102
RTVSPropertyOp35
 70
     1
102
RTVSPropertyOp36
 70
     1
102
RTVSPropertyOp37
 70
     1
102
RTVSPropertyOp38
 70
     1
102
RTVSPropertyOp39
 70
     1
102
RTVSPropertyOp40
 70
     1
102
RTVSPropertyOp41
 70
     1
102
RTVSPropertyOp42
 70
     1
102
RTVSPropertyOp43
 70
     1
102
RTVSPropertyOp44
 70
     1
102
RTVSPropertyOp45
 70
     1
102
RTVSPropertyOp46
 70
     1
102
RTVSPropertyOp47
 70
     1
102
RTVSPropertyOp48
 70
     1
102
RTVSPropertyOp49
 70
     1
102
RTVSPropertyOp50
 70
     1
102
RTVSPropertyOp51
 70
     0
102
RTVSPropertyOp52
 70
     0
102
RTVSPropertyOp53
 70
     1
102
RTVSPropertyOp54
 70
     1
102
RTVSPropertyOp55
 70
     1
102
RTVSPropertyOp56
 70
     1
102
RTVSPropertyOp57
 70
     1
102
RTVSPost2010Prop28
280
     0
102
RTVSPost2010PropOp28
 70
     1
102
RTVSPost2010Prop29
280
     1
102
RTVSPost2010PropOp29
 70
     1
102
RTVSPost2010Prop30
280
     1
102
RTVSPost2010PropOp30
 70
     1
102
RTVSPost2010Prop31
280
     0
102
RTVSPost2010PropOp31
 70
     1
102
RTVSPost2010Prop32
280
     0
102
RTVSPost2010PropOp32
 70
     1
102
RTVSPost2010Prop33
280
     0
102
RTVSPost2010PropOp33
 70
     1
102
RTVSPost2010Prop34
280
     0
102
RTVSPost2010PropOp34
 70
     1
102
RTVSPost2010Prop35
280
     0
102
RTVSPost2010PropOp35
 70
     1
102
RTVSPost2010Prop36
280
     0
102
RTVSPost2010PropOp36
 70
     1
102
RTVSPost2010Prop37
 90
       50
102
RTVSPost2010PropOp37
 70
     1
102
RTVSPost2010Prop38
140
0.0
102
RTVSPost2010PropOp38
 70
     1
102
RTVSPost2010Prop39
140
1.0
102
RTVSPost2010PropOp39
 70
     1
102
RTVSPost2010Prop40
 90
        0
102
RTVSPost2010PropOp40
 70
     1
102
RTVSPost2010Prop41ColorIndex
 90
       18
102
RTVSPost2010Prop41ColorRGB
 90
        0
102
RTVSPost2010PropOp41
 70
     1
102
RTVSPost2010Prop42
 90
       50
102
RTVSPost2010PropOp42
 70
     1
102
RTVSPost2010Prop43
 90
        3
102
RTVSPost2010PropOp43
 70
     1
102
RTVSPost2010Prop44ColorIndex
 90
        5
102
RTVSPost2010Prop44ColorRGB
 90
      255
102
RTVSPost2010PropOp44
 70
     1
102
RTVSPost2010Prop45
280
     0
102
RTVSPost2010PropOp45
 70
     1
102
RTVSPost2010Prop46
 90
       50
102
RTVSPost2010PropOp46
 70
     1
102
RTVSPost2010Prop47
 90
       50
102
RTVSPost2010PropOp47
 70
     1
102
RTVSPost2010Prop48
 90
       50
102
RTVSPost2010PropOp48
 70
     1
102
RTVSPost2010Prop49
280
     0
102
RTVSPost2010PropOp49
 70
     1
102
RTVSPost2010Prop50
 90
       50
102
RTVSPost2010PropOp50
 70
     1
102
RTVSPost2010Prop51ColorIndex
 90
      256
102
RTVSPost2010Prop51ColorRGB
 90
-16777216
102
RTVSPost2010PropOp51
 70
     0
102
RTVSPost2010Prop52
140
1.0
102
RTVSPost2010PropOp52
 70
     0
102
RTVSPost2010Prop53
 90
        2
102
RTVSPost2010PropOp53
 70
     1
102
RTVSPost2010Prop54
  1
strokes_ogs.tif
102
RTVSPost2010PropOp54
 70
     1
102
RTVSPost2010Prop55
280
     0
102
RTVSPost2010PropOp55
 70
     1
102
RTVSPost2010Prop56
140
1.0
102
RTVSPost2010PropOp56
 70
     1
102
RTVSPost2010Prop57
140
1.0
102
RTVSPost2010PropOp57
 70
     1
  0
XRECORD
  5
2D3
102
{ACAD_REACTORS
330
2D2
102
}
330
2D2
100
AcDbXrecord
280
     1
102
RTVSPropertyOp0
 70
     1
102
RTVSPropertyOp1
 70
     1
102
RTVSPropertyOp2
 70
     1
102
RTVSPropertyOp3
 70
     1
102
RTVSPropertyOp4
 70
     1
102
RTVSPropertyOp5
 70
     1
102
RTVSPropertyOp6
 70
     1
102
RTVSPropertyOp7
 70
     1
102
RTVSPropertyOp8
 70
     1
102
RTVSPropertyOp9
 70
     1
102
RTVSPropertyOp10
 70
     1
102
RTVSPropertyOp11
 70
     1
102
RTVSPropertyOp12
 70
     1
102
RTVSPropertyOp13
 70
     1
102
RTVSPropertyOp14
 70
     1
102
RTVSPropertyOp15
 70
     1
102
RTVSPropertyOp16
 70
     1
102
RTVSPropertyOp17
 70
     1
102
RTVSPropertyOp18
 70
     1
102
RTVSPropertyOp19
 70
     1
102
RTVSPropertyOp20
 70
     1
102
RTVSPropertyOp21
 70
     1
102
RTVSPropertyOp22
 70
     1
102
RTVSPropertyOp23
 70
     1
102
RTVSPropertyOp24
 70
     1
102
RTVSPropertyOp25
 70
     1
102
RTVSPropertyOp26
 70
     1
102
RTVSPropertyOp27
 70
     1
102
RTVSPropertyOp28
 70
     1
102
RTVSPropertyOp29
 70
     1
102
RTVSPropertyOp30
 70
     1
102
RTVSPropertyOp31
 70
     1
102
RTVSPropertyOp32
 70
     1
102
RTVSPropertyOp33
 70
     1
102
RTVSPropertyOp34
 70
     1
102
RTVSPropertyOp35
 70
     1
102
RTVSPropertyOp36
 70
     1
102
RTVSPropertyOp37
 70
     1
102
RTVSPropertyOp38
 70
     1
102
RTVSPropertyOp39
 70
     1
102
RTVSPropertyOp40
 70
     1
102
RTVSPropertyOp41
 70
     1
102
RTVSPropertyOp42
 70
     1
102
RTVSPropertyOp43
 70
     1
102
RTVSPropertyOp44
 70
     1
102
RTVSPropertyOp45
 70
     1
102
RTVSPropertyOp46
 70
     1
102
RTVSPropertyOp47
 70
     1
102
RTVSPropertyOp48
 70
     1
102
RTVSPropertyOp49
 70
     1
102
RTVSPropertyOp50
 70
     1
102
RTVSPropertyOp51
 70
     0
102
RTVSPropertyOp52
 70
     0
102
RTVSPropertyOp53
 70
     1
102
RTVSPropertyOp54
 70
     1
102
RTVSPropertyOp55
 70
     1
102
RTVSPropertyOp56
 70
     1
102
RTVSPropertyOp57
 70
     1
102
RTVSPost2010Prop28
280
     0
102
RTVSPost2010PropOp28
 70
     1
102
RTVSPost2010Prop29
280
     1
102
RTVSPost2010PropOp29
 70
     1
102
RTVSPost2010Prop30
280
     1
102
RTVSPost2010PropOp30
 70
     1
102
RTVSPost2010Prop31
280
     0
102
RTVSPost2010PropOp31
 70
     1
102
RTVSPost2010Prop32
280
     0
102
RTVSPost2010PropOp32
 70
     1
102
RTVSPost2010Prop33
280
     0
102
RTVSPost2010PropOp33
 70
     1
102
RTVSPost2010Prop34
280
     0
102
RTVSPost2010PropOp34
 70
     1
102
RTVSPost2010Prop35
280
     0
102
RTVSPost2010PropOp35
 70
     1
102
RTVSPost2010Prop36
280
     0
102
RTVSPost2010PropOp36
 70
     1
102
RTVSPost2010Prop37
 90
       50
102
RTVSPost2010PropOp37
 70
     1
102
RTVSPost2010Prop38
140
0.0
102
RTVSPost2010PropOp38
 70
     1
102
RTVSPost2010Prop39
140
1.0
102
RTVSPost2010PropOp39
 70
     1
102
RTVSPost2010Prop40
 90
        0
102
RTVSPost2010PropOp40
 70
     1
102
RTVSPost2010Prop41ColorIndex
 90
       18
102
RTVSPost2010Prop41ColorRGB
 90
        0
102
RTVSPost2010PropOp41
 70
     1
102
RTVSPost2010Prop42
 90
       50
102
RTVSPost2010PropOp42
 70
     1
102
RTVSPost2010Prop43
 90
        3
102
RTVSPost2010PropOp43
 70
     1
102
RTVSPost2010Prop44ColorIndex
 90
        5
102
RTVSPost2010Prop44ColorRGB
 90
      255
102
RTVSPost2010PropOp44
 70
     1
102
RTVSPost2010Prop45
280
     0
102
RTVSPost2010PropOp45
 70
     1
102
RTVSPost2010Prop46
 90
       50
102
RTVSPost2010PropOp46
 70
     1
102
RTVSPost2010Prop47
 90
       50
102
RTVSPost2010PropOp47
 70
     1
102
RTVSPost2010Prop48
 90
       50
102
RTVSPost2010PropOp48
 70
     1
102
RTVSPost2010Prop49
280
     0
102
RTVSPost2010PropOp49
 70
     1
102
RTVSPost2010Prop50
 90
       50
102
RTVSPost2010PropOp50
 70
     1
102
RTVSPost2010Prop51ColorIndex
 90
      256
102
RTVSPost2010Prop51ColorRGB
 90
-16777216
102
RTVSPost2010PropOp51
 70
     0
102
RTVSPost2010Prop52
140
1.0
102
RTVSPost2010PropOp52
 70
     0
102
RTVSPost2010Prop53
 90
        2
102
RTVSPost2010PropOp53
 70
     1
102
RTVSPost2010Prop54
  1
strokes_ogs.tif
102
RTVSPost2010PropOp54
 70
     1
102
RTVSPost2010Prop55
280
     0
102
RTVSPost2010PropOp55
 70
     1
102
RTVSPost2010Prop56
140
1.0
102
RTVSPost2010PropOp56
 70
     1
102
RTVSPost2010Prop57
140
1.0
102
RTVSPost2010PropOp57
 70
     1
  0
ENDSEC
  0
EOF
