  0
SECTION
  2
HEADER
  9
$ACADVER
  1
AC1015
  9
$ACADMAINTVER
 70
     6
  9
$DWGCODEPAGE
  3
ANSI_1252
  9
$INSBASE
 10
0.0
 20
0.0
 30
0.0
  9
$EXTMIN
 10
0.0
 20
0.0
 30
0.0
  9
$EXTMAX
 10
297.0
 20
210.0
 30
0.0
  9
$LIMMIN
 10
0.0
 20
0.0
  9
$LIMMAX
 10
297.0
 20
210.0
  9
$ORTHOMODE
 70
     0
  9
$REGENMODE
 70
     1
  9
$FILLMODE
 70
     1
  9
$QTEXTMODE
 70
     0
  9
$MIRRTEXT
 70
     1
  9
$LTSCALE
 40
1.0
  9
$ATTMODE
 70
     1
  9
$TEXTSIZE
 40
2.0
  9
$TRACEWID
 40
1.0
  9
$TEXTSTYLE
  7
Standard
  9
$CLAYER
  8
0
  9
$CELTYPE
  6
ByLayer
  9
$CECOLOR
 62
   256
  9
$CELTSCALE
 40
1.0
  9
$DISPSILH
 70
     0
  9
$DIMSCALE
 40
1.0
  9
$DIMASZ
 40
2.5
  9
$DIMEXO
 40
0.625
  9
$DIMDLI
 40
3.75
  9
$DIMRND
 40
0.0
  9
$DIMDLE
 40
0.0
  9
$DIMEXE
 40
1.25
  9
$DIMTP
 40
0.0
  9
$DIMTM
 40
0.0
  9
$DIMTXT
 40
2.5
  9
$DIMCEN
 40
2.5
  9
$DIMTSZ
 40
0.0
  9
$DIMTOL
 70
     0
  9
$DIMLIM
 70
     0
  9
$DIMTIH
 70
     0
  9
$DIMTOH
 70
     0
  9
$DIMSE1
 70
     0
  9
$DIMSE2
 70
     0
  9
$DIMTAD
 70
     1
  9
$DIMZIN
 70
     8
  9
$DIMBLK
  1

  9
$DIMASO
 70
     1
  9
$DIMSHO
 70
     1
  9
$DIMPOST
  1

  9
$DIMAPOST
  1

  9
$DIMALT
 70
     0
  9
$DIMALTD
 70
     3
  9
$DIMALTF
 40
0.03937007874016
  9
$DIMLFAC
 40
1.0
  9
$DIMTOFL
 70
     1
  9
$DIMTVP
 40
0.0
  9
$DIMTIX
 70
     0
  9
$DIMSOXD
 70
     0
  9
$DIMSAH
 70
     0
  9
$DIMBLK1
  1

  9
$DIMBLK2
  1

  9
$DIMSTYLE
  2
ISO-25
  9
$DIMCLRD
 70
     0
  9
$DIMCLRE
 70
     0
  9
$DIMCLRT
 70
     0
  9
$DIMTFAC
 40
1.0
  9
$DIMGAP
 40
0.625
  9
$DIMJUST
 70
     0
  9
$DIMSD1
 70
     0
  9
$DIMSD2
 70
     0
  9
$DIMTOLJ
 70
     0
  9
$DIMTZIN
 70
     8
  9
$DIMALTZ
 70
     0
  9
$DIMALTTZ
 70
     0
  9
$DIMUPT
 70
     0
  9
$DIMDEC
 70
     2
  9
$DIMTDEC
 70
     2
  9
$DIMALTU
 70
     2
  9
$DIMALTTD
 70
     3
  9
$DIMTXSTY
  7
Standard
  9
$DIMAUNIT
 70
     0
  9
$DIMADEC
 70
     0
  9
$DIMALTRND
 40
0.0
  9
$DIMAZIN
 70
     0
  9
$DIMDSEP
 70
    44
  9
$DIMATFIT
 70
     3
  9
$DIMFRAC
 70
     0
  9
$DIMLDRBLK
  1

  9
$DIMLUNIT
 70
     2
  9
$DIMLWD
 70
    -2
  9
$DIMLWE
 70
    -2
  9
$DIMTMOVE
 70
     0
  9
$LUNITS
 70
     2
  9
$LUPREC
 70
     4
  9
$SKETCHINC
 40
1.0
  9
$FILLETRAD
 40
10.0
  9
$AUNITS
 70
     0
  9
$AUPREC
 70
     0
  9
$MENU
  1
.
  9
$ELEVATION
 40
0.0
  9
$PELEVATION
 40
0.0
  9
$THICKNESS
 40
0.0
  9
$LIMCHECK
 70
     0
  9
$CHAMFERA
 40
0.0
  9
$CHAMFERB
 40
0.0
  9
$CHAMFERC
 40
0.0
  9
$CHAMFERD
 40
0.0
  9
$SKPOLY
 70
     0
  9
$TDCREATE
 40
2459387.600600393
  9
$TDUCREATE
 40
2459387.558933727
  9
$TDUPDATE
 40
2460396.621605613
  9
$TDUUPDATE
 40
2460396.579938947
  9
$TDINDWG
 40
0.0000000116
  9
$TDUSRTIMER
 40
0.0000000116
  9
$USRTIMER
 70
     1
  9
$ANGBASE
 50
0.0
  9
$ANGDIR
 70
     0
  9
$PDMODE
 70
     0
  9
$PDSIZE
 40
0.0
  9
$PLINEWID
 40
0.0
  9
$SPLFRAME
 70
     0
  9
$SPLINETYPE
 70
     6
  9
$SPLINESEGS
 70
     8
  9
$HANDSEED
  5
302
  9
$SURFTAB1
 70
     6
  9
$SURFTAB2
 70
     6
  9
$SURFTYPE
 70
     6
  9
$SURFU
 70
     6
  9
$SURFV
 70
     6
  9
$UCSBASE
  2

  9
$UCSNAME
  2

  9
$UCSORG
 10
0.0
 20
0.0
 30
0.0
  9
$UCSXDIR
 10
1.0
 20
0.0
 30
0.0
  9
$UCSYDIR
 10
0.0
 20
1.0
 30
0.0
  9
$UCSORTHOREF
  2

  9
$UCSORTHOVIEW
 70
     0
  9
$UCSORGTOP
 10
0.0
 20
0.0
 30
0.0
  9
$UCSORGBOTTOM
 10
0.0
 20
0.0
 30
0.0
  9
$UCSORGLEFT
 10
0.0
 20
0.0
 30
0.0
  9
$UCSORGRIGHT
 10
0.0
 20
0.0
 30
0.0
  9
$UCSORGFRONT
 10
0.0
 20
0.0
 30
0.0
  9
$UCSORGBACK
 10
0.0
 20
0.0
 30
0.0
  9
$PUCSBASE
  2

  9
$PUCSNAME
  2

  9
$PUCSORG
 10
0.0
 20
0.0
 30
0.0
  9
$PUCSXDIR
 10
1.0
 20
0.0
 30
0.0
  9
$PUCSYDIR
 10
0.0
 20
1.0
 30
0.0
  9
$PUCSORTHOREF
  2

  9
$PUCSORTHOVIEW
 70
     0
  9
$PUCSORGTOP
 10
0.0
 20
0.0
 30
0.0
  9
$PUCSORGBOTTOM
 10
0.0
 20
0.0
 30
0.0
  9
$PUCSORGLEFT
 10
0.0
 20
0.0
 30
0.0
  9
$PUCSORGRIGHT
 10
0.0
 20
0.0
 30
0.0
  9
$PUCSORGFRONT
 10
0.0
 20
0.0
 30
0.0
  9
$PUCSORGBACK
 10
0.0
 20
0.0
 30
0.0
  9
$USERI1
 70
     0
  9
$USERI2
 70
     0
  9
$USERI3
 70
     0
  9
$USERI4
 70
     0
  9
$USERI5
 70
     0
  9
$USERR1
 40
0.0
  9
$USERR2
 40
0.0
  9
$USERR3
 40
0.0
  9
$USERR4
 40
0.0
  9
$USERR5
 40
0.0
  9
$WORLDVIEW
 70
     1
  9
$SHADEDGE
 70
     3
  9
$SHADEDIF
 70
    70
  9
$TILEMODE
 70
     1
  9
$MAXACTVP
 70
    64
  9
$PINSBASE
 10
0.0
 20
0.0
 30
0.0
  9
$PLIMCHECK
 70
     0
  9
$PEXTMIN
 10
0.0
 20
0.0
 30
0.0
  9
$PEXTMAX
 10
297.0
 20
210.0
 30
0.0
  9
$PLIMMIN
 10
0.0
 20
0.0
  9
$PLIMMAX
 10
297.0
 20
210.0
  9
$UNITMODE
 70
     0
  9
$VISRETAIN
 70
     1
  9
$PLINEGEN
 70
     0
  9
$PSLTSCALE
 70
     1
  9
$TREEDEPTH
 70
  3020
  9
$CMLSTYLE
  2
Standard
  9
$CMLJUST
 70
     0
  9
$CMLSCALE
 40
20.0
  9
$PROXYGRAPHICS
 70
     1
  9
$MEASUREMENT
 70
     1
  9
$CELWEIGHT
370
    -1
  9
$ENDCAPS
280
     0
  9
$JOINSTYLE
280
     0
  9
$LWDISPLAY
290
     0
  9
$INSUNITS
 70
     4
  9
$HYPERLINKBASE
  1

  9
$STYLESHEET
  1

  9
$XEDIT
290
     1
  9
$CEPSNTYPE
380
     0
  9
$PSTYLEMODE
290
     1
  9
$FINGERPRINTGUID
  2
{76D7BF7F-08ED-44B3-BBCD-8CB76DA0EF9A}
  9
$VERSIONGUID
  2
{FAEB1C32-E019-11D5-929B-00C0DF256EC4}
  9
$EXTNAMES
290
     1
  9
$PSVPSCALE
 40
0.0
  9
$OLESTARTUP
290
     0
  0
ENDSEC
  0
SECTION
  2
CLASSES
  0
CLASS
  1
ACDBDICTIONARYWDFLT
  2
AcDbDictionaryWithDefault
  3
ObjectDBX Classes
 90
        0
280
     0
281
     0
  0
CLASS
  1
VISUALSTYLE
  2
AcDbVisualStyle
  3
ObjectDBX Classes
 90
     4095
280
     0
281
     0
  0
CLASS
  1
MATERIAL
  2
AcDbMaterial
  3
ObjectDBX Classes
 90
     1153
280
     0
281
     0
  0
CLASS
  1
SCALE
  2
AcDbScale
  3
ObjectDBX Classes
 90
     1153
280
     0
281
     0
  0
CLASS
  1
TABLESTYLE
  2
AcDbTableStyle
  3
ObjectDBX Classes
 90
     4095
280
     0
281
     0
  0
CLASS
  1
MLEADERSTYLE
  2
AcDbMLeaderStyle
  3
ACDB_MLEADERSTYLE_CLASS
 90
     4095
280
     0
281
     0
  0
CLASS
  1
SUN
  2
AcDbSun
  3
SCENEOE
 90
     1153
280
     0
281
     0
  0
CLASS
  1
DICTIONARYVAR
  2
AcDbDictionaryVar
  3
ObjectDBX Classes
 90
        0
280
     0
281
     0
  0
CLASS
  1
CELLSTYLEMAP
  2
AcDbCellStyleMap
  3
ObjectDBX Classes
 90
     1152
280
     0
281
     0
  0
CLASS
  1
ACDBPLACEHOLDER
  2
AcDbPlaceHolder
  3
ObjectDBX Classes
 90
        0
280
     0
281
     0
  0
CLASS
  1
LAYOUT
  2
AcDbLayout
  3
ObjectDBX Classes
 90
        0
280
     0
281
     0
  0
ENDSEC
  0
SECTION
  2
TABLES
  0
TABLE
  2
VPORT
  5
8
102
{ACAD_XDICTIONARY
360
2C6
102
}
330
0
100
AcDbSymbolTable
 70
     1
  0
VPORT
  5
29
330
8
100
AcDbSymbolTableRecord
100
AcDbViewportTableRecord
  2
*Active
 70
     0
 10
0.0
 20
0.0
 11
1.0
 21
1.0
 12
344.1869158878504
 22
148.5
 13
0.0
 23
0.0
 14
10.0
 24
10.0
 15
10.0
 25
10.0
 16
0.0
 26
0.0
 36
1.0
 17
0.0
 27
0.0
 37
0.0
 40
297.0
 41
1.972972972850329
 42
50.0
 43
0.0
 44
0.0
 50
0.0
 51
0.0
 71
     0
 72
   100
 73
     1
 74
     3
 75
     0
 76
     0
 77
     0
 78
     0
281
     0
 65
     1
110
0.0
120
0.0
130
0.0
111
1.0
121
0.0
131
0.0
112
0.0
122
1.0
132
0.0
 79
     0
146
0.0
  0
ENDTAB
  0
TABLE
  2
LTYPE
  5
5
330
0
100
AcDbSymbolTable
 70
     1
  0
LTYPE
  5
14
330
5
100
AcDbSymbolTableRecord
100
AcDbLinetypeTableRecord
  2
ByBlock
 70
     0
  3

 72
    65
 73
     0
 40
0.0
  0
LTYPE
  5
15
330
5
100
AcDbSymbolTableRecord
100
AcDbLinetypeTableRecord
  2
ByLayer
 70
     0
  3

 72
    65
 73
     0
 40
0.0
  0
LTYPE
  5
16
330
5
100
AcDbSymbolTableRecord
100
AcDbLinetypeTableRecord
  2
Continuous
 70
     0
  3
Solid line
 72
    65
 73
     0
 40
0.0
  0
ENDTAB
  0
TABLE
  2
LAYER
  5
2
330
0
100
AcDbSymbolTable
 70
     8
  0
LAYER
  5
10
330
2
100
AcDbSymbolTableRecord
100
AcDbLayerTableRecord
  2
0
 70
     0
 62
     7
  6
Continuous
370
    -3
390
F
  0
LAYER
  5
6E
330
2
100
AcDbSymbolTableRecord
100
AcDbLayerTableRecord
  2
Default
 70
     0
 62
     7
  6
Continuous
370
    -3
390
F
  0
LAYER
  5
71
330
2
100
AcDbSymbolTableRecord
100
AcDbLayerTableRecord
  2
DV1_0
 70
     0
 62
     7
  6
Continuous
370
    -3
390
F
  0
LAYER
  5
C9
330
2
100
AcDbSymbolTableRecord
100
AcDbLayerTableRecord
  2
DV2_0
 70
     0
 62
     7
  6
Continuous
370
    -3
390
F
  0
LAYER
  5
113
330
2
100
AcDbSymbolTableRecord
100
AcDbLayerTableRecord
  2
DV3_0
 70
     0
 62
     7
  6
Continuous
370
    -3
390
F
  0
LAYER
  5
171
330
2
100
AcDbSymbolTableRecord
100
AcDbLayerTableRecord
  2
DV4_0
 70
     0
 62
     7
  6
Continuous
370
    -3
390
F
  0
LAYER
  5
260
330
2
100
AcDbSymbolTableRecord
100
AcDbLayerTableRecord
  2
Predeterminado
 70
     0
 62
     7
  6
Continuous
370
    -3
390
F
  0
LAYER
  5
27B
330
2
100
AcDbSymbolTableRecord
100
AcDbLayerTableRecord
  2
D
 70
     0
 62
     7
  6
Continuous
370
    -3
390
F
  0
ENDTAB
  0
TABLE
  2
STYLE
  5
3
330
0
100
AcDbSymbolTable
 70
     4
  0
STYLE
  5
11
330
3
100
AcDbSymbolTableRecord
100
AcDbTextStyleTableRecord
  2
Standard
 70
     0
 40
0.0
 41
1.0
 50
0.0
 71
     0
 42
2.0
  3
txt
  4

  0
STYLE
  5
23E
330
3
100
AcDbSymbolTableRecord
100
AcDbTextStyleTableRecord
  2
SEACAD_Solid_Edge_ANSI
 70
     0
 40
0.0
 41
1.0
 50
0.0
 71
     0
 42
2.5
  3
seans.ttf
  4

1001
ACAD
1000
Solid Edge ANSI
1071
        0
  0
STYLE
  5
2BD
330
3
100
AcDbSymbolTableRecord
100
AcDbTextStyleTableRecord
  2
MtXpl_Arial
 70
     0
 40
0.2
 41
1.0
 50
0.0
 71
     0
 42
2.0
  3
arialbd.ttf
  4

1001
ACAD
1000
Arial
1071
 33554466
  0
STYLE
  5
2BE
330
3
100
AcDbSymbolTableRecord
100
AcDbTextStyleTableRecord
  2
MtXpl_Arial1
 70
     0
 40
0.2
 41
1.0
 50
0.0
 71
     0
 42
2.0
  3

  4

1001
ACAD
1000
Arial
1071
       34
  0
ENDTAB
  0
TABLE
  2
VIEW
  5
6
330
0
100
AcDbSymbolTable
 70
     0
  0
ENDTAB
  0
TABLE
  2
UCS
  5
7
330
0
100
AcDbSymbolTable
 70
     0
  0
ENDTAB
  0
TABLE
  2
APPID
  5
9
330
0
100
AcDbSymbolTable
 70
     2
  0
APPID
  5
12
330
9
100
AcDbSymbolTableRecord
100
AcDbRegAppTableRecord
  2
ACAD
 70
     0
  0
APPID
  5
2B4
330
9
100
AcDbSymbolTableRecord
100
AcDbRegAppTableRecord
  2
ACAD_MLEADERVER
 70
     0
  0
ENDTAB
  0
TABLE
  2
DIMSTYLE
  5
A
330
0
100
AcDbSymbolTable
 70
     1
100
AcDbDimStyleTable
  0
DIMSTYLE
105
27
330
A
100
AcDbSymbolTableRecord
100
AcDbDimStyleTableRecord
  2
ISO-25
 70
     0
 41
2.5
 42
0.625
 43
3.75
 44
1.25
 73
     0
 74
     0
 77
     1
 78
     8
140
2.5
141
2.5
143
0.03937007874016
147
0.625
171
     3
172
     1
178
     0
271
     2
272
     2
274
     3
278
    44
283
     0
284
     8
340
11
  0
ENDTAB
  0
TABLE
  2
BLOCK_RECORD
  5
1
330
0
100
AcDbSymbolTable
 70
    11
  0
BLOCK_RECORD
  5
1F
330
1
100
AcDbSymbolTableRecord
100
AcDbBlockTableRecord
  2
*Model_Space
340
22
  0
BLOCK_RECORD
  5
1B
330
1
100
AcDbSymbolTableRecord
100
AcDbBlockTableRecord
  2
*Paper_Space
340
1E
  0
BLOCK_RECORD
  5
6F
330
1
100
AcDbSymbolTableRecord
100
AcDbBlockTableRecord
  2
SE
340
0
102
{BLKREFS
331
70
102
}
  0
BLOCK_RECORD
  5
C7
330
1
100
AcDbSymbolTableRecord
100
AcDbBlockTableRecord
  2
SE1
340
0
102
{BLKREFS
331
C8
102
}
  0
BLOCK_RECORD
  5
111
330
1
100
AcDbSymbolTableRecord
100
AcDbBlockTableRecord
  2
SE2
340
0
102
{BLKREFS
331
112
102
}
  0
BLOCK_RECORD
  5
16F
330
1
100
AcDbSymbolTableRecord
100
AcDbBlockTableRecord
  2
SE3
340
0
102
{BLKREFS
331
170
102
}
  0
BLOCK_RECORD
  5
237
330
1
100
AcDbSymbolTableRecord
100
AcDbBlockTableRecord
  2
GDimGGroup
340
0
102
{BLKREFS
331
238
102
}
  0
BLOCK_RECORD
  5
242
330
1
100
AcDbSymbolTableRecord
100
AcDbBlockTableRecord
  2
GDimGGroup1
340
0
102
{BLKREFS
331
243
102
}
  0
BLOCK_RECORD
  5
24C
330
1
100
AcDbSymbolTableRecord
100
AcDbBlockTableRecord
  2
GDimGGroup2
340
0
102
{BLKREFS
331
24D
102
}
  0
BLOCK_RECORD
  5
256
330
1
100
AcDbSymbolTableRecord
100
AcDbBlockTableRecord
  2
GDimGGroup3
340
0
102
{BLKREFS
331
257
102
}
  0
BLOCK_RECORD
  5
267
330
1
100
AcDbSymbolTableRecord
100
AcDbBlockTableRecord
  2
SEANNOT_GROUP
340
0
102
{BLKREFS
331
268
102
}
  0
BLOCK_RECORD
  5
271
330
1
100
AcDbSymbolTableRecord
100
AcDbBlockTableRecord
  2
SEANNOT_GROUP1
340
0
102
{BLKREFS
331
272
102
}
  0
BLOCK_RECORD
  5
276
330
1
100
AcDbSymbolTableRecord
100
AcDbBlockTableRecord
  2
SEANNOT_GROUP2
340
0
102
{BLKREFS
331
277
102
}
  0
ENDTAB
  0
ENDSEC
  0
SECTION
  2
BLOCKS
  0
BLOCK
  5
20
330
1F
100
AcDbEntity
  8
0
100
AcDbBlockBegin
  2
*Model_Space
 70
     0
 10
0.0
 20
0.0
 30
0.0
  3
*Model_Space
  1

  0
ENDBLK
  5
21
330
1F
100
AcDbEntity
  8
0
100
AcDbBlockEnd
  0
BLOCK
  5
1C
330
1B
100
AcDbEntity
 67
     1
  8
0
100
AcDbBlockBegin
  2
*Paper_Space
 70
     0
 10
0.0
 20
0.0
 30
0.0
  3
*Paper_Space
  1

  0
ENDBLK
  5
1D
330
1B
100
AcDbEntity
 67
     1
  8
0
100
AcDbBlockEnd
  0
BLOCK
  5
C5
330
6F
100
AcDbEntity
  8
0
100
AcDbBlockBegin
  2
SE
 70
     0
 10
0.0
 20
0.0
 30
0.0
  3
SE
  1

  0
LINE
  5
72
330
6F
100
AcDbEntity
  8
DV1_0
 62
     7
370
    35
100
AcDbLine
 10
119.1436342157352
 20
124.3209128200858
 30
0.0
 11
119.1436342157352
 21
104.3709128200858
 31
0.0
  0
LINE
  5
73
330
6F
100
AcDbEntity
  8
DV1_0
 62
     7
370
    35
100
AcDbLine
 10
31.7436342157352
 20
124.3209128200858
 30
0.0
 11
119.1436342157352
 21
124.3209128200858
 31
0.0
  0
LINE
  5
74
330
6F
100
AcDbEntity
  8
DV1_0
 62
     7
370
    35
100
AcDbLine
 10
31.74363421573519
 20
104.3709128200858
 30
0.0
 11
31.7436342157352
 21
124.3209128200858
 31
0.0
  0
LINE
  5
75
330
6F
100
AcDbEntity
  8
DV1_0
 62
     7
370
    35
100
AcDbLine
 10
29.19363421573519
 20
104.3709128200858
 30
0.0
 11
31.74363421573519
 21
104.3709128200858
 31
0.0
  0
LINE
  5
76
330
6F
100
AcDbEntity
  8
DV1_0
 62
     7
370
    35
100
AcDbLine
 10
29.19363421573519
 20
126.8709128200858
 30
0.0
 11
29.19363421573519
 21
104.3709128200858
 31
0.0
  0
LINE
  5
77
330
6F
100
AcDbEntity
  8
DV1_0
 62
     7
370
    35
100
AcDbLine
 10
121.6936342157352
 20
126.8709128200858
 30
0.0
 11
29.19363421573519
 21
126.8709128200858
 31
0.0
  0
LINE
  5
78
330
6F
100
AcDbEntity
  8
DV1_0
 62
     7
370
    35
100
AcDbLine
 10
121.6936342157352
 20
104.3709128200858
 30
0.0
 11
121.6936342157352
 21
126.8709128200858
 31
0.0
  0
LINE
  5
79
330
6F
100
AcDbEntity
  8
DV1_0
 62
     7
370
    35
100
AcDbLine
 10
119.1436342157352
 20
104.3709128200858
 30
0.0
 11
121.6936342157352
 21
104.3709128200858
 31
0.0
  0
LINE
  5
7A
330
6F
100
AcDbEntity
  8
DV1_0
 62
     7
370
    35
100
AcDbLine
 10
119.1436342157352
 20
104.6709128200858
 30
0.0
 11
117.8936342157352
 21
104.6709128200858
 31
0.0
  0
LINE
  5
7B
330
6F
100
AcDbEntity
  8
DV1_0
 62
     7
370
    25
100
AcDbLine
 10
117.8936342157352
 20
104.6709128200858
 30
0.0
 11
117.8936342157352
 21
104.3709128200858
 31
0.0
  0
LINE
  5
7C
330
6F
100
AcDbEntity
  8
DV1_0
 62
     7
370
    35
100
AcDbLine
 10
117.8936342157352
 20
104.6709128200858
 30
0.0
 11
117.6436342157352
 21
104.6709128200858
 31
0.0
  0
LINE
  5
7D
330
6F
100
AcDbEntity
  8
DV1_0
 62
     7
370
    35
100
AcDbLine
 10
117.6436342157352
 20
104.6709128200858
 30
0.0
 11
117.6436342157352
 21
104.3709128200858
 31
0.0
  0
LINE
  5
7E
330
6F
100
AcDbEntity
  8
DV1_0
 62
     7
370
    35
100
AcDbLine
 10
119.1436342157352
 20
104.3709128200858
 30
0.0
 11
117.8936342157352
 21
104.3709128200858
 31
0.0
  0
LINE
  5
7F
330
6F
100
AcDbEntity
  8
DV1_0
 62
     7
370
    35
100
AcDbLine
 10
117.8936342157352
 20
104.3709128200858
 30
0.0
 11
117.6436342157352
 21
104.3709128200858
 31
0.0
  0
LINE
  5
80
330
6F
100
AcDbEntity
  8
DV1_0
 62
     7
370
    35
100
AcDbLine
 10
31.74363421573519
 20
104.3709128200858
 30
0.0
 11
32.99363421573519
 21
104.3709128200858
 31
0.0
  0
LINE
  5
81
330
6F
100
AcDbEntity
  8
DV1_0
 62
     7
370
    35
100
AcDbLine
 10
32.99363421573518
 20
104.3709128200858
 30
0.0
 11
33.24363421573518
 21
104.3709128200858
 31
0.0
  0
LINE
  5
82
330
6F
100
AcDbEntity
  8
DV1_0
 62
     7
370
    25
100
AcDbLine
 10
32.99363421573518
 20
104.6709128200858
 30
0.0
 11
32.99363421573518
 21
104.3709128200858
 31
0.0
  0
LINE
  5
83
330
6F
100
AcDbEntity
  8
DV1_0
 62
     7
370
    35
100
AcDbLine
 10
33.24363421573518
 20
104.6709128200858
 30
0.0
 11
33.24363421573518
 21
104.3709128200858
 31
0.0
  0
LINE
  5
84
330
6F
100
AcDbEntity
  8
DV1_0
 62
     7
370
    35
100
AcDbLine
 10
31.74363421573519
 20
104.6709128200858
 30
0.0
 11
32.99363421573519
 21
104.6709128200858
 31
0.0
  0
LINE
  5
85
330
6F
100
AcDbEntity
  8
DV1_0
 62
     7
370
    35
100
AcDbLine
 10
32.99363421573518
 20
104.6709128200858
 30
0.0
 11
33.24363421573518
 21
104.6709128200858
 31
0.0
  0
ARC
  5
86
330
6F
100
AcDbEntity
  8
DV1_0
 62
     7
370
    35
100
AcDbCircle
 10
119.0936342157352
 20
124.2709128200858
 30
0.0
 40
0.0500000000000001
100
AcDbArc
 50
0.0
 51
90.0
  0
LINE
  5
87
330
6F
100
AcDbEntity
  8
DV1_0
 62
     7
370
    35
100
AcDbLine
 10
31.74547417995344
 20
122.1209128200858
 30
0.0
 11
31.74547417995344
 21
124.2709128200858
 31
0.0
  0
LINE
  5
88
330
6F
100
AcDbEntity
  8
DV1_0
 62
     7
370
    35
100
AcDbLine
 10
31.74547417995344
 20
122.1209128200858
 30
0.0
 11
31.7436342157352
 21
122.1209128200858
 31
0.0
  0
ARC
  5
89
330
6F
100
AcDbEntity
  8
DV1_0
 62
     7
370
    35
100
AcDbCircle
 10
31.79547417995344
 20
124.2709128200858
 30
0.0
 40
0.0500000000000001
100
AcDbArc
 50
90.0
 51
180.0
  0
LINE
  5
8A
330
6F
100
AcDbEntity
  8
DV1_0
 62
     7
370
    35
100
AcDbLine
 10
71.69363421573519
 20
126.9348498907309
 30
0.0
 11
71.69363421573519
 21
132.7240027130528
 31
0.0
  0
LINE
  5
8B
330
6F
100
AcDbEntity
  8
DV1_0
 62
     7
370
    35
100
AcDbLine
 10
29.19363421573518
 20
126.9348498907309
 30
0.0
 11
71.69363421573519
 21
126.9348498907309
 31
0.0
  0
LINE
  5
8C
330
6F
100
AcDbEntity
  8
DV1_0
 62
     7
370
    35
100
AcDbLine
 10
29.19363421573518
 20
132.7240027130528
 30
0.0
 11
29.19363421573518
 21
126.934849890731
 31
0.0
  0
LINE
  5
8D
330
6F
100
AcDbEntity
  8
DV1_0
 62
     7
370
    35
100
AcDbLine
 10
29.19363421573518
 20
126.9348498907309
 30
0.0
 11
71.69363421573517
 21
126.9348498907309
 31
0.0
  0
LINE
  5
8E
330
6F
100
AcDbEntity
  8
DV1_0
 62
     7
370
    35
100
AcDbLine
 10
71.69363421573517
 20
126.9348498907309
 30
0.0
 11
71.69363421573517
 21
126.8709128200858
 31
0.0
  0
LINE
  5
8F
330
6F
100
AcDbEntity
  8
DV1_0
 62
     7
370
    35
100
AcDbLine
 10
29.19363421573518
 20
126.9348498907309
 30
0.0
 11
29.19363421573519
 21
126.8709128200858
 31
0.0
  0
LINE
  5
90
330
6F
100
AcDbEntity
  8
DV1_0
 62
     7
370
    35
100
AcDbLine
 10
31.75547417995345
 20
123.4916234982044
 30
0.0
 11
31.75547417995344
 21
122.9002021419671
 31
0.0
  0
LINE
  5
91
330
6F
100
AcDbEntity
  8
DV1_0
 62
     7
370
    35
100
AcDbLine
 10
31.75547417995344
 20
123.4916234982044
 30
0.0
 11
31.74547417995344
 21
123.4816234982044
 31
0.0
  0
LINE
  5
92
330
6F
100
AcDbEntity
  8
DV1_0
 62
     7
370
    35
100
AcDbLine
 10
31.74547417995344
 20
122.9102021419671
 30
0.0
 11
31.75547417995344
 21
122.9002021419671
 31
0.0
  0
LINE
  5
93
330
6F
100
AcDbEntity
  8
DV1_0
 62
     7
370
    35
100
AcDbLine
 10
33.16618485807208
 20
124.3109128200858
 30
0.0
 11
32.57476350183479
 21
124.3109128200858
 31
0.0
  0
LINE
  5
94
330
6F
100
AcDbEntity
  8
DV1_0
 62
     7
370
    35
100
AcDbLine
 10
33.16618485807209
 20
124.3109128200858
 30
0.0
 11
33.15618485807209
 21
124.3209128200858
 31
0.0
  0
LINE
  5
95
330
6F
100
AcDbEntity
  8
DV1_0
 62
     7
370
    35
100
AcDbLine
 10
32.58476350183479
 20
124.3209128200858
 30
0.0
 11
32.57476350183479
 21
124.3109128200858
 31
0.0
  0
LINE
  5
96
330
6F
100
AcDbEntity
  8
DV1_0
 62
     7
370
    35
100
AcDbLine
 10
117.7229235376165
 20
124.3109128200858
 30
0.0
 11
118.3143448938538
 21
124.3109128200858
 31
0.0
  0
LINE
  5
97
330
6F
100
AcDbEntity
  8
DV1_0
 62
     7
370
    35
100
AcDbLine
 10
118.3143448938538
 20
124.3109128200858
 30
0.0
 11
118.3043448938538
 21
124.3209128200858
 31
0.0
  0
LINE
  5
98
330
6F
100
AcDbEntity
  8
DV1_0
 62
     7
370
    35
100
AcDbLine
 10
117.7329235376165
 20
124.3209128200858
 30
0.0
 11
117.7229235376165
 21
124.3109128200858
 31
0.0
  0
LINE
  5
99
330
6F
100
AcDbEntity
  8
DV1_0
 62
     7
370
    35
100
AcDbLine
 10
119.1336342157352
 20
122.9002021419671
 30
0.0
 11
119.1336342157352
 21
123.4916234982044
 31
0.0
  0
LINE
  5
9A
330
6F
100
AcDbEntity
  8
DV1_0
 62
     7
370
    35
100
AcDbLine
 10
119.1336342157352
 20
122.9002021419671
 30
0.0
 11
119.1436342157352
 21
122.9102021419671
 31
0.0
  0
LINE
  5
9B
330
6F
100
AcDbEntity
  8
DV1_0
 62
     7
370
    35
100
AcDbLine
 10
119.1436342157352
 20
123.4816234982045
 30
0.0
 11
119.1336342157352
 21
123.4916234982044
 31
0.0
  0
LINE
  5
9C
330
6F
100
AcDbEntity
  8
DV1_0
 62
     7
370
    35
100
AcDbLine
 10
29.19363421573518
 20
132.8838453896649
 30
0.0
 11
29.19363421573518
 21
132.7240027130528
 31
0.0
  0
LINE
  5
9D
330
6F
100
AcDbEntity
  8
DV1_0
 62
     7
370
    35
100
AcDbLine
 10
71.69363421573519
 20
132.8838453896649
 30
0.0
 11
71.69363421573519
 21
132.7240027130528
 31
0.0
  0
LINE
  5
9E
330
6F
100
AcDbEntity
  8
DV1_0
 62
     7
370
    25
100
AcDbLine
 10
71.69363421573519
 20
132.8838453896649
 30
0.0
 11
29.19363421573518
 21
132.8838453896649
 31
0.0
  0
LINE
  5
9F
330
6F
100
AcDbEntity
  8
DV1_0
 62
     7
370
    25
100
AcDbLine
 10
71.44363421573519
 20
142.9516351220523
 30
0.0
 11
29.44363421573519
 21
142.9516351220523
 31
0.0
  0
LINE
  5
A0
330
6F
100
AcDbEntity
  8
DV1_0
 62
     7
370
    25
100
AcDbLine
 10
71.44363421573519
 20
133.1813825950441
 30
0.0
 11
71.44363421573519
 21
142.9516351220523
 31
0.0
  0
LINE
  5
A1
330
6F
100
AcDbEntity
  8
DV1_0
 62
     7
370
    25
100
AcDbLine
 10
29.44363421573518
 20
142.9516351220523
 30
0.0
 11
29.44363421573518
 21
133.1813825950441
 31
0.0
  0
LINE
  5
A2
330
6F
100
AcDbEntity
  8
DV1_0
 62
     7
370
    25
100
AcDbLine
 10
29.44363421573518
 20
133.1813825950441
 30
0.0
 11
71.44363421573517
 21
133.1813825950441
 31
0.0
  0
LINE
  5
A3
330
6F
100
AcDbEntity
  8
DV1_0
 62
     7
370
    35
100
AcDbLine
 10
29.19363421573518
 20
132.8838453896649
 30
0.0
 11
29.19363421573518
 21
143.1426105430235
 31
0.0
  0
LINE
  5
A4
330
6F
100
AcDbEntity
  8
DV1_0
 62
     7
370
    35
100
AcDbLine
 10
71.69363421573519
 20
143.1426105430235
 30
0.0
 11
71.69363421573519
 21
132.8838453896649
 31
0.0
  0
ELLIPSE
  5
A5
330
6F
100
AcDbEntity
  8
DV1_0
 62
     7
370
    35
100
AcDbEllipse
 10
71.44363421573519
 20
142.8983542298483
 30
0.0
 11
-0.2485599306945931
 21
-0.2485599306945918
 31
0.0
210
0.0
220
0.0
230
0.9999999999999998
 40
0.1078001247201651
 41
3.034207218224067
 42
4.605003545018837
  0
ELLIPSE
  5
A6
330
6F
100
AcDbEntity
  8
DV1_0
 62
     7
370
    35
100
AcDbEllipse
 10
29.44363421573518
 20
142.8983542298483
 30
0.0
 11
0.2485599306945974
 21
-0.2485599306945863
 31
0.0
210
0.0
220
0.0
230
1.0
 40
0.1078001247201561
 41
1.678181762160769
 42
3.248978088955887
  0
ELLIPSE
  5
A7
330
6F
100
AcDbEntity
  8
DV1_0
 62
     7
370
    35
100
AcDbEllipse
 10
71.44363421573519
 20
133.1281017028401
 30
0.0
 11
0.2485599306945925
 21
-0.2485599306945919
 31
0.0
210
0.0
220
0.0
230
1.0
 40
0.1078001247201702
 41
0.1073854353662433
 42
1.678181762160807
  0
ELLIPSE
  5
A8
330
6F
100
AcDbEntity
  8
DV1_0
 62
     7
370
    35
100
AcDbEllipse
 10
29.44363421573518
 20
133.1281017028401
 30
0.0
 11
0.2485599306945918
 21
0.2485599306945918
 31
0.0
210
0.0
220
0.0
230
0.9999999999999998
 40
0.1078001247201716
 41
1.463410891429101
 42
3.034207218224095
  0
LINE
  5
A9
330
6F
100
AcDbEntity
  8
DV1_0
 62
     7
370
    25
100
AcDbLine
 10
29.19363421573518
 20
132.7240027130528
 30
0.0
 11
71.69363421573519
 21
132.7240027130528
 31
0.0
  0
ELLIPSE
  5
AA
330
6F
100
AcDbEntity
  8
DV1_0
 62
     7
370
    35
100
AcDbEllipse
 10
71.44363421573519
 20
132.968259026228
 30
0.0
 11
-0.2485599306945925
 21
0.2485599306945946
 31
0.0
210
0.0
220
0.0
230
1.0
 40
0.1078001247201759
 41
3.034207218224297
 42
3.248978088955558
  0
ELLIPSE
  5
AB
330
6F
100
AcDbEntity
  8
DV1_0
 62
     7
370
    35
100
AcDbEllipse
 10
29.44363421573516
 20
132.968259026228
 30
0.0
 11
0.2485599306945863
 21
0.2485599306945946
 31
0.0
210
0.0
220
0.0
230
1.0
 40
0.1078001247201861
 41
3.034207218224079
 42
3.248978088955837
  0
LINE
  5
AC
330
6F
100
AcDbEntity
  8
DV1_0
 62
     7
370
    35
100
AcDbLine
 10
71.68789052891037
 20
143.1483542298483
 30
0.0
 11
29.19937790255997
 21
143.1483542298483
 31
0.0
  0
LINE
  5
AD
330
6F
100
AcDbEntity
  8
DV1_0
 62
     7
370
    35
100
AcDbLine
 10
29.19937790255998
 20
132.718259026228
 30
0.0
 11
71.68789052891039
 21
132.718259026228
 31
0.0
  0
LINE
  5
AE
330
6F
100
AcDbEntity
  8
DV1_0
 62
     7
370
    25
100
AcDbLine
 10
79.44363421573519
 20
133.1813825950441
 30
0.0
 11
121.4436342157352
 21
133.1813825950441
 31
0.0
  0
LINE
  5
AF
330
6F
100
AcDbEntity
  8
DV1_0
 62
     7
370
    25
100
AcDbLine
 10
79.44363421573519
 20
142.9516351220523
 30
0.0
 11
79.44363421573519
 21
133.1813825950441
 31
0.0
  0
LINE
  5
B0
330
6F
100
AcDbEntity
  8
DV1_0
 62
     7
370
    25
100
AcDbLine
 10
121.4436342157352
 20
133.1813825950441
 30
0.0
 11
121.4436342157352
 21
142.9516351220523
 31
0.0
  0
LINE
  5
B1
330
6F
100
AcDbEntity
  8
DV1_0
 62
     7
370
    25
100
AcDbLine
 10
121.4436342157352
 20
142.9516351220523
 30
0.0
 11
79.44363421573519
 21
142.9516351220523
 31
0.0
  0
LINE
  5
B2
330
6F
100
AcDbEntity
  8
DV1_0
 62
     7
370
    35
100
AcDbLine
 10
121.6936342157352
 20
143.1426105430235
 30
0.0
 11
121.6936342157352
 21
132.8838453896649
 31
0.0
  0
LINE
  5
B3
330
6F
100
AcDbEntity
  8
DV1_0
 62
     7
370
    35
100
AcDbLine
 10
79.19363421573519
 20
132.8838453896649
 30
0.0
 11
79.19363421573519
 21
143.1426105430235
 31
0.0
  0
LINE
  5
B4
330
6F
100
AcDbEntity
  8
DV1_0
 62
     7
370
    25
100
AcDbLine
 10
121.6936342157352
 20
132.8838453896649
 30
0.0
 11
79.19363421573522
 21
132.8838453896649
 31
0.0
  0
ELLIPSE
  5
B5
330
6F
100
AcDbEntity
  8
DV1_0
 62
     7
370
    35
100
AcDbEllipse
 10
79.44363421573519
 20
133.1281017028401
 30
0.0
 11
-0.2485599306945925
 21
-0.2485599306945919
 31
0.0
210
0.0
220
0.0
230
1.0
 40
0.1078001247201702
 41
4.605003545018779
 42
6.175799871813877
  0
ELLIPSE
  5
B6
330
6F
100
AcDbEntity
  8
DV1_0
 62
     7
370
    35
100
AcDbEllipse
 10
121.4436342157352
 20
133.1281017028401
 30
0.0
 11
-0.2485599306945918
 21
0.2485599306945918
 31
0.0
210
0.0
220
0.0
230
0.9999999999999998
 40
0.1078001247201716
 41
3.248978088955491
 42
4.819774415750485
  0
ELLIPSE
  5
B7
330
6F
100
AcDbEntity
  8
DV1_0
 62
     7
370
    35
100
AcDbEllipse
 10
79.4436342157352
 20
142.8983542298483
 30
0.0
 11
0.2485599306945925
 21
-0.2485599306945919
 31
0.0
210
0.0
220
0.0
230
1.0
 40
0.107800124720169
 41
1.678181762160779
 42
3.248978088955503
  0
ELLIPSE
  5
B8
330
6F
100
AcDbEntity
  8
DV1_0
 62
     7
370
    35
100
AcDbEllipse
 10
121.4436342157352
 20
142.8983542298483
 30
0.0
 11
-0.2485599306945974
 21
-0.2485599306945918
 31
0.0
210
0.0
220
0.0
230
0.9999999999999999
 40
0.1078001247201689
 41
3.034207218224794
 42
4.60500354501881
  0
LINE
  5
B9
330
6F
100
AcDbEntity
  8
DV1_0
 62
     7
370
    35
100
AcDbLine
 10
121.6936342157352
 20
132.7240027130528
 30
0.0
 11
121.6936342157352
 21
132.8838453896649
 31
0.0
  0
LINE
  5
BA
330
6F
100
AcDbEntity
  8
DV1_0
 62
     7
370
    35
100
AcDbLine
 10
79.19363421573519
 20
132.7240027130528
 30
0.0
 11
79.19363421573519
 21
132.8838453896649
 31
0.0
  0
LINE
  5
BB
330
6F
100
AcDbEntity
  8
DV1_0
 62
     7
370
    25
100
AcDbLine
 10
79.19363421573519
 20
132.7240027130528
 30
0.0
 11
121.6936342157352
 21
132.7240027130528
 31
0.0
  0
ELLIPSE
  5
BC
330
6F
100
AcDbEntity
  8
DV1_0
 62
     7
370
    35
100
AcDbEllipse
 10
79.44363421573519
 20
132.968259026228
 30
0.0
 11
0.2485599306945925
 21
0.2485599306945919
 31
0.0
210
0.0
220
0.0
230
1.0
 40
0.1078001247201726
 41
3.034207218224083
 42
3.24897808895577
  0
ELLIPSE
  5
BD
330
6F
100
AcDbEntity
  8
DV1_0
 62
     7
370
    35
100
AcDbEllipse
 10
121.4436342157352
 20
132.968259026228
 30
0.0
 11
-0.2485599306945863
 21
0.2485599306945918
 31
0.0
210
0.0
220
0.0
230
1.0
 40
0.1078001247201837
 41
3.034207218224199
 42
3.248978088954857
  0
LINE
  5
BE
330
6F
100
AcDbEntity
  8
DV1_0
 62
     7
370
    35
100
AcDbLine
 10
121.6878905289104
 20
143.1483542298483
 30
0.0
 11
79.19937790256
 21
143.1483542298483
 31
0.0
  0
LINE
  5
BF
330
6F
100
AcDbEntity
  8
DV1_0
 62
     7
370
    35
100
AcDbLine
 10
79.19937790256
 20
132.718259026228
 30
0.0
 11
121.6878905289104
 21
132.718259026228
 31
0.0
  0
LINE
  5
C0
330
6F
100
AcDbEntity
  8
DV1_0
 62
     7
370
    35
100
AcDbLine
 10
121.6936342157352
 20
126.934849890731
 30
0.0
 11
121.6936342157352
 21
132.7240027130528
 31
0.0
  0
LINE
  5
C1
330
6F
100
AcDbEntity
  8
DV1_0
 62
     7
370
    35
100
AcDbLine
 10
79.19363421573519
 20
126.934849890731
 30
0.0
 11
121.6936342157352
 21
126.934849890731
 31
0.0
  0
LINE
  5
C2
330
6F
100
AcDbEntity
  8
DV1_0
 62
     7
370
    35
100
AcDbLine
 10
79.19363421573519
 20
132.7240027130528
 30
0.0
 11
79.19363421573519
 21
126.934849890731
 31
0.0
  0
LINE
  5
C3
330
6F
100
AcDbEntity
  8
DV1_0
 62
     7
370
    35
100
AcDbLine
 10
121.6936342157352
 20
126.8709128200862
 30
0.0
 11
121.6936342157352
 21
126.934849890731
 31
0.0
  0
LINE
  5
C4
330
6F
100
AcDbEntity
  8
DV1_0
 62
     7
370
    35
100
AcDbLine
 10
79.19363421573519
 20
126.8709128200862
 30
0.0
 11
79.19363421573519
 21
126.934849890731
 31
0.0
  0
ENDBLK
  5
C6
330
6F
100
AcDbEntity
  8
0
100
AcDbBlockEnd
  0
BLOCK
  5
10F
330
C7
100
AcDbEntity
  8
0
100
AcDbBlockBegin
  2
SE1
 70
     0
 10
0.0
 20
0.0
 30
0.0
  3
SE1
  1

  0
LINE
  5
CA
330
C7
100
AcDbEntity
  8
DV2_0
 62
     7
370
    35
100
AcDbLine
 10
212.0549480545665
 20
126.8709128200858
 30
0.0
 11
212.0549480545665
 21
104.3709128200858
 31
0.0
  0
LINE
  5
CB
330
C7
100
AcDbEntity
  8
DV2_0
 62
     7
370
    35
100
AcDbLine
 10
212.3549480545665
 20
126.8709128200858
 30
0.0
 11
212.3549480545665
 21
104.3709128200858
 31
0.0
  0
LINE
  5
CC
330
C7
100
AcDbEntity
  8
DV2_0
 62
     7
370
    35
100
AcDbLine
 10
212.0549480545665
 20
104.3709128200858
 30
0.0
 11
212.3549480545665
 21
104.3709128200858
 31
0.0
  0
LINE
  5
CD
330
C7
100
AcDbEntity
  8
DV2_0
 62
     7
370
    35
100
AcDbLine
 10
212.0549480545665
 20
126.8709128200858
 30
0.0
 11
212.3549480545665
 21
126.8709128200858
 31
0.0
  0
LINE
  5
CE
330
C7
100
AcDbEntity
  8
DV2_0
 62
     7
370
    35
100
AcDbLine
 10
190.1549480545665
 20
104.3709128200858
 30
0.0
 11
212.0549480545665
 21
104.3709128200858
 31
0.0
  0
LINE
  5
CF
330
C7
100
AcDbEntity
  8
DV2_0
 62
     7
370
    35
100
AcDbLine
 10
190.1549480545665
 20
104.6709128200858
 30
0.0
 11
212.0549480545665
 21
104.6709128200858
 31
0.0
  0
LINE
  5
D0
330
C7
100
AcDbEntity
  8
DV2_0
 62
     7
370
    35
100
AcDbLine
 10
212.0549480545665
 20
104.3709128200858
 30
0.0
 11
212.0549480545665
 21
104.6709128200858
 31
0.0
  0
LINE
  5
D1
330
C7
100
AcDbEntity
  8
DV2_0
 62
     7
370
    35
100
AcDbLine
 10
190.1549480545665
 20
104.3709128200858
 30
0.0
 11
190.1549480545665
 21
104.6709128200858
 31
0.0
  0
LINE
  5
D2
330
C7
100
AcDbEntity
  8
DV2_0
 62
     7
370
    35
100
AcDbLine
 10
189.8549480545665
 20
126.8709128200858
 30
0.0
 11
189.8549480545665
 21
104.3709128200858
 31
0.0
  0
LINE
  5
D3
330
C7
100
AcDbEntity
  8
DV2_0
 62
     7
370
    35
100
AcDbLine
 10
190.1549480545665
 20
126.8709128200858
 30
0.0
 11
190.1549480545665
 21
104.3709128200858
 31
0.0
  0
LINE
  5
D4
330
C7
100
AcDbEntity
  8
DV2_0
 62
     7
370
    35
100
AcDbLine
 10
189.8549480545665
 20
104.3709128200858
 30
0.0
 11
190.1549480545665
 21
104.3709128200858
 31
0.0
  0
LINE
  5
D5
330
C7
100
AcDbEntity
  8
DV2_0
 62
     7
370
    35
100
AcDbLine
 10
189.8549480545665
 20
126.8709128200858
 30
0.0
 11
190.1549480545665
 21
126.8709128200858
 31
0.0
  0
LINE
  5
D6
330
C7
100
AcDbEntity
  8
DV2_0
 62
     7
370
    35
100
AcDbLine
 10
200.6549480545665
 20
122.1209128200858
 30
0.0
 11
201.5549480545665
 21
122.1209128200858
 31
0.0
  0
LINE
  5
D7
330
C7
100
AcDbEntity
  8
DV2_0
 62
     7
370
    25
100
AcDbLine
 10
201.5549480545665
 20
124.2709128200858
 30
0.0
 11
200.6549480545665
 21
124.2709128200858
 31
0.0
  0
LINE
  5
D8
330
C7
100
AcDbEntity
  8
DV2_0
 62
     7
370
    35
100
AcDbLine
 10
190.1549480545665
 20
124.6209128200858
 30
0.0
 11
190.4049480545665
 21
124.6209128200858
 31
0.0
  0
LINE
  5
D9
330
C7
100
AcDbEntity
  8
DV2_0
 62
     7
370
    35
100
AcDbLine
 10
200.4049480545665
 20
124.6209128200858
 30
0.0
 11
201.8049480545665
 21
124.6209128200858
 31
0.0
  0
LINE
  5
DA
330
C7
100
AcDbEntity
  8
DV2_0
 62
     7
370
    35
100
AcDbLine
 10
211.8049480545665
 20
124.6209128200858
 30
0.0
 11
212.0549480545665
 21
124.6209128200858
 31
0.0
  0
LINE
  5
DB
330
C7
100
AcDbEntity
  8
DV2_0
 62
     7
370
    35
100
AcDbLine
 10
186.3659551879792
 20
142.8655499035625
 30
0.0
 11
189.8549480545661
 21
126.8709128200861
 31
0.0
  0
LINE
  5
DC
330
C7
100
AcDbEntity
  8
DV2_0
 62
     7
370
    35
100
AcDbLine
 10
186.6590627637894
 20
142.9294869742074
 30
0.0
 11
190.1480556303764
 21
126.934849890731
 31
0.0
  0
LINE
  5
DD
330
C7
100
AcDbEntity
  8
DV2_0
 62
     7
370
    35
100
AcDbLine
 10
186.3659551879792
 20
142.8655499035625
 30
0.0
 11
186.6590627637894
 21
142.9294869742074
 31
0.0
  0
LINE
  5
DE
330
C7
100
AcDbEntity
  8
DV2_0
 62
     7
370
    35
100
AcDbLine
 10
189.8549480545662
 20
126.8709128200861
 30
0.0
 11
190.1480556303764
 21
126.934849890731
 31
0.0
  0
LINE
  5
DF
330
C7
100
AcDbEntity
  8
DV2_0
 62
     7
370
    35
100
AcDbLine
 10
189.8549480545663
 20
126.8709128200862
 30
0.0
 11
190.1480556303764
 21
126.934849890731
 31
0.0
  0
LINE
  5
E0
330
C7
100
AcDbEntity
  8
DV2_0
 62
     7
370
    35
100
AcDbLine
 10
189.8549480545665
 20
126.8709128200858
 30
0.0
 11
190.1480556303764
 21
126.8709128200858
 31
0.0
  0
LINE
  5
E1
330
C7
100
AcDbEntity
  8
DV2_0
 62
     7
370
    35
100
AcDbLine
 10
190.1480556303764
 20
126.9348498907309
 30
0.0
 11
190.1480556303764
 21
126.8709128200858
 31
0.0
  0
LINE
  5
E2
330
C7
100
AcDbEntity
  8
DV2_0
 62
     7
370
    35
100
AcDbLine
 10
200.6549480545665
 20
126.6209128200858
 30
0.0
 11
200.6549480545665
 21
124.8709128200858
 31
0.0
  0
ARC
  5
E3
330
C7
100
AcDbEntity
  8
DV2_0
 62
     7
370
    35
100
AcDbCircle
 10
200.4049480545665
 20
126.6209128200858
 30
0.0
 40
0.2500000000000002
100
AcDbArc
 50
0.0
 51
90.0
  0
LINE
  5
E4
330
C7
100
AcDbEntity
  8
DV2_0
 62
     7
370
    35
100
AcDbLine
 10
190.1549480545665
 20
124.8709128200858
 30
0.0
 11
190.1549480545665
 21
126.6209128200858
 31
0.0
  0
ARC
  5
E5
330
C7
100
AcDbEntity
  8
DV2_0
 62
     7
370
    35
100
AcDbCircle
 10
190.4049480545665
 20
124.8709128200858
 30
0.0
 40
0.2500000000000002
100
AcDbArc
 50
180.0
 51
270.0
  0
LINE
  5
E6
330
C7
100
AcDbEntity
  8
DV2_0
 62
     7
370
    35
100
AcDbLine
 10
200.4049480545665
 20
124.6209128200858
 30
0.0
 11
190.4049480545665
 21
124.6209128200858
 31
0.0
  0
ARC
  5
E7
330
C7
100
AcDbEntity
  8
DV2_0
 62
     7
370
    35
100
AcDbCircle
 10
200.4049480545665
 20
124.8709128200858
 30
0.0
 40
0.2500000000000002
100
AcDbArc
 50
270.0
 51
0.0
  0
LINE
  5
E8
330
C7
100
AcDbEntity
  8
DV2_0
 62
     7
370
    35
100
AcDbLine
 10
190.4049480545665
 20
126.8709128200858
 30
0.0
 11
200.4049480545665
 21
126.8709128200858
 31
0.0
  0
ARC
  5
E9
330
C7
100
AcDbEntity
  8
DV2_0
 62
     7
370
    35
100
AcDbCircle
 10
190.4049480545665
 20
126.6209128200858
 30
0.0
 40
0.2500000000000002
100
AcDbArc
 50
90.0
 51
180.0
  0
LINE
  5
EA
330
C7
100
AcDbEntity
  8
DV2_0
 62
     7
370
    35
100
AcDbLine
 10
212.0549480545665
 20
126.6209128200858
 30
0.0
 11
212.0549480545665
 21
124.8709128200858
 31
0.0
  0
ARC
  5
EB
330
C7
100
AcDbEntity
  8
DV2_0
 62
     7
370
    35
100
AcDbCircle
 10
211.8049480545665
 20
126.6209128200858
 30
0.0
 40
0.2500000000000002
100
AcDbArc
 50
0.0
 51
90.0
  0
LINE
  5
EC
330
C7
100
AcDbEntity
  8
DV2_0
 62
     7
370
    35
100
AcDbLine
 10
201.5549480545665
 20
124.8709128200858
 30
0.0
 11
201.5549480545665
 21
126.6209128200858
 31
0.0
  0
ARC
  5
ED
330
C7
100
AcDbEntity
  8
DV2_0
 62
     7
370
    35
100
AcDbCircle
 10
201.8049480545665
 20
124.8709128200858
 30
0.0
 40
0.2500000000000002
100
AcDbArc
 50
180.0
 51
270.0
  0
LINE
  5
EE
330
C7
100
AcDbEntity
  8
DV2_0
 62
     7
370
    35
100
AcDbLine
 10
211.8049480545665
 20
124.6209128200858
 30
0.0
 11
201.8049480545665
 21
124.6209128200858
 31
0.0
  0
ARC
  5
EF
330
C7
100
AcDbEntity
  8
DV2_0
 62
     7
370
    35
100
AcDbCircle
 10
211.8049480545665
 20
124.8709128200858
 30
0.0
 40
0.2500000000000002
100
AcDbArc
 50
270.0
 51
0.0
  0
LINE
  5
F0
330
C7
100
AcDbEntity
  8
DV2_0
 62
     7
370
    35
100
AcDbLine
 10
201.8049480545665
 20
126.8709128200858
 30
0.0
 11
211.8049480545665
 21
126.8709128200858
 31
0.0
  0
ARC
  5
F1
330
C7
100
AcDbEntity
  8
DV2_0
 62
     7
370
    35
100
AcDbCircle
 10
201.8049480545665
 20
126.6209128200858
 30
0.0
 40
0.2500000000000002
100
AcDbArc
 50
90.0
 51
180.0
  0
LINE
  5
F2
330
C7
100
AcDbEntity
  8
DV2_0
 62
     7
370
    35
100
AcDbLine
 10
186.9520167725501
 20
140.1319387361071
 30
0.0
 11
186.8259709424347
 21
140.7097723361375
 31
0.0
  0
LINE
  5
F3
330
C7
100
AcDbEntity
  8
DV2_0
 62
     7
370
    35
100
AcDbLine
 10
186.9520167725501
 20
140.1319387361071
 30
0.0
 11
186.9596557893889
 21
140.1438402243223
 31
0.0
  0
LINE
  5
F4
330
C7
100
AcDbEntity
  8
DV2_0
 62
     7
370
    35
100
AcDbLine
 10
186.8378724306498
 20
140.7021333192987
 30
0.0
 11
186.8259709424347
 21
140.7097723361375
 31
0.0
  0
LINE
  5
F5
330
C7
100
AcDbEntity
  8
DV2_0
 62
     7
370
    35
100
AcDbLine
 10
189.8738854890591
 20
132.8838453896649
 30
0.0
 11
189.1411165495335
 21
132.7240027130528
 31
0.0
  0
LINE
  5
F6
330
C7
100
AcDbEntity
  8
DV2_0
 62
     7
370
    35
100
AcDbLine
 10
187.9336252218694
 20
142.9516351220523
 30
0.0
 11
190.0648609100302
 21
133.1813825950441
 31
0.0
  0
LINE
  5
F7
330
C7
100
AcDbEntity
  8
DV2_0
 62
     7
370
    25
100
AcDbLine
 10
189.8738854890591
 20
132.8838453896649
 30
0.0
 11
187.6360880164902
 21
143.1426105430235
 31
0.0
  0
ARC
  5
F8
330
C7
100
AcDbEntity
  8
DV2_0
 62
     7
370
    35
100
AcDbCircle
 10
187.6893689086943
 20
142.8983542298483
 30
0.0
 40
0.2500000000000021
100
AcDbArc
 50
12.30546445528083
 51
102.3054644552794
  0
ARC
  5
F9
330
C7
100
AcDbEntity
  8
DV2_0
 62
     7
370
    35
100
AcDbCircle
 10
189.820604596855
 20
133.1281017028401
 30
0.0
 40
0.2499999999999988
100
AcDbArc
 50
282.3054644552794
 51
12.30546445527447
  0
LINE
  5
FA
330
C7
100
AcDbEntity
  8
DV2_0
 62
     7
370
    35
100
AcDbLine
 10
186.9033190769646
 20
142.9827678664114
 30
0.0
 11
187.6360880164902
 21
143.1426105430234
 31
0.0
  0
LINE
  5
FB
330
C7
100
AcDbEntity
  8
DV2_0
 62
     7
370
    25
100
AcDbLine
 10
186.9033190769646
 20
142.9827678664114
 30
0.0
 11
189.1411165495335
 21
132.7240027130528
 31
0.0
  0
ARC
  5
FC
330
C7
100
AcDbEntity
  8
DV2_0
 62
     7
370
    35
100
AcDbCircle
 10
189.0878356573294
 20
132.968259026228
 30
0.0
 40
0.2500000000000009
100
AcDbArc
 50
192.3054644552794
 51
282.3054644552794
  0
ARC
  5
FD
330
C7
100
AcDbEntity
  8
DV2_0
 62
     7
370
    35
100
AcDbCircle
 10
186.9565999691686
 20
142.7385115532362
 30
0.0
 40
0.2500000000000075
100
AcDbArc
 50
102.3054644552794
 51
192.3054644552808
  0
LINE
  5
FE
330
C7
100
AcDbEntity
  8
DV2_0
 62
     7
370
    35
100
AcDbLine
 10
188.1774772932425
 20
134.5140435330775
 30
0.0
 11
188.0514314631272
 21
135.0918771331079
 31
0.0
  0
LINE
  5
FF
330
C7
100
AcDbEntity
  8
DV2_0
 62
     7
370
    35
100
AcDbLine
 10
188.1774772932425
 20
134.5140435330775
 30
0.0
 11
188.1851163100813
 21
134.5259450212926
 31
0.0
  0
LINE
  5
100
330
C7
100
AcDbEntity
  8
DV2_0
 62
     7
370
    35
100
AcDbLine
 10
188.0633329513423
 20
135.084238116269
 30
0.0
 11
188.0514314631271
 21
135.0918771331078
 31
0.0
  0
LINE
  5
101
330
C7
100
AcDbEntity
  8
DV2_0
 62
     7
370
    35
100
AcDbLine
 10
200.4049480545665
 20
124.4709128200858
 30
0.0
 11
190.4049480545665
 21
124.4709128200858
 31
0.0
  0
LINE
  5
102
330
C7
100
AcDbEntity
  8
DV2_0
 62
     7
370
    35
100
AcDbLine
 10
200.4049480545665
 20
104.6709128200858
 30
0.0
 11
190.4049480545665
 21
104.6709128200858
 31
0.0
  0
LINE
  5
103
330
C7
100
AcDbEntity
  8
DV2_0
 62
     7
370
    25
100
AcDbLine
 10
200.4049480545665
 20
104.6709128200858
 30
0.0
 11
200.4049480545665
 21
124.4709128200858
 31
0.0
  0
LINE
  5
104
330
C7
100
AcDbEntity
  8
DV2_0
 62
     7
370
    35
100
AcDbLine
 10
200.4049480545665
 20
124.4709128200858
 30
0.0
 11
200.6549480545665
 21
124.4709128200858
 31
0.0
  0
LINE
  5
105
330
C7
100
AcDbEntity
  8
DV2_0
 62
     7
370
    35
100
AcDbLine
 10
200.6549480545665
 20
124.4709128200858
 30
0.0
 11
200.6549480545665
 21
104.6709128200858
 31
0.0
  0
LINE
  5
106
330
C7
100
AcDbEntity
  8
DV2_0
 62
     7
370
    35
100
AcDbLine
 10
190.1549480545665
 20
124.4709128200858
 30
0.0
 11
190.4049480545665
 21
124.4709128200858
 31
0.0
  0
LINE
  5
107
330
C7
100
AcDbEntity
  8
DV2_0
 62
     7
370
    25
100
AcDbLine
 10
190.4049480545665
 20
124.4709128200858
 30
0.0
 11
190.4049480545665
 21
104.6709128200858
 31
0.0
  0
LINE
  5
108
330
C7
100
AcDbEntity
  8
DV2_0
 62
     7
370
    35
100
AcDbLine
 10
211.8049480545665
 20
124.4709128200858
 30
0.0
 11
201.8049480545665
 21
124.4709128200858
 31
0.0
  0
LINE
  5
109
330
C7
100
AcDbEntity
  8
DV2_0
 62
     7
370
    35
100
AcDbLine
 10
211.8049480545665
 20
104.6709128200858
 30
0.0
 11
201.8049480545665
 21
104.6709128200858
 31
0.0
  0
LINE
  5
10A
330
C7
100
AcDbEntity
  8
DV2_0
 62
     7
370
    25
100
AcDbLine
 10
211.8049480545665
 20
104.6709128200858
 30
0.0
 11
211.8049480545665
 21
124.4709128200858
 31
0.0
  0
LINE
  5
10B
330
C7
100
AcDbEntity
  8
DV2_0
 62
     7
370
    35
100
AcDbLine
 10
211.8049480545665
 20
124.4709128200858
 30
0.0
 11
212.0549480545665
 21
124.4709128200858
 31
0.0
  0
LINE
  5
10C
330
C7
100
AcDbEntity
  8
DV2_0
 62
     7
370
    35
100
AcDbLine
 10
201.5549480545665
 20
104.6709128200858
 30
0.0
 11
201.5549480545665
 21
124.4709128200858
 31
0.0
  0
LINE
  5
10D
330
C7
100
AcDbEntity
  8
DV2_0
 62
     7
370
    35
100
AcDbLine
 10
201.5549480545665
 20
124.4709128200858
 30
0.0
 11
201.8049480545665
 21
124.4709128200858
 31
0.0
  0
LINE
  5
10E
330
C7
100
AcDbEntity
  8
DV2_0
 62
     7
370
    25
100
AcDbLine
 10
201.8049480545665
 20
124.4709128200858
 30
0.0
 11
201.8049480545665
 21
104.6709128200858
 31
0.0
  0
ENDBLK
  5
110
330
C7
100
AcDbEntity
  8
0
100
AcDbBlockEnd
  0
BLOCK
  5
16D
330
111
100
AcDbEntity
  8
0
100
AcDbBlockBegin
  2
SE2
 70
     0
 10
0.0
 20
0.0
 30
0.0
  3
SE2
  1

  0
LINE
  5
114
330
111
100
AcDbEntity
  8
DV3_0
 62
     7
370
    35
100
AcDbLine
 10
121.6936342157352
 20
43.48155890902059
 30
0.0
 11
29.19363421573519
 21
43.48155890902059
 31
0.0
  0
LINE
  5
115
330
111
100
AcDbEntity
  8
DV3_0
 62
     7
370
    35
100
AcDbLine
 10
121.6936342157352
 20
43.18155890902059
 30
0.0
 11
29.19363421573519
 21
43.18155890902059
 31
0.0
  0
LINE
  5
116
330
111
100
AcDbEntity
  8
DV3_0
 62
     7
370
    35
100
AcDbLine
 10
29.19363421573519
 20
43.48155890902059
 30
0.0
 11
29.19363421573519
 21
43.18155890902059
 31
0.0
  0
LINE
  5
117
330
111
100
AcDbEntity
  8
DV3_0
 62
     7
370
    35
100
AcDbLine
 10
121.6936342157352
 20
43.48155890902059
 30
0.0
 11
121.6936342157352
 21
43.18155890902059
 31
0.0
  0
LINE
  5
118
330
111
100
AcDbEntity
  8
DV3_0
 62
     7
370
    35
100
AcDbLine
 10
121.6936342157352
 20
53.98155890902058
 30
0.0
 11
121.6936342157352
 21
54.88155890902059
 31
0.0
  0
LINE
  5
119
330
111
100
AcDbEntity
  8
DV3_0
 62
     7
370
    35
100
AcDbLine
 10
29.19363421573519
 20
54.88155890902058
 30
0.0
 11
29.19363421573519
 21
53.98155890902058
 31
0.0
  0
LINE
  5
11A
330
111
100
AcDbEntity
  8
DV3_0
 62
     7
370
    35
100
AcDbLine
 10
79.19363421573519
 20
65.68155890902058
 30
0.0
 11
71.69363421573519
 21
65.68155890902058
 31
0.0
  0
LINE
  5
11B
330
111
100
AcDbEntity
  8
DV3_0
 62
     7
370
    35
100
AcDbLine
 10
121.6936342157352
 20
65.38155890902057
 30
0.0
 11
29.19363421573519
 21
65.38155890902057
 31
0.0
  0
LINE
  5
11C
330
111
100
AcDbEntity
  8
DV3_0
 62
     7
370
    35
100
AcDbLine
 10
29.19363421573519
 20
65.38845133321071
 30
0.0
 11
29.19363421573519
 21
65.38155890902058
 31
0.0
  0
LINE
  5
11D
330
111
100
AcDbEntity
  8
DV3_0
 62
     7
370
    35
100
AcDbLine
 10
121.6936342157352
 20
65.38845133321071
 30
0.0
 11
121.6936342157352
 21
65.38155890902058
 31
0.0
  0
LINE
  5
11E
330
111
100
AcDbEntity
  8
DV3_0
 62
     7
370
    35
100
AcDbLine
 10
119.4436342157352
 20
54.88155890902058
 30
0.0
 11
119.4436342157352
 21
53.98155890902058
 31
0.0
  0
LINE
  5
11F
330
111
100
AcDbEntity
  8
DV3_0
 62
     7
370
    25
100
AcDbLine
 10
119.0936342157352
 20
53.98155890902059
 30
0.0
 11
119.0936342157352
 21
54.8815589090206
 31
0.0
  0
LINE
  5
120
330
111
100
AcDbEntity
  8
DV3_0
 62
     7
370
    35
100
AcDbLine
 10
116.9436342157352
 20
54.88155890902058
 30
0.0
 11
116.9436342157352
 21
53.98155890902058
 31
0.0
  0
LINE
  5
121
330
111
100
AcDbEntity
  8
DV3_0
 62
     7
370
    35
100
AcDbLine
 10
31.44547417995344
 20
53.98155890902059
 30
0.0
 11
31.44547417995344
 21
54.8815589090206
 31
0.0
  0
LINE
  5
122
330
111
100
AcDbEntity
  8
DV3_0
 62
     7
370
    25
100
AcDbLine
 10
31.79547417995344
 20
54.88155890902058
 30
0.0
 11
31.79547417995344
 21
53.98155890902058
 31
0.0
  0
LINE
  5
123
330
111
100
AcDbEntity
  8
DV3_0
 62
     7
370
    35
100
AcDbLine
 10
33.94547417995344
 20
53.98155890902059
 30
0.0
 11
33.94547417995344
 21
54.8815589090206
 31
0.0
  0
LINE
  5
124
330
111
100
AcDbEntity
  8
DV3_0
 62
     7
370
    35
100
AcDbLine
 10
71.69363421573519
 20
69.17055177560792
 30
0.0
 11
29.19363421573518
 21
69.17055177560792
 31
0.0
  0
LINE
  5
125
330
111
100
AcDbEntity
  8
DV3_0
 62
     7
370
    35
100
AcDbLine
 10
71.69363421573519
 20
68.87744419979768
 30
0.0
 11
29.19363421573518
 21
68.87744419979768
 31
0.0
  0
LINE
  5
126
330
111
100
AcDbEntity
  8
DV3_0
 62
     7
370
    35
100
AcDbLine
 10
71.69363421573519
 20
65.38845133321071
 30
0.0
 11
71.69363421573519
 21
65.66262147452802
 31
0.0
  0
LINE
  5
127
330
111
100
AcDbEntity
  8
DV3_0
 62
     7
370
    35
100
AcDbLine
 10
71.69363421573519
 20
68.63318788662247
 30
0.0
 11
71.69363421573519
 21
68.87744419979768
 31
0.0
  0
LINE
  5
128
330
111
100
AcDbEntity
  8
DV3_0
 62
     7
370
    35
100
AcDbLine
 10
29.19363421573518
 20
65.38845133321071
 30
0.0
 11
71.69363421573519
 21
65.38845133321071
 31
0.0
  0
LINE
  5
129
330
111
100
AcDbEntity
  8
DV3_0
 62
     7
370
    35
100
AcDbLine
 10
29.19363421573518
 20
68.87744419979768
 30
0.0
 11
29.19363421573518
 21
68.63318788662247
 31
0.0
  0
LINE
  5
12A
330
111
100
AcDbEntity
  8
DV3_0
 62
     7
370
    35
100
AcDbLine
 10
29.19363421573518
 20
65.66262147452802
 30
0.0
 11
29.19363421573518
 21
65.38845133321071
 31
0.0
  0
LINE
  5
12B
330
111
100
AcDbEntity
  8
DV3_0
 62
     7
370
    35
100
AcDbLine
 10
29.19363421573518
 20
69.17055177560792
 30
0.0
 11
29.19363421573518
 21
68.87744419979767
 31
0.0
  0
LINE
  5
12C
330
111
100
AcDbEntity
  8
DV3_0
 62
     7
370
    35
100
AcDbLine
 10
71.69363421573519
 20
69.17055177560792
 30
0.0
 11
71.69363421573519
 21
68.87744419979768
 31
0.0
  0
LINE
  5
12D
330
111
100
AcDbEntity
  8
DV3_0
 62
     7
370
    35
100
AcDbLine
 10
29.19363421573518
 20
65.38845133321071
 30
0.0
 11
71.69363421573517
 21
65.38845133321071
 31
0.0
  0
LINE
  5
12E
330
111
100
AcDbEntity
  8
DV3_0
 62
     7
370
    35
100
AcDbLine
 10
121.6936342157352
 20
54.88155890902059
 30
0.0
 11
29.19363421573517
 21
54.88155890902059
 31
0.0
  0
LINE
  5
12F
330
111
100
AcDbEntity
  8
DV3_0
 62
     7
370
    35
100
AcDbLine
 10
29.19363421573518
 20
54.88155890902059
 30
0.0
 11
29.19363421573518
 21
55.13155890902059
 31
0.0
  0
LINE
  5
130
330
111
100
AcDbEntity
  8
DV3_0
 62
     7
370
    25
100
AcDbLine
 10
29.19363421573518
 20
55.13155890902059
 30
0.0
 11
121.6936342157352
 21
55.13155890902059
 31
0.0
  0
LINE
  5
131
330
111
100
AcDbEntity
  8
DV3_0
 62
     7
370
    35
100
AcDbLine
 10
121.6936342157352
 20
55.13155890902059
 30
0.0
 11
121.6936342157352
 21
54.88155890902059
 31
0.0
  0
LINE
  5
132
330
111
100
AcDbEntity
  8
DV3_0
 62
     7
370
    35
100
AcDbLine
 10
29.19363421573518
 20
65.13155890902058
 30
0.0
 11
29.19363421573518
 21
55.13155890902058
 31
0.0
  0
LINE
  5
133
330
111
100
AcDbEntity
  8
DV3_0
 62
     7
370
    35
100
AcDbLine
 10
121.6936342157352
 20
65.13155890902058
 30
0.0
 11
121.6936342157352
 21
55.13155890902058
 31
0.0
  0
LINE
  5
134
330
111
100
AcDbEntity
  8
DV3_0
 62
     7
370
    25
100
AcDbLine
 10
121.6936342157352
 20
65.13155890902058
 30
0.0
 11
29.19363421573517
 21
65.13155890902058
 31
0.0
  0
LINE
  5
135
330
111
100
AcDbEntity
  8
DV3_0
 62
     7
370
    35
100
AcDbLine
 10
29.19363421573518
 20
65.13155890902058
 30
0.0
 11
29.19363421573518
 21
65.38155890902058
 31
0.0
  0
LINE
  5
136
330
111
100
AcDbEntity
  8
DV3_0
 62
     7
370
    35
100
AcDbLine
 10
121.6936342157352
 20
65.38155890902058
 30
0.0
 11
121.6936342157352
 21
65.13155890902058
 31
0.0
  0
LINE
  5
137
330
111
100
AcDbEntity
  8
DV3_0
 62
     7
370
    35
100
AcDbLine
 10
29.19363421573518
 20
43.48155890902059
 30
0.0
 11
29.19363421573518
 21
43.73155890902059
 31
0.0
  0
LINE
  5
138
330
111
100
AcDbEntity
  8
DV3_0
 62
     7
370
    25
100
AcDbLine
 10
29.19363421573518
 20
43.73155890902059
 30
0.0
 11
121.6936342157352
 21
43.73155890902059
 31
0.0
  0
LINE
  5
139
330
111
100
AcDbEntity
  8
DV3_0
 62
     7
370
    35
100
AcDbLine
 10
121.6936342157352
 20
43.73155890902059
 30
0.0
 11
121.6936342157352
 21
43.48155890902059
 31
0.0
  0
LINE
  5
13A
330
111
100
AcDbEntity
  8
DV3_0
 62
     7
370
    35
100
AcDbLine
 10
29.19363421573518
 20
53.73155890902058
 30
0.0
 11
29.19363421573518
 21
43.73155890902058
 31
0.0
  0
LINE
  5
13B
330
111
100
AcDbEntity
  8
DV3_0
 62
     7
370
    35
100
AcDbLine
 10
121.6936342157352
 20
53.73155890902058
 30
0.0
 11
121.6936342157352
 21
43.73155890902058
 31
0.0
  0
LINE
  5
13C
330
111
100
AcDbEntity
  8
DV3_0
 62
     7
370
    25
100
AcDbLine
 10
121.6936342157352
 20
53.73155890902058
 30
0.0
 11
29.19363421573517
 21
53.73155890902058
 31
0.0
  0
LINE
  5
13D
330
111
100
AcDbEntity
  8
DV3_0
 62
     7
370
    35
100
AcDbLine
 10
29.19363421573518
 20
53.73155890902058
 30
0.0
 11
29.19363421573518
 21
53.98155890902058
 31
0.0
  0
LINE
  5
13E
330
111
100
AcDbEntity
  8
DV3_0
 62
     7
370
    35
100
AcDbLine
 10
29.19363421573518
 20
53.98155890902058
 30
0.0
 11
121.6936342157352
 21
53.98155890902058
 31
0.0
  0
LINE
  5
13F
330
111
100
AcDbEntity
  8
DV3_0
 62
     7
370
    35
100
AcDbLine
 10
121.6936342157352
 20
53.98155890902058
 30
0.0
 11
121.6936342157352
 21
53.73155890902058
 31
0.0
  0
LINE
  5
140
330
111
100
AcDbEntity
  8
DV3_0
 62
     7
370
    25
100
AcDbLine
 10
71.44363421573519
 20
67.60288174171762
 30
0.0
 11
29.44363421573519
 21
67.60288174171762
 31
0.0
  0
LINE
  5
141
330
111
100
AcDbEntity
  8
DV3_0
 62
     7
370
    25
100
AcDbLine
 10
71.44363421573519
 20
65.47164605355684
 30
0.0
 11
71.44363421573519
 21
67.60288174171762
 31
0.0
  0
LINE
  5
142
330
111
100
AcDbEntity
  8
DV3_0
 62
     7
370
    25
100
AcDbLine
 10
29.44363421573518
 20
67.60288174171762
 30
0.0
 11
29.44363421573518
 21
65.47164605355684
 31
0.0
  0
LINE
  5
143
330
111
100
AcDbEntity
  8
DV3_0
 62
     7
370
    25
100
AcDbLine
 10
29.44363421573518
 20
65.47164605355684
 30
0.0
 11
71.44363421573517
 21
65.47164605355684
 31
0.0
  0
LINE
  5
144
330
111
100
AcDbEntity
  8
DV3_0
 62
     7
370
    35
100
AcDbLine
 10
29.19363421573518
 20
65.66262147452802
 30
0.0
 11
29.19363421573518
 21
67.90041894709684
 31
0.0
  0
LINE
  5
145
330
111
100
AcDbEntity
  8
DV3_0
 62
     7
370
    35
100
AcDbLine
 10
71.69363421573519
 20
67.90041894709684
 30
0.0
 11
71.69363421573519
 21
65.66262147452802
 31
0.0
  0
LINE
  5
146
330
111
100
AcDbEntity
  8
DV3_0
 62
     7
370
    25
100
AcDbLine
 10
29.19363421573518
 20
67.90041894709685
 30
0.0
 11
71.69363421573519
 21
67.90041894709685
 31
0.0
  0
ELLIPSE
  5
147
330
111
100
AcDbEntity
  8
DV3_0
 62
     7
370
    35
100
AcDbEllipse
 10
71.44363421573519
 20
67.84713805489281
 30
0.0
 11
0.1947051913162599
 21
0.1947051913162662
 31
0.0
210
0.0
220
0.0
230
0.9999999999999998
 40
0.8053798292405892
 41
4.034376252353137
 42
5.605172579148053
  0
ELLIPSE
  5
148
330
111
100
AcDbEntity
  8
DV3_0
 62
     7
370
    35
100
AcDbEllipse
 10
29.44363421573518
 20
67.84713805489282
 30
0.0
 11
0.1947051913162745
 21
-0.1947051913162495
 31
0.0
210
0.0
220
0.0
230
0.9999999999999999
 40
0.8053798292406018
 41
3.819605381621226
 42
5.390401708416169
  0
ELLIPSE
  5
149
330
111
100
AcDbEntity
  8
DV3_0
 62
     7
370
    35
100
AcDbEllipse
 10
71.44363421573519
 20
65.71590236673204
 30
0.0
 11
-0.1947051913162641
 21
0.1947051913162607
 31
0.0
210
0.0
220
0.0
230
1.0
 40
0.8053798292405824
 41
2.248809054826383
 42
3.81960538162136
  0
ELLIPSE
  5
14A
330
111
100
AcDbEntity
  8
DV3_0
 62
     7
370
    35
100
AcDbEllipse
 10
29.44363421573518
 20
65.71590236673204
 30
0.0
 11
0.1947051913162634
 21
0.1947051913162662
 31
0.0
210
0.0
220
0.0
230
0.9999999999999998
 40
0.805379829240576
 41
2.46357992555814
 42
4.034376252353153
  0
LINE
  5
14B
330
111
100
AcDbEntity
  8
DV3_0
 62
     7
370
    35
100
AcDbLine
 10
29.19363421573518
 20
68.63318788662245
 30
0.0
 11
29.19363421573518
 21
67.90041894709684
 31
0.0
  0
LINE
  5
14C
330
111
100
AcDbEntity
  8
DV3_0
 62
     7
370
    35
100
AcDbLine
 10
71.69363421573519
 20
68.63318788662245
 30
0.0
 11
71.69363421573519
 21
67.90041894709684
 31
0.0
  0
LINE
  5
14D
330
111
100
AcDbEntity
  8
DV3_0
 62
     7
370
    25
100
AcDbLine
 10
71.69363421573519
 20
68.63318788662245
 30
0.0
 11
29.19363421573518
 21
68.63318788662245
 31
0.0
  0
ELLIPSE
  5
14E
330
111
100
AcDbEntity
  8
DV3_0
 62
     7
370
    35
100
AcDbEllipse
 10
71.44363421573517
 20
68.57990699441845
 30
0.0
 11
-0.1947051913162697
 21
-0.1947051913162523
 31
0.0
210
0.0
220
0.0
230
0.9999999999999998
 40
0.8053798292405886
 41
2.463579925558205
 42
3.819605381621395
  0
ELLIPSE
  5
14F
330
111
100
AcDbEntity
  8
DV3_0
 62
     7
370
    35
100
AcDbEllipse
 10
29.44363421573518
 20
68.57990699441845
 30
0.0
 11
0.1947051913162578
 21
-0.1947051913162634
 31
0.0
210
0.0
220
0.0
230
0.9999999999999998
 40
0.8053798292405998
 41
2.463579925558212
 42
3.819605381621368
  0
LINE
  5
150
330
111
100
AcDbEntity
  8
DV3_0
 62
     7
370
    35
100
AcDbLine
 10
29.39035332353116
 20
65.46590236673204
 30
0.0
 11
71.4969151079392
 21
65.46590236673204
 31
0.0
  0
LINE
  5
151
330
111
100
AcDbEntity
  8
DV3_0
 62
     7
370
    35
100
AcDbLine
 10
71.49691510793919
 20
68.82990699441844
 30
0.0
 11
29.39035332353115
 21
68.82990699441844
 31
0.0
  0
LINE
  5
152
330
111
100
AcDbEntity
  8
DV3_0
 62
     7
370
    35
100
AcDbLine
 10
121.6936342157352
 20
67.90041894709682
 30
0.0
 11
121.6936342157352
 21
68.63318788662244
 31
0.0
  0
LINE
  5
153
330
111
100
AcDbEntity
  8
DV3_0
 62
     7
370
    35
100
AcDbLine
 10
79.19363421573519
 20
67.90041894709682
 30
0.0
 11
79.19363421573519
 21
68.63318788662244
 31
0.0
  0
LINE
  5
154
330
111
100
AcDbEntity
  8
DV3_0
 62
     7
370
    25
100
AcDbLine
 10
79.19363421573519
 20
67.90041894709682
 30
0.0
 11
121.6936342157352
 21
67.90041894709682
 31
0.0
  0
LINE
  5
155
330
111
100
AcDbEntity
  8
DV3_0
 62
     7
370
    25
100
AcDbLine
 10
79.44363421573519
 20
65.47164605355682
 30
0.0
 11
121.4436342157352
 21
65.47164605355682
 31
0.0
  0
LINE
  5
156
330
111
100
AcDbEntity
  8
DV3_0
 62
     7
370
    25
100
AcDbLine
 10
79.44363421573519
 20
67.6028817417176
 30
0.0
 11
79.44363421573519
 21
65.47164605355682
 31
0.0
  0
LINE
  5
157
330
111
100
AcDbEntity
  8
DV3_0
 62
     7
370
    25
100
AcDbLine
 10
121.4436342157352
 20
65.47164605355682
 30
0.0
 11
121.4436342157352
 21
67.6028817417176
 31
0.0
  0
LINE
  5
158
330
111
100
AcDbEntity
  8
DV3_0
 62
     7
370
    25
100
AcDbLine
 10
121.4436342157352
 20
67.6028817417176
 30
0.0
 11
79.44363421573519
 21
67.6028817417176
 31
0.0
  0
LINE
  5
159
330
111
100
AcDbEntity
  8
DV3_0
 62
     7
370
    35
100
AcDbLine
 10
121.6936342157352
 20
67.90041894709682
 30
0.0
 11
121.6936342157352
 21
65.66262147452802
 31
0.0
  0
LINE
  5
15A
330
111
100
AcDbEntity
  8
DV3_0
 62
     7
370
    35
100
AcDbLine
 10
79.19363421573519
 20
65.66262147452801
 30
0.0
 11
79.19363421573519
 21
67.90041894709681
 31
0.0
  0
ELLIPSE
  5
15B
330
111
100
AcDbEntity
  8
DV3_0
 62
     7
370
    35
100
AcDbEllipse
 10
79.44363421573519
 20
65.71590236673202
 30
0.0
 11
0.1947051913162641
 21
0.1947051913162607
 31
0.0
210
0.0
220
0.0
230
1.0
 40
0.8053798292405824
 41
2.463579925558168
 42
4.034376252353249
  0
ELLIPSE
  5
15C
330
111
100
AcDbEntity
  8
DV3_0
 62
     7
370
    35
100
AcDbEllipse
 10
121.4436342157352
 20
65.71590236673204
 30
0.0
 11
-0.1947051913162634
 21
0.1947051913162662
 31
0.0
210
0.0
220
0.0
230
0.9999999999999998
 40
0.8053798292405765
 41
2.248809054826434
 42
3.819605381621388
  0
ELLIPSE
  5
15D
330
111
100
AcDbEntity
  8
DV3_0
 62
     7
370
    35
100
AcDbEllipse
 10
79.4436342157352
 20
67.8471380548928
 30
0.0
 11
-0.1947051913162648
 21
0.1947051913162607
 31
0.0
210
0.0
220
0.0
230
0.9999999999999998
 40
0.8053798292405827
 41
0.6780127280315105
 42
2.248809054826427
  0
ELLIPSE
  5
15E
330
111
100
AcDbEntity
  8
DV3_0
 62
     7
370
    35
100
AcDbEllipse
 10
121.4436342157352
 20
67.8471380548928
 30
0.0
 11
-0.194705191316269
 21
-0.1947051913162607
 31
0.0
210
0.0
220
0.0
230
1.0
 40
0.8053798292405866
 41
0.8927835987634296
 42
2.463579925558279
  0
LINE
  5
15F
330
111
100
AcDbEntity
  8
DV3_0
 62
     7
370
    25
100
AcDbLine
 10
121.6936342157352
 20
68.63318788662242
 30
0.0
 11
79.19363421573522
 21
68.63318788662242
 31
0.0
  0
ELLIPSE
  5
160
330
111
100
AcDbEntity
  8
DV3_0
 62
     7
370
    35
100
AcDbEllipse
 10
79.4436342157352
 20
68.57990699441841
 30
0.0
 11
0.194705191316262
 21
-0.1947051913162634
 31
0.0
210
0.0
220
0.0
230
1.0
 40
0.8053798292405825
 41
2.463579925558219
 42
3.819605381621257
  0
ELLIPSE
  5
161
330
111
100
AcDbEntity
  8
DV3_0
 62
     7
370
    35
100
AcDbEllipse
 10
121.4436342157352
 20
68.57990699441841
 30
0.0
 11
-0.194705191316269
 21
-0.1947051913162523
 31
0.0
210
0.0
220
0.0
230
0.9999999999999998
 40
0.8053798292405894
 41
2.463579925558264
 42
3.819605381621333
  0
LINE
  5
162
330
111
100
AcDbEntity
  8
DV3_0
 62
     7
370
    35
100
AcDbLine
 10
79.39035332353119
 20
65.46590236673202
 30
0.0
 11
121.4969151079392
 21
65.46590236673202
 31
0.0
  0
LINE
  5
163
330
111
100
AcDbEntity
  8
DV3_0
 62
     7
370
    35
100
AcDbLine
 10
121.4969151079392
 20
68.82990699441841
 30
0.0
 11
79.39035332353119
 21
68.82990699441841
 31
0.0
  0
LINE
  5
164
330
111
100
AcDbEntity
  8
DV3_0
 62
     7
370
    35
100
AcDbLine
 10
121.6936342157352
 20
69.17055177560789
 30
0.0
 11
79.19363421573519
 21
69.17055177560789
 31
0.0
  0
LINE
  5
165
330
111
100
AcDbEntity
  8
DV3_0
 62
     7
370
    35
100
AcDbLine
 10
121.6936342157352
 20
68.87744419979765
 30
0.0
 11
79.19363421573519
 21
68.87744419979765
 31
0.0
  0
LINE
  5
166
330
111
100
AcDbEntity
  8
DV3_0
 62
     7
370
    35
100
AcDbLine
 10
121.6936342157352
 20
65.38845133321071
 30
0.0
 11
121.6936342157352
 21
65.66262147452801
 31
0.0
  0
LINE
  5
167
330
111
100
AcDbEntity
  8
DV3_0
 62
     7
370
    35
100
AcDbLine
 10
121.6936342157352
 20
68.63318788662244
 30
0.0
 11
121.6936342157352
 21
68.87744419979765
 31
0.0
  0
LINE
  5
168
330
111
100
AcDbEntity
  8
DV3_0
 62
     7
370
    35
100
AcDbLine
 10
79.19363421573519
 20
65.38845133321071
 30
0.0
 11
121.6936342157352
 21
65.38845133321071
 31
0.0
  0
LINE
  5
169
330
111
100
AcDbEntity
  8
DV3_0
 62
     7
370
    35
100
AcDbLine
 10
79.19363421573519
 20
68.87744419979765
 30
0.0
 11
79.19363421573519
 21
68.63318788662244
 31
0.0
  0
LINE
  5
16A
330
111
100
AcDbEntity
  8
DV3_0
 62
     7
370
    35
100
AcDbLine
 10
79.19363421573519
 20
65.66262147452801
 30
0.0
 11
79.19363421573519
 21
65.38845133321071
 31
0.0
  0
LINE
  5
16B
330
111
100
AcDbEntity
  8
DV3_0
 62
     7
370
    35
100
AcDbLine
 10
79.19363421573519
 20
69.17055177560789
 30
0.0
 11
79.19363421573519
 21
68.87744419979764
 31
0.0
  0
LINE
  5
16C
330
111
100
AcDbEntity
  8
DV3_0
 62
     7
370
    35
100
AcDbLine
 10
121.6936342157352
 20
69.17055177560789
 30
0.0
 11
121.6936342157352
 21
68.87744419979765
 31
0.0
  0
ENDBLK
  5
16E
330
111
100
AcDbEntity
  8
0
100
AcDbBlockEnd
  0
BLOCK
  5
235
330
16F
100
AcDbEntity
  8
0
100
AcDbBlockBegin
  2
SE3
 70
     0
 10
0.0
 20
0.0
 30
0.0
  3
SE3
  1

  0
LINE
  5
172
330
16F
100
AcDbEntity
  8
DV4_0
 62
     7
370
    35
100
AcDbLine
 10
255.828276293285
 20
74.88939667913584
 30
0.0
 11
190.4208990335293
 21
37.12642981122852
 31
0.0
  0
LINE
  5
173
330
16F
100
AcDbEntity
  8
DV4_0
 62
     7
370
    35
100
AcDbLine
 10
190.4208990335293
 20
37.12642981122852
 30
0.0
 11
190.4208990335293
 21
18.75525674035468
 31
0.0
  0
LINE
  5
174
330
16F
100
AcDbEntity
  8
DV4_0
 62
     7
370
    35
100
AcDbLine
 10
254.0251540012593
 20
71.52134828280897
 30
0.0
 11
254.0251540012593
 21
55.47719046757915
 31
0.0
  0
LINE
  5
175
330
16F
100
AcDbEntity
  8
DV4_0
 62
     7
370
    35
100
AcDbLine
 10
254.2372860356152
 20
71.64382276994813
 30
0.0
 11
254.2372860356152
 21
55.35471598043999
 31
0.0
  0
LINE
  5
176
330
16F
100
AcDbEntity
  8
DV4_0
 62
     7
370
    35
100
AcDbLine
 10
192.436153359911
 20
35.9629221834065
 30
0.0
 11
254.2372860356153
 21
71.64382276994814
 31
0.0
  0
LINE
  5
177
330
16F
100
AcDbEntity
  8
DV4_0
 62
     7
370
    35
100
AcDbLine
 10
192.436153359911
 20
19.67381539389836
 30
0.0
 11
192.436153359911
 21
35.96292218340649
 31
0.0
  0
LINE
  5
178
330
16F
100
AcDbEntity
  8
DV4_0
 62
     7
370
    35
100
AcDbLine
 10
190.6330310678853
 20
18.63278225321551
 30
0.0
 11
192.436153359911
 21
19.67381539389837
 31
0.0
  0
LINE
  5
179
330
16F
100
AcDbEntity
  8
DV4_0
 62
     7
370
    35
100
AcDbLine
 10
190.6330310678853
 20
37.00395532408936
 30
0.0
 11
190.6330310678853
 21
18.63278225321552
 31
0.0
  0
LINE
  5
17A
330
16F
100
AcDbEntity
  8
DV4_0
 62
     7
370
    35
100
AcDbLine
 10
256.040408327641
 20
74.76692219199668
 30
0.0
 11
190.6330310678853
 21
37.00395532408936
 31
0.0
  0
LINE
  5
17B
330
16F
100
AcDbEntity
  8
DV4_0
 62
     7
370
    35
100
AcDbLine
 10
256.040408327641
 20
56.39574912112284
 30
0.0
 11
256.040408327641
 21
74.76692219199668
 31
0.0
  0
LINE
  5
17C
330
16F
100
AcDbEntity
  8
DV4_0
 62
     7
370
    35
100
AcDbLine
 10
254.2372860356152
 20
55.35471598043999
 30
0.0
 11
256.0404083276409
 21
56.39574912112284
 31
0.0
  0
LINE
  5
17D
330
16F
100
AcDbEntity
  8
DV4_0
 62
     7
370
    35
100
AcDbLine
 10
254.0251540012593
 20
55.47719046757915
 30
0.0
 11
254.2372860356153
 21
55.35471598043999
 31
0.0
  0
LINE
  5
17E
330
16F
100
AcDbEntity
  8
DV4_0
 62
     7
370
    35
100
AcDbLine
 10
190.4208990335293
 20
18.75525674035468
 30
0.0
 11
190.6330310678853
 21
18.63278225321552
 31
0.0
  0
LINE
  5
17F
330
16F
100
AcDbEntity
  8
DV4_0
 62
     7
370
    35
100
AcDbLine
 10
190.4208990335293
 20
37.12642981122852
 30
0.0
 11
190.6330310678853
 21
37.00395532408936
 31
0.0
  0
LINE
  5
180
330
16F
100
AcDbEntity
  8
DV4_0
 62
     7
370
    35
100
AcDbLine
 10
255.828276293285
 20
74.88939667913584
 30
0.0
 11
256.0404083276409
 21
74.76692219199668
 31
0.0
  0
LINE
  5
181
330
16F
100
AcDbEntity
  8
DV4_0
 62
     7
370
    35
100
AcDbLine
 10
254.0251540012593
 20
55.47719046757915
 30
0.0
 11
254.0251540012593
 21
55.72213944185746
 31
0.0
  0
LINE
  5
182
330
16F
100
AcDbEntity
  8
DV4_0
 62
     7
370
    35
100
AcDbLine
 10
240.8376125321302
 20
63.33597005900851
 30
0.0
 11
251.727056962403
 21
57.04894638586502
 31
0.0
  0
LINE
  5
183
330
16F
100
AcDbEntity
  8
DV4_0
 62
     7
370
    35
100
AcDbLine
 10
240.8376125321302
 20
63.09102108473019
 30
0.0
 11
251.5149249280471
 21
56.92647189872586
 31
0.0
  0
LINE
  5
184
330
16F
100
AcDbEntity
  8
DV4_0
 62
     7
370
    35
100
AcDbLine
 10
240.8376125321302
 20
63.33597005900851
 30
0.0
 11
240.8376125321302
 21
63.09102108473019
 31
0.0
  0
LINE
  5
185
330
16F
100
AcDbEntity
  8
DV4_0
 62
     7
370
    35
100
AcDbLine
 10
239.0698455791638
 20
62.88689693949827
 30
0.0
 11
239.6001756650537
 21
62.58071072165037
 31
0.0
  0
ELLIPSE
  5
186
330
16F
100
AcDbEntity
  8
DV4_0
 62
     7
370
    35
100
AcDbEllipse
 10
239.7769523603504
 20
62.68277279426633
 30
0.0
 11
-0.2499999999999996
 21
2.542579453823255E-15
 31
0.0
210
0.0
220
0.0
230
1.0
 40
0.5773502691896133
 41
0.7853981633974447
 42
2.35619449019236
  0
LINE
  5
187
330
16F
100
AcDbEntity
  8
DV4_0
 62
     7
370
    25
100
AcDbLine
 10
239.6001756650537
 20
62.82565969592868
 30
0.0
 11
239.6001756650537
 21
62.58071072165036
 31
0.0
  0
ELLIPSE
  5
188
330
16F
100
AcDbEntity
  8
DV4_0
 62
     7
370
    35
100
AcDbEllipse
 10
239.7769523603504
 20
63.33597005900851
 30
0.0
 11
-0.3000000000000009
 21
-1.127820978074418E-15
 31
0.0
210
0.0
220
0.0
230
1.0
 40
0.5773502691896253
 41
0.952846242617202
 42
3.759542737767543
  0
LINE
  5
189
330
16F
100
AcDbEntity
  8
DV4_0
 62
     7
370
    35
100
AcDbLine
 10
239.953729055647
 20
62.58071072165038
 30
0.0
 11
240.8376125321302
 21
63.0910210847302
 31
0.0
  0
LINE
  5
18A
330
16F
100
AcDbEntity
  8
DV4_0
 62
     7
370
    25
100
AcDbLine
 10
239.953729055647
 20
62.82565969592868
 30
0.0
 11
239.953729055647
 21
62.58071072165036
 31
0.0
  0
LINE
  5
18B
330
16F
100
AcDbEntity
  8
DV4_0
 62
     7
370
    35
100
AcDbLine
 10
239.2819776135198
 20
63.00937142663744
 30
0.0
 11
239.6001756650537
 21
62.82565969592869
 31
0.0
  0
ELLIPSE
  5
18C
330
16F
100
AcDbEntity
  8
DV4_0
 62
     7
370
    35
100
AcDbEllipse
 10
239.7769523603504
 20
62.92772176854465
 30
0.0
 11
-0.2500000000000006
 21
-2.818925648462312E-16
 31
0.0
210
0.0
220
0.0
230
1.0
 40
0.57735026918962
 41
0.7853981633974421
 42
2.35619449019235
  0
LINE
  5
18D
330
16F
100
AcDbEntity
  8
DV4_0
 62
     7
370
    35
100
AcDbLine
 10
239.953729055647
 20
62.82565969592868
 30
0.0
 11
240.8376125321302
 21
63.3359700590085
 31
0.0
  0
ELLIPSE
  5
18E
330
16F
100
AcDbEntity
  8
DV4_0
 62
     7
370
    35
100
AcDbEllipse
 10
239.7769523603504
 20
63.09102108473019
 30
0.0
 11
-0.3000000000000005
 21
-1.409713542920649E-15
 31
0.0
210
0.0
220
0.0
230
1.0
 40
0.5773502691896252
 41
3.926990816987527
 42
4.912101600324963
  0
LINE
  5
18F
330
16F
100
AcDbEntity
  8
DV4_0
 62
     7
370
    35
100
AcDbLine
 10
252.7877171341829
 20
56.43657395016923
 30
0.0
 11
254.0251540012593
 21
55.72213944185746
 31
0.0
  0
LINE
  5
190
330
16F
100
AcDbEntity
  8
DV4_0
 62
     7
370
    35
100
AcDbLine
 10
252.7877171341829
 20
56.19162497589091
 30
0.0
 11
254.0251540012593
 21
55.47719046757915
 31
0.0
  0
ELLIPSE
  5
191
330
16F
100
AcDbEntity
  8
DV4_0
 62
     7
370
    35
100
AcDbEllipse
 10
251.0199501812165
 20
56.43657395016923
 30
0.0
 11
0.2499999999999972
 21
6.798449058863101E-15
 31
0.0
210
0.0
220
0.0
230
1.0
 40
0.5773502691896318
 41
2.356194490192348
 42
3.926990816987206
  0
LINE
  5
192
330
16F
100
AcDbEntity
  8
DV4_0
 62
     7
370
    35
100
AcDbLine
 10
250.8431734859198
 20
56.5386360227852
 30
0.0
 11
251.727056962403
 21
57.04894638586503
 31
0.0
  0
LINE
  5
193
330
16F
100
AcDbEntity
  8
DV4_0
 62
     7
370
    35
100
AcDbLine
 10
252.7877171341829
 20
56.43657395016923
 30
0.0
 11
252.7877171341829
 21
56.19162497589091
 31
0.0
  0
LINE
  5
194
330
16F
100
AcDbEntity
  8
DV4_0
 62
     7
370
    35
100
AcDbLine
 10
252.7877171341829
 20
56.43657395016923
 30
0.0
 11
251.9038336576997
 21
55.92626358708939
 31
0.0
  0
LINE
  5
195
330
16F
100
AcDbEntity
  8
DV4_0
 62
     7
370
    25
100
AcDbLine
 10
251.9038336576996
 20
55.9262635870894
 30
0.0
 11
251.9038336576996
 21
55.68131461281109
 31
0.0
  0
ELLIPSE
  5
196
330
16F
100
AcDbEntity
  8
DV4_0
 62
     7
370
    35
100
AcDbEllipse
 10
251.7270569624031
 20
56.02832565970537
 30
0.0
 11
0.2499999999999991
 21
-3.971454573779520E-15
 31
0.0
210
0.0
220
0.0
230
1.0
 40
0.5773502691896262
 41
3.926990816987239
 42
5.497787143781837
  0
LINE
  5
197
330
16F
100
AcDbEntity
  8
DV4_0
 62
     7
370
    25
100
AcDbLine
 10
251.5502802671064
 20
55.9262635870894
 30
0.0
 11
251.5502802671064
 21
55.68131461281109
 31
0.0
  0
ELLIPSE
  5
198
330
16F
100
AcDbEntity
  8
DV4_0
 62
     7
370
    35
100
AcDbEllipse
 10
251.7270569624031
 20
56.43657395016923
 30
0.0
 11
-0.3000000000000009
 21
-2.271528910701879E-15
 31
0.0
210
0.0
220
0.0
230
1.0
 40
0.577350269189631
 41
0.0
 42
6.283185307179586
  0
LINE
  5
199
330
16F
100
AcDbEntity
  8
DV4_0
 62
     7
370
    35
100
AcDbLine
 10
251.5502802671064
 20
55.9262635870894
 30
0.0
 11
250.8431734859199
 21
56.33451187755327
 31
0.0
  0
LINE
  5
19A
330
16F
100
AcDbEntity
  8
DV4_0
 62
     7
370
    25
100
AcDbLine
 10
250.8431734859198
 20
56.33451187755326
 30
0.0
 11
250.8431734859198
 21
56.08956290327495
 31
0.0
  0
ELLIPSE
  5
19B
330
16F
100
AcDbEntity
  8
DV4_0
 62
     7
370
    35
100
AcDbEllipse
 10
251.7270569624031
 20
56.19162497589091
 30
0.0
 11
-0.3000000000000009
 21
-2.271528910701879E-15
 31
0.0
210
0.0
220
0.0
230
1.0
 40
0.5773502691896253
 41
3.926990816986857
 42
5.497787143782782
  0
ELLIPSE
  5
19C
330
16F
100
AcDbEntity
  8
DV4_0
 62
     7
370
    35
100
AcDbEllipse
 10
251.0199501812165
 20
56.19162497589091
 30
0.0
 11
0.2499999999999991
 21
5.660036777753321E-15
 31
0.0
210
0.0
220
0.0
230
1.0
 40
0.5773502691896187
 41
3.141592653589793
 42
3.926990816987217
  0
LINE
  5
19D
330
16F
100
AcDbEntity
  8
DV4_0
 62
     7
370
    35
100
AcDbLine
 10
252.7877171341829
 20
56.19162497589091
 30
0.0
 11
251.9038336576997
 21
55.68131461281109
 31
0.0
  0
ELLIPSE
  5
19E
330
16F
100
AcDbEntity
  8
DV4_0
 62
     7
370
    35
100
AcDbEllipse
 10
251.7270569624031
 20
55.78337668542705
 30
0.0
 11
0.2499999999999991
 21
-2.271779629391372E-15
 31
0.0
210
0.0
220
0.0
230
1.0
 40
0.5773502691896325
 41
3.926990816987235
 42
5.497787143781833
  0
LINE
  5
19F
330
16F
100
AcDbEntity
  8
DV4_0
 62
     7
370
    35
100
AcDbLine
 10
251.5502802671064
 20
55.68131461281108
 30
0.0
 11
250.8431734859199
 21
56.08956290327495
 31
0.0
  0
LINE
  5
1A0
330
16F
100
AcDbEntity
  8
DV4_0
 62
     7
370
    35
100
AcDbLine
 10
250.7699501812165
 20
56.43657395016923
 30
0.0
 11
250.7699501812165
 21
56.19162497589091
 31
0.0
  0
LINE
  5
1A1
330
16F
100
AcDbEntity
  8
DV4_0
 62
     7
370
    35
100
AcDbLine
 10
174.935260525544
 20
27.69589430151328
 30
0.0
 11
190.4208990335293
 21
18.75525674035468
 31
0.0
  0
LINE
  5
1A2
330
16F
100
AcDbEntity
  8
DV4_0
 62
     7
370
    35
100
AcDbLine
 10
174.935260525544
 20
27.9408432757916
 30
0.0
 11
190.4208990335293
 21
19.000205714633
 31
0.0
  0
LINE
  5
1A3
330
16F
100
AcDbEntity
  8
DV4_0
 62
     7
370
    35
100
AcDbLine
 10
175.0388139161372
 20
28.00062985372612
 30
0.0
 11
174.935260525544
 21
27.9408432757916
 31
0.0
  0
LINE
  5
1A4
330
16F
100
AcDbEntity
  8
DV4_0
 62
     7
370
    35
100
AcDbLine
 10
190.4208990335293
 20
18.75525674035468
 30
0.0
 11
190.4208990335293
 21
19.000205714633
 31
0.0
  0
LINE
  5
1A5
330
16F
100
AcDbEntity
  8
DV4_0
 62
     7
370
    35
100
AcDbLine
 10
174.935260525544
 20
27.69589430151328
 30
0.0
 11
174.935260525544
 21
27.9408432757916
 31
0.0
  0
LINE
  5
1A6
330
16F
100
AcDbEntity
  8
DV4_0
 62
     7
370
    35
100
AcDbLine
 10
210.0784675505158
 20
66.60195638271966
 30
0.0
 11
204.9534066146583
 21
63.64300107178912
 31
0.0
  0
LINE
  5
1A7
330
16F
100
AcDbEntity
  8
DV4_0
 62
     7
370
    35
100
AcDbLine
 10
174.723128491188
 20
46.18954185952627
 30
0.0
 11
174.723128491188
 21
27.81836878865242
 31
0.0
  0
LINE
  5
1A8
330
16F
100
AcDbEntity
  8
DV4_0
 62
     7
370
    35
100
AcDbLine
 10
174.935260525544
 20
46.0670673723871
 30
0.0
 11
174.935260525544
 21
27.69589430151326
 31
0.0
  0
LINE
  5
1A9
330
16F
100
AcDbEntity
  8
DV4_0
 62
     7
370
    35
100
AcDbLine
 10
240.3426377852996
 20
83.83003424029444
 30
0.0
 11
174.935260525544
 21
46.06706737238711
 31
0.0
  0
LINE
  5
1AA
330
16F
100
AcDbEntity
  8
DV4_0
 62
     7
370
    35
100
AcDbLine
 10
240.3426377852996
 20
83.71046108442542
 30
0.0
 11
240.3426377852996
 21
83.83003424029444
 31
0.0
  0
LINE
  5
1AB
330
16F
100
AcDbEntity
  8
DV4_0
 62
     7
370
    35
100
AcDbLine
 10
174.723128491188
 20
27.81836878865242
 30
0.0
 11
174.935260525544
 21
27.69589430151327
 31
0.0
  0
LINE
  5
1AC
330
16F
100
AcDbEntity
  8
DV4_0
 62
     7
370
    35
100
AcDbLine
 10
174.723128491188
 20
46.18954185952627
 30
0.0
 11
174.935260525544
 21
46.06706737238711
 31
0.0
  0
LINE
  5
1AD
330
16F
100
AcDbEntity
  8
DV4_0
 62
     7
370
    35
100
AcDbLine
 10
240.2925537691935
 20
83.85895026047538
 30
0.0
 11
240.3426377852996
 21
83.83003424029444
 31
0.0
  0
LINE
  5
1AE
330
16F
100
AcDbEntity
  8
DV4_0
 62
     7
370
    35
100
AcDbLine
 10
254.0251540012593
 20
69.97000477904628
 30
0.0
 11
252.6816511170048
 21
70.74567653092762
 31
0.0
  0
LINE
  5
1AF
330
16F
100
AcDbEntity
  8
DV4_0
 62
     7
370
    35
100
AcDbLine
 10
254.0251540012593
 20
71.52134828280897
 30
0.0
 11
254.0251540012593
 21
69.97000477904628
 31
0.0
  0
LINE
  5
1B0
330
16F
100
AcDbEntity
  8
DV4_0
 62
     7
370
    35
100
AcDbLine
 10
202.3080761761408
 20
78.02403606930392
 30
0.0
 11
172.2560379757126
 21
60.67348372458974
 31
0.0
  0
LINE
  5
1B1
330
16F
100
AcDbEntity
  8
DV4_0
 62
     7
370
    35
100
AcDbLine
 10
172.2560379757126
 20
60.67348372458974
 30
0.0
 11
174.7231284911877
 21
46.18954185952668
 31
0.0
  0
LINE
  5
1B2
330
16F
100
AcDbEntity
  8
DV4_0
 62
     7
370
    35
100
AcDbLine
 10
202.5153345306134
 20
77.95657980213342
 30
0.0
 11
172.4632963301852
 21
60.60602745741924
 31
0.0
  0
LINE
  5
1B3
330
16F
100
AcDbEntity
  8
DV4_0
 62
     7
370
    35
100
AcDbLine
 10
204.9824250460886
 20
63.47263793707037
 30
0.0
 11
204.2015173832436
 21
68.05723713182273
 31
0.0
  0
LINE
  5
1B4
330
16F
100
AcDbEntity
  8
DV4_0
 62
     7
370
    35
100
AcDbLine
 10
202.5324235767186
 20
77.85625241294211
 30
0.0
 11
202.5153345306134
 21
77.95657980213342
 31
0.0
  0
LINE
  5
1B5
330
16F
100
AcDbEntity
  8
DV4_0
 62
     7
370
    35
100
AcDbLine
 10
174.9303868456603
 20
46.12208559235618
 30
0.0
 11
204.9824250460886
 21
63.47263793707036
 31
0.0
  0
LINE
  5
1B6
330
16F
100
AcDbEntity
  8
DV4_0
 62
     7
370
    35
100
AcDbLine
 10
172.4632963301852
 20
60.60602745741924
 30
0.0
 11
174.9303868456603
 21
46.12208559235619
 31
0.0
  0
LINE
  5
1B7
330
16F
100
AcDbEntity
  8
DV4_0
 62
     7
370
    35
100
AcDbLine
 10
172.2560379757126
 20
60.67348372458974
 30
0.0
 11
172.4632963301852
 21
60.60602745741923
 31
0.0
  0
LINE
  5
1B8
330
16F
100
AcDbEntity
  8
DV4_0
 62
     7
370
    35
100
AcDbLine
 10
202.3080761761408
 20
78.02403606930392
 30
0.0
 11
202.5153345306134
 21
77.9565798021334
 31
0.0
  0
LINE
  5
1B9
330
16F
100
AcDbEntity
  8
DV4_0
 62
     7
370
    35
100
AcDbLine
 10
174.7231284911877
 20
46.18954185952668
 30
0.0
 11
174.9303868456603
 21
46.12208559235618
 31
0.0
  0
LINE
  5
1BA
330
16F
100
AcDbEntity
  8
DV4_0
 62
     7
370
    35
100
AcDbLine
 10
174.9303868456603
 20
46.12208559235618
 30
0.0
 11
204.9824250460886
 21
63.47263793707036
 31
0.0
  0
LINE
  5
1BB
330
16F
100
AcDbEntity
  8
DV4_0
 62
     7
370
    35
100
AcDbLine
 10
174.7231284911878
 20
46.18954185952665
 30
0.0
 11
174.9303868456603
 21
46.12208559235617
 31
0.0
  0
LINE
  5
1BC
330
16F
100
AcDbEntity
  8
DV4_0
 62
     7
370
    35
100
AcDbLine
 10
174.9303868456603
 20
46.06988119277987
 30
0.0
 11
204.9824250460886
 21
63.42043353749405
 31
0.0
  0
LINE
  5
1BD
330
16F
100
AcDbEntity
  8
DV4_0
 62
     7
370
    35
100
AcDbLine
 10
174.723128491188
 20
46.18954185952627
 30
0.0
 11
174.9303868456603
 21
46.06988119277987
 31
0.0
  0
LINE
  5
1BE
330
16F
100
AcDbEntity
  8
DV4_0
 62
     7
370
    35
100
AcDbLine
 10
204.9824250460886
 20
63.47263793707037
 30
0.0
 11
204.9824250460886
 21
63.42043353749406
 31
0.0
  0
LINE
  5
1BF
330
16F
100
AcDbEntity
  8
DV4_0
 62
     7
370
    35
100
AcDbLine
 10
174.9303868456603
 20
46.12208559235618
 30
0.0
 11
174.9303868456603
 21
46.06988119277987
 31
0.0
  0
LINE
  5
1C0
330
16F
100
AcDbEntity
  8
DV4_0
 62
     7
370
    35
100
AcDbLine
 10
182.3598817280027
 20
41.57633617728462
 30
0.0
 11
182.3598817280027
 21
40.1474671606611
 31
0.0
  0
LINE
  5
1C1
330
16F
100
AcDbEntity
  8
DV4_0
 62
     7
370
    35
100
AcDbLine
 10
247.7672589877584
 20
79.33930304519195
 30
0.0
 11
247.7672589877584
 21
78.68900711171987
 31
0.0
  0
LINE
  5
1C2
330
16F
100
AcDbEntity
  8
DV4_0
 62
     7
370
    25
100
AcDbLine
 10
247.7672589877584
 20
79.33930304519195
 30
0.0
 11
182.3598817280027
 21
41.57633617728462
 31
0.0
  0
ELLIPSE
  5
1C3
330
16F
100
AcDbEntity
  8
DV4_0
 62
     7
370
    35
100
AcDbEllipse
 10
182.1831050327061
 20
41.67839824990057
 30
0.0
 11
0.1249999999999966
 21
-0.2165063509461106
 31
0.0
210
0.0
220
0.0
230
1.0
 40
0.5773502691896133
 41
0.7853981633976375
 42
2.356194490192383
  0
LINE
  5
1C4
330
16F
100
AcDbEntity
  8
DV4_0
 62
     7
370
    25
100
AcDbLine
 10
182.1831050327061
 20
41.88252239513252
 30
0.0
 11
247.5904822924617
 21
79.64548926303985
 31
0.0
  0
ELLIPSE
  5
1C5
330
16F
100
AcDbEntity
  8
DV4_0
 62
     7
370
    35
100
AcDbEllipse
 10
247.5904822924617
 20
79.44136511780792
 30
0.0
 11
-0.1250000000000035
 21
0.2165063509461077
 31
0.0
210
0.0
220
0.0
230
1.0
 40
0.5773502691896197
 41
3.926990816987164
 42
5.49778714378205
  0
LINE
  5
1C6
330
16F
100
AcDbEntity
  8
DV4_0
 62
     7
370
    35
100
AcDbLine
 10
174.935260525544
 20
44.43407421053166
 30
0.0
 11
174.935260525544
 21
45.86294322715518
 31
0.0
  0
ELLIPSE
  5
1C7
330
16F
100
AcDbEntity
  8
DV4_0
 62
     7
370
    35
100
AcDbEllipse
 10
175.1120372208406
 20
44.33201213791569
 30
0.0
 11
-0.1249999999999966
 21
0.2165063509461078
 31
0.0
210
0.0
220
0.0
230
1.0
 40
0.5773502691896424
 41
0.7853981633974394
 42
2.356194490192355
  0
LINE
  5
1C8
330
16F
100
AcDbEntity
  8
DV4_0
 62
     7
370
    35
100
AcDbLine
 10
182.1831050327061
 20
40.04540508804514
 30
0.0
 11
175.1120372208406
 21
44.12788799268377
 31
0.0
  0
ELLIPSE
  5
1C9
330
16F
100
AcDbEntity
  8
DV4_0
 62
     7
370
    35
100
AcDbEllipse
 10
182.1831050327061
 20
40.24952923327707
 30
0.0
 11
-0.1250000000000045
 21
0.2165063509461118
 31
0.0
210
0.0
220
0.0
230
1.0
 40
0.5773502691896256
 41
2.356194490192314
 42
3.926990816987286
  0
LINE
  5
1CA
330
16F
100
AcDbEntity
  8
DV4_0
 62
     7
370
    25
100
AcDbLine
 10
182.3598817280027
 20
40.14746716066109
 30
0.0
 11
182.9962778310706
 21
40.51489062207857
 31
0.0
  0
LINE
  5
1CB
330
16F
100
AcDbEntity
  8
DV4_0
 62
     7
370
    35
100
AcDbLine
 10
175.1120372208406
 20
45.96500529977114
 30
0.0
 11
182.1831050327061
 21
41.88252239513251
 31
0.0
  0
LINE
  5
1CC
330
16F
100
AcDbEntity
  8
DV4_0
 62
     7
370
    35
100
AcDbLine
 10
240.5194144805963
 20
83.72797216767847
 30
0.0
 11
247.5904822924617
 21
79.64548926303983
 31
0.0
  0
LINE
  5
1CD
330
16F
100
AcDbEntity
  8
DV4_0
 62
     7
370
    25
100
AcDbLine
 10
240.5194144805963
 20
83.72797216767847
 30
0.0
 11
175.1120372208406
 21
45.96500529977114
 31
0.0
  0
ELLIPSE
  5
1CE
330
16F
100
AcDbEntity
  8
DV4_0
 62
     7
370
    35
100
AcDbEllipse
 10
175.1120372208406
 20
45.76088115453922
 30
0.0
 11
0.1250000000000084
 21
-0.2165063509461072
 31
0.0
210
0.0
220
0.0
230
1.0
 40
0.5773502691896188
 41
2.356194490192309
 42
3.926990816987264
  0
ELLIPSE
  5
1CF
330
16F
100
AcDbEntity
  8
DV4_0
 62
     7
370
    35
100
AcDbEllipse
 10
240.5194144805963
 20
83.52384802244656
 30
0.0
 11
0.1250000000000006
 21
-0.2165063509461061
 31
0.0
210
0.0
220
0.0
230
0.9999999999999999
 40
0.577350269189619
 41
2.356194490192273
 42
3.141592653589964
  0
LINE
  5
1D0
330
16F
100
AcDbEntity
  8
DV4_0
 62
     7
370
    35
100
AcDbLine
 10
182.3081050327061
 20
40.03302288233095
 30
0.0
 11
182.9962778310706
 21
40.43033963271569
 31
0.0
  0
LINE
  5
1D1
330
16F
100
AcDbEntity
  8
DV4_0
 62
     7
370
    35
100
AcDbLine
 10
240.3944144805962
 20
83.74035437339266
 30
0.0
 11
174.9870372208406
 21
45.97738750548534
 31
0.0
  0
LINE
  5
1D2
330
16F
100
AcDbEntity
  8
DV4_0
 62
     7
370
    35
100
AcDbLine
 10
190.4208990335293
 20
36.92230566599658
 30
0.0
 11
190.4208990335293
 21
35.49343664937306
 31
0.0
  0
ELLIPSE
  5
1D3
330
16F
100
AcDbEntity
  8
DV4_0
 62
     7
370
    35
100
AcDbEllipse
 10
190.2441223382327
 20
37.02436773861255
 30
0.0
 11
0.1250000000000065
 21
-0.2165063509461061
 31
0.0
210
0.0
220
0.0
230
1.0
 40
0.5773502691896197
 41
0.7853981633974314
 42
2.356194490192319
  0
LINE
  5
1D4
330
16F
100
AcDbEntity
  8
DV4_0
 62
     7
370
    25
100
AcDbLine
 10
190.2441223382327
 20
37.22849188384448
 30
0.0
 11
255.6514995979883
 21
74.9914587517518
 31
0.0
  0
ELLIPSE
  5
1D5
330
16F
100
AcDbEntity
  8
DV4_0
 62
     7
370
    35
100
AcDbEllipse
 10
255.6514995979884
 20
74.78733460651988
 30
0.0
 11
-0.1250000000000006
 21
0.2165063509461084
 31
0.0
210
0.0
220
0.0
230
1.0
 40
0.5773502691896197
 41
4.712388980384755
 42
5.497787143782061
  0
LINE
  5
1D6
330
16F
100
AcDbEntity
  8
DV4_0
 62
     7
370
    35
100
AcDbLine
 10
182.9962778310706
 20
39.78004369924362
 30
0.0
 11
182.9962778310706
 21
41.20891271586714
 31
0.0
  0
ELLIPSE
  5
1D7
330
16F
100
AcDbEntity
  8
DV4_0
 62
     7
370
    35
100
AcDbEllipse
 10
183.1730545263672
 20
39.67798162662766
 30
0.0
 11
-0.1250000000000045
 21
0.2165063509461118
 31
0.0
210
0.0
220
0.0
230
1.0
 40
0.5773502691896262
 41
0.785398163397458
 42
2.356194490192348
  0
LINE
  5
1D8
330
16F
100
AcDbEntity
  8
DV4_0
 62
     7
370
    35
100
AcDbLine
 10
190.2441223382327
 20
35.39137457675709
 30
0.0
 11
183.1730545263672
 21
39.47385748139572
 31
0.0
  0
ELLIPSE
  5
1D9
330
16F
100
AcDbEntity
  8
DV4_0
 62
     7
370
    35
100
AcDbEllipse
 10
190.2441223382327
 20
35.59549872198902
 30
0.0
 11
-0.1249999999999966
 21
0.2165063509461106
 31
0.0
210
0.0
220
0.0
230
1.0
 40
0.5773502691896254
 41
2.356194490192383
 42
3.926990816987211
  0
LINE
  5
1DA
330
16F
100
AcDbEntity
  8
DV4_0
 62
     7
370
    35
100
AcDbLine
 10
183.1730545263672
 20
41.31097478848312
 30
0.0
 11
190.2441223382327
 21
37.22849188384448
 31
0.0
  0
LINE
  5
1DB
330
16F
100
AcDbEntity
  8
DV4_0
 62
     7
370
    35
100
AcDbLine
 10
248.5804317861229
 20
79.07394165639043
 30
0.0
 11
255.6514995979884
 21
74.9914587517518
 31
0.0
  0
LINE
  5
1DC
330
16F
100
AcDbEntity
  8
DV4_0
 62
     7
370
    25
100
AcDbLine
 10
248.5804317861229
 20
79.07394165639043
 30
0.0
 11
183.1730545263672
 21
41.3109747884831
 31
0.0
  0
ELLIPSE
  5
1DD
330
16F
100
AcDbEntity
  8
DV4_0
 62
     7
370
    35
100
AcDbEllipse
 10
183.1730545263672
 20
41.10685064325118
 30
0.0
 11
0.1249999999999966
 21
-0.2165063509461089
 31
0.0
210
0.0
220
0.0
230
0.9999999999999999
 40
0.5773502691896254
 41
2.356194490192352
 42
3.926990816987203
  0
ELLIPSE
  5
1DE
330
16F
100
AcDbEntity
  8
DV4_0
 62
     7
370
    35
100
AcDbEllipse
 10
248.5804317861229
 20
78.86981751115852
 30
0.0
 11
0.1249999999999973
 21
-0.216506350946111
 31
0.0
210
0.0
220
0.0
230
0.9999999999999998
 40
0.5773502691896254
 41
2.356194490192274
 42
3.141592653589793
  0
LINE
  5
1DF
330
16F
100
AcDbEntity
  8
DV4_0
 62
     7
370
    35
100
AcDbLine
 10
190.3691223382327
 20
35.37899237104292
 30
0.0
 11
190.4208990335294
 21
35.40888566001018
 31
0.0
  0
LINE
  5
1E0
330
16F
100
AcDbEntity
  8
DV4_0
 62
     7
370
    35
100
AcDbLine
 10
248.4554317861229
 20
79.08632386210462
 30
0.0
 11
183.0480545263673
 21
41.3233569941973
 31
0.0
  0
LINE
  5
1E1
330
16F
100
AcDbEntity
  8
DV4_0
 62
     7
370
    35
100
AcDbLine
 10
254.0251540012593
 20
55.96708841613579
 30
0.0
 11
246.9894415284532
 21
60.02915890625123
 31
0.0
  0
LINE
  5
1E2
330
16F
100
AcDbEntity
  8
DV4_0
 62
     7
370
    25
100
AcDbLine
 10
246.9894415284532
 20
67.45927779269354
 30
0.0
 11
246.9894415284532
 21
60.02915890625124
 31
0.0
  0
ELLIPSE
  5
1E3
330
16F
100
AcDbEntity
  8
DV4_0
 62
     7
370
    35
100
AcDbEllipse
 10
247.1662182237498
 20
60.1312209788672
 30
0.0
 11
0.2500000000000002
 21
6.228866840273970E-15
 31
0.0
210
0.0
220
0.0
230
1.0
 40
0.5773502691896286
 41
3.141592653589793
 42
3.926990816987219
  0
LINE
  5
1E4
330
16F
100
AcDbEntity
  8
DV4_0
 62
     7
370
    35
100
AcDbLine
 10
246.9162182237498
 20
67.4170022980121
 30
0.0
 11
246.9162182237498
 21
60.13122097886719
 31
0.0
  0
LINE
  5
1E5
330
16F
100
AcDbEntity
  8
DV4_0
 62
     7
370
    35
100
AcDbLine
 10
245.999492034792
 20
60.60070651290064
 30
0.0
 11
240.5547698196556
 21
63.74421834947238
 31
0.0
  0
LINE
  5
1E6
330
16F
100
AcDbEntity
  8
DV4_0
 62
     7
370
    25
100
AcDbLine
 10
245.999492034792
 20
60.60070651290064
 30
0.0
 11
245.999492034792
 21
66.88773018604412
 31
0.0
  0
LINE
  5
1E7
330
16F
100
AcDbEntity
  8
DV4_0
 62
     7
370
    25
100
AcDbLine
 10
246.3530454253853
 20
67.09185433127605
 30
0.0
 11
246.3530454253853
 21
60.60070651290064
 31
0.0
  0
ELLIPSE
  5
1E8
330
16F
100
AcDbEntity
  8
DV4_0
 62
     7
370
    35
100
AcDbEllipse
 10
246.1762687300886
 20
60.70276858551659
 30
0.0
 11
0.2500000000000011
 21
0.0
 31
0.0
210
0.0
220
0.0
230
1.0
 40
0.5773502691896262
 41
3.926990816987239
 42
5.497787143782302
  0
LINE
  5
1E9
330
16F
100
AcDbEntity
  8
DV4_0
 62
     7
370
    35
100
AcDbLine
 10
246.9162182237498
 20
60.92585447963668
 30
0.0
 11
246.3530454253853
 21
60.60070651290064
 31
0.0
  0
LINE
  5
1EA
330
16F
100
AcDbEntity
  8
DV4_0
 62
     7
370
    35
100
AcDbLine
 10
174.736519279536
 20
51.09134956867918
 30
0.0
 11
174.2183733933545
 21
51.25999023660545
 31
0.0
  0
LINE
  5
1EB
330
16F
100
AcDbEntity
  8
DV4_0
 62
     7
370
    25
100
AcDbLine
 10
203.239809592471
 20
77.35226367190609
 30
0.0
 11
173.541324782636
 21
60.20583547242384
 31
0.0
  0
LINE
  5
1EC
330
16F
100
AcDbEntity
  8
DV4_0
 62
     7
370
    25
100
AcDbLine
 10
204.7468207998763
 20
68.50481256253623
 30
0.0
 11
203.239809592471
 21
77.3522636719061
 31
0.0
  0
LINE
  5
1ED
330
16F
100
AcDbEntity
  8
DV4_0
 62
     7
370
    25
100
AcDbLine
 10
173.541324782636
 20
60.20583547242385
 30
0.0
 11
175.0483359900413
 21
51.35838436305398
 31
0.0
  0
LINE
  5
1EE
330
16F
100
AcDbEntity
  8
DV4_0
 62
     7
370
    25
100
AcDbLine
 10
175.0483359900413
 20
51.35838436305398
 30
0.0
 11
204.7468207998763
 21
68.50481256253622
 31
0.0
  0
LINE
  5
1EF
330
16F
100
AcDbEntity
  8
DV4_0
 62
     7
370
    25
100
AcDbLine
 10
174.736519279536
 20
51.09134956867918
 30
0.0
 11
173.1541575117604
 21
60.38117323351755
 31
0.0
  0
LINE
  5
1F0
330
16F
100
AcDbEntity
  8
DV4_0
 62
     7
370
    25
100
AcDbLine
 10
173.1541575117604
 20
60.38117323351756
 30
0.0
 11
203.2061957121887
 21
77.73172557823173
 31
0.0
  0
ELLIPSE
  5
1F1
330
16F
100
AcDbEntity
  8
DV4_0
 62
     7
370
    35
100
AcDbEllipse
 10
203.0670942970772
 20
77.40847722788152
 30
0.0
 11
-0.1498765963837
 21
-0.3189849021637993
 31
0.0
210
0.0
220
0.0
230
1.0
 40
0.5124151386417167
 41
1.63488031936609
 42
3.205676646160621
  0
ELLIPSE
  5
1F2
330
16F
100
AcDbEntity
  8
DV4_0
 62
     7
370
    35
100
AcDbEllipse
 10
173.3686094872422
 20
60.26204902839928
 30
0.0
 11
0.2750966154470872
 21
-0.1292554729712996
 31
0.0
210
0.0
220
0.0
230
1.0
 40
0.0922168383317741
 41
0.9360850415583197
 42
2.506881368353032
  0
ELLIPSE
  5
1F3
330
16F
100
AcDbEntity
  8
DV4_0
 62
     7
370
    35
100
AcDbEllipse
 10
204.5741055044825
 20
68.56102611851165
 30
0.0
 11
-0.2750966154470939
 21
0.1292554729713026
 31
0.0
210
0.0
220
0.0
230
1.0
 40
0.0922168383317724
 41
3.077508661018455
 42
4.077677695147882
  0
ELLIPSE
  5
1F4
330
16F
100
AcDbEntity
  8
DV4_0
 62
     7
370
    35
100
AcDbEllipse
 10
174.8756206946475
 20
51.4145979190294
 30
0.0
 11
0.1498765963837079
 21
0.3189849021637969
 31
0.0
210
0.0
220
0.0
230
1.0
 40
0.5124151386417073
 41
3.205676646161187
 42
4.776472972955895
  0
LINE
  5
1F5
330
16F
100
AcDbEntity
  8
DV4_0
 62
     7
370
    35
100
AcDbLine
 10
172.636011625579
 20
60.54981390144383
 30
0.0
 11
173.1541575117604
 21
60.38117323351756
 31
0.0
  0
LINE
  5
1F6
330
16F
100
AcDbEntity
  8
DV4_0
 62
     7
370
    25
100
AcDbLine
 10
172.636011625579
 20
60.54981390144383
 30
0.0
 11
174.2183733933545
 21
51.25999023660546
 31
0.0
  0
LINE
  5
1F7
330
16F
100
AcDbEntity
  8
DV4_0
 62
     7
370
    35
100
AcDbLine
 10
202.6880498260073
 20
77.90036624615801
 30
0.0
 11
203.2061957121887
 21
77.73172557823175
 31
0.0
  0
LINE
  5
1F8
330
16F
100
AcDbEntity
  8
DV4_0
 62
     7
370
    25
100
AcDbLine
 10
202.6880498260073
 20
77.90036624615801
 30
0.0
 11
172.636011625579
 21
60.54981390144384
 31
0.0
  0
ELLIPSE
  5
1F9
330
16F
100
AcDbEntity
  8
DV4_0
 62
     7
370
    35
100
AcDbEllipse
 10
202.5489484108957
 20
77.57711789580779
 30
0.0
 11
0.1498765963837033
 21
0.3189849021638012
 31
0.0
210
0.0
220
0.0
230
1.0
 40
0.5124151386416849
 41
0.0640839925704642
 42
0.6347112852368713
  0
ELLIPSE
  5
1FA
330
16F
100
AcDbEntity
  8
DV4_0
 62
     7
370
    35
100
AcDbEllipse
 10
174.357474808466
 20
51.58323858695567
 30
0.0
 11
0.1498765963836962
 21
0.3189849021638027
 31
0.0
210
0.0
220
0.0
230
1.0
 40
0.512415138641687
 41
2.506881368352984
 42
3.205676646161216
  0
ELLIPSE
  5
1FB
330
16F
100
AcDbEntity
  8
DV4_0
 62
     7
370
    35
100
AcDbEllipse
 10
172.8504636010608
 20
60.43068969632554
 30
0.0
 11
0.2750966154470872
 21
-0.1292554729713065
 31
0.0
210
0.0
220
0.0
230
0.9999999999999998
 40
0.0922168383317774
 41
2.506881368352862
 42
3.205676646160054
  0
LINE
  5
1FC
330
16F
100
AcDbEntity
  8
DV4_0
 62
     7
370
    35
100
AcDbLine
 10
204.8494007640153
 20
68.43366057002854
 30
0.0
 11
203.2846998312173
 21
77.61979995352466
 31
0.0
  0
LINE
  5
1FD
330
16F
100
AcDbEntity
  8
DV4_0
 62
     7
370
    35
100
AcDbLine
 10
174.8518520919579
 20
51.11219997527348
 30
0.0
 11
204.8478741071721
 21
68.43041136037534
 31
0.0
  0
LINE
  5
1FE
330
16F
100
AcDbEntity
  8
DV4_0
 62
     7
370
    35
100
AcDbLine
 10
202.5727170135854
 20
77.87951583956371
 30
0.0
 11
172.5766949983712
 21
60.56130445446185
 31
0.0
  0
LINE
  5
1FF
330
16F
100
AcDbEntity
  8
DV4_0
 62
     7
370
    35
100
AcDbLine
 10
172.575168341528
 20
60.55805524480866
 30
0.0
 11
174.139869274326
 21
51.37191586131253
 31
0.0
  0
LINE
  5
200
330
16F
100
AcDbEntity
  8
DV4_0
 62
     7
370
    35
100
AcDbLine
 10
238.5615347715161
 20
98.14414010142488
 30
0.0
 11
238.0433888853347
 21
98.31278076935115
 31
0.0
  0
LINE
  5
201
330
16F
100
AcDbEntity
  8
DV4_0
 62
     7
370
    35
100
AcDbLine
 10
208.5094965710878
 20
80.7935877567107
 30
0.0
 11
207.9913506849064
 21
80.96222842463698
 31
0.0
  0
LINE
  5
202
330
16F
100
AcDbEntity
  8
DV4_0
 62
     7
370
    25
100
AcDbLine
 10
208.5094965710878
 20
80.7935877567107
 30
0.0
 11
238.5615347715161
 21
98.14414010142488
 31
0.0
  0
LINE
  5
203
330
16F
100
AcDbEntity
  8
DV4_0
 62
     7
370
    25
100
AcDbLine
 10
210.4036750493687
 20
71.77079888624712
 30
0.0
 11
240.1021598592037
 21
88.91722708572937
 31
0.0
  0
LINE
  5
204
330
16F
100
AcDbEntity
  8
DV4_0
 62
     7
370
    25
100
AcDbLine
 10
208.8966638419634
 20
80.618249995617
 30
0.0
 11
210.4036750493687
 21
71.77079888624714
 31
0.0
  0
LINE
  5
205
330
16F
100
AcDbEntity
  8
DV4_0
 62
     7
370
    25
100
AcDbLine
 10
240.1021598592037
 20
88.91722708572937
 30
0.0
 11
238.5951486517984
 21
97.76467819509924
 31
0.0
  0
LINE
  5
206
330
16F
100
AcDbEntity
  8
DV4_0
 62
     7
370
    25
100
AcDbLine
 10
238.5951486517984
 20
97.76467819509925
 30
0.0
 11
208.8966638419634
 21
80.618249995617
 31
0.0
  0
LINE
  5
207
330
16F
100
AcDbEntity
  8
DV4_0
 62
     7
370
    25
100
AcDbLine
 10
210.0918583388633
 20
71.50376409187234
 30
0.0
 11
208.5094965710878
 21
80.7935877567107
 31
0.0
  0
ELLIPSE
  5
208
330
16F
100
AcDbEntity
  8
DV4_0
 62
     7
370
    35
100
AcDbEllipse
 10
210.2309597539748
 20
71.82701244222255
 30
0.0
 11
-0.1498765963836934
 21
-0.3189849021638068
 31
0.0
210
0.0
220
0.0
230
1.0
 40
0.5124151386417131
 41
0.0640839925715326
 42
1.63488031936611
  0
ELLIPSE
  5
209
330
16F
100
AcDbEntity
  8
DV4_0
 62
     7
370
    35
100
AcDbEllipse
 10
239.9294445638099
 20
88.97344064170481
 30
0.0
 11
-0.2750966154470902
 21
0.1292554729713059
 31
0.0
210
0.0
220
0.0
230
1.0
 40
0.0922168383317689
 41
3.077508661018549
 42
4.077677695147879
  0
ELLIPSE
  5
20A
330
16F
100
AcDbEntity
  8
DV4_0
 62
     7
370
    35
100
AcDbEllipse
 10
208.7239485465696
 20
80.67446355159242
 30
0.0
 11
-0.2750966154470931
 21
0.1292554729713008
 31
0.0
210
0.0
220
0.0
230
0.9999999999999999
 40
0.0922168383317649
 41
4.077677695147774
 42
5.648474021942783
  0
ELLIPSE
  5
20B
330
16F
100
AcDbEntity
  8
DV4_0
 62
     7
370
    35
100
AcDbEllipse
 10
238.4224333564046
 20
97.82089175107467
 30
0.0
 11
-0.1498765963836991
 21
-0.3189849021637999
 31
0.0
210
0.0
220
0.0
230
1.0
 40
0.5124151386417082
 41
1.634880319366196
 42
3.205676646161195
  0
LINE
  5
20C
330
16F
100
AcDbEntity
  8
DV4_0
 62
     7
370
    35
100
AcDbLine
 10
209.5737124526819
 20
71.67240475979861
 30
0.0
 11
210.0918583388633
 21
71.50376409187234
 31
0.0
  0
LINE
  5
20D
330
16F
100
AcDbEntity
  8
DV4_0
 62
     7
370
    25
100
AcDbLine
 10
238.0433888853347
 20
98.31278076935115
 30
0.0
 11
207.9913506849064
 21
80.96222842463698
 31
0.0
  0
LINE
  5
20E
330
16F
100
AcDbEntity
  8
DV4_0
 62
     7
370
    25
100
AcDbLine
 10
207.9913506849064
 20
80.96222842463698
 30
0.0
 11
209.5737124526819
 21
71.67240475979861
 31
0.0
  0
ELLIPSE
  5
20F
330
16F
100
AcDbEntity
  8
DV4_0
 62
     7
370
    35
100
AcDbEllipse
 10
208.2058026603882
 20
80.8431042195187
 30
0.0
 11
0.2750966154470912
 21
-0.1292554729712974
 31
0.0
210
0.0
220
0.0
230
0.9999999999999998
 40
0.0922168383317801
 41
2.506881368353146
 42
3.205676646160192
  0
ELLIPSE
  5
210
330
16F
100
AcDbEntity
  8
DV4_0
 62
     7
370
    35
100
AcDbEllipse
 10
209.7128138677934
 20
71.99565311014882
 30
0.0
 11
0.1498765963837067
 21
0.3189849021637941
 31
0.0
210
0.0
220
0.0
230
0.9999999999999999
 40
0.5124151386417062
 41
2.50688136835287
 42
3.205676646161122
  0
ELLIPSE
  5
211
330
16F
100
AcDbEntity
  8
DV4_0
 62
     7
370
    35
100
AcDbEllipse
 10
237.9042874702232
 20
97.98953241900092
 30
0.0
 11
-0.1498765963837089
 21
-0.3189849021637988
 31
0.0
210
0.0
220
0.0
230
1.0
 40
0.5124151386416886
 41
3.205676646161317
 42
3.77630393882662
  0
LINE
  5
212
330
16F
100
AcDbEntity
  8
DV4_0
 62
     7
370
    35
100
AcDbLine
 10
210.2071911512853
 20
71.52461449846663
 30
0.0
 11
240.2032131664995
 21
88.84282588356851
 31
0.0
  0
LINE
  5
213
330
16F
100
AcDbEntity
  8
DV4_0
 62
     7
370
    35
100
AcDbLine
 10
240.2047398233426
 20
88.84607509322167
 30
0.0
 11
238.6400388905447
 21
98.0322144767178
 31
0.0
  0
LINE
  5
214
330
16F
100
AcDbEntity
  8
DV4_0
 62
     7
370
    35
100
AcDbLine
 10
207.9305074008554
 20
80.97046976800182
 30
0.0
 11
209.4952083336534
 21
71.7843303845057
 31
0.0
  0
LINE
  5
215
330
16F
100
AcDbEntity
  8
DV4_0
 62
     7
370
    35
100
AcDbLine
 10
237.9280560729128
 20
98.29193036275686
 30
0.0
 11
207.9320340576986
 21
80.973718977655
 31
0.0
  0
LINE
  5
216
330
16F
100
AcDbEntity
  8
DV4_0
 62
     7
370
    35
100
AcDbLine
 10
237.6634152354683
 20
98.43645059249711
 30
0.0
 11
207.61137703504
 21
81.08589824778294
 31
0.0
  0
LINE
  5
217
330
16F
100
AcDbEntity
  8
DV4_0
 62
     7
370
    35
100
AcDbLine
 10
207.61137703504
 20
81.08589824778295
 30
0.0
 11
210.0784675505151
 21
66.60195638271989
 31
0.0
  0
LINE
  5
218
330
16F
100
AcDbEntity
  8
DV4_0
 62
     7
370
    35
100
AcDbLine
 10
237.8706735899408
 20
98.36899432532661
 30
0.0
 11
207.8186353895126
 21
81.01844198061244
 31
0.0
  0
LINE
  5
219
330
16F
100
AcDbEntity
  8
DV4_0
 62
     7
370
    35
100
AcDbLine
 10
240.337764105416
 20
83.88505246026357
 30
0.0
 11
239.556856442571
 21
88.4696516550159
 31
0.0
  0
LINE
  5
21A
330
16F
100
AcDbEntity
  8
DV4_0
 62
     7
370
    35
100
AcDbLine
 10
237.887762636046
 20
98.26866693613526
 30
0.0
 11
237.8706735899408
 21
98.36899432532661
 31
0.0
  0
LINE
  5
21B
330
16F
100
AcDbEntity
  8
DV4_0
 62
     7
370
    35
100
AcDbLine
 10
210.2857259049877
 20
66.53450011554939
 30
0.0
 11
240.337764105416
 21
83.88505246026357
 31
0.0
  0
LINE
  5
21C
330
16F
100
AcDbEntity
  8
DV4_0
 62
     7
370
    35
100
AcDbLine
 10
207.8186353895126
 20
81.01844198061244
 30
0.0
 11
210.2857259049877
 21
66.53450011554938
 31
0.0
  0
LINE
  5
21D
330
16F
100
AcDbEntity
  8
DV4_0
 62
     7
370
    35
100
AcDbLine
 10
207.61137703504
 20
81.08589824778295
 30
0.0
 11
207.8186353895126
 21
81.01844198061244
 31
0.0
  0
LINE
  5
21E
330
16F
100
AcDbEntity
  8
DV4_0
 62
     7
370
    35
100
AcDbLine
 10
237.6634152354683
 20
98.43645059249711
 30
0.0
 11
237.8706735899409
 21
98.36899432532661
 31
0.0
  0
LINE
  5
21F
330
16F
100
AcDbEntity
  8
DV4_0
 62
     7
370
    35
100
AcDbLine
 10
210.0784675505151
 20
66.6019563827199
 30
0.0
 11
210.2857259049877
 21
66.5345001155494
 31
0.0
  0
LINE
  5
220
330
16F
100
AcDbEntity
  8
DV4_0
 62
     7
370
    35
100
AcDbLine
 10
182.1831050327061
 20
39.92293060090598
 30
0.0
 11
175.1120372208406
 21
44.00541350554461
 31
0.0
  0
LINE
  5
221
330
16F
100
AcDbEntity
  8
DV4_0
 62
     7
370
    35
100
AcDbLine
 10
182.1831050327061
 20
23.756298298537
 30
0.0
 11
175.1120372208406
 21
27.83878120317562
 31
0.0
  0
LINE
  5
222
330
16F
100
AcDbEntity
  8
DV4_0
 62
     7
370
    25
100
AcDbLine
 10
182.1831050327061
 20
23.756298298537
 30
0.0
 11
182.1831050327061
 21
39.92293060090597
 31
0.0
  0
ELLIPSE
  5
223
330
16F
100
AcDbEntity
  8
DV4_0
 62
     7
370
    35
100
AcDbEllipse
 10
182.3598817280027
 20
40.02499267352194
 30
0.0
 11
-0.250000000000005
 21
2.265982540494705E-15
 31
0.0
210
0.0
220
0.0
230
1.0
 40
0.5773502691896198
 41
0.7853981633974652
 42
2.356194490192499
  0
LINE
  5
224
330
16F
100
AcDbEntity
  8
DV4_0
 62
     7
370
    25
100
AcDbLine
 10
182.5366584232993
 20
39.92293060090598
 30
0.0
 11
182.5366584232993
 21
23.756298298537
 31
0.0
  0
ELLIPSE
  5
225
330
16F
100
AcDbEntity
  8
DV4_0
 62
     7
370
    35
100
AcDbEllipse
 10
182.3598817280027
 20
23.85836037115297
 30
0.0
 11
0.2499999999999972
 21
2.266483977873691E-15
 31
0.0
210
0.0
220
0.0
230
1.0
 40
0.5773502691896262
 41
3.926990816987217
 42
5.497787143782152
  0
ELLIPSE
  5
226
330
16F
100
AcDbEntity
  8
DV4_0
 62
     7
370
    35
100
AcDbEllipse
 10
175.2888139161372
 20
44.10747557816057
 30
0.0
 11
0.2500000000000011
 21
0.0
 31
0.0
210
0.0
220
0.0
230
1.0
 40
0.5773502691896191
 41
2.720970600701155
 42
3.926990816987399
  0
LINE
  5
227
330
16F
100
AcDbEntity
  8
DV4_0
 62
     7
370
    25
100
AcDbLine
 10
175.1120372208406
 20
44.00541350554462
 30
0.0
 11
175.1120372208406
 21
27.83878120317564
 31
0.0
  0
ELLIPSE
  5
228
330
16F
100
AcDbEntity
  8
DV4_0
 62
     7
370
    35
100
AcDbEllipse
 10
175.2888139161372
 20
27.94084327579159
 30
0.0
 11
0.2499999999999972
 21
-6.797947621484113E-15
 31
0.0
210
0.0
220
0.0
230
1.0
 40
0.5773502691896317
 41
3.141592653589791
 42
3.926990816987399
  0
LINE
  5
229
330
16F
100
AcDbEntity
  8
DV4_0
 62
     7
370
    35
100
AcDbLine
 10
182.9962778310706
 20
40.18829198970749
 30
0.0
 11
182.5366584232993
 21
39.92293060090597
 31
0.0
  0
LINE
  5
22A
330
16F
100
AcDbEntity
  8
DV4_0
 62
     7
370
    35
100
AcDbLine
 10
183.0998312216639
 20
24.08144626527303
 30
0.0
 11
182.5366584232993
 21
23.756298298537
 31
0.0
  0
LINE
  5
22B
330
16F
100
AcDbEntity
  8
DV4_0
 62
     7
370
    35
100
AcDbLine
 10
175.0388139161372
 20
44.10747557816057
 30
0.0
 11
175.0388139161372
 21
27.9408432757916
 31
0.0
  0
LINE
  5
22C
330
16F
100
AcDbEntity
  8
DV4_0
 62
     7
370
    35
100
AcDbLine
 10
190.2441223382327
 20
35.26890008961794
 30
0.0
 11
183.1730545263672
 21
39.35138299425657
 31
0.0
  0
LINE
  5
22D
330
16F
100
AcDbEntity
  8
DV4_0
 62
     7
370
    35
100
AcDbLine
 10
190.2441223382327
 20
19.10226778724896
 30
0.0
 11
183.1730545263672
 21
23.18475069188759
 31
0.0
  0
LINE
  5
22E
330
16F
100
AcDbEntity
  8
DV4_0
 62
     7
370
    25
100
AcDbLine
 10
190.2441223382327
 20
19.10226778724896
 30
0.0
 11
190.2441223382327
 21
35.26890008961794
 31
0.0
  0
ELLIPSE
  5
22F
330
16F
100
AcDbEntity
  8
DV4_0
 62
     7
370
    35
100
AcDbEllipse
 10
190.4208990335293
 20
35.37096216223391
 30
0.0
 11
-0.2499999999999991
 21
-2.260686888977024E-15
 31
0.0
210
0.0
220
0.0
230
1.0
 40
0.5773502691896201
 41
0.7853981633974314
 42
1.570796326794891
  0
ELLIPSE
  5
230
330
16F
100
AcDbEntity
  8
DV4_0
 62
     7
370
    35
100
AcDbEllipse
 10
190.4208990335293
 20
19.20432985986492
 30
0.0
 11
0.2500000000000031
 21
5.659786059063827E-15
 31
0.0
210
0.0
220
0.0
230
1.0
 40
0.5773502691896262
 41
3.926990816987072
 42
4.712388980384676
  0
ELLIPSE
  5
231
330
16F
100
AcDbEntity
  8
DV4_0
 62
     7
370
    35
100
AcDbEllipse
 10
183.3498312216639
 20
39.45344506687254
 30
0.0
 11
0.250000000000005
 21
-2.265982540494705E-15
 31
0.0
210
0.0
220
0.0
230
1.0
 40
0.577350269189619
 41
2.720970600684977
 42
3.926990816987258
  0
LINE
  5
232
330
16F
100
AcDbEntity
  8
DV4_0
 62
     7
370
    25
100
AcDbLine
 10
183.1730545263672
 20
39.35138299425657
 30
0.0
 11
183.1730545263672
 21
23.18475069188759
 31
0.0
  0
ELLIPSE
  5
233
330
16F
100
AcDbEntity
  8
DV4_0
 62
     7
370
    35
100
AcDbEllipse
 10
183.3498312216639
 20
23.28681276450356
 30
0.0
 11
0.250000000000005
 21
4.532215799678902E-15
 31
0.0
210
0.0
220
0.0
230
1.0
 40
0.5773502691896187
 41
3.141592653589793
 42
3.926990816987243
  0
LINE
  5
234
330
16F
100
AcDbEntity
  8
DV4_0
 62
     7
370
    35
100
AcDbLine
 10
183.0998312216639
 20
39.45344506687254
 30
0.0
 11
183.0998312216639
 21
23.28681276450356
 31
0.0
  0
ENDBLK
  5
236
330
16F
100
AcDbEntity
  8
0
100
AcDbBlockEnd
  0
BLOCK
  5
240
330
237
100
AcDbEntity
  8
0
100
AcDbBlockBegin
  2
GDimGGroup
 70
     0
 10
0.0
 20
0.0
 30
0.0
  3
GDimGGroup
  1

  0
LWPOLYLINE
  5
239
330
237
100
AcDbEntity
  8
Default
 62
     7
370
    25
100
AcDbPolyline
 90
        4
 70
     0
 43
0.0
 10
137.6334239623127
 20
66.17055174953086
 10
136.6334239536204
 20
66.17055174953086
 10
137.1334239579666
 20
69.17055177560789
 10
137.6334239623127
 20
66.17055174953086
  0
LWPOLYLINE
  5
23A
330
237
100
AcDbEntity
  8
Default
 62
     7
370
    25
100
AcDbPolyline
 90
        4
 70
     0
 43
0.0
 10
137.6334239623127
 20
46.18155949807508
 10
136.6334239536204
 20
46.18155949807508
 10
137.1334239579666
 20
43.18155947199805
 10
137.6334239623127
 20
46.18155949807508
  0
LINE
  5
23B
330
237
100
AcDbEntity
  8
Default
 62
     7
370
    25
100
AcDbLine
 10
121.6936342157352
 20
69.17055177560789
 30
0.0
 11
138.6334239710051
 21
69.17055177560789
 31
0.0
  0
LINE
  5
23C
330
237
100
AcDbEntity
  8
Default
 62
     7
370
    25
100
AcDbLine
 10
121.6936342157352
 20
43.18155890902059
 30
0.0
 11
138.6334239710051
 21
43.18155890902059
 31
0.0
  0
LINE
  5
23D
330
237
100
AcDbEntity
  8
Default
 62
     7
370
    25
100
AcDbLine
 10
137.1334239579666
 20
69.17055177560789
 30
0.0
 11
137.1334239579666
 21
43.18155947199804
 31
0.0
  0
TEXT
  5
23F
330
237
100
AcDbEntity
  8
Default
 62
     7
370
    25
100
AcDbText
 10
136.3834239579666
 20
52.65431649336819
 30
0.0
 40
3.0
  1
520
 50
90.0
  7
SEACAD_Solid_Edge_ANSI
 11
133.3834239579666
 21
52.65431649336819
 31
0.0
100
AcDbText
 73
     3
  0
ENDBLK
  5
241
330
237
100
AcDbEntity
  8
0
100
AcDbBlockEnd
  0
BLOCK
  5
24A
330
242
100
AcDbEntity
  8
0
100
AcDbBlockBegin
  2
GDimGGroup1
 70
     0
 10
0.0
 20
0.0
 30
0.0
  3
GDimGGroup1
  1

  0
LWPOLYLINE
  5
244
330
242
100
AcDbEntity
  8
Default
 62
     7
370
    25
100
AcDbPolyline
 90
        4
 70
     0
 43
0.0
 10
226.1397095145678
 20
123.8709127940088
 10
225.1397095058755
 20
123.8709127940088
 10
225.6397095102216
 20
126.8709128200858
 10
226.1397095145678
 20
123.8709127940088
  0
LWPOLYLINE
  5
245
330
242
100
AcDbEntity
  8
Default
 62
     7
370
    25
100
AcDbPolyline
 90
        4
 70
     0
 43
0.0
 10
226.1397095145678
 20
107.3709119520932
 10
225.1397095058755
 20
107.3709119520932
 10
225.6397095102216
 20
104.3709119260161
 10
226.1397095145678
 20
107.3709119520932
  0
LINE
  5
246
330
242
100
AcDbEntity
  8
Default
 62
     7
370
    25
100
AcDbLine
 10
211.8049480545665
 20
126.8709128200858
 30
0.0
 11
227.1397095232601
 21
126.8709128200858
 31
0.0
  0
LINE
  5
247
330
242
100
AcDbEntity
  8
Default
 62
     7
370
    25
100
AcDbLine
 10
212.0549480545665
 20
104.3709128200858
 30
0.0
 11
227.1397095232601
 21
104.3709128200858
 31
0.0
  0
LINE
  5
248
330
242
100
AcDbEntity
  8
Default
 62
     7
370
    25
100
AcDbLine
 10
225.6397095102216
 20
126.8709128200858
 30
0.0
 11
225.6397095102216
 21
104.3709119260161
 31
0.0
  0
TEXT
  5
249
330
242
100
AcDbEntity
  8
Default
 62
     7
370
    25
100
AcDbText
 10
224.8897095102216
 20
112.0991732426162
 30
0.0
 40
3.0
  1
450
 50
90.0
  7
SEACAD_Solid_Edge_ANSI
 11
221.8897095102216
 21
112.0991732426162
 31
0.0
100
AcDbText
 73
     3
  0
ENDBLK
  5
24B
330
242
100
AcDbEntity
  8
0
100
AcDbBlockEnd
  0
BLOCK
  5
254
330
24C
100
AcDbEntity
  8
0
100
AcDbBlockBegin
  2
GDimGGroup2
 70
     0
 10
0.0
 20
0.0
 30
0.0
  3
GDimGGroup2
  1

  0
LWPOLYLINE
  5
24E
330
24C
100
AcDbEntity
  8
Default
 62
     7
370
    25
100
AcDbPolyline
 90
        4
 70
     0
 43
0.0
 10
32.19363424181221
 20
156.2509650061897
 10
32.19363424181221
 20
155.2509649974974
 10
29.19363421573518
 20
155.7509650018436
 10
32.19363424181221
 20
156.2509650061897
  0
LWPOLYLINE
  5
24F
330
24C
100
AcDbEntity
  8
Default
 62
     7
370
    25
100
AcDbPolyline
 90
        4
 70
     0
 43
0.0
 10
118.693635381751
 20
156.2509650061897
 10
118.693635381751
 20
155.2509649974974
 10
121.6936354078281
 20
155.7509650018436
 10
118.693635381751
 20
156.2509650061897
  0
LINE
  5
250
330
24C
100
AcDbEntity
  8
Default
 62
     7
370
    25
100
AcDbLine
 10
29.19363421573518
 20
142.9294862326604
 30
0.0
 11
29.19363421573518
 21
157.2509650148821
 31
0.0
  0
LINE
  5
251
330
24C
100
AcDbEntity
  8
Default
 62
     7
370
    25
100
AcDbLine
 10
121.6936342157352
 20
142.9294862326605
 30
0.0
 11
121.6936342157352
 21
157.2509650148821
 31
0.0
  0
LINE
  5
252
330
24C
100
AcDbEntity
  8
Default
 62
     7
370
    25
100
AcDbLine
 10
29.19363421573518
 20
155.7509650018436
 30
0.0
 11
121.6936354078281
 21
155.7509650018436
 31
0.0
  0
TEXT
  5
253
330
24C
100
AcDbEntity
  8
Default
 62
     7
370
    25
100
AcDbText
 10
70.74798263786857
 20
156.5009650018436
 30
0.0
 40
3.0
  1
1850
  7
SEACAD_Solid_Edge_ANSI
 11
70.74798263786857
 21
159.5009650018436
 31
0.0
100
AcDbText
 73
     3
  0
ENDBLK
  5
255
330
24C
100
AcDbEntity
  8
0
100
AcDbBlockEnd
  0
BLOCK
  5
25E
330
256
100
AcDbEntity
  8
0
100
AcDbBlockBegin
  2
GDimGGroup3
 70
     0
 10
0.0
 20
0.0
 30
0.0
  3
GDimGGroup3
  1

  0
LWPOLYLINE
  5
258
330
256
100
AcDbEntity
  8
Default
 62
     7
370
    25
100
AcDbPolyline
 90
        4
 70
     0
 43
0.0
 10
173.8640329335526
 20
107.3709128461628
 10
174.8640329422449
 20
107.3709128461628
 10
174.3640329378988
 20
104.3709128200858
 10
173.8640329335526
 20
107.3709128461628
  0
LWPOLYLINE
  5
259
330
256
100
AcDbEntity
  8
Default
 62
     7
370
    25
100
AcDbPolyline
 90
        4
 70
     0
 43
0.0
 10
173.8640329335526
 20
139.8655481673627
 10
174.8640329422449
 20
139.8655481673627
 10
174.3640329378988
 20
142.8655481934398
 10
173.8640329335526
 20
139.8655481673627
  0
LINE
  5
25A
330
256
100
AcDbEntity
  8
Default
 62
     7
370
    25
100
AcDbLine
 10
190.1549480545665
 20
104.3709128200858
 30
0.0
 11
172.8640329248603
 21
104.3709128200858
 31
0.0
  0
LINE
  5
25B
330
256
100
AcDbEntity
  8
Default
 62
     7
370
    25
100
AcDbLine
 10
186.3659551879792
 20
142.8655499035625
 30
0.0
 11
172.8640329248602
 21
142.8655499035625
 31
0.0
  0
LINE
  5
25C
330
256
100
AcDbEntity
  8
Default
 62
     7
370
    25
100
AcDbLine
 10
174.3640329378988
 20
104.3709128200858
 30
0.0
 11
174.3640329378988
 21
142.8655481934398
 31
0.0
  0
TEXT
  5
25D
330
256
100
AcDbEntity
  8
Default
 62
     7
370
    25
100
AcDbText
 10
173.6140329378988
 20
120.096491376328
 30
0.0
 40
3.0
  1
770
 50
90.0
  7
SEACAD_Solid_Edge_ANSI
 11
170.6140329378988
 21
120.096491376328
 31
0.0
100
AcDbText
 73
     3
  0
ENDBLK
  5
25F
330
256
100
AcDbEntity
  8
0
100
AcDbBlockEnd
  0
BLOCK
  5
26D
330
267
100
AcDbEntity
  8
0
100
AcDbBlockBegin
  2
SEANNOT_GROUP
 70
     0
 10
0.0
 20
0.0
 30
0.0
  3
SEANNOT_GROUP
  1

  0
TEXT
  5
269
330
267
100
AcDbEntity
  8
Predeterminado
 62
     7
370
     5
100
AcDbText
 10
291.0487110700109
 20
14.25425842492689
 30
0.0
 40
1.5
  1
V 
 50
90.0
  7
SEACAD_Solid_Edge_ANSI
 11
289.5487110700109
 21
14.25425842492689
 31
0.0
100
AcDbText
 73
     3
  0
TEXT
  5
26A
330
267
100
AcDbEntity
  8
Predeterminado
 62
     7
370
     5
100
AcDbText
 10
291.0487110700109
 20
16.16675842492689
 30
0.0
 40
1.5
  1
01
 50
90.0
  7
SEACAD_Solid_Edge_ANSI
 11
289.5487110700109
 21
16.16675842492689
 31
0.0
100
AcDbText
 73
     3
  0
TEXT
  5
26B
330
267
100
AcDbEntity
  8
Predeterminado
 62
     7
370
     5
100
AcDbText
 10
291.0487110700109
 20
18.22925842492689
 30
0.0
 40
1.5
  1
 
 50
90.0
  7
SEACAD_Solid_Edge_ANSI
 11
289.5487110700109
 21
18.22925842492689
 31
0.0
100
AcDbText
 73
     3
  0
TEXT
  5
26C
330
267
100
AcDbEntity
  8
Predeterminado
 62
     7
370
     5
100
AcDbText
 10
291.0487110700109
 20
18.75425842492689
 30
0.0
 40
1.5
  1
04/02/2021
 50
90.0
  7
SEACAD_Solid_Edge_ANSI
 11
289.5487110700109
 21
18.75425842492689
 31
0.0
100
AcDbText
 73
     3
  0
ENDBLK
  5
26E
330
267
100
AcDbEntity
  8
0
100
AcDbBlockEnd
  0
BLOCK
  5
274
330
271
100
AcDbEntity
  8
0
100
AcDbBlockBegin
  2
SEANNOT_GROUP1
 70
     0
 10
0.0
 20
0.0
 30
0.0
  3
SEANNOT_GROUP1
  1

  0
TEXT
  5
273
330
271
100
AcDbEntity
  8
Predeterminado
 62
     7
370
     5
100
AcDbText
 10
142.2906017436267
 20
190.8725958935368
 30
0.0
 40
6.0
  1
Tor
  7
SEACAD_Solid_Edge_ANSI
 11
142.2906017436267
 21
196.8725958935368
 31
0.0
100
AcDbText
 73
     3
  0
ENDBLK
  5
275
330
271
100
AcDbEntity
  8
0
100
AcDbBlockEnd
  0
BLOCK
  5
279
330
276
100
AcDbEntity
  8
0
100
AcDbBlockBegin
  2
SEANNOT_GROUP2
 70
     0
 10
0.0
 20
0.0
 30
0.0
  3
SEANNOT_GROUP2
  1

  0
TEXT
  5
278
330
276
100
AcDbEntity
  8
Predeterminado
 62
     7
370
     5
100
AcDbText
 10
150.3610907776141
 20
186.4313175013868
 30
0.0
 40
3.0
  1
UM353
  7
SEACAD_Solid_Edge_ANSI
 11
150.3610907776141
 21
189.4313175013868
 31
0.0
100
AcDbText
 73
     3
  0
ENDBLK
  5
27A
330
276
100
AcDbEntity
  8
0
100
AcDbBlockEnd
  0
ENDSEC
  0
SECTION
  2
ENTITIES
  0
INSERT
  5
70
330
1F
100
AcDbEntity
  8
Default
100
AcDbBlockReference
  2
SE
 10
0.0
 20
0.0
 30
0.0
  0
INSERT
  5
C8
330
1F
100
AcDbEntity
  8
Default
100
AcDbBlockReference
  2
SE1
 10
0.0
 20
0.0
 30
0.0
  0
INSERT
  5
112
330
1F
100
AcDbEntity
  8
Default
100
AcDbBlockReference
  2
SE2
 10
0.0
 20
0.0
 30
0.0
  0
INSERT
  5
170
330
1F
100
AcDbEntity
  8
Default
100
AcDbBlockReference
  2
SE3
 10
0.0
 20
0.0
 30
0.0
  0
INSERT
  5
238
330
1F
100
AcDbEntity
  8
Default
100
AcDbBlockReference
  2
GDimGGroup
 10
0.0
 20
0.0
 30
0.0
  0
INSERT
  5
243
330
1F
100
AcDbEntity
  8
Default
100
AcDbBlockReference
  2
GDimGGroup1
 10
0.0
 20
0.0
 30
0.0
  0
INSERT
  5
24D
330
1F
100
AcDbEntity
  8
Default
100
AcDbBlockReference
  2
GDimGGroup2
 10
0.0
 20
0.0
 30
0.0
  0
INSERT
  5
257
330
1F
100
AcDbEntity
  8
Default
100
AcDbBlockReference
  2
GDimGGroup3
 10
0.0
 20
0.0
 30
0.0
  0
LINE
  5
261
330
1F
100
AcDbEntity
  8
Predeterminado
 62
     7
370
    35
100
AcDbLine
 10
11.28870202951687
 20
8.596433905172951
 30
0.0
 11
11.28870202951684
 21
201.9479713239704
 31
0.0
  0
LINE
  5
262
330
1F
100
AcDbEntity
  8
Predeterminado
 62
     7
370
    35
100
AcDbLine
 10
11.28870202951687
 20
8.596433905172951
 30
0.0
 11
288.2887020295169
 21
8.596433905172969
 31
0.0
  0
LINE
  5
263
330
1F
100
AcDbEntity
  8
Predeterminado
 62
     7
370
    35
100
AcDbLine
 10
191.2887020295167
 20
201.9479713239704
 30
0.0
 11
11.28870202951683
 21
201.9479713239704
 31
0.0
  0
LINE
  5
264
330
1F
100
AcDbEntity
  8
Predeterminado
 62
     7
370
    35
100
AcDbLine
 10
288.2887020295169
 20
201.9479713239704
 30
0.0
 11
11.28870202951691
 21
201.9479713239704
 31
0.0
  0
LINE
  5
265
330
1F
100
AcDbEntity
  8
Predeterminado
 62
     7
370
    35
100
AcDbLine
 10
11.28870202951684
 20
181.9479713239704
 30
0.0
 11
288.2887020295169
 21
181.9479713239704
 31
0.0
  0
LINE
  5
266
330
1F
100
AcDbEntity
  8
Predeterminado
 62
     7
370
    35
100
AcDbLine
 10
288.2887020295169
 20
201.9479713239704
 30
0.0
 11
288.2887020295169
 21
8.596433905173
 31
0.0
  0
INSERT
  5
268
330
1F
100
AcDbEntity
  8
Predeterminado
100
AcDbBlockReference
  2
SEANNOT_GROUP
 10
0.0
 20
0.0
 30
0.0
  0
LINE
  5
26F
330
1F
100
AcDbEntity
  8
Predeterminado
 62
     7
370
    35
100
AcDbLine
 10
89.91055911737307
 20
185.9479713239704
 30
0.0
 11
89.91055911737307
 21
197.9479713239704
 31
0.0
  0
LINE
  5
270
330
1F
100
AcDbEntity
  8
Predeterminado
 62
     7
370
    35
100
AcDbLine
 10
199.9105591173731
 20
185.9479713239704
 30
0.0
 11
199.9105591173731
 21
197.9479713239704
 31
0.0
  0
INSERT
  5
272
330
1F
100
AcDbEntity
  8
Predeterminado
100
AcDbBlockReference
  2
SEANNOT_GROUP1
 10
0.0
 20
0.0
 30
0.0
  0
INSERT
  5
277
330
1F
100
AcDbEntity
  8
Predeterminado
100
AcDbBlockReference
  2
SEANNOT_GROUP2
 10
0.0
 20
0.0
 30
0.0
  0
MTEXT
  5
27C
102
{ACAD_XDICTIONARY
360
2C4
102
}
330
1F
100
AcDbEntity
  8
D
100
AcDbMText
 10
30.51445010131163
 20
199.4630352844171
 30
0.0
 40
6.500000000000001
 41
45.70995606879774
 71
     1
 72
     1
  1
{\C7;BENITO}\P{\fArial|b1|i0|c0|p34;\C7;–}{\C7;Urban}\P
 73
     1
 44
1.0
1001
ACAD
1000
ACAD_MTEXT_DEFINED_HEIGHT_BEGIN
1070
    46
1040
21.60001000000001
1000
ACAD_MTEXT_DEFINED_HEIGHT_END
  0
MTEXT
  5
27D
330
1F
100
AcDbEntity
  8
Predeterminado
100
AcDbMText
 10
229.9135975724114
 20
195.9475188821595
 30
0.0
 40
3.0
 41
38.610011
 71
     1
 72
     1
  1
{\fSolid Edge ANSI|b0||i0||c0|p34;\C7;\H3.;\W1.;T +34 938 521 000\P}{\fSolid Edge ANSI|b0||i0||c0|p34;\C7;\H3.;\W1.;www.benito.com\P}
 73
     1
 44
1.0
1001
ACAD
1000
ACAD_MTEXT_DEFINED_HEIGHT_BEGIN
1070
    46
1040
10.80001
1000
ACAD_MTEXT_DEFINED_HEIGHT_END
  0
MTEXT
  5
27E
330
1F
100
AcDbEntity
  8
Predeterminado
100
AcDbMText
 10
238.6065149365715
 20
7.329097306594801
 30
0.0
 40
2.0
 41
54.23001100000002
 71
     1
 72
     1
  1
{\fSolid Edge ANSI|b0||i0||c0|p34;\C7;\H2.;\W1.;BENITO –Urban –Light –Play –Covers}
 73
     1
 44
1.0
1001
ACAD
1000
ACAD_MTEXT_DEFINED_HEIGHT_BEGIN
1070
    46
1040
3.60001
1000
ACAD_MTEXT_DEFINED_HEIGHT_END
  0
ENDSEC
  0
SECTION
  2
OBJECTS
  0
DICTIONARY
  5
C
330
0
100
AcDbDictionary
281
     1
  3
ACAD_GROUP
350
D
  3
ACAD_LAYOUT
350
1A
  3
ACAD_MATERIAL
350
43
  3
ACAD_MLEADERSTYLE
350
6B
  3
ACAD_MLINESTYLE
350
17
  3
ACAD_PLOTSETTINGS
350
19
  3
ACAD_PLOTSTYLENAME
350
E
  3
ACAD_SCALELIST
350
47
  3
ACAD_TABLESTYLE
350
69
  3
ACAD_VISUALSTYLE
350
2A
  3
ACDB_RECOMPOSE_DATA
350
301
  3
AcDbVariableDictionary
350
27F
  3
DWGPROPS
350
2C3
  0
DICTIONARY
  5
2C6
330
8
100
AcDbDictionary
280
     1
281
     1
  3
ACAD_XREC_ROUNDTRIP
360
2C7
  0
DICTIONARY
  5
2C4
330
27C
100
AcDbDictionary
280
     1
281
     1
  3
ACAD_MTEXT_RT
360
2C5
  0
DICTIONARY
  5
D
102
{ACAD_REACTORS
330
C
102
}
330
C
100
AcDbDictionary
281
     1
  0
DICTIONARY
  5
1A
102
{ACAD_REACTORS
330
C
102
}
330
C
100
AcDbDictionary
281
     1
  3
Layout1
350
1E
  3
Model
350
22
  0
DICTIONARY
  5
43
102
{ACAD_REACTORS
330
C
102
}
330
C
100
AcDbDictionary
281
     1
  3
ByBlock
350
45
  3
ByLayer
350
44
  3
Global
350
46
  0
DICTIONARY
  5
6B
102
{ACAD_REACTORS
330
C
102
}
330
C
100
AcDbDictionary
281
     1
  3
Standard
350
6C
  0
DICTIONARY
  5
17
102
{ACAD_REACTORS
330
C
102
}
330
C
100
AcDbDictionary
281
     1
  3
Standard
350
18
  0
DICTIONARY
  5
19
102
{ACAD_REACTORS
330
C
102
}
330
C
100
AcDbDictionary
281
     1
  0
ACDBDICTIONARYWDFLT
  5
E
102
{ACAD_REACTORS
330
C
102
}
330
C
100
AcDbDictionary
281
     1
  3
Normal
350
F
100
AcDbDictionaryWithDefault
340
F
  0
DICTIONARY
  5
47
102
{ACAD_REACTORS
330
C
102
}
330
C
100
AcDbDictionary
281
     1
  3
A0
350
48
  3
A1
350
49
  3
A2
350
4A
  3
A3
350
4B
  3
A4
350
4C
  3
A5
350
4D
  3
A6
350
4E
  3
A7
350
4F
  3
A8
350
50
  3
A9
350
51
  3
B0
350
52
  3
B1
350
53
  3
B2
350
54
  3
B3
350
55
  3
B4
350
56
  3
B5
350
57
  3
B6
350
58
  3
B7
350
59
  3
B8
350
5A
  3
B9
350
5B
  3
C0
350
5C
  3
C1
350
5D
  3
C2
350
5E
  3
C3
350
5F
  3
C4
350
60
  3
C5
350
61
  3
C6
350
62
  3
C7
350
63
  3
C8
350
64
  3
C9
350
65
  3
D0
350
66
  3
D1
350
67
  3
D2
350
68
  0
DICTIONARY
  5
69
102
{ACAD_REACTORS
330
C
102
}
330
C
100
AcDbDictionary
281
     1
  3
Standard
350
6A
  0
DICTIONARY
  5
2A
102
{ACAD_REACTORS
330
C
102
}
330
C
100
AcDbDictionary
281
     1
  3
2dWireframe
350
2F
  3
Basic
350
32
  3
Brighten
350
36
  3
ColorChange
350
3A
  3
Conceptual
350
34
  3
Dim
350
35
  3
EdgeColorOff
350
3D
  3
Facepattern
350
39
  3
Flat
350
2B
  3
FlatWithEdges
350
2C
  3
Gouraud
350
2D
  3
GouraudWithEdges
350
2E
  3
Hidden
350
31
  3
JitterOff
350
3B
  3
Linepattern
350
38
  3
OverhangOff
350
3C
  3
Realistic
350
33
  3
Shaded
350
42
  3
Shaded with edges
350
41
  3
Shades of Gray
350
3E
  3
Sketchy
350
3F
  3
Thicken
350
37
  3
Wireframe
350
30
  3
X-Ray
350
40
  0
XRECORD
  5
301
102
{ACAD_REACTORS
330
C
102
}
330
C
100
AcDbXrecord
280
     1
 90
        1
330
27C
  0
DICTIONARY
  5
27F
102
{ACAD_REACTORS
330
C
102
}
330
C
100
AcDbDictionary
281
     1
  3
CANNOSCALE
350
280
  3
CMLEADERSTYLE
350
2B9
  3
CTABLESTYLE
350
2B8
  3
DIMASSOC
350
2C1
  3
HIDETEXT
350
2C2
  3
MSLTSCALE
350
2C8
  3
PSOLHEIGHT
350
2C0
  3
PSOLWIDTH
350
2BF
  3
SECTIONTHICKNESSINC
350
2BC
  3
XCLIPFRAME
350
281
  0
XRECORD
  5
2C3
102
{ACAD_REACTORS
330
C
102
}
330
C
100
AcDbXrecord
280
     1
  1
DWGPROPS COOKIE
  2

  3

  4

  6

  7

  8
acae2
  9

300
=
301
=
302
=
303
=
304
=
305
=
306
=
307
=
308
=
309
=
 40
0.0
 41
2459387.558933727
 42
2460396.579938947
  1

 90
        0
  0
XRECORD
  5
2C7
102
{ACAD_REACTORS
330
2C6
102
}
330
2C6
100
AcDbXrecord
280
     1
102
VTR_0.000_0.000_1.000_1.000_VISUALSTYLE
340
2F
102
VTR_0.000_0.000_1.000_1.000_GRIDDISPLAY
 70
     3
102
VTR_0.000_0.000_1.000_1.000_GRIDMAJOR
 70
     5
102
VTR_0.000_0.000_1.000_1.000_DEFAULTLIGHTING
280
     1
102
VTR_0.000_0.000_1.000_1.000_DEFAULTLIGHTINGTYPE
 70
     1
102
VTR_0.000_0.000_1.000_1.000_BRIGHTNESS
141
0.0
102
VTR_0.000_0.000_1.000_1.000_CONTRAST
142
0.0
  0
XRECORD
  5
2C5
102
{ACAD_REACTORS
330
2C4
102
}
330
2C4
100
AcDbXrecord
280
     1
 40
129076.0
  1
{\fSolid Edge ANSI|b1||i0||c0|p34;\C7;\H6.5;\W1.;\pxsa0.9538461538;BENITO\P}{\fSolid Edge ANSI|b1||i0||c0|p34;\C7;\H6.5;\W1.;\pxse1.;–Urban\P}
  0
LAYOUT
  5
1E
102
{ACAD_REACTORS
330
1A
102
}
330
1A
100
AcDbPlotSettings
  1

  2
none_device
  4

  6

 40
0.0
 41
0.0
 42
0.0
 43
0.0
 44
0.0
 45
0.0
 46
0.0
 47
0.0
 48
0.0
 49
0.0
140
0.0
141
0.0
142
1.0
143
1.0
 70
   688
 72
     1
 73
     0
 74
     5
  7

 75
    16
147
1.0
148
0.0
149
0.0
100
AcDbLayout
  1
Layout1
 70
     1
 71
     1
 10
0.0
 20
0.0
 11
297.0
 21
210.0
 12
0.0
 22
0.0
 32
0.0
 14
0.0
 24
0.0
 34
0.0
 15
297.0
 25
210.0
 35
0.0
146
0.0
 13
0.0
 23
0.0
 33
0.0
 16
1.0
 26
0.0
 36
0.0
 17
0.0
 27
1.0
 37
0.0
 76
     0
330
1B
  0
LAYOUT
  5
22
102
{ACAD_REACTORS
330
1A
102
}
330
1A
100
AcDbPlotSettings
  1

  2
none_device
  4
Letter_(8.50_x_11.00_Inches)
  6

 40
6.35
 41
6.35
 42
6.35000508
 43
6.35000508
 44
215.9
 45
279.4
 46
0.0
 47
0.0
 48
0.0
 49
0.0
140
0.0
141
0.0
142
1.0
143
1.0
 70
  1712
 72
     1
 73
     0
 74
     0
  7

 75
     0
147
1.0
148
0.0
149
0.0
100
AcDbLayout
  1
Model
 70
     1
 71
     0
 10
0.0
 20
0.0
 11
297.0
 21
210.0
 12
0.0
 22
0.0
 32
0.0
 14
0.0
 24
0.0
 34
0.0
 15
297.0
 25
210.0
 35
0.0
146
0.0
 13
0.0
 23
0.0
 33
0.0
 16
1.0
 26
0.0
 36
0.0
 17
0.0
 27
1.0
 37
0.0
 76
     0
330
1F
331
29
  0
MATERIAL
  5
45
102
{ACAD_REACTORS
330
43
102
}
102
{ACAD_XDICTIONARY
360
2FB
102
}
330
43
100
AcDbMaterial
  1
ByBlock
  0
MATERIAL
  5
44
102
{ACAD_REACTORS
330
43
102
}
102
{ACAD_XDICTIONARY
360
2F9
102
}
330
43
100
AcDbMaterial
  1
ByLayer
  0
MATERIAL
  5
46
102
{ACAD_REACTORS
330
43
102
}
102
{ACAD_XDICTIONARY
360
2FD
102
}
330
43
100
AcDbMaterial
  1
Global
  0
MLEADERSTYLE
  5
6C
102
{ACAD_REACTORS
330
6B
102
}
102
{ACAD_XDICTIONARY
360
2FF
102
}
330
6B
100
AcDbMLeaderStyle
170
     2
171
     1
172
     0
 90
        2
 40
0.0
 41
0.0
173
     1
 91
-1056964608
340
14
 92
       -2
290
     1
 42
2.0
291
     1
 43
8.0
  3
Standard
341
0
 44
4.0
300

342
11
174
     1
178
     6
175
     1
176
     0
 93
-1056964608
 45
4.0
292
     0
297
     0
 46
4.0
343
0
 94
-1056964608
 47
1.0
 49
1.0
140
1.0
293
     1
141
0.0
294
     1
177
     0
142
1.0
295
     0
296
     0
143
3.75
1001
ACAD_MLEADERVER
1070
     2
  0
MLINESTYLE
  5
18
102
{ACAD_REACTORS
330
17
102
}
330
17
100
AcDbMlineStyle
  2
Standard
 70
     0
  3

 62
   256
 51
90.0
 52
90.0
 71
     2
 49
0.5
 62
   256
  6
BYLAYER
 49
-0.5
 62
   256
  6
BYLAYER
  0
ACDBPLACEHOLDER
  5
F
102
{ACAD_REACTORS
330
E
102
}
330
E
  0
SCALE
  5
48
102
{ACAD_REACTORS
330
47
102
}
330
47
100
AcDbScale
 70
     0
300
1:1
140
1.0
141
1.0
290
     1
  0
SCALE
  5
49
102
{ACAD_REACTORS
330
47
102
}
330
47
100
AcDbScale
 70
     0
300
1:2
140
1.0
141
2.0
290
     0
  0
SCALE
  5
4A
102
{ACAD_REACTORS
330
47
102
}
330
47
100
AcDbScale
 70
     0
300
1:4
140
1.0
141
4.0
290
     0
  0
SCALE
  5
4B
102
{ACAD_REACTORS
330
47
102
}
330
47
100
AcDbScale
 70
     0
300
1:5
140
1.0
141
5.0
290
     0
  0
SCALE
  5
4C
102
{ACAD_REACTORS
330
47
102
}
330
47
100
AcDbScale
 70
     0
300
1:8
140
1.0
141
8.0
290
     0
  0
SCALE
  5
4D
102
{ACAD_REACTORS
330
47
102
}
330
47
100
AcDbScale
 70
     0
300
1:10
140
1.0
141
10.0
290
     0
  0
SCALE
  5
4E
102
{ACAD_REACTORS
330
47
102
}
330
47
100
AcDbScale
 70
     0
300
1:16
140
1.0
141
16.0
290
     0
  0
SCALE
  5
4F
102
{ACAD_REACTORS
330
47
102
}
330
47
100
AcDbScale
 70
     0
300
1:20
140
1.0
141
20.0
290
     0
  0
SCALE
  5
50
102
{ACAD_REACTORS
330
47
102
}
330
47
100
AcDbScale
 70
     0
300
1:30
140
1.0
141
30.0
290
     0
  0
SCALE
  5
51
102
{ACAD_REACTORS
330
47
102
}
330
47
100
AcDbScale
 70
     0
300
1:40
140
1.0
141
40.0
290
     0
  0
SCALE
  5
52
102
{ACAD_REACTORS
330
47
102
}
330
47
100
AcDbScale
 70
     0
300
1:50
140
1.0
141
50.0
290
     0
  0
SCALE
  5
53
102
{ACAD_REACTORS
330
47
102
}
330
47
100
AcDbScale
 70
     0
300
1:100
140
1.0
141
100.0
290
     0
  0
SCALE
  5
54
102
{ACAD_REACTORS
330
47
102
}
330
47
100
AcDbScale
 70
     0
300
2:1
140
2.0
141
1.0
290
     0
  0
SCALE
  5
55
102
{ACAD_REACTORS
330
47
102
}
330
47
100
AcDbScale
 70
     0
300
4:1
140
4.0
141
1.0
290
     0
  0
SCALE
  5
56
102
{ACAD_REACTORS
330
47
102
}
330
47
100
AcDbScale
 70
     0
300
8:1
140
8.0
141
1.0
290
     0
  0
SCALE
  5
57
102
{ACAD_REACTORS
330
47
102
}
330
47
100
AcDbScale
 70
     0
300
10:1
140
10.0
141
1.0
290
     0
  0
SCALE
  5
58
102
{ACAD_REACTORS
330
47
102
}
330
47
100
AcDbScale
 70
     0
300
100:1
140
100.0
141
1.0
290
     0
  0
SCALE
  5
59
102
{ACAD_REACTORS
330
47
102
}
330
47
100
AcDbScale
 70
     0
300
1/128" = 1'-0"
140
0.0078125
141
12.0
290
     0
  0
SCALE
  5
5A
102
{ACAD_REACTORS
330
47
102
}
330
47
100
AcDbScale
 70
     0
300
1/64" = 1'-0"
140
0.015625
141
12.0
290
     0
  0
SCALE
  5
5B
102
{ACAD_REACTORS
330
47
102
}
330
47
100
AcDbScale
 70
     0
300
1/32" = 1'-0"
140
0.03125
141
12.0
290
     0
  0
SCALE
  5
5C
102
{ACAD_REACTORS
330
47
102
}
330
47
100
AcDbScale
 70
     0
300
1/16" = 1'-0"
140
0.0625
141
12.0
290
     0
  0
SCALE
  5
5D
102
{ACAD_REACTORS
330
47
102
}
330
47
100
AcDbScale
 70
     0
300
3/32" = 1'-0"
140
0.09375
141
12.0
290
     0
  0
SCALE
  5
5E
102
{ACAD_REACTORS
330
47
102
}
330
47
100
AcDbScale
 70
     0
300
1/8" = 1'-0"
140
0.125
141
12.0
290
     0
  0
SCALE
  5
5F
102
{ACAD_REACTORS
330
47
102
}
330
47
100
AcDbScale
 70
     0
300
3/16" = 1'-0"
140
0.1875
141
12.0
290
     0
  0
SCALE
  5
60
102
{ACAD_REACTORS
330
47
102
}
330
47
100
AcDbScale
 70
     0
300
1/4" = 1'-0"
140
0.25
141
12.0
290
     0
  0
SCALE
  5
61
102
{ACAD_REACTORS
330
47
102
}
330
47
100
AcDbScale
 70
     0
300
3/8" = 1'-0"
140
0.375
141
12.0
290
     0
  0
SCALE
  5
62
102
{ACAD_REACTORS
330
47
102
}
330
47
100
AcDbScale
 70
     0
300
1/2" = 1'-0"
140
0.5
141
12.0
290
     0
  0
SCALE
  5
63
102
{ACAD_REACTORS
330
47
102
}
330
47
100
AcDbScale
 70
     0
300
3/4" = 1'-0"
140
0.75
141
12.0
290
     0
  0
SCALE
  5
64
102
{ACAD_REACTORS
330
47
102
}
330
47
100
AcDbScale
 70
     0
300
1" = 1'-0"
140
1.0
141
12.0
290
     0
  0
SCALE
  5
65
102
{ACAD_REACTORS
330
47
102
}
330
47
100
AcDbScale
 70
     0
300
1-1/2" = 1'-0"
140
1.5
141
12.0
290
     0
  0
SCALE
  5
66
102
{ACAD_REACTORS
330
47
102
}
330
47
100
AcDbScale
 70
     0
300
3" = 1'-0"
140
3.0
141
12.0
290
     0
  0
SCALE
  5
67
102
{ACAD_REACTORS
330
47
102
}
330
47
100
AcDbScale
 70
     0
300
6" = 1'-0"
140
6.0
141
12.0
290
     0
  0
SCALE
  5
68
102
{ACAD_REACTORS
330
47
102
}
330
47
100
AcDbScale
 70
     0
300
1'-0" = 1'-0"
140
12.0
141
12.0
290
     0
  0
TABLESTYLE
  5
6A
102
{ACAD_REACTORS
330
69
102
}
330
69
100
AcDbTableStyle
  3
Standard
 70
     0
 71
     0
 40
0.06
 41
0.06
280
     0
281
     0
  7
Standard
140
4.5
170
     2
 62
     0
 63
   257
283
     0
274
    -2
284
     1
 64
     0
275
    -2
285
     1
 65
     0
276
    -2
286
     1
 66
     0
277
    -2
287
     1
 67
     0
278
    -2
288
     1
 68
     0
279
    -2
289
     1
 69
     0
  7
Standard
140
6.0
170
     5
 62
     0
 63
   257
283
     0
274
    -2
284
     1
 64
     0
275
    -2
285
     1
 65
     0
276
    -2
286
     1
 66
     0
277
    -2
287
     1
 67
     0
278
    -2
288
     1
 68
     0
279
    -2
289
     1
 69
     0
  7
Standard
140
4.5
170
     5
 62
     0
 63
   257
283
     0
274
    -2
284
     1
 64
     0
275
    -2
285
     1
 65
     0
276
    -2
286
     1
 66
     0
277
    -2
287
     1
 67
     0
278
    -2
288
     1
 68
     0
279
    -2
289
     1
 69
     0
  0
VISUALSTYLE
  5
2F
102
{ACAD_REACTORS
330
2A
102
}
102
{ACAD_XDICTIONARY
360
2D1
102
}
330
2A
100
AcDbVisualStyle
  2
2dWireframe
 70
     4
 71
     0
 72
     2
 73
     0
 90
        0
 40
0.6
 41
30.0
 62
     5
 63
     7
 74
     1
 91
        4
 64
     7
 65
   257
 75
     1
175
     1
 42
1.0
 92
        0
 66
   257
 43
1.0
 76
     1
 77
     6
 78
     2
 67
     7
 79
     5
170
     0
171
     0
290
     0
174
     0
 93
        1
 44
0.0
173
     0
291
     0
 45
0.0
1001
ACAD
1000
AcDbSavedByObjectVersion
1070
     0
  0
VISUALSTYLE
  5
32
102
{ACAD_REACTORS
330
2A
102
}
102
{ACAD_XDICTIONARY
360
2D7
102
}
330
2A
100
AcDbVisualStyle
  2
Basic
 70
     7
 71
     1
 72
     0
 73
     1
 90
        0
 40
0.6
 41
30.0
 62
     5
 63
     7
 74
     0
 91
        4
 64
     7
 65
   257
 75
     1
175
     1
 42
1.0
 92
        8
 66
     7
 43
1.0
 76
     1
 77
     6
 78
     2
 67
     7
 79
     5
170
     0
171
     0
290
     0
174
     0
 93
        1
 44
0.0
173
     0
291
     1
 45
0.0
1001
ACAD
1000
AcDbSavedByObjectVersion
1070
     0
  0
VISUALSTYLE
  5
36
102
{ACAD_REACTORS
330
2A
102
}
102
{ACAD_XDICTIONARY
360
2DF
102
}
330
2A
100
AcDbVisualStyle
  2
Brighten
 70
    12
 71
     2
 72
     2
 73
     0
 90
        0
 40
0.6
 41
30.0
 62
     5
 63
     7
 74
     1
 91
        4
 64
     7
 65
   257
 75
     1
175
     1
 42
1.0
 92
        8
 66
     7
 43
1.0
 76
     1
 77
     6
 78
     2
 67
     7
 79
     5
170
     0
171
     0
290
     0
174
     0
 93
        1
 44
50.0
173
     0
291
     1
 45
0.0
1001
ACAD
1000
AcDbSavedByObjectVersion
1070
     0
  0
VISUALSTYLE
  5
3A
102
{ACAD_REACTORS
330
2A
102
}
102
{ACAD_XDICTIONARY
360
2E7
102
}
330
2A
100
AcDbVisualStyle
  2
ColorChange
 70
    16
 71
     2
 72
     2
 73
     3
 90
        0
 40
0.6
 41
30.0
 62
     5
 63
     8
 74
     1
 91
        4
 64
     7
 65
   257
 75
     1
175
     1
 42
1.0
 92
        8
 66
     8
 43
1.0
 76
     1
 77
     6
 78
     2
 67
     7
 79
     5
170
     0
171
     0
290
     0
174
     0
 93
        1
 44
0.0
173
     0
291
     1
 45
0.0
1001
ACAD
1000
AcDbSavedByObjectVersion
1070
     0
  0
VISUALSTYLE
  5
34
102
{ACAD_REACTORS
330
2A
102
}
102
{ACAD_XDICTIONARY
360
2DB
102
}
330
2A
100
AcDbVisualStyle
  2
Conceptual
 70
     9
 71
     3
 72
     2
 73
     0
 90
        0
 40
0.6
 41
30.0
 62
     5
 63
     7
 74
     2
 91
        2
 64
     7
 65
   257
 75
     1
175
     1
 42
179.0
 92
        8
 66
     7
 43
1.0
 76
     1
 77
     6
 78
     2
 67
     7
 79
     3
170
     0
171
     0
290
     0
174
     0
 93
        1
 44
0.0
173
     0
291
     0
 45
0.0
1001
ACAD
1000
AcDbSavedByObjectVersion
1070
     0
  0
VISUALSTYLE
  5
35
102
{ACAD_REACTORS
330
2A
102
}
102
{ACAD_XDICTIONARY
360
2DD
102
}
330
2A
100
AcDbVisualStyle
  2
Dim
 70
    11
 71
     2
 72
     2
 73
     0
 90
        0
 40
0.6
 41
30.0
 62
     5
 63
     7
 74
     1
 91
        4
 64
     7
 65
   257
 75
     1
175
     1
 42
1.0
 92
        8
 66
     7
 43
1.0
 76
     1
 77
     6
 78
     2
 67
     7
 79
     5
170
     0
171
     0
290
     0
174
     0
 93
        1
 44
-50.0
173
     0
291
     1
 45
0.0
1001
ACAD
1000
AcDbSavedByObjectVersion
1070
     0
  0
VISUALSTYLE
  5
3D
102
{ACAD_REACTORS
330
2A
102
}
102
{ACAD_XDICTIONARY
360
2ED
102
}
330
2A
100
AcDbVisualStyle
  2
EdgeColorOff
 70
    22
 71
     2
 72
     2
 73
     0
 90
        0
 40
0.6
 41
30.0
 62
     5
 63
     7
 74
     1
 91
        4
 64
     7
 65
   257
 75
     1
175
     1
 42
1.0
 92
        8
 66
     7
 43
1.0
 76
     1
 77
     6
 78
     2
 67
     7
 79
     5
170
     0
171
     0
290
     0
174
     0
 93
        1
 44
0.0
173
     0
291
     1
 45
0.0
1001
ACAD
1000
AcDbSavedByObjectVersion
1070
     0
  0
VISUALSTYLE
  5
39
102
{ACAD_REACTORS
330
2A
102
}
102
{ACAD_XDICTIONARY
360
2E5
102
}
330
2A
100
AcDbVisualStyle
  2
Facepattern
 70
    15
 71
     2
 72
     2
 73
     0
 90
        0
 40
0.6
 41
30.0
 62
     5
 63
     7
 74
     1
 91
        4
 64
     7
 65
   257
 75
     1
175
     1
 42
1.0
 92
        8
 66
     7
 43
1.0
 76
     1
 77
     6
 78
     2
 67
     7
 79
     5
170
     0
171
     0
290
     0
174
     0
 93
        1
 44
0.0
173
     0
291
     1
 45
0.0
1001
ACAD
1000
AcDbSavedByObjectVersion
1070
     0
  0
VISUALSTYLE
  5
2B
102
{ACAD_REACTORS
330
2A
102
}
102
{ACAD_XDICTIONARY
360
2C9
102
}
330
2A
100
AcDbVisualStyle
  2
Flat
 70
     0
 71
     2
 72
     1
 73
     1
 90
        2
 40
0.6
 41
30.0
 62
     5
 63
     7
 74
     0
 91
        0
 64
     7
 65
   257
 75
     1
175
     1
 42
1.0
 92
        8
 66
     7
 43
1.0
 76
     1
 77
     6
 78
     2
 67
     7
 79
     5
170
     0
171
     0
290
     0
174
     0
 93
       13
 44
0.0
173
     0
291
     1
 45
0.0
1001
ACAD
1000
AcDbSavedByObjectVersion
1070
     0
  0
VISUALSTYLE
  5
2C
102
{ACAD_REACTORS
330
2A
102
}
102
{ACAD_XDICTIONARY
360
2CB
102
}
330
2A
100
AcDbVisualStyle
  2
FlatWithEdges
 70
     1
 71
     2
 72
     1
 73
     1
 90
        2
 40
0.6
 41
30.0
 62
     5
 63
     7
 74
     1
 91
        0
 64
     7
 65
   257
 75
     1
175
     1
 42
1.0
 92
        0
 66
   257
 43
1.0
 76
     1
 77
     6
 78
     2
 67
     7
 79
     5
170
     0
171
     0
290
     0
174
     0
 93
       13
 44
0.0
173
     0
291
     1
 45
0.0
1001
ACAD
1000
AcDbSavedByObjectVersion
1070
     0
  0
VISUALSTYLE
  5
2D
102
{ACAD_REACTORS
330
2A
102
}
102
{ACAD_XDICTIONARY
360
2CD
102
}
330
2A
100
AcDbVisualStyle
  2
Gouraud
 70
     2
 71
     2
 72
     2
 73
     1
 90
        2
 40
0.6
 41
30.0
 62
     5
 63
     7
 74
     0
 91
        0
 64
     7
 65
   257
 75
     1
175
     1
 42
1.0
 92
        0
 66
     7
 43
1.0
 76
     1
 77
     6
 78
     2
 67
     7
 79
     5
170
     0
171
     0
290
     0
174
     0
 93
       13
 44
0.0
173
     0
291
     1
 45
0.0
1001
ACAD
1000
AcDbSavedByObjectVersion
1070
     0
  0
VISUALSTYLE
  5
2E
102
{ACAD_REACTORS
330
2A
102
}
102
{ACAD_XDICTIONARY
360
2CF
102
}
330
2A
100
AcDbVisualStyle
  2
GouraudWithEdges
 70
     3
 71
     2
 72
     2
 73
     1
 90
        2
 40
0.6
 41
30.0
 62
     5
 63
     7
 74
     1
 91
        0
 64
     7
 65
   257
 75
     1
175
     1
 42
1.0
 92
        0
 66
   257
 43
1.0
 76
     1
 77
     6
 78
     2
 67
     7
 79
     5
170
     0
171
     0
290
     0
174
     0
 93
       13
 44
0.0
173
     0
291
     1
 45
0.0
1001
ACAD
1000
AcDbSavedByObjectVersion
1070
     0
  0
VISUALSTYLE
  5
31
102
{ACAD_REACTORS
330
2A
102
}
102
{ACAD_XDICTIONARY
360
2D5
102
}
330
2A
100
AcDbVisualStyle
  2
Hidden
 70
     6
 71
     1
 72
     2
 73
     2
 90
        0
 40
0.6
 41
30.0
 62
     5
 63
     7
 74
     2
 91
        2
 64
     7
 65
   257
 75
     2
175
     1
 42
40.0
 92
        0
 66
   257
 43
1.0
 76
     1
 77
     6
 78
     2
 67
     7
 79
     3
170
     0
171
     0
290
     0
174
     0
 93
        1
 44
0.0
173
     0
291
     0
 45
0.0
1001
ACAD
1000
AcDbSavedByObjectVersion
1070
     0
  0
VISUALSTYLE
  5
3B
102
{ACAD_REACTORS
330
2A
102
}
102
{ACAD_XDICTIONARY
360
2E9
102
}
330
2A
100
AcDbVisualStyle
  2
JitterOff
 70
    20
 71
     2
 72
     2
 73
     0
 90
        0
 40
0.6
 41
30.0
 62
     5
 63
     7
 74
     1
 91
        4
 64
     7
 65
   257
 75
     1
175
     1
 42
1.0
 92
       10
 66
     7
 43
1.0
 76
     1
 77
     6
 78
     2
 67
     7
 79
     5
170
     0
171
     0
290
     0
174
     0
 93
        1
 44
0.0
173
     0
291
     1
 45
0.0
1001
ACAD
1000
AcDbSavedByObjectVersion
1070
     0
  0
VISUALSTYLE
  5
38
102
{ACAD_REACTORS
330
2A
102
}
102
{ACAD_XDICTIONARY
360
2E3
102
}
330
2A
100
AcDbVisualStyle
  2
Linepattern
 70
    14
 71
     2
 72
     2
 73
     0
 90
        0
 40
0.6
 41
30.0
 62
     5
 63
     7
 74
     1
 91
        4
 64
     7
 65
   257
 75
     7
175
     7
 42
1.0
 92
        8
 66
     7
 43
1.0
 76
     1
 77
     6
 78
     2
 67
     7
 79
     5
170
     0
171
     0
290
     0
174
     0
 93
        1
 44
0.0
173
     0
291
     1
 45
0.0
1001
ACAD
1000
AcDbSavedByObjectVersion
1070
     0
  0
VISUALSTYLE
  5
3C
102
{ACAD_REACTORS
330
2A
102
}
102
{ACAD_XDICTIONARY
360
2EB
102
}
330
2A
100
AcDbVisualStyle
  2
OverhangOff
 70
    21
 71
     2
 72
     2
 73
     0
 90
        0
 40
0.6
 41
30.0
 62
     5
 63
     7
 74
     1
 91
        4
 64
     7
 65
   257
 75
     1
175
     1
 42
1.0
 92
        9
 66
     7
 43
1.0
 76
     1
 77
     6
 78
     2
 67
     7
 79
     5
170
     0
171
     0
290
     0
174
     0
 93
        1
 44
0.0
173
     0
291
     1
 45
0.0
1001
ACAD
1000
AcDbSavedByObjectVersion
1070
     0
  0
VISUALSTYLE
  5
33
102
{ACAD_REACTORS
330
2A
102
}
102
{ACAD_XDICTIONARY
360
2D9
102
}
330
2A
100
AcDbVisualStyle
  2
Realistic
 70
     8
 71
     2
 72
     3
 73
     0
 90
        2
 40
0.6
 41
30.0
 62
     5
 63
     7
 74
     0
 91
        0
 64
     7
 65
   257
 75
     1
175
     1
 42
1.0
 92
        8
 66
   257
 43
1.0
 76
     1
 77
     6
 78
     2
 67
     7
 79
     3
170
     0
171
     0
290
     0
174
     0
 93
       13
 44
0.0
173
     0
291
     0
 45
0.0
1001
ACAD
1000
AcDbSavedByObjectVersion
1070
     0
  0
VISUALSTYLE
  5
42
102
{ACAD_REACTORS
330
2A
102
}
102
{ACAD_XDICTIONARY
360
2F7
102
}
330
2A
100
AcDbVisualStyle
  2
Shaded
 70
    27
 71
     2
 72
     2
 73
     1
 90
        2
 40
0.6
 41
30.0
 62
     5
 63
     7
 74
     0
 91
        4
 64
     7
 65
   257
 75
     1
175
     1
 42
1.0
 92
        8
 66
   257
 43
1.0
 76
     1
 77
     6
 78
     2
 67
     8
 79
     3
170
     0
171
     0
290
     0
174
     0
 93
        5
 44
0.0
173
     0
291
     0
 45
0.0
1001
ACAD
1000
AcDbSavedByObjectVersion
1070
     0
  0
VISUALSTYLE
  5
41
102
{ACAD_REACTORS
330
2A
102
}
102
{ACAD_XDICTIONARY
360
2F5
102
}
330
2A
100
AcDbVisualStyle
  2
Shaded with edges
 70
    26
 71
     2
 72
     2
 73
     1
 90
        2
 40
0.6
 41
30.0
 62
     5
 63
     7
 74
     1
 91
       10
 64
     7
 65
   257
 75
     2
175
     1
 42
1.0
 92
        8
 66
   257
 43
1.0
 76
     1
 77
     6
 78
     2
 67
     7
 79
     3
170
     0
171
     0
290
     0
174
     0
 93
        5
 44
0.0
173
     0
291
     0
 45
0.0
1001
ACAD
1000
AcDbSavedByObjectVersion
1070
     0
  0
VISUALSTYLE
  5
3E
102
{ACAD_REACTORS
330
2A
102
}
102
{ACAD_XDICTIONARY
360
2EF
102
}
330
2A
100
AcDbVisualStyle
  2
Shades of Gray
 70
    23
 71
     2
 72
     2
 73
     3
 90
        0
 40
0.6
 41
30.0
 62
     5
 63
     7
 74
     2
 91
        2
 64
     7
 65
     7
 75
     1
175
     1
 42
40.0
 92
        8
 66
     7
 43
1.0
 76
     1
 77
     6
 78
     2
 67
     7
 79
     3
170
     0
171
     0
290
     0
174
     0
 93
        1
 44
0.0
173
     0
291
     0
 45
0.0
1001
ACAD
1000
AcDbSavedByObjectVersion
1070
     0
  0
VISUALSTYLE
  5
3F
102
{ACAD_REACTORS
330
2A
102
}
102
{ACAD_XDICTIONARY
360
2F1
102
}
330
2A
100
AcDbVisualStyle
  2
Sketchy
 70
    24
 71
     1
 72
     2
 73
     2
 90
        0
 40
0.6
 41
30.0
 62
     5
 63
     7
 74
     2
 91
        2
 64
     7
 65
     7
 75
     1
175
     1
 42
40.0
 92
       11
 66
     7
 43
1.0
 76
     1
 77
     6
 78
     2
 67
     7
 79
     6
170
     0
171
     0
290
     0
174
     0
 93
        1
 44
0.0
173
     0
291
     0
 45
0.0
1001
ACAD
1000
AcDbSavedByObjectVersion
1070
     0
  0
VISUALSTYLE
  5
37
102
{ACAD_REACTORS
330
2A
102
}
102
{ACAD_XDICTIONARY
360
2E1
102
}
330
2A
100
AcDbVisualStyle
  2
Thicken
 70
    13
 71
     2
 72
     2
 73
     0
 90
        0
 40
0.6
 41
30.0
 62
     5
 63
     7
 74
     1
 91
        4
 64
     7
 65
   257
 75
     1
175
     1
 42
1.0
 92
       12
 66
     7
 43
1.0
 76
     1
 77
     6
 78
     2
 67
     7
 79
     5
170
     0
171
     0
290
     0
174
     0
 93
        1
 44
0.0
173
     0
291
     1
 45
0.0
1001
ACAD
1000
AcDbSavedByObjectVersion
1070
     0
  0
VISUALSTYLE
  5
30
102
{ACAD_REACTORS
330
2A
102
}
102
{ACAD_XDICTIONARY
360
2D3
102
}
330
2A
100
AcDbVisualStyle
  2
Wireframe
 70
     5
 71
     0
 72
     2
 73
     0
 90
        0
 40
0.6
 41
30.0
 62
     5
 63
     7
 74
     1
 91
        4
 64
     7
 65
   257
 75
     1
175
     1
 42
1.0
 92
        0
 66
   257
 43
1.0
 76
     1
 77
     6
 78
     2
 67
     7
 79
     3
170
     0
171
     0
290
     0
174
     0
 93
        1
 44
0.0
173
     0
291
     0
 45
0.0
1001
ACAD
1000
AcDbSavedByObjectVersion
1070
     0
  0
VISUALSTYLE
  5
40
102
{ACAD_REACTORS
330
2A
102
}
102
{ACAD_XDICTIONARY
360
2F3
102
}
330
2A
100
AcDbVisualStyle
  2
X-Ray
 70
    25
 71
     2
 72
     2
 73
     1
 90
        1
 40
0.5
 41
30.0
 62
     5
 63
     7
 74
     1
 91
        0
 64
     7
 65
   257
 75
     1
175
     1
 42
1.0
 92
        8
 66
     7
 43
1.0
 76
     1
 77
     6
 78
     2
 67
     7
 79
     3
170
     0
171
     0
290
     0
174
     0
 93
       13
 44
0.0
173
     0
291
     0
 45
0.0
1001
ACAD
1000
AcDbSavedByObjectVersion
1070
     0
  0
DICTIONARYVAR
  5
280
102
{ACAD_REACTORS
330
27F
102
}
330
27F
100
DictionaryVariables
280
     0
  1
1:1
  0
DICTIONARYVAR
  5
2B9
102
{ACAD_REACTORS
330
27F
102
}
330
27F
100
DictionaryVariables
280
     0
  1
Standard
  0
DICTIONARYVAR
  5
2B8
102
{ACAD_REACTORS
330
27F
102
}
330
27F
100
DictionaryVariables
280
     0
  1
Standard
  0
DICTIONARYVAR
  5
2C1
102
{ACAD_REACTORS
330
27F
102
}
330
27F
100
DictionaryVariables
280
     0
  1
2
  0
DICTIONARYVAR
  5
2C2
102
{ACAD_REACTORS
330
27F
102
}
330
27F
100
DictionaryVariables
280
     0
  1
1
  0
DICTIONARYVAR
  5
2C8
102
{ACAD_REACTORS
330
27F
102
}
330
27F
100
DictionaryVariables
280
     0
  1
1
  0
DICTIONARYVAR
  5
2C0
102
{ACAD_REACTORS
330
27F
102
}
330
27F
100
DictionaryVariables
280
     0
  1
80.000000
  0
DICTIONARYVAR
  5
2BF
102
{ACAD_REACTORS
330
27F
102
}
330
27F
100
DictionaryVariables
280
     0
  1
5.000000
  0
DICTIONARYVAR
  5
2BC
102
{ACAD_REACTORS
330
27F
102
}
330
27F
100
DictionaryVariables
280
     0
  1
6.000000
  0
DICTIONARYVAR
  5
281
102
{ACAD_REACTORS
330
27F
102
}
330
27F
100
DictionaryVariables
280
     0
  1
2
  0
DICTIONARY
  5
2FB
330
45
100
AcDbDictionary
280
     1
281
     1
  3
ACAD_XREC_ROUNDTRIP
360
2FC
  0
DICTIONARY
  5
2F9
330
44
100
AcDbDictionary
280
     1
281
     1
  3
ACAD_XREC_ROUNDTRIP
360
2FA
  0
DICTIONARY
  5
2FD
330
46
100
AcDbDictionary
280
     1
281
     1
  3
ACAD_XREC_ROUNDTRIP
360
2FE
  0
DICTIONARY
  5
2FF
330
6C
100
AcDbDictionary
280
     1
281
     1
  3
ACAD_XREC_ROUNDTRIP
360
300
  0
DICTIONARY
  5
2D1
330
2F
100
AcDbDictionary
280
     1
281
     1
  3
ACAD_XREC_ROUNDTRIP
360
2D2
  0
DICTIONARY
  5
2D7
330
32
100
AcDbDictionary
280
     1
281
     1
  3
ACAD_XREC_ROUNDTRIP
360
2D8
  0
DICTIONARY
  5
2DF
330
36
100
AcDbDictionary
280
     1
281
     1
  3
ACAD_XREC_ROUNDTRIP
360
2E0
  0
DICTIONARY
  5
2E7
330
3A
100
AcDbDictionary
280
     1
281
     1
  3
ACAD_XREC_ROUNDTRIP
360
2E8
  0
DICTIONARY
  5
2DB
330
34
100
AcDbDictionary
280
     1
281
     1
  3
ACAD_XREC_ROUNDTRIP
360
2DC
  0
DICTIONARY
  5
2DD
330
35
100
AcDbDictionary
280
     1
281
     1
  3
ACAD_XREC_ROUNDTRIP
360
2DE
  0
DICTIONARY
  5
2ED
330
3D
100
AcDbDictionary
280
     1
281
     1
  3
ACAD_XREC_ROUNDTRIP
360
2EE
  0
DICTIONARY
  5
2E5
330
39
100
AcDbDictionary
280
     1
281
     1
  3
ACAD_XREC_ROUNDTRIP
360
2E6
  0
DICTIONARY
  5
2C9
330
2B
100
AcDbDictionary
280
     1
281
     1
  3
ACAD_XREC_ROUNDTRIP
360
2CA
  0
DICTIONARY
  5
2CB
330
2C
100
AcDbDictionary
280
     1
281
     1
  3
ACAD_XREC_ROUNDTRIP
360
2CC
  0
DICTIONARY
  5
2CD
330
2D
100
AcDbDictionary
280
     1
281
     1
  3
ACAD_XREC_ROUNDTRIP
360
2CE
  0
DICTIONARY
  5
2CF
330
2E
100
AcDbDictionary
280
     1
281
     1
  3
ACAD_XREC_ROUNDTRIP
360
2D0
  0
DICTIONARY
  5
2D5
330
31
100
AcDbDictionary
280
     1
281
     1
  3
ACAD_XREC_ROUNDTRIP
360
2D6
  0
DICTIONARY
  5
2E9
330
3B
100
AcDbDictionary
280
     1
281
     1
  3
ACAD_XREC_ROUNDTRIP
360
2EA
  0
DICTIONARY
  5
2E3
330
38
100
AcDbDictionary
280
     1
281
     1
  3
ACAD_XREC_ROUNDTRIP
360
2E4
  0
DICTIONARY
  5
2EB
330
3C
100
AcDbDictionary
280
     1
281
     1
  3
ACAD_XREC_ROUNDTRIP
360
2EC
  0
DICTIONARY
  5
2D9
330
33
100
AcDbDictionary
280
     1
281
     1
  3
ACAD_XREC_ROUNDTRIP
360
2DA
  0
DICTIONARY
  5
2F7
330
42
100
AcDbDictionary
280
     1
281
     1
  3
ACAD_XREC_ROUNDTRIP
360
2F8
  0
DICTIONARY
  5
2F5
330
41
100
AcDbDictionary
280
     1
281
     1
  3
ACAD_XREC_ROUNDTRIP
360
2F6
  0
DICTIONARY
  5
2EF
330
3E
100
AcDbDictionary
280
     1
281
     1
  3
ACAD_XREC_ROUNDTRIP
360
2F0
  0
DICTIONARY
  5
2F1
330
3F
100
AcDbDictionary
280
     1
281
     1
  3
ACAD_XREC_ROUNDTRIP
360
2F2
  0
DICTIONARY
  5
2E1
330
37
100
AcDbDictionary
280
     1
281
     1
  3
ACAD_XREC_ROUNDTRIP
360
2E2
  0
DICTIONARY
  5
2D3
330
30
100
AcDbDictionary
280
     1
281
     1
  3
ACAD_XREC_ROUNDTRIP
360
2D4
  0
DICTIONARY
  5
2F3
330
40
100
AcDbDictionary
280
     1
281
     1
  3
ACAD_XREC_ROUNDTRIP
360
2F4
  0
XRECORD
  5
2FC
102
{ACAD_REACTORS
330
2FB
102
}
330
2FB
100
AcDbXrecord
280
     1
102
MATERIAL
148
0.0
149
0.0
149
0.0
 93
        0
 94
      127
282
     0
 72
     1
 77
     1
171
     1
175
     1
179
     1
273
     0
  0
XRECORD
  5
2FA
102
{ACAD_REACTORS
330
2F9
102
}
330
2F9
100
AcDbXrecord
280
     1
102
MATERIAL
148
0.0
149
0.0
149
0.0
 93
        0
 94
      127
282
     0
 72
     1
 77
     1
171
     1
175
     1
179
     1
273
     0
  0
XRECORD
  5
2FE
102
{ACAD_REACTORS
330
2FD
102
}
330
2FD
100
AcDbXrecord
280
     1
102
MATERIAL
148
0.0
149
0.0
149
0.0
 93
        0
 94
      127
282
     0
 72
     1
 77
     1
171
     1
175
     1
179
     1
273
     0
  0
XRECORD
  5
300
102
{ACAD_REACTORS
330
2FF
102
}
330
2FF
100
AcDbXrecord
280
     1
102
ACAD_ROUNDTRIP_2010_MLEADER_STYLE
  0
XRECORD
  5
2D2
102
{ACAD_REACTORS
330
2D1
102
}
330
2D1
100
AcDbXrecord
280
     1
102
RTVSPropertyOp0
 70
     1
102
RTVSPropertyOp1
 70
     1
102
RTVSPropertyOp2
 70
     1
102
RTVSPropertyOp3
 70
     1
102
RTVSPropertyOp4
 70
     1
102
RTVSPropertyOp5
 70
     1
102
RTVSPropertyOp6
 70
     1
102
RTVSPropertyOp7
 70
     1
102
RTVSPropertyOp8
 70
     1
102
RTVSPropertyOp9
 70
     1
102
RTVSPropertyOp10
 70
     1
102
RTVSPropertyOp11
 70
     1
102
RTVSPropertyOp12
 70
     1
102
RTVSPropertyOp13
 70
     1
102
RTVSPropertyOp14
 70
     1
102
RTVSPropertyOp15
 70
     1
102
RTVSPropertyOp16
 70
     1
102
RTVSPropertyOp17
 70
     1
102
RTVSPropertyOp18
 70
     1
102
RTVSPropertyOp19
 70
     1
102
RTVSPropertyOp20
 70
     1
102
RTVSPropertyOp21
 70
     1
102
RTVSPropertyOp22
 70
     1
102
RTVSPropertyOp23
 70
     1
102
RTVSPropertyOp24
 70
     1
102
RTVSPropertyOp25
 70
     1
102
RTVSPropertyOp26
 70
     1
102
RTVSPropertyOp27
 70
     1
102
RTVSPropertyOp28
 70
     1
102
RTVSPropertyOp29
 70
     1
102
RTVSPropertyOp30
 70
     1
102
RTVSPropertyOp31
 70
     1
102
RTVSPropertyOp32
 70
     1
102
RTVSPropertyOp33
 70
     1
102
RTVSPropertyOp34
 70
     1
102
RTVSPropertyOp35
 70
     1
102
RTVSPropertyOp36
 70
     1
102
RTVSPropertyOp37
 70
     1
102
RTVSPropertyOp38
 70
     1
102
RTVSPropertyOp39
 70
     1
102
RTVSPropertyOp40
 70
     1
102
RTVSPropertyOp41
 70
     1
102
RTVSPropertyOp42
 70
     1
102
RTVSPropertyOp43
 70
     1
102
RTVSPropertyOp44
 70
     1
102
RTVSPropertyOp45
 70
     1
102
RTVSPropertyOp46
 70
     1
102
RTVSPropertyOp47
 70
     1
102
RTVSPropertyOp48
 70
     1
102
RTVSPropertyOp49
 70
     1
102
RTVSPropertyOp50
 70
     1
102
RTVSPropertyOp51
 70
     0
102
RTVSPropertyOp52
 70
     0
102
RTVSPropertyOp53
 70
     1
102
RTVSPropertyOp54
 70
     1
102
RTVSPropertyOp55
 70
     1
102
RTVSPropertyOp56
 70
     1
102
RTVSPropertyOp57
 70
     1
102
RTVSPost2010Prop28
280
     1
102
RTVSPost2010PropOp28
 70
     1
102
RTVSPost2010Prop29
280
     1
102
RTVSPost2010PropOp29
 70
     1
102
RTVSPost2010Prop30
280
     0
102
RTVSPost2010PropOp30
 70
     1
102
RTVSPost2010Prop31
280
     0
102
RTVSPost2010PropOp31
 70
     1
102
RTVSPost2010Prop32
280
     0
102
RTVSPost2010PropOp32
 70
     1
102
RTVSPost2010Prop33
280
     0
102
RTVSPost2010PropOp33
 70
     1
102
RTVSPost2010Prop34
280
     0
102
RTVSPost2010PropOp34
 70
     1
102
RTVSPost2010Prop35
280
     0
102
RTVSPost2010PropOp35
 70
     1
102
RTVSPost2010Prop36
280
     0
102
RTVSPost2010PropOp36
 70
     1
102
RTVSPost2010Prop37
 90
       50
102
RTVSPost2010PropOp37
 70
     1
102
RTVSPost2010Prop38
140
0.0
102
RTVSPost2010PropOp38
 70
     1
102
RTVSPost2010Prop39
140
1.0
102
RTVSPost2010PropOp39
 70
     1
102
RTVSPost2010Prop40
 90
        0
102
RTVSPost2010PropOp40
 70
     1
102
RTVSPost2010Prop41ColorIndex
 90
       18
102
RTVSPost2010Prop41ColorRGB
 90
        0
102
RTVSPost2010PropOp41
 70
     1
102
RTVSPost2010Prop42
 90
       50
102
RTVSPost2010PropOp42
 70
     1
102
RTVSPost2010Prop43
 90
        3
102
RTVSPost2010PropOp43
 70
     1
102
RTVSPost2010Prop44ColorIndex
 90
        5
102
RTVSPost2010Prop44ColorRGB
 90
      255
102
RTVSPost2010PropOp44
 70
     1
102
RTVSPost2010Prop45
280
     0
102
RTVSPost2010PropOp45
 70
     1
102
RTVSPost2010Prop46
 90
       50
102
RTVSPost2010PropOp46
 70
     1
102
RTVSPost2010Prop47
 90
       50
102
RTVSPost2010PropOp47
 70
     1
102
RTVSPost2010Prop48
 90
       50
102
RTVSPost2010PropOp48
 70
     1
102
RTVSPost2010Prop49
280
     0
102
RTVSPost2010PropOp49
 70
     1
102
RTVSPost2010Prop50
 90
       50
102
RTVSPost2010PropOp50
 70
     1
102
RTVSPost2010Prop51ColorIndex
 90
      256
102
RTVSPost2010Prop51ColorRGB
 90
-16777216
102
RTVSPost2010PropOp51
 70
     0
102
RTVSPost2010Prop52
140
1.0
102
RTVSPost2010PropOp52
 70
     0
102
RTVSPost2010Prop53
 90
        2
102
RTVSPost2010PropOp53
 70
     1
102
RTVSPost2010Prop54
  1
strokes_ogs.tif
102
RTVSPost2010PropOp54
 70
     1
102
RTVSPost2010Prop55
280
     0
102
RTVSPost2010PropOp55
 70
     1
102
RTVSPost2010Prop56
140
1.0
102
RTVSPost2010PropOp56
 70
     1
102
RTVSPost2010Prop57
140
1.0
102
RTVSPost2010PropOp57
 70
     1
  0
XRECORD
  5
2D8
102
{ACAD_REACTORS
330
2D7
102
}
330
2D7
100
AcDbXrecord
280
     1
102
RTVSPropertyOp0
 70
     1
102
RTVSPropertyOp1
 70
     1
102
RTVSPropertyOp2
 70
     1
102
RTVSPropertyOp3
 70
     1
102
RTVSPropertyOp4
 70
     1
102
RTVSPropertyOp5
 70
     1
102
RTVSPropertyOp6
 70
     1
102
RTVSPropertyOp7
 70
     1
102
RTVSPropertyOp8
 70
     1
102
RTVSPropertyOp9
 70
     1
102
RTVSPropertyOp10
 70
     1
102
RTVSPropertyOp11
 70
     1
102
RTVSPropertyOp12
 70
     1
102
RTVSPropertyOp13
 70
     1
102
RTVSPropertyOp14
 70
     1
102
RTVSPropertyOp15
 70
     1
102
RTVSPropertyOp16
 70
     1
102
RTVSPropertyOp17
 70
     1
102
RTVSPropertyOp18
 70
     1
102
RTVSPropertyOp19
 70
     1
102
RTVSPropertyOp20
 70
     1
102
RTVSPropertyOp21
 70
     1
102
RTVSPropertyOp22
 70
     1
102
RTVSPropertyOp23
 70
     1
102
RTVSPropertyOp24
 70
     1
102
RTVSPropertyOp25
 70
     1
102
RTVSPropertyOp26
 70
     1
102
RTVSPropertyOp27
 70
     1
102
RTVSPropertyOp28
 70
     1
102
RTVSPropertyOp29
 70
     1
102
RTVSPropertyOp30
 70
     1
102
RTVSPropertyOp31
 70
     1
102
RTVSPropertyOp32
 70
     1
102
RTVSPropertyOp33
 70
     1
102
RTVSPropertyOp34
 70
     1
102
RTVSPropertyOp35
 70
     1
102
RTVSPropertyOp36
 70
     1
102
RTVSPropertyOp37
 70
     1
102
RTVSPropertyOp38
 70
     1
102
RTVSPropertyOp39
 70
     1
102
RTVSPropertyOp40
 70
     1
102
RTVSPropertyOp41
 70
     1
102
RTVSPropertyOp42
 70
     1
102
RTVSPropertyOp43
 70
     1
102
RTVSPropertyOp44
 70
     1
102
RTVSPropertyOp45
 70
     1
102
RTVSPropertyOp46
 70
     1
102
RTVSPropertyOp47
 70
     1
102
RTVSPropertyOp48
 70
     1
102
RTVSPropertyOp49
 70
     1
102
RTVSPropertyOp50
 70
     1
102
RTVSPropertyOp51
 70
     0
102
RTVSPropertyOp52
 70
     0
102
RTVSPropertyOp53
 70
     1
102
RTVSPropertyOp54
 70
     1
102
RTVSPropertyOp55
 70
     1
102
RTVSPropertyOp56
 70
     1
102
RTVSPropertyOp57
 70
     1
102
RTVSPost2010Prop28
280
     0
102
RTVSPost2010PropOp28
 70
     1
102
RTVSPost2010Prop29
280
     1
102
RTVSPost2010PropOp29
 70
     1
102
RTVSPost2010Prop30
280
     1
102
RTVSPost2010PropOp30
 70
     1
102
RTVSPost2010Prop31
280
     0
102
RTVSPost2010PropOp31
 70
     1
102
RTVSPost2010Prop32
280
     0
102
RTVSPost2010PropOp32
 70
     1
102
RTVSPost2010Prop33
280
     0
102
RTVSPost2010PropOp33
 70
     1
102
RTVSPost2010Prop34
280
     0
102
RTVSPost2010PropOp34
 70
     1
102
RTVSPost2010Prop35
280
     0
102
RTVSPost2010PropOp35
 70
     1
102
RTVSPost2010Prop36
280
     0
102
RTVSPost2010PropOp36
 70
     1
102
RTVSPost2010Prop37
 90
       50
102
RTVSPost2010PropOp37
 70
     1
102
RTVSPost2010Prop38
140
0.0
102
RTVSPost2010PropOp38
 70
     1
102
RTVSPost2010Prop39
140
1.0
102
RTVSPost2010PropOp39
 70
     1
102
RTVSPost2010Prop40
 90
        0
102
RTVSPost2010PropOp40
 70
     1
102
RTVSPost2010Prop41ColorIndex
 90
       18
102
RTVSPost2010Prop41ColorRGB
 90
        0
102
RTVSPost2010PropOp41
 70
     1
102
RTVSPost2010Prop42
 90
       50
102
RTVSPost2010PropOp42
 70
     1
102
RTVSPost2010Prop43
 90
        3
102
RTVSPost2010PropOp43
 70
     1
102
RTVSPost2010Prop44ColorIndex
 90
        5
102
RTVSPost2010Prop44ColorRGB
 90
      255
102
RTVSPost2010PropOp44
 70
     1
102
RTVSPost2010Prop45
280
     0
102
RTVSPost2010PropOp45
 70
     1
102
RTVSPost2010Prop46
 90
       50
102
RTVSPost2010PropOp46
 70
     1
102
RTVSPost2010Prop47
 90
       50
102
RTVSPost2010PropOp47
 70
     1
102
RTVSPost2010Prop48
 90
       50
102
RTVSPost2010PropOp48
 70
     1
102
RTVSPost2010Prop49
280
     0
102
RTVSPost2010PropOp49
 70
     1
102
RTVSPost2010Prop50
 90
       50
102
RTVSPost2010PropOp50
 70
     1
102
RTVSPost2010Prop51ColorIndex
 90
      256
102
RTVSPost2010Prop51ColorRGB
 90
-16777216
102
RTVSPost2010PropOp51
 70
     0
102
RTVSPost2010Prop52
140
1.0
102
RTVSPost2010PropOp52
 70
     0
102
RTVSPost2010Prop53
 90
        2
102
RTVSPost2010PropOp53
 70
     1
102
RTVSPost2010Prop54
  1
strokes_ogs.tif
102
RTVSPost2010PropOp54
 70
     1
102
RTVSPost2010Prop55
280
     0
102
RTVSPost2010PropOp55
 70
     1
102
RTVSPost2010Prop56
140
1.0
102
RTVSPost2010PropOp56
 70
     1
102
RTVSPost2010Prop57
140
1.0
102
RTVSPost2010PropOp57
 70
     1
  0
XRECORD
  5
2E0
102
{ACAD_REACTORS
330
2DF
102
}
330
2DF
100
AcDbXrecord
280
     1
102
RTVSPropertyOp0
 70
     1
102
RTVSPropertyOp1
 70
     1
102
RTVSPropertyOp2
 70
     1
102
RTVSPropertyOp3
 70
     1
102
RTVSPropertyOp4
 70
     1
102
RTVSPropertyOp5
 70
     1
102
RTVSPropertyOp6
 70
     1
102
RTVSPropertyOp7
 70
     1
102
RTVSPropertyOp8
 70
     1
102
RTVSPropertyOp9
 70
     1
102
RTVSPropertyOp10
 70
     1
102
RTVSPropertyOp11
 70
     1
102
RTVSPropertyOp12
 70
     1
102
RTVSPropertyOp13
 70
     1
102
RTVSPropertyOp14
 70
     1
102
RTVSPropertyOp15
 70
     1
102
RTVSPropertyOp16
 70
     1
102
RTVSPropertyOp17
 70
     1
102
RTVSPropertyOp18
 70
     1
102
RTVSPropertyOp19
 70
     1
102
RTVSPropertyOp20
 70
     1
102
RTVSPropertyOp21
 70
     1
102
RTVSPropertyOp22
 70
     1
102
RTVSPropertyOp23
 70
     1
102
RTVSPropertyOp24
 70
     1
102
RTVSPropertyOp25
 70
     1
102
RTVSPropertyOp26
 70
     1
102
RTVSPropertyOp27
 70
     1
102
RTVSPropertyOp28
 70
     1
102
RTVSPropertyOp29
 70
     1
102
RTVSPropertyOp30
 70
     1
102
RTVSPropertyOp31
 70
     1
102
RTVSPropertyOp32
 70
     1
102
RTVSPropertyOp33
 70
     1
102
RTVSPropertyOp34
 70
     1
102
RTVSPropertyOp35
 70
     1
102
RTVSPropertyOp36
 70
     1
102
RTVSPropertyOp37
 70
     1
102
RTVSPropertyOp38
 70
     1
102
RTVSPropertyOp39
 70
     1
102
RTVSPropertyOp40
 70
     1
102
RTVSPropertyOp41
 70
     1
102
RTVSPropertyOp42
 70
     1
102
RTVSPropertyOp43
 70
     1
102
RTVSPropertyOp44
 70
     1
102
RTVSPropertyOp45
 70
     1
102
RTVSPropertyOp46
 70
     1
102
RTVSPropertyOp47
 70
     1
102
RTVSPropertyOp48
 70
     1
102
RTVSPropertyOp49
 70
     1
102
RTVSPropertyOp50
 70
     1
102
RTVSPropertyOp51
 70
     0
102
RTVSPropertyOp52
 70
     0
102
RTVSPropertyOp53
 70
     1
102
RTVSPropertyOp54
 70
     1
102
RTVSPropertyOp55
 70
     1
102
RTVSPropertyOp56
 70
     1
102
RTVSPropertyOp57
 70
     1
102
RTVSPost2010Prop28
280
     0
102
RTVSPost2010PropOp28
 70
     1
102
RTVSPost2010Prop29
280
     1
102
RTVSPost2010PropOp29
 70
     1
102
RTVSPost2010Prop30
280
     1
102
RTVSPost2010PropOp30
 70
     1
102
RTVSPost2010Prop31
280
     0
102
RTVSPost2010PropOp31
 70
     1
102
RTVSPost2010Prop32
280
     0
102
RTVSPost2010PropOp32
 70
     1
102
RTVSPost2010Prop33
280
     0
102
RTVSPost2010PropOp33
 70
     1
102
RTVSPost2010Prop34
280
     0
102
RTVSPost2010PropOp34
 70
     1
102
RTVSPost2010Prop35
280
     0
102
RTVSPost2010PropOp35
 70
     1
102
RTVSPost2010Prop36
280
     0
102
RTVSPost2010PropOp36
 70
     1
102
RTVSPost2010Prop37
 90
       50
102
RTVSPost2010PropOp37
 70
     1
102
RTVSPost2010Prop38
140
0.0
102
RTVSPost2010PropOp38
 70
     1
102
RTVSPost2010Prop39
140
1.0
102
RTVSPost2010PropOp39
 70
     1
102
RTVSPost2010Prop40
 90
        0
102
RTVSPost2010PropOp40
 70
     1
102
RTVSPost2010Prop41ColorIndex
 90
       18
102
RTVSPost2010Prop41ColorRGB
 90
        0
102
RTVSPost2010PropOp41
 70
     1
102
RTVSPost2010Prop42
 90
       50
102
RTVSPost2010PropOp42
 70
     1
102
RTVSPost2010Prop43
 90
        3
102
RTVSPost2010PropOp43
 70
     1
102
RTVSPost2010Prop44ColorIndex
 90
        5
102
RTVSPost2010Prop44ColorRGB
 90
      255
102
RTVSPost2010PropOp44
 70
     1
102
RTVSPost2010Prop45
280
     0
102
RTVSPost2010PropOp45
 70
     1
102
RTVSPost2010Prop46
 90
       50
102
RTVSPost2010PropOp46
 70
     1
102
RTVSPost2010Prop47
 90
       50
102
RTVSPost2010PropOp47
 70
     1
102
RTVSPost2010Prop48
 90
       50
102
RTVSPost2010PropOp48
 70
     1
102
RTVSPost2010Prop49
280
     0
102
RTVSPost2010PropOp49
 70
     1
102
RTVSPost2010Prop50
 90
       50
102
RTVSPost2010PropOp50
 70
     1
102
RTVSPost2010Prop51ColorIndex
 90
      256
102
RTVSPost2010Prop51ColorRGB
 90
-16777216
102
RTVSPost2010PropOp51
 70
     0
102
RTVSPost2010Prop52
140
1.0
102
RTVSPost2010PropOp52
 70
     0
102
RTVSPost2010Prop53
 90
        2
102
RTVSPost2010PropOp53
 70
     1
102
RTVSPost2010Prop54
  1
strokes_ogs.tif
102
RTVSPost2010PropOp54
 70
     1
102
RTVSPost2010Prop55
280
     0
102
RTVSPost2010PropOp55
 70
     1
102
RTVSPost2010Prop56
140
1.0
102
RTVSPost2010PropOp56
 70
     1
102
RTVSPost2010Prop57
140
1.0
102
RTVSPost2010PropOp57
 70
     1
  0
XRECORD
  5
2E8
102
{ACAD_REACTORS
330
2E7
102
}
330
2E7
100
AcDbXrecord
280
     1
102
RTVSPropertyOp0
 70
     1
102
RTVSPropertyOp1
 70
     1
102
RTVSPropertyOp2
 70
     1
102
RTVSPropertyOp3
 70
     1
102
RTVSPropertyOp4
 70
     1
102
RTVSPropertyOp5
 70
     1
102
RTVSPropertyOp6
 70
     1
102
RTVSPropertyOp7
 70
     1
102
RTVSPropertyOp8
 70
     1
102
RTVSPropertyOp9
 70
     1
102
RTVSPropertyOp10
 70
     1
102
RTVSPropertyOp11
 70
     1
102
RTVSPropertyOp12
 70
     1
102
RTVSPropertyOp13
 70
     1
102
RTVSPropertyOp14
 70
     1
102
RTVSPropertyOp15
 70
     1
102
RTVSPropertyOp16
 70
     1
102
RTVSPropertyOp17
 70
     1
102
RTVSPropertyOp18
 70
     1
102
RTVSPropertyOp19
 70
     1
102
RTVSPropertyOp20
 70
     1
102
RTVSPropertyOp21
 70
     1
102
RTVSPropertyOp22
 70
     1
102
RTVSPropertyOp23
 70
     1
102
RTVSPropertyOp24
 70
     1
102
RTVSPropertyOp25
 70
     1
102
RTVSPropertyOp26
 70
     1
102
RTVSPropertyOp27
 70
     1
102
RTVSPropertyOp28
 70
     1
102
RTVSPropertyOp29
 70
     1
102
RTVSPropertyOp30
 70
     1
102
RTVSPropertyOp31
 70
     1
102
RTVSPropertyOp32
 70
     1
102
RTVSPropertyOp33
 70
     1
102
RTVSPropertyOp34
 70
     1
102
RTVSPropertyOp35
 70
     1
102
RTVSPropertyOp36
 70
     1
102
RTVSPropertyOp37
 70
     1
102
RTVSPropertyOp38
 70
     1
102
RTVSPropertyOp39
 70
     1
102
RTVSPropertyOp40
 70
     1
102
RTVSPropertyOp41
 70
     1
102
RTVSPropertyOp42
 70
     1
102
RTVSPropertyOp43
 70
     1
102
RTVSPropertyOp44
 70
     1
102
RTVSPropertyOp45
 70
     1
102
RTVSPropertyOp46
 70
     1
102
RTVSPropertyOp47
 70
     1
102
RTVSPropertyOp48
 70
     1
102
RTVSPropertyOp49
 70
     1
102
RTVSPropertyOp50
 70
     1
102
RTVSPropertyOp51
 70
     0
102
RTVSPropertyOp52
 70
     0
102
RTVSPropertyOp53
 70
     1
102
RTVSPropertyOp54
 70
     1
102
RTVSPropertyOp55
 70
     1
102
RTVSPropertyOp56
 70
     1
102
RTVSPropertyOp57
 70
     1
102
RTVSPost2010Prop28
280
     0
102
RTVSPost2010PropOp28
 70
     1
102
RTVSPost2010Prop29
280
     1
102
RTVSPost2010PropOp29
 70
     1
102
RTVSPost2010Prop30
280
     1
102
RTVSPost2010PropOp30
 70
     1
102
RTVSPost2010Prop31
280
     0
102
RTVSPost2010PropOp31
 70
     1
102
RTVSPost2010Prop32
280
     0
102
RTVSPost2010PropOp32
 70
     1
102
RTVSPost2010Prop33
280
     0
102
RTVSPost2010PropOp33
 70
     1
102
RTVSPost2010Prop34
280
     0
102
RTVSPost2010PropOp34
 70
     1
102
RTVSPost2010Prop35
280
     0
102
RTVSPost2010PropOp35
 70
     1
102
RTVSPost2010Prop36
280
     0
102
RTVSPost2010PropOp36
 70
     1
102
RTVSPost2010Prop37
 90
       50
102
RTVSPost2010PropOp37
 70
     1
102
RTVSPost2010Prop38
140
0.0
102
RTVSPost2010PropOp38
 70
     1
102
RTVSPost2010Prop39
140
1.0
102
RTVSPost2010PropOp39
 70
     1
102
RTVSPost2010Prop40
 90
        0
102
RTVSPost2010PropOp40
 70
     1
102
RTVSPost2010Prop41ColorIndex
 90
       18
102
RTVSPost2010Prop41ColorRGB
 90
        0
102
RTVSPost2010PropOp41
 70
     1
102
RTVSPost2010Prop42
 90
       50
102
RTVSPost2010PropOp42
 70
     1
102
RTVSPost2010Prop43
 90
        3
102
RTVSPost2010PropOp43
 70
     1
102
RTVSPost2010Prop44ColorIndex
 90
        5
102
RTVSPost2010Prop44ColorRGB
 90
      255
102
RTVSPost2010PropOp44
 70
     1
102
RTVSPost2010Prop45
280
     0
102
RTVSPost2010PropOp45
 70
     1
102
RTVSPost2010Prop46
 90
       50
102
RTVSPost2010PropOp46
 70
     1
102
RTVSPost2010Prop47
 90
       50
102
RTVSPost2010PropOp47
 70
     1
102
RTVSPost2010Prop48
 90
       50
102
RTVSPost2010PropOp48
 70
     1
102
RTVSPost2010Prop49
280
     0
102
RTVSPost2010PropOp49
 70
     1
102
RTVSPost2010Prop50
 90
       50
102
RTVSPost2010PropOp50
 70
     1
102
RTVSPost2010Prop51ColorIndex
 90
      256
102
RTVSPost2010Prop51ColorRGB
 90
-16777216
102
RTVSPost2010PropOp51
 70
     0
102
RTVSPost2010Prop52
140
1.0
102
RTVSPost2010PropOp52
 70
     0
102
RTVSPost2010Prop53
 90
        2
102
RTVSPost2010PropOp53
 70
     1
102
RTVSPost2010Prop54
  1
strokes_ogs.tif
102
RTVSPost2010PropOp54
 70
     1
102
RTVSPost2010Prop55
280
     0
102
RTVSPost2010PropOp55
 70
     1
102
RTVSPost2010Prop56
140
1.0
102
RTVSPost2010PropOp56
 70
     1
102
RTVSPost2010Prop57
140
1.0
102
RTVSPost2010PropOp57
 70
     1
  0
XRECORD
  5
2DC
102
{ACAD_REACTORS
330
2DB
102
}
330
2DB
100
AcDbXrecord
280
     1
102
RTVSPropertyOp0
 70
     1
102
RTVSPropertyOp1
 70
     1
102
RTVSPropertyOp2
 70
     1
102
RTVSPropertyOp3
 70
     1
102
RTVSPropertyOp4
 70
     1
102
RTVSPropertyOp5
 70
     1
102
RTVSPropertyOp6
 70
     1
102
RTVSPropertyOp7
 70
     1
102
RTVSPropertyOp8
 70
     1
102
RTVSPropertyOp9
 70
     1
102
RTVSPropertyOp10
 70
     1
102
RTVSPropertyOp11
 70
     1
102
RTVSPropertyOp12
 70
     1
102
RTVSPropertyOp13
 70
     1
102
RTVSPropertyOp14
 70
     1
102
RTVSPropertyOp15
 70
     1
102
RTVSPropertyOp16
 70
     1
102
RTVSPropertyOp17
 70
     1
102
RTVSPropertyOp18
 70
     1
102
RTVSPropertyOp19
 70
     1
102
RTVSPropertyOp20
 70
     1
102
RTVSPropertyOp21
 70
     1
102
RTVSPropertyOp22
 70
     1
102
RTVSPropertyOp23
 70
     1
102
RTVSPropertyOp24
 70
     1
102
RTVSPropertyOp25
 70
     1
102
RTVSPropertyOp26
 70
     1
102
RTVSPropertyOp27
 70
     1
102
RTVSPropertyOp28
 70
     1
102
RTVSPropertyOp29
 70
     1
102
RTVSPropertyOp30
 70
     1
102
RTVSPropertyOp31
 70
     1
102
RTVSPropertyOp32
 70
     1
102
RTVSPropertyOp33
 70
     1
102
RTVSPropertyOp34
 70
     1
102
RTVSPropertyOp35
 70
     1
102
RTVSPropertyOp36
 70
     1
102
RTVSPropertyOp37
 70
     1
102
RTVSPropertyOp38
 70
     1
102
RTVSPropertyOp39
 70
     1
102
RTVSPropertyOp40
 70
     1
102
RTVSPropertyOp41
 70
     1
102
RTVSPropertyOp42
 70
     1
102
RTVSPropertyOp43
 70
     1
102
RTVSPropertyOp44
 70
     1
102
RTVSPropertyOp45
 70
     1
102
RTVSPropertyOp46
 70
     1
102
RTVSPropertyOp47
 70
     1
102
RTVSPropertyOp48
 70
     1
102
RTVSPropertyOp49
 70
     1
102
RTVSPropertyOp50
 70
     1
102
RTVSPropertyOp51
 70
     0
102
RTVSPropertyOp52
 70
     0
102
RTVSPropertyOp53
 70
     1
102
RTVSPropertyOp54
 70
     1
102
RTVSPropertyOp55
 70
     1
102
RTVSPropertyOp56
 70
     1
102
RTVSPropertyOp57
 70
     1
102
RTVSPost2010Prop28
280
     0
102
RTVSPost2010PropOp28
 70
     1
102
RTVSPost2010Prop29
280
     1
102
RTVSPost2010PropOp29
 70
     1
102
RTVSPost2010Prop30
280
     1
102
RTVSPost2010PropOp30
 70
     1
102
RTVSPost2010Prop31
280
     0
102
RTVSPost2010PropOp31
 70
     1
102
RTVSPost2010Prop32
280
     0
102
RTVSPost2010PropOp32
 70
     1
102
RTVSPost2010Prop33
280
     0
102
RTVSPost2010PropOp33
 70
     1
102
RTVSPost2010Prop34
280
     0
102
RTVSPost2010PropOp34
 70
     1
102
RTVSPost2010Prop35
280
     0
102
RTVSPost2010PropOp35
 70
     1
102
RTVSPost2010Prop36
280
     0
102
RTVSPost2010PropOp36
 70
     1
102
RTVSPost2010Prop37
 90
       50
102
RTVSPost2010PropOp37
 70
     1
102
RTVSPost2010Prop38
140
0.0
102
RTVSPost2010PropOp38
 70
     1
102
RTVSPost2010Prop39
140
1.0
102
RTVSPost2010PropOp39
 70
     1
102
RTVSPost2010Prop40
 90
        0
102
RTVSPost2010PropOp40
 70
     1
102
RTVSPost2010Prop41ColorIndex
 90
       18
102
RTVSPost2010Prop41ColorRGB
 90
        0
102
RTVSPost2010PropOp41
 70
     1
102
RTVSPost2010Prop42
 90
       50
102
RTVSPost2010PropOp42
 70
     1
102
RTVSPost2010Prop43
 90
        3
102
RTVSPost2010PropOp43
 70
     1
102
RTVSPost2010Prop44ColorIndex
 90
        5
102
RTVSPost2010Prop44ColorRGB
 90
      255
102
RTVSPost2010PropOp44
 70
     1
102
RTVSPost2010Prop45
280
     0
102
RTVSPost2010PropOp45
 70
     1
102
RTVSPost2010Prop46
 90
       50
102
RTVSPost2010PropOp46
 70
     1
102
RTVSPost2010Prop47
 90
       50
102
RTVSPost2010PropOp47
 70
     1
102
RTVSPost2010Prop48
 90
       50
102
RTVSPost2010PropOp48
 70
     1
102
RTVSPost2010Prop49
280
     0
102
RTVSPost2010PropOp49
 70
     1
102
RTVSPost2010Prop50
 90
       50
102
RTVSPost2010PropOp50
 70
     1
102
RTVSPost2010Prop51ColorIndex
 90
      256
102
RTVSPost2010Prop51ColorRGB
 90
-16777216
102
RTVSPost2010PropOp51
 70
     0
102
RTVSPost2010Prop52
140
1.0
102
RTVSPost2010PropOp52
 70
     0
102
RTVSPost2010Prop53
 90
        2
102
RTVSPost2010PropOp53
 70
     1
102
RTVSPost2010Prop54
  1
strokes_ogs.tif
102
RTVSPost2010PropOp54
 70
     1
102
RTVSPost2010Prop55
280
     0
102
RTVSPost2010PropOp55
 70
     1
102
RTVSPost2010Prop56
140
1.0
102
RTVSPost2010PropOp56
 70
     1
102
RTVSPost2010Prop57
140
1.0
102
RTVSPost2010PropOp57
 70
     1
  0
XRECORD
  5
2DE
102
{ACAD_REACTORS
330
2DD
102
}
330
2DD
100
AcDbXrecord
280
     1
102
RTVSPropertyOp0
 70
     1
102
RTVSPropertyOp1
 70
     1
102
RTVSPropertyOp2
 70
     1
102
RTVSPropertyOp3
 70
     1
102
RTVSPropertyOp4
 70
     1
102
RTVSPropertyOp5
 70
     1
102
RTVSPropertyOp6
 70
     1
102
RTVSPropertyOp7
 70
     1
102
RTVSPropertyOp8
 70
     1
102
RTVSPropertyOp9
 70
     1
102
RTVSPropertyOp10
 70
     1
102
RTVSPropertyOp11
 70
     1
102
RTVSPropertyOp12
 70
     1
102
RTVSPropertyOp13
 70
     1
102
RTVSPropertyOp14
 70
     1
102
RTVSPropertyOp15
 70
     1
102
RTVSPropertyOp16
 70
     1
102
RTVSPropertyOp17
 70
     1
102
RTVSPropertyOp18
 70
     1
102
RTVSPropertyOp19
 70
     1
102
RTVSPropertyOp20
 70
     1
102
RTVSPropertyOp21
 70
     1
102
RTVSPropertyOp22
 70
     1
102
RTVSPropertyOp23
 70
     1
102
RTVSPropertyOp24
 70
     1
102
RTVSPropertyOp25
 70
     1
102
RTVSPropertyOp26
 70
     1
102
RTVSPropertyOp27
 70
     1
102
RTVSPropertyOp28
 70
     1
102
RTVSPropertyOp29
 70
     1
102
RTVSPropertyOp30
 70
     1
102
RTVSPropertyOp31
 70
     1
102
RTVSPropertyOp32
 70
     1
102
RTVSPropertyOp33
 70
     1
102
RTVSPropertyOp34
 70
     1
102
RTVSPropertyOp35
 70
     1
102
RTVSPropertyOp36
 70
     1
102
RTVSPropertyOp37
 70
     1
102
RTVSPropertyOp38
 70
     1
102
RTVSPropertyOp39
 70
     1
102
RTVSPropertyOp40
 70
     1
102
RTVSPropertyOp41
 70
     1
102
RTVSPropertyOp42
 70
     1
102
RTVSPropertyOp43
 70
     1
102
RTVSPropertyOp44
 70
     1
102
RTVSPropertyOp45
 70
     1
102
RTVSPropertyOp46
 70
     1
102
RTVSPropertyOp47
 70
     1
102
RTVSPropertyOp48
 70
     1
102
RTVSPropertyOp49
 70
     1
102
RTVSPropertyOp50
 70
     1
102
RTVSPropertyOp51
 70
     0
102
RTVSPropertyOp52
 70
     0
102
RTVSPropertyOp53
 70
     1
102
RTVSPropertyOp54
 70
     1
102
RTVSPropertyOp55
 70
     1
102
RTVSPropertyOp56
 70
     1
102
RTVSPropertyOp57
 70
     1
102
RTVSPost2010Prop28
280
     0
102
RTVSPost2010PropOp28
 70
     1
102
RTVSPost2010Prop29
280
     1
102
RTVSPost2010PropOp29
 70
     1
102
RTVSPost2010Prop30
280
     1
102
RTVSPost2010PropOp30
 70
     1
102
RTVSPost2010Prop31
280
     0
102
RTVSPost2010PropOp31
 70
     1
102
RTVSPost2010Prop32
280
     0
102
RTVSPost2010PropOp32
 70
     1
102
RTVSPost2010Prop33
280
     0
102
RTVSPost2010PropOp33
 70
     1
102
RTVSPost2010Prop34
280
     0
102
RTVSPost2010PropOp34
 70
     1
102
RTVSPost2010Prop35
280
     0
102
RTVSPost2010PropOp35
 70
     1
102
RTVSPost2010Prop36
280
     0
102
RTVSPost2010PropOp36
 70
     1
102
RTVSPost2010Prop37
 90
       50
102
RTVSPost2010PropOp37
 70
     1
102
RTVSPost2010Prop38
140
0.0
102
RTVSPost2010PropOp38
 70
     1
102
RTVSPost2010Prop39
140
1.0
102
RTVSPost2010PropOp39
 70
     1
102
RTVSPost2010Prop40
 90
        0
102
RTVSPost2010PropOp40
 70
     1
102
RTVSPost2010Prop41ColorIndex
 90
       18
102
RTVSPost2010Prop41ColorRGB
 90
        0
102
RTVSPost2010PropOp41
 70
     1
102
RTVSPost2010Prop42
 90
       50
102
RTVSPost2010PropOp42
 70
     1
102
RTVSPost2010Prop43
 90
        3
102
RTVSPost2010PropOp43
 70
     1
102
RTVSPost2010Prop44ColorIndex
 90
        5
102
RTVSPost2010Prop44ColorRGB
 90
      255
102
RTVSPost2010PropOp44
 70
     1
102
RTVSPost2010Prop45
280
     0
102
RTVSPost2010PropOp45
 70
     1
102
RTVSPost2010Prop46
 90
       50
102
RTVSPost2010PropOp46
 70
     1
102
RTVSPost2010Prop47
 90
       50
102
RTVSPost2010PropOp47
 70
     1
102
RTVSPost2010Prop48
 90
       50
102
RTVSPost2010PropOp48
 70
     1
102
RTVSPost2010Prop49
280
     0
102
RTVSPost2010PropOp49
 70
     1
102
RTVSPost2010Prop50
 90
       50
102
RTVSPost2010PropOp50
 70
     1
102
RTVSPost2010Prop51ColorIndex
 90
      256
102
RTVSPost2010Prop51ColorRGB
 90
-16777216
102
RTVSPost2010PropOp51
 70
     0
102
RTVSPost2010Prop52
140
1.0
102
RTVSPost2010PropOp52
 70
     0
102
RTVSPost2010Prop53
 90
        2
102
RTVSPost2010PropOp53
 70
     1
102
RTVSPost2010Prop54
  1
strokes_ogs.tif
102
RTVSPost2010PropOp54
 70
     1
102
RTVSPost2010Prop55
280
     0
102
RTVSPost2010PropOp55
 70
     1
102
RTVSPost2010Prop56
140
1.0
102
RTVSPost2010PropOp56
 70
     1
102
RTVSPost2010Prop57
140
1.0
102
RTVSPost2010PropOp57
 70
     1
  0
XRECORD
  5
2EE
102
{ACAD_REACTORS
330
2ED
102
}
330
2ED
100
AcDbXrecord
280
     1
102
RTVSPropertyOp0
 70
     0
102
RTVSPropertyOp1
 70
     0
102
RTVSPropertyOp2
 70
     0
102
RTVSPropertyOp3
 70
     0
102
RTVSPropertyOp4
 70
     0
102
RTVSPropertyOp5
 70
     0
102
RTVSPropertyOp6
 70
     0
102
RTVSPropertyOp7
 70
     0
102
RTVSPropertyOp8
 70
     0
102
RTVSPropertyOp9
 70
     0
102
RTVSPropertyOp10
 70
     0
102
RTVSPropertyOp11
 70
     0
102
RTVSPropertyOp12
 70
     0
102
RTVSPropertyOp13
 70
     0
102
RTVSPropertyOp14
 70
     2
102
RTVSPropertyOp15
 70
     0
102
RTVSPropertyOp16
 70
     0
102
RTVSPropertyOp17
 70
     0
102
RTVSPropertyOp18
 70
     0
102
RTVSPropertyOp19
 70
     0
102
RTVSPropertyOp20
 70
     0
102
RTVSPropertyOp21
 70
     0
102
RTVSPropertyOp22
 70
     0
102
RTVSPropertyOp23
 70
     0
102
RTVSPropertyOp24
 70
     0
102
RTVSPropertyOp25
 70
     0
102
RTVSPropertyOp26
 70
     0
102
RTVSPropertyOp27
 70
     0
102
RTVSPropertyOp28
 70
     0
102
RTVSPropertyOp29
 70
     0
102
RTVSPropertyOp30
 70
     0
102
RTVSPropertyOp31
 70
     0
102
RTVSPropertyOp32
 70
     0
102
RTVSPropertyOp33
 70
     0
102
RTVSPropertyOp34
 70
     0
102
RTVSPropertyOp35
 70
     0
102
RTVSPropertyOp36
 70
     0
102
RTVSPropertyOp37
 70
     0
102
RTVSPropertyOp38
 70
     0
102
RTVSPropertyOp39
 70
     0
102
RTVSPropertyOp40
 70
     0
102
RTVSPropertyOp41
 70
     0
102
RTVSPropertyOp42
 70
     0
102
RTVSPropertyOp43
 70
     0
102
RTVSPropertyOp44
 70
     0
102
RTVSPropertyOp45
 70
     0
102
RTVSPropertyOp46
 70
     0
102
RTVSPropertyOp47
 70
     0
102
RTVSPropertyOp48
 70
     0
102
RTVSPropertyOp49
 70
     0
102
RTVSPropertyOp50
 70
     0
102
RTVSPropertyOp51
 70
     0
102
RTVSPropertyOp52
 70
     0
102
RTVSPropertyOp53
 70
     0
102
RTVSPropertyOp54
 70
     0
102
RTVSPropertyOp55
 70
     0
102
RTVSPropertyOp56
 70
     0
102
RTVSPropertyOp57
 70
     0
102
RTVSPost2010Prop28
280
     0
102
RTVSPost2010PropOp28
 70
     0
102
RTVSPost2010Prop29
280
     1
102
RTVSPost2010PropOp29
 70
     0
102
RTVSPost2010Prop30
280
     1
102
RTVSPost2010PropOp30
 70
     0
102
RTVSPost2010Prop31
280
     0
102
RTVSPost2010PropOp31
 70
     0
102
RTVSPost2010Prop32
280
     0
102
RTVSPost2010PropOp32
 70
     0
102
RTVSPost2010Prop33
280
     0
102
RTVSPost2010PropOp33
 70
     0
102
RTVSPost2010Prop34
280
     0
102
RTVSPost2010PropOp34
 70
     0
102
RTVSPost2010Prop35
280
     0
102
RTVSPost2010PropOp35
 70
     0
102
RTVSPost2010Prop36
280
     0
102
RTVSPost2010PropOp36
 70
     0
102
RTVSPost2010Prop37
 90
       50
102
RTVSPost2010PropOp37
 70
     0
102
RTVSPost2010Prop38
140
0.0
102
RTVSPost2010PropOp38
 70
     0
102
RTVSPost2010Prop39
140
1.0
102
RTVSPost2010PropOp39
 70
     0
102
RTVSPost2010Prop40
 90
        0
102
RTVSPost2010PropOp40
 70
     0
102
RTVSPost2010Prop41ColorIndex
 90
       18
102
RTVSPost2010Prop41ColorRGB
 90
        0
102
RTVSPost2010PropOp41
 70
     0
102
RTVSPost2010Prop42
 90
       50
102
RTVSPost2010PropOp42
 70
     0
102
RTVSPost2010Prop43
 90
        3
102
RTVSPost2010PropOp43
 70
     0
102
RTVSPost2010Prop44ColorIndex
 90
        5
102
RTVSPost2010Prop44ColorRGB
 90
      255
102
RTVSPost2010PropOp44
 70
     0
102
RTVSPost2010Prop45
280
     0
102
RTVSPost2010PropOp45
 70
     0
102
RTVSPost2010Prop46
 90
       50
102
RTVSPost2010PropOp46
 70
     0
102
RTVSPost2010Prop47
 90
       50
102
RTVSPost2010PropOp47
 70
     0
102
RTVSPost2010Prop48
 90
       50
102
RTVSPost2010PropOp48
 70
     0
102
RTVSPost2010Prop49
280
     0
102
RTVSPost2010PropOp49
 70
     0
102
RTVSPost2010Prop50
 90
       50
102
RTVSPost2010PropOp50
 70
     0
102
RTVSPost2010Prop51ColorIndex
 90
      256
102
RTVSPost2010Prop51ColorRGB
 90
-16777216
102
RTVSPost2010PropOp51
 70
     0
102
RTVSPost2010Prop52
140
1.0
102
RTVSPost2010PropOp52
 70
     0
102
RTVSPost2010Prop53
 90
        2
102
RTVSPost2010PropOp53
 70
     0
102
RTVSPost2010Prop54
  1
strokes_ogs.tif
102
RTVSPost2010PropOp54
 70
     0
102
RTVSPost2010Prop55
280
     0
102
RTVSPost2010PropOp55
 70
     0
102
RTVSPost2010Prop56
140
1.0
102
RTVSPost2010PropOp56
 70
     0
102
RTVSPost2010Prop57
140
1.0
102
RTVSPost2010PropOp57
 70
     0
  0
XRECORD
  5
2E6
102
{ACAD_REACTORS
330
2E5
102
}
330
2E5
100
AcDbXrecord
280
     1
102
RTVSPropertyOp0
 70
     1
102
RTVSPropertyOp1
 70
     1
102
RTVSPropertyOp2
 70
     1
102
RTVSPropertyOp3
 70
     1
102
RTVSPropertyOp4
 70
     1
102
RTVSPropertyOp5
 70
     1
102
RTVSPropertyOp6
 70
     1
102
RTVSPropertyOp7
 70
     1
102
RTVSPropertyOp8
 70
     1
102
RTVSPropertyOp9
 70
     1
102
RTVSPropertyOp10
 70
     1
102
RTVSPropertyOp11
 70
     1
102
RTVSPropertyOp12
 70
     1
102
RTVSPropertyOp13
 70
     1
102
RTVSPropertyOp14
 70
     1
102
RTVSPropertyOp15
 70
     1
102
RTVSPropertyOp16
 70
     1
102
RTVSPropertyOp17
 70
     1
102
RTVSPropertyOp18
 70
     1
102
RTVSPropertyOp19
 70
     1
102
RTVSPropertyOp20
 70
     1
102
RTVSPropertyOp21
 70
     1
102
RTVSPropertyOp22
 70
     1
102
RTVSPropertyOp23
 70
     1
102
RTVSPropertyOp24
 70
     1
102
RTVSPropertyOp25
 70
     1
102
RTVSPropertyOp26
 70
     1
102
RTVSPropertyOp27
 70
     1
102
RTVSPropertyOp28
 70
     1
102
RTVSPropertyOp29
 70
     1
102
RTVSPropertyOp30
 70
     1
102
RTVSPropertyOp31
 70
     1
102
RTVSPropertyOp32
 70
     1
102
RTVSPropertyOp33
 70
     1
102
RTVSPropertyOp34
 70
     1
102
RTVSPropertyOp35
 70
     1
102
RTVSPropertyOp36
 70
     1
102
RTVSPropertyOp37
 70
     1
102
RTVSPropertyOp38
 70
     1
102
RTVSPropertyOp39
 70
     1
102
RTVSPropertyOp40
 70
     1
102
RTVSPropertyOp41
 70
     1
102
RTVSPropertyOp42
 70
     1
102
RTVSPropertyOp43
 70
     1
102
RTVSPropertyOp44
 70
     1
102
RTVSPropertyOp45
 70
     1
102
RTVSPropertyOp46
 70
     1
102
RTVSPropertyOp47
 70
     1
102
RTVSPropertyOp48
 70
     1
102
RTVSPropertyOp49
 70
     1
102
RTVSPropertyOp50
 70
     1
102
RTVSPropertyOp51
 70
     0
102
RTVSPropertyOp52
 70
     0
102
RTVSPropertyOp53
 70
     1
102
RTVSPropertyOp54
 70
     1
102
RTVSPropertyOp55
 70
     1
102
RTVSPropertyOp56
 70
     1
102
RTVSPropertyOp57
 70
     1
102
RTVSPost2010Prop28
280
     0
102
RTVSPost2010PropOp28
 70
     1
102
RTVSPost2010Prop29
280
     1
102
RTVSPost2010PropOp29
 70
     1
102
RTVSPost2010Prop30
280
     1
102
RTVSPost2010PropOp30
 70
     1
102
RTVSPost2010Prop31
280
     0
102
RTVSPost2010PropOp31
 70
     1
102
RTVSPost2010Prop32
280
     0
102
RTVSPost2010PropOp32
 70
     1
102
RTVSPost2010Prop33
280
     0
102
RTVSPost2010PropOp33
 70
     1
102
RTVSPost2010Prop34
280
     0
102
RTVSPost2010PropOp34
 70
     1
102
RTVSPost2010Prop35
280
     0
102
RTVSPost2010PropOp35
 70
     1
102
RTVSPost2010Prop36
280
     0
102
RTVSPost2010PropOp36
 70
     1
102
RTVSPost2010Prop37
 90
       50
102
RTVSPost2010PropOp37
 70
     1
102
RTVSPost2010Prop38
140
0.0
102
RTVSPost2010PropOp38
 70
     1
102
RTVSPost2010Prop39
140
1.0
102
RTVSPost2010PropOp39
 70
     1
102
RTVSPost2010Prop40
 90
        0
102
RTVSPost2010PropOp40
 70
     1
102
RTVSPost2010Prop41ColorIndex
 90
       18
102
RTVSPost2010Prop41ColorRGB
 90
        0
102
RTVSPost2010PropOp41
 70
     1
102
RTVSPost2010Prop42
 90
       50
102
RTVSPost2010PropOp42
 70
     1
102
RTVSPost2010Prop43
 90
        3
102
RTVSPost2010PropOp43
 70
     1
102
RTVSPost2010Prop44ColorIndex
 90
        5
102
RTVSPost2010Prop44ColorRGB
 90
      255
102
RTVSPost2010PropOp44
 70
     1
102
RTVSPost2010Prop45
280
     0
102
RTVSPost2010PropOp45
 70
     1
102
RTVSPost2010Prop46
 90
       50
102
RTVSPost2010PropOp46
 70
     1
102
RTVSPost2010Prop47
 90
       50
102
RTVSPost2010PropOp47
 70
     1
102
RTVSPost2010Prop48
 90
       50
102
RTVSPost2010PropOp48
 70
     1
102
RTVSPost2010Prop49
280
     0
102
RTVSPost2010PropOp49
 70
     1
102
RTVSPost2010Prop50
 90
       50
102
RTVSPost2010PropOp50
 70
     1
102
RTVSPost2010Prop51ColorIndex
 90
      256
102
RTVSPost2010Prop51ColorRGB
 90
-16777216
102
RTVSPost2010PropOp51
 70
     0
102
RTVSPost2010Prop52
140
1.0
102
RTVSPost2010PropOp52
 70
     0
102
RTVSPost2010Prop53
 90
        2
102
RTVSPost2010PropOp53
 70
     1
102
RTVSPost2010Prop54
  1
strokes_ogs.tif
102
RTVSPost2010PropOp54
 70
     1
102
RTVSPost2010Prop55
280
     0
102
RTVSPost2010PropOp55
 70
     1
102
RTVSPost2010Prop56
140
1.0
102
RTVSPost2010PropOp56
 70
     1
102
RTVSPost2010Prop57
140
1.0
102
RTVSPost2010PropOp57
 70
     1
  0
XRECORD
  5
2CA
102
{ACAD_REACTORS
330
2C9
102
}
330
2C9
100
AcDbXrecord
280
     1
102
RTVSPropertyOp0
 70
     1
102
RTVSPropertyOp1
 70
     1
102
RTVSPropertyOp2
 70
     1
102
RTVSPropertyOp3
 70
     1
102
RTVSPropertyOp4
 70
     1
102
RTVSPropertyOp5
 70
     1
102
RTVSPropertyOp6
 70
     1
102
RTVSPropertyOp7
 70
     1
102
RTVSPropertyOp8
 70
     1
102
RTVSPropertyOp9
 70
     1
102
RTVSPropertyOp10
 70
     1
102
RTVSPropertyOp11
 70
     1
102
RTVSPropertyOp12
 70
     1
102
RTVSPropertyOp13
 70
     1
102
RTVSPropertyOp14
 70
     1
102
RTVSPropertyOp15
 70
     1
102
RTVSPropertyOp16
 70
     1
102
RTVSPropertyOp17
 70
     1
102
RTVSPropertyOp18
 70
     1
102
RTVSPropertyOp19
 70
     1
102
RTVSPropertyOp20
 70
     1
102
RTVSPropertyOp21
 70
     1
102
RTVSPropertyOp22
 70
     1
102
RTVSPropertyOp23
 70
     1
102
RTVSPropertyOp24
 70
     1
102
RTVSPropertyOp25
 70
     1
102
RTVSPropertyOp26
 70
     1
102
RTVSPropertyOp27
 70
     1
102
RTVSPropertyOp28
 70
     1
102
RTVSPropertyOp29
 70
     1
102
RTVSPropertyOp30
 70
     1
102
RTVSPropertyOp31
 70
     1
102
RTVSPropertyOp32
 70
     1
102
RTVSPropertyOp33
 70
     1
102
RTVSPropertyOp34
 70
     1
102
RTVSPropertyOp35
 70
     1
102
RTVSPropertyOp36
 70
     1
102
RTVSPropertyOp37
 70
     1
102
RTVSPropertyOp38
 70
     1
102
RTVSPropertyOp39
 70
     1
102
RTVSPropertyOp40
 70
     1
102
RTVSPropertyOp41
 70
     1
102
RTVSPropertyOp42
 70
     1
102
RTVSPropertyOp43
 70
     1
102
RTVSPropertyOp44
 70
     1
102
RTVSPropertyOp45
 70
     1
102
RTVSPropertyOp46
 70
     1
102
RTVSPropertyOp47
 70
     1
102
RTVSPropertyOp48
 70
     1
102
RTVSPropertyOp49
 70
     1
102
RTVSPropertyOp50
 70
     1
102
RTVSPropertyOp51
 70
     0
102
RTVSPropertyOp52
 70
     0
102
RTVSPropertyOp53
 70
     1
102
RTVSPropertyOp54
 70
     1
102
RTVSPropertyOp55
 70
     1
102
RTVSPropertyOp56
 70
     1
102
RTVSPropertyOp57
 70
     1
102
RTVSPost2010Prop28
280
     0
102
RTVSPost2010PropOp28
 70
     1
102
RTVSPost2010Prop29
280
     1
102
RTVSPost2010PropOp29
 70
     1
102
RTVSPost2010Prop30
280
     1
102
RTVSPost2010PropOp30
 70
     1
102
RTVSPost2010Prop31
280
     0
102
RTVSPost2010PropOp31
 70
     1
102
RTVSPost2010Prop32
280
     0
102
RTVSPost2010PropOp32
 70
     1
102
RTVSPost2010Prop33
280
     0
102
RTVSPost2010PropOp33
 70
     1
102
RTVSPost2010Prop34
280
     0
102
RTVSPost2010PropOp34
 70
     1
102
RTVSPost2010Prop35
280
     0
102
RTVSPost2010PropOp35
 70
     1
102
RTVSPost2010Prop36
280
     0
102
RTVSPost2010PropOp36
 70
     1
102
RTVSPost2010Prop37
 90
       50
102
RTVSPost2010PropOp37
 70
     1
102
RTVSPost2010Prop38
140
0.0
102
RTVSPost2010PropOp38
 70
     1
102
RTVSPost2010Prop39
140
1.0
102
RTVSPost2010PropOp39
 70
     1
102
RTVSPost2010Prop40
 90
        0
102
RTVSPost2010PropOp40
 70
     1
102
RTVSPost2010Prop41ColorIndex
 90
       18
102
RTVSPost2010Prop41ColorRGB
 90
        0
102
RTVSPost2010PropOp41
 70
     1
102
RTVSPost2010Prop42
 90
       50
102
RTVSPost2010PropOp42
 70
     1
102
RTVSPost2010Prop43
 90
        3
102
RTVSPost2010PropOp43
 70
     1
102
RTVSPost2010Prop44ColorIndex
 90
        5
102
RTVSPost2010Prop44ColorRGB
 90
      255
102
RTVSPost2010PropOp44
 70
     1
102
RTVSPost2010Prop45
280
     0
102
RTVSPost2010PropOp45
 70
     1
102
RTVSPost2010Prop46
 90
       50
102
RTVSPost2010PropOp46
 70
     1
102
RTVSPost2010Prop47
 90
       50
102
RTVSPost2010PropOp47
 70
     1
102
RTVSPost2010Prop48
 90
       50
102
RTVSPost2010PropOp48
 70
     1
102
RTVSPost2010Prop49
280
     0
102
RTVSPost2010PropOp49
 70
     1
102
RTVSPost2010Prop50
 90
       50
102
RTVSPost2010PropOp50
 70
     1
102
RTVSPost2010Prop51ColorIndex
 90
      256
102
RTVSPost2010Prop51ColorRGB
 90
-16777216
102
RTVSPost2010PropOp51
 70
     0
102
RTVSPost2010Prop52
140
1.0
102
RTVSPost2010PropOp52
 70
     0
102
RTVSPost2010Prop53
 90
        2
102
RTVSPost2010PropOp53
 70
     1
102
RTVSPost2010Prop54
  1
strokes_ogs.tif
102
RTVSPost2010PropOp54
 70
     1
102
RTVSPost2010Prop55
280
     0
102
RTVSPost2010PropOp55
 70
     1
102
RTVSPost2010Prop56
140
1.0
102
RTVSPost2010PropOp56
 70
     1
102
RTVSPost2010Prop57
140
1.0
102
RTVSPost2010PropOp57
 70
     1
  0
XRECORD
  5
2CC
102
{ACAD_REACTORS
330
2CB
102
}
330
2CB
100
AcDbXrecord
280
     1
102
RTVSPropertyOp0
 70
     1
102
RTVSPropertyOp1
 70
     1
102
RTVSPropertyOp2
 70
     1
102
RTVSPropertyOp3
 70
     1
102
RTVSPropertyOp4
 70
     1
102
RTVSPropertyOp5
 70
     1
102
RTVSPropertyOp6
 70
     1
102
RTVSPropertyOp7
 70
     1
102
RTVSPropertyOp8
 70
     1
102
RTVSPropertyOp9
 70
     1
102
RTVSPropertyOp10
 70
     1
102
RTVSPropertyOp11
 70
     1
102
RTVSPropertyOp12
 70
     1
102
RTVSPropertyOp13
 70
     1
102
RTVSPropertyOp14
 70
     1
102
RTVSPropertyOp15
 70
     1
102
RTVSPropertyOp16
 70
     1
102
RTVSPropertyOp17
 70
     1
102
RTVSPropertyOp18
 70
     1
102
RTVSPropertyOp19
 70
     1
102
RTVSPropertyOp20
 70
     1
102
RTVSPropertyOp21
 70
     1
102
RTVSPropertyOp22
 70
     1
102
RTVSPropertyOp23
 70
     1
102
RTVSPropertyOp24
 70
     1
102
RTVSPropertyOp25
 70
     1
102
RTVSPropertyOp26
 70
     1
102
RTVSPropertyOp27
 70
     1
102
RTVSPropertyOp28
 70
     1
102
RTVSPropertyOp29
 70
     1
102
RTVSPropertyOp30
 70
     1
102
RTVSPropertyOp31
 70
     1
102
RTVSPropertyOp32
 70
     1
102
RTVSPropertyOp33
 70
     1
102
RTVSPropertyOp34
 70
     1
102
RTVSPropertyOp35
 70
     1
102
RTVSPropertyOp36
 70
     1
102
RTVSPropertyOp37
 70
     1
102
RTVSPropertyOp38
 70
     1
102
RTVSPropertyOp39
 70
     1
102
RTVSPropertyOp40
 70
     1
102
RTVSPropertyOp41
 70
     1
102
RTVSPropertyOp42
 70
     1
102
RTVSPropertyOp43
 70
     1
102
RTVSPropertyOp44
 70
     1
102
RTVSPropertyOp45
 70
     1
102
RTVSPropertyOp46
 70
     1
102
RTVSPropertyOp47
 70
     1
102
RTVSPropertyOp48
 70
     1
102
RTVSPropertyOp49
 70
     1
102
RTVSPropertyOp50
 70
     1
102
RTVSPropertyOp51
 70
     0
102
RTVSPropertyOp52
 70
     0
102
RTVSPropertyOp53
 70
     1
102
RTVSPropertyOp54
 70
     1
102
RTVSPropertyOp55
 70
     1
102
RTVSPropertyOp56
 70
     1
102
RTVSPropertyOp57
 70
     1
102
RTVSPost2010Prop28
280
     0
102
RTVSPost2010PropOp28
 70
     1
102
RTVSPost2010Prop29
280
     1
102
RTVSPost2010PropOp29
 70
     1
102
RTVSPost2010Prop30
280
     1
102
RTVSPost2010PropOp30
 70
     1
102
RTVSPost2010Prop31
280
     0
102
RTVSPost2010PropOp31
 70
     1
102
RTVSPost2010Prop32
280
     0
102
RTVSPost2010PropOp32
 70
     1
102
RTVSPost2010Prop33
280
     0
102
RTVSPost2010PropOp33
 70
     1
102
RTVSPost2010Prop34
280
     0
102
RTVSPost2010PropOp34
 70
     1
102
RTVSPost2010Prop35
280
     0
102
RTVSPost2010PropOp35
 70
     1
102
RTVSPost2010Prop36
280
     0
102
RTVSPost2010PropOp36
 70
     1
102
RTVSPost2010Prop37
 90
       50
102
RTVSPost2010PropOp37
 70
     1
102
RTVSPost2010Prop38
140
0.0
102
RTVSPost2010PropOp38
 70
     1
102
RTVSPost2010Prop39
140
1.0
102
RTVSPost2010PropOp39
 70
     1
102
RTVSPost2010Prop40
 90
        0
102
RTVSPost2010PropOp40
 70
     1
102
RTVSPost2010Prop41ColorIndex
 90
       18
102
RTVSPost2010Prop41ColorRGB
 90
        0
102
RTVSPost2010PropOp41
 70
     1
102
RTVSPost2010Prop42
 90
       50
102
RTVSPost2010PropOp42
 70
     1
102
RTVSPost2010Prop43
 90
        3
102
RTVSPost2010PropOp43
 70
     1
102
RTVSPost2010Prop44ColorIndex
 90
        5
102
RTVSPost2010Prop44ColorRGB
 90
      255
102
RTVSPost2010PropOp44
 70
     1
102
RTVSPost2010Prop45
280
     0
102
RTVSPost2010PropOp45
 70
     1
102
RTVSPost2010Prop46
 90
       50
102
RTVSPost2010PropOp46
 70
     1
102
RTVSPost2010Prop47
 90
       50
102
RTVSPost2010PropOp47
 70
     1
102
RTVSPost2010Prop48
 90
       50
102
RTVSPost2010PropOp48
 70
     1
102
RTVSPost2010Prop49
280
     0
102
RTVSPost2010PropOp49
 70
     1
102
RTVSPost2010Prop50
 90
       50
102
RTVSPost2010PropOp50
 70
     1
102
RTVSPost2010Prop51ColorIndex
 90
      256
102
RTVSPost2010Prop51ColorRGB
 90
-16777216
102
RTVSPost2010PropOp51
 70
     0
102
RTVSPost2010Prop52
140
1.0
102
RTVSPost2010PropOp52
 70
     0
102
RTVSPost2010Prop53
 90
        2
102
RTVSPost2010PropOp53
 70
     1
102
RTVSPost2010Prop54
  1
strokes_ogs.tif
102
RTVSPost2010PropOp54
 70
     1
102
RTVSPost2010Prop55
280
     0
102
RTVSPost2010PropOp55
 70
     1
102
RTVSPost2010Prop56
140
1.0
102
RTVSPost2010PropOp56
 70
     1
102
RTVSPost2010Prop57
140
1.0
102
RTVSPost2010PropOp57
 70
     1
  0
XRECORD
  5
2CE
102
{ACAD_REACTORS
330
2CD
102
}
330
2CD
100
AcDbXrecord
280
     1
102
RTVSPropertyOp0
 70
     1
102
RTVSPropertyOp1
 70
     1
102
RTVSPropertyOp2
 70
     1
102
RTVSPropertyOp3
 70
     1
102
RTVSPropertyOp4
 70
     1
102
RTVSPropertyOp5
 70
     1
102
RTVSPropertyOp6
 70
     1
102
RTVSPropertyOp7
 70
     1
102
RTVSPropertyOp8
 70
     1
102
RTVSPropertyOp9
 70
     1
102
RTVSPropertyOp10
 70
     1
102
RTVSPropertyOp11
 70
     1
102
RTVSPropertyOp12
 70
     1
102
RTVSPropertyOp13
 70
     1
102
RTVSPropertyOp14
 70
     1
102
RTVSPropertyOp15
 70
     1
102
RTVSPropertyOp16
 70
     1
102
RTVSPropertyOp17
 70
     1
102
RTVSPropertyOp18
 70
     1
102
RTVSPropertyOp19
 70
     1
102
RTVSPropertyOp20
 70
     1
102
RTVSPropertyOp21
 70
     1
102
RTVSPropertyOp22
 70
     1
102
RTVSPropertyOp23
 70
     1
102
RTVSPropertyOp24
 70
     1
102
RTVSPropertyOp25
 70
     1
102
RTVSPropertyOp26
 70
     1
102
RTVSPropertyOp27
 70
     1
102
RTVSPropertyOp28
 70
     1
102
RTVSPropertyOp29
 70
     1
102
RTVSPropertyOp30
 70
     1
102
RTVSPropertyOp31
 70
     1
102
RTVSPropertyOp32
 70
     1
102
RTVSPropertyOp33
 70
     1
102
RTVSPropertyOp34
 70
     1
102
RTVSPropertyOp35
 70
     1
102
RTVSPropertyOp36
 70
     1
102
RTVSPropertyOp37
 70
     1
102
RTVSPropertyOp38
 70
     1
102
RTVSPropertyOp39
 70
     1
102
RTVSPropertyOp40
 70
     1
102
RTVSPropertyOp41
 70
     1
102
RTVSPropertyOp42
 70
     1
102
RTVSPropertyOp43
 70
     1
102
RTVSPropertyOp44
 70
     1
102
RTVSPropertyOp45
 70
     1
102
RTVSPropertyOp46
 70
     1
102
RTVSPropertyOp47
 70
     1
102
RTVSPropertyOp48
 70
     1
102
RTVSPropertyOp49
 70
     1
102
RTVSPropertyOp50
 70
     1
102
RTVSPropertyOp51
 70
     0
102
RTVSPropertyOp52
 70
     0
102
RTVSPropertyOp53
 70
     1
102
RTVSPropertyOp54
 70
     1
102
RTVSPropertyOp55
 70
     1
102
RTVSPropertyOp56
 70
     1
102
RTVSPropertyOp57
 70
     1
102
RTVSPost2010Prop28
280
     0
102
RTVSPost2010PropOp28
 70
     1
102
RTVSPost2010Prop29
280
     1
102
RTVSPost2010PropOp29
 70
     1
102
RTVSPost2010Prop30
280
     1
102
RTVSPost2010PropOp30
 70
     1
102
RTVSPost2010Prop31
280
     0
102
RTVSPost2010PropOp31
 70
     1
102
RTVSPost2010Prop32
280
     0
102
RTVSPost2010PropOp32
 70
     1
102
RTVSPost2010Prop33
280
     0
102
RTVSPost2010PropOp33
 70
     1
102
RTVSPost2010Prop34
280
     0
102
RTVSPost2010PropOp34
 70
     1
102
RTVSPost2010Prop35
280
     0
102
RTVSPost2010PropOp35
 70
     1
102
RTVSPost2010Prop36
280
     0
102
RTVSPost2010PropOp36
 70
     1
102
RTVSPost2010Prop37
 90
       50
102
RTVSPost2010PropOp37
 70
     1
102
RTVSPost2010Prop38
140
0.0
102
RTVSPost2010PropOp38
 70
     1
102
RTVSPost2010Prop39
140
1.0
102
RTVSPost2010PropOp39
 70
     1
102
RTVSPost2010Prop40
 90
        0
102
RTVSPost2010PropOp40
 70
     1
102
RTVSPost2010Prop41ColorIndex
 90
       18
102
RTVSPost2010Prop41ColorRGB
 90
        0
102
RTVSPost2010PropOp41
 70
     1
102
RTVSPost2010Prop42
 90
       50
102
RTVSPost2010PropOp42
 70
     1
102
RTVSPost2010Prop43
 90
        3
102
RTVSPost2010PropOp43
 70
     1
102
RTVSPost2010Prop44ColorIndex
 90
        5
102
RTVSPost2010Prop44ColorRGB
 90
      255
102
RTVSPost2010PropOp44
 70
     1
102
RTVSPost2010Prop45
280
     0
102
RTVSPost2010PropOp45
 70
     1
102
RTVSPost2010Prop46
 90
       50
102
RTVSPost2010PropOp46
 70
     1
102
RTVSPost2010Prop47
 90
       50
102
RTVSPost2010PropOp47
 70
     1
102
RTVSPost2010Prop48
 90
       50
102
RTVSPost2010PropOp48
 70
     1
102
RTVSPost2010Prop49
280
     0
102
RTVSPost2010PropOp49
 70
     1
102
RTVSPost2010Prop50
 90
       50
102
RTVSPost2010PropOp50
 70
     1
102
RTVSPost2010Prop51ColorIndex
 90
      256
102
RTVSPost2010Prop51ColorRGB
 90
-16777216
102
RTVSPost2010PropOp51
 70
     0
102
RTVSPost2010Prop52
140
1.0
102
RTVSPost2010PropOp52
 70
     0
102
RTVSPost2010Prop53
 90
        2
102
RTVSPost2010PropOp53
 70
     1
102
RTVSPost2010Prop54
  1
strokes_ogs.tif
102
RTVSPost2010PropOp54
 70
     1
102
RTVSPost2010Prop55
280
     0
102
RTVSPost2010PropOp55
 70
     1
102
RTVSPost2010Prop56
140
1.0
102
RTVSPost2010PropOp56
 70
     1
102
RTVSPost2010Prop57
140
1.0
102
RTVSPost2010PropOp57
 70
     1
  0
XRECORD
  5
2D0
102
{ACAD_REACTORS
330
2CF
102
}
330
2CF
100
AcDbXrecord
280
     1
102
RTVSPropertyOp0
 70
     1
102
RTVSPropertyOp1
 70
     1
102
RTVSPropertyOp2
 70
     1
102
RTVSPropertyOp3
 70
     1
102
RTVSPropertyOp4
 70
     1
102
RTVSPropertyOp5
 70
     1
102
RTVSPropertyOp6
 70
     1
102
RTVSPropertyOp7
 70
     1
102
RTVSPropertyOp8
 70
     1
102
RTVSPropertyOp9
 70
     1
102
RTVSPropertyOp10
 70
     1
102
RTVSPropertyOp11
 70
     1
102
RTVSPropertyOp12
 70
     1
102
RTVSPropertyOp13
 70
     1
102
RTVSPropertyOp14
 70
     1
102
RTVSPropertyOp15
 70
     1
102
RTVSPropertyOp16
 70
     1
102
RTVSPropertyOp17
 70
     1
102
RTVSPropertyOp18
 70
     1
102
RTVSPropertyOp19
 70
     1
102
RTVSPropertyOp20
 70
     1
102
RTVSPropertyOp21
 70
     1
102
RTVSPropertyOp22
 70
     1
102
RTVSPropertyOp23
 70
     1
102
RTVSPropertyOp24
 70
     1
102
RTVSPropertyOp25
 70
     1
102
RTVSPropertyOp26
 70
     1
102
RTVSPropertyOp27
 70
     1
102
RTVSPropertyOp28
 70
     1
102
RTVSPropertyOp29
 70
     1
102
RTVSPropertyOp30
 70
     1
102
RTVSPropertyOp31
 70
     1
102
RTVSPropertyOp32
 70
     1
102
RTVSPropertyOp33
 70
     1
102
RTVSPropertyOp34
 70
     1
102
RTVSPropertyOp35
 70
     1
102
RTVSPropertyOp36
 70
     1
102
RTVSPropertyOp37
 70
     1
102
RTVSPropertyOp38
 70
     1
102
RTVSPropertyOp39
 70
     1
102
RTVSPropertyOp40
 70
     1
102
RTVSPropertyOp41
 70
     1
102
RTVSPropertyOp42
 70
     1
102
RTVSPropertyOp43
 70
     1
102
RTVSPropertyOp44
 70
     1
102
RTVSPropertyOp45
 70
     1
102
RTVSPropertyOp46
 70
     1
102
RTVSPropertyOp47
 70
     1
102
RTVSPropertyOp48
 70
     1
102
RTVSPropertyOp49
 70
     1
102
RTVSPropertyOp50
 70
     1
102
RTVSPropertyOp51
 70
     0
102
RTVSPropertyOp52
 70
     0
102
RTVSPropertyOp53
 70
     1
102
RTVSPropertyOp54
 70
     1
102
RTVSPropertyOp55
 70
     1
102
RTVSPropertyOp56
 70
     1
102
RTVSPropertyOp57
 70
     1
102
RTVSPost2010Prop28
280
     0
102
RTVSPost2010PropOp28
 70
     1
102
RTVSPost2010Prop29
280
     1
102
RTVSPost2010PropOp29
 70
     1
102
RTVSPost2010Prop30
280
     1
102
RTVSPost2010PropOp30
 70
     1
102
RTVSPost2010Prop31
280
     0
102
RTVSPost2010PropOp31
 70
     1
102
RTVSPost2010Prop32
280
     0
102
RTVSPost2010PropOp32
 70
     1
102
RTVSPost2010Prop33
280
     0
102
RTVSPost2010PropOp33
 70
     1
102
RTVSPost2010Prop34
280
     0
102
RTVSPost2010PropOp34
 70
     1
102
RTVSPost2010Prop35
280
     0
102
RTVSPost2010PropOp35
 70
     1
102
RTVSPost2010Prop36
280
     0
102
RTVSPost2010PropOp36
 70
     1
102
RTVSPost2010Prop37
 90
       50
102
RTVSPost2010PropOp37
 70
     1
102
RTVSPost2010Prop38
140
0.0
102
RTVSPost2010PropOp38
 70
     1
102
RTVSPost2010Prop39
140
1.0
102
RTVSPost2010PropOp39
 70
     1
102
RTVSPost2010Prop40
 90
        0
102
RTVSPost2010PropOp40
 70
     1
102
RTVSPost2010Prop41ColorIndex
 90
       18
102
RTVSPost2010Prop41ColorRGB
 90
        0
102
RTVSPost2010PropOp41
 70
     1
102
RTVSPost2010Prop42
 90
       50
102
RTVSPost2010PropOp42
 70
     1
102
RTVSPost2010Prop43
 90
        3
102
RTVSPost2010PropOp43
 70
     1
102
RTVSPost2010Prop44ColorIndex
 90
        5
102
RTVSPost2010Prop44ColorRGB
 90
      255
102
RTVSPost2010PropOp44
 70
     1
102
RTVSPost2010Prop45
280
     0
102
RTVSPost2010PropOp45
 70
     1
102
RTVSPost2010Prop46
 90
       50
102
RTVSPost2010PropOp46
 70
     1
102
RTVSPost2010Prop47
 90
       50
102
RTVSPost2010PropOp47
 70
     1
102
RTVSPost2010Prop48
 90
       50
102
RTVSPost2010PropOp48
 70
     1
102
RTVSPost2010Prop49
280
     0
102
RTVSPost2010PropOp49
 70
     1
102
RTVSPost2010Prop50
 90
       50
102
RTVSPost2010PropOp50
 70
     1
102
RTVSPost2010Prop51ColorIndex
 90
      256
102
RTVSPost2010Prop51ColorRGB
 90
-16777216
102
RTVSPost2010PropOp51
 70
     0
102
RTVSPost2010Prop52
140
1.0
102
RTVSPost2010PropOp52
 70
     0
102
RTVSPost2010Prop53
 90
        2
102
RTVSPost2010PropOp53
 70
     1
102
RTVSPost2010Prop54
  1
strokes_ogs.tif
102
RTVSPost2010PropOp54
 70
     1
102
RTVSPost2010Prop55
280
     0
102
RTVSPost2010PropOp55
 70
     1
102
RTVSPost2010Prop56
140
1.0
102
RTVSPost2010PropOp56
 70
     1
102
RTVSPost2010Prop57
140
1.0
102
RTVSPost2010PropOp57
 70
     1
  0
XRECORD
  5
2D6
102
{ACAD_REACTORS
330
2D5
102
}
330
2D5
100
AcDbXrecord
280
     1
102
RTVSPropertyOp0
 70
     1
102
RTVSPropertyOp1
 70
     1
102
RTVSPropertyOp2
 70
     1
102
RTVSPropertyOp3
 70
     1
102
RTVSPropertyOp4
 70
     1
102
RTVSPropertyOp5
 70
     1
102
RTVSPropertyOp6
 70
     1
102
RTVSPropertyOp7
 70
     1
102
RTVSPropertyOp8
 70
     1
102
RTVSPropertyOp9
 70
     1
102
RTVSPropertyOp10
 70
     1
102
RTVSPropertyOp11
 70
     1
102
RTVSPropertyOp12
 70
     1
102
RTVSPropertyOp13
 70
     1
102
RTVSPropertyOp14
 70
     1
102
RTVSPropertyOp15
 70
     1
102
RTVSPropertyOp16
 70
     1
102
RTVSPropertyOp17
 70
     1
102
RTVSPropertyOp18
 70
     1
102
RTVSPropertyOp19
 70
     1
102
RTVSPropertyOp20
 70
     1
102
RTVSPropertyOp21
 70
     1
102
RTVSPropertyOp22
 70
     1
102
RTVSPropertyOp23
 70
     1
102
RTVSPropertyOp24
 70
     1
102
RTVSPropertyOp25
 70
     1
102
RTVSPropertyOp26
 70
     1
102
RTVSPropertyOp27
 70
     1
102
RTVSPropertyOp28
 70
     1
102
RTVSPropertyOp29
 70
     1
102
RTVSPropertyOp30
 70
     1
102
RTVSPropertyOp31
 70
     1
102
RTVSPropertyOp32
 70
     1
102
RTVSPropertyOp33
 70
     1
102
RTVSPropertyOp34
 70
     1
102
RTVSPropertyOp35
 70
     1
102
RTVSPropertyOp36
 70
     1
102
RTVSPropertyOp37
 70
     1
102
RTVSPropertyOp38
 70
     1
102
RTVSPropertyOp39
 70
     1
102
RTVSPropertyOp40
 70
     1
102
RTVSPropertyOp41
 70
     1
102
RTVSPropertyOp42
 70
     1
102
RTVSPropertyOp43
 70
     1
102
RTVSPropertyOp44
 70
     1
102
RTVSPropertyOp45
 70
     1
102
RTVSPropertyOp46
 70
     1
102
RTVSPropertyOp47
 70
     1
102
RTVSPropertyOp48
 70
     1
102
RTVSPropertyOp49
 70
     1
102
RTVSPropertyOp50
 70
     1
102
RTVSPropertyOp51
 70
     0
102
RTVSPropertyOp52
 70
     0
102
RTVSPropertyOp53
 70
     1
102
RTVSPropertyOp54
 70
     1
102
RTVSPropertyOp55
 70
     1
102
RTVSPropertyOp56
 70
     1
102
RTVSPropertyOp57
 70
     1
102
RTVSPost2010Prop28
280
     0
102
RTVSPost2010PropOp28
 70
     1
102
RTVSPost2010Prop29
280
     1
102
RTVSPost2010PropOp29
 70
     1
102
RTVSPost2010Prop30
280
     1
102
RTVSPost2010PropOp30
 70
     1
102
RTVSPost2010Prop31
280
     0
102
RTVSPost2010PropOp31
 70
     1
102
RTVSPost2010Prop32
280
     0
102
RTVSPost2010PropOp32
 70
     1
102
RTVSPost2010Prop33
280
     0
102
RTVSPost2010PropOp33
 70
     1
102
RTVSPost2010Prop34
280
     0
102
RTVSPost2010PropOp34
 70
     1
102
RTVSPost2010Prop35
280
     0
102
RTVSPost2010PropOp35
 70
     1
102
RTVSPost2010Prop36
280
     0
102
RTVSPost2010PropOp36
 70
     1
102
RTVSPost2010Prop37
 90
       50
102
RTVSPost2010PropOp37
 70
     1
102
RTVSPost2010Prop38
140
0.0
102
RTVSPost2010PropOp38
 70
     1
102
RTVSPost2010Prop39
140
1.0
102
RTVSPost2010PropOp39
 70
     1
102
RTVSPost2010Prop40
 90
        0
102
RTVSPost2010PropOp40
 70
     1
102
RTVSPost2010Prop41ColorIndex
 90
       18
102
RTVSPost2010Prop41ColorRGB
 90
        0
102
RTVSPost2010PropOp41
 70
     1
102
RTVSPost2010Prop42
 90
       50
102
RTVSPost2010PropOp42
 70
     1
102
RTVSPost2010Prop43
 90
        3
102
RTVSPost2010PropOp43
 70
     1
102
RTVSPost2010Prop44ColorIndex
 90
        5
102
RTVSPost2010Prop44ColorRGB
 90
      255
102
RTVSPost2010PropOp44
 70
     1
102
RTVSPost2010Prop45
280
     0
102
RTVSPost2010PropOp45
 70
     1
102
RTVSPost2010Prop46
 90
       50
102
RTVSPost2010PropOp46
 70
     1
102
RTVSPost2010Prop47
 90
       50
102
RTVSPost2010PropOp47
 70
     1
102
RTVSPost2010Prop48
 90
       50
102
RTVSPost2010PropOp48
 70
     1
102
RTVSPost2010Prop49
280
     0
102
RTVSPost2010PropOp49
 70
     1
102
RTVSPost2010Prop50
 90
       50
102
RTVSPost2010PropOp50
 70
     1
102
RTVSPost2010Prop51ColorIndex
 90
      256
102
RTVSPost2010Prop51ColorRGB
 90
-16777216
102
RTVSPost2010PropOp51
 70
     0
102
RTVSPost2010Prop52
140
1.0
102
RTVSPost2010PropOp52
 70
     0
102
RTVSPost2010Prop53
 90
        2
102
RTVSPost2010PropOp53
 70
     1
102
RTVSPost2010Prop54
  1
strokes_ogs.tif
102
RTVSPost2010PropOp54
 70
     1
102
RTVSPost2010Prop55
280
     0
102
RTVSPost2010PropOp55
 70
     1
102
RTVSPost2010Prop56
140
1.0
102
RTVSPost2010PropOp56
 70
     1
102
RTVSPost2010Prop57
140
1.0
102
RTVSPost2010PropOp57
 70
     1
  0
XRECORD
  5
2EA
102
{ACAD_REACTORS
330
2E9
102
}
330
2E9
100
AcDbXrecord
280
     1
102
RTVSPropertyOp0
 70
     0
102
RTVSPropertyOp1
 70
     0
102
RTVSPropertyOp2
 70
     0
102
RTVSPropertyOp3
 70
     0
102
RTVSPropertyOp4
 70
     0
102
RTVSPropertyOp5
 70
     0
102
RTVSPropertyOp6
 70
     0
102
RTVSPropertyOp7
 70
     0
102
RTVSPropertyOp8
 70
     0
102
RTVSPropertyOp9
 70
     0
102
RTVSPropertyOp10
 70
     0
102
RTVSPropertyOp11
 70
     0
102
RTVSPropertyOp12
 70
     0
102
RTVSPropertyOp13
 70
     0
102
RTVSPropertyOp14
 70
     2
102
RTVSPropertyOp15
 70
     0
102
RTVSPropertyOp16
 70
     0
102
RTVSPropertyOp17
 70
     0
102
RTVSPropertyOp18
 70
     0
102
RTVSPropertyOp19
 70
     0
102
RTVSPropertyOp20
 70
     0
102
RTVSPropertyOp21
 70
     0
102
RTVSPropertyOp22
 70
     0
102
RTVSPropertyOp23
 70
     0
102
RTVSPropertyOp24
 70
     0
102
RTVSPropertyOp25
 70
     0
102
RTVSPropertyOp26
 70
     0
102
RTVSPropertyOp27
 70
     0
102
RTVSPropertyOp28
 70
     0
102
RTVSPropertyOp29
 70
     0
102
RTVSPropertyOp30
 70
     0
102
RTVSPropertyOp31
 70
     0
102
RTVSPropertyOp32
 70
     0
102
RTVSPropertyOp33
 70
     0
102
RTVSPropertyOp34
 70
     0
102
RTVSPropertyOp35
 70
     0
102
RTVSPropertyOp36
 70
     0
102
RTVSPropertyOp37
 70
     0
102
RTVSPropertyOp38
 70
     0
102
RTVSPropertyOp39
 70
     0
102
RTVSPropertyOp40
 70
     0
102
RTVSPropertyOp41
 70
     0
102
RTVSPropertyOp42
 70
     0
102
RTVSPropertyOp43
 70
     0
102
RTVSPropertyOp44
 70
     0
102
RTVSPropertyOp45
 70
     0
102
RTVSPropertyOp46
 70
     0
102
RTVSPropertyOp47
 70
     0
102
RTVSPropertyOp48
 70
     0
102
RTVSPropertyOp49
 70
     0
102
RTVSPropertyOp50
 70
     0
102
RTVSPropertyOp51
 70
     0
102
RTVSPropertyOp52
 70
     0
102
RTVSPropertyOp53
 70
     0
102
RTVSPropertyOp54
 70
     0
102
RTVSPropertyOp55
 70
     0
102
RTVSPropertyOp56
 70
     0
102
RTVSPropertyOp57
 70
     0
102
RTVSPost2010Prop28
280
     0
102
RTVSPost2010PropOp28
 70
     0
102
RTVSPost2010Prop29
280
     1
102
RTVSPost2010PropOp29
 70
     0
102
RTVSPost2010Prop30
280
     1
102
RTVSPost2010PropOp30
 70
     0
102
RTVSPost2010Prop31
280
     0
102
RTVSPost2010PropOp31
 70
     0
102
RTVSPost2010Prop32
280
     0
102
RTVSPost2010PropOp32
 70
     0
102
RTVSPost2010Prop33
280
     0
102
RTVSPost2010PropOp33
 70
     0
102
RTVSPost2010Prop34
280
     0
102
RTVSPost2010PropOp34
 70
     0
102
RTVSPost2010Prop35
280
     0
102
RTVSPost2010PropOp35
 70
     0
102
RTVSPost2010Prop36
280
     0
102
RTVSPost2010PropOp36
 70
     0
102
RTVSPost2010Prop37
 90
       50
102
RTVSPost2010PropOp37
 70
     0
102
RTVSPost2010Prop38
140
0.0
102
RTVSPost2010PropOp38
 70
     0
102
RTVSPost2010Prop39
140
1.0
102
RTVSPost2010PropOp39
 70
     0
102
RTVSPost2010Prop40
 90
        0
102
RTVSPost2010PropOp40
 70
     0
102
RTVSPost2010Prop41ColorIndex
 90
       18
102
RTVSPost2010Prop41ColorRGB
 90
        0
102
RTVSPost2010PropOp41
 70
     0
102
RTVSPost2010Prop42
 90
       50
102
RTVSPost2010PropOp42
 70
     0
102
RTVSPost2010Prop43
 90
        3
102
RTVSPost2010PropOp43
 70
     0
102
RTVSPost2010Prop44ColorIndex
 90
        5
102
RTVSPost2010Prop44ColorRGB
 90
      255
102
RTVSPost2010PropOp44
 70
     0
102
RTVSPost2010Prop45
280
     0
102
RTVSPost2010PropOp45
 70
     0
102
RTVSPost2010Prop46
 90
       50
102
RTVSPost2010PropOp46
 70
     0
102
RTVSPost2010Prop47
 90
       50
102
RTVSPost2010PropOp47
 70
     0
102
RTVSPost2010Prop48
 90
       50
102
RTVSPost2010PropOp48
 70
     0
102
RTVSPost2010Prop49
280
     0
102
RTVSPost2010PropOp49
 70
     0
102
RTVSPost2010Prop50
 90
       50
102
RTVSPost2010PropOp50
 70
     0
102
RTVSPost2010Prop51ColorIndex
 90
      256
102
RTVSPost2010Prop51ColorRGB
 90
-16777216
102
RTVSPost2010PropOp51
 70
     0
102
RTVSPost2010Prop52
140
1.0
102
RTVSPost2010PropOp52
 70
     0
102
RTVSPost2010Prop53
 90
        2
102
RTVSPost2010PropOp53
 70
     0
102
RTVSPost2010Prop54
  1
strokes_ogs.tif
102
RTVSPost2010PropOp54
 70
     0
102
RTVSPost2010Prop55
280
     0
102
RTVSPost2010PropOp55
 70
     0
102
RTVSPost2010Prop56
140
1.0
102
RTVSPost2010PropOp56
 70
     0
102
RTVSPost2010Prop57
140
1.0
102
RTVSPost2010PropOp57
 70
     0
  0
XRECORD
  5
2E4
102
{ACAD_REACTORS
330
2E3
102
}
330
2E3
100
AcDbXrecord
280
     1
102
RTVSPropertyOp0
 70
     1
102
RTVSPropertyOp1
 70
     1
102
RTVSPropertyOp2
 70
     1
102
RTVSPropertyOp3
 70
     1
102
RTVSPropertyOp4
 70
     1
102
RTVSPropertyOp5
 70
     1
102
RTVSPropertyOp6
 70
     1
102
RTVSPropertyOp7
 70
     1
102
RTVSPropertyOp8
 70
     1
102
RTVSPropertyOp9
 70
     1
102
RTVSPropertyOp10
 70
     1
102
RTVSPropertyOp11
 70
     1
102
RTVSPropertyOp12
 70
     1
102
RTVSPropertyOp13
 70
     1
102
RTVSPropertyOp14
 70
     1
102
RTVSPropertyOp15
 70
     1
102
RTVSPropertyOp16
 70
     1
102
RTVSPropertyOp17
 70
     1
102
RTVSPropertyOp18
 70
     1
102
RTVSPropertyOp19
 70
     1
102
RTVSPropertyOp20
 70
     1
102
RTVSPropertyOp21
 70
     1
102
RTVSPropertyOp22
 70
     1
102
RTVSPropertyOp23
 70
     1
102
RTVSPropertyOp24
 70
     1
102
RTVSPropertyOp25
 70
     1
102
RTVSPropertyOp26
 70
     1
102
RTVSPropertyOp27
 70
     1
102
RTVSPropertyOp28
 70
     1
102
RTVSPropertyOp29
 70
     1
102
RTVSPropertyOp30
 70
     1
102
RTVSPropertyOp31
 70
     1
102
RTVSPropertyOp32
 70
     1
102
RTVSPropertyOp33
 70
     1
102
RTVSPropertyOp34
 70
     1
102
RTVSPropertyOp35
 70
     1
102
RTVSPropertyOp36
 70
     1
102
RTVSPropertyOp37
 70
     1
102
RTVSPropertyOp38
 70
     1
102
RTVSPropertyOp39
 70
     1
102
RTVSPropertyOp40
 70
     1
102
RTVSPropertyOp41
 70
     1
102
RTVSPropertyOp42
 70
     1
102
RTVSPropertyOp43
 70
     1
102
RTVSPropertyOp44
 70
     1
102
RTVSPropertyOp45
 70
     1
102
RTVSPropertyOp46
 70
     1
102
RTVSPropertyOp47
 70
     1
102
RTVSPropertyOp48
 70
     1
102
RTVSPropertyOp49
 70
     1
102
RTVSPropertyOp50
 70
     1
102
RTVSPropertyOp51
 70
     0
102
RTVSPropertyOp52
 70
     0
102
RTVSPropertyOp53
 70
     1
102
RTVSPropertyOp54
 70
     1
102
RTVSPropertyOp55
 70
     1
102
RTVSPropertyOp56
 70
     1
102
RTVSPropertyOp57
 70
     1
102
RTVSPost2010Prop28
280
     0
102
RTVSPost2010PropOp28
 70
     1
102
RTVSPost2010Prop29
280
     1
102
RTVSPost2010PropOp29
 70
     1
102
RTVSPost2010Prop30
280
     1
102
RTVSPost2010PropOp30
 70
     1
102
RTVSPost2010Prop31
280
     0
102
RTVSPost2010PropOp31
 70
     1
102
RTVSPost2010Prop32
280
     0
102
RTVSPost2010PropOp32
 70
     1
102
RTVSPost2010Prop33
280
     0
102
RTVSPost2010PropOp33
 70
     1
102
RTVSPost2010Prop34
280
     0
102
RTVSPost2010PropOp34
 70
     1
102
RTVSPost2010Prop35
280
     0
102
RTVSPost2010PropOp35
 70
     1
102
RTVSPost2010Prop36
280
     0
102
RTVSPost2010PropOp36
 70
     1
102
RTVSPost2010Prop37
 90
       50
102
RTVSPost2010PropOp37
 70
     1
102
RTVSPost2010Prop38
140
0.0
102
RTVSPost2010PropOp38
 70
     1
102
RTVSPost2010Prop39
140
1.0
102
RTVSPost2010PropOp39
 70
     1
102
RTVSPost2010Prop40
 90
        0
102
RTVSPost2010PropOp40
 70
     1
102
RTVSPost2010Prop41ColorIndex
 90
       18
102
RTVSPost2010Prop41ColorRGB
 90
        0
102
RTVSPost2010PropOp41
 70
     1
102
RTVSPost2010Prop42
 90
       50
102
RTVSPost2010PropOp42
 70
     1
102
RTVSPost2010Prop43
 90
        3
102
RTVSPost2010PropOp43
 70
     1
102
RTVSPost2010Prop44ColorIndex
 90
        5
102
RTVSPost2010Prop44ColorRGB
 90
      255
102
RTVSPost2010PropOp44
 70
     1
102
RTVSPost2010Prop45
280
     0
102
RTVSPost2010PropOp45
 70
     1
102
RTVSPost2010Prop46
 90
       50
102
RTVSPost2010PropOp46
 70
     1
102
RTVSPost2010Prop47
 90
       50
102
RTVSPost2010PropOp47
 70
     1
102
RTVSPost2010Prop48
 90
       50
102
RTVSPost2010PropOp48
 70
     1
102
RTVSPost2010Prop49
280
     0
102
RTVSPost2010PropOp49
 70
     1
102
RTVSPost2010Prop50
 90
       50
102
RTVSPost2010PropOp50
 70
     1
102
RTVSPost2010Prop51ColorIndex
 90
      256
102
RTVSPost2010Prop51ColorRGB
 90
-16777216
102
RTVSPost2010PropOp51
 70
     0
102
RTVSPost2010Prop52
140
1.0
102
RTVSPost2010PropOp52
 70
     0
102
RTVSPost2010Prop53
 90
        2
102
RTVSPost2010PropOp53
 70
     1
102
RTVSPost2010Prop54
  1
strokes_ogs.tif
102
RTVSPost2010PropOp54
 70
     1
102
RTVSPost2010Prop55
280
     0
102
RTVSPost2010PropOp55
 70
     1
102
RTVSPost2010Prop56
140
1.0
102
RTVSPost2010PropOp56
 70
     1
102
RTVSPost2010Prop57
140
1.0
102
RTVSPost2010PropOp57
 70
     1
  0
XRECORD
  5
2EC
102
{ACAD_REACTORS
330
2EB
102
}
330
2EB
100
AcDbXrecord
280
     1
102
RTVSPropertyOp0
 70
     0
102
RTVSPropertyOp1
 70
     0
102
RTVSPropertyOp2
 70
     0
102
RTVSPropertyOp3
 70
     0
102
RTVSPropertyOp4
 70
     0
102
RTVSPropertyOp5
 70
     0
102
RTVSPropertyOp6
 70
     0
102
RTVSPropertyOp7
 70
     0
102
RTVSPropertyOp8
 70
     0
102
RTVSPropertyOp9
 70
     0
102
RTVSPropertyOp10
 70
     0
102
RTVSPropertyOp11
 70
     0
102
RTVSPropertyOp12
 70
     0
102
RTVSPropertyOp13
 70
     0
102
RTVSPropertyOp14
 70
     2
102
RTVSPropertyOp15
 70
     0
102
RTVSPropertyOp16
 70
     0
102
RTVSPropertyOp17
 70
     0
102
RTVSPropertyOp18
 70
     0
102
RTVSPropertyOp19
 70
     0
102
RTVSPropertyOp20
 70
     0
102
RTVSPropertyOp21
 70
     0
102
RTVSPropertyOp22
 70
     0
102
RTVSPropertyOp23
 70
     0
102
RTVSPropertyOp24
 70
     0
102
RTVSPropertyOp25
 70
     0
102
RTVSPropertyOp26
 70
     0
102
RTVSPropertyOp27
 70
     0
102
RTVSPropertyOp28
 70
     0
102
RTVSPropertyOp29
 70
     0
102
RTVSPropertyOp30
 70
     0
102
RTVSPropertyOp31
 70
     0
102
RTVSPropertyOp32
 70
     0
102
RTVSPropertyOp33
 70
     0
102
RTVSPropertyOp34
 70
     0
102
RTVSPropertyOp35
 70
     0
102
RTVSPropertyOp36
 70
     0
102
RTVSPropertyOp37
 70
     0
102
RTVSPropertyOp38
 70
     0
102
RTVSPropertyOp39
 70
     0
102
RTVSPropertyOp40
 70
     0
102
RTVSPropertyOp41
 70
     0
102
RTVSPropertyOp42
 70
     0
102
RTVSPropertyOp43
 70
     0
102
RTVSPropertyOp44
 70
     0
102
RTVSPropertyOp45
 70
     0
102
RTVSPropertyOp46
 70
     0
102
RTVSPropertyOp47
 70
     0
102
RTVSPropertyOp48
 70
     0
102
RTVSPropertyOp49
 70
     0
102
RTVSPropertyOp50
 70
     0
102
RTVSPropertyOp51
 70
     0
102
RTVSPropertyOp52
 70
     0
102
RTVSPropertyOp53
 70
     0
102
RTVSPropertyOp54
 70
     0
102
RTVSPropertyOp55
 70
     0
102
RTVSPropertyOp56
 70
     0
102
RTVSPropertyOp57
 70
     0
102
RTVSPost2010Prop28
280
     0
102
RTVSPost2010PropOp28
 70
     0
102
RTVSPost2010Prop29
280
     1
102
RTVSPost2010PropOp29
 70
     0
102
RTVSPost2010Prop30
280
     1
102
RTVSPost2010PropOp30
 70
     0
102
RTVSPost2010Prop31
280
     0
102
RTVSPost2010PropOp31
 70
     0
102
RTVSPost2010Prop32
280
     0
102
RTVSPost2010PropOp32
 70
     0
102
RTVSPost2010Prop33
280
     0
102
RTVSPost2010PropOp33
 70
     0
102
RTVSPost2010Prop34
280
     0
102
RTVSPost2010PropOp34
 70
     0
102
RTVSPost2010Prop35
280
     0
102
RTVSPost2010PropOp35
 70
     0
102
RTVSPost2010Prop36
280
     0
102
RTVSPost2010PropOp36
 70
     0
102
RTVSPost2010Prop37
 90
       50
102
RTVSPost2010PropOp37
 70
     0
102
RTVSPost2010Prop38
140
0.0
102
RTVSPost2010PropOp38
 70
     0
102
RTVSPost2010Prop39
140
1.0
102
RTVSPost2010PropOp39
 70
     0
102
RTVSPost2010Prop40
 90
        0
102
RTVSPost2010PropOp40
 70
     0
102
RTVSPost2010Prop41ColorIndex
 90
       18
102
RTVSPost2010Prop41ColorRGB
 90
        0
102
RTVSPost2010PropOp41
 70
     0
102
RTVSPost2010Prop42
 90
       50
102
RTVSPost2010PropOp42
 70
     0
102
RTVSPost2010Prop43
 90
        3
102
RTVSPost2010PropOp43
 70
     0
102
RTVSPost2010Prop44ColorIndex
 90
        5
102
RTVSPost2010Prop44ColorRGB
 90
      255
102
RTVSPost2010PropOp44
 70
     0
102
RTVSPost2010Prop45
280
     0
102
RTVSPost2010PropOp45
 70
     0
102
RTVSPost2010Prop46
 90
       50
102
RTVSPost2010PropOp46
 70
     0
102
RTVSPost2010Prop47
 90
       50
102
RTVSPost2010PropOp47
 70
     0
102
RTVSPost2010Prop48
 90
       50
102
RTVSPost2010PropOp48
 70
     0
102
RTVSPost2010Prop49
280
     0
102
RTVSPost2010PropOp49
 70
     0
102
RTVSPost2010Prop50
 90
       50
102
RTVSPost2010PropOp50
 70
     0
102
RTVSPost2010Prop51ColorIndex
 90
      256
102
RTVSPost2010Prop51ColorRGB
 90
-16777216
102
RTVSPost2010PropOp51
 70
     0
102
RTVSPost2010Prop52
140
1.0
102
RTVSPost2010PropOp52
 70
     0
102
RTVSPost2010Prop53
 90
        2
102
RTVSPost2010PropOp53
 70
     0
102
RTVSPost2010Prop54
  1
strokes_ogs.tif
102
RTVSPost2010PropOp54
 70
     0
102
RTVSPost2010Prop55
280
     0
102
RTVSPost2010PropOp55
 70
     0
102
RTVSPost2010Prop56
140
1.0
102
RTVSPost2010PropOp56
 70
     0
102
RTVSPost2010Prop57
140
1.0
102
RTVSPost2010PropOp57
 70
     0
  0
XRECORD
  5
2DA
102
{ACAD_REACTORS
330
2D9
102
}
330
2D9
100
AcDbXrecord
280
     1
102
RTVSPropertyOp0
 70
     1
102
RTVSPropertyOp1
 70
     1
102
RTVSPropertyOp2
 70
     1
102
RTVSPropertyOp3
 70
     1
102
RTVSPropertyOp4
 70
     1
102
RTVSPropertyOp5
 70
     1
102
RTVSPropertyOp6
 70
     1
102
RTVSPropertyOp7
 70
     1
102
RTVSPropertyOp8
 70
     1
102
RTVSPropertyOp9
 70
     1
102
RTVSPropertyOp10
 70
     1
102
RTVSPropertyOp11
 70
     1
102
RTVSPropertyOp12
 70
     1
102
RTVSPropertyOp13
 70
     1
102
RTVSPropertyOp14
 70
     1
102
RTVSPropertyOp15
 70
     1
102
RTVSPropertyOp16
 70
     1
102
RTVSPropertyOp17
 70
     1
102
RTVSPropertyOp18
 70
     1
102
RTVSPropertyOp19
 70
     1
102
RTVSPropertyOp20
 70
     1
102
RTVSPropertyOp21
 70
     1
102
RTVSPropertyOp22
 70
     1
102
RTVSPropertyOp23
 70
     1
102
RTVSPropertyOp24
 70
     1
102
RTVSPropertyOp25
 70
     1
102
RTVSPropertyOp26
 70
     1
102
RTVSPropertyOp27
 70
     1
102
RTVSPropertyOp28
 70
     1
102
RTVSPropertyOp29
 70
     1
102
RTVSPropertyOp30
 70
     1
102
RTVSPropertyOp31
 70
     1
102
RTVSPropertyOp32
 70
     1
102
RTVSPropertyOp33
 70
     1
102
RTVSPropertyOp34
 70
     1
102
RTVSPropertyOp35
 70
     1
102
RTVSPropertyOp36
 70
     1
102
RTVSPropertyOp37
 70
     1
102
RTVSPropertyOp38
 70
     1
102
RTVSPropertyOp39
 70
     1
102
RTVSPropertyOp40
 70
     1
102
RTVSPropertyOp41
 70
     1
102
RTVSPropertyOp42
 70
     1
102
RTVSPropertyOp43
 70
     1
102
RTVSPropertyOp44
 70
     1
102
RTVSPropertyOp45
 70
     1
102
RTVSPropertyOp46
 70
     1
102
RTVSPropertyOp47
 70
     1
102
RTVSPropertyOp48
 70
     1
102
RTVSPropertyOp49
 70
     1
102
RTVSPropertyOp50
 70
     1
102
RTVSPropertyOp51
 70
     0
102
RTVSPropertyOp52
 70
     0
102
RTVSPropertyOp53
 70
     1
102
RTVSPropertyOp54
 70
     1
102
RTVSPropertyOp55
 70
     1
102
RTVSPropertyOp56
 70
     1
102
RTVSPropertyOp57
 70
     1
102
RTVSPost2010Prop28
280
     0
102
RTVSPost2010PropOp28
 70
     1
102
RTVSPost2010Prop29
280
     1
102
RTVSPost2010PropOp29
 70
     1
102
RTVSPost2010Prop30
280
     1
102
RTVSPost2010PropOp30
 70
     1
102
RTVSPost2010Prop31
280
     0
102
RTVSPost2010PropOp31
 70
     1
102
RTVSPost2010Prop32
280
     0
102
RTVSPost2010PropOp32
 70
     1
102
RTVSPost2010Prop33
280
     0
102
RTVSPost2010PropOp33
 70
     1
102
RTVSPost2010Prop34
280
     0
102
RTVSPost2010PropOp34
 70
     1
102
RTVSPost2010Prop35
280
     0
102
RTVSPost2010PropOp35
 70
     1
102
RTVSPost2010Prop36
280
     0
102
RTVSPost2010PropOp36
 70
     1
102
RTVSPost2010Prop37
 90
       50
102
RTVSPost2010PropOp37
 70
     1
102
RTVSPost2010Prop38
140
0.0
102
RTVSPost2010PropOp38
 70
     1
102
RTVSPost2010Prop39
140
1.0
102
RTVSPost2010PropOp39
 70
     1
102
RTVSPost2010Prop40
 90
        0
102
RTVSPost2010PropOp40
 70
     1
102
RTVSPost2010Prop41ColorIndex
 90
       18
102
RTVSPost2010Prop41ColorRGB
 90
        0
102
RTVSPost2010PropOp41
 70
     1
102
RTVSPost2010Prop42
 90
       50
102
RTVSPost2010PropOp42
 70
     1
102
RTVSPost2010Prop43
 90
        3
102
RTVSPost2010PropOp43
 70
     1
102
RTVSPost2010Prop44ColorIndex
 90
        5
102
RTVSPost2010Prop44ColorRGB
 90
      255
102
RTVSPost2010PropOp44
 70
     1
102
RTVSPost2010Prop45
280
     0
102
RTVSPost2010PropOp45
 70
     1
102
RTVSPost2010Prop46
 90
       50
102
RTVSPost2010PropOp46
 70
     1
102
RTVSPost2010Prop47
 90
       50
102
RTVSPost2010PropOp47
 70
     1
102
RTVSPost2010Prop48
 90
       50
102
RTVSPost2010PropOp48
 70
     1
102
RTVSPost2010Prop49
280
     0
102
RTVSPost2010PropOp49
 70
     1
102
RTVSPost2010Prop50
 90
       50
102
RTVSPost2010PropOp50
 70
     1
102
RTVSPost2010Prop51ColorIndex
 90
      256
102
RTVSPost2010Prop51ColorRGB
 90
-16777216
102
RTVSPost2010PropOp51
 70
     0
102
RTVSPost2010Prop52
140
1.0
102
RTVSPost2010PropOp52
 70
     0
102
RTVSPost2010Prop53
 90
        2
102
RTVSPost2010PropOp53
 70
     1
102
RTVSPost2010Prop54
  1
strokes_ogs.tif
102
RTVSPost2010PropOp54
 70
     1
102
RTVSPost2010Prop55
280
     0
102
RTVSPost2010PropOp55
 70
     1
102
RTVSPost2010Prop56
140
1.0
102
RTVSPost2010PropOp56
 70
     1
102
RTVSPost2010Prop57
140
1.0
102
RTVSPost2010PropOp57
 70
     1
  0
XRECORD
  5
2F8
102
{ACAD_REACTORS
330
2F7
102
}
330
2F7
100
AcDbXrecord
280
     1
102
RTVSPropertyOp0
 70
     1
102
RTVSPropertyOp1
 70
     1
102
RTVSPropertyOp2
 70
     1
102
RTVSPropertyOp3
 70
     1
102
RTVSPropertyOp4
 70
     1
102
RTVSPropertyOp5
 70
     1
102
RTVSPropertyOp6
 70
     1
102
RTVSPropertyOp7
 70
     1
102
RTVSPropertyOp8
 70
     1
102
RTVSPropertyOp9
 70
     1
102
RTVSPropertyOp10
 70
     1
102
RTVSPropertyOp11
 70
     1
102
RTVSPropertyOp12
 70
     1
102
RTVSPropertyOp13
 70
     1
102
RTVSPropertyOp14
 70
     1
102
RTVSPropertyOp15
 70
     1
102
RTVSPropertyOp16
 70
     1
102
RTVSPropertyOp17
 70
     1
102
RTVSPropertyOp18
 70
     1
102
RTVSPropertyOp19
 70
     1
102
RTVSPropertyOp20
 70
     1
102
RTVSPropertyOp21
 70
     1
102
RTVSPropertyOp22
 70
     1
102
RTVSPropertyOp23
 70
     1
102
RTVSPropertyOp24
 70
     1
102
RTVSPropertyOp25
 70
     1
102
RTVSPropertyOp26
 70
     1
102
RTVSPropertyOp27
 70
     1
102
RTVSPropertyOp28
 70
     1
102
RTVSPropertyOp29
 70
     1
102
RTVSPropertyOp30
 70
     1
102
RTVSPropertyOp31
 70
     1
102
RTVSPropertyOp32
 70
     1
102
RTVSPropertyOp33
 70
     1
102
RTVSPropertyOp34
 70
     1
102
RTVSPropertyOp35
 70
     1
102
RTVSPropertyOp36
 70
     1
102
RTVSPropertyOp37
 70
     1
102
RTVSPropertyOp38
 70
     1
102
RTVSPropertyOp39
 70
     1
102
RTVSPropertyOp40
 70
     1
102
RTVSPropertyOp41
 70
     1
102
RTVSPropertyOp42
 70
     1
102
RTVSPropertyOp43
 70
     1
102
RTVSPropertyOp44
 70
     1
102
RTVSPropertyOp45
 70
     1
102
RTVSPropertyOp46
 70
     1
102
RTVSPropertyOp47
 70
     1
102
RTVSPropertyOp48
 70
     1
102
RTVSPropertyOp49
 70
     1
102
RTVSPropertyOp50
 70
     1
102
RTVSPropertyOp51
 70
     0
102
RTVSPropertyOp52
 70
     0
102
RTVSPropertyOp53
 70
     1
102
RTVSPropertyOp54
 70
     1
102
RTVSPropertyOp55
 70
     1
102
RTVSPropertyOp56
 70
     1
102
RTVSPropertyOp57
 70
     1
102
RTVSPost2010Prop28
280
     0
102
RTVSPost2010PropOp28
 70
     1
102
RTVSPost2010Prop29
280
     1
102
RTVSPost2010PropOp29
 70
     1
102
RTVSPost2010Prop30
280
     1
102
RTVSPost2010PropOp30
 70
     1
102
RTVSPost2010Prop31
280
     0
102
RTVSPost2010PropOp31
 70
     1
102
RTVSPost2010Prop32
280
     0
102
RTVSPost2010PropOp32
 70
     1
102
RTVSPost2010Prop33
280
     0
102
RTVSPost2010PropOp33
 70
     1
102
RTVSPost2010Prop34
280
     0
102
RTVSPost2010PropOp34
 70
     1
102
RTVSPost2010Prop35
280
     0
102
RTVSPost2010PropOp35
 70
     1
102
RTVSPost2010Prop36
280
     0
102
RTVSPost2010PropOp36
 70
     1
102
RTVSPost2010Prop37
 90
       50
102
RTVSPost2010PropOp37
 70
     1
102
RTVSPost2010Prop38
140
0.0
102
RTVSPost2010PropOp38
 70
     1
102
RTVSPost2010Prop39
140
1.0
102
RTVSPost2010PropOp39
 70
     1
102
RTVSPost2010Prop40
 90
        0
102
RTVSPost2010PropOp40
 70
     1
102
RTVSPost2010Prop41ColorIndex
 90
       18
102
RTVSPost2010Prop41ColorRGB
 90
        0
102
RTVSPost2010PropOp41
 70
     1
102
RTVSPost2010Prop42
 90
       50
102
RTVSPost2010PropOp42
 70
     1
102
RTVSPost2010Prop43
 90
        3
102
RTVSPost2010PropOp43
 70
     1
102
RTVSPost2010Prop44ColorIndex
 90
        5
102
RTVSPost2010Prop44ColorRGB
 90
      255
102
RTVSPost2010PropOp44
 70
     1
102
RTVSPost2010Prop45
280
     0
102
RTVSPost2010PropOp45
 70
     1
102
RTVSPost2010Prop46
 90
       50
102
RTVSPost2010PropOp46
 70
     1
102
RTVSPost2010Prop47
 90
       50
102
RTVSPost2010PropOp47
 70
     1
102
RTVSPost2010Prop48
 90
       50
102
RTVSPost2010PropOp48
 70
     1
102
RTVSPost2010Prop49
280
     0
102
RTVSPost2010PropOp49
 70
     1
102
RTVSPost2010Prop50
 90
       50
102
RTVSPost2010PropOp50
 70
     1
102
RTVSPost2010Prop51ColorIndex
 90
      256
102
RTVSPost2010Prop51ColorRGB
 90
-16777216
102
RTVSPost2010PropOp51
 70
     0
102
RTVSPost2010Prop52
140
1.0
102
RTVSPost2010PropOp52
 70
     0
102
RTVSPost2010Prop53
 90
        2
102
RTVSPost2010PropOp53
 70
     1
102
RTVSPost2010Prop54
  1
strokes_ogs.tif
102
RTVSPost2010PropOp54
 70
     1
102
RTVSPost2010Prop55
280
     0
102
RTVSPost2010PropOp55
 70
     1
102
RTVSPost2010Prop56
140
1.0
102
RTVSPost2010PropOp56
 70
     1
102
RTVSPost2010Prop57
140
1.0
102
RTVSPost2010PropOp57
 70
     1
  0
XRECORD
  5
2F6
102
{ACAD_REACTORS
330
2F5
102
}
330
2F5
100
AcDbXrecord
280
     1
102
RTVSPropertyOp0
 70
     1
102
RTVSPropertyOp1
 70
     1
102
RTVSPropertyOp2
 70
     1
102
RTVSPropertyOp3
 70
     1
102
RTVSPropertyOp4
 70
     1
102
RTVSPropertyOp5
 70
     1
102
RTVSPropertyOp6
 70
     1
102
RTVSPropertyOp7
 70
     1
102
RTVSPropertyOp8
 70
     1
102
RTVSPropertyOp9
 70
     1
102
RTVSPropertyOp10
 70
     1
102
RTVSPropertyOp11
 70
     1
102
RTVSPropertyOp12
 70
     1
102
RTVSPropertyOp13
 70
     1
102
RTVSPropertyOp14
 70
     1
102
RTVSPropertyOp15
 70
     1
102
RTVSPropertyOp16
 70
     1
102
RTVSPropertyOp17
 70
     1
102
RTVSPropertyOp18
 70
     1
102
RTVSPropertyOp19
 70
     1
102
RTVSPropertyOp20
 70
     1
102
RTVSPropertyOp21
 70
     1
102
RTVSPropertyOp22
 70
     1
102
RTVSPropertyOp23
 70
     1
102
RTVSPropertyOp24
 70
     1
102
RTVSPropertyOp25
 70
     1
102
RTVSPropertyOp26
 70
     1
102
RTVSPropertyOp27
 70
     1
102
RTVSPropertyOp28
 70
     1
102
RTVSPropertyOp29
 70
     1
102
RTVSPropertyOp30
 70
     1
102
RTVSPropertyOp31
 70
     1
102
RTVSPropertyOp32
 70
     1
102
RTVSPropertyOp33
 70
     1
102
RTVSPropertyOp34
 70
     1
102
RTVSPropertyOp35
 70
     1
102
RTVSPropertyOp36
 70
     1
102
RTVSPropertyOp37
 70
     1
102
RTVSPropertyOp38
 70
     1
102
RTVSPropertyOp39
 70
     1
102
RTVSPropertyOp40
 70
     1
102
RTVSPropertyOp41
 70
     1
102
RTVSPropertyOp42
 70
     1
102
RTVSPropertyOp43
 70
     1
102
RTVSPropertyOp44
 70
     1
102
RTVSPropertyOp45
 70
     1
102
RTVSPropertyOp46
 70
     1
102
RTVSPropertyOp47
 70
     1
102
RTVSPropertyOp48
 70
     1
102
RTVSPropertyOp49
 70
     1
102
RTVSPropertyOp50
 70
     1
102
RTVSPropertyOp51
 70
     0
102
RTVSPropertyOp52
 70
     0
102
RTVSPropertyOp53
 70
     1
102
RTVSPropertyOp54
 70
     1
102
RTVSPropertyOp55
 70
     1
102
RTVSPropertyOp56
 70
     1
102
RTVSPropertyOp57
 70
     1
102
RTVSPost2010Prop28
280
     0
102
RTVSPost2010PropOp28
 70
     1
102
RTVSPost2010Prop29
280
     1
102
RTVSPost2010PropOp29
 70
     1
102
RTVSPost2010Prop30
280
     1
102
RTVSPost2010PropOp30
 70
     1
102
RTVSPost2010Prop31
280
     0
102
RTVSPost2010PropOp31
 70
     1
102
RTVSPost2010Prop32
280
     0
102
RTVSPost2010PropOp32
 70
     1
102
RTVSPost2010Prop33
280
     0
102
RTVSPost2010PropOp33
 70
     1
102
RTVSPost2010Prop34
280
     0
102
RTVSPost2010PropOp34
 70
     1
102
RTVSPost2010Prop35
280
     0
102
RTVSPost2010PropOp35
 70
     1
102
RTVSPost2010Prop36
280
     0
102
RTVSPost2010PropOp36
 70
     1
102
RTVSPost2010Prop37
 90
       50
102
RTVSPost2010PropOp37
 70
     1
102
RTVSPost2010Prop38
140
0.0
102
RTVSPost2010PropOp38
 70
     1
102
RTVSPost2010Prop39
140
1.0
102
RTVSPost2010PropOp39
 70
     1
102
RTVSPost2010Prop40
 90
        0
102
RTVSPost2010PropOp40
 70
     1
102
RTVSPost2010Prop41ColorIndex
 90
       18
102
RTVSPost2010Prop41ColorRGB
 90
        0
102
RTVSPost2010PropOp41
 70
     1
102
RTVSPost2010Prop42
 90
       50
102
RTVSPost2010PropOp42
 70
     1
102
RTVSPost2010Prop43
 90
        3
102
RTVSPost2010PropOp43
 70
     1
102
RTVSPost2010Prop44ColorIndex
 90
        5
102
RTVSPost2010Prop44ColorRGB
 90
      255
102
RTVSPost2010PropOp44
 70
     1
102
RTVSPost2010Prop45
280
     0
102
RTVSPost2010PropOp45
 70
     1
102
RTVSPost2010Prop46
 90
       50
102
RTVSPost2010PropOp46
 70
     1
102
RTVSPost2010Prop47
 90
       50
102
RTVSPost2010PropOp47
 70
     1
102
RTVSPost2010Prop48
 90
       50
102
RTVSPost2010PropOp48
 70
     1
102
RTVSPost2010Prop49
280
     0
102
RTVSPost2010PropOp49
 70
     1
102
RTVSPost2010Prop50
 90
       50
102
RTVSPost2010PropOp50
 70
     1
102
RTVSPost2010Prop51ColorIndex
 90
      256
102
RTVSPost2010Prop51ColorRGB
 90
-16777216
102
RTVSPost2010PropOp51
 70
     0
102
RTVSPost2010Prop52
140
1.0
102
RTVSPost2010PropOp52
 70
     0
102
RTVSPost2010Prop53
 90
        2
102
RTVSPost2010PropOp53
 70
     1
102
RTVSPost2010Prop54
  1
strokes_ogs.tif
102
RTVSPost2010PropOp54
 70
     1
102
RTVSPost2010Prop55
280
     0
102
RTVSPost2010PropOp55
 70
     1
102
RTVSPost2010Prop56
140
1.0
102
RTVSPost2010PropOp56
 70
     1
102
RTVSPost2010Prop57
140
1.0
102
RTVSPost2010PropOp57
 70
     1
  0
XRECORD
  5
2F0
102
{ACAD_REACTORS
330
2EF
102
}
330
2EF
100
AcDbXrecord
280
     1
102
RTVSPropertyOp0
 70
     1
102
RTVSPropertyOp1
 70
     1
102
RTVSPropertyOp2
 70
     1
102
RTVSPropertyOp3
 70
     1
102
RTVSPropertyOp4
 70
     1
102
RTVSPropertyOp5
 70
     1
102
RTVSPropertyOp6
 70
     1
102
RTVSPropertyOp7
 70
     1
102
RTVSPropertyOp8
 70
     1
102
RTVSPropertyOp9
 70
     1
102
RTVSPropertyOp10
 70
     1
102
RTVSPropertyOp11
 70
     1
102
RTVSPropertyOp12
 70
     1
102
RTVSPropertyOp13
 70
     1
102
RTVSPropertyOp14
 70
     1
102
RTVSPropertyOp15
 70
     1
102
RTVSPropertyOp16
 70
     1
102
RTVSPropertyOp17
 70
     1
102
RTVSPropertyOp18
 70
     1
102
RTVSPropertyOp19
 70
     1
102
RTVSPropertyOp20
 70
     1
102
RTVSPropertyOp21
 70
     1
102
RTVSPropertyOp22
 70
     1
102
RTVSPropertyOp23
 70
     1
102
RTVSPropertyOp24
 70
     1
102
RTVSPropertyOp25
 70
     1
102
RTVSPropertyOp26
 70
     1
102
RTVSPropertyOp27
 70
     1
102
RTVSPropertyOp28
 70
     1
102
RTVSPropertyOp29
 70
     1
102
RTVSPropertyOp30
 70
     1
102
RTVSPropertyOp31
 70
     1
102
RTVSPropertyOp32
 70
     1
102
RTVSPropertyOp33
 70
     1
102
RTVSPropertyOp34
 70
     1
102
RTVSPropertyOp35
 70
     1
102
RTVSPropertyOp36
 70
     1
102
RTVSPropertyOp37
 70
     1
102
RTVSPropertyOp38
 70
     1
102
RTVSPropertyOp39
 70
     1
102
RTVSPropertyOp40
 70
     1
102
RTVSPropertyOp41
 70
     1
102
RTVSPropertyOp42
 70
     1
102
RTVSPropertyOp43
 70
     1
102
RTVSPropertyOp44
 70
     1
102
RTVSPropertyOp45
 70
     1
102
RTVSPropertyOp46
 70
     1
102
RTVSPropertyOp47
 70
     1
102
RTVSPropertyOp48
 70
     1
102
RTVSPropertyOp49
 70
     1
102
RTVSPropertyOp50
 70
     1
102
RTVSPropertyOp51
 70
     0
102
RTVSPropertyOp52
 70
     0
102
RTVSPropertyOp53
 70
     1
102
RTVSPropertyOp54
 70
     1
102
RTVSPropertyOp55
 70
     1
102
RTVSPropertyOp56
 70
     1
102
RTVSPropertyOp57
 70
     1
102
RTVSPost2010Prop28
280
     0
102
RTVSPost2010PropOp28
 70
     1
102
RTVSPost2010Prop29
280
     1
102
RTVSPost2010PropOp29
 70
     1
102
RTVSPost2010Prop30
280
     1
102
RTVSPost2010PropOp30
 70
     1
102
RTVSPost2010Prop31
280
     0
102
RTVSPost2010PropOp31
 70
     1
102
RTVSPost2010Prop32
280
     0
102
RTVSPost2010PropOp32
 70
     1
102
RTVSPost2010Prop33
280
     0
102
RTVSPost2010PropOp33
 70
     1
102
RTVSPost2010Prop34
280
     0
102
RTVSPost2010PropOp34
 70
     1
102
RTVSPost2010Prop35
280
     0
102
RTVSPost2010PropOp35
 70
     1
102
RTVSPost2010Prop36
280
     0
102
RTVSPost2010PropOp36
 70
     1
102
RTVSPost2010Prop37
 90
       50
102
RTVSPost2010PropOp37
 70
     1
102
RTVSPost2010Prop38
140
0.0
102
RTVSPost2010PropOp38
 70
     1
102
RTVSPost2010Prop39
140
1.0
102
RTVSPost2010PropOp39
 70
     1
102
RTVSPost2010Prop40
 90
        0
102
RTVSPost2010PropOp40
 70
     1
102
RTVSPost2010Prop41ColorIndex
 90
       18
102
RTVSPost2010Prop41ColorRGB
 90
        0
102
RTVSPost2010PropOp41
 70
     1
102
RTVSPost2010Prop42
 90
       50
102
RTVSPost2010PropOp42
 70
     1
102
RTVSPost2010Prop43
 90
        3
102
RTVSPost2010PropOp43
 70
     1
102
RTVSPost2010Prop44ColorIndex
 90
        5
102
RTVSPost2010Prop44ColorRGB
 90
      255
102
RTVSPost2010PropOp44
 70
     1
102
RTVSPost2010Prop45
280
     0
102
RTVSPost2010PropOp45
 70
     1
102
RTVSPost2010Prop46
 90
       50
102
RTVSPost2010PropOp46
 70
     1
102
RTVSPost2010Prop47
 90
       50
102
RTVSPost2010PropOp47
 70
     1
102
RTVSPost2010Prop48
 90
       50
102
RTVSPost2010PropOp48
 70
     1
102
RTVSPost2010Prop49
280
     0
102
RTVSPost2010PropOp49
 70
     1
102
RTVSPost2010Prop50
 90
       50
102
RTVSPost2010PropOp50
 70
     1
102
RTVSPost2010Prop51ColorIndex
 90
      256
102
RTVSPost2010Prop51ColorRGB
 90
-16777216
102
RTVSPost2010PropOp51
 70
     0
102
RTVSPost2010Prop52
140
1.0
102
RTVSPost2010PropOp52
 70
     0
102
RTVSPost2010Prop53
 90
        2
102
RTVSPost2010PropOp53
 70
     1
102
RTVSPost2010Prop54
  1
strokes_ogs.tif
102
RTVSPost2010PropOp54
 70
     1
102
RTVSPost2010Prop55
280
     0
102
RTVSPost2010PropOp55
 70
     1
102
RTVSPost2010Prop56
140
1.0
102
RTVSPost2010PropOp56
 70
     1
102
RTVSPost2010Prop57
140
1.0
102
RTVSPost2010PropOp57
 70
     1
  0
XRECORD
  5
2F2
102
{ACAD_REACTORS
330
2F1
102
}
330
2F1
100
AcDbXrecord
280
     1
102
RTVSPropertyOp0
 70
     1
102
RTVSPropertyOp1
 70
     1
102
RTVSPropertyOp2
 70
     1
102
RTVSPropertyOp3
 70
     1
102
RTVSPropertyOp4
 70
     1
102
RTVSPropertyOp5
 70
     1
102
RTVSPropertyOp6
 70
     1
102
RTVSPropertyOp7
 70
     1
102
RTVSPropertyOp8
 70
     1
102
RTVSPropertyOp9
 70
     1
102
RTVSPropertyOp10
 70
     1
102
RTVSPropertyOp11
 70
     1
102
RTVSPropertyOp12
 70
     1
102
RTVSPropertyOp13
 70
     1
102
RTVSPropertyOp14
 70
     1
102
RTVSPropertyOp15
 70
     1
102
RTVSPropertyOp16
 70
     1
102
RTVSPropertyOp17
 70
     1
102
RTVSPropertyOp18
 70
     1
102
RTVSPropertyOp19
 70
     1
102
RTVSPropertyOp20
 70
     1
102
RTVSPropertyOp21
 70
     1
102
RTVSPropertyOp22
 70
     1
102
RTVSPropertyOp23
 70
     1
102
RTVSPropertyOp24
 70
     1
102
RTVSPropertyOp25
 70
     1
102
RTVSPropertyOp26
 70
     1
102
RTVSPropertyOp27
 70
     1
102
RTVSPropertyOp28
 70
     1
102
RTVSPropertyOp29
 70
     1
102
RTVSPropertyOp30
 70
     1
102
RTVSPropertyOp31
 70
     1
102
RTVSPropertyOp32
 70
     1
102
RTVSPropertyOp33
 70
     1
102
RTVSPropertyOp34
 70
     1
102
RTVSPropertyOp35
 70
     1
102
RTVSPropertyOp36
 70
     1
102
RTVSPropertyOp37
 70
     1
102
RTVSPropertyOp38
 70
     1
102
RTVSPropertyOp39
 70
     1
102
RTVSPropertyOp40
 70
     1
102
RTVSPropertyOp41
 70
     1
102
RTVSPropertyOp42
 70
     1
102
RTVSPropertyOp43
 70
     1
102
RTVSPropertyOp44
 70
     1
102
RTVSPropertyOp45
 70
     1
102
RTVSPropertyOp46
 70
     1
102
RTVSPropertyOp47
 70
     1
102
RTVSPropertyOp48
 70
     1
102
RTVSPropertyOp49
 70
     1
102
RTVSPropertyOp50
 70
     1
102
RTVSPropertyOp51
 70
     0
102
RTVSPropertyOp52
 70
     0
102
RTVSPropertyOp53
 70
     1
102
RTVSPropertyOp54
 70
     1
102
RTVSPropertyOp55
 70
     1
102
RTVSPropertyOp56
 70
     1
102
RTVSPropertyOp57
 70
     1
102
RTVSPost2010Prop28
280
     0
102
RTVSPost2010PropOp28
 70
     1
102
RTVSPost2010Prop29
280
     1
102
RTVSPost2010PropOp29
 70
     1
102
RTVSPost2010Prop30
280
     1
102
RTVSPost2010PropOp30
 70
     1
102
RTVSPost2010Prop31
280
     0
102
RTVSPost2010PropOp31
 70
     1
102
RTVSPost2010Prop32
280
     0
102
RTVSPost2010PropOp32
 70
     1
102
RTVSPost2010Prop33
280
     0
102
RTVSPost2010PropOp33
 70
     1
102
RTVSPost2010Prop34
280
     0
102
RTVSPost2010PropOp34
 70
     1
102
RTVSPost2010Prop35
280
     0
102
RTVSPost2010PropOp35
 70
     1
102
RTVSPost2010Prop36
280
     0
102
RTVSPost2010PropOp36
 70
     1
102
RTVSPost2010Prop37
 90
       50
102
RTVSPost2010PropOp37
 70
     1
102
RTVSPost2010Prop38
140
0.0
102
RTVSPost2010PropOp38
 70
     1
102
RTVSPost2010Prop39
140
1.0
102
RTVSPost2010PropOp39
 70
     1
102
RTVSPost2010Prop40
 90
        0
102
RTVSPost2010PropOp40
 70
     1
102
RTVSPost2010Prop41ColorIndex
 90
       18
102
RTVSPost2010Prop41ColorRGB
 90
        0
102
RTVSPost2010PropOp41
 70
     1
102
RTVSPost2010Prop42
 90
       50
102
RTVSPost2010PropOp42
 70
     1
102
RTVSPost2010Prop43
 90
        3
102
RTVSPost2010PropOp43
 70
     1
102
RTVSPost2010Prop44ColorIndex
 90
        5
102
RTVSPost2010Prop44ColorRGB
 90
      255
102
RTVSPost2010PropOp44
 70
     1
102
RTVSPost2010Prop45
280
     0
102
RTVSPost2010PropOp45
 70
     1
102
RTVSPost2010Prop46
 90
       50
102
RTVSPost2010PropOp46
 70
     1
102
RTVSPost2010Prop47
 90
       50
102
RTVSPost2010PropOp47
 70
     1
102
RTVSPost2010Prop48
 90
       50
102
RTVSPost2010PropOp48
 70
     1
102
RTVSPost2010Prop49
280
     0
102
RTVSPost2010PropOp49
 70
     1
102
RTVSPost2010Prop50
 90
       50
102
RTVSPost2010PropOp50
 70
     1
102
RTVSPost2010Prop51ColorIndex
 90
      256
102
RTVSPost2010Prop51ColorRGB
 90
-16777216
102
RTVSPost2010PropOp51
 70
     0
102
RTVSPost2010Prop52
140
1.0
102
RTVSPost2010PropOp52
 70
     0
102
RTVSPost2010Prop53
 90
        2
102
RTVSPost2010PropOp53
 70
     1
102
RTVSPost2010Prop54
  1
strokes_ogs.tif
102
RTVSPost2010PropOp54
 70
     1
102
RTVSPost2010Prop55
280
     0
102
RTVSPost2010PropOp55
 70
     1
102
RTVSPost2010Prop56
140
1.0
102
RTVSPost2010PropOp56
 70
     1
102
RTVSPost2010Prop57
140
1.0
102
RTVSPost2010PropOp57
 70
     1
  0
XRECORD
  5
2E2
102
{ACAD_REACTORS
330
2E1
102
}
330
2E1
100
AcDbXrecord
280
     1
102
RTVSPropertyOp0
 70
     1
102
RTVSPropertyOp1
 70
     1
102
RTVSPropertyOp2
 70
     1
102
RTVSPropertyOp3
 70
     1
102
RTVSPropertyOp4
 70
     1
102
RTVSPropertyOp5
 70
     1
102
RTVSPropertyOp6
 70
     1
102
RTVSPropertyOp7
 70
     1
102
RTVSPropertyOp8
 70
     1
102
RTVSPropertyOp9
 70
     1
102
RTVSPropertyOp10
 70
     1
102
RTVSPropertyOp11
 70
     1
102
RTVSPropertyOp12
 70
     1
102
RTVSPropertyOp13
 70
     1
102
RTVSPropertyOp14
 70
     1
102
RTVSPropertyOp15
 70
     1
102
RTVSPropertyOp16
 70
     1
102
RTVSPropertyOp17
 70
     1
102
RTVSPropertyOp18
 70
     1
102
RTVSPropertyOp19
 70
     1
102
RTVSPropertyOp20
 70
     1
102
RTVSPropertyOp21
 70
     1
102
RTVSPropertyOp22
 70
     1
102
RTVSPropertyOp23
 70
     1
102
RTVSPropertyOp24
 70
     1
102
RTVSPropertyOp25
 70
     1
102
RTVSPropertyOp26
 70
     1
102
RTVSPropertyOp27
 70
     1
102
RTVSPropertyOp28
 70
     1
102
RTVSPropertyOp29
 70
     1
102
RTVSPropertyOp30
 70
     1
102
RTVSPropertyOp31
 70
     1
102
RTVSPropertyOp32
 70
     1
102
RTVSPropertyOp33
 70
     1
102
RTVSPropertyOp34
 70
     1
102
RTVSPropertyOp35
 70
     1
102
RTVSPropertyOp36
 70
     1
102
RTVSPropertyOp37
 70
     1
102
RTVSPropertyOp38
 70
     1
102
RTVSPropertyOp39
 70
     1
102
RTVSPropertyOp40
 70
     1
102
RTVSPropertyOp41
 70
     1
102
RTVSPropertyOp42
 70
     1
102
RTVSPropertyOp43
 70
     1
102
RTVSPropertyOp44
 70
     1
102
RTVSPropertyOp45
 70
     1
102
RTVSPropertyOp46
 70
     1
102
RTVSPropertyOp47
 70
     1
102
RTVSPropertyOp48
 70
     1
102
RTVSPropertyOp49
 70
     1
102
RTVSPropertyOp50
 70
     1
102
RTVSPropertyOp51
 70
     0
102
RTVSPropertyOp52
 70
     0
102
RTVSPropertyOp53
 70
     1
102
RTVSPropertyOp54
 70
     1
102
RTVSPropertyOp55
 70
     1
102
RTVSPropertyOp56
 70
     1
102
RTVSPropertyOp57
 70
     1
102
RTVSPost2010Prop28
280
     0
102
RTVSPost2010PropOp28
 70
     1
102
RTVSPost2010Prop29
280
     1
102
RTVSPost2010PropOp29
 70
     1
102
RTVSPost2010Prop30
280
     1
102
RTVSPost2010PropOp30
 70
     1
102
RTVSPost2010Prop31
280
     0
102
RTVSPost2010PropOp31
 70
     1
102
RTVSPost2010Prop32
280
     0
102
RTVSPost2010PropOp32
 70
     1
102
RTVSPost2010Prop33
280
     0
102
RTVSPost2010PropOp33
 70
     1
102
RTVSPost2010Prop34
280
     0
102
RTVSPost2010PropOp34
 70
     1
102
RTVSPost2010Prop35
280
     0
102
RTVSPost2010PropOp35
 70
     1
102
RTVSPost2010Prop36
280
     0
102
RTVSPost2010PropOp36
 70
     1
102
RTVSPost2010Prop37
 90
       50
102
RTVSPost2010PropOp37
 70
     1
102
RTVSPost2010Prop38
140
0.0
102
RTVSPost2010PropOp38
 70
     1
102
RTVSPost2010Prop39
140
1.0
102
RTVSPost2010PropOp39
 70
     1
102
RTVSPost2010Prop40
 90
        0
102
RTVSPost2010PropOp40
 70
     1
102
RTVSPost2010Prop41ColorIndex
 90
       18
102
RTVSPost2010Prop41ColorRGB
 90
        0
102
RTVSPost2010PropOp41
 70
     1
102
RTVSPost2010Prop42
 90
       50
102
RTVSPost2010PropOp42
 70
     1
102
RTVSPost2010Prop43
 90
        3
102
RTVSPost2010PropOp43
 70
     1
102
RTVSPost2010Prop44ColorIndex
 90
        5
102
RTVSPost2010Prop44ColorRGB
 90
      255
102
RTVSPost2010PropOp44
 70
     1
102
RTVSPost2010Prop45
280
     0
102
RTVSPost2010PropOp45
 70
     1
102
RTVSPost2010Prop46
 90
       50
102
RTVSPost2010PropOp46
 70
     1
102
RTVSPost2010Prop47
 90
       50
102
RTVSPost2010PropOp47
 70
     1
102
RTVSPost2010Prop48
 90
       50
102
RTVSPost2010PropOp48
 70
     1
102
RTVSPost2010Prop49
280
     0
102
RTVSPost2010PropOp49
 70
     1
102
RTVSPost2010Prop50
 90
       50
102
RTVSPost2010PropOp50
 70
     1
102
RTVSPost2010Prop51ColorIndex
 90
      256
102
RTVSPost2010Prop51ColorRGB
 90
-16777216
102
RTVSPost2010PropOp51
 70
     0
102
RTVSPost2010Prop52
140
1.0
102
RTVSPost2010PropOp52
 70
     0
102
RTVSPost2010Prop53
 90
        2
102
RTVSPost2010PropOp53
 70
     1
102
RTVSPost2010Prop54
  1
strokes_ogs.tif
102
RTVSPost2010PropOp54
 70
     1
102
RTVSPost2010Prop55
280
     0
102
RTVSPost2010PropOp55
 70
     1
102
RTVSPost2010Prop56
140
1.0
102
RTVSPost2010PropOp56
 70
     1
102
RTVSPost2010Prop57
140
1.0
102
RTVSPost2010PropOp57
 70
     1
  0
XRECORD
  5
2D4
102
{ACAD_REACTORS
330
2D3
102
}
330
2D3
100
AcDbXrecord
280
     1
102
RTVSPropertyOp0
 70
     1
102
RTVSPropertyOp1
 70
     1
102
RTVSPropertyOp2
 70
     1
102
RTVSPropertyOp3
 70
     1
102
RTVSPropertyOp4
 70
     1
102
RTVSPropertyOp5
 70
     1
102
RTVSPropertyOp6
 70
     1
102
RTVSPropertyOp7
 70
     1
102
RTVSPropertyOp8
 70
     1
102
RTVSPropertyOp9
 70
     1
102
RTVSPropertyOp10
 70
     1
102
RTVSPropertyOp11
 70
     1
102
RTVSPropertyOp12
 70
     1
102
RTVSPropertyOp13
 70
     1
102
RTVSPropertyOp14
 70
     1
102
RTVSPropertyOp15
 70
     1
102
RTVSPropertyOp16
 70
     1
102
RTVSPropertyOp17
 70
     1
102
RTVSPropertyOp18
 70
     1
102
RTVSPropertyOp19
 70
     1
102
RTVSPropertyOp20
 70
     1
102
RTVSPropertyOp21
 70
     1
102
RTVSPropertyOp22
 70
     1
102
RTVSPropertyOp23
 70
     1
102
RTVSPropertyOp24
 70
     1
102
RTVSPropertyOp25
 70
     1
102
RTVSPropertyOp26
 70
     1
102
RTVSPropertyOp27
 70
     1
102
RTVSPropertyOp28
 70
     1
102
RTVSPropertyOp29
 70
     1
102
RTVSPropertyOp30
 70
     1
102
RTVSPropertyOp31
 70
     1
102
RTVSPropertyOp32
 70
     1
102
RTVSPropertyOp33
 70
     1
102
RTVSPropertyOp34
 70
     1
102
RTVSPropertyOp35
 70
     1
102
RTVSPropertyOp36
 70
     1
102
RTVSPropertyOp37
 70
     1
102
RTVSPropertyOp38
 70
     1
102
RTVSPropertyOp39
 70
     1
102
RTVSPropertyOp40
 70
     1
102
RTVSPropertyOp41
 70
     1
102
RTVSPropertyOp42
 70
     1
102
RTVSPropertyOp43
 70
     1
102
RTVSPropertyOp44
 70
     1
102
RTVSPropertyOp45
 70
     1
102
RTVSPropertyOp46
 70
     1
102
RTVSPropertyOp47
 70
     1
102
RTVSPropertyOp48
 70
     1
102
RTVSPropertyOp49
 70
     1
102
RTVSPropertyOp50
 70
     1
102
RTVSPropertyOp51
 70
     0
102
RTVSPropertyOp52
 70
     0
102
RTVSPropertyOp53
 70
     1
102
RTVSPropertyOp54
 70
     1
102
RTVSPropertyOp55
 70
     1
102
RTVSPropertyOp56
 70
     1
102
RTVSPropertyOp57
 70
     1
102
RTVSPost2010Prop28
280
     0
102
RTVSPost2010PropOp28
 70
     1
102
RTVSPost2010Prop29
280
     1
102
RTVSPost2010PropOp29
 70
     1
102
RTVSPost2010Prop30
280
     1
102
RTVSPost2010PropOp30
 70
     1
102
RTVSPost2010Prop31
280
     0
102
RTVSPost2010PropOp31
 70
     1
102
RTVSPost2010Prop32
280
     0
102
RTVSPost2010PropOp32
 70
     1
102
RTVSPost2010Prop33
280
     0
102
RTVSPost2010PropOp33
 70
     1
102
RTVSPost2010Prop34
280
     0
102
RTVSPost2010PropOp34
 70
     1
102
RTVSPost2010Prop35
280
     0
102
RTVSPost2010PropOp35
 70
     1
102
RTVSPost2010Prop36
280
     0
102
RTVSPost2010PropOp36
 70
     1
102
RTVSPost2010Prop37
 90
       50
102
RTVSPost2010PropOp37
 70
     1
102
RTVSPost2010Prop38
140
0.0
102
RTVSPost2010PropOp38
 70
     1
102
RTVSPost2010Prop39
140
1.0
102
RTVSPost2010PropOp39
 70
     1
102
RTVSPost2010Prop40
 90
        0
102
RTVSPost2010PropOp40
 70
     1
102
RTVSPost2010Prop41ColorIndex
 90
       18
102
RTVSPost2010Prop41ColorRGB
 90
        0
102
RTVSPost2010PropOp41
 70
     1
102
RTVSPost2010Prop42
 90
       50
102
RTVSPost2010PropOp42
 70
     1
102
RTVSPost2010Prop43
 90
        3
102
RTVSPost2010PropOp43
 70
     1
102
RTVSPost2010Prop44ColorIndex
 90
        5
102
RTVSPost2010Prop44ColorRGB
 90
      255
102
RTVSPost2010PropOp44
 70
     1
102
RTVSPost2010Prop45
280
     0
102
RTVSPost2010PropOp45
 70
     1
102
RTVSPost2010Prop46
 90
       50
102
RTVSPost2010PropOp46
 70
     1
102
RTVSPost2010Prop47
 90
       50
102
RTVSPost2010PropOp47
 70
     1
102
RTVSPost2010Prop48
 90
       50
102
RTVSPost2010PropOp48
 70
     1
102
RTVSPost2010Prop49
280
     0
102
RTVSPost2010PropOp49
 70
     1
102
RTVSPost2010Prop50
 90
       50
102
RTVSPost2010PropOp50
 70
     1
102
RTVSPost2010Prop51ColorIndex
 90
      256
102
RTVSPost2010Prop51ColorRGB
 90
-16777216
102
RTVSPost2010PropOp51
 70
     0
102
RTVSPost2010Prop52
140
1.0
102
RTVSPost2010PropOp52
 70
     0
102
RTVSPost2010Prop53
 90
        2
102
RTVSPost2010PropOp53
 70
     1
102
RTVSPost2010Prop54
  1
strokes_ogs.tif
102
RTVSPost2010PropOp54
 70
     1
102
RTVSPost2010Prop55
280
     0
102
RTVSPost2010PropOp55
 70
     1
102
RTVSPost2010Prop56
140
1.0
102
RTVSPost2010PropOp56
 70
     1
102
RTVSPost2010Prop57
140
1.0
102
RTVSPost2010PropOp57
 70
     1
  0
XRECORD
  5
2F4
102
{ACAD_REACTORS
330
2F3
102
}
330
2F3
100
AcDbXrecord
280
     1
102
RTVSPropertyOp0
 70
     1
102
RTVSPropertyOp1
 70
     1
102
RTVSPropertyOp2
 70
     1
102
RTVSPropertyOp3
 70
     1
102
RTVSPropertyOp4
 70
     1
102
RTVSPropertyOp5
 70
     1
102
RTVSPropertyOp6
 70
     1
102
RTVSPropertyOp7
 70
     1
102
RTVSPropertyOp8
 70
     1
102
RTVSPropertyOp9
 70
     1
102
RTVSPropertyOp10
 70
     1
102
RTVSPropertyOp11
 70
     1
102
RTVSPropertyOp12
 70
     1
102
RTVSPropertyOp13
 70
     1
102
RTVSPropertyOp14
 70
     1
102
RTVSPropertyOp15
 70
     1
102
RTVSPropertyOp16
 70
     1
102
RTVSPropertyOp17
 70
     1
102
RTVSPropertyOp18
 70
     1
102
RTVSPropertyOp19
 70
     1
102
RTVSPropertyOp20
 70
     1
102
RTVSPropertyOp21
 70
     1
102
RTVSPropertyOp22
 70
     1
102
RTVSPropertyOp23
 70
     1
102
RTVSPropertyOp24
 70
     1
102
RTVSPropertyOp25
 70
     1
102
RTVSPropertyOp26
 70
     1
102
RTVSPropertyOp27
 70
     1
102
RTVSPropertyOp28
 70
     1
102
RTVSPropertyOp29
 70
     1
102
RTVSPropertyOp30
 70
     1
102
RTVSPropertyOp31
 70
     1
102
RTVSPropertyOp32
 70
     1
102
RTVSPropertyOp33
 70
     1
102
RTVSPropertyOp34
 70
     1
102
RTVSPropertyOp35
 70
     1
102
RTVSPropertyOp36
 70
     1
102
RTVSPropertyOp37
 70
     1
102
RTVSPropertyOp38
 70
     1
102
RTVSPropertyOp39
 70
     1
102
RTVSPropertyOp40
 70
     1
102
RTVSPropertyOp41
 70
     1
102
RTVSPropertyOp42
 70
     1
102
RTVSPropertyOp43
 70
     1
102
RTVSPropertyOp44
 70
     1
102
RTVSPropertyOp45
 70
     1
102
RTVSPropertyOp46
 70
     1
102
RTVSPropertyOp47
 70
     1
102
RTVSPropertyOp48
 70
     1
102
RTVSPropertyOp49
 70
     1
102
RTVSPropertyOp50
 70
     1
102
RTVSPropertyOp51
 70
     0
102
RTVSPropertyOp52
 70
     0
102
RTVSPropertyOp53
 70
     1
102
RTVSPropertyOp54
 70
     1
102
RTVSPropertyOp55
 70
     1
102
RTVSPropertyOp56
 70
     1
102
RTVSPropertyOp57
 70
     1
102
RTVSPost2010Prop28
280
     0
102
RTVSPost2010PropOp28
 70
     1
102
RTVSPost2010Prop29
280
     1
102
RTVSPost2010PropOp29
 70
     1
102
RTVSPost2010Prop30
280
     1
102
RTVSPost2010PropOp30
 70
     1
102
RTVSPost2010Prop31
280
     0
102
RTVSPost2010PropOp31
 70
     1
102
RTVSPost2010Prop32
280
     0
102
RTVSPost2010PropOp32
 70
     1
102
RTVSPost2010Prop33
280
     0
102
RTVSPost2010PropOp33
 70
     1
102
RTVSPost2010Prop34
280
     0
102
RTVSPost2010PropOp34
 70
     1
102
RTVSPost2010Prop35
280
     0
102
RTVSPost2010PropOp35
 70
     1
102
RTVSPost2010Prop36
280
     0
102
RTVSPost2010PropOp36
 70
     1
102
RTVSPost2010Prop37
 90
       50
102
RTVSPost2010PropOp37
 70
     1
102
RTVSPost2010Prop38
140
0.0
102
RTVSPost2010PropOp38
 70
     1
102
RTVSPost2010Prop39
140
1.0
102
RTVSPost2010PropOp39
 70
     1
102
RTVSPost2010Prop40
 90
        0
102
RTVSPost2010PropOp40
 70
     1
102
RTVSPost2010Prop41ColorIndex
 90
       18
102
RTVSPost2010Prop41ColorRGB
 90
        0
102
RTVSPost2010PropOp41
 70
     1
102
RTVSPost2010Prop42
 90
       50
102
RTVSPost2010PropOp42
 70
     1
102
RTVSPost2010Prop43
 90
        3
102
RTVSPost2010PropOp43
 70
     1
102
RTVSPost2010Prop44ColorIndex
 90
        5
102
RTVSPost2010Prop44ColorRGB
 90
      255
102
RTVSPost2010PropOp44
 70
     1
102
RTVSPost2010Prop45
280
     0
102
RTVSPost2010PropOp45
 70
     1
102
RTVSPost2010Prop46
 90
       50
102
RTVSPost2010PropOp46
 70
     1
102
RTVSPost2010Prop47
 90
       50
102
RTVSPost2010PropOp47
 70
     1
102
RTVSPost2010Prop48
 90
       50
102
RTVSPost2010PropOp48
 70
     1
102
RTVSPost2010Prop49
280
     0
102
RTVSPost2010PropOp49
 70
     1
102
RTVSPost2010Prop50
 90
       50
102
RTVSPost2010PropOp50
 70
     1
102
RTVSPost2010Prop51ColorIndex
 90
      256
102
RTVSPost2010Prop51ColorRGB
 90
-16777216
102
RTVSPost2010PropOp51
 70
     0
102
RTVSPost2010Prop52
140
1.0
102
RTVSPost2010PropOp52
 70
     0
102
RTVSPost2010Prop53
 90
        2
102
RTVSPost2010PropOp53
 70
     1
102
RTVSPost2010Prop54
  1
strokes_ogs.tif
102
RTVSPost2010PropOp54
 70
     1
102
RTVSPost2010Prop55
280
     0
102
RTVSPost2010PropOp55
 70
     1
102
RTVSPost2010Prop56
140
1.0
102
RTVSPost2010PropOp56
 70
     1
102
RTVSPost2010Prop57
140
1.0
102
RTVSPost2010PropOp57
 70
     1
  0
ENDSEC
  0
EOF
