  0
SECTION
  2
HEADER
  9
$ACADVER
  1
AC1015
  9
$ACADMAINTVER
 70
     6
  9
$DWGCODEPAGE
  3
ANSI_1252
  9
$INSBASE
 10
0.0
 20
0.0
 30
0.0
  9
$EXTMIN
 10
-18652.11397606526
 20
3514.346267180343
 30
-26.37660357192999
  9
$EXTMAX
 10
-12710.11486033609
 20
7715.24552806537
 30
1054.678188856577
  9
$LIMMIN
 10
0.0
 20
0.0
  9
$LIMMAX
 10
12.0
 20
9.0
  9
$ORTHOMODE
 70
     1
  9
$REGENMODE
 70
     1
  9
$FILLMODE
 70
     1
  9
$QTEXTMODE
 70
     0
  9
$MIRRTEXT
 70
     0
  9
$LTSCALE
 40
1.0
  9
$ATTMODE
 70
     1
  9
$TEXTSIZE
 40
36.0
  9
$TRACEWID
 40
0.05
  9
$TEXTSTYLE
  7
STYLE2
  9
$CLAYER
  8
0
  9
$CELTYPE
  6
ByLayer
  9
$CECOLOR
 62
   256
  9
$CELTSCALE
 40
1.0
  9
$DISPSILH
 70
     0
  9
$DIMSCALE
 40
1.0
  9
$DIMASZ
 40
36.0
  9
$DIMEXO
 40
1.2
  9
$DIMDLI
 40
76.0
  9
$DIMRND
 40
0.0
  9
$DIMDLE
 40
0.0
  9
$DIMEXE
 40
36.0
  9
$DIMTP
 40
0.0
  9
$DIMTM
 40
0.0
  9
$DIMTXT
 40
18.0
  9
$DIMCEN
 40
0.0
  9
$DIMTSZ
 40
0.0
  9
$DIMTOL
 70
     0
  9
$DIMLIM
 70
     0
  9
$DIMTIH
 70
     0
  9
$DIMTOH
 70
     1
  9
$DIMSE1
 70
     0
  9
$DIMSE2
 70
     0
  9
$DIMTAD
 70
     1
  9
$DIMZIN
 70
     0
  9
$DIMBLK
  1

  9
$DIMASO
 70
     1
  9
$DIMSHO
 70
     1
  9
$DIMPOST
  1

  9
$DIMAPOST
  1

  9
$DIMALT
 70
     0
  9
$DIMALTD
 70
     2
  9
$DIMALTF
 40
25.4
  9
$DIMLFAC
 40
1.0
  9
$DIMTOFL
 70
     0
  9
$DIMTVP
 40
0.0
  9
$DIMTIX
 70
     0
  9
$DIMSOXD
 70
     0
  9
$DIMSAH
 70
     0
  9
$DIMBLK1
  1

  9
$DIMBLK2
  1

  9
$DIMSTYLE
  2
Standard
  9
$DIMCLRD
 70
     0
  9
$DIMCLRE
 70
     0
  9
$DIMCLRT
 70
     0
  9
$DIMTFAC
 40
1.0
  9
$DIMGAP
 40
15.0
  9
$DIMJUST
 70
     0
  9
$DIMSD1
 70
     0
  9
$DIMSD2
 70
     0
  9
$DIMTOLJ
 70
     1
  9
$DIMTZIN
 70
     0
  9
$DIMALTZ
 70
     0
  9
$DIMALTTZ
 70
     0
  9
$DIMUPT
 70
     0
  9
$DIMDEC
 70
     0
  9
$DIMTDEC
 70
     0
  9
$DIMALTU
 70
     2
  9
$DIMALTTD
 70
     2
  9
$DIMTXSTY
  7
STYLE2
  9
$DIMAUNIT
 70
     0
  9
$DIMADEC
 70
     0
  9
$DIMALTRND
 40
0.0
  9
$DIMAZIN
 70
     0
  9
$DIMDSEP
 70
    46
  9
$DIMATFIT
 70
     3
  9
$DIMFRAC
 70
     0
  9
$DIMLDRBLK
  1

  9
$DIMLUNIT
 70
     2
  9
$DIMLWD
 70
    -2
  9
$DIMLWE
 70
    -2
  9
$DIMTMOVE
 70
     0
  9
$LUNITS
 70
     2
  9
$LUPREC
 70
     4
  9
$SKETCHINC
 40
0.1
  9
$FILLETRAD
 40
0.0
  9
$AUNITS
 70
     0
  9
$AUPREC
 70
     0
  9
$MENU
  1
.
  9
$ELEVATION
 40
0.0
  9
$PELEVATION
 40
0.0
  9
$THICKNESS
 40
0.0
  9
$LIMCHECK
 70
     0
  9
$CHAMFERA
 40
0.0
  9
$CHAMFERB
 40
0.0
  9
$CHAMFERC
 40
0.0
  9
$CHAMFERD
 40
0.0
  9
$SKPOLY
 70
     0
  9
$TDCREATE
 40
2453523.535623044
  9
$TDUCREATE
 40
2453523.452289711
  9
$TDUPDATE
 40
2460427.596794121
  9
$TDUUPDATE
 40
2460427.513460787
  9
$TDINDWG
 40
0.4496191319
  9
$TDUSRTIMER
 40
0.4496191319
  9
$USRTIMER
 70
     1
  9
$ANGBASE
 50
0.0
  9
$ANGDIR
 70
     0
  9
$PDMODE
 70
     0
  9
$PDSIZE
 40
0.0
  9
$PLINEWID
 40
0.0
  9
$SPLFRAME
 70
     0
  9
$SPLINETYPE
 70
     6
  9
$SPLINESEGS
 70
     8
  9
$HANDSEED
  5
AD1
  9
$SURFTAB1
 70
     6
  9
$SURFTAB2
 70
     6
  9
$SURFTYPE
 70
     6
  9
$SURFU
 70
     6
  9
$SURFV
 70
     6
  9
$UCSBASE
  2

  9
$UCSNAME
  2

  9
$UCSORG
 10
0.0
 20
0.0
 30
0.0
  9
$UCSXDIR
 10
1.0
 20
0.0
 30
0.0
  9
$UCSYDIR
 10
0.0
 20
1.0
 30
0.0
  9
$UCSORTHOREF
  2

  9
$UCSORTHOVIEW
 70
     0
  9
$UCSORGTOP
 10
0.0
 20
0.0
 30
0.0
  9
$UCSORGBOTTOM
 10
0.0
 20
0.0
 30
0.0
  9
$UCSORGLEFT
 10
0.0
 20
0.0
 30
0.0
  9
$UCSORGRIGHT
 10
0.0
 20
0.0
 30
0.0
  9
$UCSORGFRONT
 10
0.0
 20
0.0
 30
0.0
  9
$UCSORGBACK
 10
0.0
 20
0.0
 30
0.0
  9
$PUCSBASE
  2

  9
$PUCSNAME
  2

  9
$PUCSORG
 10
0.0
 20
0.0
 30
0.0
  9
$PUCSXDIR
 10
1.0
 20
0.0
 30
0.0
  9
$PUCSYDIR
 10
0.0
 20
1.0
 30
0.0
  9
$PUCSORTHOREF
  2

  9
$PUCSORTHOVIEW
 70
     0
  9
$PUCSORGTOP
 10
0.0
 20
0.0
 30
0.0
  9
$PUCSORGBOTTOM
 10
0.0
 20
0.0
 30
0.0
  9
$PUCSORGLEFT
 10
0.0
 20
0.0
 30
0.0
  9
$PUCSORGRIGHT
 10
0.0
 20
0.0
 30
0.0
  9
$PUCSORGFRONT
 10
0.0
 20
0.0
 30
0.0
  9
$PUCSORGBACK
 10
0.0
 20
0.0
 30
0.0
  9
$USERI1
 70
     0
  9
$USERI2
 70
     0
  9
$USERI3
 70
     0
  9
$USERI4
 70
     0
  9
$USERI5
 70
     0
  9
$USERR1
 40
0.0
  9
$USERR2
 40
0.0
  9
$USERR3
 40
0.0
  9
$USERR4
 40
0.0
  9
$USERR5
 40
0.0
  9
$WORLDVIEW
 70
     1
  9
$SHADEDGE
 70
     3
  9
$SHADEDIF
 70
    70
  9
$TILEMODE
 70
     1
  9
$MAXACTVP
 70
    64
  9
$PINSBASE
 10
0.0
 20
0.0
 30
0.0
  9
$PLIMCHECK
 70
     0
  9
$PEXTMIN
 10
1.049999952316284
 20
0.7999999523162842
 30
0.0
  9
$PEXTMAX
 10
9.449999570846556
 20
7.199999570846557
 30
0.0
  9
$PLIMMIN
 10
-0.2500002402958907
 20
-0.2499999962453767
  9
$PLIMMAX
 10
10.74999951940822
 20
8.249999763458732
  9
$UNITMODE
 70
     0
  9
$VISRETAIN
 70
     1
  9
$PLINEGEN
 70
     0
  9
$PSLTSCALE
 70
     1
  9
$TREEDEPTH
 70
  3020
  9
$CMLSTYLE
  2
Standard
  9
$CMLJUST
 70
     0
  9
$CMLSCALE
 40
1.0
  9
$PROXYGRAPHICS
 70
     1
  9
$MEASUREMENT
 70
     0
  9
$CELWEIGHT
370
    -1
  9
$ENDCAPS
280
     0
  9
$JOINSTYLE
280
     0
  9
$LWDISPLAY
290
     0
  9
$INSUNITS
 70
     1
  9
$HYPERLINKBASE
  1

  9
$STYLESHEET
  1

  9
$XEDIT
290
     1
  9
$CEPSNTYPE
380
     0
  9
$PSTYLEMODE
290
     1
  9
$FINGERPRINTGUID
  2
{FDEAD576-A652-11D2-9A35-0060089B3A3F}
  9
$VERSIONGUID
  2
{09F1CB66-8D39-41B8-8572-4BF5140FA071}
  9
$EXTNAMES
290
     1
  9
$PSVPSCALE
 40
0.0
  9
$OLESTARTUP
290
     0
  0
ENDSEC
  0
SECTION
  2
CLASSES
  0
CLASS
  1
ACDBDICTIONARYWDFLT
  2
AcDbDictionaryWithDefault
  3
ObjectDBX Classes
 90
        0
280
     0
281
     0
  0
CLASS
  1
DICTIONARYVAR
  2
AcDbDictionaryVar
  3
ObjectDBX Classes
 90
        0
280
     0
281
     0
  0
CLASS
  1
SORTENTSTABLE
  2
AcDbSortentsTable
  3
ObjectDBX Classes
 90
        0
280
     0
281
     0
  0
CLASS
  1
DIMASSOC
  2
AcDbDimAssoc
  3
"AcDbDimAssoc|Product Desc:     AcDim ARX App For Dimension|Company:          Autodesk, Inc.|WEB Address:      www.autodesk.com"
 90
        0
280
     0
281
     0
  0
CLASS
  1
VISUALSTYLE
  2
AcDbVisualStyle
  3
ObjectDBX Classes
 90
     4095
280
     0
281
     0
  0
CLASS
  1
SCALE
  2
AcDbScale
  3
ObjectDBX Classes
 90
     1153
280
     0
281
     0
  0
CLASS
  1
MATERIAL
  2
AcDbMaterial
  3
ObjectDBX Classes
 90
     1153
280
     0
281
     0
  0
CLASS
  1
MLEADERSTYLE
  2
AcDbMLeaderStyle
  3
ACDB_MLEADERSTYLE_CLASS
 90
     4095
280
     0
281
     0
  0
CLASS
  1
TABLESTYLE
  2
AcDbTableStyle
  3
ObjectDBX Classes
 90
     4095
280
     0
281
     0
  0
CLASS
  1
ACDBPLACEHOLDER
  2
AcDbPlaceHolder
  3
ObjectDBX Classes
 90
        0
280
     0
281
     0
  0
CLASS
  1
LAYOUT
  2
AcDbLayout
  3
ObjectDBX Classes
 90
        0
280
     0
281
     0
  0
ENDSEC
  0
SECTION
  2
TABLES
  0
TABLE
  2
VPORT
  5
8
102
{ACAD_XDICTIONARY
360
A95
102
}
330
0
100
AcDbSymbolTable
 70
     1
  0
VPORT
  5
A52
330
8
100
AcDbSymbolTableRecord
100
AcDbViewportTableRecord
  2
*Active
 70
     0
 10
0.0
 20
0.0
 11
1.0
 21
1.0
 12
-15420.42036008826
 22
5685.868814258937
 13
0.0
 23
0.0
 14
0.5
 24
0.5
 15
0.5
 25
0.5
 16
0.0
 26
0.0
 36
1.0
 17
0.0
 27
0.0
 37
0.0
 40
4654.715362424717
 41
1.590336134453781
 42
50.0
 43
0.0
 44
0.0
 50
0.0
 51
0.0
 71
     0
 72
  1000
 73
     1
 74
     3
 75
     0
 76
     0
 77
     0
 78
     0
281
     0
 65
     1
110
0.0
120
0.0
130
0.0
111
1.0
121
0.0
131
0.0
112
0.0
122
1.0
132
0.0
 79
     0
146
0.0
  0
ENDTAB
  0
TABLE
  2
LTYPE
  5
5
330
0
100
AcDbSymbolTable
 70
     2
  0
LTYPE
  5
14
330
5
100
AcDbSymbolTableRecord
100
AcDbLinetypeTableRecord
  2
ByBlock
 70
     0
  3

 72
    65
 73
     0
 40
0.0
  0
LTYPE
  5
15
330
5
100
AcDbSymbolTableRecord
100
AcDbLinetypeTableRecord
  2
ByLayer
 70
     0
  3

 72
    65
 73
     0
 40
0.0
  0
LTYPE
  5
16
330
5
100
AcDbSymbolTableRecord
100
AcDbLinetypeTableRecord
  2
Continuous
 70
     0
  3
Solid line
 72
    65
 73
     0
 40
0.0
  0
LTYPE
  5
4D5
330
5
100
AcDbSymbolTableRecord
100
AcDbLinetypeTableRecord
  2
ACAD_ISO04W100
 70
     0
  3
 ISO trazo largo, punto ____ . ____ . ____ . __
 72
    65
 73
     4
 40
30.0
 49
24.0
 74
     0
 49
-3.0
 74
     0
 49
0.0
 74
     0
 49
-3.0
 74
     0
  0
ENDTAB
  0
TABLE
  2
LAYER
  5
2
330
0
100
AcDbSymbolTable
 70
     5
  0
LAYER
  5
10
330
2
100
AcDbSymbolTableRecord
100
AcDbLayerTableRecord
  2
0
 70
     0
 62
     7
  6
Continuous
370
    -3
390
F
  0
LAYER
  5
FE
330
2
100
AcDbSymbolTableRecord
100
AcDbLayerTableRecord
  2
D
 70
     0
 62
     7
  6
Continuous
370
    -3
390
F
  0
LAYER
  5
315
330
2
100
AcDbSymbolTableRecord
100
AcDbLayerTableRecord
  2
Finestra
 70
     0
 62
     1
  6
Continuous
290
     0
370
    -3
390
F
  0
LAYER
  5
33A
330
2
100
AcDbSymbolTableRecord
100
AcDbLayerTableRecord
  2
Cotas
 70
     0
 62
     7
  6
Continuous
370
    -3
390
F
  0
LAYER
  5
976
330
2
100
AcDbSymbolTableRecord
100
AcDbLayerTableRecord
  2
Defpoints
 70
     0
 62
     7
  6
Continuous
290
     0
370
    -3
390
F
  0
ENDTAB
  0
TABLE
  2
STYLE
  5
3
330
0
100
AcDbSymbolTable
 70
    10
  0
STYLE
  5
11
330
3
100
AcDbSymbolTableRecord
100
AcDbTextStyleTableRecord
  2
Standard
 70
     0
 40
0.0
 41
1.0
 50
0.0
 71
     0
 42
0.2
  3
txt
  4

  0
STYLE
  5
101
330
3
100
AcDbSymbolTableRecord
100
AcDbTextStyleTableRecord
  2
STYLE2
 70
     0
 40
36.0
 41
1.0
 50
0.0
 71
     0
 42
36.0
  3
ex0541.TTF
  4

1001
ACAD
1000
VirtueLight
1071
        2
  0
STYLE
  5
102
330
3
100
AcDbSymbolTableRecord
100
AcDbTextStyleTableRecord
  2
TIPO LIGHT
 70
     0
 40
0.0
 41
1.0
 50
0.0
 71
     0
 42
0.2573368435078011
  3
ex0541.TTF
  4

1001
ACAD
1000
VirtueLight
1071
        2
  0
STYLE
  5
103
330
3
100
AcDbSymbolTableRecord
100
AcDbTextStyleTableRecord
  2
TIPO NEGRETA
 70
     0
 40
0.0
 41
1.0
 50
0.0
 71
     0
 42
0.556994038049197
  3
ex0543.TTF
  4

1001
ACAD
1000
Virtue
1071
        2
  0
STYLE
  5
8A0
330
3
100
AcDbSymbolTableRecord
100
AcDbTextStyleTableRecord
  2
WMF-Virtue0
 70
     0
 40
0.0
 41
1.0
 50
0.0
 71
     0
 42
2.5
  3
ex0543.TTF
  4

1001
ACAD
1000
Virtue
1071
        0
  0
STYLE
  5
8A1
330
3
100
AcDbSymbolTableRecord
100
AcDbTextStyleTableRecord
  2
WMF-VirtueLight0
 70
     0
 40
0.0
 41
1.0
 50
0.0
 71
     0
 42
2.5
  3
ex0541.TTF
  4

1001
ACAD
1000
VirtueLight
1071
        0
  0
STYLE
  5
8A2
330
3
100
AcDbSymbolTableRecord
100
AcDbTextStyleTableRecord
  2
WMF-Arial Narrow0
 70
     0
 40
0.0
 41
1.0
 50
0.0
 71
     0
 42
2.5
  3
ARIALN.TTF
  4

1001
ACAD
1000
Arial Narrow
1071
        0
  0
STYLE
  5
99E
330
3
100
AcDbSymbolTableRecord
100
AcDbTextStyleTableRecord
  2
SIMPLEX
 70
     0
 40
2.0
 41
1.0
 50
15.0
 71
     0
 42
2.0
  3
SIMPLEX.SHX
  4

  0
STYLE
  5
A85
330
3
100
AcDbSymbolTableRecord
100
AcDbTextStyleTableRecord
  2
MtXpl_Arial
 70
     0
 40
0.2
 41
1.0
 50
0.0
 71
     0
 42
36.0
  3
arial.ttf
  4

1001
ACAD
1000
Arial
1071
        2
  0
STYLE
  5
A86
330
3
100
AcDbSymbolTableRecord
100
AcDbTextStyleTableRecord
  2
MtXpl_Arial1
 70
     0
 40
0.2
 41
1.0
 50
0.0
 71
     0
 42
36.0
  3

  4

1001
ACAD
1000
Arial
1071
        2
  0
ENDTAB
  0
TABLE
  2
VIEW
  5
6
330
0
100
AcDbSymbolTable
 70
     0
  0
ENDTAB
  0
TABLE
  2
UCS
  5
7
330
0
100
AcDbSymbolTable
 70
     0
  0
ENDTAB
  0
TABLE
  2
APPID
  5
9
330
0
100
AcDbSymbolTable
 70
     3
  0
APPID
  5
12
330
9
100
AcDbSymbolTableRecord
100
AcDbRegAppTableRecord
  2
ACAD
 70
     0
  0
APPID
  5
71D
330
9
100
AcDbSymbolTableRecord
100
AcDbRegAppTableRecord
  2
DCO15
 70
     0
  0
APPID
  5
ACE
330
9
100
AcDbSymbolTableRecord
100
AcDbRegAppTableRecord
  2
ACAD_MLEADERVER
 70
     0
  0
ENDTAB
  0
TABLE
  2
DIMSTYLE
  5
A
330
0
100
AcDbSymbolTable
 70
     2
100
AcDbDimStyleTable
  0
DIMSTYLE
105
27
330
A
100
AcDbSymbolTableRecord
100
AcDbDimStyleTableRecord
  2
Standard
 70
     0
 41
36.0
 42
1.2
 43
76.0
 44
36.0
 73
     0
 77
     1
140
18.0
141
0.0
147
15.0
178
     0
271
     0
272
     0
340
101
  0
DIMSTYLE
105
8A3
330
A
100
AcDbSymbolTableRecord
100
AcDbDimStyleTableRecord
  2
ISO-25
 70
     0
 41
2.5
 42
0.625
 43
3.75
 44
1.25
 73
     0
 74
     0
 77
     1
 78
     8
140
2.5
141
2.5
143
0.03937007874016
147
0.625
171
     3
172
     1
178
     0
271
     2
272
     2
274
     3
278
    44
283
     0
284
     8
340
11
  0
ENDTAB
  0
TABLE
  2
BLOCK_RECORD
  5
1
330
0
100
AcDbSymbolTable
 70
     2
  0
BLOCK_RECORD
  5
1F
330
1
100
AcDbSymbolTableRecord
100
AcDbBlockTableRecord
  2
*Model_Space
340
22
  0
BLOCK_RECORD
  5
845
330
1
100
AcDbSymbolTableRecord
100
AcDbBlockTableRecord
  2
*Paper_Space
340
846
  0
BLOCK_RECORD
  5
A2
102
{ACAD_XDICTIONARY
360
95D
102
}
330
1
100
AcDbSymbolTableRecord
100
AcDbBlockTableRecord
  2
bloque nuevo
340
0
102
{BLKREFS
331
737
102
}
  0
BLOCK_RECORD
  5
4D6
330
1
100
AcDbSymbolTableRecord
100
AcDbBlockTableRecord
  2
PLATA
340
0
  0
ENDTAB
  0
ENDSEC
  0
SECTION
  2
BLOCKS
  0
BLOCK
  5
20
330
1F
100
AcDbEntity
  8
0
100
AcDbBlockBegin
  2
*Model_Space
 70
     0
 10
0.0
 20
0.0
 30
0.0
  3
*Model_Space
  1

  0
ENDBLK
  5
21
330
1F
100
AcDbEntity
  8
0
100
AcDbBlockEnd
  0
BLOCK
  5
847
330
845
100
AcDbEntity
 67
     1
  8
0
100
AcDbBlockBegin
  2
*Paper_Space
 70
     0
 10
0.0
 20
0.0
 30
0.0
  3
*Paper_Space
  1

  0
ENDBLK
  5
848
330
845
100
AcDbEntity
 67
     1
  8
0
100
AcDbBlockEnd
  0
BLOCK
  5
A3
330
A2
100
AcDbEntity
  8
0
 48
0.5
100
AcDbBlockBegin
  2
bloque nuevo
 70
     2
 10
0.0
 20
0.0
 30
0.0
  3
bloque nuevo
  1

  0
LINE
  5
A4
330
A2
100
AcDbEntity
  8
D
 62
     7
100
AcDbLine
 10
188.3804946619575
 20
264.9304611000445
 30
0.0
 11
91.00585232979938
 21
264.9304611000446
 31
0.0
  0
LINE
  5
A5
330
A2
100
AcDbEntity
  8
D
 62
     7
100
AcDbLine
 10
188.3804946619575
 20
244.7500631574239
 30
0.0
 11
91.00585232979938
 21
244.7500631574241
 31
0.0
  0
LINE
  5
A6
330
A2
100
AcDbEntity
  8
D
 62
     7
100
AcDbLine
 10
91.00585232979938
 20
264.9304611000445
 30
0.0
 11
91.00585232979938
 21
244.7500631574239
 31
0.0
  0
LINE
  5
A7
330
A2
100
AcDbEntity
  8
D
 62
     7
100
AcDbLine
 10
188.3804946619575
 20
264.9304611000439
 30
0.0
 11
188.3804946619575
 21
244.7500631574236
 31
0.0
  0
LINE
  5
A8
330
A2
100
AcDbEntity
  8
D
 62
     7
100
AcDbLine
 10
311.4480188796255
 20
254.8402621287333
 30
0.0
 11
341.7670998123352
 21
254.8402621287333
 31
0.0
  0
LINE
  5
A9
330
A2
100
AcDbEntity
  8
D
 62
     7
100
AcDbLine
 10
306.4029193939726
 20
264.9304611000434
 30
0.0
 11
306.4029193939726
 21
244.7500631574231
 31
0.0
  0
MTEXT
  5
AA
330
A2
100
AcDbEntity
  8
D
 62
     7
 48
0.5
100
AcDbMText
 10
314.8254791607956
 20
251.3542254304262
 30
0.0
 40
3.027059691393053
 41
50.18864968329679
 71
     1
 72
     5
  1
{\fVirtue|b0|i0|c0|p2;ESCALA:}
  7
STYLE2
 73
     1
 44
1.0
  0
MTEXT
  5
AB
330
A2
100
AcDbEntity
  8
D
 62
     7
 48
0.5
100
AcDbMText
 10
314.7890825329373
 20
261.5491428389755
 30
0.0
 40
3.027059691393053
 41
50.18864968329679
 71
     1
 72
     5
  1
{\fVirtue|b0|i0|c0|p2;COTAS: }
  7
STYLE2
 73
     1
 44
1.0
  0
LINE
  5
AC
330
A2
100
AcDbEntity
  8
D
 62
     7
100
AcDbLine
 10
306.4029193939726
 20
244.7500631574237
 30
0.0
 11
192.3369531055087
 21
244.7500631574239
 31
0.0
  0
LINE
  5
AD
330
A2
100
AcDbEntity
  8
D
 62
     7
100
AcDbLine
 10
306.4029193939726
 20
264.9304611000445
 30
0.0
 11
192.3369531055087
 21
264.9304611000445
 31
0.0
  0
LINE
  5
AE
330
A2
100
AcDbEntity
  8
D
 62
     7
100
AcDbLine
 10
311.4480188796255
 20
264.9304611000434
 30
0.0
 11
311.4480188796255
 21
244.7500631574231
 31
0.0
  0
TEXT
  5
AF
330
A2
100
AcDbEntity
  8
D
 62
     7
100
AcDbText
 10
92.09034940897254
 20
28.20072276486653
 30
40.34248567271295
 40
2.396422255686166
  1
F.D.B. Comprometida en su línea de mejora continua de sus productos, se reserva el derecho de modificar las medidas, materiales y/o acabados sin previo aviso.
  7
TIPO LIGHT
100
AcDbText
  0
LINE
  5
B0
330
A2
100
AcDbEntity
  8
D
 62
     7
100
AcDbLine
 10
379.3771480302021
 20
244.7500631574237
 30
0.0
 11
379.3771480302021
 21
264.9304611000445
 31
0.0
  0
LINE
  5
B1
330
A2
100
AcDbEntity
  8
D
 62
     7
100
AcDbLine
 10
346.1472376440888
 20
264.9304611000434
 30
0.0
 11
346.1472376440888
 21
244.7500631574231
 31
0.0
  0
LINE
  5
B2
330
A2
100
AcDbEntity
  8
D
 62
     7
100
AcDbLine
 10
341.7670998123352
 20
264.9304611000434
 30
0.0
 11
341.7670998123352
 21
244.7500631574231
 31
0.0
  0
MTEXT
  5
B3
330
A2
100
AcDbEntity
  8
D
 62
     7
 48
0.5
100
AcDbMText
 10
348.0745291206922
 20
249.4262687906479
 30
0.0
 40
3.027059691393053
 41
22.28612156594307
 71
     1
 72
     5
  1
{\fVirtue|b0|i0|c0|p2;REFERENCIA}
  7
STYLE2
 73
     1
 44
1.0
  0
LINE
  5
B4
330
A2
100
AcDbEntity
  8
D
 62
     7
100
AcDbLine
 10
379.3771480302021
 20
264.9304611000445
 30
0.0
 11
346.1472376440888
 21
264.9304611000445
 31
0.0
  0
LINE
  5
B5
330
A2
100
AcDbEntity
  8
D
 62
     7
100
AcDbLine
 10
379.3771480302021
 20
244.7500631574237
 30
0.0
 11
346.1472376440888
 21
244.7500631574239
 31
0.0
  0
MTEXT
  5
B6
330
A2
100
AcDbEntity
  8
D
 62
     7
 48
0.5
100
AcDbMText
 10
195.7368842682008
 20
261.5276713755633
 30
0.0
 40
3.027059691393053
 41
50.18864968329679
 71
     1
 72
     5
  1
{\fVirtue|b0|i0|c0|p2;AUTOR:}
  7
STYLE2
 73
     1
 44
1.0
  0
LINE
  5
B7
330
A2
100
AcDbEntity
  8
D
 62
     7
100
AcDbLine
 10
192.3369531055087
 20
264.9304611000439
 30
0.0
 11
192.3369531055087
 21
244.7500631574236
 31
0.0
  0
MTEXT
  5
B8
330
A2
100
AcDbEntity
  8
D
 62
     7
 48
0.5
100
AcDbMText
 10
63.74432626223188
 20
246.8475772387921
 30
0.0
 40
2.774804717110297
 41
55.96781114411469
 71
     5
 72
     5
  1
{\fArial|b0|i0|c0|p34;FUNDICIÓ DÚCTIL BENITO}\P{\fVirtueLight|b0|i0|c0|p2;Tel. 93 852 10 00}
  7
STYLE2
 73
     1
 44
1.0
  0
LINE
  5
B9
330
A2
100
AcDbEntity
  8
D
 62
     7
100
AcDbLine
 10
192.3369531055087
 20
254.8402621287338
 30
0.0
 11
306.4029193939726
 21
254.8402621287333
 31
0.0
  0
LINE
  5
BA
330
A2
100
AcDbEntity
  8
D
 62
     7
100
AcDbLine
 10
341.7670998123352
 20
264.9304611000445
 30
0.0
 11
311.4480188796255
 21
264.9304611000445
 31
0.0
  0
LINE
  5
BB
330
A2
100
AcDbEntity
  8
D
 62
     7
100
AcDbLine
 10
341.7670998123352
 20
244.7500631574239
 30
0.0
 11
311.4480188796255
 21
244.7500631574239
 31
0.0
  0
LINE
  5
BC
330
A2
100
AcDbEntity
  8
D
 62
     7
100
AcDbLine
 10
383.1609726444445
 20
239.5905076282897
 30
0.0
 11
36.31038300566343
 21
239.5905076282899
 31
0.0
  0
MTEXT
  5
BD
330
A2
100
AcDbEntity
  8
D
 62
     7
 48
0.5
100
AcDbMText
 10
195.6777669311055
 20
251.42207907736
 30
0.0
 40
3.027059691393053
 41
50.18864968329679
 71
     1
 72
     5
  1
{\fVirtue|b0|i0|c0|p2;PRODUCTOR:}
  7
STYLE2
 73
     1
 44
1.0
  0
LWPOLYLINE
  5
BE
330
A2
100
AcDbEntity
  8
D
 62
     7
100
AcDbPolyline
 90
        4
 70
     1
 43
0.0
 10
383.1609726444445
 20
35.37843450273775
 10
383.1609726444445
 20
268.7142857142856
 10
36.31038300566343
 20
268.7142857142857
 10
36.31038300566343
 20
35.37843450273792
  0
LINE
  5
BF
330
A2
100
AcDbEntity
  8
D
 48
0.5
100
AcDbLine
 39
74.57626252339595
 10
0.0
 20
0.0
 30
0.0
 11
0.0
 21
297.0
 31
0.0
  0
LINE
  5
C0
330
A2
100
AcDbEntity
  8
D
 48
0.5
100
AcDbLine
 39
74.57626252339595
 10
420.042857142857
 20
0.0
 30
0.0
 11
0.0
 21
0.0
 31
0.0
  0
LINE
  5
C1
330
A2
100
AcDbEntity
  8
D
 48
0.5
100
AcDbLine
 39
74.57626252339595
 10
420.042857142857
 20
297.0
 30
0.0
 11
420.042857142857
 21
0.0
 31
0.0
  0
LINE
  5
C2
330
A2
100
AcDbEntity
  8
D
 48
0.5
100
AcDbLine
 39
74.57626252339595
 10
0.0
 20
297.0
 30
0.0
 11
420.042857142857
 21
297.0
 31
0.0
  0
ATTDEF
  5
C8
330
A2
100
AcDbEntity
  8
D
 62
     7
 48
0.5
100
AcDbText
 10
232.2502933364221
 20
258.4039998512293
 30
0.0
 40
3.019225803448697
  1

  7
TIPO LIGHT
100
AcDbAttributeDefinition
  3
AUTOR DE LA PIEZA
  2
AUTOR
 70
     4
  0
ATTDEF
  5
C9
330
A2
100
AcDbEntity
  8
D
 62
     7
 48
0.5
100
AcDbText
 10
347.7123597859559
 20
254.3091548341299
 30
0.0
 40
6.504838738135799
  1

  7
TIPO NEGRETA
100
AcDbAttributeDefinition
  3
REFERENCIA
  2
REF
 70
     4
  0
ATTDEF
  5
CA
330
A2
100
AcDbEntity
  8
D
 62
     7
 48
0.5
100
AcDbText
 10
332.3345095511504
 20
248.1703521974622
 30
0.0
 40
3.005300872271244
  1

  7
TIPO LIGHT
100
AcDbAttributeDefinition
  3
ESCALA
  2
ESC
 70
     4
  0
ATTDEF
  5
CB
330
A2
100
AcDbEntity
  8
D
 62
     7
 48
0.5
100
AcDbText
 10
231.3670008846707
 20
248.2693957219609
 30
0.0
 40
3.026417082459735
  1

  7
TIPO LIGHT
100
AcDbAttributeDefinition
  3
PRODUCTOR
  2
PRODUCTOR
 70
     4
  0
ATTDEF
  5
CC
330
A2
100
AcDbEntity
  8
D
 62
     7
 48
0.5
100
AcDbText
 10
330.9378735386331
 20
258.4744743855013
 30
0.0
 40
2.209687177964546
  1

  7
TIPO LIGHT
100
AcDbAttributeDefinition
  3
UNIDADES
  2
COTAS
 70
     4
  0
ATTDEF
  5
CD
330
A2
100
AcDbEntity
  8
D
 62
     7
 48
0.5
100
AcDbText
 10
92.65254134971838
 20
255.6203984294273
 30
0.0
 40
7.151988473495049
  1

  7
TIPO NEGRETA
100
AcDbAttributeDefinition
  3
MODELO
  2
NOMBRE_PIEZA
 70
     4
  0
ATTDEF
  5
CE
330
A2
100
AcDbEntity
  8
D
 62
     7
 48
0.5
100
AcDbText
 10
92.65254134971838
 20
246.0708537814765
 30
0.0
 40
5.657142857142856
  1

  7
TIPO NEGRETA
100
AcDbAttributeDefinition
  3
VISTA
  2
Planta
 70
     4
  0
TEXT
  5
92E
330
A2
100
AcDbEntity
  8
0
 62
     7
370
     0
100
AcDbText
 10
72.67247521481045
 20
259.4327261255446
 30
0.0
 40
1.180194779030914
  1
m
  7
WMF-Arial Narrow0
100
AcDbText
  0
TEXT
  5
92F
330
A2
100
AcDbEntity
  8
0
 62
     7
370
     0
100
AcDbText
 10
71.85020836056856
 20
259.4327261255446
 30
0.0
 40
1.180194779030914
  1
o
  7
WMF-Arial Narrow0
100
AcDbText
  0
TEXT
  5
930
330
A2
100
AcDbEntity
  8
0
 62
     7
370
     0
100
AcDbText
 10
71.10049446405355
 20
259.4327261255446
 30
0.0
 40
1.180194779030914
  1
c
  7
WMF-Arial Narrow0
100
AcDbText
  0
TEXT
  5
931
330
A2
100
AcDbEntity
  8
0
 62
     7
370
     0
100
AcDbText
 10
70.495886482993
 20
259.4327261255446
 30
0.0
 40
1.296279511394611
  1
.
  7
WMF-VirtueLight0
100
AcDbText
  0
TEXT
  5
932
330
A2
100
AcDbEntity
  8
0
 62
     7
370
     0
100
AcDbText
 10
67.52121521617369
 20
259.3359888485749
 30
0.0
 40
2.766686121334766
  1
O
  7
WMF-Virtue0
100
AcDbText
  0
TEXT
  5
933
330
A2
100
AcDbEntity
  8
0
 62
     7
370
     0
100
AcDbText
 10
64.52235963011094
 20
259.3359888485749
 30
0.0
 40
2.766686121334766
  1
T
  7
WMF-Virtue0
100
AcDbText
  0
TEXT
  5
934
330
A2
100
AcDbEntity
  8
0
 62
     7
370
     0
100
AcDbText
 10
62.56342977147187
 20
259.3359888485749
 30
0.0
 40
2.766686121334766
  1
I
  7
WMF-Virtue0
100
AcDbText
  0
TEXT
  5
935
330
A2
100
AcDbEntity
  8
0
 62
     7
370
     0
100
AcDbText
 10
58.95996620435153
 20
259.3359888485749
 30
0.0
 40
2.766686121334766
  1
N
  7
WMF-Virtue0
100
AcDbText
  0
TEXT
  5
936
330
A2
100
AcDbEntity
  8
0
 62
     7
370
     0
100
AcDbText
 10
55.96111061828879
 20
259.3359888485749
 30
0.0
 40
2.766686121334766
  1
E
  7
WMF-Virtue0
100
AcDbText
  0
TEXT
  5
937
330
A2
100
AcDbEntity
  8
0
 62
     7
370
     0
100
AcDbText
 10
52.7445961590447
 20
259.3359888485749
 30
0.0
 40
2.766686121334766
  1
B
  7
WMF-Virtue0
100
AcDbText
  0
POLYLINE
  5
938
330
A2
100
AcDbEntity
  8
0
 62
     7
370
     0
100
AcDb2dPolyline
 66
     1
 10
0.0
 20
0.0
 30
0.0
  0
VERTEX
  5
939
330
938
100
AcDbEntity
  8
0
 62
     7
370
     0
100
AcDbVertex
100
AcDb2dVertex
 10
52.79296479752838
 20
255.6357880044817
 30
0.0
  0
VERTEX
  5
93A
330
938
100
AcDbEntity
  8
0
 62
     7
370
     0
100
AcDbVertex
100
AcDb2dVertex
 10
52.79296479752838
 20
256.7482666896339
 30
0.0
  0
VERTEX
  5
93B
330
938
100
AcDbEntity
  8
0
 62
     7
370
     0
100
AcDbVertex
100
AcDb2dVertex
 10
55.96111061828879
 20
257.5221649053922
 30
0.0
  0
VERTEX
  5
93C
330
938
100
AcDbEntity
  8
0
 62
     7
370
     0
100
AcDbVertex
100
AcDb2dVertex
 10
55.62253014889347
 20
256.8933726050882
 30
0.0
  0
VERTEX
  5
93D
330
938
100
AcDbEntity
  8
0
 62
     7
370
     0
100
AcDbVertex
100
AcDb2dVertex
 10
58.47627981950177
 20
257.5221649053922
 30
0.0
  0
VERTEX
  5
93E
330
938
100
AcDbEntity
  8
0
 62
     7
370
     0
100
AcDbVertex
100
AcDb2dVertex
 10
58.13769935010646
 20
256.8933726050882
 30
0.0
  0
VERTEX
  5
93F
330
938
100
AcDbEntity
  8
0
 62
     7
370
     0
100
AcDbVertex
100
AcDb2dVertex
 10
61.01563333995819
 20
257.5221649053922
 30
0.0
  0
VERTEX
  5
940
330
938
100
AcDbEntity
  8
0
 62
     7
370
     0
100
AcDbVertex
100
AcDb2dVertex
 10
60.70123718980631
 20
256.8933726050882
 30
0.0
  0
VERTEX
  5
941
330
938
100
AcDbEntity
  8
0
 62
     7
370
     0
100
AcDbVertex
100
AcDb2dVertex
 10
63.60335549889828
 20
257.5221649053922
 30
0.0
  0
VERTEX
  5
942
330
938
100
AcDbEntity
  8
0
 62
     7
370
     0
100
AcDbVertex
100
AcDb2dVertex
 10
63.26477502950297
 20
256.8933726050882
 30
0.0
  0
VERTEX
  5
943
330
938
100
AcDbEntity
  8
0
 62
     7
370
     0
100
AcDbVertex
100
AcDb2dVertex
 10
66.1427090193547
 20
257.5221649053922
 30
0.0
  0
VERTEX
  5
944
330
938
100
AcDbEntity
  8
0
 62
     7
370
     0
100
AcDbVertex
100
AcDb2dVertex
 10
65.82831286920282
 20
256.8933726050882
 30
0.0
  0
VERTEX
  5
945
330
938
100
AcDbEntity
  8
0
 62
     7
370
     0
100
AcDbVertex
100
AcDb2dVertex
 10
68.7304311782948
 20
257.5221649053922
 30
0.0
  0
VERTEX
  5
946
330
938
100
AcDbEntity
  8
0
 62
     7
370
     0
100
AcDbVertex
100
AcDb2dVertex
 10
68.39185070889948
 20
256.8933726050882
 30
0.0
  0
VERTEX
  5
947
330
938
100
AcDbEntity
  8
0
 62
     7
370
     0
100
AcDbVertex
100
AcDb2dVertex
 10
71.29396901799169
 20
257.5221649053922
 30
0.0
  0
VERTEX
  5
948
330
938
100
AcDbEntity
  8
0
 62
     7
370
     0
100
AcDbVertex
100
AcDb2dVertex
 10
70.97957286784276
 20
256.8933726050882
 30
0.0
  0
VERTEX
  5
949
330
938
100
AcDbEntity
  8
0
 62
     7
370
     0
100
AcDbVertex
100
AcDb2dVertex
 10
73.85750685769153
 20
257.5221649053922
 30
0.0
  0
VERTEX
  5
94A
330
938
100
AcDbEntity
  8
0
 62
     7
370
     0
100
AcDbVertex
100
AcDb2dVertex
 10
72.91431840723544
 20
255.6357880044817
 30
0.0
  0
VERTEX
  5
94B
330
938
100
AcDbEntity
  8
0
 62
     7
370
     0
100
AcDbVertex
100
AcDb2dVertex
 10
62.8536416023835
 20
255.6357880044817
 30
0.0
  0
VERTEX
  5
94C
330
938
100
AcDbEntity
  8
0
 62
     7
370
     0
100
AcDbVertex
100
AcDb2dVertex
 10
52.79296479752838
 20
255.6357880044817
 30
0.0
  0
VERTEX
  5
94D
330
938
100
AcDbEntity
  8
0
 62
     7
370
     0
100
AcDbVertex
100
AcDb2dVertex
 10
52.79296479752838
 20
255.6357880044817
 30
0.0
  0
SEQEND
  5
94E
330
938
100
AcDbEntity
  8
0
 62
     7
370
     0
  0
POLYLINE
  5
94F
330
A2
100
AcDbEntity
  8
0
 62
     7
370
     0
100
AcDb2dPolyline
 66
     1
 10
0.0
 20
0.0
 30
0.0
  0
VERTEX
  5
950
330
94F
100
AcDbEntity
  8
0
 62
     7
370
     0
100
AcDbVertex
100
AcDb2dVertex
 10
51.92232930479963
 20
263.6407976737286
 30
0.0
 40
0.0725529577273103
 41
0.0725529577273103
  0
VERTEX
  5
951
330
94F
100
AcDbEntity
  8
0
 62
     7
370
     0
100
AcDbVertex
100
AcDb2dVertex
 10
74.60722075420631
 20
263.6407976737286
 30
0.0
 40
0.0725529577273103
 41
0.0725529577273103
  0
VERTEX
  5
952
330
94F
100
AcDbEntity
  8
0
 62
     7
370
     0
100
AcDbVertex
100
AcDb2dVertex
 10
74.60722075420631
 20
253.8703326997836
 30
0.0
 40
0.0725529577273103
 41
0.0725529577273103
  0
VERTEX
  5
953
330
94F
100
AcDbEntity
  8
0
 62
     7
370
     0
100
AcDbVertex
100
AcDb2dVertex
 10
51.92232930479963
 20
253.8703326997836
 30
0.0
 40
0.0725529577273103
 41
0.0725529577273103
  0
VERTEX
  5
954
330
94F
100
AcDbEntity
  8
0
 62
     7
370
     0
100
AcDbVertex
100
AcDb2dVertex
 10
51.92232930479963
 20
263.6407976737286
 30
0.0
 40
0.0725529577273103
 41
0.0725529577273103
  0
SEQEND
  5
955
330
94F
100
AcDbEntity
  8
0
 62
     7
370
     0
  0
POLYLINE
  5
956
330
A2
100
AcDbEntity
  8
0
 62
     7
370
     0
100
AcDb2dPolyline
 66
     1
 10
0.0
 20
0.0
 30
0.0
  0
VERTEX
  5
957
330
956
100
AcDbEntity
  8
0
 62
     7
370
     0
100
AcDbVertex
100
AcDb2dVertex
 10
51.94651362404284
 20
263.6166133544859
 30
0.0
  0
VERTEX
  5
958
330
956
100
AcDbEntity
  8
0
 62
     7
370
     0
100
AcDbVertex
100
AcDb2dVertex
 10
74.58303643496288
 20
263.6166133544859
 30
0.0
  0
VERTEX
  5
959
330
956
100
AcDbEntity
  8
0
 62
     7
370
     0
100
AcDbVertex
100
AcDb2dVertex
 10
74.58303643496288
 20
253.8945170190263
 30
0.0
  0
VERTEX
  5
95A
330
956
100
AcDbEntity
  8
0
 62
     7
370
     0
100
AcDbVertex
100
AcDb2dVertex
 10
51.94651362404284
 20
253.8945170190263
 30
0.0
  0
VERTEX
  5
95B
330
956
100
AcDbEntity
  8
0
 62
     7
370
     0
100
AcDbVertex
100
AcDb2dVertex
 10
51.94651362404284
 20
263.6166133544859
 30
0.0
  0
SEQEND
  5
95C
330
956
100
AcDbEntity
  8
0
 62
     7
370
     0
  0
ENDBLK
  5
CF
330
A2
100
AcDbEntity
  8
0
 48
0.5
100
AcDbBlockEnd
  0
BLOCK
  5
6CA
330
4D6
100
AcDbEntity
  8
0
100
AcDbBlockBegin
  2
PLATA
 70
     0
 10
0.0
 20
0.0
 30
0.0
  3
PLATA
  1

  0
LINE
  5
4D7
330
4D6
100
AcDbEntity
  8
D
100
AcDbLine
 10
493.3938132413905
 20
698.579461868138
 30
0.0
 11
945.783563144199
 21
698.5794618681389
 31
0.0
  0
LINE
  5
4D8
330
4D6
100
AcDbEntity
  8
D
100
AcDbLine
 10
330.9644903879457
 20
1217.823972359698
 30
0.0
 11
319.1487205637914
 21
762.0472185206431
 31
0.0
  0
LINE
  5
4D9
330
4D6
100
AcDbEntity
  8
D
100
AcDbLine
 10
625.7493690628739
 20
762.595617757371
 30
0.0
 11
583.5954648270827
 21
1094.360173545597
 31
0.0
  0
LWPOLYLINE
  5
4DA
330
4D6
100
AcDbEntity
  8
D
100
AcDbPolyline
 90
        4
 70
     0
 43
0.0
 10
464.0065755248106
 20
963.8413879478826
 10
504.1311274850232
 20
938.1733863644899
 10
423.8820235646017
 20
938.1733863644899
 10
464.0065755248106
 20
963.8413879478826
  0
LWPOLYLINE
  5
4DB
330
4D6
100
AcDbEntity
  8
D
100
AcDbPolyline
 90
        4
 70
     0
 43
0.0
 10
484.8674457377638
 20
938.1733863644899
 10
504.1311274850232
 20
925.8502527858045
 10
423.8820235646017
 20
925.8502527858045
 10
443.1457053118575
 20
938.1733863644899
  0
LWPOLYLINE
  5
4DC
330
4D6
100
AcDbEntity
  8
D
100
AcDbPolyline
 90
        4
 70
     0
 43
0.0
 10
484.8674457377674
 20
925.8502527858045
 10
504.1311274850232
 20
913.5271192071191
 10
423.8820235646017
 20
913.5271192071191
 10
443.1457053118611
 20
925.8502527858045
  0
LWPOLYLINE
  5
4DD
330
4D6
100
AcDbEntity
  8
D
100
AcDbPolyline
 90
        4
 70
     0
 43
0.0
 10
484.8674457377674
 20
913.5271192071186
 10
504.1311274850232
 20
901.2039856284337
 10
423.8820235646017
 20
901.2039856284337
 10
443.1457053118611
 20
913.5271192071186
  0
LWPOLYLINE
  5
4DE
330
4D6
100
AcDbEntity
  8
D
100
AcDbPolyline
 90
        4
 70
     0
 43
0.0
 10
484.8674457377638
 20
901.2039856284337
 10
504.1311274850232
 20
888.8808520497482
 10
423.8820235646017
 20
888.8808520497482
 10
443.1457053118575
 20
901.2039856284337
  0
LWPOLYLINE
  5
4DF
330
4D6
100
AcDbEntity
  8
D
100
AcDbPolyline
 90
        4
 70
     0
 43
0.0
 10
484.8674457377638
 20
888.8808520497482
 10
504.1311274850232
 20
876.5577184710628
 10
423.8820235646017
 20
876.5577184710628
 10
443.1457053118575
 20
888.8808520497482
  0
LWPOLYLINE
  5
4E0
330
4D6
100
AcDbEntity
  8
D
100
AcDbPolyline
 90
        4
 70
     0
 43
0.0
 10
484.8674457377674
 20
876.5577184710628
 10
504.1311274850232
 20
864.2345848923778
 10
423.8820235646017
 20
864.2345848923778
 10
443.1457053118611
 20
876.5577184710628
  0
LWPOLYLINE
  5
4E1
330
4D6
100
AcDbEntity
  8
D
100
AcDbPolyline
 90
        4
 70
     0
 43
0.0
 10
484.8674457377674
 20
864.2345848923774
 10
504.1311274850232
 20
851.9114513136919
 10
423.8820235646017
 20
851.9114513136919
 10
443.1457053118611
 20
864.2345848923774
  0
LWPOLYLINE
  5
4E2
330
4D6
100
AcDbEntity
  8
D
100
AcDbPolyline
 90
        4
 70
     0
 43
0.0
 10
484.8674457377638
 20
765.6495162628944
 10
504.1311274850232
 20
753.326382684209
 10
423.8820235646017
 20
753.326382684209
 10
443.1457053118575
 20
765.6495162628944
  0
LWPOLYLINE
  5
4E3
330
4D6
100
AcDbEntity
  8
D
100
AcDbPolyline
 90
        4
 70
     0
 43
0.0
 10
484.8674457377638
 20
777.9726498415794
 10
504.1311274850232
 20
765.6495162628944
 10
423.8820235646017
 20
765.6495162628944
 10
443.1457053118575
 20
777.9726498415794
  0
LWPOLYLINE
  5
4E4
330
4D6
100
AcDbEntity
  8
D
100
AcDbPolyline
 90
        4
 70
     0
 43
0.0
 10
484.8674457377638
 20
790.2957834202648
 10
504.1311274850232
 20
777.9726498415794
 10
423.8820235646017
 20
777.9726498415794
 10
443.1457053118575
 20
790.2957834202648
  0
LWPOLYLINE
  5
4E5
330
4D6
100
AcDbEntity
  8
D
100
AcDbPolyline
 90
        4
 70
     0
 43
0.0
 10
484.8674457377638
 20
802.6189169989502
 10
504.1311274850232
 20
790.2957834202653
 10
423.8820235646017
 20
790.2957834202653
 10
443.1457053118575
 20
802.6189169989502
  0
LWPOLYLINE
  5
4E6
330
4D6
100
AcDbEntity
  8
D
100
AcDbPolyline
 90
        4
 70
     0
 43
0.0
 10
484.8674457377638
 20
814.9420505776357
 10
504.1311274850232
 20
802.6189169989502
 10
423.8820235646017
 20
802.6189169989502
 10
443.1457053118575
 20
814.9420505776357
  0
LWPOLYLINE
  5
4E7
330
4D6
100
AcDbEntity
  8
D
100
AcDbPolyline
 90
        4
 70
     0
 43
0.0
 10
484.8674457377638
 20
827.2651841563211
 10
504.1311274850232
 20
814.9420505776361
 10
423.8820235646017
 20
814.9420505776361
 10
443.1457053118575
 20
827.2651841563211
  0
LWPOLYLINE
  5
4E8
330
4D6
100
AcDbEntity
  8
D
100
AcDbPolyline
 90
        4
 70
     0
 43
0.0
 10
484.8674457377638
 20
839.5883177350065
 10
504.1311274850232
 20
827.2651841563211
 10
423.8820235646017
 20
827.2651841563211
 10
443.1457053118575
 20
839.5883177350065
  0
LWPOLYLINE
  5
4E9
330
4D6
100
AcDbEntity
  8
D
100
AcDbPolyline
 90
        4
 70
     0
 43
0.0
 10
484.8674457377638
 20
851.9114513136919
 10
504.1311274850232
 20
839.5883177350065
 10
423.8820235646017
 20
839.5883177350065
 10
443.1457053118575
 20
851.9114513136919
  0
LWPOLYLINE
  5
4EA
330
4D6
100
AcDbEntity
  8
D
100
AcDbPolyline
 90
        4
 70
     0
 43
0.0
 10
484.8674457377638
 20
716.3569819481527
 10
504.1311274850232
 20
704.0338483694673
 10
423.8820235646017
 20
704.0338483694673
 10
443.1457053118575
 20
716.3569819481527
  0
LWPOLYLINE
  5
4EB
330
4D6
100
AcDbEntity
  8
D
100
AcDbPolyline
 90
        4
 70
     0
 43
0.0
 10
484.8674457377638
 20
728.6801155268377
 10
504.1311274850232
 20
716.3569819481527
 10
423.8820235646017
 20
716.3569819481527
 10
443.1457053118575
 20
728.6801155268377
  0
LWPOLYLINE
  5
4EC
330
4D6
100
AcDbEntity
  8
D
100
AcDbPolyline
 90
        4
 70
     0
 43
0.0
 10
484.8674457377638
 20
741.0032491055231
 10
504.1311274850232
 20
728.6801155268377
 10
423.8820235646017
 20
728.6801155268377
 10
443.1457053118575
 20
741.0032491055231
  0
LWPOLYLINE
  5
4ED
330
4D6
100
AcDbEntity
  8
D
100
AcDbPolyline
 90
        4
 70
     0
 43
0.0
 10
484.8674457377638
 20
753.3263826842085
 10
504.1311274850232
 20
741.0032491055235
 10
423.8820235646017
 20
741.0032491055235
 10
443.1457053118575
 20
753.3263826842085
  0
LWPOLYLINE
  5
4EE
330
4D6
100
AcDbEntity
  8
D
100
AcDbPolyline
 90
        4
 70
     0
 43
0.0
 10
484.8674457377638
 20
691.7107147907818
 10
504.1311274850232
 20
679.3875812120964
 10
423.8820235646017
 20
679.3875812120964
 10
443.1457053118575
 20
691.7107147907818
  0
LWPOLYLINE
  5
4EF
330
4D6
100
AcDbEntity
  8
D
100
AcDbPolyline
 90
        4
 70
     0
 43
0.0
 10
484.8674457377638
 20
704.0338483694673
 10
504.1311274850232
 20
691.7107147907818
 10
423.8820235646017
 20
691.7107147907818
 10
443.1457053118575
 20
704.0338483694673
  0
LWPOLYLINE
  5
4F0
330
4D6
100
AcDbEntity
  8
D
100
AcDbPolyline
 90
        4
 70
     0
 43
0.0
 10
484.8674457377638
 20
679.3875812120959
 10
504.1311274850232
 20
667.064447633411
 10
423.8820235646017
 20
667.064447633411
 10
443.1457053118575
 20
679.3875812120959
  0
LINE
  5
4F1
330
4D6
100
AcDbEntity
  8
D
100
AcDbLine
 10
499.2345785296061
 20
643.760881526194
 30
0.0
 11
482.0698244249561
 21
654.7413140547255
 31
0.0
  0
LINE
  5
4F2
330
4D6
100
AcDbEntity
  8
D
100
AcDbLine
 10
435.5285930596815
 20
643.760881526194
 30
0.0
 11
452.6933471643288
 21
654.7413140547255
 31
0.0
  0
LWPOLYLINE
  5
4F3
330
4D6
100
AcDbEntity
  8
D
100
AcDbPolyline
 90
        4
 70
     0
 43
0.0
 10
484.8674457377638
 20
667.064447633411
 10
504.1311274850232
 20
654.7413140547255
 10
423.8820235646017
 20
654.7413140547255
 10
443.1457053118575
 20
667.064447633411
  0
ARC
  5
4F4
330
4D6
100
AcDbEntity
  8
D
100
AcDbCircle
 10
471.482216271394
 20
1302.858745860473
 30
0.0
 40
561.8563891406228
100
AcDbArc
 50
254.2687588282639
 51
265.4261623543471
  0
LWPOLYLINE
  5
4F5
330
4D6
100
AcDbEntity
  8
D
100
AcDbPolyline
 90
        4
 70
     0
 43
0.0
 10
427.8787821380974
 20
491.3509187605991
 10
427.8787821380974
 20
643.7608815261942
 10
506.8843894511883
 20
643.7608815261942
 10
506.8843894511883
 20
491.3509187605991
  0
LWPOLYLINE
  5
4F6
330
4D6
100
AcDbEntity
  8
D
100
AcDbPolyline
 90
        4
 70
     1
 43
0.0
 10
379.080971452946
 20
444.6482330645908
 10
552.8110419009427
 20
444.6482330645908
 10
552.8110419009427
 20
491.3509187605991
 10
379.080971452946
 20
491.3509187605991
  0
LINE
  5
4F7
330
4D6
100
AcDbEntity
  8
D
100
AcDbLine
 10
663.0228941720584
 20
304.600366999465
 30
0.0
 11
663.0228941720584
 21
698.5794618681371
 31
0.0
  0
LINE
  5
4F8
330
4D6
100
AcDbEntity
  8
D
100
AcDbLine
 10
282.0148796230983
 20
304.600366999465
 30
0.0
 11
663.0228941720584
 21
304.600366999465
 31
0.0
  0
LINE
  5
4F9
330
4D6
100
AcDbEntity
  8
D
100
AcDbLine
 10
282.0148796230983
 20
698.5794618681371
 30
0.0
 11
282.0148796230983
 21
304.600366999465
 31
0.0
  0
LWPOLYLINE
  5
4FA
330
4D6
100
AcDbEntity
  8
D
100
AcDbPolyline
 90
       23
 70
     0
 43
0.0
 10
435.2603462381958
 20
748.2820544786468
 10
386.556141443627
 20
748.2820544786473
 10
415.3767256867031
 20
766.7188161581107
 10
386.556141443627
 20
766.7188161581112
 10
415.3767256867031
 20
785.1555778375741
 10
386.556141443627
 20
785.1555778375741
 10
415.3767256867031
 20
803.592339517038
 10
386.556141443627
 20
803.592339517038
 10
415.3767256867031
 20
822.029101196501
 10
386.556141443627
 20
822.0291011965014
 10
415.3767256867068
 20
840.4658628759648
 10
386.556141443627
 20
840.4658628759653
 10
415.3767256867068
 20
858.9026245554282
 10
386.556141443627
 20
858.9026245554287
 10
415.3767256867068
 20
877.3393862348921
 10
386.556141443627
 20
877.3393862348921
 10
415.3767256867068
 20
895.7761479143551
 10
386.556141443627
 20
895.7761479143555
 10
415.3767256867068
 20
914.212909593819
 10
386.556141443627
 20
914.2129095938194
 10
415.3767256867068
 20
932.6496712732824
 10
386.556141443627
 20
932.6496712732824
 10
464.0065755248106
 20
982.1953426268628
  0
LWPOLYLINE
  5
4FB
330
4D6
100
AcDbEntity
  8
D
100
AcDbPolyline
 90
       23
 70
     0
 43
0.0
 10
492.7528048114291
 20
748.2820544786468
 10
541.4570096059979
 20
748.2820544786473
 10
512.6364253629181
 20
766.7188161581107
 10
541.4570096059979
 20
766.7188161581112
 10
512.6364253629181
 20
785.1555778375741
 10
541.4570096059979
 20
785.1555778375741
 10
512.6364253629181
 20
803.592339517038
 10
541.4570096059979
 20
803.592339517038
 10
512.6364253629181
 20
822.029101196501
 10
541.4570096059979
 20
822.0291011965014
 10
512.6364253629181
 20
840.4658628759648
 10
541.4570096059942
 20
840.4658628759653
 10
512.6364253629181
 20
858.9026245554282
 10
541.4570096059942
 20
858.9026245554287
 10
512.6364253629181
 20
877.3393862348921
 10
541.4570096059942
 20
877.3393862348921
 10
512.6364253629181
 20
895.7761479143551
 10
541.4570096059942
 20
895.7761479143555
 10
512.6364253629181
 20
914.212909593819
 10
541.4570096059942
 20
914.2129095938194
 10
512.6364253629181
 20
932.6496712732824
 10
541.4570096059942
 20
932.6496712732824
 10
464.0065755248106
 20
982.1953426268628
  0
LINE
  5
4FC
330
4D6
100
AcDbEntity
  8
D
100
AcDbLine
 10
319.1487205637914
 20
762.0472185206431
 30
0.0
 11
-0.0000000000013642
 21
762.0472185206431
 31
0.0
  0
LINE
  5
4FD
330
4D6
100
AcDbEntity
  8
D
100
AcDbLine
 10
945.783563144199
 20
762.0472185206431
 30
0.0
 11
623.8157119789989
 21
762.0472185206431
 31
0.0
  0
LINE
  5
4FE
330
4D6
100
AcDbEntity
  8
D
100
AcDbLine
 10
-0.0000000000013642
 20
698.5794618681371
 30
0.0
 11
434.6193378082321
 21
698.579461868138
 31
0.0
  0
LINE
  5
4FF
330
4D6
100
AcDbEntity
  8
D
  6
ACAD_ISO04W100
 48
0.8
100
AcDbLine
 10
464.0065755248097
 20
982.1953426268626
 30
0.0
 11
464.0065755248097
 21
444.6482330645908
 31
0.0
  0
LWPOLYLINE
  5
500
330
4D6
100
AcDbEntity
  8
D
  6
Continuous
100
AcDbPolyline
 90
        4
 70
     0
 43
0.0
 10
0.0
 20
762.0472185206431
 10
0.0
 20
0.0
 10
945.783563144199
 20
0.0
 10
945.783563144199
 20
762.0472185206431
  0
LWPOLYLINE
  5
501
330
4D6
100
AcDbEntity
  8
D
  6
Continuous
100
AcDbPolyline
 90
        4
 70
     0
 43
0.0
 10
51.31118890356083
 20
644.8299645305638
 10
53.14540541039969
 20
634.8864004860402
 10
43.66362209500585
 20
635.7159490361469
 10
51.31208311134105
 20
644.828722629466
  0
LWPOLYLINE
  5
502
330
4D6
100
AcDbEntity
  8
D
  6
Continuous
100
AcDbPolyline
 90
        4
 70
     0
 43
0.0
 10
18.11108212123872
 20
597.3044734667951
 10
14.89542135324518
 20
587.717189758966
 10
7.003807094897638
 20
593.0407895733092
 10
18.11108212123872
 20
597.3044734667951
  0
LWPOLYLINE
  5
503
330
4D6
100
AcDbEntity
  8
D
  6
Continuous
100
AcDbPolyline
 90
        4
 70
     0
 43
0.0
 10
171.6821713508252
 20
684.4939650373913
 10
173.4347938227766
 20
669.4285858624025
 10
159.3264568528575
 20
671.6166553537869
 10
171.6830757858152
 20
684.4927141321718
  0
LWPOLYLINE
  5
504
330
4D6
100
AcDbEntity
  8
D
  6
Continuous
100
AcDbPolyline
 90
        4
 70
     0
 43
0.0
 10
151.398390242266
 20
648.4686773811413
 10
148.1818966946121
 20
638.8825942025119
 10
140.2911152656961
 20
644.2049934808574
 10
151.3992699314658
 20
648.4673694406783
  0
LWPOLYLINE
  5
505
330
4D6
100
AcDbEntity
  8
D
  6
Continuous
100
AcDbPolyline
 90
        4
 70
     0
 43
0.0
 10
166.1275865876742
 20
636.1088443665917
 10
166.9268051951221
 20
624.9318178847661
 10
157.4450213405798
 20
625.7613660404336
 10
166.1275865876742
 20
636.1088443665917
  0
LWPOLYLINE
  5
506
330
4D6
100
AcDbEntity
  8
D
  6
Continuous
100
AcDbPolyline
 90
        4
 70
     0
 43
0.0
 10
278.8739884649804
 20
624.9207992632032
 10
280.7082049798482
 20
614.9772352834916
 10
271.2264216644508
 20
615.8067838335978
 10
278.8739884649804
 20
624.9207992632032
  0
LWPOLYLINE
  5
507
330
4D6
100
AcDbEntity
  8
D
  6
Continuous
100
AcDbPolyline
 90
        4
 70
     0
 43
0.0
 10
246.0885961547392
 20
584.5985041339231
 10
242.8712738415998
 20
575.0138028623619
 10
234.9804924126875
 20
580.3362021407079
 10
246.0877673700343
 20
584.5998860145951
  0
LWPOLYLINE
  5
508
330
4D6
100
AcDbEntity
  8
D
  6
Continuous
100
AcDbPolyline
 90
        4
 70
     0
 43
0.0
 10
187.1039726471936
 20
515.551260842778
 10
188.9373968087311
 20
505.6090449879118
 10
179.4556134933337
 20
506.438593538018
 10
187.1039726471936
 20
515.551260842778
  0
LWPOLYLINE
  5
509
330
4D6
100
AcDbEntity
  8
D
  6
Continuous
100
AcDbPolyline
 90
        4
 70
     0
 43
0.0
 10
192.7144014896221
 20
503.7081689433599
 10
194.4670122215721
 20
488.6427879716355
 10
180.357927159228
 20
490.8321005212765
 10
192.7144014896221
 20
503.7081689433599
  0
LWPOLYLINE
  5
50A
330
4D6
100
AcDbEntity
  8
D
  6
Continuous
100
AcDbPolyline
 90
        4
 70
     0
 43
0.0
 10
207.4898363767752
 20
469.5668907337015
 10
204.2733428177962
 20
459.9808076146635
 10
196.3825613888839
 20
465.3032068930097
 10
207.4898363767752
 20
469.5668907337015
  0
LWPOLYLINE
  5
50B
330
4D6
100
AcDbEntity
  8
D
  6
Continuous
100
AcDbPolyline
 90
        4
 70
     0
 43
0.0
 10
112.800459249007
 20
533.4356821002489
 10
109.5847475765186
 20
523.8483244522104
 10
101.693183802905
 20
529.1719985292584
 10
112.800459249007
 20
533.4356821002489
  0
LWPOLYLINE
  5
50C
330
4D6
100
AcDbEntity
  8
D
  6
Continuous
100
AcDbPolyline
 90
        4
 70
     0
 43
0.0
 10
73.32258154163719
 20
525.5059328250118
 10
75.15678969140208
 20
515.5623672939764
 10
65.6742137086112
 20
516.3931761392923
 10
73.32258154163719
 20
525.5059328250118
  0
LWPOLYLINE
  5
50D
330
4D6
100
AcDbEntity
  8
D
  6
Continuous
100
AcDbPolyline
 90
        4
 70
     0
 43
0.0
 10
23.41359737519451
 20
529.9662488341351
 10
25.16621985363236
 20
514.9008696244518
 10
11.05788285956442
 20
517.0889395376935
 10
23.41438118946098
 20
529.9651137005285
  0
LWPOLYLINE
  5
50E
330
4D6
100
AcDbEntity
  8
D
  6
Continuous
100
AcDbPolyline
 90
        4
 70
     0
 43
0.0
 10
74.20322848999422
 20
418.4014397221765
 10
70.98603464700136
 20
408.8166037071157
 10
61.2538927870628
 20
415.2297877733911
 10
74.2025282557479
 20
418.4026868193553
  0
LWPOLYLINE
  5
50F
330
4D6
100
AcDbEntity
  8
D
  6
Continuous
100
AcDbPolyline
 90
        4
 70
     0
 43
0.0
 10
95.33237221639865
 20
406.184418708408
 10
97.16658863761404
 20
396.2408546923316
 10
87.68480520869343
 20
397.0704032523704
 10
95.33237221639865
 20
406.184418708408
  0
LWPOLYLINE
  5
510
330
4D6
100
AcDbEntity
  8
D
  6
Continuous
100
AcDbPolyline
 90
        4
 70
     0
 43
0.0
 10
209.1144710774897
 20
396.228471038324
 10
210.9486792272583
 20
386.2849055072888
 10
201.4662051069463
 20
387.1158206411635
 10
209.1144710774897
 20
396.228471038324
  0
LWPOLYLINE
  5
511
330
4D6
100
AcDbEntity
  8
D
  6
Continuous
100
AcDbPolyline
 90
        4
 70
     0
 43
0.0
 10
213.7451112386807
 20
322.9248546168806
 10
215.4983379253754
 20
307.8582427828233
 10
201.3893971163889
 20
310.0475453248132
 10
213.7451112386807
 20
322.9248546168806
  0
LWPOLYLINE
  5
512
330
4D6
100
AcDbEntity
  8
D
  6
Continuous
100
AcDbPolyline
 90
        4
 70
     0
 43
0.0
 10
168.8919053835198
 20
354.5338954528083
 10
165.6754117939927
 20
344.947812366966
 10
157.7846303650767
 20
350.2702116453115
 10
168.8925547132676
 20
354.5325744154213
  0
LWPOLYLINE
  5
513
330
4D6
100
AcDbEntity
  8
D
  6
Continuous
100
AcDbPolyline
 90
        4
 70
     0
 43
0.0
 10
263.581880936541
 20
290.6637091086652
 10
260.364788940984
 20
281.0790210268158
 10
252.474007151468
 20
286.4014205483911
 10
263.581880936541
 20
290.6637091086652
  0
LWPOLYLINE
  5
514
330
4D6
100
AcDbEntity
  8
D
  6
Continuous
100
AcDbPolyline
 90
        4
 70
     0
 43
0.0
 10
231.1249695077822
 20
276.9056812338695
 10
232.9591776575508
 20
266.9621157028341
 10
223.4767967205553
 20
267.7930477443092
 10
231.1249695077822
 20
276.9056812338695
  0
LWPOLYLINE
  5
515
330
4D6
100
AcDbEntity
  8
D
  6
Continuous
100
AcDbPolyline
 90
        4
 70
     0
 43
0.0
 10
130.2945339925318
 20
239.4996095561701
 10
127.0780323583203
 20
229.9135294269531
 10
119.1866993412732
 20
235.2372163976136
 10
130.2939743902607
 20
239.5009001719159
  0
LWPOLYLINE
  5
516
330
4D6
100
AcDbEntity
  8
D
  6
Continuous
100
AcDbPolyline
 90
        4
 70
     0
 43
0.0
 10
117.3429638728157
 20
286.8616457973294
 10
119.1777865519907
 20
276.9167876850677
 10
109.6953969358292
 20
277.7476303455837
 10
117.3429638728157
 20
286.8616457973294
  0
LWPOLYLINE
  5
517
330
4D6
100
AcDbEntity
  8
D
  6
Continuous
100
AcDbPolyline
 90
        4
 70
     0
 43
0.0
 10
44.44570689326792
 20
349.1805685117165
 10
46.19768981328161
 20
334.1163144276018
 10
32.08935315546114
 20
336.3043842886952
 10
44.44570689326792
 20
349.1805685117165
  0
LWPOLYLINE
  5
518
330
4D6
100
AcDbEntity
  8
D
  6
Continuous
100
AcDbPolyline
 90
        4
 70
     0
 43
0.0
 10
35.60459726248882
 20
303.3696915384621
 10
32.38870613504696
 20
293.7823947337088
 10
24.49732219428188
 20
299.1060077377633
 10
35.60520776925841
 20
303.3684748629257
  0
LWPOLYLINE
  5
519
330
4D6
100
AcDbEntity
  8
D
  6
Continuous
100
AcDbPolyline
 90
        4
 70
     0
 43
0.0
 10
25.5726857269583
 20
177.4922353938819
 10
27.40689387672683
 20
167.548669862847
 10
17.92458876471574
 20
168.3794400500037
 10
25.5726857269583
 20
177.4922353938819
  0
LWPOLYLINE
  5
51A
330
4D6
100
AcDbEntity
  8
D
  6
Continuous
100
AcDbPolyline
 90
        4
 70
     0
 43
0.0
 10
65.47703259707487
 20
168.3960233229043
 10
67.22915977293815
 20
153.3317592307521
 10
53.12082311261838
 20
155.5198290922324
 10
65.47703259707487
 20
168.3960233229043
  0
LWPOLYLINE
  5
51B
330
4D6
100
AcDbEntity
  8
D
  6
Continuous
100
AcDbPolyline
 90
        4
 70
     0
 43
0.0
 10
139.3540768325183
 20
167.5375634116485
 10
141.187771864832
 20
157.595308898623
 10
131.7059885494382
 20
158.4248574487292
 10
139.3535555292328
 20
167.5388728862515
  0
LWPOLYLINE
  5
51C
330
4D6
100
AcDbEntity
  8
D
  6
Continuous
100
AcDbPolyline
 90
        4
 70
     0
 43
0.0
 10
224.9838602158052
 20
175.6307442494144
 10
219.5345160944271
 20
167.5517593510663
 10
213.8760764882609
 20
171.3684250574634
 10
224.9833515180289
 20
175.6321088053692
  0
LWPOLYLINE
  5
51D
330
4D6
100
AcDbEntity
  8
D
  6
Continuous
100
AcDbPolyline
 90
        4
 70
     0
 43
0.0
 10
358.2712071598144
 20
226.79484380191
 10
355.0541660879753
 20
217.2102296866658
 10
347.1633846590594
 20
222.532628965012
 10
358.2712071598144
 20
226.79484380191
  0
LWPOLYLINE
  5
51E
330
4D6
100
AcDbEntity
  8
D
  6
Continuous
100
AcDbPolyline
 90
        4
 70
     0
 43
0.0
 10
383.0457474935865
 20
296.666678997379
 10
384.7983582255365
 20
281.6012980256546
 10
370.6894410773166
 20
283.7907063609312
 10
383.0451551582373
 20
296.668015609881
  0
LWPOLYLINE
  5
51F
330
4D6
100
AcDbEntity
  8
D
  6
Continuous
100
AcDbPolyline
 90
        4
 70
     0
 43
0.0
 10
344.9063606133386
 20
266.9510092516355
 10
346.7405687631108
 20
257.0074437206006
 10
337.2581965052777
 20
257.8384651430349
 10
344.9063606133386
 20
266.9510092516355
  0
LWPOLYLINE
  5
520
330
4D6
100
AcDbEntity
  8
D
  6
Continuous
100
AcDbPolyline
 90
        4
 70
     0
 43
0.0
 10
366.916355090656
 20
147.6297076188914
 10
368.7510671934033
 20
137.6846539161461
 10
359.2687881505444
 20
138.5156922434107
 10
366.916355090656
 20
147.6297076188914
  0
LWPOLYLINE
  5
521
330
4D6
100
AcDbEntity
  8
D
  6
Continuous
100
AcDbPolyline
 90
        4
 70
     0
 43
0.0
 10
253.1354679380747
 20
157.5828914294152
 10
254.9691716495545
 20
147.6407262973489
 10
248.9965598795025
 20
152.652342630766
 10
253.1354679380747
 20
157.5828914294152
  0
LWPOLYLINE
  5
522
330
4D6
100
AcDbEntity
  8
D
  6
Continuous
100
AcDbPolyline
 90
        4
 70
     0
 43
0.0
 10
234.7770528972324
 20
142.1390785657352
 10
236.5296636291787
 20
127.073697594011
 10
222.4208670735497
 20
129.2629901283506
 10
234.7770528972324
 20
142.1390785657352
  0
LWPOLYLINE
  5
523
330
4D6
100
AcDbEntity
  8
D
  6
Continuous
100
AcDbPolyline
 90
        4
 70
     0
 43
0.0
 10
91.696513271796
 20
124.4666446969193
 10
88.48001163758454
 20
114.8805645677023
 10
80.58876831746602
 20
120.2042211499156
 10
91.696513271796
 20
124.4666446969193
  0
LWPOLYLINE
  5
524
330
4D6
100
AcDbEntity
  8
D
  6
Continuous
100
AcDbPolyline
 90
        4
 70
     0
 43
0.0
 10
47.58318415725444
 20
58.16944558942805
 10
49.41696369371493
 20
48.22711860304298
 10
39.9351803962054
 20
49.05666715158486
 10
47.58318415725444
 20
58.16944558942805
  0
LWPOLYLINE
  5
525
330
4D6
100
AcDbEntity
  8
D
  6
Continuous
100
AcDbPolyline
 90
        4
 70
     0
 43
0.0
 10
53.09849255106383
 20
9.433679837668251
 10
49.93312712479019
 20
0.0
 10
41.99083729366248
 20
5.171225902217202
 10
53.09811240374256
 20
9.434909610129807
  0
LWPOLYLINE
  5
526
330
4D6
100
AcDbEntity
  8
D
  6
Continuous
100
AcDbPolyline
 90
        4
 70
     0
 43
0.0
 10
161.3645752628108
 20
48.2147736071945
 10
163.198363478441
 20
38.27253600176891
 10
153.7165798419628
 20
39.10208411872372
 10
161.3645752628108
 20
48.2147736071945
  0
LWPOLYLINE
  5
527
330
4D6
100
AcDbEntity
  8
D
  6
Continuous
100
AcDbPolyline
 90
        4
 70
     0
 43
0.0
 10
186.3858394950694
 20
60.59777939016362
 10
183.1689268933733
 20
51.01303053141987
 10
175.27814484802
 20
56.33542986494695
 10
186.3858394950694
 20
60.59777939016362
  0
LWPOLYLINE
  5
528
330
4D6
100
AcDbEntity
  8
D
  6
Continuous
100
AcDbPolyline
 90
        4
 70
     0
 43
0.0
 10
275.1459663683709
 20
38.26010162496095
 10
276.9797632631635
 20
28.31795340049439
 10
267.4979800088367
 20
29.14750194525777
 10
275.1455469663633
 20
38.26151734149357
  0
LWPOLYLINE
  5
529
330
4D6
100
AcDbEntity
  8
D
  6
Continuous
100
AcDbPolyline
 90
        4
 70
     0
 43
0.0
 10
319.6731864390786
 20
111.7618789426588
 10
316.4566848048671
 20
102.1757988134418
 10
308.5654529690437
 20
107.4996337792936
 10
319.6731864390786
 20
111.7618789426588
  0
LWPOLYLINE
  5
52A
330
4D6
100
AcDbEntity
  8
D
  6
Continuous
100
AcDbPolyline
 90
        4
 70
     0
 43
0.0
 10
404.0766251021632
 20
115.8834603996258
 10
405.8296839293398
 20
100.8167528368426
 10
391.7209110344775
 20
103.0061511644683
 10
404.0770731973935
 20
115.882133808567
  0
LWPOLYLINE
  5
52B
330
4D6
100
AcDbEntity
  8
D
  6
Continuous
100
AcDbPolyline
 90
        4
 70
     0
 43
0.0
 10
414.3621057735691
 20
47.89452607227577
 10
411.1456122111595
 20
38.30844309881809
 10
403.2548307822435
 20
43.63084237716362
 10
414.3625126623519
 20
47.89301363590312
  0
LWPOLYLINE
  5
52C
330
4D6
100
AcDbEntity
  8
D
  6
Continuous
100
AcDbPolyline
 90
        4
 70
     0
 43
0.0
 10
388.9273574739273
 20
28.30542964272718
 10
390.7611630478896
 20
18.36337079922009
 10
381.2793794033823
 20
19.1929188513634
 10
388.9269467470731
 20
28.3069347078133
  0
LWPOLYLINE
  5
52D
330
4D6
100
AcDbEntity
  8
D
  6
Continuous
100
AcDbPolyline
 90
        4
 70
     0
 43
0.0
 10
502.7083465277829
 20
18.35235207413325
 10
504.5429567292558
 20
8.407192129458508
 10
495.0607791840921
 20
9.238336217683354
 10
502.7087485794873
 20
18.3507576604934
  0
LWPOLYLINE
  5
52E
330
4D6
100
AcDbEntity
  8
D
  6
Continuous
100
AcDbPolyline
 90
        4
 70
     0
 43
0.0
 10
452.9605333830877
 20
162.9259784951539
 10
449.7435432349666
 20
153.341438346516
 10
441.8527618060507
 20
158.6638376248618
 10
452.9605333830877
 20
162.9259784951539
  0
LWPOLYLINE
  5
52F
330
4D6
100
AcDbEntity
  8
D
  6
Continuous
100
AcDbPolyline
 90
        4
 70
     0
 43
0.0
 10
480.6977548713621
 20
137.6751249852114
 10
482.5324582989597
 20
127.7299819339125
 10
473.0501879568619
 20
128.5611096402474
 10
480.6982501491912
 20
137.6735474649474
  0
LWPOLYLINE
  5
530
330
4D6
100
AcDbEntity
  8
D
  6
Continuous
100
AcDbPolyline
 90
        4
 70
     0
 43
0.0
 10
547.6494138945964
 20
99.05872998662198
 10
544.4329203819543
 20
89.47264700636629
 10
536.5421389530384
 20
94.79504628471182
 10
547.6494138945964
 20
99.05872998662198
  0
LWPOLYLINE
  5
531
330
4D6
100
AcDbEntity
  8
D
  6
Continuous
100
AcDbPolyline
 90
        5
 70
     0
 43
0.0
 10
573.3770934975546
 20
89.62518905139814
 10
575.1292915593403
 20
74.56124235405491
 10
561.0209549954052
 20
76.74931220058647
 10
573.3766690217199
 20
89.62662139262625
 10
573.3766690217199
 20
89.62662139262625
  0
LWPOLYLINE
  5
532
330
4D6
100
AcDbEntity
  8
D
  6
Continuous
100
AcDbPolyline
 90
        4
 70
     0
 43
0.0
 10
458.6877517188987
 20
256.9963372694021
 10
460.5219598686672
 20
247.0527717383668
 10
451.0395962922521
 20
247.8838825415635
 10
458.6877517188987
 20
256.9963372694021
  0
LWPOLYLINE
  5
533
330
4D6
100
AcDbEntity
  8
D
  6
Continuous
100
AcDbPolyline
 90
        4
 70
     0
 43
0.0
 10
480.4506920833337
 20
273.696832974533
 10
488.3420524696085
 20
268.372863225188
 10
491.5579677600836
 20
277.9605166340616
 10
480.4506928298542
 20
273.6968328725595
  0
LWPOLYLINE
  5
534
330
4D6
100
AcDbEntity
  8
D
  6
Continuous
100
AcDbPolyline
 90
        4
 70
     0
 43
0.0
 10
552.3451990777976
 20
270.4111766028816
 10
554.098378525694
 20
255.344353268486
 10
539.989485038248
 20
257.5338673970493
 10
552.3457677937477
 20
270.4097342402104
  0
LWPOLYLINE
  5
535
330
4D6
100
AcDbEntity
  8
D
  6
Continuous
100
AcDbPolyline
 90
        4
 70
     0
 43
0.0
 10
572.469142824455
 20
247.0416652871681
 10
574.3033509742272
 20
237.098099756133
 10
564.820995651964
 20
237.9292994061593
 10
572.4685629956548
 20
247.043315262609
  0
LWPOLYLINE
  5
536
330
4D6
100
AcDbEntity
  8
D
  6
Continuous
100
AcDbPolyline
 90
        4
 70
     0
 43
0.0
 10
585.2625974064213
 20
213.7137161258015
 10
583.0308514057615
 20
204.505642254064
 10
575.1400699768456
 20
209.8280415324098
 10
585.2625974064213
 20
213.7137161258015
  0
LWPOLYLINE
  5
537
330
4D6
100
AcDbEntity
  8
D
  6
Continuous
100
AcDbPolyline
 90
        4
 70
     0
 43
0.0
 10
594.4791546520719
 20
127.7205423515311
 10
596.3138494045197
 20
117.7753099516788
 10
586.8315877631758
 20
118.6065270370841
 10
594.4796412547512
 20
127.7188754827141
  0
LWPOLYLINE
  5
538
330
4D6
100
AcDbEntity
  8
D
  6
Continuous
100
AcDbPolyline
 90
        4
 70
     0
 43
0.0
 10
631.2315153456143
 20
30.92625496054643
 10
639.1222975289452
 20
25.60385566621608
 10
642.3391858296341
 20
35.18824788164306
 10
631.2315161000292
 20
30.92625494456206
  0
LWPOLYLINE
  5
539
330
4D6
100
AcDbEntity
  8
D
  6
Continuous
100
AcDbPolyline
 90
        4
 70
     0
 43
0.0
 10
680.9372065503699
 20
150.2212127408939
 10
677.7202285527524
 20
140.6368509139138
 10
669.8294471238364
 20
145.9592501922598
 10
680.9372065503699
 20
150.2212127408939
  0
LWPOLYLINE
  5
53A
330
4D6
100
AcDbEntity
  8
D
  6
Continuous
100
AcDbPolyline
 90
        4
 70
     0
 43
0.0
 10
708.2605544327812
 20
117.7659597178508
 10
710.0952405100757
 20
107.8206379694457
 10
700.6129875694928
 20
108.6519444339208
 10
708.2610323603108
 20
117.7642035004808
  0
LWPOLYLINE
  5
53B
330
4D6
100
AcDbEntity
  8
D
  6
Continuous
100
AcDbPolyline
 90
        4
 70
     0
 43
0.0
 10
742.6771137977153
 20
63.36824429422904
 10
744.429335488137
 20
48.30440339515553
 10
730.320998443312
 20
50.49247270202181
 10
742.6771137977153
 20
63.36824429422904
  0
LWPOLYLINE
  5
53C
330
4D6
100
AcDbEntity
  8
D
  6
Continuous
100
AcDbPolyline
 90
        4
 70
     0
 43
0.0
 10
775.6265327736396
 20
86.35234743413821
 10
772.40960569974
 20
76.76805957376405
 10
764.5188242708277
 20
82.09045885211003
 10
775.6260991433915
 20
86.3541425344215
  0
LWPOLYLINE
  5
53D
330
4D6
100
AcDbEntity
  8
D
  6
Continuous
100
AcDbPolyline
 90
        4
 70
     0
 43
0.0
 10
822.0424234658672
 20
107.8095315182468
 10
823.8761705731736
 20
97.86781329097721
 10
814.3943873758103
 20
98.69736183075725
 10
822.0424234658672
 20
107.8095315182468
  0
LWPOLYLINE
  5
53E
330
4D6
100
AcDbEntity
  8
D
  6
Continuous
100
AcDbPolyline
 90
        4
 70
     0
 43
0.0
 10
686.2505339300146
 20
237.086993304935
 10
688.0847420797832
 20
227.1434277739002
 10
678.602395904883
 20
227.9747173352366
 10
686.2505339300146
 20
237.086993304935
  0
LWPOLYLINE
  5
53F
330
4D6
100
AcDbEntity
  8
D
  6
Continuous
100
AcDbPolyline
 90
        4
 70
     0
 43
0.0
 10
709.2895285344198
 20
231.2770285052466
 10
723.3978655284877
 20
229.0889585920049
 10
721.6452429973574
 20
244.1543375958822
 10
709.289528499386
 20
231.2770279122776
  0
LWPOLYLINE
  5
540
330
4D6
100
AcDbEntity
  8
D
  6
Continuous
100
AcDbPolyline
 90
        4
 70
     0
 43
0.0
 10
708.4273773321288
 20
260.9922455223325
 10
716.3181595765559
 20
255.6698461616124
 10
719.535227271102
 20
265.2541776001451
 10
708.4273777740268
 20
260.9922456919621
  0
LWPOLYLINE
  5
541
330
4D6
100
AcDbEntity
  8
D
  6
Continuous
100
AcDbPolyline
 90
        4
 70
     0
 43
0.0
 10
792.3837952133831
 20
218.020134138799
 10
801.8655789595646
 20
217.1905861878308
 10
800.0319250355747
 20
227.1323213227013
 10
792.3837957111969
 20
218.0201347320728
  0
LWPOLYLINE
  5
542
330
4D6
100
AcDbEntity
  8
D
  6
Continuous
100
AcDbPolyline
 90
        4
 70
     0
 43
0.0
 10
814.2240301366505
 20
201.3871378153146
 10
811.008051860164
 20
191.7992321641723
 10
803.116754459897
 20
197.123454155786
 10
814.2240301366505
 20
201.3871378153146
  0
LWPOLYLINE
  5
543
330
4D6
100
AcDbEntity
  8
D
  6
Continuous
100
AcDbPolyline
 90
        4
 70
     0
 43
0.0
 10
908.9134072644224
 20
137.5183464487682
 10
905.6969138705385
 20
127.9322634813127
 10
897.8061324416226
 20
133.2546627596585
 10
908.9138797176488
 20
137.5164469866338
  0
LWPOLYLINE
  5
544
330
4D6
100
AcDbEntity
  8
D
  6
Continuous
100
AcDbPolyline
 90
        4
 70
     0
 43
0.0
 10
935.8238145714272
 20
97.85485953601324
 10
937.6580227211957
 20
87.91129400497812
 10
928.1757871821242
 20
88.74277922759393
 10
935.8238145714272
 20
97.85485953601324
  0
LWPOLYLINE
  5
545
330
4D6
100
AcDbEntity
  8
D
  6
Continuous
100
AcDbPolyline
 90
        4
 70
     0
 43
0.0
 10
911.9771340978764
 20
37.11129953706086
 10
913.7293794169377
 20
22.04756443625638
 10
899.6210429172638
 20
24.23563427282215
 10
911.9771340978764
 20
37.11129953706086
  0
LWPOLYLINE
  5
546
330
4D6
100
AcDbEntity
  8
D
  6
Continuous
100
AcDbPolyline
 90
        4
 70
     0
 43
0.0
 10
870.315858996913
 20
22.48348212738279
 10
867.0989828467314
 20
12.89926823361429
 10
859.2082014178154
 20
18.22166751195982
 10
870.315858996913
 20
22.48348212738279
  0
LWPOLYLINE
  5
547
330
4D6
100
AcDbEntity
  8
D
  6
Continuous
100
AcDbPolyline
 90
        4
 70
     0
 43
0.0
 10
890.945286916914
 20
217.8974985888824
 10
892.6984191260158
 20
202.8304637541487
 10
878.5895724632205
 20
205.0201895463474
 10
890.9458083940694
 20
217.8958447258731
  0
LWPOLYLINE
  5
548
330
4D6
100
AcDbEntity
  8
D
  6
Continuous
100
AcDbPolyline
 90
        4
 70
     0
 43
0.0
 10
913.8127623377836
 20
217.1795673615684
 10
912.9633544075982
 20
207.4707902931791
 10
906.1651955175143
 20
208.0655521289095
 10
913.813316141131
 20
217.1776493404673
  0
LWPOLYLINE
  5
549
330
4D6
100
AcDbEntity
  8
D
  6
Continuous
100
AcDbPolyline
 90
        4
 70
     0
 43
0.0
 10
700.6144623901014
 20
424.937334671853
 10
702.3663955688348
 20
409.8735137888548
 10
688.258059042018
 20
412.0615836296304
 10
700.6144623901014
 20
424.937334671853
  0
LWPOLYLINE
  5
54A
330
4D6
100
AcDbEntity
  8
D
  6
Continuous
100
AcDbPolyline
 90
        4
 70
     0
 43
0.0
 10
758.1332479918378
 20
380.2871424593957
 10
754.9160906003631
 20
370.7028414093102
 10
747.0253091714471
 20
376.0252406876559
 10
758.1332479918378
 20
380.2871424593957
  0
LWPOLYLINE
  5
54B
330
4D6
100
AcDbEntity
  8
D
  6
Continuous
100
AcDbPolyline
 90
        4
 70
     0
 43
0.0
 10
778.0207709006531
 20
346.4569229063268
 10
779.8549873459556
 20
336.5133590846858
 10
770.373204046587
 20
337.3429076333898
 10
778.0214266052785
 20
346.4551111271553
  0
LWPOLYLINE
  5
54C
330
4D6
100
AcDbEntity
  8
D
  6
Continuous
100
AcDbPolyline
 90
        4
 70
     0
 43
0.0
 10
852.8225742151112
 20
316.4182771526405
 10
849.6060725808998
 20
306.8321970234231
 10
841.7146863184348
 20
312.1564493475059
 10
852.8225742151112
 20
316.4182771526405
  0
LWPOLYLINE
  5
54D
330
4D6
100
AcDbEntity
  8
D
  6
Continuous
100
AcDbPolyline
 90
        4
 70
     0
 43
0.0
 10
891.8028177108386
 20
336.500439144922
 10
893.6370258606071
 20
326.5568736138866
 10
884.1546038529045
 20
327.3883250302263
 10
891.8028177108386
 20
336.500439144922
  0
LWPOLYLINE
  5
54E
330
4D6
100
AcDbEntity
  8
D
  6
Continuous
100
AcDbPolyline
 90
        4
 70
     0
 43
0.0
 10
869.9138169729881
 20
398.682053799138
 10
871.6670934222125
 20
383.6150089429607
 10
857.5581030029457
 20
385.8047446657481
 10
869.9138169729881
 20
398.682053799138
  0
LWPOLYLINE
  5
54F
330
4D6
100
AcDbEntity
  8
D
  6
Continuous
100
AcDbPolyline
 90
        4
 70
     0
 43
0.0
 10
869.7915790249458
 20
455.8251131837246
 10
871.626527430311
 20
445.8796634183411
 10
862.1440122016752
 20
446.7110979303718
 10
869.7915790249458
 20
455.8251131837246
  0
LWPOLYLINE
  5
550
330
4D6
100
AcDbEntity
  8
D
  6
Continuous
100
AcDbPolyline
 90
        4
 70
     0
 43
0.0
 10
756.010928174986
 20
465.77790093161
 10
757.8451363247509
 20
455.8343354005747
 10
748.3626124169527
 20
456.6656805316463
 10
756.010928174986
 20
465.77790093161
  0
LWPOLYLINE
  5
551
330
4D6
100
AcDbEntity
  8
D
  6
Continuous
100
AcDbPolyline
 90
        4
 70
     0
 43
0.0
 10
891.420594935847
 20
431.4512420118908
 10
888.2040933016356
 20
421.8651618826741
 10
880.312617342242
 20
427.1894445952041
 10
891.420594935847
 20
431.4512420118908
  0
LWPOLYLINE
  5
552
330
4D6
100
AcDbEntity
  8
D
  6
Continuous
100
AcDbPolyline
 90
        4
 70
     0
 43
0.0
 10
796.7312687125736
 20
495.3201073186469
 10
793.5147670783622
 20
485.7340271894298
 10
785.6232393186469
 20
491.0582360841188
 10
796.7312687125736
 20
495.3201073186469
  0
LWPOLYLINE
  5
553
330
4D6
100
AcDbEntity
  8
D
  6
Continuous
100
AcDbPolyline
 90
        4
 70
     0
 43
0.0
 10
930.0178231164277
 20
546.4861236579941
 10
926.8021140223677
 20
536.8981267419249
 10
918.9105483660455
 20
542.2224398429025
 10
930.0178231164277
 20
546.4861236579941
  0
LWPOLYLINE
  5
554
330
4D6
100
AcDbEntity
  8
D
  6
Continuous
100
AcDbPolyline
 90
        4
 70
     0
 43
0.0
 10
848.8823470290622
 20
579.4666090093938
 10
850.6357677184055
 20
564.3995541317727
 10
836.5266325439147
 20
566.5892999400476
 10
848.8823470290622
 20
579.4666090093938
  0
LWPOLYLINE
  5
555
330
4D6
100
AcDbEntity
  8
D
  6
Continuous
100
AcDbPolyline
 90
        4
 70
     0
 43
0.0
 10
835.3292894333058
 20
610.3530721778975
 10
832.1119526479702
 20
600.7688319047065
 10
824.2211712190542
 20
606.0912311830525
 10
835.3292894333058
 20
610.3530721778975
  0
LWPOLYLINE
  5
556
330
4D6
100
AcDbEntity
  8
D
  6
Continuous
100
AcDbPolyline
 90
        4
 70
     0
 43
0.0
 10
825.7713224199574
 20
694.4688085582848
 10
827.6046122898547
 20
684.5270951739749
 10
818.1228289744608
 20
685.3566437240806
 10
825.770395712108
 20
694.4706590058804
  0
LWPOLYLINE
  5
557
330
4D6
100
AcDbEntity
  8
D
  6
Continuous
100
AcDbPolyline
 90
        4
 70
     0
 43
0.0
 10
939.5527135255138
 20
684.5141365760514
 10
941.3860120745771
 20
674.5725125727004
 10
931.904228149127
 20
675.4020605157507
 10
939.5517954928177
 20
684.5160763722006
  0
LWPOLYLINE
  5
558
330
4D6
100
AcDbEntity
  8
D
  6
Continuous
100
AcDbPolyline
 90
        4
 70
     0
 43
0.0
 10
740.6399632100324
 20
674.2219374846532
 10
737.423461575821
 20
664.6358573554362
 10
734.6286726415706
 20
671.9165314461793
 10
740.6399632100324
 20
674.2219374846532
  0
LWPOLYLINE
  5
559
330
4D6
100
AcDbEntity
  8
D
  6
Continuous
100
AcDbPolyline
 90
        4
 70
     0
 43
0.0
 10
733.999587587819
 20
585.1024687284826
 10
735.834637894462
 20
575.1571252050289
 10
726.3520208033474
 20
575.9884534285006
 10
733.999587587819
 20
585.1024687284826
  0
LWPOLYLINE
  5
55A
330
4D6
100
AcDbEntity
  8
D
  6
Continuous
100
AcDbPolyline
 90
        4
 70
     0
 43
0.0
 10
679.5831366862981
 20
605.7218798606655
 10
681.3357474182444
 20
590.6564988889409
 10
667.2265890848607
 20
592.8461388260935
 10
679.5831366862981
 20
605.7218798606655
  0
LWPOLYLINE
  5
55B
330
4D6
100
AcDbEntity
  8
D
  6
Continuous
100
AcDbPolyline
 90
        4
 70
     0
 43
0.0
 10
702.0411378676285
 20
559.1907111101946
 10
698.8246444771753
 20
549.6046279971583
 10
690.9338630482594
 20
554.9270272755043
 10
702.0411378676285
 20
559.1907111101946
  0
CIRCLE
  5
55C
330
4D6
100
AcDbEntity
  8
D
  6
Continuous
100
AcDbCircle
 10
87.57408998619303
 20
465.3824225755866
 30
0.0
 40
1.224236627415608
  0
CIRCLE
  5
55D
330
4D6
100
AcDbEntity
  8
D
  6
Continuous
100
AcDbCircle
 10
48.91789661408075
 20
489.9261099315418
 30
0.0
 40
1.224236627415608
  0
CIRCLE
  5
55E
330
4D6
100
AcDbEntity
  8
D
  6
Continuous
100
AcDbCircle
 10
37.94789983234159
 20
483.6596342665603
 30
0.0
 40
1.224236627415608
  0
CIRCLE
  5
55F
330
4D6
100
AcDbEntity
  8
D
  6
Continuous
100
AcDbCircle
 10
20.36767040228051
 20
483.2935023091991
 30
0.0
 40
1.224236627415608
  0
CIRCLE
  5
560
330
4D6
100
AcDbEntity
  8
D
  6
Continuous
100
AcDbCircle
 10
34.83572020670863
 20
658.2537702256452
 30
0.0
 40
1.224236627415608
  0
CIRCLE
  5
561
330
4D6
100
AcDbEntity
  8
D
  6
Continuous
100
AcDbCircle
 10
88.74153334112725
 20
668.211294207008
 30
0.0
 40
1.224236627415608
  0
CIRCLE
  5
562
330
4D6
100
AcDbEntity
  8
D
  6
Continuous
100
AcDbCircle
 10
82.88220529596629
 20
644.7818277678209
 30
0.0
 40
1.224236627415608
  0
CIRCLE
  5
563
330
4D6
100
AcDbEntity
  8
D
  6
Continuous
100
AcDbCircle
 10
94.0149249209694
 20
609.0518929374771
 30
0.0
 40
1.224236627415608
  0
CIRCLE
  5
564
330
4D6
100
AcDbEntity
  8
D
  6
Continuous
100
AcDbCircle
 10
124.4834258747387
 20
601.4373133659092
 30
0.0
 40
1.224236627415608
  0
CIRCLE
  5
565
330
4D6
100
AcDbEntity
  8
D
  6
Continuous
100
AcDbCircle
 10
133.8583483064613
 20
615.4949909952979
 30
0.0
 40
1.224236627415608
  0
CIRCLE
  5
566
330
4D6
100
AcDbEntity
  8
D
  6
Continuous
100
AcDbCircle
 10
135.6161454997418
 20
674.0686570932651
 30
0.0
 40
1.224236627415608
  0
CIRCLE
  5
567
330
4D6
100
AcDbEntity
  8
D
  6
Continuous
100
AcDbCircle
 10
82.88219309327769
 20
572.7362192120295
 30
0.0
 40
1.224236627415608
  0
CIRCLE
  5
568
330
4D6
100
AcDbEntity
  8
D
  6
Continuous
100
AcDbCircle
 10
52.99962250348608
 20
548.7210176012791
 30
0.0
 40
1.224236627415608
  0
CIRCLE
  5
569
330
4D6
100
AcDbEntity
  8
D
  6
Continuous
100
AcDbCircle
 10
43.62469397042059
 20
591.4797893845471
 30
0.0
 40
1.224236627415608
  0
CIRCLE
  5
56A
330
4D6
100
AcDbEntity
  8
D
  6
Continuous
100
AcDbCircle
 10
208.2718095989508
 20
665.8683423501334
 30
0.0
 40
1.224236627415608
  0
CIRCLE
  5
56B
330
4D6
100
AcDbEntity
  8
D
  6
Continuous
100
AcDbCircle
 10
235.8106526314828
 20
686.9548606559858
 30
0.0
 40
1.224236627415608
  0
CIRCLE
  5
56C
330
4D6
100
AcDbEntity
  8
D
  6
Continuous
100
AcDbCircle
 10
253.3886367669711
 20
638.3387185393813
 30
0.0
 40
1.224236627415608
  0
CIRCLE
  5
56D
330
4D6
100
AcDbEntity
  8
D
  6
Continuous
100
AcDbCircle
 10
204.7562152123896
 20
612.5663076903993
 30
0.0
 40
1.224236627415608
  0
CIRCLE
  5
56E
330
4D6
100
AcDbEntity
  8
D
  6
Continuous
100
AcDbCircle
 10
174.8736446225985
 20
587.3796282894414
 30
0.0
 40
1.224236627415608
  0
CIRCLE
  5
56F
330
4D6
100
AcDbEntity
  8
D
  6
Continuous
100
AcDbCircle
 10
150.850402077971
 20
560.4357433737923
 30
0.0
 40
1.224236627415608
  0
CIRCLE
  5
570
330
4D6
100
AcDbEntity
  8
D
  6
Continuous
100
AcDbCircle
 10
136.788012329042
 20
560.4357433737923
 30
0.0
 40
1.224236627415608
  0
CIRCLE
  5
571
330
4D6
100
AcDbEntity
  8
D
  6
Continuous
100
AcDbCircle
 10
122.1396922161366
 20
549.8924842208664
 30
0.0
 40
1.224236627415608
  0
CIRCLE
  5
572
330
4D6
100
AcDbEntity
  8
D
  6
Continuous
100
AcDbCircle
 10
205.3421516777134
 20
559.8500044786888
 30
0.0
 40
1.224236627415608
  0
CIRCLE
  5
573
330
4D6
100
AcDbEntity
  8
D
  6
Continuous
100
AcDbCircle
 10
222.9201358132018
 20
554.5783730404555
 30
0.0
 40
1.224236627415608
  0
CIRCLE
  5
574
330
4D6
100
AcDbEntity
  8
D
  6
Continuous
100
AcDbCircle
 10
253.9745732322926
 20
537.0062732110655
 30
0.0
 40
1.224236627415608
  0
CIRCLE
  5
575
330
4D6
100
AcDbEntity
  8
D
  6
Continuous
100
AcDbCircle
 10
248.7011816524532
 20
517.0912252483408
 30
0.0
 40
1.224236627415608
  0
CIRCLE
  5
576
330
4D6
100
AcDbEntity
  8
D
  6
Continuous
100
AcDbCircle
 10
109.249187600542
 20
498.9333902473868
 30
0.0
 40
1.224236627415608
  0
CIRCLE
  5
577
330
4D6
100
AcDbEntity
  8
D
  6
Continuous
100
AcDbCircle
 10
122.1397105201663
 20
494.8332328758211
 30
0.0
 40
1.224236627415608
  0
CIRCLE
  5
578
330
4D6
100
AcDbEntity
  8
D
  6
Continuous
100
AcDbCircle
 10
166.6706012228647
 20
450.3172481307818
 30
0.0
 40
1.224236627415608
  0
CIRCLE
  5
579
330
4D6
100
AcDbEntity
  8
D
  6
Continuous
100
AcDbCircle
 10
208.2718279029832
 20
455.0031406739113
 30
0.0
 40
1.224236627415608
  0
CIRCLE
  5
57A
330
4D6
100
AcDbEntity
  8
D
  6
Continuous
100
AcDbCircle
 10
273.3103667637479
 20
474.9181886366359
 30
0.0
 40
1.224236627415608
  0
CIRCLE
  5
57B
330
4D6
100
AcDbEntity
  8
D
  6
Continuous
100
AcDbCircle
 10
66.47609409112374
 20
435.0880927111866
 30
0.0
 40
1.224236627415608
  0
CIRCLE
  5
57C
330
4D6
100
AcDbEntity
  8
D
  6
Continuous
100
AcDbCircle
 10
34.01611447061714
 20
377.7154767575175
 30
0.0
 40
1.224236627415608
  0
CIRCLE
  5
57D
330
4D6
100
AcDbEntity
  8
D
  6
Continuous
100
AcDbCircle
 10
22.53555722677129
 20
379.2791363904062
 30
0.0
 40
1.224236627415608
  0
CIRCLE
  5
57E
330
4D6
100
AcDbEntity
  8
D
  6
Continuous
100
AcDbCircle
 10
35.4260740450527
 20
430.8239618119105
 30
0.0
 40
1.224236627415608
  0
CIRCLE
  5
57F
330
4D6
100
AcDbEntity
  8
D
  6
Continuous
100
AcDbCircle
 10
80.88232507860448
 20
371.3460712783681
 30
0.0
 40
1.224236627415608
  0
CIRCLE
  5
580
330
4D6
100
AcDbEntity
  8
D
  6
Continuous
100
AcDbCircle
 10
115.6660625576037
 20
391.0502588986365
 30
0.0
 40
1.224236627415608
  0
CIRCLE
  5
581
330
4D6
100
AcDbEntity
  8
D
  6
Continuous
100
AcDbCircle
 10
108.1295848835512
 20
377.7209578082884
 30
0.0
 40
1.224236627415608
  0
CIRCLE
  5
582
330
4D6
100
AcDbEntity
  8
D
  6
Continuous
100
AcDbCircle
 10
127.8403670144485
 20
385.8344470474303
 30
0.0
 40
1.224236627415608
  0
CIRCLE
  5
583
330
4D6
100
AcDbEntity
  8
D
  6
Continuous
100
AcDbCircle
 10
161.4646477977526
 20
396.2660744733817
 30
0.0
 40
1.224236627415608
  0
CIRCLE
  5
584
330
4D6
100
AcDbEntity
  8
D
  6
Continuous
100
AcDbCircle
 10
175.3781464501594
 20
386.4139825250172
 30
0.0
 40
1.224236627415608
  0
CIRCLE
  5
585
330
4D6
100
AcDbEntity
  8
D
  6
Continuous
100
AcDbCircle
 10
243.7861708138089
 20
392.788865331398
 30
0.0
 40
1.224236627415608
  0
CIRCLE
  5
586
330
4D6
100
AcDbEntity
  8
D
  6
Continuous
100
AcDbCircle
 10
265.8158724374448
 20
400.3228190929531
 30
0.0
 40
1.224236627415608
  0
CIRCLE
  5
587
330
4D6
100
AcDbEntity
  8
D
  6
Continuous
100
AcDbCircle
 10
211.9010781247248
 20
351.6418836580992
 30
0.0
 40
1.224236627415608
  0
CIRCLE
  5
588
330
4D6
100
AcDbEntity
  8
D
  6
Continuous
100
AcDbCircle
 10
193.3497465881824
 20
347.5851390385285
 30
0.0
 40
1.224236627415608
  0
CIRCLE
  5
589
330
4D6
100
AcDbEntity
  8
D
  6
Continuous
100
AcDbCircle
 10
184.653812218432
 20
336.5739724114492
 30
0.0
 40
1.224236627415608
  0
CIRCLE
  5
58A
330
4D6
100
AcDbEntity
  8
D
  6
Continuous
100
AcDbCircle
 10
117.9849759489998
 20
339.4716460758455
 30
0.0
 40
1.224236627415608
  0
CIRCLE
  5
58B
330
4D6
100
AcDbEntity
  8
D
  6
Continuous
100
AcDbCircle
 10
125.5214536230524
 20
328.4604831723068
 30
0.0
 40
1.224236627415608
  0
CIRCLE
  5
58C
330
4D6
100
AcDbEntity
  8
D
  6
Continuous
100
AcDbCircle
 10
130.7390179057093
 20
315.7107138360059
 30
0.0
 40
1.224236627415608
  0
CIRCLE
  5
58D
330
4D6
100
AcDbEntity
  8
D
  6
Continuous
100
AcDbCircle
 10
34.50399623724525
 20
326.7218767395448
 30
0.0
 40
1.224236627415608
  0
CIRCLE
  5
58E
330
4D6
100
AcDbEntity
  8
D
  6
Continuous
100
AcDbCircle
 10
25.2283304689754
 20
319.7674584555771
 30
0.0
 40
1.224236627415608
  0
CIRCLE
  5
58F
330
4D6
100
AcDbEntity
  8
D
  6
Continuous
100
AcDbCircle
 10
83.20123847000059
 20
266.4502429235652
 30
0.0
 40
1.224236627415608
  0
CIRCLE
  5
590
330
4D6
100
AcDbEntity
  8
D
  6
Continuous
100
AcDbCircle
 10
29.28643805593447
 20
273.9841929615811
 30
0.0
 40
1.224236627415608
  0
CIRCLE
  5
591
330
4D6
100
AcDbEntity
  8
D
  6
Continuous
100
AcDbCircle
 10
41.46074861412171
 20
260.0753601171846
 30
0.0
 40
1.224236627415608
  0
CIRCLE
  5
592
330
4D6
100
AcDbEntity
  8
D
  6
Continuous
100
AcDbCircle
 10
11.31483791791152
 20
236.8939633549326
 30
0.0
 40
1.224236627415608
  0
CIRCLE
  5
593
330
4D6
100
AcDbEntity
  8
D
  6
Continuous
100
AcDbCircle
 10
26.96752466453836
 20
220.0874456755207
 30
0.0
 40
1.224236627415608
  0
CIRCLE
  5
594
330
4D6
100
AcDbEntity
  8
D
  6
Continuous
100
AcDbCircle
 10
45.51885009973739
 20
217.1897720111238
 30
0.0
 40
1.224236627415608
  0
CIRCLE
  5
595
330
4D6
100
AcDbEntity
  8
D
  6
Continuous
100
AcDbCircle
 10
109.8687729777712
 20
232.8372187353607
 30
0.0
 40
1.224236627415608
  0
CIRCLE
  5
596
330
4D6
100
AcDbEntity
  8
D
  6
Continuous
100
AcDbCircle
 10
101.7525700065426
 20
211.9739601599179
 30
0.0
 40
1.224236627415608
  0
CIRCLE
  5
597
330
4D6
100
AcDbEntity
  8
D
  6
Continuous
100
AcDbCircle
 10
191.0308331967867
 20
243.2688461613118
 30
0.0
 40
1.224236627415608
  0
CIRCLE
  5
598
330
4D6
100
AcDbEntity
  8
D
  6
Continuous
100
AcDbCircle
 10
181.7551674285141
 20
230.5190768250118
 30
0.0
 40
1.224236627415608
  0
CIRCLE
  5
599
330
4D6
100
AcDbEntity
  8
D
  6
Continuous
100
AcDbCircle
 10
203.2051437549767
 20
224.1441902950914
 30
0.0
 40
1.224236627415608
  0
CIRCLE
  5
59A
330
4D6
100
AcDbEntity
  8
D
  6
Continuous
100
AcDbCircle
 10
215.379448211821
 20
207.9172118168067
 30
0.0
 40
1.224236627415608
  0
CIRCLE
  5
59B
330
4D6
100
AcDbEntity
  8
D
  6
Continuous
100
AcDbCircle
 10
242.6267080167704
 20
229.9395413474247
 30
0.0
 40
1.224236627415608
  0
CIRCLE
  5
59C
330
4D6
100
AcDbEntity
  8
D
  6
Continuous
100
AcDbCircle
 10
272.7726187129779
 20
253.7004735872638
 30
0.0
 40
1.224236627415608
  0
CIRCLE
  5
59D
330
4D6
100
AcDbEntity
  8
D
  6
Continuous
100
AcDbCircle
 10
305.2374366992412
 20
234.575821444583
 30
0.0
 40
1.224236627415608
  0
CIRCLE
  5
59E
330
4D6
100
AcDbEntity
  8
D
  6
Continuous
100
AcDbCircle
 10
266.9753291331454
 20
225.3032612502666
 30
0.0
 40
1.224236627415608
  0
CIRCLE
  5
59F
330
4D6
100
AcDbEntity
  8
D
  6
Continuous
100
AcDbCircle
 10
266.9753291331454
 20
200.9627935328392
 30
0.0
 40
1.224236627415608
  0
CIRCLE
  5
5A0
330
4D6
100
AcDbEntity
  8
D
  6
Continuous
100
AcDbCircle
 10
302.9185294091885
 20
166.7702338670483
 30
0.0
 40
1.224236627415608
  0
CIRCLE
  5
5A1
330
4D6
100
AcDbEntity
  8
D
  6
Continuous
100
AcDbCircle
 10
359.1522432146503
 20
187.0539569649043
 30
0.0
 40
1.224236627415608
  0
CIRCLE
  5
5A2
330
4D6
100
AcDbEntity
  8
D
  6
Continuous
100
AcDbCircle
 10
193.3497465881824
 20
159.2362726584138
 30
0.0
 40
1.224236627415608
  0
CIRCLE
  5
5A3
330
4D6
100
AcDbEntity
  8
D
  6
Continuous
100
AcDbCircle
 10
171.8997702617226
 20
165.6111591883341
 30
0.0
 40
1.224236627415608
  0
CIRCLE
  5
5A4
330
4D6
100
AcDbEntity
  8
D
  6
Continuous
100
AcDbCircle
 10
181.1754360299951
 20
178.3609285246343
 30
0.0
 40
1.224236627415608
  0
CIRCLE
  5
5A5
330
4D6
100
AcDbEntity
  8
D
  6
Continuous
100
AcDbCircle
 10
117.9849759490021
 20
136.0548758961611
 30
0.0
 40
1.224236627415608
  0
CIRCLE
  5
5A6
330
4D6
100
AcDbEntity
  8
D
  6
Continuous
100
AcDbCircle
 10
108.70931018073
 20
123.3051065598609
 30
0.0
 40
1.224236627415608
  0
CIRCLE
  5
5A7
330
4D6
100
AcDbEntity
  8
D
  6
Continuous
100
AcDbCircle
 10
130.1592865071898
 20
116.9302200299408
 30
0.0
 40
1.224236627415608
  0
CIRCLE
  5
5A8
330
4D6
100
AcDbEntity
  8
D
  6
Continuous
100
AcDbCircle
 10
41.46074861412444
 20
96.64649320854505
 30
0.0
 40
1.224236627415608
  0
CIRCLE
  5
5A9
330
4D6
100
AcDbEntity
  8
D
  6
Continuous
100
AcDbCircle
 10
20.01077228766189
 20
103.0213797384654
 30
0.0
 40
1.224236627415608
  0
CIRCLE
  5
5AA
330
4D6
100
AcDbEntity
  8
D
  6
Continuous
100
AcDbCircle
 10
29.28643805593447
 20
115.7711490747656
 30
0.0
 40
1.224236627415608
  0
CIRCLE
  5
5AB
330
4D6
100
AcDbEntity
  8
D
  6
Continuous
100
AcDbCircle
 10
28.12698136023891
 20
76.94230558827667
 30
0.0
 40
1.224236627415608
  0
CIRCLE
  5
5AC
330
4D6
100
AcDbEntity
  8
D
  6
Continuous
100
AcDbCircle
 10
105.2309400936388
 20
76.36277011068978
 30
0.0
 40
1.224236627415608
  0
CIRCLE
  5
5AD
330
4D6
100
AcDbEntity
  8
D
  6
Continuous
100
AcDbCircle
 10
117.9849759490048
 20
100.7032378281162
 30
0.0
 40
1.224236627415608
  0
CIRCLE
  5
5AE
330
4D6
100
AcDbEntity
  8
D
  6
Continuous
100
AcDbCircle
 10
88.4187966513141
 20
63.61300077438955
 30
0.0
 40
1.224236627415608
  0
CIRCLE
  5
5AF
330
4D6
100
AcDbEntity
  8
D
  6
Continuous
100
AcDbCircle
 10
68.70801452041951
 20
50.86323143808931
 30
0.0
 40
1.224236627415608
  0
CIRCLE
  5
5B0
330
4D6
100
AcDbEntity
  8
D
  6
Continuous
100
AcDbCircle
 10
116.2457939561282
 20
43.90880943058073
 30
0.0
 40
1.224236627415608
  0
CIRCLE
  5
5B1
330
4D6
100
AcDbEntity
  8
D
  6
Continuous
100
AcDbCircle
 10
104.0714772965975
 20
20.72741266832929
 30
0.0
 40
1.224236627415608
  0
CIRCLE
  5
5B2
330
4D6
100
AcDbEntity
  8
D
  6
Continuous
100
AcDbCircle
 10
158.5660091091827
 20
106.498588880449
 30
0.0
 40
1.224236627415608
  0
CIRCLE
  5
5B3
330
4D6
100
AcDbEntity
  8
D
  6
Continuous
100
AcDbCircle
 10
185.8132689141298
 20
84.47625934983171
 30
0.0
 40
1.224236627415608
  0
CIRCLE
  5
5B4
330
4D6
100
AcDbEntity
  8
D
  6
Continuous
100
AcDbCircle
 10
215.3794421104753
 20
115.1916135971785
 30
0.0
 40
1.224236627415608
  0
CIRCLE
  5
5B5
330
4D6
100
AcDbEntity
  8
D
  6
Continuous
100
AcDbCircle
 10
268.1347797274975
 20
94.32835502173566
 30
0.0
 40
1.224236627415608
  0
CIRCLE
  5
5B6
330
4D6
100
AcDbEntity
  8
D
  6
Continuous
100
AcDbCircle
 10
238.5686004298091
 20
43.32927767653359
 30
0.0
 40
1.224236627415608
  0
CIRCLE
  5
5B7
330
4D6
100
AcDbEntity
  8
D
  6
Continuous
100
AcDbCircle
 10
280.3090902856852
 20
63.61300077438887
 30
0.0
 40
1.224236627415608
  0
CIRCLE
  5
5B8
330
4D6
100
AcDbEntity
  8
D
  6
Continuous
100
AcDbCircle
 10
318.571203953124
 20
67.66974539396006
 30
0.0
 40
1.224236627415608
  0
CIRCLE
  5
5B9
330
4D6
100
AcDbEntity
  8
D
  6
Continuous
100
AcDbCircle
 10
360.3116938090025
 20
113.4530071644165
 30
0.0
 40
1.224236627415608
  0
CIRCLE
  5
5BA
330
4D6
100
AcDbEntity
  8
D
  6
Continuous
100
AcDbCircle
 10
377.7035625485037
 20
75.78323463310221
 30
0.0
 40
1.224236627415608
  0
CIRCLE
  5
5BB
330
4D6
100
AcDbEntity
  8
D
  6
Continuous
100
AcDbCircle
 10
346.3981951565952
 20
54.3404405800718
 30
0.0
 40
1.224236627415608
  0
CIRCLE
  5
5BC
330
4D6
100
AcDbEntity
  8
D
  6
Continuous
100
AcDbCircle
 10
337.7022607868448
 20
13.19345518323325
 30
0.0
 40
1.224236627415608
  0
CIRCLE
  5
5BD
330
4D6
100
AcDbEntity
  8
D
  6
Continuous
100
AcDbCircle
 10
416.545407614462
 20
140.1116167921928
 30
0.0
 40
1.224236627415608
  0
CIRCLE
  5
5BE
330
4D6
100
AcDbEntity
  8
D
  6
Continuous
100
AcDbCircle
 10
395.6751626865239
 20
191.6902296149824
 30
0.0
 40
1.224236627415608
  0
CIRCLE
  5
5BF
330
4D6
100
AcDbEntity
  8
D
  6
Continuous
100
AcDbCircle
 10
396.2548879837
 20
250.2232607217395
 30
0.0
 40
1.224236627415608
  0
CIRCLE
  5
5C0
330
4D6
100
AcDbEntity
  8
D
  6
Continuous
100
AcDbCircle
 10
489.011527362381
 20
198.6446478989499
 30
0.0
 40
1.224236627415608
  0
CIRCLE
  5
5C1
330
4D6
100
AcDbEntity
  8
D
  6
Continuous
100
AcDbCircle
 10
512.7804170802369
 20
233.996282243455
 30
0.0
 40
1.224236627415608
  0
CIRCLE
  5
5C2
330
4D6
100
AcDbEntity
  8
D
  6
Continuous
100
AcDbCircle
 10
515.6790618701543
 20
180.0995312338559
 30
0.0
 40
1.224236627415608
  0
CIRCLE
  5
5C3
330
4D6
100
AcDbEntity
  8
D
  6
Continuous
100
AcDbCircle
 10
510.4614975874979
 20
127.3618474558918
 30
0.0
 40
1.224236627415608
  0
CIRCLE
  5
5C4
330
4D6
100
AcDbEntity
  8
D
  6
Continuous
100
AcDbCircle
 10
557.9992770232088
 20
158.6567371808262
 30
0.0
 40
1.224236627415608
  0
CIRCLE
  5
5C5
330
4D6
100
AcDbEntity
  8
D
  6
Continuous
100
AcDbCircle
 10
574.8114204655317
 20
129.6799893662408
 30
0.0
 40
1.224236627415608
  0
CIRCLE
  5
5C6
330
4D6
100
AcDbEntity
  8
D
  6
Continuous
100
AcDbCircle
 10
606.1167817560968
 20
213.7125591455997
 30
0.0
 40
1.224236627415608
  0
CIRCLE
  5
5C7
330
4D6
100
AcDbEntity
  8
D
  6
Continuous
100
AcDbCircle
 10
599.1600354805632
 20
276.8818703495158
 30
0.0
 40
1.224236627415608
  0
CIRCLE
  5
5C8
330
4D6
100
AcDbEntity
  8
D
  6
Continuous
100
AcDbCircle
 10
642.0599820321399
 20
282.097685924261
 30
0.0
 40
1.224236627415608
  0
CIRCLE
  5
5C9
330
4D6
100
AcDbEntity
  8
D
  6
Continuous
100
AcDbCircle
 10
638.5816058436999
 20
189.9516269057601
 30
0.0
 40
1.224236627415608
  0
CIRCLE
  5
5CA
330
4D6
100
AcDbEntity
  8
D
  6
Continuous
100
AcDbCircle
 10
641.4802506336177
 20
158.0772017032386
 30
0.0
 40
1.224236627415608
  0
CIRCLE
  5
5CB
330
4D6
100
AcDbEntity
  8
D
  6
Continuous
100
AcDbCircle
 10
658.8721193731194
 20
128.520918411067
 30
0.0
 40
1.224236627415608
  0
CIRCLE
  5
5CC
330
4D6
100
AcDbEntity
  8
D
  6
Continuous
100
AcDbCircle
 10
674.5248061197458
 20
115.1916135971792
 30
0.0
 40
1.224236627415608
  0
CIRCLE
  5
5CD
330
4D6
100
AcDbEntity
  8
D
  6
Continuous
100
AcDbCircle
 10
673.9450747212245
 20
61.87439806516704
 30
0.0
 40
1.224236627415608
  0
CIRCLE
  5
5CE
330
4D6
100
AcDbEntity
  8
D
  6
Continuous
100
AcDbCircle
 10
630.4653967711288
 20
52.60183787085066
 30
0.0
 40
1.224236627415608
  0
CIRCLE
  5
5CF
330
4D6
100
AcDbEntity
  8
D
  6
Continuous
100
AcDbCircle
 10
671.0464299313057
 20
31.15904381782025
 30
0.0
 40
1.224236627415608
  0
CIRCLE
  5
5D0
330
4D6
100
AcDbEntity
  8
D
  6
Continuous
100
AcDbCircle
 10
584.0870801324581
 20
31.73857929540782
 30
0.0
 40
1.224236627415608
  0
CIRCLE
  5
5D1
330
4D6
100
AcDbEntity
  8
D
  6
Continuous
100
AcDbCircle
 10
545.3234664986835
 20
49.50396808234541
 30
0.0
 40
1.224236627415608
  0
CIRCLE
  5
5D2
330
4D6
100
AcDbEntity
  8
D
  6
Continuous
100
AcDbCircle
 10
507.676740483837
 20
77.81916572893829
 30
0.0
 40
1.224236627415608
  0
CIRCLE
  5
5D3
330
4D6
100
AcDbEntity
  8
D
  6
Continuous
100
AcDbCircle
 10
457.8396512748564
 20
54.5218514452572
 30
0.0
 40
1.224236627415608
  0
CIRCLE
  5
5D4
330
4D6
100
AcDbEntity
  8
D
  6
Continuous
100
AcDbCircle
 10
454.612784686909
 20
127.2811583457017
 30
0.0
 40
1.224236627415608
  0
CIRCLE
  5
5D5
330
4D6
100
AcDbEntity
  8
D
  6
Continuous
100
AcDbCircle
 10
474.6910446628385
 20
35.16715900596137
 30
0.0
 40
1.224236627415608
  0
CIRCLE
  5
5D6
330
4D6
100
AcDbEntity
  8
D
  6
Continuous
100
AcDbCircle
 10
450.6688515493702
 20
32.65821918627546
 30
0.0
 40
1.224236627415608
  0
CIRCLE
  5
5D7
330
4D6
100
AcDbEntity
  8
D
  6
Continuous
100
AcDbCircle
 10
432.7418400329666
 20
26.56507802837928
 30
0.0
 40
1.224236627415608
  0
CIRCLE
  5
5D8
330
4D6
100
AcDbEntity
  8
D
  6
Continuous
100
AcDbCircle
 10
711.345904372019
 20
41.37112760620857
 30
0.0
 40
1.224236627415608
  0
CIRCLE
  5
5D9
330
4D6
100
AcDbEntity
  8
D
  6
Continuous
100
AcDbCircle
 10
746.3337806170489
 20
22.07393407044697
 30
0.0
 40
1.224236627415608
  0
CIRCLE
  5
5DA
330
4D6
100
AcDbEntity
  8
D
  6
Continuous
100
AcDbCircle
 10
766.0395962539674
 20
45.39137781096679
 30
0.0
 40
1.224236627415608
  0
CIRCLE
  5
5DB
330
4D6
100
AcDbEntity
  8
D
  6
Continuous
100
AcDbCircle
 10
790.5713248037605
 20
16.44558378378508
 30
0.0
 40
1.224236627415608
  0
CIRCLE
  5
5DC
330
4D6
100
AcDbEntity
  8
D
  6
Continuous
100
AcDbCircle
 10
832.3959094833604
 20
20.06380710629799
 30
0.0
 40
1.224236627415608
  0
CIRCLE
  5
5DD
330
4D6
100
AcDbEntity
  8
D
  6
Continuous
100
AcDbCircle
 10
751.561857515338
 20
108.9113087049132
 30
0.0
 40
1.224236627415608
  0
CIRCLE
  5
5DE
330
4D6
100
AcDbEntity
  8
D
  6
Continuous
100
AcDbCircle
 10
743.1165053417967
 20
124.9923020768679
 30
0.0
 40
1.224236627415608
  0
CIRCLE
  5
5DF
330
4D6
100
AcDbEntity
  8
D
  6
Continuous
100
AcDbCircle
 10
724.2150115743648
 20
187.3061597711567
 30
0.0
 40
1.224236627415608
  0
CIRCLE
  5
5E0
330
4D6
100
AcDbEntity
  8
D
  6
Continuous
100
AcDbCircle
 10
688.0206555757782
 20
211.8296804348743
 30
0.0
 40
1.224236627415608
  0
CIRCLE
  5
5E1
330
4D6
100
AcDbEntity
  8
D
  6
Continuous
100
AcDbCircle
 10
677.1623438951278
 20
205.3972801072607
 30
0.0
 40
1.224236627415608
  0
CIRCLE
  5
5E2
330
4D6
100
AcDbEntity
  8
D
  6
Continuous
100
AcDbCircle
 10
678.7709876340991
 20
258.0625373101286
 30
0.0
 40
1.224236627415608
  0
CIRCLE
  5
5E3
330
4D6
100
AcDbEntity
  8
D
  6
Continuous
100
AcDbCircle
 10
752.3661732834785
 20
161.1745427490753
 30
0.0
 40
1.224236627415608
  0
CIRCLE
  5
5E4
330
4D6
100
AcDbEntity
  8
D
  6
Continuous
100
AcDbCircle
 10
757.9964080658406
 20
183.6879364486433
 30
0.0
 40
1.224236627415608
  0
CIRCLE
  5
5E5
330
4D6
100
AcDbEntity
  8
D
  6
Continuous
100
AcDbCircle
 10
830.385113961665
 20
123.3842057185043
 30
0.0
 40
1.224236627415608
  0
CIRCLE
  5
5E6
330
4D6
100
AcDbEntity
  8
D
  6
Continuous
100
AcDbCircle
 10
834.4067111064019
 20
79.1614683603193
 30
0.0
 40
1.224236627415608
  0
CIRCLE
  5
5E7
330
4D6
100
AcDbEntity
  8
D
  6
Continuous
100
AcDbCircle
 10
857.3298020185698
 20
60.6683248655097
 30
0.0
 40
1.224236627415608
  0
CIRCLE
  5
5E8
330
4D6
100
AcDbEntity
  8
D
  6
Continuous
100
AcDbCircle
 10
879.8507350466675
 20
35.74278104308632
 30
0.0
 40
1.224236627415608
  0
CIRCLE
  5
5E9
330
4D6
100
AcDbEntity
  8
D
  6
Continuous
100
AcDbCircle
 10
872.6118626266812
 20
86.7999418875911
 30
0.0
 40
1.224236627415608
  0
CIRCLE
  5
5EA
330
4D6
100
AcDbEntity
  8
D
  6
Continuous
100
AcDbCircle
 10
914.8386112916974
 20
116.5497822321847
 30
0.0
 40
1.224236627415608
  0
CIRCLE
  5
5EB
330
4D6
100
AcDbEntity
  8
D
  6
Continuous
100
AcDbCircle
 10
874.6226581483766
 20
144.6915224948748
 30
0.0
 40
1.224236627415608
  0
CIRCLE
  5
5EC
330
4D6
100
AcDbEntity
  8
D
  6
Continuous
100
AcDbCircle
 10
826.7656808023453
 20
189.7183098940113
 30
0.0
 40
1.224236627415608
  0
CIRCLE
  5
5ED
330
4D6
100
AcDbEntity
  8
D
  6
Continuous
100
AcDbCircle
 10
840.0369458887631
 20
174.8433897217146
 30
0.0
 40
1.224236627415608
  0
CIRCLE
  5
5EE
330
4D6
100
AcDbEntity
  8
D
  6
Continuous
100
AcDbCircle
 10
918.0558804656043
 20
184.4919864895951
 30
0.0
 40
1.224236627415608
  0
CIRCLE
  5
5EF
330
4D6
100
AcDbEntity
  8
D
  6
Continuous
100
AcDbCircle
 10
891.915514278186
 20
181.275786325788
 30
0.0
 40
1.224236627415608
  0
CIRCLE
  5
5F0
330
4D6
100
AcDbEntity
  8
D
  6
Continuous
100
AcDbCircle
 10
859.7427554243363
 20
201.3770336260409
 30
0.0
 40
1.224236627415608
  0
CIRCLE
  5
5F1
330
4D6
100
AcDbEntity
  8
D
  6
Continuous
100
AcDbCircle
 10
838.4283021497927
 20
226.3025737249245
 30
0.0
 40
1.224236627415608
  0
CIRCLE
  5
5F2
330
4D6
100
AcDbEntity
  8
D
  6
Continuous
100
AcDbCircle
 10
757.1920861963558
 20
216.6539732335043
 30
0.0
 40
1.224236627415608
  0
CIRCLE
  5
5F3
330
4D6
100
AcDbEntity
  8
D
  6
Continuous
100
AcDbCircle
 10
759.2028878193946
 20
240.7754670149766
 30
0.0
 40
1.224236627415608
  0
CIRCLE
  5
5F4
330
4D6
100
AcDbEntity
  8
D
  6
Continuous
100
AcDbCircle
 10
766.8439181234512
 20
247.6098867777559
 30
0.0
 40
1.224236627415608
  0
CIRCLE
  5
5F5
330
4D6
100
AcDbEntity
  8
D
  6
Continuous
100
AcDbCircle
 10
725.4214913279197
 20
280.5759272861569
 30
0.0
 40
1.224236627415608
  0
CIRCLE
  5
5F6
330
4D6
100
AcDbEntity
  8
D
  6
Continuous
100
AcDbCircle
 10
721.8020581685992
 20
291.4306009772351
 30
0.0
 40
1.224236627415608
  0
CIRCLE
  5
5F7
330
4D6
100
AcDbEntity
  8
D
  6
Continuous
100
AcDbCircle
 10
700.4876048940564
 20
291.0285778185289
 30
0.0
 40
1.224236627415608
  0
CIRCLE
  5
5F8
330
4D6
100
AcDbEntity
  8
D
  6
Continuous
100
AcDbCircle
 10
679.1731516195127
 20
311.129817671703
 30
0.0
 40
1.224236627415608
  0
CIRCLE
  5
5F9
330
4D6
100
AcDbEntity
  8
D
  6
Continuous
100
AcDbCircle
 10
797.0058875569471
 20
304.2953979089227
 30
0.0
 40
1.224236627415608
  0
CIRCLE
  5
5FA
330
4D6
100
AcDbEntity
  8
D
  6
Continuous
100
AcDbCircle
 10
806.2555554986288
 20
286.2042775728194
 30
0.0
 40
1.224236627415608
  0
CIRCLE
  5
5FB
330
4D6
100
AcDbEntity
  8
D
  6
Continuous
100
AcDbCircle
 10
820.3311363531861
 20
297.0589475403578
 30
0.0
 40
1.224236627415608
  0
CIRCLE
  5
5FC
330
4D6
100
AcDbEntity
  8
D
  6
Continuous
100
AcDbCircle
 10
842.0477536131452
 20
278.1637771633027
 30
0.0
 40
1.224236627415608
  0
CIRCLE
  5
5FD
330
4D6
100
AcDbEntity
  8
D
  6
Continuous
100
AcDbCircle
 10
858.9384518588818
 20
260.0726568271989
 30
0.0
 40
1.224236627415608
  0
CIRCLE
  5
5FE
330
4D6
100
AcDbEntity
  8
D
  6
Continuous
100
AcDbCircle
 10
891.5133685968017
 20
282.1840273680618
 30
0.0
 40
1.224236627415608
  0
CIRCLE
  5
5FF
330
4D6
100
AcDbEntity
  8
D
  6
Continuous
100
AcDbCircle
 10
922.0774837116819
 20
290.2245240540392
 30
0.0
 40
1.224236627415608
  0
CIRCLE
  5
600
330
4D6
100
AcDbEntity
  8
D
  6
Continuous
100
AcDbCircle
 10
912.425657885929
 20
313.5419677945597
 30
0.0
 40
1.224236627415608
  0
CIRCLE
  5
601
330
4D6
100
AcDbEntity
  8
D
  6
Continuous
100
AcDbCircle
 10
925.2947589869314
 20
344.0958581801051
 30
0.0
 40
1.224236627415608
  0
CIRCLE
  5
602
330
4D6
100
AcDbEntity
  8
D
  6
Continuous
100
AcDbCircle
 10
921.6753197262674
 20
362.5890016749147
 30
0.0
 40
1.224236627415608
  0
CIRCLE
  5
603
330
4D6
100
AcDbEntity
  8
D
  6
Continuous
100
AcDbCircle
 10
871.4053828731244
 20
346.50800457942
 30
0.0
 40
1.224236627415608
  0
CIRCLE
  5
604
330
4D6
100
AcDbEntity
  8
D
  6
Continuous
100
AcDbCircle
 10
842.4498992945269
 20
332.0351112893693
 30
0.0
 40
1.224236627415608
  0
CIRCLE
  5
605
330
4D6
100
AcDbEntity
  8
D
  6
Continuous
100
AcDbCircle
 10
843.2542211640107
 20
365.4031749564756
 30
0.0
 40
1.224236627415608
  0
CIRCLE
  5
606
330
4D6
100
AcDbEntity
  8
D
  6
Continuous
100
AcDbCircle
 10
844.8628588016359
 20
385.504418533189
 30
0.0
 40
1.224236627415608
  0
CIRCLE
  5
607
330
4D6
100
AcDbEntity
  8
D
  6
Continuous
100
AcDbCircle
 10
825.5592010487903
 20
390.7307419376048
 30
0.0
 40
1.224236627415608
  0
CIRCLE
  5
608
330
4D6
100
AcDbEntity
  8
D
  6
Continuous
100
AcDbCircle
 10
742.3121895736581
 20
354.5485012653974
 30
0.0
 40
1.224236627415608
  0
CIRCLE
  5
609
330
4D6
100
AcDbEntity
  8
D
  6
Continuous
100
AcDbCircle
 10
761.6158473265064
 20
320.3763838337993
 30
0.0
 40
1.224236627415608
  0
CIRCLE
  5
60A
330
4D6
100
AcDbEntity
  8
D
  6
Continuous
100
AcDbCircle
 10
698.4768032710176
 20
354.1464743831521
 30
0.0
 40
1.224236627415608
  0
CIRCLE
  5
60B
330
4D6
100
AcDbEntity
  8
D
  6
Continuous
100
AcDbCircle
 10
681.9882629093486
 20
362.5889979513749
 30
0.0
 40
1.224236627415608
  0
CIRCLE
  5
60C
330
4D6
100
AcDbEntity
  8
D
  6
Continuous
100
AcDbCircle
 10
682.3904207934188
 20
345.3019276562227
 30
0.0
 40
1.224236627415608
  0
CIRCLE
  5
60D
330
4D6
100
AcDbEntity
  8
D
  6
Continuous
100
AcDbCircle
 10
725.0193273425061
 20
408.4198353914633
 30
0.0
 40
1.224236627415608
  0
CIRCLE
  5
60E
330
4D6
100
AcDbEntity
  8
D
  6
Continuous
100
AcDbCircle
 10
734.2689952841879
 20
376.6598718062596
 30
0.0
 40
1.224236627415608
  0
CIRCLE
  5
60F
330
4D6
100
AcDbEntity
  8
D
  6
Continuous
100
AcDbCircle
 10
764.0288007322692
 20
426.1089288453211
 30
0.0
 40
1.224236627415608
  0
CIRCLE
  5
610
330
4D6
100
AcDbEntity
  8
D
  6
Continuous
100
AcDbCircle
 10
785.3432540068129
 20
415.2542588777833
 30
0.0
 40
1.224236627415608
  0
CIRCLE
  5
611
330
4D6
100
AcDbEntity
  8
D
  6
Continuous
100
AcDbCircle
 10
785.7454118908831
 20
451.8385227086969
 30
0.0
 40
1.224236627415608
  0
CIRCLE
  5
612
330
4D6
100
AcDbEntity
  8
D
  6
Continuous
100
AcDbCircle
 10
768.4525557610764
 20
448.220299386184
 30
0.0
 40
1.224236627415608
  0
CIRCLE
  5
613
330
4D6
100
AcDbEntity
  8
D
  6
Continuous
100
AcDbCircle
 10
697.6724814015329
 20
454.2506728315523
 30
0.0
 40
1.224236627415608
  0
CIRCLE
  5
614
330
4D6
100
AcDbEntity
  8
D
  6
Continuous
100
AcDbCircle
 10
729.0409183858969
 20
481.5883630532912
 30
0.0
 40
1.224236627415608
  0
CIRCLE
  5
615
330
4D6
100
AcDbEntity
  8
D
  6
Continuous
100
AcDbCircle
 10
726.6279588787879
 20
464.301292758139
 30
0.0
 40
1.224236627415608
  0
CIRCLE
  5
616
330
4D6
100
AcDbEntity
  8
D
  6
Continuous
100
AcDbCircle
 10
768.0503856743176
 20
475.9600127666292
 30
0.0
 40
1.224236627415608
  0
CIRCLE
  5
617
330
4D6
100
AcDbEntity
  8
D
  6
Continuous
100
AcDbCircle
 10
820.7332820345696
 20
498.8754296249031
 30
0.0
 40
1.224236627415608
  0
CIRCLE
  5
618
330
4D6
100
AcDbEntity
  8
D
  6
Continuous
100
AcDbCircle
 10
829.5807859908359
 20
479.1762092068961
 30
0.0
 40
1.224236627415608
  0
CIRCLE
  5
619
330
4D6
100
AcDbEntity
  8
D
  6
Continuous
100
AcDbCircle
 10
926.9033844218698
 20
449.8283920210081
 30
0.0
 40
1.224236627415608
  0
CIRCLE
  5
61A
330
4D6
100
AcDbEntity
  8
D
  6
Continuous
100
AcDbCircle
 10
922.881793378479
 20
434.1494218077596
 30
0.0
 40
1.224236627415608
  0
CIRCLE
  5
61B
330
4D6
100
AcDbEntity
  8
D
  6
Continuous
100
AcDbCircle
 10
920.066675987297
 20
407.6157779034324
 30
0.0
 40
1.224236627415608
  0
CIRCLE
  5
61C
330
4D6
100
AcDbEntity
  8
D
  6
Continuous
100
AcDbCircle
 10
926.9033905232131
 20
396.3590810536487
 30
0.0
 40
1.224236627415608
  0
CIRCLE
  5
61D
330
4D6
100
AcDbEntity
  8
D
  6
Continuous
100
AcDbCircle
 10
843.2542089613221
 20
489.2268291334829
 30
0.0
 40
1.224236627415608
  0
CIRCLE
  5
61E
330
4D6
100
AcDbEntity
  8
D
  6
Continuous
100
AcDbCircle
 10
847.6779639901265
 20
512.5442728740031
 30
0.0
 40
1.224236627415608
  0
CIRCLE
  5
61F
330
4D6
100
AcDbEntity
  8
D
  6
Continuous
100
AcDbCircle
 10
935.3487365954084
 20
507.3179494695873
 30
0.0
 40
1.224236627415608
  0
CIRCLE
  5
620
330
4D6
100
AcDbEntity
  8
D
  6
Continuous
100
AcDbCircle
 10
927.7077062913536
 20
494.855179420146
 30
0.0
 40
1.224236627415608
  0
CIRCLE
  5
621
330
4D6
100
AcDbEntity
  8
D
  6
Continuous
100
AcDbCircle
 10
912.8278096686568
 20
513.7503497972016
 30
0.0
 40
1.224236627415608
  0
CIRCLE
  5
622
330
4D6
100
AcDbEntity
  8
D
  6
Continuous
100
AcDbCircle
 10
897.5457490605427
 20
528.6252699694985
 30
0.0
 40
1.224236627415608
  0
CIRCLE
  5
623
330
4D6
100
AcDbEntity
  8
D
  6
Continuous
100
AcDbCircle
 10
867.3837857283902
 20
542.6961438243834
 30
0.0
 40
1.224236627415608
  0
CIRCLE
  5
624
330
4D6
100
AcDbEntity
  8
D
  6
Continuous
100
AcDbCircle
 10
850.8952453667221
 20
543.9022170240414
 30
0.0
 40
1.224236627415608
  0
CIRCLE
  5
625
330
4D6
100
AcDbEntity
  8
D
  6
Continuous
100
AcDbCircle
 10
813.092251730513
 20
533.4495702152094
 30
0.0
 40
1.224236627415608
  0
CIRCLE
  5
626
330
4D6
100
AcDbEntity
  8
D
  6
Continuous
100
AcDbCircle
 10
766.4417480366924
 20
530.6353969336483
 30
0.0
 40
1.224236627415608
  0
CIRCLE
  5
627
330
4D6
100
AcDbEntity
  8
D
  6
Continuous
100
AcDbCircle
 10
764.0287946309268
 20
514.554403561694
 30
0.0
 40
1.224236627415608
  0
CIRCLE
  5
628
330
4D6
100
AcDbEntity
  8
D
  6
Continuous
100
AcDbCircle
 10
731.4538717916626
 20
534.6556471384072
 30
0.0
 40
1.224236627415608
  0
CIRCLE
  5
629
330
4D6
100
AcDbEntity
  8
D
  6
Continuous
100
AcDbCircle
 10
688.422807358505
 20
519.7807269661103
 30
0.0
 40
1.224236627415608
  0
CIRCLE
  5
62A
330
4D6
100
AcDbEntity
  8
D
  6
Continuous
100
AcDbCircle
 10
679.1731394168232
 20
517.7706037255011
 30
0.0
 40
1.224236627415608
  0
CIRCLE
  5
62B
330
4D6
100
AcDbEntity
  8
D
  6
Continuous
100
AcDbCircle
 10
769.6590233119418
 20
585.3107848242057
 30
0.0
 40
1.224236627415608
  0
CIRCLE
  5
62C
330
4D6
100
AcDbEntity
  8
D
  6
Continuous
100
AcDbCircle
 10
708.9329387635648
 20
576.4662380972763
 30
0.0
 40
1.224236627415608
  0
CIRCLE
  5
62D
330
4D6
100
AcDbEntity
  8
D
  6
Continuous
100
AcDbCircle
 10
689.6292810107166
 20
573.2500379334692
 30
0.0
 40
1.224236627415608
  0
CIRCLE
  5
62E
330
4D6
100
AcDbEntity
  8
D
  6
Continuous
100
AcDbCircle
 10
690.8357607642715
 20
632.3476991874913
 30
0.0
 40
1.224236627415608
  0
CIRCLE
  5
62F
330
4D6
100
AcDbEntity
  8
D
  6
Continuous
100
AcDbCircle
 10
673.5429046344648
 20
633.1517492284429
 30
0.0
 40
1.224236627415608
  0
CIRCLE
  5
630
330
4D6
100
AcDbEntity
  8
D
  6
Continuous
100
AcDbCircle
 10
675.5537001561602
 20
619.8849291380498
 30
0.0
 40
1.224236627415608
  0
CIRCLE
  5
631
330
4D6
100
AcDbEntity
  8
D
  6
Continuous
100
AcDbCircle
 10
751.9640031967215
 20
638.7800995151049
 30
0.0
 40
1.224236627415608
  0
CIRCLE
  5
632
330
4D6
100
AcDbEntity
  8
D
  6
Continuous
100
AcDbCircle
 10
768.4525435583878
 20
648.8307194416916
 30
0.0
 40
1.224236627415608
  0
CIRCLE
  5
633
330
4D6
100
AcDbEntity
  8
D
  6
Continuous
100
AcDbCircle
 10
773.2784564712651
 20
637.1719994332013
 30
0.0
 40
1.224236627415608
  0
CIRCLE
  5
634
330
4D6
100
AcDbEntity
  8
D
  6
Continuous
100
AcDbCircle
 10
760.4093492689167
 20
616.2667058155369
 30
0.0
 40
1.224236627415608
  0
CIRCLE
  5
635
330
4D6
100
AcDbEntity
  8
D
  6
Continuous
100
AcDbCircle
 10
807.8641687308786
 20
590.537111952161
 30
0.0
 40
1.224236627415608
  0
CIRCLE
  5
636
330
4D6
100
AcDbEntity
  8
D
  6
Continuous
100
AcDbCircle
 10
827.9721422518674
 20
592.1452120340646
 30
0.0
 40
1.224236627415608
  0
CIRCLE
  5
637
330
4D6
100
AcDbEntity
  8
D
  6
Continuous
100
AcDbCircle
 10
850.8952331640353
 20
595.7634353565777
 30
0.0
 40
1.224236627415608
  0
CIRCLE
  5
638
330
4D6
100
AcDbEntity
  8
D
  6
Continuous
100
AcDbCircle
 10
844.4606826135328
 20
613.8545519691411
 30
0.0
 40
1.224236627415608
  0
CIRCLE
  5
639
330
4D6
100
AcDbEntity
  8
D
  6
Continuous
100
AcDbCircle
 10
907.1975626836088
 20
603.4019051603091
 30
0.0
 40
1.224236627415608
  0
CIRCLE
  5
63A
330
4D6
100
AcDbEntity
  8
D
  6
Continuous
100
AcDbCircle
 10
919.2623480164698
 20
606.21607844187
 30
0.0
 40
1.224236627415608
  0
CIRCLE
  5
63B
330
4D6
100
AcDbEntity
  8
D
  6
Continuous
100
AcDbCircle
 10
932.1314491174721
 20
610.2363286466289
 30
0.0
 40
1.224236627415608
  0
CIRCLE
  5
63C
330
4D6
100
AcDbEntity
  8
D
  6
Continuous
100
AcDbCircle
 10
891.9155020754974
 20
658.4793162095725
 30
0.0
 40
1.224236627415608
  0
CIRCLE
  5
63D
330
4D6
100
AcDbEntity
  8
D
  6
Continuous
100
AcDbCircle
 10
910.414837958861
 20
671.7461362999659
 30
0.0
 40
1.224236627415608
  0
CIRCLE
  5
63E
330
4D6
100
AcDbEntity
  8
D
  6
Continuous
100
AcDbCircle
 10
936.5552041462793
 20
659.2833625269841
 30
0.0
 40
1.224236627415608
  0
CIRCLE
  5
63F
330
4D6
100
AcDbEntity
  8
D
  6
Continuous
100
AcDbCircle
 10
876.6334414673861
 20
693.4554799585826
 30
0.0
 40
1.224236627415608
  0
CIRCLE
  5
640
330
4D6
100
AcDbEntity
  8
D
  6
Continuous
100
AcDbCircle
 10
858.1341055840217
 20
663.7056396139892
 30
0.0
 40
1.224236627415608
  0
CIRCLE
  5
641
330
4D6
100
AcDbEntity
  8
D
  6
Continuous
100
AcDbCircle
 10
851.6995550335218
 20
651.6448927232532
 30
0.0
 40
1.224236627415608
  0
CIRCLE
  5
642
330
4D6
100
AcDbEntity
  8
D
  6
Continuous
100
AcDbCircle
 10
774.0827722394056
 20
689.0332065951181
 30
0.0
 40
1.224236627415608
  0
CIRCLE
  5
643
330
4D6
100
AcDbEntity
  8
D
  6
Continuous
100
AcDbCircle
 10
731.8560235743894
 20
694.2595299995346
 30
0.0
 40
1.224236627415608
  0
CIRCLE
  5
644
330
4D6
100
AcDbEntity
  8
D
  6
Continuous
100
AcDbCircle
 10
728.6387482991399
 20
683.0028331497506
 30
0.0
 40
1.224236627415608
  0
CIRCLE
  5
645
330
4D6
100
AcDbEntity
  8
D
  6
Continuous
100
AcDbCircle
 10
691.6400765324147
 20
689.4352297538244
 30
0.0
 40
1.224236627415608
  0
CIRCLE
  5
646
330
4D6
100
AcDbEntity
  8
D
  6
Continuous
100
AcDbCircle
 10
693.2487141700399
 20
679.3846098272377
 30
0.0
 40
1.224236627415608
  0
LINE
  5
647
330
4D6
100
AcDbEntity
  8
D
  6
Continuous
100
AcDbLine
 10
-0.0000000000013642
 20
750.9125390431154
 30
0.0
 11
11.13467947752542
 21
762.0472185206431
 31
0.0
  0
LINE
  5
648
330
4D6
100
AcDbEntity
  8
D
  6
Continuous
100
AcDbLine
 10
-0.0000000000013642
 20
742.1881488153717
 30
0.0
 11
19.85906970527049
 21
762.0472185206431
 31
0.0
  0
LINE
  5
649
330
4D6
100
AcDbEntity
  8
D
  6
Continuous
100
AcDbLine
 10
-0.0000000000013642
 20
733.463758587628
 30
0.0
 11
28.58345993301327
 21
762.0472185206431
 31
0.0
  0
LINE
  5
64A
330
4D6
100
AcDbEntity
  8
D
  6
Continuous
100
AcDbLine
 10
-0.0000000000013642
 20
724.7393683598841
 30
0.0
 11
37.30785016075833
 21
762.0472185206431
 31
0.0
  0
LINE
  5
64B
330
4D6
100
AcDbEntity
  8
D
  6
Continuous
100
AcDbLine
 10
-0.0000000000013642
 20
716.0149781321402
 30
0.0
 11
46.03224038850067
 21
762.0472185206431
 31
0.0
  0
LINE
  5
64C
330
4D6
100
AcDbEntity
  8
D
  6
Continuous
100
AcDbLine
 10
-0.0000000000013642
 20
707.2905879043965
 30
0.0
 11
54.75663061624573
 21
762.0472185206431
 31
0.0
  0
LINE
  5
64D
330
4D6
100
AcDbEntity
  8
D
  6
Continuous
100
AcDbLine
 10
0.0132641914829037
 20
698.5794618681371
 30
0.0
 11
63.48102084398806
 21
762.0472185206431
 31
0.0
  0
LINE
  5
64E
330
4D6
100
AcDbEntity
  8
D
  6
Continuous
100
AcDbLine
 10
8.737654419225237
 20
698.5794618681371
 30
0.0
 11
72.20541107173312
 21
762.0472185206431
 31
0.0
  0
LINE
  5
64F
330
4D6
100
AcDbEntity
  8
D
  6
Continuous
100
AcDbLine
 10
17.4620446469703
 20
698.5794618681371
 30
0.0
 11
80.92980129947546
 21
762.0472185206431
 31
0.0
  0
LINE
  5
650
330
4D6
100
AcDbEntity
  8
D
  6
Continuous
100
AcDbLine
 10
26.18643487471536
 20
698.5794618681371
 30
0.0
 11
89.65419152722052
 21
762.0472185206431
 31
0.0
  0
LINE
  5
651
330
4D6
100
AcDbEntity
  8
D
  6
Continuous
100
AcDbLine
 10
34.91082510245769
 20
698.5794618681371
 30
0.0
 11
98.3785817549633
 21
762.0472185206431
 31
0.0
  0
LINE
  5
652
330
4D6
100
AcDbEntity
  8
D
  6
Continuous
100
AcDbLine
 10
43.63521533020003
 20
698.5794618681371
 30
0.0
 11
107.1029719827084
 21
762.0472185206431
 31
0.0
  0
LINE
  5
653
330
4D6
100
AcDbEntity
  8
D
  6
Continuous
100
AcDbLine
 10
52.35960555794509
 20
698.5794618681371
 30
0.0
 11
115.8273622104507
 21
762.0472185206431
 31
0.0
  0
LINE
  5
654
330
4D6
100
AcDbEntity
  8
D
  6
Continuous
100
AcDbLine
 10
61.08399578569015
 20
698.5794618681371
 30
0.0
 11
124.5517524381958
 21
762.0472185206431
 31
0.0
  0
LINE
  5
655
330
4D6
100
AcDbEntity
  8
D
  6
Continuous
100
AcDbLine
 10
69.80838601343294
 20
698.5794618681371
 30
0.0
 11
133.2761426659386
 21
762.0472185206431
 31
0.0
  0
LINE
  5
656
330
4D6
100
AcDbEntity
  8
D
  6
Continuous
100
AcDbLine
 10
78.532776241178
 20
698.5794618681371
 30
0.0
 11
142.0005328936836
 21
762.0472185206431
 31
0.0
  0
LINE
  5
657
330
4D6
100
AcDbEntity
  8
D
  6
Continuous
100
AcDbLine
 10
87.25716646892033
 20
698.5794618681371
 30
0.0
 11
150.7249231214259
 21
762.0472185206431
 31
0.0
  0
LINE
  5
658
330
4D6
100
AcDbEntity
  8
D
  6
Continuous
100
AcDbLine
 10
95.9815566966654
 20
698.5794618681371
 30
0.0
 11
159.449313349171
 21
762.0472185206431
 31
0.0
  0
LINE
  5
659
330
4D6
100
AcDbEntity
  8
D
  6
Continuous
100
AcDbLine
 10
104.7059469244082
 20
698.5794618681371
 30
0.0
 11
168.1737035769133
 21
762.0472185206431
 31
0.0
  0
LINE
  5
65A
330
4D6
100
AcDbEntity
  8
D
  6
Continuous
100
AcDbLine
 10
113.4303371521532
 20
698.5794618681371
 30
0.0
 11
176.8980938046584
 21
762.0472185206431
 31
0.0
  0
LINE
  5
65B
330
4D6
100
AcDbEntity
  8
D
  6
Continuous
100
AcDbLine
 10
122.1547273798956
 20
698.5794618681371
 30
0.0
 11
185.6224840324012
 21
762.0472185206431
 31
0.0
  0
LINE
  5
65C
330
4D6
100
AcDbEntity
  8
D
  6
Continuous
100
AcDbLine
 10
130.8791176076406
 20
698.5794618681371
 30
0.0
 11
194.3468742601463
 21
762.0472185206431
 31
0.0
  0
LINE
  5
65D
330
4D6
100
AcDbEntity
  8
D
  6
Continuous
100
AcDbLine
 10
139.603507835383
 20
698.5794618681371
 30
0.0
 11
203.0712644878886
 21
762.0472185206431
 31
0.0
  0
LINE
  5
65E
330
4D6
100
AcDbEntity
  8
D
  6
Continuous
100
AcDbLine
 10
148.327898063128
 20
698.5794618681371
 30
0.0
 11
211.7956547156336
 21
762.0472185206431
 31
0.0
  0
LINE
  5
65F
330
4D6
100
AcDbEntity
  8
D
  6
Continuous
100
AcDbLine
 10
157.0522882908708
 20
698.5794618681371
 30
0.0
 11
220.5200449433764
 21
762.0472185206431
 31
0.0
  0
LINE
  5
660
330
4D6
100
AcDbEntity
  8
D
  6
Continuous
100
AcDbLine
 10
165.7766785186159
 20
698.5794618681371
 30
0.0
 11
229.2444351711215
 21
762.0472185206431
 31
0.0
  0
LINE
  5
661
330
4D6
100
AcDbEntity
  8
D
  6
Continuous
100
AcDbLine
 10
174.5010687463582
 20
698.5794618681371
 30
0.0
 11
237.9688253988638
 21
762.0472185206431
 31
0.0
  0
LINE
  5
662
330
4D6
100
AcDbEntity
  8
D
  6
Continuous
100
AcDbLine
 10
183.2254589741033
 20
698.5794618681371
 30
0.0
 11
246.6932156266089
 21
762.0472185206431
 31
0.0
  0
LINE
  5
663
330
4D6
100
AcDbEntity
  8
D
  6
Continuous
100
AcDbLine
 10
191.9498492018461
 20
698.5794618681371
 30
0.0
 11
255.4176058543512
 21
762.0472185206431
 31
0.0
  0
LINE
  5
664
330
4D6
100
AcDbEntity
  8
D
  6
Continuous
100
AcDbLine
 10
200.6742394295911
 20
698.5794618681371
 30
0.0
 11
264.1419960820963
 21
762.0472185206431
 31
0.0
  0
LINE
  5
665
330
4D6
100
AcDbEntity
  8
D
  6
Continuous
100
AcDbLine
 10
209.3986296573335
 20
698.5794618681371
 30
0.0
 11
272.8663863098386
 21
762.0472185206431
 31
0.0
  0
LINE
  5
666
330
4D6
100
AcDbEntity
  8
D
  6
Continuous
100
AcDbLine
 10
218.1230198850785
 20
698.5794618681371
 30
0.0
 11
281.5907765375837
 21
762.0472185206431
 31
0.0
  0
LINE
  5
667
330
4D6
100
AcDbEntity
  8
D
  6
Continuous
100
AcDbLine
 10
226.8474101128209
 20
698.5794618681375
 30
0.0
 11
290.3151667653265
 21
762.0472185206431
 31
0.0
  0
LINE
  5
668
330
4D6
100
AcDbEntity
  8
D
  6
Continuous
100
AcDbLine
 10
235.5718003405659
 20
698.5794618681375
 30
0.0
 11
299.0395569930715
 21
762.0472185206431
 31
0.0
  0
LINE
  5
669
330
4D6
100
AcDbEntity
  8
D
  6
Continuous
100
AcDbLine
 10
244.2961905683082
 20
698.5794618681375
 30
0.0
 11
307.7639472208139
 21
762.0472185206431
 31
0.0
  0
LINE
  5
66A
330
4D6
100
AcDbEntity
  8
D
  6
Continuous
100
AcDbLine
 10
253.0205807960533
 20
698.5794618681375
 30
0.0
 11
316.4883374485589
 21
762.0472185206431
 31
0.0
  0
LINE
  5
66B
330
4D6
100
AcDbEntity
  8
D
  6
Continuous
100
AcDbLine
 10
261.7449710237961
 20
698.5794618681375
 30
0.0
 11
323.8975470944015
 21
760.7320379387411
 31
0.0
  0
LINE
  5
66C
330
4D6
100
AcDbEntity
  8
D
  6
Continuous
100
AcDbLine
 10
270.4693612515412
 20
698.5794618681375
 30
0.0
 11
330.7919757841046
 21
758.9020764007018
 31
0.0
  0
LINE
  5
66D
330
4D6
100
AcDbEntity
  8
D
  6
Continuous
100
AcDbLine
 10
279.1937514792835
 20
698.5794618681375
 30
0.0
 11
337.7612850329338
 21
757.1469954217855
 31
0.0
  0
LINE
  5
66E
330
4D6
100
AcDbEntity
  8
D
  6
Continuous
100
AcDbLine
 10
287.9181417070286
 20
698.5794618681375
 30
0.0
 11
344.8072125510266
 21
755.4685327121351
 31
0.0
  0
LINE
  5
66F
330
4D6
100
AcDbEntity
  8
D
  6
Continuous
100
AcDbLine
 10
296.6425319347713
 20
698.5794618681375
 30
0.0
 11
351.9316037517706
 21
753.8685336851368
 31
0.0
  0
LINE
  5
670
330
4D6
100
AcDbEntity
  8
D
  6
Continuous
100
AcDbLine
 10
305.3669221625164
 20
698.5794618681375
 30
0.0
 11
359.1364204329575
 21
752.3489601385781
 31
0.0
  0
LINE
  5
671
330
4D6
100
AcDbEntity
  8
D
  6
Continuous
100
AcDbLine
 10
314.0913123902587
 20
698.5794618681375
 30
0.0
 11
366.4237504176922
 21
750.9118998955701
 31
0.0
  0
LINE
  5
672
330
4D6
100
AcDbEntity
  8
D
  6
Continuous
100
AcDbLine
 10
322.8157026180038
 20
698.5794618681375
 30
0.0
 11
373.7958182872512
 21
749.559577537384
 31
0.0
  0
LINE
  5
673
330
4D6
100
AcDbEntity
  8
D
  6
Continuous
100
AcDbLine
 10
331.5400928457461
 20
698.5794618681375
 30
0.0
 11
381.254997360199
 21
748.2943663825904
 31
0.0
  0
LINE
  5
674
330
4D6
100
AcDbEntity
  8
D
  6
Continuous
100
AcDbLine
 10
340.2644830734912
 20
698.5794618681375
 30
0.0
 11
388.8038230987504
 21
747.1188018933981
 31
0.0
  0
LINE
  5
675
330
4D6
100
AcDbEntity
  8
D
  6
Continuous
100
AcDbLine
 10
348.988873301234
 20
698.5794618681375
 30
0.0
 11
396.4450081552832
 21
746.0355967221872
 31
0.0
  0
LINE
  5
676
330
4D6
100
AcDbEntity
  8
D
  6
Continuous
100
AcDbLine
 10
357.713263528979
 20
698.5794618681375
 30
0.0
 11
404.1814593107433
 21
745.0476576499022
 31
0.0
  0
LINE
  5
677
330
4D6
100
AcDbEntity
  8
D
  6
Continuous
100
AcDbLine
 10
366.4376537567214
 20
698.5794618681375
 30
0.0
 11
412.0162966037174
 21
744.1581047151315
 31
0.0
  0
LINE
  5
678
330
4D6
100
AcDbEntity
  8
D
  6
Continuous
100
AcDbLine
 10
375.1620439844664
 20
698.5794618681375
 30
0.0
 11
419.9528750066279
 21
743.3702928903003
 31
0.0
  0
LINE
  5
679
330
4D6
100
AcDbEntity
  8
D
  6
Continuous
100
AcDbLine
 10
383.8864342122092
 20
698.5794618681375
 30
0.0
 11
426.3102214495962
 21
741.0032491055231
 31
0.0
  0
LINE
  5
67A
330
4D6
100
AcDbEntity
  8
D
  6
Continuous
100
AcDbLine
 10
392.6108244399543
 20
698.5794618681375
 30
0.0
 11
435.0346116773389
 21
741.0032491055231
 31
0.0
  0
LINE
  5
67B
330
4D6
100
AcDbEntity
  8
D
  6
Continuous
100
AcDbLine
 10
401.3352146676966
 20
698.5794618681375
 30
0.0
 11
431.4358683263977
 21
728.6801155268377
 31
0.0
  0
LINE
  5
67C
330
4D6
100
AcDbEntity
  8
D
  6
Continuous
100
AcDbLine
 10
410.0596048954417
 20
698.5794618681375
 30
0.0
 11
427.8371249754559
 21
716.3569819481527
 31
0.0
  0
LINE
  5
67D
330
4D6
100
AcDbEntity
  8
D
  6
Continuous
100
AcDbLine
 10
418.783995123184
 20
698.5794618681375
 30
0.0
 11
424.2383816245142
 21
704.0338483694673
 31
0.0
  0
LINE
  5
67E
330
4D6
100
AcDbEntity
  8
D
  6
Continuous
100
AcDbLine
 10
427.5083853509291
 20
698.5794618681382
 30
0.0
 11
432.9627718522593
 21
704.0338483694673
 31
0.0
  0
LINE
  5
67F
330
4D6
100
AcDbEntity
  8
D
  6
Continuous
100
AcDbLine
 10
439.0974785795206
 20
701.4441648689872
 30
0.0
 11
441.6871620800021
 21
704.0338483694673
 31
0.0
  0
LINE
  5
680
330
4D6
100
AcDbEntity
  8
D
  6
Continuous
100
AcDbLine
 10
490.4575002195279
 20
700.4578451425291
 30
0.0
 11
494.0335034464647
 21
704.0338483694673
 31
0.0
  0
LINE
  5
681
330
4D6
100
AcDbEntity
  8
D
  6
Continuous
100
AcDbLine
 10
497.3035071728796
 20
698.5794618681382
 30
0.0
 11
502.7578936742098
 21
704.0338483694673
 31
0.0
  0
LINE
  5
682
330
4D6
100
AcDbEntity
  8
D
  6
Continuous
100
AcDbLine
 10
506.0278974006246
 20
698.5794618681382
 30
0.0
 11
554.638551836109
 21
747.1901163036239
 31
0.0
  0
LINE
  5
683
330
4D6
100
AcDbEntity
  8
D
  6
Continuous
100
AcDbLine
 10
514.752287628367
 20
698.5794618681382
 30
0.0
 11
565.0151533651037
 21
748.8423276048741
 31
0.0
  0
LINE
  5
684
330
4D6
100
AcDbEntity
  8
D
  6
Continuous
100
AcDbLine
 10
523.4766778561093
 20
698.5794618681382
 30
0.0
 11
575.6380770842711
 21
750.740861096298
 31
0.0
  0
LINE
  5
685
330
4D6
100
AcDbEntity
  8
D
  6
Continuous
100
AcDbLine
 10
532.2010680838544
 20
698.5794618681382
 30
0.0
 11
586.5285977035951
 21
752.9069914878785
 31
0.0
  0
LINE
  5
686
330
4D6
100
AcDbEntity
  8
D
  6
Continuous
100
AcDbLine
 10
540.9254583115994
 20
698.5794618681382
 30
0.0
 11
597.7115954520191
 21
755.3655990085579
 31
0.0
  0
LINE
  5
687
330
4D6
100
AcDbEntity
  8
D
  6
Continuous
100
AcDbLine
 10
549.6498485393417
 20
698.5794618681382
 30
0.0
 11
609.2164790353522
 21
758.146092364148
 31
0.0
  0
LINE
  5
688
330
4D6
100
AcDbEntity
  8
D
  6
Continuous
100
AcDbLine
 10
558.3742387670845
 20
698.5794618681382
 30
0.0
 11
621.0784379611064
 21
761.2836610621596
 31
0.0
  0
LINE
  5
689
330
4D6
100
AcDbEntity
  8
D
  6
Continuous
100
AcDbLine
 10
630.5663856473352
 20
762.0472185206431
 30
0.0
 11
567.0986289948296
 21
698.5794618681382
 31
0.0
  0
LINE
  5
68A
330
4D6
100
AcDbEntity
  8
D
  6
Continuous
100
AcDbLine
 10
639.2907758750775
 20
762.0472185206431
 30
0.0
 11
575.8230192225747
 21
698.5794618681382
 31
0.0
  0
LINE
  5
68B
330
4D6
100
AcDbEntity
  8
D
  6
Continuous
100
AcDbLine
 10
648.0151661028226
 20
762.0472185206431
 30
0.0
 11
584.5474094503174
 21
698.5794618681382
 31
0.0
  0
LINE
  5
68C
330
4D6
100
AcDbEntity
  8
D
  6
Continuous
100
AcDbLine
 10
656.7395563305649
 20
762.0472185206431
 30
0.0
 11
593.2717996780598
 21
698.5794618681382
 31
0.0
  0
LINE
  5
68D
330
4D6
100
AcDbEntity
  8
D
  6
Continuous
100
AcDbLine
 10
665.46394655831
 20
762.0472185206431
 30
0.0
 11
601.9961899058048
 21
698.5794618681382
 31
0.0
  0
LINE
  5
68E
330
4D6
100
AcDbEntity
  8
D
  6
Continuous
100
AcDbLine
 10
674.1883367860532
 20
762.0472185206431
 30
0.0
 11
610.7205801335499
 21
698.5794618681382
 31
0.0
  0
LINE
  5
68F
330
4D6
100
AcDbEntity
  8
D
  6
Continuous
100
AcDbLine
 10
682.9127270137974
 20
762.0472185206431
 30
0.0
 11
619.4449703612922
 21
698.5794618681382
 31
0.0
  0
LINE
  5
690
330
4D6
100
AcDbEntity
  8
D
  6
Continuous
100
AcDbLine
 10
691.6371172415406
 20
762.0472185206431
 30
0.0
 11
628.1693605890346
 21
698.5794618681382
 31
0.0
  0
LINE
  5
691
330
4D6
100
AcDbEntity
  8
D
  6
Continuous
100
AcDbLine
 10
700.3615074692857
 20
762.0472185206431
 30
0.0
 11
636.8937508167796
 21
698.5794618681382
 31
0.0
  0
LINE
  5
692
330
4D6
100
AcDbEntity
  8
D
  6
Continuous
100
AcDbLine
 10
709.085897697028
 20
762.0472185206431
 30
0.0
 11
645.6181410445247
 21
698.5794618681382
 31
0.0
  0
LINE
  5
693
330
4D6
100
AcDbEntity
  8
D
  6
Continuous
100
AcDbLine
 10
717.8102879247731
 20
762.0472185206431
 30
0.0
 11
654.3425312722679
 21
698.5794618681382
 31
0.0
  0
LINE
  5
694
330
4D6
100
AcDbEntity
  8
D
  6
Continuous
100
AcDbLine
 10
726.5346781525154
 20
762.0472185206431
 30
0.0
 11
663.0669215000103
 21
698.5794618681382
 31
0.0
  0
LINE
  5
695
330
4D6
100
AcDbEntity
  8
D
  6
Continuous
100
AcDbLine
 10
735.2590683802605
 20
762.0472185206431
 30
0.0
 11
671.7913117277544
 21
698.5794618681382
 31
0.0
  0
LINE
  5
696
330
4D6
100
AcDbEntity
  8
D
  6
Continuous
100
AcDbLine
 10
743.9834586080028
 20
762.0472185206431
 30
0.0
 11
680.5157019555004
 21
698.5794618681382
 31
0.0
  0
LINE
  5
697
330
4D6
100
AcDbEntity
  8
D
  6
Continuous
100
AcDbLine
 10
752.7078488357479
 20
762.0472185206431
 30
0.0
 11
689.2400921832427
 21
698.5794618681382
 31
0.0
  0
LINE
  5
698
330
4D6
100
AcDbEntity
  8
D
  6
Continuous
100
AcDbLine
 10
761.4322390634902
 20
762.0472185206431
 30
0.0
 11
697.964482410985
 21
698.5794618681382
 31
0.0
  0
LINE
  5
699
330
4D6
100
AcDbEntity
  8
D
  6
Continuous
100
AcDbLine
 10
770.1566292912353
 20
762.0472185206431
 30
0.0
 11
706.6888726387301
 21
698.5794618681382
 31
0.0
  0
LINE
  5
69A
330
4D6
100
AcDbEntity
  8
D
  6
Continuous
100
AcDbLine
 10
778.8810195189776
 20
762.0472185206431
 30
0.0
 11
715.4132628664752
 21
698.5794618681382
 31
0.0
  0
LINE
  5
69B
330
4D6
100
AcDbEntity
  8
D
  6
Continuous
100
AcDbLine
 10
787.6054097467236
 20
762.0472185206431
 30
0.0
 11
724.1376530942175
 21
698.5794618681382
 31
0.0
  0
LINE
  5
69C
330
4D6
100
AcDbEntity
  8
D
  6
Continuous
100
AcDbLine
 10
796.3297999744659
 20
762.0472185206431
 30
0.0
 11
732.8620433219626
 21
698.5794618681382
 31
0.0
  0
LINE
  5
69D
330
4D6
100
AcDbEntity
  8
D
  6
Continuous
100
AcDbLine
 10
805.054190202211
 20
762.0472185206431
 30
0.0
 11
741.5864335497049
 21
698.5794618681382
 31
0.0
  0
LINE
  5
69E
330
4D6
100
AcDbEntity
  8
D
  6
Continuous
100
AcDbLine
 10
813.7785804299533
 20
762.0472185206431
 30
0.0
 11
750.31082377745
 21
698.5794618681382
 31
0.0
  0
LINE
  5
69F
330
4D6
100
AcDbEntity
  8
D
  6
Continuous
100
AcDbLine
 10
822.5029706576984
 20
762.0472185206431
 30
0.0
 11
759.0352140051923
 21
698.5794618681382
 31
0.0
  0
LINE
  5
6A0
330
4D6
100
AcDbEntity
  8
D
  6
Continuous
100
AcDbLine
 10
831.2273608854407
 20
762.0472185206431
 30
0.0
 11
767.7596042329383
 21
698.5794618681382
 31
0.0
  0
LINE
  5
6A1
330
4D6
100
AcDbEntity
  8
D
  6
Continuous
100
AcDbLine
 10
839.9517511131858
 20
762.0472185206431
 30
0.0
 11
776.4839944606806
 21
698.5794618681382
 31
0.0
  0
LINE
  5
6A2
330
4D6
100
AcDbEntity
  8
D
  6
Continuous
100
AcDbLine
 10
848.6761413409281
 20
762.0472185206431
 30
0.0
 11
785.2083846884257
 21
698.5794618681382
 31
0.0
  0
LINE
  5
6A3
330
4D6
100
AcDbEntity
  8
D
  6
Continuous
100
AcDbLine
 10
857.4005315686732
 20
762.0472185206431
 30
0.0
 11
793.932774916168
 21
698.5794618681382
 31
0.0
  0
LINE
  5
6A4
330
4D6
100
AcDbEntity
  8
D
  6
Continuous
100
AcDbLine
 10
866.1249217964155
 20
762.0472185206431
 30
0.0
 11
802.6571651439131
 21
698.5794618681382
 31
0.0
  0
LINE
  5
6A5
330
4D6
100
AcDbEntity
  8
D
  6
Continuous
100
AcDbLine
 10
874.8493120241615
 20
762.0472185206431
 30
0.0
 11
811.3815553716554
 21
698.5794618681382
 31
0.0
  0
LINE
  5
6A6
330
4D6
100
AcDbEntity
  8
D
  6
Continuous
100
AcDbLine
 10
883.5737022519038
 20
762.0472185206431
 30
0.0
 11
820.1059455994005
 21
698.5794618681382
 31
0.0
  0
LINE
  5
6A7
330
4D6
100
AcDbEntity
  8
D
  6
Continuous
100
AcDbLine
 10
892.2980924796489
 20
762.0472185206431
 30
0.0
 11
828.8303358271428
 21
698.5794618681382
 31
0.0
  0
LINE
  5
6A8
330
4D6
100
AcDbEntity
  8
D
  6
Continuous
100
AcDbLine
 10
901.0224827073912
 20
762.0472185206431
 30
0.0
 11
837.5547260548879
 21
698.5794618681389
 31
0.0
  0
LINE
  5
6A9
330
4D6
100
AcDbEntity
  8
D
  6
Continuous
100
AcDbLine
 10
846.2791162826302
 20
698.5794618681382
 30
0.0
 11
909.7468729351363
 21
762.0472185206431
 31
0.0
  0
LINE
  5
6AA
330
4D6
100
AcDbEntity
  8
D
  6
Continuous
100
AcDbLine
 10
855.0035065103752
 20
698.5794618681389
 30
0.0
 11
918.4712631628786
 21
762.0472185206431
 31
0.0
  0
LINE
  5
6AB
330
4D6
100
AcDbEntity
  8
D
  6
Continuous
100
AcDbLine
 10
863.7278967381185
 20
698.5794618681389
 30
0.0
 11
927.1956533906236
 21
762.0472185206431
 31
0.0
  0
LINE
  5
6AC
330
4D6
100
AcDbEntity
  8
D
  6
Continuous
100
AcDbLine
 10
872.4522869658626
 20
698.5794618681389
 30
0.0
 11
935.920043618366
 21
762.0472185206431
 31
0.0
  0
LINE
  5
6AD
330
4D6
100
AcDbEntity
  8
D
  6
Continuous
100
AcDbLine
 10
881.1766771936059
 20
698.5794618681382
 30
0.0
 11
944.644433846111
 21
762.0472185206431
 31
0.0
  0
LINE
  5
6AE
330
4D6
100
AcDbEntity
  8
D
  6
Continuous
100
AcDbLine
 10
889.901067421351
 20
698.5794618681389
 30
0.0
 11
945.783563144199
 21
754.4619575909887
 31
0.0
  0
LINE
  5
6AF
330
4D6
100
AcDbEntity
  8
D
  6
Continuous
100
AcDbLine
 10
898.6254576490933
 20
698.5794618681389
 30
0.0
 11
945.783563144199
 21
745.737567363245
 31
0.0
  0
LINE
  5
6B0
330
4D6
100
AcDbEntity
  8
D
  6
Continuous
100
AcDbLine
 10
907.3498478768383
 20
698.5794618681389
 30
0.0
 11
945.783563144199
 21
737.0131771355013
 31
0.0
  0
LINE
  5
6B1
330
4D6
100
AcDbEntity
  8
D
  6
Continuous
100
AcDbLine
 10
916.0742381045834
 20
698.5794618681389
 30
0.0
 11
945.783563144199
 21
728.2887869077567
 31
0.0
  0
LINE
  5
6B2
330
4D6
100
AcDbEntity
  8
D
  6
Continuous
100
AcDbLine
 10
924.7986283323257
 20
698.5794618681389
 30
0.0
 11
945.783563144199
 21
719.564396680013
 31
0.0
  0
LINE
  5
6B3
330
4D6
100
AcDbEntity
  8
D
  6
Continuous
100
AcDbLine
 10
933.5230185600681
 20
698.5794618681389
 30
0.0
 11
945.783563144199
 21
710.8400064522693
 31
0.0
  0
LINE
  5
6B4
330
4D6
100
AcDbEntity
  8
D
  6
Continuous
100
AcDbLine
 10
942.2474087878131
 20
698.5794618681389
 30
0.0
 11
945.783563144199
 21
702.1156162245254
 31
0.0
  0
ARC
  5
6B5
330
4D6
100
AcDbEntity
  8
D
100
AcDbCircle
 10
471.482216271394
 20
1302.858745860473
 30
0.0
 40
561.8563891406228
100
AcDbArc
 50
273.1922182626656
 51
285.9362043927817
  0
ARC
  5
6B6
330
4D6
100
AcDbEntity
  8
D
100
AcDbCircle
 10
471.482216271394
 20
1302.858745860473
 30
0.0
 40
561.8563891406228
100
AcDbArc
 50
269.8978822304878
 51
270.1021177695122
  0
LINE
  5
6B7
330
4D6
100
AcDbEntity
  8
D
  6
Continuous
100
AcDbLine
 10
491.7210420679162
 20
736.6189479018931
 30
0.0
 11
496.1053432715466
 21
741.0032491055231
 31
0.0
  0
LINE
  5
6B8
330
4D6
100
AcDbEntity
  8
D
  6
Continuous
100
AcDbLine
 10
497.0417391705473
 20
733.2152547767823
 30
0.0
 11
505.8829557002896
 21
742.0564713065237
 31
0.0
  0
LINE
  5
6B9
330
4D6
100
AcDbEntity
  8
D
  6
Continuous
100
AcDbLine
 10
502.3624362731803
 20
729.8115616516711
 30
0.0
 11
515.2614424298686
 21
742.7105678083587
 31
0.0
  0
LINE
  5
6BA
330
4D6
100
AcDbEntity
  8
D
  6
Continuous
100
AcDbLine
 10
486.4003449652832
 20
740.0226410270043
 30
0.0
 11
487.3809530438016
 21
741.0032491055231
 31
0.0
  0
LINE
  5
6BB
330
4D6
100
AcDbEntity
  8
D
  6
Continuous
100
AcDbLine
 10
434.8595159767792
 20
723.379372949475
 30
0.0
 11
440.1602585541427
 21
728.6801155268377
 31
0.0
  0
LINE
  5
6BC
330
4D6
100
AcDbEntity
  8
D
  6
Continuous
100
AcDbLine
 10
489.5262957509076
 20
725.6998113571422
 30
0.0
 11
492.5065999206026
 21
728.6801155268377
 31
0.0
  0
LINE
  5
6BD
330
4D6
100
AcDbEntity
  8
D
  6
Continuous
100
AcDbLine
 10
494.846992853541
 20
722.296118232031
 30
0.0
 11
501.2309901483477
 21
728.6801155268377
 31
0.0
  0
LINE
  5
6BE
330
4D6
100
AcDbEntity
  8
D
  6
Continuous
100
AcDbLine
 10
500.1676899561739
 20
718.8924251069202
 30
0.0
 11
524.8145449913936
 21
743.5392801421413
 31
0.0
  0
LINE
  5
6BF
330
4D6
100
AcDbEntity
  8
D
  6
Continuous
100
AcDbLine
 10
497.9729436391676
 20
707.9732885621688
 30
0.0
 11
534.5532447911196
 21
744.5535897141208
 31
0.0
  0
LINE
  5
6C0
330
4D6
100
AcDbEntity
  8
D
  6
Continuous
100
AcDbLine
 10
503.2936407417978
 20
704.5695954370581
 30
0.0
 11
544.4899095562682
 21
745.7658642515257
 31
0.0
  0
LINE
  5
6C1
330
4D6
100
AcDbEntity
  8
D
  6
Continuous
100
AcDbLine
 10
492.6522465365342
 20
711.37698168728
 30
0.0
 11
497.6322467974064
 21
716.3569819481527
 31
0.0
  0
LINE
  5
6C2
330
4D6
100
AcDbEntity
  8
D
  6
Continuous
100
AcDbLine
 10
487.3315494339013
 20
714.7806748123912
 30
0.0
 11
488.9078565696614
 21
716.3569819481527
 31
0.0
  0
LINE
  5
6C3
330
4D6
100
AcDbEntity
  8
D
  6
Continuous
100
AcDbLine
 10
424.8711051310033
 20
704.6665718759555
 30
0.0
 11
436.561515203201
 21
716.3569819481527
 31
0.0
  0
LINE
  5
6C4
330
4D6
100
AcDbEntity
  8
0
  6
Continuous
100
AcDbLine
 10
266.5475775185037
 20
1249.305293240461
 30
0.0
 11
660.0791150035052
 21
1056.981692862798
 31
0.0
  0
MTEXT
  5
6C5
330
4D6
100
AcDbEntity
  8
D
 62
     7
 48
0.5
100
AcDbMText
 10
316.60640952942
 20
377.7239297657125
 30
0.0
 40
48.0
 41
310.0295809681611
 71
     1
 72
     5
  1
{\fVirtue|b0|i0|c0|p2;\H0.8333x;HORMIGÓN}
  7
STYLE2
 73
     1
 44
1.0
  0
ARC
  5
6C6
330
4D6
100
AcDbEntity
  8
0
  6
Continuous
100
AcDbCircle
 10
580.1675466250181
 20
666.7687298535884
 30
0.0
 40
67.29676428879205
100
AcDbArc
 50
256.5274447638966
 51
40.50025187001708
  0
SOLID
  5
6C7
330
4D6
100
AcDbEntity
  8
Cotas
 48
0.5
100
AcDbTrace
 10
624.7623384853778
 20
704.3321071252067
 30
0.0
 11
637.9180925676537
 21
716.6173069415167
 31
0.0
 12
594.4846160775851
 22
749.9419692801912
 32
0.0
 13
594.4846160775851
 23
749.9419692801912
 33
0.0
  0
SOLID
  5
6C8
330
4D6
100
AcDbEntity
  8
Cotas
 48
0.5
100
AcDbTrace
 10
564.4887753146586
 20
592.3238628566232
 30
0.0
 11
564.4887754621072
 21
610.3238628566228
 31
0.0
 12
510.4887753883827
 22
601.3238632989714
 32
0.0
 13
510.4887753883827
 23
601.3238632989714
 33
0.0
  0
MTEXT
  5
6C9
330
4D6
100
AcDbEntity
  8
D
 62
     7
 48
0.5
100
AcDbMText
 10
600.819356398541
 20
685.8977670272511
 30
0.0
 40
48.0
 41
32.07509721206043
 71
     1
 72
     5
  1
{\fVirtue|b0|i0|c0|p2;\H0.4167x;90º}
  7
STYLE2
 73
     1
 44
1.0
  0
ENDBLK
  5
6CB
330
4D6
100
AcDbEntity
  8
0
100
AcDbBlockEnd
  0
ENDSEC
  0
SECTION
  2
ENTITIES
  0
INSERT
  5
737
330
1F
100
AcDbEntity
  8
0
100
AcDbBlockReference
 66
     1
  2
bloque nuevo
 10
-18650.97494799955
 20
3514.774612480376
 30
0.0
 41
14.14141414141341
 42
14.14141414141341
 43
14.14141414141414
  0
ATTRIB
  5
738
330
737
100
AcDbEntity
  8
D
 62
     7
 48
0.5
100
AcDbText
 10
-15366.62736546428
 20
7168.972590174533
 30
0.0
 40
42.69612247301187
  1

  7
TIPO LIGHT
100
AcDbAttribute
  2
AUTOR
 70
     0
  0
ATTRIB
  5
739
330
737
100
AcDbEntity
  8
D
 62
     7
 48
0.5
100
AcDbText
 10
-13733.83046617795
 20
7111.065690942822
 30
0.0
 40
77.77777777777777
  1
UM370
  7
TIPO NEGRETA
100
AcDbAttribute
  2
REF
 70
     0
  0
ATTRIB
  5
73A
330
737
100
AcDbEntity
  8
D
 62
     7
 48
0.5
100
AcDbText
 10
-13951.29501495298
 20
7024.254340525302
 30
0.0
 40
42.49920425434083
  1
1/20
 41
0.9999999999999999
  7
TIPO LIGHT
100
AcDbAttribute
  2
ESC
 70
     0
  0
ATTRIB
  5
73B
330
737
100
AcDbEntity
  8
D
 62
     7
 48
0.5
100
AcDbText
 10
-15379.11836983249
 20
7025.654956023262
 30
0.0
 40
42.79781732771342
  1
© Fundició Dúctil Benito
 41
0.9999999999999999
  7
TIPO LIGHT
100
AcDbAttribute
  2
PRODUCTOR
 70
     0
  0
ATTRIB
  5
73C
330
737
100
AcDbEntity
  8
D
 62
     7
 48
0.5
100
AcDbText
 10
-13971.0454232108
 20
7169.969199750092
 30
0.0
 40
42.40000000000001
  1
mm
  7
TIPO LIGHT
100
AcDbAttribute
  2
COTAS
 70
     0
  0
ATTRIB
  5
73D
330
737
100
AcDbEntity
  8
D
 62
     7
 48
0.5
100
AcDbText
 10
-17340.73698951868
 20
7129.6085296642
 30
0.0
 40
101.1392309383138
  1
Toledo
  7
TIPO NEGRETA
100
AcDbAttribute
  2
NOMBRE_PIEZA
 70
     0
  0
ATTRIB
  5
73E
330
737
100
AcDbEntity
  8
D
 62
     7
 48
0.5
100
AcDbText
 10
-18228.41607261324
 20
6994.564463935601
 30
0.0
 40
79.65973938988324
  1
                                          General
 41
0.9978711050899867
  7
TIPO NEGRETA
100
AcDbAttribute
  2
Planta
 70
     0
  0
SEQEND
  5
73F
330
737
100
AcDbEntity
  8
0
  0
MTEXT
  5
9EC
330
1F
100
AcDbEntity
  8
Cotas
 48
0.5
100
AcDbMText
 10
-16598.11226817754
 20
5171.930474393257
 30
0.0
 40
48.0
 41
0.0
 71
     5
 72
     1
  1
{\fVirtueLight|b0|i0|c0|p2;2000}
  7
STYLE2
 73
     1
 44
1.0
  0
SOLID
  5
9ED
330
1F
100
AcDbEntity
  8
Cotas
 48
0.5
100
AcDbTrace
 10
-17544.11226817754
 20
5150.188716151499
 30
0.0
 11
-17544.11226817754
 21
5132.188716151499
 31
0.0
 12
-17598.11226817754
 22
5141.188716151499
 32
0.0
 13
-17598.11226817754
 23
5141.188716151499
 33
0.0
  0
SOLID
  5
9EE
330
1F
100
AcDbEntity
  8
Cotas
 48
0.5
100
AcDbTrace
 10
-15652.11226817754
 20
5150.188716151499
 30
0.0
 11
-15652.11226817754
 21
5132.188716151499
 31
0.0
 12
-15598.11226817754
 22
5141.188716151499
 32
0.0
 13
-15598.11226817754
 23
5141.188716151499
 33
0.0
  0
LINE
  5
9EF
330
1F
100
AcDbEntity
  8
Cotas
 48
0.5
100
AcDbLine
 10
-15652.11226817754
 20
5141.188716151499
 30
0.0
 11
-17544.11226817754
 21
5141.188716151499
 31
0.0
  0
LINE
  5
9F0
330
1F
100
AcDbEntity
  8
Cotas
 48
0.5
100
AcDbLine
 10
-17598.11226817754
 20
5009.900618847634
 30
0.0
 11
-17598.11226817754
 21
5147.188716151499
 31
0.0
  0
LINE
  5
9F1
330
1F
100
AcDbEntity
  8
Cotas
 48
0.5
100
AcDbLine
 10
-15598.11226817754
 20
5009.900618847634
 30
0.0
 11
-15598.11226817754
 21
5147.188716151499
 31
0.0
  0
LINE
  5
9F2
330
1F
100
AcDbEntity
  8
D
 48
0.5
100
AcDbLine
 39
52.73069067310826
 10
-15598.11226817754
 20
4564.900618847635
 30
0.0
 11
-17598.11226817754
 21
4564.900618847635
 31
0.0
  0
LINE
  5
9F3
330
1F
100
AcDbEntity
  8
D
 48
0.5
100
AcDbLine
 39
52.73069067310826
 10
-15598.11226817754
 20
5009.900618847634
 30
0.0
 11
-17598.11226817754
 21
5009.900618847634
 31
0.0
  0
LINE
  5
9F4
330
1F
100
AcDbEntity
  8
D
 48
0.5
100
AcDbLine
 39
52.73069067310826
 10
-15598.11226817754
 20
5009.900618847634
 30
0.0
 11
-15598.11226817754
 21
4564.900618847635
 31
0.0
  0
LINE
  5
9F5
330
1F
100
AcDbEntity
  8
D
 48
0.5
100
AcDbLine
 39
52.73069067310826
 10
-17598.11226817754
 20
5009.900618847634
 30
0.0
 11
-17598.11226817754
 21
4564.900618847635
 31
0.0
  0
MTEXT
  5
9F6
330
1F
100
AcDbEntity
  8
Cotas
 62
     7
 48
0.5
100
AcDbMText
 10
-14817.09323890156
 20
5975.221858631392
 30
0.0
 40
48.0
 41
0.0
 71
     5
 72
     1
  1
{\fVirtueLight|b0|i0|c0|p2;440}
  7
STYLE2
 11
6.123031769111886E-17
 21
1.0
 31
0.0
 73
     1
 44
1.0
  0
SOLID
  5
9F7
330
1F
100
AcDbEntity
  8
Cotas
 62
     7
 48
0.5
100
AcDbTrace
 10
-14795.3514806598
 20
5809.221858631392
 30
0.0
 11
-14777.3514806598
 21
5809.221858631392
 31
0.0
 12
-14786.3514806598
 22
5755.221858631392
 32
0.0
 13
-14786.3514806598
 23
5755.221858631392
 33
0.0
  0
SOLID
  5
9F8
330
1F
100
AcDbEntity
  8
Cotas
 62
     7
 48
0.5
100
AcDbTrace
 10
-14795.3514806598
 20
6141.221858631392
 30
0.0
 11
-14777.3514806598
 21
6141.221858631392
 31
0.0
 12
-14786.3514806598
 22
6195.221858631392
 32
0.0
 13
-14786.3514806598
 23
6195.221858631392
 33
0.0
  0
LINE
  5
9F9
330
1F
100
AcDbEntity
  8
Cotas
 62
     7
 48
0.5
100
AcDbLine
 10
-14786.3514806598
 20
6141.221858631392
 30
0.0
 11
-14786.3514806598
 21
5809.221858631392
 31
0.0
  0
LINE
  5
9FA
330
1F
100
AcDbEntity
  8
Cotas
 62
     7
 48
0.5
100
AcDbLine
 10
-14628.7023864938
 20
5755.221858631392
 30
0.0
 11
-14792.3514806598
 21
5755.221858631392
 31
0.0
  0
LINE
  5
9FB
330
1F
100
AcDbEntity
  8
Cotas
 62
     7
 48
0.5
100
AcDbLine
 10
-14677.96773114188
 20
6195.221858631392
 30
0.0
 11
-14792.3514806598
 21
6195.221858631392
 31
0.0
  0
MTEXT
  5
9FC
330
1F
100
AcDbEntity
  8
Cotas
 62
     7
 48
0.5
100
AcDbMText
 10
-14436.89863790387
 20
6464.216326278298
 30
0.0
 40
48.0
 41
0.0
 71
     5
 72
     1
  1
{\fVirtueLight|b0|i0|c0|p2;445}
  7
STYLE2
 73
     1
 44
1.0
  0
SOLID
  5
9FD
330
1F
100
AcDbEntity
  8
Cotas
 62
     7
 48
0.5
100
AcDbTrace
 10
-14268.39863790387
 20
6442.857809794781
 30
0.0
 11
-14268.39863790387
 21
6424.857809794781
 31
0.0
 12
-14214.39863790387
 22
6433.857809794781
 32
0.0
 13
-14214.39863790387
 23
6433.857809794781
 33
0.0
  0
SOLID
  5
9FE
330
1F
100
AcDbEntity
  8
Cotas
 62
     7
 48
0.5
100
AcDbTrace
 10
-14605.39863790387
 20
6442.857809794781
 30
0.0
 11
-14605.39863790387
 21
6424.857809794781
 31
0.0
 12
-14659.39863790387
 22
6433.857809794781
 32
0.0
 13
-14659.39863790387
 23
6433.857809794781
 33
0.0
  0
LINE
  5
9FF
330
1F
100
AcDbEntity
  8
Cotas
 62
     7
 48
0.5
100
AcDbLine
 10
-14605.39863790387
 20
6433.857809794781
 30
0.0
 11
-14268.39863790387
 21
6433.857809794781
 31
0.0
  0
LINE
  5
A00
330
1F
100
AcDbEntity
  8
Cotas
 62
     7
 48
0.5
100
AcDbLine
 10
-14214.39863790387
 20
6212.340430399488
 30
0.0
 11
-14214.39863790387
 21
6439.857809794781
 31
0.0
  0
LINE
  5
A01
330
1F
100
AcDbEntity
  8
Cotas
 62
     7
 48
0.5
100
AcDbLine
 10
-14659.39863790387
 20
6207.417824296812
 30
0.0
 11
-14659.39863790387
 21
6439.857809794781
 31
0.0
  0
MTEXT
  5
A02
330
1F
100
AcDbEntity
  8
Cotas
 62
     7
 48
0.5
100
AcDbMText
 10
-16598.11226817754
 20
6454.754347771582
 30
0.0
 40
48.0
 41
0.0
 71
     5
 72
     1
  1
{\fVirtueLight|b0|i0|c0|p2;2000}
  7
STYLE2
 73
     1
 44
1.0
  0
SOLID
  5
A03
330
1F
100
AcDbEntity
  8
Cotas
 62
     7
 48
0.5
100
AcDbTrace
 10
-15652.11226817754
 20
6433.012589529823
 30
0.0
 11
-15652.11226817754
 21
6415.012589529823
 31
0.0
 12
-15598.11226817754
 22
6424.012589529823
 32
0.0
 13
-15598.11226817754
 23
6424.012589529823
 33
0.0
  0
SOLID
  5
A04
330
1F
100
AcDbEntity
  8
Cotas
 62
     7
 48
0.5
100
AcDbTrace
 10
-17544.11226817754
 20
6433.012589529823
 30
0.0
 11
-17544.11226817754
 21
6415.012589529823
 31
0.0
 12
-17598.11226817754
 22
6424.012589529823
 32
0.0
 13
-17598.11226817754
 23
6424.012589529823
 33
0.0
  0
LINE
  5
A05
330
1F
100
AcDbEntity
  8
Cotas
 62
     7
 48
0.5
100
AcDbLine
 10
-17544.11226817754
 20
6424.012589529823
 30
0.0
 11
-15652.11226817754
 21
6424.012589529823
 31
0.0
  0
LINE
  5
A06
330
1F
100
AcDbEntity
  8
Cotas
 62
     7
 48
0.5
100
AcDbLine
 10
-15598.11226817754
 20
6217.263036502163
 30
0.0
 11
-15598.11226817754
 21
6430.012589529823
 31
0.0
  0
LINE
  5
A07
330
1F
100
AcDbEntity
  8
Cotas
 62
     7
 48
0.5
100
AcDbLine
 10
-17598.11226817754
 20
6207.417824296812
 30
0.0
 11
-17598.11226817754
 21
6430.012589529823
 31
0.0
  0
LINE
  5
A08
330
1F
100
AcDbEntity
  8
D
 62
     7
 48
0.5
100
AcDbLine
 39
52.73069067310826
 10
-14639.39863790387
 20
6195.221858631392
 30
0.0
 11
-14639.39863790387
 21
6055.221858631392
 31
0.0
  0
LINE
  5
A09
330
1F
100
AcDbEntity
  8
D
 62
     7
 48
0.5
100
AcDbLine
 39
52.73069067310826
 10
-14234.39863790387
 20
6195.221858631392
 30
0.0
 11
-14234.39863790387
 21
6055.221858631392
 31
0.0
  0
LINE
  5
A0A
330
1F
100
AcDbEntity
  8
D
 62
     7
 48
0.5
100
AcDbLine
 39
52.73069067310826
 10
-14659.39863790387
 20
6175.221858631392
 30
0.0
 11
-14214.39863790387
 21
6175.221858631392
 31
0.0
  0
LINE
  5
A0B
330
1F
100
AcDbEntity
  8
D
 62
     7
 48
0.5
100
AcDbLine
 39
52.73069067310826
 10
-14234.39863790387
 20
6195.221858631392
 30
0.0
 11
-14214.39863790387
 21
6175.221858631392
 31
0.0
  0
LINE
  5
A0C
330
1F
100
AcDbEntity
  8
D
 62
     7
 48
0.5
100
AcDbLine
 39
52.73069067310826
 10
-14659.39863790387
 20
6175.221858631392
 30
0.0
 11
-14639.39863790387
 21
6195.221858631392
 31
0.0
  0
LINE
  5
A0D
330
1F
100
AcDbEntity
  8
D
 62
     7
 48
0.5
100
AcDbLine
 39
52.73069067310826
 10
-14586.89863790387
 20
5755.221858631392
 30
-26.36534533655413
 11
-14286.89863790387
 21
5755.221858631392
 31
-26.36534533655413
  0
LINE
  5
A0E
330
1F
100
AcDbEntity
  8
D
 62
     7
 48
0.5
100
AcDbLine
 39
52.73069067310826
 10
-14436.89863790387
 20
6055.221858631392
 30
-26.36534533655413
 11
-14586.89863790387
 21
6055.221858631392
 31
-26.36534533655413
  0
LINE
  5
A0F
330
1F
100
AcDbEntity
  8
D
 62
     7
 48
0.5
100
AcDbLine
 39
52.73069067310826
 10
-14436.89863790387
 20
6055.221858631392
 30
-26.36534533655413
 11
-14286.89863790387
 21
6055.221858631392
 31
-26.36534533655413
  0
LINE
  5
A10
330
1F
100
AcDbEntity
  8
D
 62
     7
 48
0.5
100
AcDbLine
 39
52.73069067310826
 10
-14586.89863790387
 20
6055.221858631392
 30
-26.36534533655413
 11
-14586.89863790387
 21
5755.221858631392
 31
-26.36534533655413
  0
LINE
  5
A11
330
1F
100
AcDbEntity
  8
D
 62
     7
 48
0.5
100
AcDbLine
 39
52.73069067310826
 10
-14286.89863790387
 20
6055.221858631392
 30
-26.36534533655413
 11
-14286.89863790387
 21
5755.221858631392
 31
-26.36534533655413
  0
LINE
  5
A12
330
1F
100
AcDbEntity
  8
D
 62
     7
 48
0.5
100
AcDbLine
 39
52.73069067310826
 10
-14234.39863790387
 20
6195.221858631392
 30
0.0
 11
-14639.39863790387
 21
6195.221858631392
 31
0.0
  0
LINE
  5
A13
330
1F
100
AcDbEntity
  8
D
 62
     7
 48
0.5
100
AcDbLine
 39
52.73069067310826
 10
-14214.39863790387
 20
6055.221858631392
 30
0.0
 11
-14214.39863790387
 21
6175.221858631392
 31
0.0
  0
LINE
  5
A14
330
1F
100
AcDbEntity
  8
D
 62
     7
 48
0.5
100
AcDbLine
 39
52.73069067310826
 10
-14659.39863790387
 20
6055.221858631392
 30
0.0
 11
-14214.39863790387
 21
6055.221858631392
 31
0.0
  0
LINE
  5
A15
330
1F
100
AcDbEntity
  8
D
 62
     7
 48
0.5
100
AcDbLine
 39
52.73069067310826
 10
-14659.39863790387
 20
6175.221858631392
 30
0.0
 11
-14659.39863790387
 21
6055.221858631392
 31
0.0
  0
LINE
  5
A16
330
1F
100
AcDbEntity
  8
D
 62
     7
 48
0.5
100
AcDbLine
 39
52.73069067310826
 10
-15618.11226817754
 20
6195.221858631392
 30
0.0
 11
-15618.11226817754
 21
6055.221858631392
 31
0.0
  0
LINE
  5
A17
330
1F
100
AcDbEntity
  8
D
 62
     7
 48
0.5
100
AcDbLine
 39
52.73069067310826
 10
-17578.11226817754
 20
6195.221858631392
 30
0.0
 11
-17578.11226817754
 21
6055.221858631392
 31
0.0
  0
LINE
  5
A18
330
1F
100
AcDbEntity
  8
D
 62
     7
 48
0.5
100
AcDbLine
 39
52.73069067310826
 10
-15598.11226817754
 20
6175.221858631392
 30
0.0
 11
-17598.11226817754
 21
6175.221858631392
 31
0.0
  0
LINE
  5
A19
330
1F
100
AcDbEntity
  8
D
 62
     7
 48
0.5
100
AcDbLine
 39
52.73069067310826
 10
-15598.11226817754
 20
6175.221858631392
 30
0.0
 11
-15618.11226817754
 21
6195.221858631392
 31
0.0
  0
LINE
  5
A1A
330
1F
100
AcDbEntity
  8
D
 62
     7
 48
0.5
100
AcDbLine
 39
52.73069067310826
 10
-17598.11226817754
 20
6175.221858631392
 30
0.0
 11
-17578.11226817754
 21
6195.221858631392
 31
0.0
  0
LINE
  5
A1B
330
1F
100
AcDbEntity
  8
D
 62
     7
 48
0.5
100
AcDbLine
 39
52.73069067310826
 10
-17095.02739334537
 20
5755.221858631392
 30
0.0
 11
-17245.02739334537
 21
5755.221858631392
 31
0.0
  0
LINE
  5
A1C
330
1F
100
AcDbEntity
  8
D
 62
     7
 48
0.5
100
AcDbLine
 39
52.73069067310826
 10
-17095.02739334537
 20
5755.221858631392
 30
0.0
 11
-16945.02739334537
 21
5755.221858631392
 31
0.0
  0
LINE
  5
A1D
330
1F
100
AcDbEntity
  8
D
 62
     7
 48
0.5
100
AcDbLine
 39
52.73069067310826
 10
-17245.02739334537
 20
5755.221858631392
 30
0.0
 11
-17245.02739334537
 21
6055.221858631392
 31
0.0
  0
LINE
  5
A1E
330
1F
100
AcDbEntity
  8
D
 62
     7
 48
0.5
100
AcDbLine
 39
52.73069067310826
 10
-16945.02739334537
 20
5755.221858631392
 30
0.0
 11
-16945.02739334537
 21
6055.221858631392
 31
0.0
  0
LINE
  5
A1F
330
1F
100
AcDbEntity
  8
D
 62
     7
 48
0.5
100
AcDbLine
 39
52.73069067310826
 10
-15951.19714300971
 20
5755.221858631392
 30
0.0
 11
-15951.19714300971
 21
6055.221858631392
 31
0.0
  0
LINE
  5
A20
330
1F
100
AcDbEntity
  8
D
 62
     7
 48
0.5
100
AcDbLine
 39
52.73069067310826
 10
-16101.19714300971
 20
5755.221858631392
 30
0.0
 11
-15951.19714300971
 21
5755.221858631392
 31
0.0
  0
LINE
  5
A21
330
1F
100
AcDbEntity
  8
D
 62
     7
 48
0.5
100
AcDbLine
 39
52.73069067310826
 10
-16251.19714300971
 20
5755.221858631392
 30
0.0
 11
-16251.19714300971
 21
6055.221858631392
 31
0.0
  0
LINE
  5
A22
330
1F
100
AcDbEntity
  8
D
 62
     7
 48
0.5
100
AcDbLine
 39
52.73069067310826
 10
-16101.19714300971
 20
5755.221858631392
 30
0.0
 11
-16251.19714300971
 21
5755.221858631392
 31
0.0
  0
LINE
  5
A23
330
1F
100
AcDbEntity
  8
D
 62
     7
 48
0.5
100
AcDbLine
 39
52.73069067310826
 10
-17598.11226817754
 20
6055.221858631392
 30
0.0
 11
-17598.11226817754
 21
6175.221858631392
 31
0.0
  0
LINE
  5
A24
330
1F
100
AcDbEntity
  8
D
 62
     7
 48
0.5
100
AcDbLine
 39
52.73069067310826
 10
-15598.11226817754
 20
6055.221858631392
 30
0.0
 11
-17598.11226817754
 21
6055.221858631392
 31
0.0
  0
LINE
  5
A25
330
1F
100
AcDbEntity
  8
D
 62
     7
 48
0.5
100
AcDbLine
 39
52.73069067310826
 10
-15598.11226817754
 20
6175.221858631392
 30
0.0
 11
-15598.11226817754
 21
6055.221858631392
 31
0.0
  0
LINE
  5
A26
330
1F
100
AcDbEntity
  8
D
 62
     7
 48
0.5
100
AcDbLine
 39
52.73069067310826
 10
-17578.11226817754
 20
6195.221858631392
 30
0.0
 11
-15618.11226817754
 21
6195.221858631392
 31
0.0
  0
MTEXT
  5
A27
330
1F
100
AcDbEntity
  8
D
 62
     7
 48
0.5
100
AcDbMText
 10
-14989.24068846318
 20
5074.79258736426
 30
121.8330945934276
 40
36.0
 41
379.8790783421368
 71
     1
 72
     5
  1
MATERIAL:\P\P\PACABADOS:\P\P\PANCLAJE:\P\P\P 
  7
STYLE2
 73
     1
 44
1.0
  0
MTEXT
  5
A28
330
1F
100
AcDbEntity
  8
D
 62
     7
 48
0.5
100
AcDbMText
 10
-14464.62264181907
 20
5075.028552858279
 30
121.8330945934276
 40
36.0
 41
905.3333333333334
 71
     1
 72
     5
  1
Hormigón prefabricado.\P\P\PColor blanco granítico.\P\P\PApoyado en el suelo.\P \P\P\P\P 
  7
STYLE2
 73
     1
 44
1.0
  0
VIEWPORT
  5
84C
102
{ACAD_XDICTIONARY
360
A91
102
}
330
845
100
AcDbEntity
 67
     1
  8
0
100
AcDbViewport
 10
5.249999639556163
 20
3.999999883606677
 30
0.0
 40
14.75586080734005
 41
8.992999745766948
 68
     1
 69
     1
 12
5.249999639556163
 22
3.999999883606677
 13
0.0
 23
0.0
 14
10.0
 24
10.0
 15
10.0
 25
10.0
 16
0.0
 26
0.0
 36
1.0
 17
0.0
 27
0.0
 37
0.0
 42
50.0
 43
0.0
 44
0.0
 45
8.992999745766948
 50
0.0
 51
0.0
 72
  1000
 90
    32800
  1

281
     0
 71
     1
 74
     0
110
0.0
120
0.0
130
0.0
111
1.0
121
0.0
131
0.0
112
0.0
122
1.0
132
0.0
 79
     0
146
0.0
  0
VIEWPORT
  5
84E
102
{ACAD_XDICTIONARY
360
A93
102
}
330
845
100
AcDbEntity
 67
     1
  8
Finestra
100
AcDbViewport
 10
5.24999976158142
 20
3.99999976158142
 30
0.0
 40
8.399999618530272
 41
6.399999618530273
 68
     2
 69
     2
 12
-12311.78898269456
 22
5614.774612480267
 13
0.0
 23
0.0
 14
0.5
 24
0.5
 15
0.5
 25
0.5
 16
0.0
 26
0.0
 36
1.0
 17
0.0
 27
0.0
 37
0.0
 42
50.0
 43
0.0
 44
0.0
 45
9744.322424439353
 50
0.0
 51
0.0
 72
  1000
 90
    32864
  1

281
     0
 71
     1
 74
     0
110
0.0
120
0.0
130
0.0
111
1.0
121
0.0
131
0.0
112
0.0
122
1.0
132
0.0
 79
     0
146
0.0
  0
ENDSEC
  0
SECTION
  2
OBJECTS
  0
DICTIONARY
  5
C
330
0
100
AcDbDictionary
281
     1
  3
ACAD_COLOR
350
73
  3
ACAD_GROUP
350
D
  3
ACAD_LAYOUT
350
1A
  3
ACAD_MATERIAL
350
72
  3
ACAD_MLEADERSTYLE
350
A81
  3
ACAD_MLINESTYLE
350
17
  3
ACAD_PLOTSETTINGS
350
19
  3
ACAD_PLOTSTYLENAME
350
E
  3
ACAD_SCALELIST
350
A6C
  3
ACAD_TABLESTYLE
350
A83
  3
ACAD_VISUALSTYLE
350
A53
  3
ACDBHEADERROUNDTRIPXREC
350
A8D
  3
AcDbVariableDictionary
350
66
  3
ASE_INDEX_DICTIONARY
350
71C
  3
DWGPROPS
350
A90
  0
DICTIONARY
  5
A95
330
8
100
AcDbDictionary
280
     1
281
     1
  3
ACAD_XREC_ROUNDTRIP
360
A96
  0
DICTIONARY
  5
95D
330
A2
100
AcDbDictionary
280
     1
281
     1
  3
ACAD_SORTENTS
360
95E
  0
DICTIONARY
  5
A91
330
84C
100
AcDbDictionary
280
     1
281
     1
  3
ACAD_XREC_ROUNDTRIP
360
A92
  0
DICTIONARY
  5
A93
330
84E
100
AcDbDictionary
280
     1
281
     1
  3
ACAD_XREC_ROUNDTRIP
360
A94
  0
DICTIONARY
  5
73
102
{ACAD_REACTORS
330
C
102
}
330
C
100
AcDbDictionary
281
     1
  0
DICTIONARY
  5
D
102
{ACAD_REACTORS
330
C
102
}
330
C
100
AcDbDictionary
281
     1
  0
DICTIONARY
  5
1A
102
{ACAD_REACTORS
330
C
102
}
330
C
100
AcDbDictionary
281
     1
  3
Model
350
22
  3
Presentación1
350
846
  0
DICTIONARY
  5
72
102
{ACAD_REACTORS
330
C
102
}
330
C
100
AcDbDictionary
281
     1
  3
ByBlock
350
A7F
  3
ByLayer
350
A7E
  3
Global
350
A80
  0
DICTIONARY
  5
A81
102
{ACAD_REACTORS
330
C
102
}
330
C
100
AcDbDictionary
281
     1
  3
Standard
350
A82
  0
DICTIONARY
  5
17
102
{ACAD_REACTORS
330
C
102
}
330
C
100
AcDbDictionary
281
     1
  3
Standard
350
18
  0
DICTIONARY
  5
19
102
{ACAD_REACTORS
330
C
102
}
330
C
100
AcDbDictionary
281
     1
  0
ACDBDICTIONARYWDFLT
  5
E
102
{ACAD_REACTORS
330
C
102
}
330
C
100
AcDbDictionary
281
     1
  3
Normal
350
F
100
AcDbDictionaryWithDefault
340
F
  0
DICTIONARY
  5
A6C
102
{ACAD_REACTORS
330
C
102
}
330
C
100
AcDbDictionary
281
     1
  3
A0
350
A6D
  3
A1
350
A6E
  3
A2
350
A6F
  3
A3
350
A70
  3
A4
350
A71
  3
A5
350
A72
  3
A6
350
A73
  3
A7
350
A74
  3
A8
350
A75
  3
A9
350
A76
  3
B1
350
A77
  3
B2
350
A78
  3
B3
350
A79
  3
B4
350
A7A
  3
B5
350
A7B
  3
B6
350
A7C
  3
B7
350
A7D
  0
DICTIONARY
  5
A83
102
{ACAD_REACTORS
330
C
102
}
330
C
100
AcDbDictionary
281
     1
  3
Standard
350
A84
  0
DICTIONARY
  5
A53
102
{ACAD_REACTORS
330
C
102
}
330
C
100
AcDbDictionary
281
     1
  3
2dWireframe
350
A58
  3
Basic
350
A5B
  3
Brighten
350
A5F
  3
ColorChange
350
A63
  3
Conceptual
350
A5D
  3
Dim
350
A5E
  3
EdgeColorOff
350
A66
  3
Facepattern
350
A62
  3
Flat
350
A54
  3
FlatWithEdges
350
A55
  3
Gouraud
350
A56
  3
GouraudWithEdges
350
A57
  3
Hidden
350
A5A
  3
JitterOff
350
A64
  3
Linepattern
350
A61
  3
OverhangOff
350
A65
  3
Realistic
350
A5C
  3
Shaded
350
A6B
  3
Shaded with edges
350
A6A
  3
Shades of Gray
350
A67
  3
Sketchy
350
A68
  3
Thicken
350
A60
  3
Wireframe
350
A59
  3
X-Ray
350
A69
  0
DICTIONARY
  5
A8D
102
{ACAD_REACTORS
330
C
102
}
330
C
100
AcDbDictionary
281
     1
  3
COLORDICT
350
A8E
  3
MATERIALDICT
350
A8F
  0
DICTIONARY
  5
66
102
{ACAD_REACTORS
330
C
102
}
330
C
100
AcDbDictionary
281
     1
  3
CANNOSCALE
350
A97
  3
CMLEADERSTYLE
350
A88
  3
CTABLESTYLE
350
A87
  3
DIMASSOC
350
67
  3
HIDETEXT
350
6B
  3
MSLTSCALE
350
A89
  3
XCLIPFRAME
350
A8A
  0
DICTIONARY
  5
71C
102
{ACAD_REACTORS
330
C
102
}
330
C
100
AcDbDictionary
281
     1
  3
ASEBlockHierarchyIndexRecord
350
71E
1001
DCO15
1040
1563801275.062
  0
XRECORD
  5
A90
102
{ACAD_REACTORS
330
C
102
}
330
C
100
AcDbXrecord
280
     1
  1
DWGPROPS COOKIE
  2

  3

  4

  6

  7

  8
acae2
  9

300
=
301
=
302
=
303
=
304
=
305
=
306
=
307
=
308
=
309
=
 40
0.0
 41
2453523.452289711
 42
2460427.513460787
  1

 90
        0
  0
XRECORD
  5
A96
102
{ACAD_REACTORS
330
A95
102
}
330
A95
100
AcDbXrecord
280
     1
102
VTR_0.000_0.000_1.000_1.000_VISUALSTYLE
340
A58
102
VTR_0.000_0.000_1.000_1.000_GRIDDISPLAY
 70
     3
102
VTR_0.000_0.000_1.000_1.000_GRIDMAJOR
 70
     5
102
VTR_0.000_0.000_1.000_1.000_DEFAULTLIGHTING
280
     1
102
VTR_0.000_0.000_1.000_1.000_DEFAULTLIGHTINGTYPE
 70
     1
102
VTR_0.000_0.000_1.000_1.000_BRIGHTNESS
141
0.0
102
VTR_0.000_0.000_1.000_1.000_CONTRAST
142
0.0
  0
SORTENTSTABLE
  5
95E
102
{ACAD_REACTORS
330
95D
102
}
330
95D
100
AcDbSortentsTable
330
A2
  0
XRECORD
  5
A92
102
{ACAD_REACTORS
330
A91
102
}
330
A91
100
AcDbXrecord
280
     1
102
VISUALSTYLE
340
A58
102
GRIDDISPLAY
 70
     0
102
GRIDMAJOR
 70
     5
102
DEFAULTLIGHTING
280
     1
102
DEFAULTLIGHTINGTYPE
 70
     1
102
BRIGHTNESS
141
0.0
102
CONTRAST
142
0.0
  0
XRECORD
  5
A94
102
{ACAD_REACTORS
330
A93
102
}
330
A93
100
AcDbXrecord
280
     1
102
VISUALSTYLE
340
A58
102
GRIDDISPLAY
 70
     0
102
GRIDMAJOR
 70
     5
102
DEFAULTLIGHTING
280
     1
102
DEFAULTLIGHTINGTYPE
 70
     1
102
BRIGHTNESS
141
0.0
102
CONTRAST
142
0.0
  0
LAYOUT
  5
22
102
{ACAD_REACTORS
330
1A
102
}
330
1A
100
AcDbPlotSettings
  1

  2
none_device
  4
ANSI_A_(8.50_x_11.00_Inches)
  6

 40
6.349999904632567
 41
19.04999923706055
 42
6.350006103515625
 43
19.04998779296875
 44
215.8999938964844
 45
279.3999938964844
 46
0.0
 47
0.0
 48
0.0
 49
0.0
140
0.0
141
0.0
142
1.0
143
2.584895464708373
 70
 11952
 72
     0
 73
     1
 74
     0
  7

 75
     0
147
0.3868628397755418
148
0.0
149
0.0
100
AcDbLayout
  1
Model
 70
     1
 71
     0
 10
0.0
 20
0.0
 11
12.0
 21
9.0
 12
0.0
 22
0.0
 32
0.0
 14
0.0
 24
0.0
 34
0.0
 15
0.0
 25
0.0
 35
0.0
146
0.0
 13
0.0
 23
0.0
 33
0.0
 16
1.0
 26
0.0
 36
0.0
 17
0.0
 27
1.0
 37
0.0
 76
     0
330
1F
331
A52
  0
LAYOUT
  5
846
102
{ACAD_REACTORS
330
1A
102
}
330
1A
100
AcDbPlotSettings
  1

  2
none_device
  4
Letter_(8.50_x_11.00_Inches)
  6

 40
6.349999904632568
 41
6.349999904632568
 42
6.350006103515625
 43
6.350006103515625
 44
215.8999938964844
 45
279.3999938964844
 46
0.0
 47
0.0
 48
0.0
 49
0.0
140
0.0
141
0.0
142
1.0
143
1.0
 70
   688
 72
     0
 73
     1
 74
     5
  7

 75
    16
147
1.0
148
0.0
149
0.0
100
AcDbLayout
  1
Presentación1
 70
     1
 71
     1
 10
-0.2500002402958907
 20
-0.2499999962453767
 11
10.74999951940822
 21
8.249999763458732
 12
0.0
 22
0.0
 32
0.0
 14
1.049999952316284
 24
0.7999999523162842
 34
0.0
 15
9.449999570846556
 25
7.199999570846557
 35
0.0
146
0.0
 13
0.0
 23
0.0
 33
0.0
 16
1.0
 26
0.0
 36
0.0
 17
0.0
 27
1.0
 37
0.0
 76
     0
330
845
331
84C
  0
MATERIAL
  5
A7F
102
{ACAD_REACTORS
330
72
102
}
102
{ACAD_XDICTIONARY
360
A9A
102
}
330
72
100
AcDbMaterial
  1
ByBlock
  0
MATERIAL
  5
A7E
102
{ACAD_REACTORS
330
72
102
}
102
{ACAD_XDICTIONARY
360
A98
102
}
330
72
100
AcDbMaterial
  1
ByLayer
  0
MATERIAL
  5
A80
102
{ACAD_REACTORS
330
72
102
}
102
{ACAD_XDICTIONARY
360
A9C
102
}
330
72
100
AcDbMaterial
  1
Global
  0
MLEADERSTYLE
  5
A82
102
{ACAD_REACTORS
330
A81
102
}
102
{ACAD_XDICTIONARY
360
ACF
102
}
330
A81
100
AcDbMLeaderStyle
170
     2
171
     1
172
     0
 90
        2
 40
0.0
 41
0.0
173
     1
 91
-1056964608
340
14
 92
       -2
290
     1
 42
0.09
291
     1
 43
0.36
  3
Standard
341
0
 44
0.18
300

342
11
174
     1
178
     6
175
     1
176
     0
 93
-1056964608
 45
0.18
292
     0
297
     0
 46
0.18
343
0
 94
-1056964608
 47
1.0
 49
1.0
140
1.0
293
     1
141
0.0
294
     1
177
     0
142
1.0
295
     0
296
     0
143
0.125
1001
ACAD_MLEADERVER
1070
     2
  0
MLINESTYLE
  5
18
102
{ACAD_REACTORS
330
17
102
}
330
17
100
AcDbMlineStyle
  2
STANDARD
 70
     0
  3

 62
   256
 51
90.0
 52
90.0
 71
     2
 49
0.5
 62
   256
  6
BYLAYER
 49
-0.5
 62
   256
  6
BYLAYER
  0
ACDBPLACEHOLDER
  5
F
102
{ACAD_REACTORS
330
E
102
}
330
E
  0
SCALE
  5
A6D
102
{ACAD_REACTORS
330
A6C
102
}
330
A6C
100
AcDbScale
 70
     0
300
1:1
140
1.0
141
1.0
290
     1
  0
SCALE
  5
A6E
102
{ACAD_REACTORS
330
A6C
102
}
330
A6C
100
AcDbScale
 70
     0
300
1/128" = 1'-0"
140
0.0078125
141
12.0
290
     0
  0
SCALE
  5
A6F
102
{ACAD_REACTORS
330
A6C
102
}
330
A6C
100
AcDbScale
 70
     0
300
1/64" = 1'-0"
140
0.015625
141
12.0
290
     0
  0
SCALE
  5
A70
102
{ACAD_REACTORS
330
A6C
102
}
330
A6C
100
AcDbScale
 70
     0
300
1/32" = 1'-0"
140
0.03125
141
12.0
290
     0
  0
SCALE
  5
A71
102
{ACAD_REACTORS
330
A6C
102
}
330
A6C
100
AcDbScale
 70
     0
300
1/16" = 1'-0"
140
0.0625
141
12.0
290
     0
  0
SCALE
  5
A72
102
{ACAD_REACTORS
330
A6C
102
}
330
A6C
100
AcDbScale
 70
     0
300
3/32" = 1'-0"
140
0.09375
141
12.0
290
     0
  0
SCALE
  5
A73
102
{ACAD_REACTORS
330
A6C
102
}
330
A6C
100
AcDbScale
 70
     0
300
1/8" = 1'-0"
140
0.125
141
12.0
290
     0
  0
SCALE
  5
A74
102
{ACAD_REACTORS
330
A6C
102
}
330
A6C
100
AcDbScale
 70
     0
300
3/16" = 1'-0"
140
0.1875
141
12.0
290
     0
  0
SCALE
  5
A75
102
{ACAD_REACTORS
330
A6C
102
}
330
A6C
100
AcDbScale
 70
     0
300
1/4" = 1'-0"
140
0.25
141
12.0
290
     0
  0
SCALE
  5
A76
102
{ACAD_REACTORS
330
A6C
102
}
330
A6C
100
AcDbScale
 70
     0
300
3/8" = 1'-0"
140
0.375
141
12.0
290
     0
  0
SCALE
  5
A77
102
{ACAD_REACTORS
330
A6C
102
}
330
A6C
100
AcDbScale
 70
     0
300
1/2" = 1'-0"
140
0.5
141
12.0
290
     0
  0
SCALE
  5
A78
102
{ACAD_REACTORS
330
A6C
102
}
330
A6C
100
AcDbScale
 70
     0
300
3/4" = 1'-0"
140
0.75
141
12.0
290
     0
  0
SCALE
  5
A79
102
{ACAD_REACTORS
330
A6C
102
}
330
A6C
100
AcDbScale
 70
     0
300
1" = 1'-0"
140
1.0
141
12.0
290
     0
  0
SCALE
  5
A7A
102
{ACAD_REACTORS
330
A6C
102
}
330
A6C
100
AcDbScale
 70
     0
300
1-1/2" = 1'-0"
140
1.5
141
12.0
290
     0
  0
SCALE
  5
A7B
102
{ACAD_REACTORS
330
A6C
102
}
330
A6C
100
AcDbScale
 70
     0
300
3" = 1'-0"
140
3.0
141
12.0
290
     0
  0
SCALE
  5
A7C
102
{ACAD_REACTORS
330
A6C
102
}
330
A6C
100
AcDbScale
 70
     0
300
6" = 1'-0"
140
6.0
141
12.0
290
     0
  0
SCALE
  5
A7D
102
{ACAD_REACTORS
330
A6C
102
}
330
A6C
100
AcDbScale
 70
     0
300
1'-0" = 1'-0"
140
12.0
141
12.0
290
     0
  0
TABLESTYLE
  5
A84
102
{ACAD_REACTORS
330
A83
102
}
330
A83
100
AcDbTableStyle
  3
Standard
 70
     0
 71
     0
 40
0.06
 41
0.06
280
     0
281
     0
  7
Standard
140
0.18
170
     2
 62
     0
 63
   257
283
     0
274
    -2
284
     1
 64
     0
275
    -2
285
     1
 65
     0
276
    -2
286
     1
 66
     0
277
    -2
287
     1
 67
     0
278
    -2
288
     1
 68
     0
279
    -2
289
     1
 69
     0
  7
Standard
140
0.25
170
     5
 62
     0
 63
   257
283
     0
274
    -2
284
     1
 64
     0
275
    -2
285
     1
 65
     0
276
    -2
286
     1
 66
     0
277
    -2
287
     1
 67
     0
278
    -2
288
     1
 68
     0
279
    -2
289
     1
 69
     0
  7
Standard
140
0.18
170
     5
 62
     0
 63
   257
283
     0
274
    -2
284
     1
 64
     0
275
    -2
285
     1
 65
     0
276
    -2
286
     1
 66
     0
277
    -2
287
     1
 67
     0
278
    -2
288
     1
 68
     0
279
    -2
289
     1
 69
     0
  0
VISUALSTYLE
  5
A58
102
{ACAD_REACTORS
330
A53
102
}
102
{ACAD_XDICTIONARY
360
AA6
102
}
330
A53
100
AcDbVisualStyle
  2
2dWireframe
 70
     4
 71
     0
 72
     2
 73
     0
 90
        0
 40
0.6
 41
30.0
 62
     5
 63
     7
 74
     1
 91
        4
 64
     7
 65
   257
 75
     1
175
     1
 42
1.0
 92
        0
 66
   257
 43
1.0
 76
     1
 77
     6
 78
     2
 67
     7
 79
     5
170
     0
171
     0
290
     0
174
     0
 93
        1
 44
0.0
173
     0
291
     0
 45
0.0
1001
ACAD
1000
AcDbSavedByObjectVersion
1070
     0
  0
VISUALSTYLE
  5
A5B
102
{ACAD_REACTORS
330
A53
102
}
102
{ACAD_XDICTIONARY
360
AAC
102
}
330
A53
100
AcDbVisualStyle
  2
Basic
 70
     7
 71
     1
 72
     0
 73
     1
 90
        0
 40
0.6
 41
30.0
 62
     5
 63
     7
 74
     0
 91
        4
 64
     7
 65
   257
 75
     1
175
     1
 42
1.0
 92
        8
 66
     7
 43
1.0
 76
     1
 77
     6
 78
     2
 67
     7
 79
     5
170
     0
171
     0
290
     0
174
     0
 93
        1
 44
0.0
173
     0
291
     1
 45
0.0
1001
ACAD
1000
AcDbSavedByObjectVersion
1070
     0
  0
VISUALSTYLE
  5
A5F
102
{ACAD_REACTORS
330
A53
102
}
102
{ACAD_XDICTIONARY
360
AB4
102
}
330
A53
100
AcDbVisualStyle
  2
Brighten
 70
    12
 71
     2
 72
     2
 73
     0
 90
        0
 40
0.6
 41
30.0
 62
     5
 63
     7
 74
     1
 91
        4
 64
     7
 65
   257
 75
     1
175
     1
 42
1.0
 92
        8
 66
     7
 43
1.0
 76
     1
 77
     6
 78
     2
 67
     7
 79
     5
170
     0
171
     0
290
     0
174
     0
 93
        1
 44
50.0
173
     0
291
     1
 45
0.0
1001
ACAD
1000
AcDbSavedByObjectVersion
1070
     0
  0
VISUALSTYLE
  5
A63
102
{ACAD_REACTORS
330
A53
102
}
102
{ACAD_XDICTIONARY
360
ABC
102
}
330
A53
100
AcDbVisualStyle
  2
ColorChange
 70
    16
 71
     2
 72
     2
 73
     3
 90
        0
 40
0.6
 41
30.0
 62
     5
 63
     8
 74
     1
 91
        4
 64
     7
 65
   257
 75
     1
175
     1
 42
1.0
 92
        8
 66
     8
 43
1.0
 76
     1
 77
     6
 78
     2
 67
     7
 79
     5
170
     0
171
     0
290
     0
174
     0
 93
        1
 44
0.0
173
     0
291
     1
 45
0.0
1001
ACAD
1000
AcDbSavedByObjectVersion
1070
     0
  0
VISUALSTYLE
  5
A5D
102
{ACAD_REACTORS
330
A53
102
}
102
{ACAD_XDICTIONARY
360
AB0
102
}
330
A53
100
AcDbVisualStyle
  2
Conceptual
 70
     9
 71
     3
 72
     2
 73
     0
 90
        0
 40
0.6
 41
30.0
 62
     5
 63
     7
 74
     2
 91
        2
 64
     7
 65
   257
 75
     1
175
     1
 42
179.0
 92
        8
 66
     7
 43
1.0
 76
     1
 77
     6
 78
     2
 67
     7
 79
     3
170
     0
171
     0
290
     0
174
     0
 93
        1
 44
0.0
173
     0
291
     0
 45
0.0
1001
ACAD
1000
AcDbSavedByObjectVersion
1070
     0
  0
VISUALSTYLE
  5
A5E
102
{ACAD_REACTORS
330
A53
102
}
102
{ACAD_XDICTIONARY
360
AB2
102
}
330
A53
100
AcDbVisualStyle
  2
Dim
 70
    11
 71
     2
 72
     2
 73
     0
 90
        0
 40
0.6
 41
30.0
 62
     5
 63
     7
 74
     1
 91
        4
 64
     7
 65
   257
 75
     1
175
     1
 42
1.0
 92
        8
 66
     7
 43
1.0
 76
     1
 77
     6
 78
     2
 67
     7
 79
     5
170
     0
171
     0
290
     0
174
     0
 93
        1
 44
-50.0
173
     0
291
     1
 45
0.0
1001
ACAD
1000
AcDbSavedByObjectVersion
1070
     0
  0
VISUALSTYLE
  5
A66
102
{ACAD_REACTORS
330
A53
102
}
102
{ACAD_XDICTIONARY
360
AC2
102
}
330
A53
100
AcDbVisualStyle
  2
EdgeColorOff
 70
    22
 71
     2
 72
     2
 73
     0
 90
        0
 40
0.6
 41
30.0
 62
     5
 63
     7
 74
     1
 91
        4
 64
     7
 65
   257
 75
     1
175
     1
 42
1.0
 92
        8
 66
     7
 43
1.0
 76
     1
 77
     6
 78
     2
 67
     7
 79
     5
170
     0
171
     0
290
     0
174
     0
 93
        1
 44
0.0
173
     0
291
     1
 45
0.0
1001
ACAD
1000
AcDbSavedByObjectVersion
1070
     0
  0
VISUALSTYLE
  5
A62
102
{ACAD_REACTORS
330
A53
102
}
102
{ACAD_XDICTIONARY
360
ABA
102
}
330
A53
100
AcDbVisualStyle
  2
Facepattern
 70
    15
 71
     2
 72
     2
 73
     0
 90
        0
 40
0.6
 41
30.0
 62
     5
 63
     7
 74
     1
 91
        4
 64
     7
 65
   257
 75
     1
175
     1
 42
1.0
 92
        8
 66
     7
 43
1.0
 76
     1
 77
     6
 78
     2
 67
     7
 79
     5
170
     0
171
     0
290
     0
174
     0
 93
        1
 44
0.0
173
     0
291
     1
 45
0.0
1001
ACAD
1000
AcDbSavedByObjectVersion
1070
     0
  0
VISUALSTYLE
  5
A54
102
{ACAD_REACTORS
330
A53
102
}
102
{ACAD_XDICTIONARY
360
A9E
102
}
330
A53
100
AcDbVisualStyle
  2
Flat
 70
     0
 71
     2
 72
     1
 73
     1
 90
        2
 40
0.6
 41
30.0
 62
     5
 63
     7
 74
     0
 91
        0
 64
     7
 65
   257
 75
     1
175
     1
 42
1.0
 92
        8
 66
     7
 43
1.0
 76
     1
 77
     6
 78
     2
 67
     7
 79
     5
170
     0
171
     0
290
     0
174
     0
 93
       13
 44
0.0
173
     0
291
     1
 45
0.0
1001
ACAD
1000
AcDbSavedByObjectVersion
1070
     0
  0
VISUALSTYLE
  5
A55
102
{ACAD_REACTORS
330
A53
102
}
102
{ACAD_XDICTIONARY
360
AA0
102
}
330
A53
100
AcDbVisualStyle
  2
FlatWithEdges
 70
     1
 71
     2
 72
     1
 73
     1
 90
        2
 40
0.6
 41
30.0
 62
     5
 63
     7
 74
     1
 91
        0
 64
     7
 65
   257
 75
     1
175
     1
 42
1.0
 92
        0
 66
   257
 43
1.0
 76
     1
 77
     6
 78
     2
 67
     7
 79
     5
170
     0
171
     0
290
     0
174
     0
 93
       13
 44
0.0
173
     0
291
     1
 45
0.0
1001
ACAD
1000
AcDbSavedByObjectVersion
1070
     0
  0
VISUALSTYLE
  5
A56
102
{ACAD_REACTORS
330
A53
102
}
102
{ACAD_XDICTIONARY
360
AA2
102
}
330
A53
100
AcDbVisualStyle
  2
Gouraud
 70
     2
 71
     2
 72
     2
 73
     1
 90
        2
 40
0.6
 41
30.0
 62
     5
 63
     7
 74
     0
 91
        0
 64
     7
 65
   257
 75
     1
175
     1
 42
1.0
 92
        0
 66
     7
 43
1.0
 76
     1
 77
     6
 78
     2
 67
     7
 79
     5
170
     0
171
     0
290
     0
174
     0
 93
       13
 44
0.0
173
     0
291
     1
 45
0.0
1001
ACAD
1000
AcDbSavedByObjectVersion
1070
     0
  0
VISUALSTYLE
  5
A57
102
{ACAD_REACTORS
330
A53
102
}
102
{ACAD_XDICTIONARY
360
AA4
102
}
330
A53
100
AcDbVisualStyle
  2
GouraudWithEdges
 70
     3
 71
     2
 72
     2
 73
     1
 90
        2
 40
0.6
 41
30.0
 62
     5
 63
     7
 74
     1
 91
        0
 64
     7
 65
   257
 75
     1
175
     1
 42
1.0
 92
        0
 66
   257
 43
1.0
 76
     1
 77
     6
 78
     2
 67
     7
 79
     5
170
     0
171
     0
290
     0
174
     0
 93
       13
 44
0.0
173
     0
291
     1
 45
0.0
1001
ACAD
1000
AcDbSavedByObjectVersion
1070
     0
  0
VISUALSTYLE
  5
A5A
102
{ACAD_REACTORS
330
A53
102
}
102
{ACAD_XDICTIONARY
360
AAA
102
}
330
A53
100
AcDbVisualStyle
  2
Hidden
 70
     6
 71
     1
 72
     2
 73
     2
 90
        0
 40
0.6
 41
30.0
 62
     5
 63
     7
 74
     2
 91
        2
 64
     7
 65
   257
 75
     2
175
     1
 42
40.0
 92
        0
 66
   257
 43
1.0
 76
     1
 77
     6
 78
     2
 67
     7
 79
     3
170
     0
171
     0
290
     0
174
     0
 93
        1
 44
0.0
173
     0
291
     0
 45
0.0
1001
ACAD
1000
AcDbSavedByObjectVersion
1070
     0
  0
VISUALSTYLE
  5
A64
102
{ACAD_REACTORS
330
A53
102
}
102
{ACAD_XDICTIONARY
360
ABE
102
}
330
A53
100
AcDbVisualStyle
  2
JitterOff
 70
    20
 71
     2
 72
     2
 73
     0
 90
        0
 40
0.6
 41
30.0
 62
     5
 63
     7
 74
     1
 91
        4
 64
     7
 65
   257
 75
     1
175
     1
 42
1.0
 92
       10
 66
     7
 43
1.0
 76
     1
 77
     6
 78
     2
 67
     7
 79
     5
170
     0
171
     0
290
     0
174
     0
 93
        1
 44
0.0
173
     0
291
     1
 45
0.0
1001
ACAD
1000
AcDbSavedByObjectVersion
1070
     0
  0
VISUALSTYLE
  5
A61
102
{ACAD_REACTORS
330
A53
102
}
102
{ACAD_XDICTIONARY
360
AB8
102
}
330
A53
100
AcDbVisualStyle
  2
Linepattern
 70
    14
 71
     2
 72
     2
 73
     0
 90
        0
 40
0.6
 41
30.0
 62
     5
 63
     7
 74
     1
 91
        4
 64
     7
 65
   257
 75
     7
175
     7
 42
1.0
 92
        8
 66
     7
 43
1.0
 76
     1
 77
     6
 78
     2
 67
     7
 79
     5
170
     0
171
     0
290
     0
174
     0
 93
        1
 44
0.0
173
     0
291
     1
 45
0.0
1001
ACAD
1000
AcDbSavedByObjectVersion
1070
     0
  0
VISUALSTYLE
  5
A65
102
{ACAD_REACTORS
330
A53
102
}
102
{ACAD_XDICTIONARY
360
AC0
102
}
330
A53
100
AcDbVisualStyle
  2
OverhangOff
 70
    21
 71
     2
 72
     2
 73
     0
 90
        0
 40
0.6
 41
30.0
 62
     5
 63
     7
 74
     1
 91
        4
 64
     7
 65
   257
 75
     1
175
     1
 42
1.0
 92
        9
 66
     7
 43
1.0
 76
     1
 77
     6
 78
     2
 67
     7
 79
     5
170
     0
171
     0
290
     0
174
     0
 93
        1
 44
0.0
173
     0
291
     1
 45
0.0
1001
ACAD
1000
AcDbSavedByObjectVersion
1070
     0
  0
VISUALSTYLE
  5
A5C
102
{ACAD_REACTORS
330
A53
102
}
102
{ACAD_XDICTIONARY
360
AAE
102
}
330
A53
100
AcDbVisualStyle
  2
Realistic
 70
     8
 71
     2
 72
     3
 73
     0
 90
        2
 40
0.6
 41
30.0
 62
     5
 63
     7
 74
     0
 91
        0
 64
     7
 65
   257
 75
     1
175
     1
 42
1.0
 92
        8
 66
   257
 43
1.0
 76
     1
 77
     6
 78
     2
 67
     7
 79
     3
170
     0
171
     0
290
     0
174
     0
 93
       13
 44
0.0
173
     0
291
     0
 45
0.0
1001
ACAD
1000
AcDbSavedByObjectVersion
1070
     0
  0
VISUALSTYLE
  5
A6B
102
{ACAD_REACTORS
330
A53
102
}
102
{ACAD_XDICTIONARY
360
ACC
102
}
330
A53
100
AcDbVisualStyle
  2
Shaded
 70
    27
 71
     2
 72
     2
 73
     1
 90
        2
 40
0.6
 41
30.0
 62
     5
 63
     7
 74
     0
 91
        4
 64
     7
 65
   257
 75
     1
175
     1
 42
1.0
 92
        8
 66
   257
 43
1.0
 76
     1
 77
     6
 78
     2
 67
     8
 79
     3
170
     0
171
     0
290
     0
174
     0
 93
        5
 44
0.0
173
     0
291
     0
 45
0.0
1001
ACAD
1000
AcDbSavedByObjectVersion
1070
     0
  0
VISUALSTYLE
  5
A6A
102
{ACAD_REACTORS
330
A53
102
}
102
{ACAD_XDICTIONARY
360
ACA
102
}
330
A53
100
AcDbVisualStyle
  2
Shaded with edges
 70
    26
 71
     2
 72
     2
 73
     1
 90
        2
 40
0.6
 41
30.0
 62
     5
 63
     7
 74
     1
 91
       10
 64
     7
 65
   257
 75
     2
175
     1
 42
1.0
 92
        8
 66
   257
 43
1.0
 76
     1
 77
     6
 78
     2
 67
     7
 79
     3
170
     0
171
     0
290
     0
174
     0
 93
        5
 44
0.0
173
     0
291
     0
 45
0.0
1001
ACAD
1000
AcDbSavedByObjectVersion
1070
     0
  0
VISUALSTYLE
  5
A67
102
{ACAD_REACTORS
330
A53
102
}
102
{ACAD_XDICTIONARY
360
AC4
102
}
330
A53
100
AcDbVisualStyle
  2
Shades of Gray
 70
    23
 71
     2
 72
     2
 73
     3
 90
        0
 40
0.6
 41
30.0
 62
     5
 63
     7
 74
     2
 91
        2
 64
     7
 65
     7
 75
     1
175
     1
 42
40.0
 92
        8
 66
     7
 43
1.0
 76
     1
 77
     6
 78
     2
 67
     7
 79
     3
170
     0
171
     0
290
     0
174
     0
 93
        1
 44
0.0
173
     0
291
     0
 45
0.0
1001
ACAD
1000
AcDbSavedByObjectVersion
1070
     0
  0
VISUALSTYLE
  5
A68
102
{ACAD_REACTORS
330
A53
102
}
102
{ACAD_XDICTIONARY
360
AC6
102
}
330
A53
100
AcDbVisualStyle
  2
Sketchy
 70
    24
 71
     1
 72
     2
 73
     2
 90
        0
 40
0.6
 41
30.0
 62
     5
 63
     7
 74
     2
 91
        2
 64
     7
 65
     7
 75
     1
175
     1
 42
40.0
 92
       11
 66
     7
 43
1.0
 76
     1
 77
     6
 78
     2
 67
     7
 79
     6
170
     0
171
     0
290
     0
174
     0
 93
        1
 44
0.0
173
     0
291
     0
 45
0.0
1001
ACAD
1000
AcDbSavedByObjectVersion
1070
     0
  0
VISUALSTYLE
  5
A60
102
{ACAD_REACTORS
330
A53
102
}
102
{ACAD_XDICTIONARY
360
AB6
102
}
330
A53
100
AcDbVisualStyle
  2
Thicken
 70
    13
 71
     2
 72
     2
 73
     0
 90
        0
 40
0.6
 41
30.0
 62
     5
 63
     7
 74
     1
 91
        4
 64
     7
 65
   257
 75
     1
175
     1
 42
1.0
 92
       12
 66
     7
 43
1.0
 76
     1
 77
     6
 78
     2
 67
     7
 79
     5
170
     0
171
     0
290
     0
174
     0
 93
        1
 44
0.0
173
     0
291
     1
 45
0.0
1001
ACAD
1000
AcDbSavedByObjectVersion
1070
     0
  0
VISUALSTYLE
  5
A59
102
{ACAD_REACTORS
330
A53
102
}
102
{ACAD_XDICTIONARY
360
AA8
102
}
330
A53
100
AcDbVisualStyle
  2
Wireframe
 70
     5
 71
     0
 72
     2
 73
     0
 90
        0
 40
0.6
 41
30.0
 62
     5
 63
     7
 74
     1
 91
        4
 64
     7
 65
   257
 75
     1
175
     1
 42
1.0
 92
        0
 66
   257
 43
1.0
 76
     1
 77
     6
 78
     2
 67
     7
 79
     3
170
     0
171
     0
290
     0
174
     0
 93
        1
 44
0.0
173
     0
291
     0
 45
0.0
1001
ACAD
1000
AcDbSavedByObjectVersion
1070
     0
  0
VISUALSTYLE
  5
A69
102
{ACAD_REACTORS
330
A53
102
}
102
{ACAD_XDICTIONARY
360
AC8
102
}
330
A53
100
AcDbVisualStyle
  2
X-Ray
 70
    25
 71
     2
 72
     2
 73
     1
 90
        1
 40
0.5
 41
30.0
 62
     5
 63
     7
 74
     1
 91
        0
 64
     7
 65
   257
 75
     1
175
     1
 42
1.0
 92
        8
 66
     7
 43
1.0
 76
     1
 77
     6
 78
     2
 67
     7
 79
     3
170
     0
171
     0
290
     0
174
     0
 93
       13
 44
0.0
173
     0
291
     0
 45
0.0
1001
ACAD
1000
AcDbSavedByObjectVersion
1070
     0
  0
XRECORD
  5
A8E
102
{ACAD_REACTORS
330
A8D
102
}
330
A8D
100
AcDbXrecord
280
     1
340
73
  0
XRECORD
  5
A8F
102
{ACAD_REACTORS
330
A8D
102
}
330
A8D
100
AcDbXrecord
280
     1
340
72
  0
DICTIONARYVAR
  5
A97
102
{ACAD_REACTORS
330
66
102
}
330
66
100
DictionaryVariables
280
     0
  1
1:1
  0
DICTIONARYVAR
  5
A88
102
{ACAD_REACTORS
330
66
102
}
330
66
100
DictionaryVariables
280
     0
  1
Standard
  0
DICTIONARYVAR
  5
A87
102
{ACAD_REACTORS
330
66
102
}
330
66
100
DictionaryVariables
280
     0
  1
Standard
  0
DICTIONARYVAR
  5
67
102
{ACAD_REACTORS
330
66
102
}
330
66
100
DictionaryVariables
280
     0
  1
2
  0
DICTIONARYVAR
  5
6B
102
{ACAD_REACTORS
330
66
102
}
330
66
100
DictionaryVariables
280
     0
  1
1
  0
DICTIONARYVAR
  5
A89
102
{ACAD_REACTORS
330
66
102
}
330
66
100
DictionaryVariables
280
     0
  1
0
  0
DICTIONARYVAR
  5
A8A
102
{ACAD_REACTORS
330
66
102
}
330
66
100
DictionaryVariables
280
     0
  1
0
  0
XRECORD
  5
71E
102
{ACAD_REACTORS
330
71C
102
}
330
71C
100
AcDbXrecord
280
     1
330
0
330
737
330
0
330
0
  0
DICTIONARY
  5
A9A
330
A7F
100
AcDbDictionary
280
     1
281
     1
  3
ACAD_XREC_ROUNDTRIP
360
A9B
  0
DICTIONARY
  5
A98
330
A7E
100
AcDbDictionary
280
     1
281
     1
  3
ACAD_XREC_ROUNDTRIP
360
A99
  0
DICTIONARY
  5
A9C
330
A80
100
AcDbDictionary
280
     1
281
     1
  3
ACAD_XREC_ROUNDTRIP
360
A9D
  0
DICTIONARY
  5
ACF
330
A82
100
AcDbDictionary
280
     1
281
     1
  3
ACAD_XREC_ROUNDTRIP
360
AD0
  0
DICTIONARY
  5
AA6
330
A58
100
AcDbDictionary
280
     1
281
     1
  3
ACAD_XREC_ROUNDTRIP
360
AA7
  0
DICTIONARY
  5
AAC
330
A5B
100
AcDbDictionary
280
     1
281
     1
  3
ACAD_XREC_ROUNDTRIP
360
AAD
  0
DICTIONARY
  5
AB4
330
A5F
100
AcDbDictionary
280
     1
281
     1
  3
ACAD_XREC_ROUNDTRIP
360
AB5
  0
DICTIONARY
  5
ABC
330
A63
100
AcDbDictionary
280
     1
281
     1
  3
ACAD_XREC_ROUNDTRIP
360
ABD
  0
DICTIONARY
  5
AB0
330
A5D
100
AcDbDictionary
280
     1
281
     1
  3
ACAD_XREC_ROUNDTRIP
360
AB1
  0
DICTIONARY
  5
AB2
330
A5E
100
AcDbDictionary
280
     1
281
     1
  3
ACAD_XREC_ROUNDTRIP
360
AB3
  0
DICTIONARY
  5
AC2
330
A66
100
AcDbDictionary
280
     1
281
     1
  3
ACAD_XREC_ROUNDTRIP
360
AC3
  0
DICTIONARY
  5
ABA
330
A62
100
AcDbDictionary
280
     1
281
     1
  3
ACAD_XREC_ROUNDTRIP
360
ABB
  0
DICTIONARY
  5
A9E
330
A54
100
AcDbDictionary
280
     1
281
     1
  3
ACAD_XREC_ROUNDTRIP
360
A9F
  0
DICTIONARY
  5
AA0
330
A55
100
AcDbDictionary
280
     1
281
     1
  3
ACAD_XREC_ROUNDTRIP
360
AA1
  0
DICTIONARY
  5
AA2
330
A56
100
AcDbDictionary
280
     1
281
     1
  3
ACAD_XREC_ROUNDTRIP
360
AA3
  0
DICTIONARY
  5
AA4
330
A57
100
AcDbDictionary
280
     1
281
     1
  3
ACAD_XREC_ROUNDTRIP
360
AA5
  0
DICTIONARY
  5
AAA
330
A5A
100
AcDbDictionary
280
     1
281
     1
  3
ACAD_XREC_ROUNDTRIP
360
AAB
  0
DICTIONARY
  5
ABE
330
A64
100
AcDbDictionary
280
     1
281
     1
  3
ACAD_XREC_ROUNDTRIP
360
ABF
  0
DICTIONARY
  5
AB8
330
A61
100
AcDbDictionary
280
     1
281
     1
  3
ACAD_XREC_ROUNDTRIP
360
AB9
  0
DICTIONARY
  5
AC0
330
A65
100
AcDbDictionary
280
     1
281
     1
  3
ACAD_XREC_ROUNDTRIP
360
AC1
  0
DICTIONARY
  5
AAE
330
A5C
100
AcDbDictionary
280
     1
281
     1
  3
ACAD_XREC_ROUNDTRIP
360
AAF
  0
DICTIONARY
  5
ACC
330
A6B
100
AcDbDictionary
280
     1
281
     1
  3
ACAD_XREC_ROUNDTRIP
360
ACD
  0
DICTIONARY
  5
ACA
330
A6A
100
AcDbDictionary
280
     1
281
     1
  3
ACAD_XREC_ROUNDTRIP
360
ACB
  0
DICTIONARY
  5
AC4
330
A67
100
AcDbDictionary
280
     1
281
     1
  3
ACAD_XREC_ROUNDTRIP
360
AC5
  0
DICTIONARY
  5
AC6
330
A68
100
AcDbDictionary
280
     1
281
     1
  3
ACAD_XREC_ROUNDTRIP
360
AC7
  0
DICTIONARY
  5
AB6
330
A60
100
AcDbDictionary
280
     1
281
     1
  3
ACAD_XREC_ROUNDTRIP
360
AB7
  0
DICTIONARY
  5
AA8
330
A59
100
AcDbDictionary
280
     1
281
     1
  3
ACAD_XREC_ROUNDTRIP
360
AA9
  0
DICTIONARY
  5
AC8
330
A69
100
AcDbDictionary
280
     1
281
     1
  3
ACAD_XREC_ROUNDTRIP
360
AC9
  0
XRECORD
  5
A9B
102
{ACAD_REACTORS
330
A9A
102
}
330
A9A
100
AcDbXrecord
280
     1
102
MATERIAL
148
0.0
149
0.0
149
0.0
 93
        0
 94
      127
282
     0
 72
     1
 77
     1
171
     1
175
     1
179
     1
273
     0
  0
XRECORD
  5
A99
102
{ACAD_REACTORS
330
A98
102
}
330
A98
100
AcDbXrecord
280
     1
102
MATERIAL
148
0.0
149
0.0
149
0.0
 93
        0
 94
      127
282
     0
 72
     1
 77
     1
171
     1
175
     1
179
     1
273
     0
  0
XRECORD
  5
A9D
102
{ACAD_REACTORS
330
A9C
102
}
330
A9C
100
AcDbXrecord
280
     1
102
MATERIAL
148
0.0
149
0.0
149
0.0
 93
        0
 94
      127
282
     0
 72
     1
 77
     1
171
     1
175
     1
179
     1
273
     0
  0
XRECORD
  5
AD0
102
{ACAD_REACTORS
330
ACF
102
}
330
ACF
100
AcDbXrecord
280
     1
102
ACAD_ROUNDTRIP_2010_MLEADER_STYLE
  0
XRECORD
  5
AA7
102
{ACAD_REACTORS
330
AA6
102
}
330
AA6
100
AcDbXrecord
280
     1
102
RTVSPropertyOp0
 70
     1
102
RTVSPropertyOp1
 70
     1
102
RTVSPropertyOp2
 70
     1
102
RTVSPropertyOp3
 70
     1
102
RTVSPropertyOp4
 70
     1
102
RTVSPropertyOp5
 70
     1
102
RTVSPropertyOp6
 70
     1
102
RTVSPropertyOp7
 70
     1
102
RTVSPropertyOp8
 70
     1
102
RTVSPropertyOp9
 70
     1
102
RTVSPropertyOp10
 70
     1
102
RTVSPropertyOp11
 70
     1
102
RTVSPropertyOp12
 70
     1
102
RTVSPropertyOp13
 70
     1
102
RTVSPropertyOp14
 70
     1
102
RTVSPropertyOp15
 70
     1
102
RTVSPropertyOp16
 70
     1
102
RTVSPropertyOp17
 70
     1
102
RTVSPropertyOp18
 70
     1
102
RTVSPropertyOp19
 70
     1
102
RTVSPropertyOp20
 70
     1
102
RTVSPropertyOp21
 70
     1
102
RTVSPropertyOp22
 70
     1
102
RTVSPropertyOp23
 70
     1
102
RTVSPropertyOp24
 70
     1
102
RTVSPropertyOp25
 70
     1
102
RTVSPropertyOp26
 70
     1
102
RTVSPropertyOp27
 70
     1
102
RTVSPropertyOp28
 70
     1
102
RTVSPropertyOp29
 70
     1
102
RTVSPropertyOp30
 70
     1
102
RTVSPropertyOp31
 70
     1
102
RTVSPropertyOp32
 70
     1
102
RTVSPropertyOp33
 70
     1
102
RTVSPropertyOp34
 70
     1
102
RTVSPropertyOp35
 70
     1
102
RTVSPropertyOp36
 70
     1
102
RTVSPropertyOp37
 70
     1
102
RTVSPropertyOp38
 70
     1
102
RTVSPropertyOp39
 70
     1
102
RTVSPropertyOp40
 70
     1
102
RTVSPropertyOp41
 70
     1
102
RTVSPropertyOp42
 70
     1
102
RTVSPropertyOp43
 70
     1
102
RTVSPropertyOp44
 70
     1
102
RTVSPropertyOp45
 70
     1
102
RTVSPropertyOp46
 70
     1
102
RTVSPropertyOp47
 70
     1
102
RTVSPropertyOp48
 70
     1
102
RTVSPropertyOp49
 70
     1
102
RTVSPropertyOp50
 70
     1
102
RTVSPropertyOp51
 70
     0
102
RTVSPropertyOp52
 70
     0
102
RTVSPropertyOp53
 70
     1
102
RTVSPropertyOp54
 70
     1
102
RTVSPropertyOp55
 70
     1
102
RTVSPropertyOp56
 70
     1
102
RTVSPropertyOp57
 70
     1
102
RTVSPost2010Prop28
280
     1
102
RTVSPost2010PropOp28
 70
     1
102
RTVSPost2010Prop29
280
     1
102
RTVSPost2010PropOp29
 70
     1
102
RTVSPost2010Prop30
280
     0
102
RTVSPost2010PropOp30
 70
     1
102
RTVSPost2010Prop31
280
     0
102
RTVSPost2010PropOp31
 70
     1
102
RTVSPost2010Prop32
280
     0
102
RTVSPost2010PropOp32
 70
     1
102
RTVSPost2010Prop33
280
     0
102
RTVSPost2010PropOp33
 70
     1
102
RTVSPost2010Prop34
280
     0
102
RTVSPost2010PropOp34
 70
     1
102
RTVSPost2010Prop35
280
     0
102
RTVSPost2010PropOp35
 70
     1
102
RTVSPost2010Prop36
280
     0
102
RTVSPost2010PropOp36
 70
     1
102
RTVSPost2010Prop37
 90
       50
102
RTVSPost2010PropOp37
 70
     1
102
RTVSPost2010Prop38
140
0.0
102
RTVSPost2010PropOp38
 70
     1
102
RTVSPost2010Prop39
140
1.0
102
RTVSPost2010PropOp39
 70
     1
102
RTVSPost2010Prop40
 90
        0
102
RTVSPost2010PropOp40
 70
     1
102
RTVSPost2010Prop41ColorIndex
 90
       18
102
RTVSPost2010Prop41ColorRGB
 90
        0
102
RTVSPost2010PropOp41
 70
     1
102
RTVSPost2010Prop42
 90
       50
102
RTVSPost2010PropOp42
 70
     1
102
RTVSPost2010Prop43
 90
        3
102
RTVSPost2010PropOp43
 70
     1
102
RTVSPost2010Prop44ColorIndex
 90
        5
102
RTVSPost2010Prop44ColorRGB
 90
      255
102
RTVSPost2010PropOp44
 70
     1
102
RTVSPost2010Prop45
280
     0
102
RTVSPost2010PropOp45
 70
     1
102
RTVSPost2010Prop46
 90
       50
102
RTVSPost2010PropOp46
 70
     1
102
RTVSPost2010Prop47
 90
       50
102
RTVSPost2010PropOp47
 70
     1
102
RTVSPost2010Prop48
 90
       50
102
RTVSPost2010PropOp48
 70
     1
102
RTVSPost2010Prop49
280
     0
102
RTVSPost2010PropOp49
 70
     1
102
RTVSPost2010Prop50
 90
       50
102
RTVSPost2010PropOp50
 70
     1
102
RTVSPost2010Prop51ColorIndex
 90
      256
102
RTVSPost2010Prop51ColorRGB
 90
-16777216
102
RTVSPost2010PropOp51
 70
     0
102
RTVSPost2010Prop52
140
1.0
102
RTVSPost2010PropOp52
 70
     0
102
RTVSPost2010Prop53
 90
        2
102
RTVSPost2010PropOp53
 70
     1
102
RTVSPost2010Prop54
  1
strokes_ogs.tif
102
RTVSPost2010PropOp54
 70
     1
102
RTVSPost2010Prop55
280
     0
102
RTVSPost2010PropOp55
 70
     1
102
RTVSPost2010Prop56
140
1.0
102
RTVSPost2010PropOp56
 70
     1
102
RTVSPost2010Prop57
140
1.0
102
RTVSPost2010PropOp57
 70
     1
  0
XRECORD
  5
AAD
102
{ACAD_REACTORS
330
AAC
102
}
330
AAC
100
AcDbXrecord
280
     1
102
RTVSPropertyOp0
 70
     1
102
RTVSPropertyOp1
 70
     1
102
RTVSPropertyOp2
 70
     1
102
RTVSPropertyOp3
 70
     1
102
RTVSPropertyOp4
 70
     1
102
RTVSPropertyOp5
 70
     1
102
RTVSPropertyOp6
 70
     1
102
RTVSPropertyOp7
 70
     1
102
RTVSPropertyOp8
 70
     1
102
RTVSPropertyOp9
 70
     1
102
RTVSPropertyOp10
 70
     1
102
RTVSPropertyOp11
 70
     1
102
RTVSPropertyOp12
 70
     1
102
RTVSPropertyOp13
 70
     1
102
RTVSPropertyOp14
 70
     1
102
RTVSPropertyOp15
 70
     1
102
RTVSPropertyOp16
 70
     1
102
RTVSPropertyOp17
 70
     1
102
RTVSPropertyOp18
 70
     1
102
RTVSPropertyOp19
 70
     1
102
RTVSPropertyOp20
 70
     1
102
RTVSPropertyOp21
 70
     1
102
RTVSPropertyOp22
 70
     1
102
RTVSPropertyOp23
 70
     1
102
RTVSPropertyOp24
 70
     1
102
RTVSPropertyOp25
 70
     1
102
RTVSPropertyOp26
 70
     1
102
RTVSPropertyOp27
 70
     1
102
RTVSPropertyOp28
 70
     1
102
RTVSPropertyOp29
 70
     1
102
RTVSPropertyOp30
 70
     1
102
RTVSPropertyOp31
 70
     1
102
RTVSPropertyOp32
 70
     1
102
RTVSPropertyOp33
 70
     1
102
RTVSPropertyOp34
 70
     1
102
RTVSPropertyOp35
 70
     1
102
RTVSPropertyOp36
 70
     1
102
RTVSPropertyOp37
 70
     1
102
RTVSPropertyOp38
 70
     1
102
RTVSPropertyOp39
 70
     1
102
RTVSPropertyOp40
 70
     1
102
RTVSPropertyOp41
 70
     1
102
RTVSPropertyOp42
 70
     1
102
RTVSPropertyOp43
 70
     1
102
RTVSPropertyOp44
 70
     1
102
RTVSPropertyOp45
 70
     1
102
RTVSPropertyOp46
 70
     1
102
RTVSPropertyOp47
 70
     1
102
RTVSPropertyOp48
 70
     1
102
RTVSPropertyOp49
 70
     1
102
RTVSPropertyOp50
 70
     1
102
RTVSPropertyOp51
 70
     0
102
RTVSPropertyOp52
 70
     0
102
RTVSPropertyOp53
 70
     1
102
RTVSPropertyOp54
 70
     1
102
RTVSPropertyOp55
 70
     1
102
RTVSPropertyOp56
 70
     1
102
RTVSPropertyOp57
 70
     1
102
RTVSPost2010Prop28
280
     0
102
RTVSPost2010PropOp28
 70
     1
102
RTVSPost2010Prop29
280
     1
102
RTVSPost2010PropOp29
 70
     1
102
RTVSPost2010Prop30
280
     1
102
RTVSPost2010PropOp30
 70
     1
102
RTVSPost2010Prop31
280
     0
102
RTVSPost2010PropOp31
 70
     1
102
RTVSPost2010Prop32
280
     0
102
RTVSPost2010PropOp32
 70
     1
102
RTVSPost2010Prop33
280
     0
102
RTVSPost2010PropOp33
 70
     1
102
RTVSPost2010Prop34
280
     0
102
RTVSPost2010PropOp34
 70
     1
102
RTVSPost2010Prop35
280
     0
102
RTVSPost2010PropOp35
 70
     1
102
RTVSPost2010Prop36
280
     0
102
RTVSPost2010PropOp36
 70
     1
102
RTVSPost2010Prop37
 90
       50
102
RTVSPost2010PropOp37
 70
     1
102
RTVSPost2010Prop38
140
0.0
102
RTVSPost2010PropOp38
 70
     1
102
RTVSPost2010Prop39
140
1.0
102
RTVSPost2010PropOp39
 70
     1
102
RTVSPost2010Prop40
 90
        0
102
RTVSPost2010PropOp40
 70
     1
102
RTVSPost2010Prop41ColorIndex
 90
       18
102
RTVSPost2010Prop41ColorRGB
 90
        0
102
RTVSPost2010PropOp41
 70
     1
102
RTVSPost2010Prop42
 90
       50
102
RTVSPost2010PropOp42
 70
     1
102
RTVSPost2010Prop43
 90
        3
102
RTVSPost2010PropOp43
 70
     1
102
RTVSPost2010Prop44ColorIndex
 90
        5
102
RTVSPost2010Prop44ColorRGB
 90
      255
102
RTVSPost2010PropOp44
 70
     1
102
RTVSPost2010Prop45
280
     0
102
RTVSPost2010PropOp45
 70
     1
102
RTVSPost2010Prop46
 90
       50
102
RTVSPost2010PropOp46
 70
     1
102
RTVSPost2010Prop47
 90
       50
102
RTVSPost2010PropOp47
 70
     1
102
RTVSPost2010Prop48
 90
       50
102
RTVSPost2010PropOp48
 70
     1
102
RTVSPost2010Prop49
280
     0
102
RTVSPost2010PropOp49
 70
     1
102
RTVSPost2010Prop50
 90
       50
102
RTVSPost2010PropOp50
 70
     1
102
RTVSPost2010Prop51ColorIndex
 90
      256
102
RTVSPost2010Prop51ColorRGB
 90
-16777216
102
RTVSPost2010PropOp51
 70
     0
102
RTVSPost2010Prop52
140
1.0
102
RTVSPost2010PropOp52
 70
     0
102
RTVSPost2010Prop53
 90
        2
102
RTVSPost2010PropOp53
 70
     1
102
RTVSPost2010Prop54
  1
strokes_ogs.tif
102
RTVSPost2010PropOp54
 70
     1
102
RTVSPost2010Prop55
280
     0
102
RTVSPost2010PropOp55
 70
     1
102
RTVSPost2010Prop56
140
1.0
102
RTVSPost2010PropOp56
 70
     1
102
RTVSPost2010Prop57
140
1.0
102
RTVSPost2010PropOp57
 70
     1
  0
XRECORD
  5
AB5
102
{ACAD_REACTORS
330
AB4
102
}
330
AB4
100
AcDbXrecord
280
     1
102
RTVSPropertyOp0
 70
     1
102
RTVSPropertyOp1
 70
     1
102
RTVSPropertyOp2
 70
     1
102
RTVSPropertyOp3
 70
     1
102
RTVSPropertyOp4
 70
     1
102
RTVSPropertyOp5
 70
     1
102
RTVSPropertyOp6
 70
     1
102
RTVSPropertyOp7
 70
     1
102
RTVSPropertyOp8
 70
     1
102
RTVSPropertyOp9
 70
     1
102
RTVSPropertyOp10
 70
     1
102
RTVSPropertyOp11
 70
     1
102
RTVSPropertyOp12
 70
     1
102
RTVSPropertyOp13
 70
     1
102
RTVSPropertyOp14
 70
     1
102
RTVSPropertyOp15
 70
     1
102
RTVSPropertyOp16
 70
     1
102
RTVSPropertyOp17
 70
     1
102
RTVSPropertyOp18
 70
     1
102
RTVSPropertyOp19
 70
     1
102
RTVSPropertyOp20
 70
     1
102
RTVSPropertyOp21
 70
     1
102
RTVSPropertyOp22
 70
     1
102
RTVSPropertyOp23
 70
     1
102
RTVSPropertyOp24
 70
     1
102
RTVSPropertyOp25
 70
     1
102
RTVSPropertyOp26
 70
     1
102
RTVSPropertyOp27
 70
     1
102
RTVSPropertyOp28
 70
     1
102
RTVSPropertyOp29
 70
     1
102
RTVSPropertyOp30
 70
     1
102
RTVSPropertyOp31
 70
     1
102
RTVSPropertyOp32
 70
     1
102
RTVSPropertyOp33
 70
     1
102
RTVSPropertyOp34
 70
     1
102
RTVSPropertyOp35
 70
     1
102
RTVSPropertyOp36
 70
     1
102
RTVSPropertyOp37
 70
     1
102
RTVSPropertyOp38
 70
     1
102
RTVSPropertyOp39
 70
     1
102
RTVSPropertyOp40
 70
     1
102
RTVSPropertyOp41
 70
     1
102
RTVSPropertyOp42
 70
     1
102
RTVSPropertyOp43
 70
     1
102
RTVSPropertyOp44
 70
     1
102
RTVSPropertyOp45
 70
     1
102
RTVSPropertyOp46
 70
     1
102
RTVSPropertyOp47
 70
     1
102
RTVSPropertyOp48
 70
     1
102
RTVSPropertyOp49
 70
     1
102
RTVSPropertyOp50
 70
     1
102
RTVSPropertyOp51
 70
     0
102
RTVSPropertyOp52
 70
     0
102
RTVSPropertyOp53
 70
     1
102
RTVSPropertyOp54
 70
     1
102
RTVSPropertyOp55
 70
     1
102
RTVSPropertyOp56
 70
     1
102
RTVSPropertyOp57
 70
     1
102
RTVSPost2010Prop28
280
     0
102
RTVSPost2010PropOp28
 70
     1
102
RTVSPost2010Prop29
280
     1
102
RTVSPost2010PropOp29
 70
     1
102
RTVSPost2010Prop30
280
     1
102
RTVSPost2010PropOp30
 70
     1
102
RTVSPost2010Prop31
280
     0
102
RTVSPost2010PropOp31
 70
     1
102
RTVSPost2010Prop32
280
     0
102
RTVSPost2010PropOp32
 70
     1
102
RTVSPost2010Prop33
280
     0
102
RTVSPost2010PropOp33
 70
     1
102
RTVSPost2010Prop34
280
     0
102
RTVSPost2010PropOp34
 70
     1
102
RTVSPost2010Prop35
280
     0
102
RTVSPost2010PropOp35
 70
     1
102
RTVSPost2010Prop36
280
     0
102
RTVSPost2010PropOp36
 70
     1
102
RTVSPost2010Prop37
 90
       50
102
RTVSPost2010PropOp37
 70
     1
102
RTVSPost2010Prop38
140
0.0
102
RTVSPost2010PropOp38
 70
     1
102
RTVSPost2010Prop39
140
1.0
102
RTVSPost2010PropOp39
 70
     1
102
RTVSPost2010Prop40
 90
        0
102
RTVSPost2010PropOp40
 70
     1
102
RTVSPost2010Prop41ColorIndex
 90
       18
102
RTVSPost2010Prop41ColorRGB
 90
        0
102
RTVSPost2010PropOp41
 70
     1
102
RTVSPost2010Prop42
 90
       50
102
RTVSPost2010PropOp42
 70
     1
102
RTVSPost2010Prop43
 90
        3
102
RTVSPost2010PropOp43
 70
     1
102
RTVSPost2010Prop44ColorIndex
 90
        5
102
RTVSPost2010Prop44ColorRGB
 90
      255
102
RTVSPost2010PropOp44
 70
     1
102
RTVSPost2010Prop45
280
     0
102
RTVSPost2010PropOp45
 70
     1
102
RTVSPost2010Prop46
 90
       50
102
RTVSPost2010PropOp46
 70
     1
102
RTVSPost2010Prop47
 90
       50
102
RTVSPost2010PropOp47
 70
     1
102
RTVSPost2010Prop48
 90
       50
102
RTVSPost2010PropOp48
 70
     1
102
RTVSPost2010Prop49
280
     0
102
RTVSPost2010PropOp49
 70
     1
102
RTVSPost2010Prop50
 90
       50
102
RTVSPost2010PropOp50
 70
     1
102
RTVSPost2010Prop51ColorIndex
 90
      256
102
RTVSPost2010Prop51ColorRGB
 90
-16777216
102
RTVSPost2010PropOp51
 70
     0
102
RTVSPost2010Prop52
140
1.0
102
RTVSPost2010PropOp52
 70
     0
102
RTVSPost2010Prop53
 90
        2
102
RTVSPost2010PropOp53
 70
     1
102
RTVSPost2010Prop54
  1
strokes_ogs.tif
102
RTVSPost2010PropOp54
 70
     1
102
RTVSPost2010Prop55
280
     0
102
RTVSPost2010PropOp55
 70
     1
102
RTVSPost2010Prop56
140
1.0
102
RTVSPost2010PropOp56
 70
     1
102
RTVSPost2010Prop57
140
1.0
102
RTVSPost2010PropOp57
 70
     1
  0
XRECORD
  5
ABD
102
{ACAD_REACTORS
330
ABC
102
}
330
ABC
100
AcDbXrecord
280
     1
102
RTVSPropertyOp0
 70
     1
102
RTVSPropertyOp1
 70
     1
102
RTVSPropertyOp2
 70
     1
102
RTVSPropertyOp3
 70
     1
102
RTVSPropertyOp4
 70
     1
102
RTVSPropertyOp5
 70
     1
102
RTVSPropertyOp6
 70
     1
102
RTVSPropertyOp7
 70
     1
102
RTVSPropertyOp8
 70
     1
102
RTVSPropertyOp9
 70
     1
102
RTVSPropertyOp10
 70
     1
102
RTVSPropertyOp11
 70
     1
102
RTVSPropertyOp12
 70
     1
102
RTVSPropertyOp13
 70
     1
102
RTVSPropertyOp14
 70
     1
102
RTVSPropertyOp15
 70
     1
102
RTVSPropertyOp16
 70
     1
102
RTVSPropertyOp17
 70
     1
102
RTVSPropertyOp18
 70
     1
102
RTVSPropertyOp19
 70
     1
102
RTVSPropertyOp20
 70
     1
102
RTVSPropertyOp21
 70
     1
102
RTVSPropertyOp22
 70
     1
102
RTVSPropertyOp23
 70
     1
102
RTVSPropertyOp24
 70
     1
102
RTVSPropertyOp25
 70
     1
102
RTVSPropertyOp26
 70
     1
102
RTVSPropertyOp27
 70
     1
102
RTVSPropertyOp28
 70
     1
102
RTVSPropertyOp29
 70
     1
102
RTVSPropertyOp30
 70
     1
102
RTVSPropertyOp31
 70
     1
102
RTVSPropertyOp32
 70
     1
102
RTVSPropertyOp33
 70
     1
102
RTVSPropertyOp34
 70
     1
102
RTVSPropertyOp35
 70
     1
102
RTVSPropertyOp36
 70
     1
102
RTVSPropertyOp37
 70
     1
102
RTVSPropertyOp38
 70
     1
102
RTVSPropertyOp39
 70
     1
102
RTVSPropertyOp40
 70
     1
102
RTVSPropertyOp41
 70
     1
102
RTVSPropertyOp42
 70
     1
102
RTVSPropertyOp43
 70
     1
102
RTVSPropertyOp44
 70
     1
102
RTVSPropertyOp45
 70
     1
102
RTVSPropertyOp46
 70
     1
102
RTVSPropertyOp47
 70
     1
102
RTVSPropertyOp48
 70
     1
102
RTVSPropertyOp49
 70
     1
102
RTVSPropertyOp50
 70
     1
102
RTVSPropertyOp51
 70
     0
102
RTVSPropertyOp52
 70
     0
102
RTVSPropertyOp53
 70
     1
102
RTVSPropertyOp54
 70
     1
102
RTVSPropertyOp55
 70
     1
102
RTVSPropertyOp56
 70
     1
102
RTVSPropertyOp57
 70
     1
102
RTVSPost2010Prop28
280
     0
102
RTVSPost2010PropOp28
 70
     1
102
RTVSPost2010Prop29
280
     1
102
RTVSPost2010PropOp29
 70
     1
102
RTVSPost2010Prop30
280
     1
102
RTVSPost2010PropOp30
 70
     1
102
RTVSPost2010Prop31
280
     0
102
RTVSPost2010PropOp31
 70
     1
102
RTVSPost2010Prop32
280
     0
102
RTVSPost2010PropOp32
 70
     1
102
RTVSPost2010Prop33
280
     0
102
RTVSPost2010PropOp33
 70
     1
102
RTVSPost2010Prop34
280
     0
102
RTVSPost2010PropOp34
 70
     1
102
RTVSPost2010Prop35
280
     0
102
RTVSPost2010PropOp35
 70
     1
102
RTVSPost2010Prop36
280
     0
102
RTVSPost2010PropOp36
 70
     1
102
RTVSPost2010Prop37
 90
       50
102
RTVSPost2010PropOp37
 70
     1
102
RTVSPost2010Prop38
140
0.0
102
RTVSPost2010PropOp38
 70
     1
102
RTVSPost2010Prop39
140
1.0
102
RTVSPost2010PropOp39
 70
     1
102
RTVSPost2010Prop40
 90
        0
102
RTVSPost2010PropOp40
 70
     1
102
RTVSPost2010Prop41ColorIndex
 90
       18
102
RTVSPost2010Prop41ColorRGB
 90
        0
102
RTVSPost2010PropOp41
 70
     1
102
RTVSPost2010Prop42
 90
       50
102
RTVSPost2010PropOp42
 70
     1
102
RTVSPost2010Prop43
 90
        3
102
RTVSPost2010PropOp43
 70
     1
102
RTVSPost2010Prop44ColorIndex
 90
        5
102
RTVSPost2010Prop44ColorRGB
 90
      255
102
RTVSPost2010PropOp44
 70
     1
102
RTVSPost2010Prop45
280
     0
102
RTVSPost2010PropOp45
 70
     1
102
RTVSPost2010Prop46
 90
       50
102
RTVSPost2010PropOp46
 70
     1
102
RTVSPost2010Prop47
 90
       50
102
RTVSPost2010PropOp47
 70
     1
102
RTVSPost2010Prop48
 90
       50
102
RTVSPost2010PropOp48
 70
     1
102
RTVSPost2010Prop49
280
     0
102
RTVSPost2010PropOp49
 70
     1
102
RTVSPost2010Prop50
 90
       50
102
RTVSPost2010PropOp50
 70
     1
102
RTVSPost2010Prop51ColorIndex
 90
      256
102
RTVSPost2010Prop51ColorRGB
 90
-16777216
102
RTVSPost2010PropOp51
 70
     0
102
RTVSPost2010Prop52
140
1.0
102
RTVSPost2010PropOp52
 70
     0
102
RTVSPost2010Prop53
 90
        2
102
RTVSPost2010PropOp53
 70
     1
102
RTVSPost2010Prop54
  1
strokes_ogs.tif
102
RTVSPost2010PropOp54
 70
     1
102
RTVSPost2010Prop55
280
     0
102
RTVSPost2010PropOp55
 70
     1
102
RTVSPost2010Prop56
140
1.0
102
RTVSPost2010PropOp56
 70
     1
102
RTVSPost2010Prop57
140
1.0
102
RTVSPost2010PropOp57
 70
     1
  0
XRECORD
  5
AB1
102
{ACAD_REACTORS
330
AB0
102
}
330
AB0
100
AcDbXrecord
280
     1
102
RTVSPropertyOp0
 70
     1
102
RTVSPropertyOp1
 70
     1
102
RTVSPropertyOp2
 70
     1
102
RTVSPropertyOp3
 70
     1
102
RTVSPropertyOp4
 70
     1
102
RTVSPropertyOp5
 70
     1
102
RTVSPropertyOp6
 70
     1
102
RTVSPropertyOp7
 70
     1
102
RTVSPropertyOp8
 70
     1
102
RTVSPropertyOp9
 70
     1
102
RTVSPropertyOp10
 70
     1
102
RTVSPropertyOp11
 70
     1
102
RTVSPropertyOp12
 70
     1
102
RTVSPropertyOp13
 70
     1
102
RTVSPropertyOp14
 70
     1
102
RTVSPropertyOp15
 70
     1
102
RTVSPropertyOp16
 70
     1
102
RTVSPropertyOp17
 70
     1
102
RTVSPropertyOp18
 70
     1
102
RTVSPropertyOp19
 70
     1
102
RTVSPropertyOp20
 70
     1
102
RTVSPropertyOp21
 70
     1
102
RTVSPropertyOp22
 70
     1
102
RTVSPropertyOp23
 70
     1
102
RTVSPropertyOp24
 70
     1
102
RTVSPropertyOp25
 70
     1
102
RTVSPropertyOp26
 70
     1
102
RTVSPropertyOp27
 70
     1
102
RTVSPropertyOp28
 70
     1
102
RTVSPropertyOp29
 70
     1
102
RTVSPropertyOp30
 70
     1
102
RTVSPropertyOp31
 70
     1
102
RTVSPropertyOp32
 70
     1
102
RTVSPropertyOp33
 70
     1
102
RTVSPropertyOp34
 70
     1
102
RTVSPropertyOp35
 70
     1
102
RTVSPropertyOp36
 70
     1
102
RTVSPropertyOp37
 70
     1
102
RTVSPropertyOp38
 70
     1
102
RTVSPropertyOp39
 70
     1
102
RTVSPropertyOp40
 70
     1
102
RTVSPropertyOp41
 70
     1
102
RTVSPropertyOp42
 70
     1
102
RTVSPropertyOp43
 70
     1
102
RTVSPropertyOp44
 70
     1
102
RTVSPropertyOp45
 70
     1
102
RTVSPropertyOp46
 70
     1
102
RTVSPropertyOp47
 70
     1
102
RTVSPropertyOp48
 70
     1
102
RTVSPropertyOp49
 70
     1
102
RTVSPropertyOp50
 70
     1
102
RTVSPropertyOp51
 70
     0
102
RTVSPropertyOp52
 70
     0
102
RTVSPropertyOp53
 70
     1
102
RTVSPropertyOp54
 70
     1
102
RTVSPropertyOp55
 70
     1
102
RTVSPropertyOp56
 70
     1
102
RTVSPropertyOp57
 70
     1
102
RTVSPost2010Prop28
280
     0
102
RTVSPost2010PropOp28
 70
     1
102
RTVSPost2010Prop29
280
     1
102
RTVSPost2010PropOp29
 70
     1
102
RTVSPost2010Prop30
280
     1
102
RTVSPost2010PropOp30
 70
     1
102
RTVSPost2010Prop31
280
     0
102
RTVSPost2010PropOp31
 70
     1
102
RTVSPost2010Prop32
280
     0
102
RTVSPost2010PropOp32
 70
     1
102
RTVSPost2010Prop33
280
     0
102
RTVSPost2010PropOp33
 70
     1
102
RTVSPost2010Prop34
280
     0
102
RTVSPost2010PropOp34
 70
     1
102
RTVSPost2010Prop35
280
     0
102
RTVSPost2010PropOp35
 70
     1
102
RTVSPost2010Prop36
280
     0
102
RTVSPost2010PropOp36
 70
     1
102
RTVSPost2010Prop37
 90
       50
102
RTVSPost2010PropOp37
 70
     1
102
RTVSPost2010Prop38
140
0.0
102
RTVSPost2010PropOp38
 70
     1
102
RTVSPost2010Prop39
140
1.0
102
RTVSPost2010PropOp39
 70
     1
102
RTVSPost2010Prop40
 90
        0
102
RTVSPost2010PropOp40
 70
     1
102
RTVSPost2010Prop41ColorIndex
 90
       18
102
RTVSPost2010Prop41ColorRGB
 90
        0
102
RTVSPost2010PropOp41
 70
     1
102
RTVSPost2010Prop42
 90
       50
102
RTVSPost2010PropOp42
 70
     1
102
RTVSPost2010Prop43
 90
        3
102
RTVSPost2010PropOp43
 70
     1
102
RTVSPost2010Prop44ColorIndex
 90
        5
102
RTVSPost2010Prop44ColorRGB
 90
      255
102
RTVSPost2010PropOp44
 70
     1
102
RTVSPost2010Prop45
280
     0
102
RTVSPost2010PropOp45
 70
     1
102
RTVSPost2010Prop46
 90
       50
102
RTVSPost2010PropOp46
 70
     1
102
RTVSPost2010Prop47
 90
       50
102
RTVSPost2010PropOp47
 70
     1
102
RTVSPost2010Prop48
 90
       50
102
RTVSPost2010PropOp48
 70
     1
102
RTVSPost2010Prop49
280
     0
102
RTVSPost2010PropOp49
 70
     1
102
RTVSPost2010Prop50
 90
       50
102
RTVSPost2010PropOp50
 70
     1
102
RTVSPost2010Prop51ColorIndex
 90
      256
102
RTVSPost2010Prop51ColorRGB
 90
-16777216
102
RTVSPost2010PropOp51
 70
     0
102
RTVSPost2010Prop52
140
1.0
102
RTVSPost2010PropOp52
 70
     0
102
RTVSPost2010Prop53
 90
        2
102
RTVSPost2010PropOp53
 70
     1
102
RTVSPost2010Prop54
  1
strokes_ogs.tif
102
RTVSPost2010PropOp54
 70
     1
102
RTVSPost2010Prop55
280
     0
102
RTVSPost2010PropOp55
 70
     1
102
RTVSPost2010Prop56
140
1.0
102
RTVSPost2010PropOp56
 70
     1
102
RTVSPost2010Prop57
140
1.0
102
RTVSPost2010PropOp57
 70
     1
  0
XRECORD
  5
AB3
102
{ACAD_REACTORS
330
AB2
102
}
330
AB2
100
AcDbXrecord
280
     1
102
RTVSPropertyOp0
 70
     1
102
RTVSPropertyOp1
 70
     1
102
RTVSPropertyOp2
 70
     1
102
RTVSPropertyOp3
 70
     1
102
RTVSPropertyOp4
 70
     1
102
RTVSPropertyOp5
 70
     1
102
RTVSPropertyOp6
 70
     1
102
RTVSPropertyOp7
 70
     1
102
RTVSPropertyOp8
 70
     1
102
RTVSPropertyOp9
 70
     1
102
RTVSPropertyOp10
 70
     1
102
RTVSPropertyOp11
 70
     1
102
RTVSPropertyOp12
 70
     1
102
RTVSPropertyOp13
 70
     1
102
RTVSPropertyOp14
 70
     1
102
RTVSPropertyOp15
 70
     1
102
RTVSPropertyOp16
 70
     1
102
RTVSPropertyOp17
 70
     1
102
RTVSPropertyOp18
 70
     1
102
RTVSPropertyOp19
 70
     1
102
RTVSPropertyOp20
 70
     1
102
RTVSPropertyOp21
 70
     1
102
RTVSPropertyOp22
 70
     1
102
RTVSPropertyOp23
 70
     1
102
RTVSPropertyOp24
 70
     1
102
RTVSPropertyOp25
 70
     1
102
RTVSPropertyOp26
 70
     1
102
RTVSPropertyOp27
 70
     1
102
RTVSPropertyOp28
 70
     1
102
RTVSPropertyOp29
 70
     1
102
RTVSPropertyOp30
 70
     1
102
RTVSPropertyOp31
 70
     1
102
RTVSPropertyOp32
 70
     1
102
RTVSPropertyOp33
 70
     1
102
RTVSPropertyOp34
 70
     1
102
RTVSPropertyOp35
 70
     1
102
RTVSPropertyOp36
 70
     1
102
RTVSPropertyOp37
 70
     1
102
RTVSPropertyOp38
 70
     1
102
RTVSPropertyOp39
 70
     1
102
RTVSPropertyOp40
 70
     1
102
RTVSPropertyOp41
 70
     1
102
RTVSPropertyOp42
 70
     1
102
RTVSPropertyOp43
 70
     1
102
RTVSPropertyOp44
 70
     1
102
RTVSPropertyOp45
 70
     1
102
RTVSPropertyOp46
 70
     1
102
RTVSPropertyOp47
 70
     1
102
RTVSPropertyOp48
 70
     1
102
RTVSPropertyOp49
 70
     1
102
RTVSPropertyOp50
 70
     1
102
RTVSPropertyOp51
 70
     0
102
RTVSPropertyOp52
 70
     0
102
RTVSPropertyOp53
 70
     1
102
RTVSPropertyOp54
 70
     1
102
RTVSPropertyOp55
 70
     1
102
RTVSPropertyOp56
 70
     1
102
RTVSPropertyOp57
 70
     1
102
RTVSPost2010Prop28
280
     0
102
RTVSPost2010PropOp28
 70
     1
102
RTVSPost2010Prop29
280
     1
102
RTVSPost2010PropOp29
 70
     1
102
RTVSPost2010Prop30
280
     1
102
RTVSPost2010PropOp30
 70
     1
102
RTVSPost2010Prop31
280
     0
102
RTVSPost2010PropOp31
 70
     1
102
RTVSPost2010Prop32
280
     0
102
RTVSPost2010PropOp32
 70
     1
102
RTVSPost2010Prop33
280
     0
102
RTVSPost2010PropOp33
 70
     1
102
RTVSPost2010Prop34
280
     0
102
RTVSPost2010PropOp34
 70
     1
102
RTVSPost2010Prop35
280
     0
102
RTVSPost2010PropOp35
 70
     1
102
RTVSPost2010Prop36
280
     0
102
RTVSPost2010PropOp36
 70
     1
102
RTVSPost2010Prop37
 90
       50
102
RTVSPost2010PropOp37
 70
     1
102
RTVSPost2010Prop38
140
0.0
102
RTVSPost2010PropOp38
 70
     1
102
RTVSPost2010Prop39
140
1.0
102
RTVSPost2010PropOp39
 70
     1
102
RTVSPost2010Prop40
 90
        0
102
RTVSPost2010PropOp40
 70
     1
102
RTVSPost2010Prop41ColorIndex
 90
       18
102
RTVSPost2010Prop41ColorRGB
 90
        0
102
RTVSPost2010PropOp41
 70
     1
102
RTVSPost2010Prop42
 90
       50
102
RTVSPost2010PropOp42
 70
     1
102
RTVSPost2010Prop43
 90
        3
102
RTVSPost2010PropOp43
 70
     1
102
RTVSPost2010Prop44ColorIndex
 90
        5
102
RTVSPost2010Prop44ColorRGB
 90
      255
102
RTVSPost2010PropOp44
 70
     1
102
RTVSPost2010Prop45
280
     0
102
RTVSPost2010PropOp45
 70
     1
102
RTVSPost2010Prop46
 90
       50
102
RTVSPost2010PropOp46
 70
     1
102
RTVSPost2010Prop47
 90
       50
102
RTVSPost2010PropOp47
 70
     1
102
RTVSPost2010Prop48
 90
       50
102
RTVSPost2010PropOp48
 70
     1
102
RTVSPost2010Prop49
280
     0
102
RTVSPost2010PropOp49
 70
     1
102
RTVSPost2010Prop50
 90
       50
102
RTVSPost2010PropOp50
 70
     1
102
RTVSPost2010Prop51ColorIndex
 90
      256
102
RTVSPost2010Prop51ColorRGB
 90
-16777216
102
RTVSPost2010PropOp51
 70
     0
102
RTVSPost2010Prop52
140
1.0
102
RTVSPost2010PropOp52
 70
     0
102
RTVSPost2010Prop53
 90
        2
102
RTVSPost2010PropOp53
 70
     1
102
RTVSPost2010Prop54
  1
strokes_ogs.tif
102
RTVSPost2010PropOp54
 70
     1
102
RTVSPost2010Prop55
280
     0
102
RTVSPost2010PropOp55
 70
     1
102
RTVSPost2010Prop56
140
1.0
102
RTVSPost2010PropOp56
 70
     1
102
RTVSPost2010Prop57
140
1.0
102
RTVSPost2010PropOp57
 70
     1
  0
XRECORD
  5
AC3
102
{ACAD_REACTORS
330
AC2
102
}
330
AC2
100
AcDbXrecord
280
     1
102
RTVSPropertyOp0
 70
     0
102
RTVSPropertyOp1
 70
     0
102
RTVSPropertyOp2
 70
     0
102
RTVSPropertyOp3
 70
     0
102
RTVSPropertyOp4
 70
     0
102
RTVSPropertyOp5
 70
     0
102
RTVSPropertyOp6
 70
     0
102
RTVSPropertyOp7
 70
     0
102
RTVSPropertyOp8
 70
     0
102
RTVSPropertyOp9
 70
     0
102
RTVSPropertyOp10
 70
     0
102
RTVSPropertyOp11
 70
     0
102
RTVSPropertyOp12
 70
     0
102
RTVSPropertyOp13
 70
     0
102
RTVSPropertyOp14
 70
     2
102
RTVSPropertyOp15
 70
     0
102
RTVSPropertyOp16
 70
     0
102
RTVSPropertyOp17
 70
     0
102
RTVSPropertyOp18
 70
     0
102
RTVSPropertyOp19
 70
     0
102
RTVSPropertyOp20
 70
     0
102
RTVSPropertyOp21
 70
     0
102
RTVSPropertyOp22
 70
     0
102
RTVSPropertyOp23
 70
     0
102
RTVSPropertyOp24
 70
     0
102
RTVSPropertyOp25
 70
     0
102
RTVSPropertyOp26
 70
     0
102
RTVSPropertyOp27
 70
     0
102
RTVSPropertyOp28
 70
     0
102
RTVSPropertyOp29
 70
     0
102
RTVSPropertyOp30
 70
     0
102
RTVSPropertyOp31
 70
     0
102
RTVSPropertyOp32
 70
     0
102
RTVSPropertyOp33
 70
     0
102
RTVSPropertyOp34
 70
     0
102
RTVSPropertyOp35
 70
     0
102
RTVSPropertyOp36
 70
     0
102
RTVSPropertyOp37
 70
     0
102
RTVSPropertyOp38
 70
     0
102
RTVSPropertyOp39
 70
     0
102
RTVSPropertyOp40
 70
     0
102
RTVSPropertyOp41
 70
     0
102
RTVSPropertyOp42
 70
     0
102
RTVSPropertyOp43
 70
     0
102
RTVSPropertyOp44
 70
     0
102
RTVSPropertyOp45
 70
     0
102
RTVSPropertyOp46
 70
     0
102
RTVSPropertyOp47
 70
     0
102
RTVSPropertyOp48
 70
     0
102
RTVSPropertyOp49
 70
     0
102
RTVSPropertyOp50
 70
     0
102
RTVSPropertyOp51
 70
     0
102
RTVSPropertyOp52
 70
     0
102
RTVSPropertyOp53
 70
     0
102
RTVSPropertyOp54
 70
     0
102
RTVSPropertyOp55
 70
     0
102
RTVSPropertyOp56
 70
     0
102
RTVSPropertyOp57
 70
     0
102
RTVSPost2010Prop28
280
     0
102
RTVSPost2010PropOp28
 70
     0
102
RTVSPost2010Prop29
280
     1
102
RTVSPost2010PropOp29
 70
     0
102
RTVSPost2010Prop30
280
     1
102
RTVSPost2010PropOp30
 70
     0
102
RTVSPost2010Prop31
280
     0
102
RTVSPost2010PropOp31
 70
     0
102
RTVSPost2010Prop32
280
     0
102
RTVSPost2010PropOp32
 70
     0
102
RTVSPost2010Prop33
280
     0
102
RTVSPost2010PropOp33
 70
     0
102
RTVSPost2010Prop34
280
     0
102
RTVSPost2010PropOp34
 70
     0
102
RTVSPost2010Prop35
280
     0
102
RTVSPost2010PropOp35
 70
     0
102
RTVSPost2010Prop36
280
     0
102
RTVSPost2010PropOp36
 70
     0
102
RTVSPost2010Prop37
 90
       50
102
RTVSPost2010PropOp37
 70
     0
102
RTVSPost2010Prop38
140
0.0
102
RTVSPost2010PropOp38
 70
     0
102
RTVSPost2010Prop39
140
1.0
102
RTVSPost2010PropOp39
 70
     0
102
RTVSPost2010Prop40
 90
        0
102
RTVSPost2010PropOp40
 70
     0
102
RTVSPost2010Prop41ColorIndex
 90
       18
102
RTVSPost2010Prop41ColorRGB
 90
        0
102
RTVSPost2010PropOp41
 70
     0
102
RTVSPost2010Prop42
 90
       50
102
RTVSPost2010PropOp42
 70
     0
102
RTVSPost2010Prop43
 90
        3
102
RTVSPost2010PropOp43
 70
     0
102
RTVSPost2010Prop44ColorIndex
 90
        5
102
RTVSPost2010Prop44ColorRGB
 90
      255
102
RTVSPost2010PropOp44
 70
     0
102
RTVSPost2010Prop45
280
     0
102
RTVSPost2010PropOp45
 70
     0
102
RTVSPost2010Prop46
 90
       50
102
RTVSPost2010PropOp46
 70
     0
102
RTVSPost2010Prop47
 90
       50
102
RTVSPost2010PropOp47
 70
     0
102
RTVSPost2010Prop48
 90
       50
102
RTVSPost2010PropOp48
 70
     0
102
RTVSPost2010Prop49
280
     0
102
RTVSPost2010PropOp49
 70
     0
102
RTVSPost2010Prop50
 90
       50
102
RTVSPost2010PropOp50
 70
     0
102
RTVSPost2010Prop51ColorIndex
 90
      256
102
RTVSPost2010Prop51ColorRGB
 90
-16777216
102
RTVSPost2010PropOp51
 70
     0
102
RTVSPost2010Prop52
140
1.0
102
RTVSPost2010PropOp52
 70
     0
102
RTVSPost2010Prop53
 90
        2
102
RTVSPost2010PropOp53
 70
     0
102
RTVSPost2010Prop54
  1
strokes_ogs.tif
102
RTVSPost2010PropOp54
 70
     0
102
RTVSPost2010Prop55
280
     0
102
RTVSPost2010PropOp55
 70
     0
102
RTVSPost2010Prop56
140
1.0
102
RTVSPost2010PropOp56
 70
     0
102
RTVSPost2010Prop57
140
1.0
102
RTVSPost2010PropOp57
 70
     0
  0
XRECORD
  5
ABB
102
{ACAD_REACTORS
330
ABA
102
}
330
ABA
100
AcDbXrecord
280
     1
102
RTVSPropertyOp0
 70
     1
102
RTVSPropertyOp1
 70
     1
102
RTVSPropertyOp2
 70
     1
102
RTVSPropertyOp3
 70
     1
102
RTVSPropertyOp4
 70
     1
102
RTVSPropertyOp5
 70
     1
102
RTVSPropertyOp6
 70
     1
102
RTVSPropertyOp7
 70
     1
102
RTVSPropertyOp8
 70
     1
102
RTVSPropertyOp9
 70
     1
102
RTVSPropertyOp10
 70
     1
102
RTVSPropertyOp11
 70
     1
102
RTVSPropertyOp12
 70
     1
102
RTVSPropertyOp13
 70
     1
102
RTVSPropertyOp14
 70
     1
102
RTVSPropertyOp15
 70
     1
102
RTVSPropertyOp16
 70
     1
102
RTVSPropertyOp17
 70
     1
102
RTVSPropertyOp18
 70
     1
102
RTVSPropertyOp19
 70
     1
102
RTVSPropertyOp20
 70
     1
102
RTVSPropertyOp21
 70
     1
102
RTVSPropertyOp22
 70
     1
102
RTVSPropertyOp23
 70
     1
102
RTVSPropertyOp24
 70
     1
102
RTVSPropertyOp25
 70
     1
102
RTVSPropertyOp26
 70
     1
102
RTVSPropertyOp27
 70
     1
102
RTVSPropertyOp28
 70
     1
102
RTVSPropertyOp29
 70
     1
102
RTVSPropertyOp30
 70
     1
102
RTVSPropertyOp31
 70
     1
102
RTVSPropertyOp32
 70
     1
102
RTVSPropertyOp33
 70
     1
102
RTVSPropertyOp34
 70
     1
102
RTVSPropertyOp35
 70
     1
102
RTVSPropertyOp36
 70
     1
102
RTVSPropertyOp37
 70
     1
102
RTVSPropertyOp38
 70
     1
102
RTVSPropertyOp39
 70
     1
102
RTVSPropertyOp40
 70
     1
102
RTVSPropertyOp41
 70
     1
102
RTVSPropertyOp42
 70
     1
102
RTVSPropertyOp43
 70
     1
102
RTVSPropertyOp44
 70
     1
102
RTVSPropertyOp45
 70
     1
102
RTVSPropertyOp46
 70
     1
102
RTVSPropertyOp47
 70
     1
102
RTVSPropertyOp48
 70
     1
102
RTVSPropertyOp49
 70
     1
102
RTVSPropertyOp50
 70
     1
102
RTVSPropertyOp51
 70
     0
102
RTVSPropertyOp52
 70
     0
102
RTVSPropertyOp53
 70
     1
102
RTVSPropertyOp54
 70
     1
102
RTVSPropertyOp55
 70
     1
102
RTVSPropertyOp56
 70
     1
102
RTVSPropertyOp57
 70
     1
102
RTVSPost2010Prop28
280
     0
102
RTVSPost2010PropOp28
 70
     1
102
RTVSPost2010Prop29
280
     1
102
RTVSPost2010PropOp29
 70
     1
102
RTVSPost2010Prop30
280
     1
102
RTVSPost2010PropOp30
 70
     1
102
RTVSPost2010Prop31
280
     0
102
RTVSPost2010PropOp31
 70
     1
102
RTVSPost2010Prop32
280
     0
102
RTVSPost2010PropOp32
 70
     1
102
RTVSPost2010Prop33
280
     0
102
RTVSPost2010PropOp33
 70
     1
102
RTVSPost2010Prop34
280
     0
102
RTVSPost2010PropOp34
 70
     1
102
RTVSPost2010Prop35
280
     0
102
RTVSPost2010PropOp35
 70
     1
102
RTVSPost2010Prop36
280
     0
102
RTVSPost2010PropOp36
 70
     1
102
RTVSPost2010Prop37
 90
       50
102
RTVSPost2010PropOp37
 70
     1
102
RTVSPost2010Prop38
140
0.0
102
RTVSPost2010PropOp38
 70
     1
102
RTVSPost2010Prop39
140
1.0
102
RTVSPost2010PropOp39
 70
     1
102
RTVSPost2010Prop40
 90
        0
102
RTVSPost2010PropOp40
 70
     1
102
RTVSPost2010Prop41ColorIndex
 90
       18
102
RTVSPost2010Prop41ColorRGB
 90
        0
102
RTVSPost2010PropOp41
 70
     1
102
RTVSPost2010Prop42
 90
       50
102
RTVSPost2010PropOp42
 70
     1
102
RTVSPost2010Prop43
 90
        3
102
RTVSPost2010PropOp43
 70
     1
102
RTVSPost2010Prop44ColorIndex
 90
        5
102
RTVSPost2010Prop44ColorRGB
 90
      255
102
RTVSPost2010PropOp44
 70
     1
102
RTVSPost2010Prop45
280
     0
102
RTVSPost2010PropOp45
 70
     1
102
RTVSPost2010Prop46
 90
       50
102
RTVSPost2010PropOp46
 70
     1
102
RTVSPost2010Prop47
 90
       50
102
RTVSPost2010PropOp47
 70
     1
102
RTVSPost2010Prop48
 90
       50
102
RTVSPost2010PropOp48
 70
     1
102
RTVSPost2010Prop49
280
     0
102
RTVSPost2010PropOp49
 70
     1
102
RTVSPost2010Prop50
 90
       50
102
RTVSPost2010PropOp50
 70
     1
102
RTVSPost2010Prop51ColorIndex
 90
      256
102
RTVSPost2010Prop51ColorRGB
 90
-16777216
102
RTVSPost2010PropOp51
 70
     0
102
RTVSPost2010Prop52
140
1.0
102
RTVSPost2010PropOp52
 70
     0
102
RTVSPost2010Prop53
 90
        2
102
RTVSPost2010PropOp53
 70
     1
102
RTVSPost2010Prop54
  1
strokes_ogs.tif
102
RTVSPost2010PropOp54
 70
     1
102
RTVSPost2010Prop55
280
     0
102
RTVSPost2010PropOp55
 70
     1
102
RTVSPost2010Prop56
140
1.0
102
RTVSPost2010PropOp56
 70
     1
102
RTVSPost2010Prop57
140
1.0
102
RTVSPost2010PropOp57
 70
     1
  0
XRECORD
  5
A9F
102
{ACAD_REACTORS
330
A9E
102
}
330
A9E
100
AcDbXrecord
280
     1
102
RTVSPropertyOp0
 70
     1
102
RTVSPropertyOp1
 70
     1
102
RTVSPropertyOp2
 70
     1
102
RTVSPropertyOp3
 70
     1
102
RTVSPropertyOp4
 70
     1
102
RTVSPropertyOp5
 70
     1
102
RTVSPropertyOp6
 70
     1
102
RTVSPropertyOp7
 70
     1
102
RTVSPropertyOp8
 70
     1
102
RTVSPropertyOp9
 70
     1
102
RTVSPropertyOp10
 70
     1
102
RTVSPropertyOp11
 70
     1
102
RTVSPropertyOp12
 70
     1
102
RTVSPropertyOp13
 70
     1
102
RTVSPropertyOp14
 70
     1
102
RTVSPropertyOp15
 70
     1
102
RTVSPropertyOp16
 70
     1
102
RTVSPropertyOp17
 70
     1
102
RTVSPropertyOp18
 70
     1
102
RTVSPropertyOp19
 70
     1
102
RTVSPropertyOp20
 70
     1
102
RTVSPropertyOp21
 70
     1
102
RTVSPropertyOp22
 70
     1
102
RTVSPropertyOp23
 70
     1
102
RTVSPropertyOp24
 70
     1
102
RTVSPropertyOp25
 70
     1
102
RTVSPropertyOp26
 70
     1
102
RTVSPropertyOp27
 70
     1
102
RTVSPropertyOp28
 70
     1
102
RTVSPropertyOp29
 70
     1
102
RTVSPropertyOp30
 70
     1
102
RTVSPropertyOp31
 70
     1
102
RTVSPropertyOp32
 70
     1
102
RTVSPropertyOp33
 70
     1
102
RTVSPropertyOp34
 70
     1
102
RTVSPropertyOp35
 70
     1
102
RTVSPropertyOp36
 70
     1
102
RTVSPropertyOp37
 70
     1
102
RTVSPropertyOp38
 70
     1
102
RTVSPropertyOp39
 70
     1
102
RTVSPropertyOp40
 70
     1
102
RTVSPropertyOp41
 70
     1
102
RTVSPropertyOp42
 70
     1
102
RTVSPropertyOp43
 70
     1
102
RTVSPropertyOp44
 70
     1
102
RTVSPropertyOp45
 70
     1
102
RTVSPropertyOp46
 70
     1
102
RTVSPropertyOp47
 70
     1
102
RTVSPropertyOp48
 70
     1
102
RTVSPropertyOp49
 70
     1
102
RTVSPropertyOp50
 70
     1
102
RTVSPropertyOp51
 70
     0
102
RTVSPropertyOp52
 70
     0
102
RTVSPropertyOp53
 70
     1
102
RTVSPropertyOp54
 70
     1
102
RTVSPropertyOp55
 70
     1
102
RTVSPropertyOp56
 70
     1
102
RTVSPropertyOp57
 70
     1
102
RTVSPost2010Prop28
280
     0
102
RTVSPost2010PropOp28
 70
     1
102
RTVSPost2010Prop29
280
     1
102
RTVSPost2010PropOp29
 70
     1
102
RTVSPost2010Prop30
280
     1
102
RTVSPost2010PropOp30
 70
     1
102
RTVSPost2010Prop31
280
     0
102
RTVSPost2010PropOp31
 70
     1
102
RTVSPost2010Prop32
280
     0
102
RTVSPost2010PropOp32
 70
     1
102
RTVSPost2010Prop33
280
     0
102
RTVSPost2010PropOp33
 70
     1
102
RTVSPost2010Prop34
280
     0
102
RTVSPost2010PropOp34
 70
     1
102
RTVSPost2010Prop35
280
     0
102
RTVSPost2010PropOp35
 70
     1
102
RTVSPost2010Prop36
280
     0
102
RTVSPost2010PropOp36
 70
     1
102
RTVSPost2010Prop37
 90
       50
102
RTVSPost2010PropOp37
 70
     1
102
RTVSPost2010Prop38
140
0.0
102
RTVSPost2010PropOp38
 70
     1
102
RTVSPost2010Prop39
140
1.0
102
RTVSPost2010PropOp39
 70
     1
102
RTVSPost2010Prop40
 90
        0
102
RTVSPost2010PropOp40
 70
     1
102
RTVSPost2010Prop41ColorIndex
 90
       18
102
RTVSPost2010Prop41ColorRGB
 90
        0
102
RTVSPost2010PropOp41
 70
     1
102
RTVSPost2010Prop42
 90
       50
102
RTVSPost2010PropOp42
 70
     1
102
RTVSPost2010Prop43
 90
        3
102
RTVSPost2010PropOp43
 70
     1
102
RTVSPost2010Prop44ColorIndex
 90
        5
102
RTVSPost2010Prop44ColorRGB
 90
      255
102
RTVSPost2010PropOp44
 70
     1
102
RTVSPost2010Prop45
280
     0
102
RTVSPost2010PropOp45
 70
     1
102
RTVSPost2010Prop46
 90
       50
102
RTVSPost2010PropOp46
 70
     1
102
RTVSPost2010Prop47
 90
       50
102
RTVSPost2010PropOp47
 70
     1
102
RTVSPost2010Prop48
 90
       50
102
RTVSPost2010PropOp48
 70
     1
102
RTVSPost2010Prop49
280
     0
102
RTVSPost2010PropOp49
 70
     1
102
RTVSPost2010Prop50
 90
       50
102
RTVSPost2010PropOp50
 70
     1
102
RTVSPost2010Prop51ColorIndex
 90
      256
102
RTVSPost2010Prop51ColorRGB
 90
-16777216
102
RTVSPost2010PropOp51
 70
     0
102
RTVSPost2010Prop52
140
1.0
102
RTVSPost2010PropOp52
 70
     0
102
RTVSPost2010Prop53
 90
        2
102
RTVSPost2010PropOp53
 70
     1
102
RTVSPost2010Prop54
  1
strokes_ogs.tif
102
RTVSPost2010PropOp54
 70
     1
102
RTVSPost2010Prop55
280
     0
102
RTVSPost2010PropOp55
 70
     1
102
RTVSPost2010Prop56
140
1.0
102
RTVSPost2010PropOp56
 70
     1
102
RTVSPost2010Prop57
140
1.0
102
RTVSPost2010PropOp57
 70
     1
  0
XRECORD
  5
AA1
102
{ACAD_REACTORS
330
AA0
102
}
330
AA0
100
AcDbXrecord
280
     1
102
RTVSPropertyOp0
 70
     1
102
RTVSPropertyOp1
 70
     1
102
RTVSPropertyOp2
 70
     1
102
RTVSPropertyOp3
 70
     1
102
RTVSPropertyOp4
 70
     1
102
RTVSPropertyOp5
 70
     1
102
RTVSPropertyOp6
 70
     1
102
RTVSPropertyOp7
 70
     1
102
RTVSPropertyOp8
 70
     1
102
RTVSPropertyOp9
 70
     1
102
RTVSPropertyOp10
 70
     1
102
RTVSPropertyOp11
 70
     1
102
RTVSPropertyOp12
 70
     1
102
RTVSPropertyOp13
 70
     1
102
RTVSPropertyOp14
 70
     1
102
RTVSPropertyOp15
 70
     1
102
RTVSPropertyOp16
 70
     1
102
RTVSPropertyOp17
 70
     1
102
RTVSPropertyOp18
 70
     1
102
RTVSPropertyOp19
 70
     1
102
RTVSPropertyOp20
 70
     1
102
RTVSPropertyOp21
 70
     1
102
RTVSPropertyOp22
 70
     1
102
RTVSPropertyOp23
 70
     1
102
RTVSPropertyOp24
 70
     1
102
RTVSPropertyOp25
 70
     1
102
RTVSPropertyOp26
 70
     1
102
RTVSPropertyOp27
 70
     1
102
RTVSPropertyOp28
 70
     1
102
RTVSPropertyOp29
 70
     1
102
RTVSPropertyOp30
 70
     1
102
RTVSPropertyOp31
 70
     1
102
RTVSPropertyOp32
 70
     1
102
RTVSPropertyOp33
 70
     1
102
RTVSPropertyOp34
 70
     1
102
RTVSPropertyOp35
 70
     1
102
RTVSPropertyOp36
 70
     1
102
RTVSPropertyOp37
 70
     1
102
RTVSPropertyOp38
 70
     1
102
RTVSPropertyOp39
 70
     1
102
RTVSPropertyOp40
 70
     1
102
RTVSPropertyOp41
 70
     1
102
RTVSPropertyOp42
 70
     1
102
RTVSPropertyOp43
 70
     1
102
RTVSPropertyOp44
 70
     1
102
RTVSPropertyOp45
 70
     1
102
RTVSPropertyOp46
 70
     1
102
RTVSPropertyOp47
 70
     1
102
RTVSPropertyOp48
 70
     1
102
RTVSPropertyOp49
 70
     1
102
RTVSPropertyOp50
 70
     1
102
RTVSPropertyOp51
 70
     0
102
RTVSPropertyOp52
 70
     0
102
RTVSPropertyOp53
 70
     1
102
RTVSPropertyOp54
 70
     1
102
RTVSPropertyOp55
 70
     1
102
RTVSPropertyOp56
 70
     1
102
RTVSPropertyOp57
 70
     1
102
RTVSPost2010Prop28
280
     0
102
RTVSPost2010PropOp28
 70
     1
102
RTVSPost2010Prop29
280
     1
102
RTVSPost2010PropOp29
 70
     1
102
RTVSPost2010Prop30
280
     1
102
RTVSPost2010PropOp30
 70
     1
102
RTVSPost2010Prop31
280
     0
102
RTVSPost2010PropOp31
 70
     1
102
RTVSPost2010Prop32
280
     0
102
RTVSPost2010PropOp32
 70
     1
102
RTVSPost2010Prop33
280
     0
102
RTVSPost2010PropOp33
 70
     1
102
RTVSPost2010Prop34
280
     0
102
RTVSPost2010PropOp34
 70
     1
102
RTVSPost2010Prop35
280
     0
102
RTVSPost2010PropOp35
 70
     1
102
RTVSPost2010Prop36
280
     0
102
RTVSPost2010PropOp36
 70
     1
102
RTVSPost2010Prop37
 90
       50
102
RTVSPost2010PropOp37
 70
     1
102
RTVSPost2010Prop38
140
0.0
102
RTVSPost2010PropOp38
 70
     1
102
RTVSPost2010Prop39
140
1.0
102
RTVSPost2010PropOp39
 70
     1
102
RTVSPost2010Prop40
 90
        0
102
RTVSPost2010PropOp40
 70
     1
102
RTVSPost2010Prop41ColorIndex
 90
       18
102
RTVSPost2010Prop41ColorRGB
 90
        0
102
RTVSPost2010PropOp41
 70
     1
102
RTVSPost2010Prop42
 90
       50
102
RTVSPost2010PropOp42
 70
     1
102
RTVSPost2010Prop43
 90
        3
102
RTVSPost2010PropOp43
 70
     1
102
RTVSPost2010Prop44ColorIndex
 90
        5
102
RTVSPost2010Prop44ColorRGB
 90
      255
102
RTVSPost2010PropOp44
 70
     1
102
RTVSPost2010Prop45
280
     0
102
RTVSPost2010PropOp45
 70
     1
102
RTVSPost2010Prop46
 90
       50
102
RTVSPost2010PropOp46
 70
     1
102
RTVSPost2010Prop47
 90
       50
102
RTVSPost2010PropOp47
 70
     1
102
RTVSPost2010Prop48
 90
       50
102
RTVSPost2010PropOp48
 70
     1
102
RTVSPost2010Prop49
280
     0
102
RTVSPost2010PropOp49
 70
     1
102
RTVSPost2010Prop50
 90
       50
102
RTVSPost2010PropOp50
 70
     1
102
RTVSPost2010Prop51ColorIndex
 90
      256
102
RTVSPost2010Prop51ColorRGB
 90
-16777216
102
RTVSPost2010PropOp51
 70
     0
102
RTVSPost2010Prop52
140
1.0
102
RTVSPost2010PropOp52
 70
     0
102
RTVSPost2010Prop53
 90
        2
102
RTVSPost2010PropOp53
 70
     1
102
RTVSPost2010Prop54
  1
strokes_ogs.tif
102
RTVSPost2010PropOp54
 70
     1
102
RTVSPost2010Prop55
280
     0
102
RTVSPost2010PropOp55
 70
     1
102
RTVSPost2010Prop56
140
1.0
102
RTVSPost2010PropOp56
 70
     1
102
RTVSPost2010Prop57
140
1.0
102
RTVSPost2010PropOp57
 70
     1
  0
XRECORD
  5
AA3
102
{ACAD_REACTORS
330
AA2
102
}
330
AA2
100
AcDbXrecord
280
     1
102
RTVSPropertyOp0
 70
     1
102
RTVSPropertyOp1
 70
     1
102
RTVSPropertyOp2
 70
     1
102
RTVSPropertyOp3
 70
     1
102
RTVSPropertyOp4
 70
     1
102
RTVSPropertyOp5
 70
     1
102
RTVSPropertyOp6
 70
     1
102
RTVSPropertyOp7
 70
     1
102
RTVSPropertyOp8
 70
     1
102
RTVSPropertyOp9
 70
     1
102
RTVSPropertyOp10
 70
     1
102
RTVSPropertyOp11
 70
     1
102
RTVSPropertyOp12
 70
     1
102
RTVSPropertyOp13
 70
     1
102
RTVSPropertyOp14
 70
     1
102
RTVSPropertyOp15
 70
     1
102
RTVSPropertyOp16
 70
     1
102
RTVSPropertyOp17
 70
     1
102
RTVSPropertyOp18
 70
     1
102
RTVSPropertyOp19
 70
     1
102
RTVSPropertyOp20
 70
     1
102
RTVSPropertyOp21
 70
     1
102
RTVSPropertyOp22
 70
     1
102
RTVSPropertyOp23
 70
     1
102
RTVSPropertyOp24
 70
     1
102
RTVSPropertyOp25
 70
     1
102
RTVSPropertyOp26
 70
     1
102
RTVSPropertyOp27
 70
     1
102
RTVSPropertyOp28
 70
     1
102
RTVSPropertyOp29
 70
     1
102
RTVSPropertyOp30
 70
     1
102
RTVSPropertyOp31
 70
     1
102
RTVSPropertyOp32
 70
     1
102
RTVSPropertyOp33
 70
     1
102
RTVSPropertyOp34
 70
     1
102
RTVSPropertyOp35
 70
     1
102
RTVSPropertyOp36
 70
     1
102
RTVSPropertyOp37
 70
     1
102
RTVSPropertyOp38
 70
     1
102
RTVSPropertyOp39
 70
     1
102
RTVSPropertyOp40
 70
     1
102
RTVSPropertyOp41
 70
     1
102
RTVSPropertyOp42
 70
     1
102
RTVSPropertyOp43
 70
     1
102
RTVSPropertyOp44
 70
     1
102
RTVSPropertyOp45
 70
     1
102
RTVSPropertyOp46
 70
     1
102
RTVSPropertyOp47
 70
     1
102
RTVSPropertyOp48
 70
     1
102
RTVSPropertyOp49
 70
     1
102
RTVSPropertyOp50
 70
     1
102
RTVSPropertyOp51
 70
     0
102
RTVSPropertyOp52
 70
     0
102
RTVSPropertyOp53
 70
     1
102
RTVSPropertyOp54
 70
     1
102
RTVSPropertyOp55
 70
     1
102
RTVSPropertyOp56
 70
     1
102
RTVSPropertyOp57
 70
     1
102
RTVSPost2010Prop28
280
     0
102
RTVSPost2010PropOp28
 70
     1
102
RTVSPost2010Prop29
280
     1
102
RTVSPost2010PropOp29
 70
     1
102
RTVSPost2010Prop30
280
     1
102
RTVSPost2010PropOp30
 70
     1
102
RTVSPost2010Prop31
280
     0
102
RTVSPost2010PropOp31
 70
     1
102
RTVSPost2010Prop32
280
     0
102
RTVSPost2010PropOp32
 70
     1
102
RTVSPost2010Prop33
280
     0
102
RTVSPost2010PropOp33
 70
     1
102
RTVSPost2010Prop34
280
     0
102
RTVSPost2010PropOp34
 70
     1
102
RTVSPost2010Prop35
280
     0
102
RTVSPost2010PropOp35
 70
     1
102
RTVSPost2010Prop36
280
     0
102
RTVSPost2010PropOp36
 70
     1
102
RTVSPost2010Prop37
 90
       50
102
RTVSPost2010PropOp37
 70
     1
102
RTVSPost2010Prop38
140
0.0
102
RTVSPost2010PropOp38
 70
     1
102
RTVSPost2010Prop39
140
1.0
102
RTVSPost2010PropOp39
 70
     1
102
RTVSPost2010Prop40
 90
        0
102
RTVSPost2010PropOp40
 70
     1
102
RTVSPost2010Prop41ColorIndex
 90
       18
102
RTVSPost2010Prop41ColorRGB
 90
        0
102
RTVSPost2010PropOp41
 70
     1
102
RTVSPost2010Prop42
 90
       50
102
RTVSPost2010PropOp42
 70
     1
102
RTVSPost2010Prop43
 90
        3
102
RTVSPost2010PropOp43
 70
     1
102
RTVSPost2010Prop44ColorIndex
 90
        5
102
RTVSPost2010Prop44ColorRGB
 90
      255
102
RTVSPost2010PropOp44
 70
     1
102
RTVSPost2010Prop45
280
     0
102
RTVSPost2010PropOp45
 70
     1
102
RTVSPost2010Prop46
 90
       50
102
RTVSPost2010PropOp46
 70
     1
102
RTVSPost2010Prop47
 90
       50
102
RTVSPost2010PropOp47
 70
     1
102
RTVSPost2010Prop48
 90
       50
102
RTVSPost2010PropOp48
 70
     1
102
RTVSPost2010Prop49
280
     0
102
RTVSPost2010PropOp49
 70
     1
102
RTVSPost2010Prop50
 90
       50
102
RTVSPost2010PropOp50
 70
     1
102
RTVSPost2010Prop51ColorIndex
 90
      256
102
RTVSPost2010Prop51ColorRGB
 90
-16777216
102
RTVSPost2010PropOp51
 70
     0
102
RTVSPost2010Prop52
140
1.0
102
RTVSPost2010PropOp52
 70
     0
102
RTVSPost2010Prop53
 90
        2
102
RTVSPost2010PropOp53
 70
     1
102
RTVSPost2010Prop54
  1
strokes_ogs.tif
102
RTVSPost2010PropOp54
 70
     1
102
RTVSPost2010Prop55
280
     0
102
RTVSPost2010PropOp55
 70
     1
102
RTVSPost2010Prop56
140
1.0
102
RTVSPost2010PropOp56
 70
     1
102
RTVSPost2010Prop57
140
1.0
102
RTVSPost2010PropOp57
 70
     1
  0
XRECORD
  5
AA5
102
{ACAD_REACTORS
330
AA4
102
}
330
AA4
100
AcDbXrecord
280
     1
102
RTVSPropertyOp0
 70
     1
102
RTVSPropertyOp1
 70
     1
102
RTVSPropertyOp2
 70
     1
102
RTVSPropertyOp3
 70
     1
102
RTVSPropertyOp4
 70
     1
102
RTVSPropertyOp5
 70
     1
102
RTVSPropertyOp6
 70
     1
102
RTVSPropertyOp7
 70
     1
102
RTVSPropertyOp8
 70
     1
102
RTVSPropertyOp9
 70
     1
102
RTVSPropertyOp10
 70
     1
102
RTVSPropertyOp11
 70
     1
102
RTVSPropertyOp12
 70
     1
102
RTVSPropertyOp13
 70
     1
102
RTVSPropertyOp14
 70
     1
102
RTVSPropertyOp15
 70
     1
102
RTVSPropertyOp16
 70
     1
102
RTVSPropertyOp17
 70
     1
102
RTVSPropertyOp18
 70
     1
102
RTVSPropertyOp19
 70
     1
102
RTVSPropertyOp20
 70
     1
102
RTVSPropertyOp21
 70
     1
102
RTVSPropertyOp22
 70
     1
102
RTVSPropertyOp23
 70
     1
102
RTVSPropertyOp24
 70
     1
102
RTVSPropertyOp25
 70
     1
102
RTVSPropertyOp26
 70
     1
102
RTVSPropertyOp27
 70
     1
102
RTVSPropertyOp28
 70
     1
102
RTVSPropertyOp29
 70
     1
102
RTVSPropertyOp30
 70
     1
102
RTVSPropertyOp31
 70
     1
102
RTVSPropertyOp32
 70
     1
102
RTVSPropertyOp33
 70
     1
102
RTVSPropertyOp34
 70
     1
102
RTVSPropertyOp35
 70
     1
102
RTVSPropertyOp36
 70
     1
102
RTVSPropertyOp37
 70
     1
102
RTVSPropertyOp38
 70
     1
102
RTVSPropertyOp39
 70
     1
102
RTVSPropertyOp40
 70
     1
102
RTVSPropertyOp41
 70
     1
102
RTVSPropertyOp42
 70
     1
102
RTVSPropertyOp43
 70
     1
102
RTVSPropertyOp44
 70
     1
102
RTVSPropertyOp45
 70
     1
102
RTVSPropertyOp46
 70
     1
102
RTVSPropertyOp47
 70
     1
102
RTVSPropertyOp48
 70
     1
102
RTVSPropertyOp49
 70
     1
102
RTVSPropertyOp50
 70
     1
102
RTVSPropertyOp51
 70
     0
102
RTVSPropertyOp52
 70
     0
102
RTVSPropertyOp53
 70
     1
102
RTVSPropertyOp54
 70
     1
102
RTVSPropertyOp55
 70
     1
102
RTVSPropertyOp56
 70
     1
102
RTVSPropertyOp57
 70
     1
102
RTVSPost2010Prop28
280
     0
102
RTVSPost2010PropOp28
 70
     1
102
RTVSPost2010Prop29
280
     1
102
RTVSPost2010PropOp29
 70
     1
102
RTVSPost2010Prop30
280
     1
102
RTVSPost2010PropOp30
 70
     1
102
RTVSPost2010Prop31
280
     0
102
RTVSPost2010PropOp31
 70
     1
102
RTVSPost2010Prop32
280
     0
102
RTVSPost2010PropOp32
 70
     1
102
RTVSPost2010Prop33
280
     0
102
RTVSPost2010PropOp33
 70
     1
102
RTVSPost2010Prop34
280
     0
102
RTVSPost2010PropOp34
 70
     1
102
RTVSPost2010Prop35
280
     0
102
RTVSPost2010PropOp35
 70
     1
102
RTVSPost2010Prop36
280
     0
102
RTVSPost2010PropOp36
 70
     1
102
RTVSPost2010Prop37
 90
       50
102
RTVSPost2010PropOp37
 70
     1
102
RTVSPost2010Prop38
140
0.0
102
RTVSPost2010PropOp38
 70
     1
102
RTVSPost2010Prop39
140
1.0
102
RTVSPost2010PropOp39
 70
     1
102
RTVSPost2010Prop40
 90
        0
102
RTVSPost2010PropOp40
 70
     1
102
RTVSPost2010Prop41ColorIndex
 90
       18
102
RTVSPost2010Prop41ColorRGB
 90
        0
102
RTVSPost2010PropOp41
 70
     1
102
RTVSPost2010Prop42
 90
       50
102
RTVSPost2010PropOp42
 70
     1
102
RTVSPost2010Prop43
 90
        3
102
RTVSPost2010PropOp43
 70
     1
102
RTVSPost2010Prop44ColorIndex
 90
        5
102
RTVSPost2010Prop44ColorRGB
 90
      255
102
RTVSPost2010PropOp44
 70
     1
102
RTVSPost2010Prop45
280
     0
102
RTVSPost2010PropOp45
 70
     1
102
RTVSPost2010Prop46
 90
       50
102
RTVSPost2010PropOp46
 70
     1
102
RTVSPost2010Prop47
 90
       50
102
RTVSPost2010PropOp47
 70
     1
102
RTVSPost2010Prop48
 90
       50
102
RTVSPost2010PropOp48
 70
     1
102
RTVSPost2010Prop49
280
     0
102
RTVSPost2010PropOp49
 70
     1
102
RTVSPost2010Prop50
 90
       50
102
RTVSPost2010PropOp50
 70
     1
102
RTVSPost2010Prop51ColorIndex
 90
      256
102
RTVSPost2010Prop51ColorRGB
 90
-16777216
102
RTVSPost2010PropOp51
 70
     0
102
RTVSPost2010Prop52
140
1.0
102
RTVSPost2010PropOp52
 70
     0
102
RTVSPost2010Prop53
 90
        2
102
RTVSPost2010PropOp53
 70
     1
102
RTVSPost2010Prop54
  1
strokes_ogs.tif
102
RTVSPost2010PropOp54
 70
     1
102
RTVSPost2010Prop55
280
     0
102
RTVSPost2010PropOp55
 70
     1
102
RTVSPost2010Prop56
140
1.0
102
RTVSPost2010PropOp56
 70
     1
102
RTVSPost2010Prop57
140
1.0
102
RTVSPost2010PropOp57
 70
     1
  0
XRECORD
  5
AAB
102
{ACAD_REACTORS
330
AAA
102
}
330
AAA
100
AcDbXrecord
280
     1
102
RTVSPropertyOp0
 70
     1
102
RTVSPropertyOp1
 70
     1
102
RTVSPropertyOp2
 70
     1
102
RTVSPropertyOp3
 70
     1
102
RTVSPropertyOp4
 70
     1
102
RTVSPropertyOp5
 70
     1
102
RTVSPropertyOp6
 70
     1
102
RTVSPropertyOp7
 70
     1
102
RTVSPropertyOp8
 70
     1
102
RTVSPropertyOp9
 70
     1
102
RTVSPropertyOp10
 70
     1
102
RTVSPropertyOp11
 70
     1
102
RTVSPropertyOp12
 70
     1
102
RTVSPropertyOp13
 70
     1
102
RTVSPropertyOp14
 70
     1
102
RTVSPropertyOp15
 70
     1
102
RTVSPropertyOp16
 70
     1
102
RTVSPropertyOp17
 70
     1
102
RTVSPropertyOp18
 70
     1
102
RTVSPropertyOp19
 70
     1
102
RTVSPropertyOp20
 70
     1
102
RTVSPropertyOp21
 70
     1
102
RTVSPropertyOp22
 70
     1
102
RTVSPropertyOp23
 70
     1
102
RTVSPropertyOp24
 70
     1
102
RTVSPropertyOp25
 70
     1
102
RTVSPropertyOp26
 70
     1
102
RTVSPropertyOp27
 70
     1
102
RTVSPropertyOp28
 70
     1
102
RTVSPropertyOp29
 70
     1
102
RTVSPropertyOp30
 70
     1
102
RTVSPropertyOp31
 70
     1
102
RTVSPropertyOp32
 70
     1
102
RTVSPropertyOp33
 70
     1
102
RTVSPropertyOp34
 70
     1
102
RTVSPropertyOp35
 70
     1
102
RTVSPropertyOp36
 70
     1
102
RTVSPropertyOp37
 70
     1
102
RTVSPropertyOp38
 70
     1
102
RTVSPropertyOp39
 70
     1
102
RTVSPropertyOp40
 70
     1
102
RTVSPropertyOp41
 70
     1
102
RTVSPropertyOp42
 70
     1
102
RTVSPropertyOp43
 70
     1
102
RTVSPropertyOp44
 70
     1
102
RTVSPropertyOp45
 70
     1
102
RTVSPropertyOp46
 70
     1
102
RTVSPropertyOp47
 70
     1
102
RTVSPropertyOp48
 70
     1
102
RTVSPropertyOp49
 70
     1
102
RTVSPropertyOp50
 70
     1
102
RTVSPropertyOp51
 70
     0
102
RTVSPropertyOp52
 70
     0
102
RTVSPropertyOp53
 70
     1
102
RTVSPropertyOp54
 70
     1
102
RTVSPropertyOp55
 70
     1
102
RTVSPropertyOp56
 70
     1
102
RTVSPropertyOp57
 70
     1
102
RTVSPost2010Prop28
280
     0
102
RTVSPost2010PropOp28
 70
     1
102
RTVSPost2010Prop29
280
     1
102
RTVSPost2010PropOp29
 70
     1
102
RTVSPost2010Prop30
280
     1
102
RTVSPost2010PropOp30
 70
     1
102
RTVSPost2010Prop31
280
     0
102
RTVSPost2010PropOp31
 70
     1
102
RTVSPost2010Prop32
280
     0
102
RTVSPost2010PropOp32
 70
     1
102
RTVSPost2010Prop33
280
     0
102
RTVSPost2010PropOp33
 70
     1
102
RTVSPost2010Prop34
280
     0
102
RTVSPost2010PropOp34
 70
     1
102
RTVSPost2010Prop35
280
     0
102
RTVSPost2010PropOp35
 70
     1
102
RTVSPost2010Prop36
280
     0
102
RTVSPost2010PropOp36
 70
     1
102
RTVSPost2010Prop37
 90
       50
102
RTVSPost2010PropOp37
 70
     1
102
RTVSPost2010Prop38
140
0.0
102
RTVSPost2010PropOp38
 70
     1
102
RTVSPost2010Prop39
140
1.0
102
RTVSPost2010PropOp39
 70
     1
102
RTVSPost2010Prop40
 90
        0
102
RTVSPost2010PropOp40
 70
     1
102
RTVSPost2010Prop41ColorIndex
 90
       18
102
RTVSPost2010Prop41ColorRGB
 90
        0
102
RTVSPost2010PropOp41
 70
     1
102
RTVSPost2010Prop42
 90
       50
102
RTVSPost2010PropOp42
 70
     1
102
RTVSPost2010Prop43
 90
        3
102
RTVSPost2010PropOp43
 70
     1
102
RTVSPost2010Prop44ColorIndex
 90
        5
102
RTVSPost2010Prop44ColorRGB
 90
      255
102
RTVSPost2010PropOp44
 70
     1
102
RTVSPost2010Prop45
280
     0
102
RTVSPost2010PropOp45
 70
     1
102
RTVSPost2010Prop46
 90
       50
102
RTVSPost2010PropOp46
 70
     1
102
RTVSPost2010Prop47
 90
       50
102
RTVSPost2010PropOp47
 70
     1
102
RTVSPost2010Prop48
 90
       50
102
RTVSPost2010PropOp48
 70
     1
102
RTVSPost2010Prop49
280
     0
102
RTVSPost2010PropOp49
 70
     1
102
RTVSPost2010Prop50
 90
       50
102
RTVSPost2010PropOp50
 70
     1
102
RTVSPost2010Prop51ColorIndex
 90
      256
102
RTVSPost2010Prop51ColorRGB
 90
-16777216
102
RTVSPost2010PropOp51
 70
     0
102
RTVSPost2010Prop52
140
1.0
102
RTVSPost2010PropOp52
 70
     0
102
RTVSPost2010Prop53
 90
        2
102
RTVSPost2010PropOp53
 70
     1
102
RTVSPost2010Prop54
  1
strokes_ogs.tif
102
RTVSPost2010PropOp54
 70
     1
102
RTVSPost2010Prop55
280
     0
102
RTVSPost2010PropOp55
 70
     1
102
RTVSPost2010Prop56
140
1.0
102
RTVSPost2010PropOp56
 70
     1
102
RTVSPost2010Prop57
140
1.0
102
RTVSPost2010PropOp57
 70
     1
  0
XRECORD
  5
ABF
102
{ACAD_REACTORS
330
ABE
102
}
330
ABE
100
AcDbXrecord
280
     1
102
RTVSPropertyOp0
 70
     0
102
RTVSPropertyOp1
 70
     0
102
RTVSPropertyOp2
 70
     0
102
RTVSPropertyOp3
 70
     0
102
RTVSPropertyOp4
 70
     0
102
RTVSPropertyOp5
 70
     0
102
RTVSPropertyOp6
 70
     0
102
RTVSPropertyOp7
 70
     0
102
RTVSPropertyOp8
 70
     0
102
RTVSPropertyOp9
 70
     0
102
RTVSPropertyOp10
 70
     0
102
RTVSPropertyOp11
 70
     0
102
RTVSPropertyOp12
 70
     0
102
RTVSPropertyOp13
 70
     0
102
RTVSPropertyOp14
 70
     2
102
RTVSPropertyOp15
 70
     0
102
RTVSPropertyOp16
 70
     0
102
RTVSPropertyOp17
 70
     0
102
RTVSPropertyOp18
 70
     0
102
RTVSPropertyOp19
 70
     0
102
RTVSPropertyOp20
 70
     0
102
RTVSPropertyOp21
 70
     0
102
RTVSPropertyOp22
 70
     0
102
RTVSPropertyOp23
 70
     0
102
RTVSPropertyOp24
 70
     0
102
RTVSPropertyOp25
 70
     0
102
RTVSPropertyOp26
 70
     0
102
RTVSPropertyOp27
 70
     0
102
RTVSPropertyOp28
 70
     0
102
RTVSPropertyOp29
 70
     0
102
RTVSPropertyOp30
 70
     0
102
RTVSPropertyOp31
 70
     0
102
RTVSPropertyOp32
 70
     0
102
RTVSPropertyOp33
 70
     0
102
RTVSPropertyOp34
 70
     0
102
RTVSPropertyOp35
 70
     0
102
RTVSPropertyOp36
 70
     0
102
RTVSPropertyOp37
 70
     0
102
RTVSPropertyOp38
 70
     0
102
RTVSPropertyOp39
 70
     0
102
RTVSPropertyOp40
 70
     0
102
RTVSPropertyOp41
 70
     0
102
RTVSPropertyOp42
 70
     0
102
RTVSPropertyOp43
 70
     0
102
RTVSPropertyOp44
 70
     0
102
RTVSPropertyOp45
 70
     0
102
RTVSPropertyOp46
 70
     0
102
RTVSPropertyOp47
 70
     0
102
RTVSPropertyOp48
 70
     0
102
RTVSPropertyOp49
 70
     0
102
RTVSPropertyOp50
 70
     0
102
RTVSPropertyOp51
 70
     0
102
RTVSPropertyOp52
 70
     0
102
RTVSPropertyOp53
 70
     0
102
RTVSPropertyOp54
 70
     0
102
RTVSPropertyOp55
 70
     0
102
RTVSPropertyOp56
 70
     0
102
RTVSPropertyOp57
 70
     0
102
RTVSPost2010Prop28
280
     0
102
RTVSPost2010PropOp28
 70
     0
102
RTVSPost2010Prop29
280
     1
102
RTVSPost2010PropOp29
 70
     0
102
RTVSPost2010Prop30
280
     1
102
RTVSPost2010PropOp30
 70
     0
102
RTVSPost2010Prop31
280
     0
102
RTVSPost2010PropOp31
 70
     0
102
RTVSPost2010Prop32
280
     0
102
RTVSPost2010PropOp32
 70
     0
102
RTVSPost2010Prop33
280
     0
102
RTVSPost2010PropOp33
 70
     0
102
RTVSPost2010Prop34
280
     0
102
RTVSPost2010PropOp34
 70
     0
102
RTVSPost2010Prop35
280
     0
102
RTVSPost2010PropOp35
 70
     0
102
RTVSPost2010Prop36
280
     0
102
RTVSPost2010PropOp36
 70
     0
102
RTVSPost2010Prop37
 90
       50
102
RTVSPost2010PropOp37
 70
     0
102
RTVSPost2010Prop38
140
0.0
102
RTVSPost2010PropOp38
 70
     0
102
RTVSPost2010Prop39
140
1.0
102
RTVSPost2010PropOp39
 70
     0
102
RTVSPost2010Prop40
 90
        0
102
RTVSPost2010PropOp40
 70
     0
102
RTVSPost2010Prop41ColorIndex
 90
       18
102
RTVSPost2010Prop41ColorRGB
 90
        0
102
RTVSPost2010PropOp41
 70
     0
102
RTVSPost2010Prop42
 90
       50
102
RTVSPost2010PropOp42
 70
     0
102
RTVSPost2010Prop43
 90
        3
102
RTVSPost2010PropOp43
 70
     0
102
RTVSPost2010Prop44ColorIndex
 90
        5
102
RTVSPost2010Prop44ColorRGB
 90
      255
102
RTVSPost2010PropOp44
 70
     0
102
RTVSPost2010Prop45
280
     0
102
RTVSPost2010PropOp45
 70
     0
102
RTVSPost2010Prop46
 90
       50
102
RTVSPost2010PropOp46
 70
     0
102
RTVSPost2010Prop47
 90
       50
102
RTVSPost2010PropOp47
 70
     0
102
RTVSPost2010Prop48
 90
       50
102
RTVSPost2010PropOp48
 70
     0
102
RTVSPost2010Prop49
280
     0
102
RTVSPost2010PropOp49
 70
     0
102
RTVSPost2010Prop50
 90
       50
102
RTVSPost2010PropOp50
 70
     0
102
RTVSPost2010Prop51ColorIndex
 90
      256
102
RTVSPost2010Prop51ColorRGB
 90
-16777216
102
RTVSPost2010PropOp51
 70
     0
102
RTVSPost2010Prop52
140
1.0
102
RTVSPost2010PropOp52
 70
     0
102
RTVSPost2010Prop53
 90
        2
102
RTVSPost2010PropOp53
 70
     0
102
RTVSPost2010Prop54
  1
strokes_ogs.tif
102
RTVSPost2010PropOp54
 70
     0
102
RTVSPost2010Prop55
280
     0
102
RTVSPost2010PropOp55
 70
     0
102
RTVSPost2010Prop56
140
1.0
102
RTVSPost2010PropOp56
 70
     0
102
RTVSPost2010Prop57
140
1.0
102
RTVSPost2010PropOp57
 70
     0
  0
XRECORD
  5
AB9
102
{ACAD_REACTORS
330
AB8
102
}
330
AB8
100
AcDbXrecord
280
     1
102
RTVSPropertyOp0
 70
     1
102
RTVSPropertyOp1
 70
     1
102
RTVSPropertyOp2
 70
     1
102
RTVSPropertyOp3
 70
     1
102
RTVSPropertyOp4
 70
     1
102
RTVSPropertyOp5
 70
     1
102
RTVSPropertyOp6
 70
     1
102
RTVSPropertyOp7
 70
     1
102
RTVSPropertyOp8
 70
     1
102
RTVSPropertyOp9
 70
     1
102
RTVSPropertyOp10
 70
     1
102
RTVSPropertyOp11
 70
     1
102
RTVSPropertyOp12
 70
     1
102
RTVSPropertyOp13
 70
     1
102
RTVSPropertyOp14
 70
     1
102
RTVSPropertyOp15
 70
     1
102
RTVSPropertyOp16
 70
     1
102
RTVSPropertyOp17
 70
     1
102
RTVSPropertyOp18
 70
     1
102
RTVSPropertyOp19
 70
     1
102
RTVSPropertyOp20
 70
     1
102
RTVSPropertyOp21
 70
     1
102
RTVSPropertyOp22
 70
     1
102
RTVSPropertyOp23
 70
     1
102
RTVSPropertyOp24
 70
     1
102
RTVSPropertyOp25
 70
     1
102
RTVSPropertyOp26
 70
     1
102
RTVSPropertyOp27
 70
     1
102
RTVSPropertyOp28
 70
     1
102
RTVSPropertyOp29
 70
     1
102
RTVSPropertyOp30
 70
     1
102
RTVSPropertyOp31
 70
     1
102
RTVSPropertyOp32
 70
     1
102
RTVSPropertyOp33
 70
     1
102
RTVSPropertyOp34
 70
     1
102
RTVSPropertyOp35
 70
     1
102
RTVSPropertyOp36
 70
     1
102
RTVSPropertyOp37
 70
     1
102
RTVSPropertyOp38
 70
     1
102
RTVSPropertyOp39
 70
     1
102
RTVSPropertyOp40
 70
     1
102
RTVSPropertyOp41
 70
     1
102
RTVSPropertyOp42
 70
     1
102
RTVSPropertyOp43
 70
     1
102
RTVSPropertyOp44
 70
     1
102
RTVSPropertyOp45
 70
     1
102
RTVSPropertyOp46
 70
     1
102
RTVSPropertyOp47
 70
     1
102
RTVSPropertyOp48
 70
     1
102
RTVSPropertyOp49
 70
     1
102
RTVSPropertyOp50
 70
     1
102
RTVSPropertyOp51
 70
     0
102
RTVSPropertyOp52
 70
     0
102
RTVSPropertyOp53
 70
     1
102
RTVSPropertyOp54
 70
     1
102
RTVSPropertyOp55
 70
     1
102
RTVSPropertyOp56
 70
     1
102
RTVSPropertyOp57
 70
     1
102
RTVSPost2010Prop28
280
     0
102
RTVSPost2010PropOp28
 70
     1
102
RTVSPost2010Prop29
280
     1
102
RTVSPost2010PropOp29
 70
     1
102
RTVSPost2010Prop30
280
     1
102
RTVSPost2010PropOp30
 70
     1
102
RTVSPost2010Prop31
280
     0
102
RTVSPost2010PropOp31
 70
     1
102
RTVSPost2010Prop32
280
     0
102
RTVSPost2010PropOp32
 70
     1
102
RTVSPost2010Prop33
280
     0
102
RTVSPost2010PropOp33
 70
     1
102
RTVSPost2010Prop34
280
     0
102
RTVSPost2010PropOp34
 70
     1
102
RTVSPost2010Prop35
280
     0
102
RTVSPost2010PropOp35
 70
     1
102
RTVSPost2010Prop36
280
     0
102
RTVSPost2010PropOp36
 70
     1
102
RTVSPost2010Prop37
 90
       50
102
RTVSPost2010PropOp37
 70
     1
102
RTVSPost2010Prop38
140
0.0
102
RTVSPost2010PropOp38
 70
     1
102
RTVSPost2010Prop39
140
1.0
102
RTVSPost2010PropOp39
 70
     1
102
RTVSPost2010Prop40
 90
        0
102
RTVSPost2010PropOp40
 70
     1
102
RTVSPost2010Prop41ColorIndex
 90
       18
102
RTVSPost2010Prop41ColorRGB
 90
        0
102
RTVSPost2010PropOp41
 70
     1
102
RTVSPost2010Prop42
 90
       50
102
RTVSPost2010PropOp42
 70
     1
102
RTVSPost2010Prop43
 90
        3
102
RTVSPost2010PropOp43
 70
     1
102
RTVSPost2010Prop44ColorIndex
 90
        5
102
RTVSPost2010Prop44ColorRGB
 90
      255
102
RTVSPost2010PropOp44
 70
     1
102
RTVSPost2010Prop45
280
     0
102
RTVSPost2010PropOp45
 70
     1
102
RTVSPost2010Prop46
 90
       50
102
RTVSPost2010PropOp46
 70
     1
102
RTVSPost2010Prop47
 90
       50
102
RTVSPost2010PropOp47
 70
     1
102
RTVSPost2010Prop48
 90
       50
102
RTVSPost2010PropOp48
 70
     1
102
RTVSPost2010Prop49
280
     0
102
RTVSPost2010PropOp49
 70
     1
102
RTVSPost2010Prop50
 90
       50
102
RTVSPost2010PropOp50
 70
     1
102
RTVSPost2010Prop51ColorIndex
 90
      256
102
RTVSPost2010Prop51ColorRGB
 90
-16777216
102
RTVSPost2010PropOp51
 70
     0
102
RTVSPost2010Prop52
140
1.0
102
RTVSPost2010PropOp52
 70
     0
102
RTVSPost2010Prop53
 90
        2
102
RTVSPost2010PropOp53
 70
     1
102
RTVSPost2010Prop54
  1
strokes_ogs.tif
102
RTVSPost2010PropOp54
 70
     1
102
RTVSPost2010Prop55
280
     0
102
RTVSPost2010PropOp55
 70
     1
102
RTVSPost2010Prop56
140
1.0
102
RTVSPost2010PropOp56
 70
     1
102
RTVSPost2010Prop57
140
1.0
102
RTVSPost2010PropOp57
 70
     1
  0
XRECORD
  5
AC1
102
{ACAD_REACTORS
330
AC0
102
}
330
AC0
100
AcDbXrecord
280
     1
102
RTVSPropertyOp0
 70
     0
102
RTVSPropertyOp1
 70
     0
102
RTVSPropertyOp2
 70
     0
102
RTVSPropertyOp3
 70
     0
102
RTVSPropertyOp4
 70
     0
102
RTVSPropertyOp5
 70
     0
102
RTVSPropertyOp6
 70
     0
102
RTVSPropertyOp7
 70
     0
102
RTVSPropertyOp8
 70
     0
102
RTVSPropertyOp9
 70
     0
102
RTVSPropertyOp10
 70
     0
102
RTVSPropertyOp11
 70
     0
102
RTVSPropertyOp12
 70
     0
102
RTVSPropertyOp13
 70
     0
102
RTVSPropertyOp14
 70
     2
102
RTVSPropertyOp15
 70
     0
102
RTVSPropertyOp16
 70
     0
102
RTVSPropertyOp17
 70
     0
102
RTVSPropertyOp18
 70
     0
102
RTVSPropertyOp19
 70
     0
102
RTVSPropertyOp20
 70
     0
102
RTVSPropertyOp21
 70
     0
102
RTVSPropertyOp22
 70
     0
102
RTVSPropertyOp23
 70
     0
102
RTVSPropertyOp24
 70
     0
102
RTVSPropertyOp25
 70
     0
102
RTVSPropertyOp26
 70
     0
102
RTVSPropertyOp27
 70
     0
102
RTVSPropertyOp28
 70
     0
102
RTVSPropertyOp29
 70
     0
102
RTVSPropertyOp30
 70
     0
102
RTVSPropertyOp31
 70
     0
102
RTVSPropertyOp32
 70
     0
102
RTVSPropertyOp33
 70
     0
102
RTVSPropertyOp34
 70
     0
102
RTVSPropertyOp35
 70
     0
102
RTVSPropertyOp36
 70
     0
102
RTVSPropertyOp37
 70
     0
102
RTVSPropertyOp38
 70
     0
102
RTVSPropertyOp39
 70
     0
102
RTVSPropertyOp40
 70
     0
102
RTVSPropertyOp41
 70
     0
102
RTVSPropertyOp42
 70
     0
102
RTVSPropertyOp43
 70
     0
102
RTVSPropertyOp44
 70
     0
102
RTVSPropertyOp45
 70
     0
102
RTVSPropertyOp46
 70
     0
102
RTVSPropertyOp47
 70
     0
102
RTVSPropertyOp48
 70
     0
102
RTVSPropertyOp49
 70
     0
102
RTVSPropertyOp50
 70
     0
102
RTVSPropertyOp51
 70
     0
102
RTVSPropertyOp52
 70
     0
102
RTVSPropertyOp53
 70
     0
102
RTVSPropertyOp54
 70
     0
102
RTVSPropertyOp55
 70
     0
102
RTVSPropertyOp56
 70
     0
102
RTVSPropertyOp57
 70
     0
102
RTVSPost2010Prop28
280
     0
102
RTVSPost2010PropOp28
 70
     0
102
RTVSPost2010Prop29
280
     1
102
RTVSPost2010PropOp29
 70
     0
102
RTVSPost2010Prop30
280
     1
102
RTVSPost2010PropOp30
 70
     0
102
RTVSPost2010Prop31
280
     0
102
RTVSPost2010PropOp31
 70
     0
102
RTVSPost2010Prop32
280
     0
102
RTVSPost2010PropOp32
 70
     0
102
RTVSPost2010Prop33
280
     0
102
RTVSPost2010PropOp33
 70
     0
102
RTVSPost2010Prop34
280
     0
102
RTVSPost2010PropOp34
 70
     0
102
RTVSPost2010Prop35
280
     0
102
RTVSPost2010PropOp35
 70
     0
102
RTVSPost2010Prop36
280
     0
102
RTVSPost2010PropOp36
 70
     0
102
RTVSPost2010Prop37
 90
       50
102
RTVSPost2010PropOp37
 70
     0
102
RTVSPost2010Prop38
140
0.0
102
RTVSPost2010PropOp38
 70
     0
102
RTVSPost2010Prop39
140
1.0
102
RTVSPost2010PropOp39
 70
     0
102
RTVSPost2010Prop40
 90
        0
102
RTVSPost2010PropOp40
 70
     0
102
RTVSPost2010Prop41ColorIndex
 90
       18
102
RTVSPost2010Prop41ColorRGB
 90
        0
102
RTVSPost2010PropOp41
 70
     0
102
RTVSPost2010Prop42
 90
       50
102
RTVSPost2010PropOp42
 70
     0
102
RTVSPost2010Prop43
 90
        3
102
RTVSPost2010PropOp43
 70
     0
102
RTVSPost2010Prop44ColorIndex
 90
        5
102
RTVSPost2010Prop44ColorRGB
 90
      255
102
RTVSPost2010PropOp44
 70
     0
102
RTVSPost2010Prop45
280
     0
102
RTVSPost2010PropOp45
 70
     0
102
RTVSPost2010Prop46
 90
       50
102
RTVSPost2010PropOp46
 70
     0
102
RTVSPost2010Prop47
 90
       50
102
RTVSPost2010PropOp47
 70
     0
102
RTVSPost2010Prop48
 90
       50
102
RTVSPost2010PropOp48
 70
     0
102
RTVSPost2010Prop49
280
     0
102
RTVSPost2010PropOp49
 70
     0
102
RTVSPost2010Prop50
 90
       50
102
RTVSPost2010PropOp50
 70
     0
102
RTVSPost2010Prop51ColorIndex
 90
      256
102
RTVSPost2010Prop51ColorRGB
 90
-16777216
102
RTVSPost2010PropOp51
 70
     0
102
RTVSPost2010Prop52
140
1.0
102
RTVSPost2010PropOp52
 70
     0
102
RTVSPost2010Prop53
 90
        2
102
RTVSPost2010PropOp53
 70
     0
102
RTVSPost2010Prop54
  1
strokes_ogs.tif
102
RTVSPost2010PropOp54
 70
     0
102
RTVSPost2010Prop55
280
     0
102
RTVSPost2010PropOp55
 70
     0
102
RTVSPost2010Prop56
140
1.0
102
RTVSPost2010PropOp56
 70
     0
102
RTVSPost2010Prop57
140
1.0
102
RTVSPost2010PropOp57
 70
     0
  0
XRECORD
  5
AAF
102
{ACAD_REACTORS
330
AAE
102
}
330
AAE
100
AcDbXrecord
280
     1
102
RTVSPropertyOp0
 70
     1
102
RTVSPropertyOp1
 70
     1
102
RTVSPropertyOp2
 70
     1
102
RTVSPropertyOp3
 70
     1
102
RTVSPropertyOp4
 70
     1
102
RTVSPropertyOp5
 70
     1
102
RTVSPropertyOp6
 70
     1
102
RTVSPropertyOp7
 70
     1
102
RTVSPropertyOp8
 70
     1
102
RTVSPropertyOp9
 70
     1
102
RTVSPropertyOp10
 70
     1
102
RTVSPropertyOp11
 70
     1
102
RTVSPropertyOp12
 70
     1
102
RTVSPropertyOp13
 70
     1
102
RTVSPropertyOp14
 70
     1
102
RTVSPropertyOp15
 70
     1
102
RTVSPropertyOp16
 70
     1
102
RTVSPropertyOp17
 70
     1
102
RTVSPropertyOp18
 70
     1
102
RTVSPropertyOp19
 70
     1
102
RTVSPropertyOp20
 70
     1
102
RTVSPropertyOp21
 70
     1
102
RTVSPropertyOp22
 70
     1
102
RTVSPropertyOp23
 70
     1
102
RTVSPropertyOp24
 70
     1
102
RTVSPropertyOp25
 70
     1
102
RTVSPropertyOp26
 70
     1
102
RTVSPropertyOp27
 70
     1
102
RTVSPropertyOp28
 70
     1
102
RTVSPropertyOp29
 70
     1
102
RTVSPropertyOp30
 70
     1
102
RTVSPropertyOp31
 70
     1
102
RTVSPropertyOp32
 70
     1
102
RTVSPropertyOp33
 70
     1
102
RTVSPropertyOp34
 70
     1
102
RTVSPropertyOp35
 70
     1
102
RTVSPropertyOp36
 70
     1
102
RTVSPropertyOp37
 70
     1
102
RTVSPropertyOp38
 70
     1
102
RTVSPropertyOp39
 70
     1
102
RTVSPropertyOp40
 70
     1
102
RTVSPropertyOp41
 70
     1
102
RTVSPropertyOp42
 70
     1
102
RTVSPropertyOp43
 70
     1
102
RTVSPropertyOp44
 70
     1
102
RTVSPropertyOp45
 70
     1
102
RTVSPropertyOp46
 70
     1
102
RTVSPropertyOp47
 70
     1
102
RTVSPropertyOp48
 70
     1
102
RTVSPropertyOp49
 70
     1
102
RTVSPropertyOp50
 70
     1
102
RTVSPropertyOp51
 70
     0
102
RTVSPropertyOp52
 70
     0
102
RTVSPropertyOp53
 70
     1
102
RTVSPropertyOp54
 70
     1
102
RTVSPropertyOp55
 70
     1
102
RTVSPropertyOp56
 70
     1
102
RTVSPropertyOp57
 70
     1
102
RTVSPost2010Prop28
280
     0
102
RTVSPost2010PropOp28
 70
     1
102
RTVSPost2010Prop29
280
     1
102
RTVSPost2010PropOp29
 70
     1
102
RTVSPost2010Prop30
280
     1
102
RTVSPost2010PropOp30
 70
     1
102
RTVSPost2010Prop31
280
     0
102
RTVSPost2010PropOp31
 70
     1
102
RTVSPost2010Prop32
280
     0
102
RTVSPost2010PropOp32
 70
     1
102
RTVSPost2010Prop33
280
     0
102
RTVSPost2010PropOp33
 70
     1
102
RTVSPost2010Prop34
280
     0
102
RTVSPost2010PropOp34
 70
     1
102
RTVSPost2010Prop35
280
     0
102
RTVSPost2010PropOp35
 70
     1
102
RTVSPost2010Prop36
280
     0
102
RTVSPost2010PropOp36
 70
     1
102
RTVSPost2010Prop37
 90
       50
102
RTVSPost2010PropOp37
 70
     1
102
RTVSPost2010Prop38
140
0.0
102
RTVSPost2010PropOp38
 70
     1
102
RTVSPost2010Prop39
140
1.0
102
RTVSPost2010PropOp39
 70
     1
102
RTVSPost2010Prop40
 90
        0
102
RTVSPost2010PropOp40
 70
     1
102
RTVSPost2010Prop41ColorIndex
 90
       18
102
RTVSPost2010Prop41ColorRGB
 90
        0
102
RTVSPost2010PropOp41
 70
     1
102
RTVSPost2010Prop42
 90
       50
102
RTVSPost2010PropOp42
 70
     1
102
RTVSPost2010Prop43
 90
        3
102
RTVSPost2010PropOp43
 70
     1
102
RTVSPost2010Prop44ColorIndex
 90
        5
102
RTVSPost2010Prop44ColorRGB
 90
      255
102
RTVSPost2010PropOp44
 70
     1
102
RTVSPost2010Prop45
280
     0
102
RTVSPost2010PropOp45
 70
     1
102
RTVSPost2010Prop46
 90
       50
102
RTVSPost2010PropOp46
 70
     1
102
RTVSPost2010Prop47
 90
       50
102
RTVSPost2010PropOp47
 70
     1
102
RTVSPost2010Prop48
 90
       50
102
RTVSPost2010PropOp48
 70
     1
102
RTVSPost2010Prop49
280
     0
102
RTVSPost2010PropOp49
 70
     1
102
RTVSPost2010Prop50
 90
       50
102
RTVSPost2010PropOp50
 70
     1
102
RTVSPost2010Prop51ColorIndex
 90
      256
102
RTVSPost2010Prop51ColorRGB
 90
-16777216
102
RTVSPost2010PropOp51
 70
     0
102
RTVSPost2010Prop52
140
1.0
102
RTVSPost2010PropOp52
 70
     0
102
RTVSPost2010Prop53
 90
        2
102
RTVSPost2010PropOp53
 70
     1
102
RTVSPost2010Prop54
  1
strokes_ogs.tif
102
RTVSPost2010PropOp54
 70
     1
102
RTVSPost2010Prop55
280
     0
102
RTVSPost2010PropOp55
 70
     1
102
RTVSPost2010Prop56
140
1.0
102
RTVSPost2010PropOp56
 70
     1
102
RTVSPost2010Prop57
140
1.0
102
RTVSPost2010PropOp57
 70
     1
  0
XRECORD
  5
ACD
102
{ACAD_REACTORS
330
ACC
102
}
330
ACC
100
AcDbXrecord
280
     1
102
RTVSPropertyOp0
 70
     1
102
RTVSPropertyOp1
 70
     1
102
RTVSPropertyOp2
 70
     1
102
RTVSPropertyOp3
 70
     1
102
RTVSPropertyOp4
 70
     1
102
RTVSPropertyOp5
 70
     1
102
RTVSPropertyOp6
 70
     1
102
RTVSPropertyOp7
 70
     1
102
RTVSPropertyOp8
 70
     1
102
RTVSPropertyOp9
 70
     1
102
RTVSPropertyOp10
 70
     1
102
RTVSPropertyOp11
 70
     1
102
RTVSPropertyOp12
 70
     1
102
RTVSPropertyOp13
 70
     1
102
RTVSPropertyOp14
 70
     1
102
RTVSPropertyOp15
 70
     1
102
RTVSPropertyOp16
 70
     1
102
RTVSPropertyOp17
 70
     1
102
RTVSPropertyOp18
 70
     1
102
RTVSPropertyOp19
 70
     1
102
RTVSPropertyOp20
 70
     1
102
RTVSPropertyOp21
 70
     1
102
RTVSPropertyOp22
 70
     1
102
RTVSPropertyOp23
 70
     1
102
RTVSPropertyOp24
 70
     1
102
RTVSPropertyOp25
 70
     1
102
RTVSPropertyOp26
 70
     1
102
RTVSPropertyOp27
 70
     1
102
RTVSPropertyOp28
 70
     1
102
RTVSPropertyOp29
 70
     1
102
RTVSPropertyOp30
 70
     1
102
RTVSPropertyOp31
 70
     1
102
RTVSPropertyOp32
 70
     1
102
RTVSPropertyOp33
 70
     1
102
RTVSPropertyOp34
 70
     1
102
RTVSPropertyOp35
 70
     1
102
RTVSPropertyOp36
 70
     1
102
RTVSPropertyOp37
 70
     1
102
RTVSPropertyOp38
 70
     1
102
RTVSPropertyOp39
 70
     1
102
RTVSPropertyOp40
 70
     1
102
RTVSPropertyOp41
 70
     1
102
RTVSPropertyOp42
 70
     1
102
RTVSPropertyOp43
 70
     1
102
RTVSPropertyOp44
 70
     1
102
RTVSPropertyOp45
 70
     1
102
RTVSPropertyOp46
 70
     1
102
RTVSPropertyOp47
 70
     1
102
RTVSPropertyOp48
 70
     1
102
RTVSPropertyOp49
 70
     1
102
RTVSPropertyOp50
 70
     1
102
RTVSPropertyOp51
 70
     0
102
RTVSPropertyOp52
 70
     0
102
RTVSPropertyOp53
 70
     1
102
RTVSPropertyOp54
 70
     1
102
RTVSPropertyOp55
 70
     1
102
RTVSPropertyOp56
 70
     1
102
RTVSPropertyOp57
 70
     1
102
RTVSPost2010Prop28
280
     0
102
RTVSPost2010PropOp28
 70
     1
102
RTVSPost2010Prop29
280
     1
102
RTVSPost2010PropOp29
 70
     1
102
RTVSPost2010Prop30
280
     1
102
RTVSPost2010PropOp30
 70
     1
102
RTVSPost2010Prop31
280
     0
102
RTVSPost2010PropOp31
 70
     1
102
RTVSPost2010Prop32
280
     0
102
RTVSPost2010PropOp32
 70
     1
102
RTVSPost2010Prop33
280
     0
102
RTVSPost2010PropOp33
 70
     1
102
RTVSPost2010Prop34
280
     0
102
RTVSPost2010PropOp34
 70
     1
102
RTVSPost2010Prop35
280
     0
102
RTVSPost2010PropOp35
 70
     1
102
RTVSPost2010Prop36
280
     0
102
RTVSPost2010PropOp36
 70
     1
102
RTVSPost2010Prop37
 90
       50
102
RTVSPost2010PropOp37
 70
     1
102
RTVSPost2010Prop38
140
0.0
102
RTVSPost2010PropOp38
 70
     1
102
RTVSPost2010Prop39
140
1.0
102
RTVSPost2010PropOp39
 70
     1
102
RTVSPost2010Prop40
 90
        0
102
RTVSPost2010PropOp40
 70
     1
102
RTVSPost2010Prop41ColorIndex
 90
       18
102
RTVSPost2010Prop41ColorRGB
 90
        0
102
RTVSPost2010PropOp41
 70
     1
102
RTVSPost2010Prop42
 90
       50
102
RTVSPost2010PropOp42
 70
     1
102
RTVSPost2010Prop43
 90
        3
102
RTVSPost2010PropOp43
 70
     1
102
RTVSPost2010Prop44ColorIndex
 90
        5
102
RTVSPost2010Prop44ColorRGB
 90
      255
102
RTVSPost2010PropOp44
 70
     1
102
RTVSPost2010Prop45
280
     0
102
RTVSPost2010PropOp45
 70
     1
102
RTVSPost2010Prop46
 90
       50
102
RTVSPost2010PropOp46
 70
     1
102
RTVSPost2010Prop47
 90
       50
102
RTVSPost2010PropOp47
 70
     1
102
RTVSPost2010Prop48
 90
       50
102
RTVSPost2010PropOp48
 70
     1
102
RTVSPost2010Prop49
280
     0
102
RTVSPost2010PropOp49
 70
     1
102
RTVSPost2010Prop50
 90
       50
102
RTVSPost2010PropOp50
 70
     1
102
RTVSPost2010Prop51ColorIndex
 90
      256
102
RTVSPost2010Prop51ColorRGB
 90
-16777216
102
RTVSPost2010PropOp51
 70
     0
102
RTVSPost2010Prop52
140
1.0
102
RTVSPost2010PropOp52
 70
     0
102
RTVSPost2010Prop53
 90
        2
102
RTVSPost2010PropOp53
 70
     1
102
RTVSPost2010Prop54
  1
strokes_ogs.tif
102
RTVSPost2010PropOp54
 70
     1
102
RTVSPost2010Prop55
280
     0
102
RTVSPost2010PropOp55
 70
     1
102
RTVSPost2010Prop56
140
1.0
102
RTVSPost2010PropOp56
 70
     1
102
RTVSPost2010Prop57
140
1.0
102
RTVSPost2010PropOp57
 70
     1
  0
XRECORD
  5
ACB
102
{ACAD_REACTORS
330
ACA
102
}
330
ACA
100
AcDbXrecord
280
     1
102
RTVSPropertyOp0
 70
     1
102
RTVSPropertyOp1
 70
     1
102
RTVSPropertyOp2
 70
     1
102
RTVSPropertyOp3
 70
     1
102
RTVSPropertyOp4
 70
     1
102
RTVSPropertyOp5
 70
     1
102
RTVSPropertyOp6
 70
     1
102
RTVSPropertyOp7
 70
     1
102
RTVSPropertyOp8
 70
     1
102
RTVSPropertyOp9
 70
     1
102
RTVSPropertyOp10
 70
     1
102
RTVSPropertyOp11
 70
     1
102
RTVSPropertyOp12
 70
     1
102
RTVSPropertyOp13
 70
     1
102
RTVSPropertyOp14
 70
     1
102
RTVSPropertyOp15
 70
     1
102
RTVSPropertyOp16
 70
     1
102
RTVSPropertyOp17
 70
     1
102
RTVSPropertyOp18
 70
     1
102
RTVSPropertyOp19
 70
     1
102
RTVSPropertyOp20
 70
     1
102
RTVSPropertyOp21
 70
     1
102
RTVSPropertyOp22
 70
     1
102
RTVSPropertyOp23
 70
     1
102
RTVSPropertyOp24
 70
     1
102
RTVSPropertyOp25
 70
     1
102
RTVSPropertyOp26
 70
     1
102
RTVSPropertyOp27
 70
     1
102
RTVSPropertyOp28
 70
     1
102
RTVSPropertyOp29
 70
     1
102
RTVSPropertyOp30
 70
     1
102
RTVSPropertyOp31
 70
     1
102
RTVSPropertyOp32
 70
     1
102
RTVSPropertyOp33
 70
     1
102
RTVSPropertyOp34
 70
     1
102
RTVSPropertyOp35
 70
     1
102
RTVSPropertyOp36
 70
     1
102
RTVSPropertyOp37
 70
     1
102
RTVSPropertyOp38
 70
     1
102
RTVSPropertyOp39
 70
     1
102
RTVSPropertyOp40
 70
     1
102
RTVSPropertyOp41
 70
     1
102
RTVSPropertyOp42
 70
     1
102
RTVSPropertyOp43
 70
     1
102
RTVSPropertyOp44
 70
     1
102
RTVSPropertyOp45
 70
     1
102
RTVSPropertyOp46
 70
     1
102
RTVSPropertyOp47
 70
     1
102
RTVSPropertyOp48
 70
     1
102
RTVSPropertyOp49
 70
     1
102
RTVSPropertyOp50
 70
     1
102
RTVSPropertyOp51
 70
     0
102
RTVSPropertyOp52
 70
     0
102
RTVSPropertyOp53
 70
     1
102
RTVSPropertyOp54
 70
     1
102
RTVSPropertyOp55
 70
     1
102
RTVSPropertyOp56
 70
     1
102
RTVSPropertyOp57
 70
     1
102
RTVSPost2010Prop28
280
     0
102
RTVSPost2010PropOp28
 70
     1
102
RTVSPost2010Prop29
280
     1
102
RTVSPost2010PropOp29
 70
     1
102
RTVSPost2010Prop30
280
     1
102
RTVSPost2010PropOp30
 70
     1
102
RTVSPost2010Prop31
280
     0
102
RTVSPost2010PropOp31
 70
     1
102
RTVSPost2010Prop32
280
     0
102
RTVSPost2010PropOp32
 70
     1
102
RTVSPost2010Prop33
280
     0
102
RTVSPost2010PropOp33
 70
     1
102
RTVSPost2010Prop34
280
     0
102
RTVSPost2010PropOp34
 70
     1
102
RTVSPost2010Prop35
280
     0
102
RTVSPost2010PropOp35
 70
     1
102
RTVSPost2010Prop36
280
     0
102
RTVSPost2010PropOp36
 70
     1
102
RTVSPost2010Prop37
 90
       50
102
RTVSPost2010PropOp37
 70
     1
102
RTVSPost2010Prop38
140
0.0
102
RTVSPost2010PropOp38
 70
     1
102
RTVSPost2010Prop39
140
1.0
102
RTVSPost2010PropOp39
 70
     1
102
RTVSPost2010Prop40
 90
        0
102
RTVSPost2010PropOp40
 70
     1
102
RTVSPost2010Prop41ColorIndex
 90
       18
102
RTVSPost2010Prop41ColorRGB
 90
        0
102
RTVSPost2010PropOp41
 70
     1
102
RTVSPost2010Prop42
 90
       50
102
RTVSPost2010PropOp42
 70
     1
102
RTVSPost2010Prop43
 90
        3
102
RTVSPost2010PropOp43
 70
     1
102
RTVSPost2010Prop44ColorIndex
 90
        5
102
RTVSPost2010Prop44ColorRGB
 90
      255
102
RTVSPost2010PropOp44
 70
     1
102
RTVSPost2010Prop45
280
     0
102
RTVSPost2010PropOp45
 70
     1
102
RTVSPost2010Prop46
 90
       50
102
RTVSPost2010PropOp46
 70
     1
102
RTVSPost2010Prop47
 90
       50
102
RTVSPost2010PropOp47
 70
     1
102
RTVSPost2010Prop48
 90
       50
102
RTVSPost2010PropOp48
 70
     1
102
RTVSPost2010Prop49
280
     0
102
RTVSPost2010PropOp49
 70
     1
102
RTVSPost2010Prop50
 90
       50
102
RTVSPost2010PropOp50
 70
     1
102
RTVSPost2010Prop51ColorIndex
 90
      256
102
RTVSPost2010Prop51ColorRGB
 90
-16777216
102
RTVSPost2010PropOp51
 70
     0
102
RTVSPost2010Prop52
140
1.0
102
RTVSPost2010PropOp52
 70
     0
102
RTVSPost2010Prop53
 90
        2
102
RTVSPost2010PropOp53
 70
     1
102
RTVSPost2010Prop54
  1
strokes_ogs.tif
102
RTVSPost2010PropOp54
 70
     1
102
RTVSPost2010Prop55
280
     0
102
RTVSPost2010PropOp55
 70
     1
102
RTVSPost2010Prop56
140
1.0
102
RTVSPost2010PropOp56
 70
     1
102
RTVSPost2010Prop57
140
1.0
102
RTVSPost2010PropOp57
 70
     1
  0
XRECORD
  5
AC5
102
{ACAD_REACTORS
330
AC4
102
}
330
AC4
100
AcDbXrecord
280
     1
102
RTVSPropertyOp0
 70
     1
102
RTVSPropertyOp1
 70
     1
102
RTVSPropertyOp2
 70
     1
102
RTVSPropertyOp3
 70
     1
102
RTVSPropertyOp4
 70
     1
102
RTVSPropertyOp5
 70
     1
102
RTVSPropertyOp6
 70
     1
102
RTVSPropertyOp7
 70
     1
102
RTVSPropertyOp8
 70
     1
102
RTVSPropertyOp9
 70
     1
102
RTVSPropertyOp10
 70
     1
102
RTVSPropertyOp11
 70
     1
102
RTVSPropertyOp12
 70
     1
102
RTVSPropertyOp13
 70
     1
102
RTVSPropertyOp14
 70
     1
102
RTVSPropertyOp15
 70
     1
102
RTVSPropertyOp16
 70
     1
102
RTVSPropertyOp17
 70
     1
102
RTVSPropertyOp18
 70
     1
102
RTVSPropertyOp19
 70
     1
102
RTVSPropertyOp20
 70
     1
102
RTVSPropertyOp21
 70
     1
102
RTVSPropertyOp22
 70
     1
102
RTVSPropertyOp23
 70
     1
102
RTVSPropertyOp24
 70
     1
102
RTVSPropertyOp25
 70
     1
102
RTVSPropertyOp26
 70
     1
102
RTVSPropertyOp27
 70
     1
102
RTVSPropertyOp28
 70
     1
102
RTVSPropertyOp29
 70
     1
102
RTVSPropertyOp30
 70
     1
102
RTVSPropertyOp31
 70
     1
102
RTVSPropertyOp32
 70
     1
102
RTVSPropertyOp33
 70
     1
102
RTVSPropertyOp34
 70
     1
102
RTVSPropertyOp35
 70
     1
102
RTVSPropertyOp36
 70
     1
102
RTVSPropertyOp37
 70
     1
102
RTVSPropertyOp38
 70
     1
102
RTVSPropertyOp39
 70
     1
102
RTVSPropertyOp40
 70
     1
102
RTVSPropertyOp41
 70
     1
102
RTVSPropertyOp42
 70
     1
102
RTVSPropertyOp43
 70
     1
102
RTVSPropertyOp44
 70
     1
102
RTVSPropertyOp45
 70
     1
102
RTVSPropertyOp46
 70
     1
102
RTVSPropertyOp47
 70
     1
102
RTVSPropertyOp48
 70
     1
102
RTVSPropertyOp49
 70
     1
102
RTVSPropertyOp50
 70
     1
102
RTVSPropertyOp51
 70
     0
102
RTVSPropertyOp52
 70
     0
102
RTVSPropertyOp53
 70
     1
102
RTVSPropertyOp54
 70
     1
102
RTVSPropertyOp55
 70
     1
102
RTVSPropertyOp56
 70
     1
102
RTVSPropertyOp57
 70
     1
102
RTVSPost2010Prop28
280
     0
102
RTVSPost2010PropOp28
 70
     1
102
RTVSPost2010Prop29
280
     1
102
RTVSPost2010PropOp29
 70
     1
102
RTVSPost2010Prop30
280
     1
102
RTVSPost2010PropOp30
 70
     1
102
RTVSPost2010Prop31
280
     0
102
RTVSPost2010PropOp31
 70
     1
102
RTVSPost2010Prop32
280
     0
102
RTVSPost2010PropOp32
 70
     1
102
RTVSPost2010Prop33
280
     0
102
RTVSPost2010PropOp33
 70
     1
102
RTVSPost2010Prop34
280
     0
102
RTVSPost2010PropOp34
 70
     1
102
RTVSPost2010Prop35
280
     0
102
RTVSPost2010PropOp35
 70
     1
102
RTVSPost2010Prop36
280
     0
102
RTVSPost2010PropOp36
 70
     1
102
RTVSPost2010Prop37
 90
       50
102
RTVSPost2010PropOp37
 70
     1
102
RTVSPost2010Prop38
140
0.0
102
RTVSPost2010PropOp38
 70
     1
102
RTVSPost2010Prop39
140
1.0
102
RTVSPost2010PropOp39
 70
     1
102
RTVSPost2010Prop40
 90
        0
102
RTVSPost2010PropOp40
 70
     1
102
RTVSPost2010Prop41ColorIndex
 90
       18
102
RTVSPost2010Prop41ColorRGB
 90
        0
102
RTVSPost2010PropOp41
 70
     1
102
RTVSPost2010Prop42
 90
       50
102
RTVSPost2010PropOp42
 70
     1
102
RTVSPost2010Prop43
 90
        3
102
RTVSPost2010PropOp43
 70
     1
102
RTVSPost2010Prop44ColorIndex
 90
        5
102
RTVSPost2010Prop44ColorRGB
 90
      255
102
RTVSPost2010PropOp44
 70
     1
102
RTVSPost2010Prop45
280
     0
102
RTVSPost2010PropOp45
 70
     1
102
RTVSPost2010Prop46
 90
       50
102
RTVSPost2010PropOp46
 70
     1
102
RTVSPost2010Prop47
 90
       50
102
RTVSPost2010PropOp47
 70
     1
102
RTVSPost2010Prop48
 90
       50
102
RTVSPost2010PropOp48
 70
     1
102
RTVSPost2010Prop49
280
     0
102
RTVSPost2010PropOp49
 70
     1
102
RTVSPost2010Prop50
 90
       50
102
RTVSPost2010PropOp50
 70
     1
102
RTVSPost2010Prop51ColorIndex
 90
      256
102
RTVSPost2010Prop51ColorRGB
 90
-16777216
102
RTVSPost2010PropOp51
 70
     0
102
RTVSPost2010Prop52
140
1.0
102
RTVSPost2010PropOp52
 70
     0
102
RTVSPost2010Prop53
 90
        2
102
RTVSPost2010PropOp53
 70
     1
102
RTVSPost2010Prop54
  1
strokes_ogs.tif
102
RTVSPost2010PropOp54
 70
     1
102
RTVSPost2010Prop55
280
     0
102
RTVSPost2010PropOp55
 70
     1
102
RTVSPost2010Prop56
140
1.0
102
RTVSPost2010PropOp56
 70
     1
102
RTVSPost2010Prop57
140
1.0
102
RTVSPost2010PropOp57
 70
     1
  0
XRECORD
  5
AC7
102
{ACAD_REACTORS
330
AC6
102
}
330
AC6
100
AcDbXrecord
280
     1
102
RTVSPropertyOp0
 70
     1
102
RTVSPropertyOp1
 70
     1
102
RTVSPropertyOp2
 70
     1
102
RTVSPropertyOp3
 70
     1
102
RTVSPropertyOp4
 70
     1
102
RTVSPropertyOp5
 70
     1
102
RTVSPropertyOp6
 70
     1
102
RTVSPropertyOp7
 70
     1
102
RTVSPropertyOp8
 70
     1
102
RTVSPropertyOp9
 70
     1
102
RTVSPropertyOp10
 70
     1
102
RTVSPropertyOp11
 70
     1
102
RTVSPropertyOp12
 70
     1
102
RTVSPropertyOp13
 70
     1
102
RTVSPropertyOp14
 70
     1
102
RTVSPropertyOp15
 70
     1
102
RTVSPropertyOp16
 70
     1
102
RTVSPropertyOp17
 70
     1
102
RTVSPropertyOp18
 70
     1
102
RTVSPropertyOp19
 70
     1
102
RTVSPropertyOp20
 70
     1
102
RTVSPropertyOp21
 70
     1
102
RTVSPropertyOp22
 70
     1
102
RTVSPropertyOp23
 70
     1
102
RTVSPropertyOp24
 70
     1
102
RTVSPropertyOp25
 70
     1
102
RTVSPropertyOp26
 70
     1
102
RTVSPropertyOp27
 70
     1
102
RTVSPropertyOp28
 70
     1
102
RTVSPropertyOp29
 70
     1
102
RTVSPropertyOp30
 70
     1
102
RTVSPropertyOp31
 70
     1
102
RTVSPropertyOp32
 70
     1
102
RTVSPropertyOp33
 70
     1
102
RTVSPropertyOp34
 70
     1
102
RTVSPropertyOp35
 70
     1
102
RTVSPropertyOp36
 70
     1
102
RTVSPropertyOp37
 70
     1
102
RTVSPropertyOp38
 70
     1
102
RTVSPropertyOp39
 70
     1
102
RTVSPropertyOp40
 70
     1
102
RTVSPropertyOp41
 70
     1
102
RTVSPropertyOp42
 70
     1
102
RTVSPropertyOp43
 70
     1
102
RTVSPropertyOp44
 70
     1
102
RTVSPropertyOp45
 70
     1
102
RTVSPropertyOp46
 70
     1
102
RTVSPropertyOp47
 70
     1
102
RTVSPropertyOp48
 70
     1
102
RTVSPropertyOp49
 70
     1
102
RTVSPropertyOp50
 70
     1
102
RTVSPropertyOp51
 70
     0
102
RTVSPropertyOp52
 70
     0
102
RTVSPropertyOp53
 70
     1
102
RTVSPropertyOp54
 70
     1
102
RTVSPropertyOp55
 70
     1
102
RTVSPropertyOp56
 70
     1
102
RTVSPropertyOp57
 70
     1
102
RTVSPost2010Prop28
280
     0
102
RTVSPost2010PropOp28
 70
     1
102
RTVSPost2010Prop29
280
     1
102
RTVSPost2010PropOp29
 70
     1
102
RTVSPost2010Prop30
280
     1
102
RTVSPost2010PropOp30
 70
     1
102
RTVSPost2010Prop31
280
     0
102
RTVSPost2010PropOp31
 70
     1
102
RTVSPost2010Prop32
280
     0
102
RTVSPost2010PropOp32
 70
     1
102
RTVSPost2010Prop33
280
     0
102
RTVSPost2010PropOp33
 70
     1
102
RTVSPost2010Prop34
280
     0
102
RTVSPost2010PropOp34
 70
     1
102
RTVSPost2010Prop35
280
     0
102
RTVSPost2010PropOp35
 70
     1
102
RTVSPost2010Prop36
280
     0
102
RTVSPost2010PropOp36
 70
     1
102
RTVSPost2010Prop37
 90
       50
102
RTVSPost2010PropOp37
 70
     1
102
RTVSPost2010Prop38
140
0.0
102
RTVSPost2010PropOp38
 70
     1
102
RTVSPost2010Prop39
140
1.0
102
RTVSPost2010PropOp39
 70
     1
102
RTVSPost2010Prop40
 90
        0
102
RTVSPost2010PropOp40
 70
     1
102
RTVSPost2010Prop41ColorIndex
 90
       18
102
RTVSPost2010Prop41ColorRGB
 90
        0
102
RTVSPost2010PropOp41
 70
     1
102
RTVSPost2010Prop42
 90
       50
102
RTVSPost2010PropOp42
 70
     1
102
RTVSPost2010Prop43
 90
        3
102
RTVSPost2010PropOp43
 70
     1
102
RTVSPost2010Prop44ColorIndex
 90
        5
102
RTVSPost2010Prop44ColorRGB
 90
      255
102
RTVSPost2010PropOp44
 70
     1
102
RTVSPost2010Prop45
280
     0
102
RTVSPost2010PropOp45
 70
     1
102
RTVSPost2010Prop46
 90
       50
102
RTVSPost2010PropOp46
 70
     1
102
RTVSPost2010Prop47
 90
       50
102
RTVSPost2010PropOp47
 70
     1
102
RTVSPost2010Prop48
 90
       50
102
RTVSPost2010PropOp48
 70
     1
102
RTVSPost2010Prop49
280
     0
102
RTVSPost2010PropOp49
 70
     1
102
RTVSPost2010Prop50
 90
       50
102
RTVSPost2010PropOp50
 70
     1
102
RTVSPost2010Prop51ColorIndex
 90
      256
102
RTVSPost2010Prop51ColorRGB
 90
-16777216
102
RTVSPost2010PropOp51
 70
     0
102
RTVSPost2010Prop52
140
1.0
102
RTVSPost2010PropOp52
 70
     0
102
RTVSPost2010Prop53
 90
        2
102
RTVSPost2010PropOp53
 70
     1
102
RTVSPost2010Prop54
  1
strokes_ogs.tif
102
RTVSPost2010PropOp54
 70
     1
102
RTVSPost2010Prop55
280
     0
102
RTVSPost2010PropOp55
 70
     1
102
RTVSPost2010Prop56
140
1.0
102
RTVSPost2010PropOp56
 70
     1
102
RTVSPost2010Prop57
140
1.0
102
RTVSPost2010PropOp57
 70
     1
  0
XRECORD
  5
AB7
102
{ACAD_REACTORS
330
AB6
102
}
330
AB6
100
AcDbXrecord
280
     1
102
RTVSPropertyOp0
 70
     1
102
RTVSPropertyOp1
 70
     1
102
RTVSPropertyOp2
 70
     1
102
RTVSPropertyOp3
 70
     1
102
RTVSPropertyOp4
 70
     1
102
RTVSPropertyOp5
 70
     1
102
RTVSPropertyOp6
 70
     1
102
RTVSPropertyOp7
 70
     1
102
RTVSPropertyOp8
 70
     1
102
RTVSPropertyOp9
 70
     1
102
RTVSPropertyOp10
 70
     1
102
RTVSPropertyOp11
 70
     1
102
RTVSPropertyOp12
 70
     1
102
RTVSPropertyOp13
 70
     1
102
RTVSPropertyOp14
 70
     1
102
RTVSPropertyOp15
 70
     1
102
RTVSPropertyOp16
 70
     1
102
RTVSPropertyOp17
 70
     1
102
RTVSPropertyOp18
 70
     1
102
RTVSPropertyOp19
 70
     1
102
RTVSPropertyOp20
 70
     1
102
RTVSPropertyOp21
 70
     1
102
RTVSPropertyOp22
 70
     1
102
RTVSPropertyOp23
 70
     1
102
RTVSPropertyOp24
 70
     1
102
RTVSPropertyOp25
 70
     1
102
RTVSPropertyOp26
 70
     1
102
RTVSPropertyOp27
 70
     1
102
RTVSPropertyOp28
 70
     1
102
RTVSPropertyOp29
 70
     1
102
RTVSPropertyOp30
 70
     1
102
RTVSPropertyOp31
 70
     1
102
RTVSPropertyOp32
 70
     1
102
RTVSPropertyOp33
 70
     1
102
RTVSPropertyOp34
 70
     1
102
RTVSPropertyOp35
 70
     1
102
RTVSPropertyOp36
 70
     1
102
RTVSPropertyOp37
 70
     1
102
RTVSPropertyOp38
 70
     1
102
RTVSPropertyOp39
 70
     1
102
RTVSPropertyOp40
 70
     1
102
RTVSPropertyOp41
 70
     1
102
RTVSPropertyOp42
 70
     1
102
RTVSPropertyOp43
 70
     1
102
RTVSPropertyOp44
 70
     1
102
RTVSPropertyOp45
 70
     1
102
RTVSPropertyOp46
 70
     1
102
RTVSPropertyOp47
 70
     1
102
RTVSPropertyOp48
 70
     1
102
RTVSPropertyOp49
 70
     1
102
RTVSPropertyOp50
 70
     1
102
RTVSPropertyOp51
 70
     0
102
RTVSPropertyOp52
 70
     0
102
RTVSPropertyOp53
 70
     1
102
RTVSPropertyOp54
 70
     1
102
RTVSPropertyOp55
 70
     1
102
RTVSPropertyOp56
 70
     1
102
RTVSPropertyOp57
 70
     1
102
RTVSPost2010Prop28
280
     0
102
RTVSPost2010PropOp28
 70
     1
102
RTVSPost2010Prop29
280
     1
102
RTVSPost2010PropOp29
 70
     1
102
RTVSPost2010Prop30
280
     1
102
RTVSPost2010PropOp30
 70
     1
102
RTVSPost2010Prop31
280
     0
102
RTVSPost2010PropOp31
 70
     1
102
RTVSPost2010Prop32
280
     0
102
RTVSPost2010PropOp32
 70
     1
102
RTVSPost2010Prop33
280
     0
102
RTVSPost2010PropOp33
 70
     1
102
RTVSPost2010Prop34
280
     0
102
RTVSPost2010PropOp34
 70
     1
102
RTVSPost2010Prop35
280
     0
102
RTVSPost2010PropOp35
 70
     1
102
RTVSPost2010Prop36
280
     0
102
RTVSPost2010PropOp36
 70
     1
102
RTVSPost2010Prop37
 90
       50
102
RTVSPost2010PropOp37
 70
     1
102
RTVSPost2010Prop38
140
0.0
102
RTVSPost2010PropOp38
 70
     1
102
RTVSPost2010Prop39
140
1.0
102
RTVSPost2010PropOp39
 70
     1
102
RTVSPost2010Prop40
 90
        0
102
RTVSPost2010PropOp40
 70
     1
102
RTVSPost2010Prop41ColorIndex
 90
       18
102
RTVSPost2010Prop41ColorRGB
 90
        0
102
RTVSPost2010PropOp41
 70
     1
102
RTVSPost2010Prop42
 90
       50
102
RTVSPost2010PropOp42
 70
     1
102
RTVSPost2010Prop43
 90
        3
102
RTVSPost2010PropOp43
 70
     1
102
RTVSPost2010Prop44ColorIndex
 90
        5
102
RTVSPost2010Prop44ColorRGB
 90
      255
102
RTVSPost2010PropOp44
 70
     1
102
RTVSPost2010Prop45
280
     0
102
RTVSPost2010PropOp45
 70
     1
102
RTVSPost2010Prop46
 90
       50
102
RTVSPost2010PropOp46
 70
     1
102
RTVSPost2010Prop47
 90
       50
102
RTVSPost2010PropOp47
 70
     1
102
RTVSPost2010Prop48
 90
       50
102
RTVSPost2010PropOp48
 70
     1
102
RTVSPost2010Prop49
280
     0
102
RTVSPost2010PropOp49
 70
     1
102
RTVSPost2010Prop50
 90
       50
102
RTVSPost2010PropOp50
 70
     1
102
RTVSPost2010Prop51ColorIndex
 90
      256
102
RTVSPost2010Prop51ColorRGB
 90
-16777216
102
RTVSPost2010PropOp51
 70
     0
102
RTVSPost2010Prop52
140
1.0
102
RTVSPost2010PropOp52
 70
     0
102
RTVSPost2010Prop53
 90
        2
102
RTVSPost2010PropOp53
 70
     1
102
RTVSPost2010Prop54
  1
strokes_ogs.tif
102
RTVSPost2010PropOp54
 70
     1
102
RTVSPost2010Prop55
280
     0
102
RTVSPost2010PropOp55
 70
     1
102
RTVSPost2010Prop56
140
1.0
102
RTVSPost2010PropOp56
 70
     1
102
RTVSPost2010Prop57
140
1.0
102
RTVSPost2010PropOp57
 70
     1
  0
XRECORD
  5
AA9
102
{ACAD_REACTORS
330
AA8
102
}
330
AA8
100
AcDbXrecord
280
     1
102
RTVSPropertyOp0
 70
     1
102
RTVSPropertyOp1
 70
     1
102
RTVSPropertyOp2
 70
     1
102
RTVSPropertyOp3
 70
     1
102
RTVSPropertyOp4
 70
     1
102
RTVSPropertyOp5
 70
     1
102
RTVSPropertyOp6
 70
     1
102
RTVSPropertyOp7
 70
     1
102
RTVSPropertyOp8
 70
     1
102
RTVSPropertyOp9
 70
     1
102
RTVSPropertyOp10
 70
     1
102
RTVSPropertyOp11
 70
     1
102
RTVSPropertyOp12
 70
     1
102
RTVSPropertyOp13
 70
     1
102
RTVSPropertyOp14
 70
     1
102
RTVSPropertyOp15
 70
     1
102
RTVSPropertyOp16
 70
     1
102
RTVSPropertyOp17
 70
     1
102
RTVSPropertyOp18
 70
     1
102
RTVSPropertyOp19
 70
     1
102
RTVSPropertyOp20
 70
     1
102
RTVSPropertyOp21
 70
     1
102
RTVSPropertyOp22
 70
     1
102
RTVSPropertyOp23
 70
     1
102
RTVSPropertyOp24
 70
     1
102
RTVSPropertyOp25
 70
     1
102
RTVSPropertyOp26
 70
     1
102
RTVSPropertyOp27
 70
     1
102
RTVSPropertyOp28
 70
     1
102
RTVSPropertyOp29
 70
     1
102
RTVSPropertyOp30
 70
     1
102
RTVSPropertyOp31
 70
     1
102
RTVSPropertyOp32
 70
     1
102
RTVSPropertyOp33
 70
     1
102
RTVSPropertyOp34
 70
     1
102
RTVSPropertyOp35
 70
     1
102
RTVSPropertyOp36
 70
     1
102
RTVSPropertyOp37
 70
     1
102
RTVSPropertyOp38
 70
     1
102
RTVSPropertyOp39
 70
     1
102
RTVSPropertyOp40
 70
     1
102
RTVSPropertyOp41
 70
     1
102
RTVSPropertyOp42
 70
     1
102
RTVSPropertyOp43
 70
     1
102
RTVSPropertyOp44
 70
     1
102
RTVSPropertyOp45
 70
     1
102
RTVSPropertyOp46
 70
     1
102
RTVSPropertyOp47
 70
     1
102
RTVSPropertyOp48
 70
     1
102
RTVSPropertyOp49
 70
     1
102
RTVSPropertyOp50
 70
     1
102
RTVSPropertyOp51
 70
     0
102
RTVSPropertyOp52
 70
     0
102
RTVSPropertyOp53
 70
     1
102
RTVSPropertyOp54
 70
     1
102
RTVSPropertyOp55
 70
     1
102
RTVSPropertyOp56
 70
     1
102
RTVSPropertyOp57
 70
     1
102
RTVSPost2010Prop28
280
     0
102
RTVSPost2010PropOp28
 70
     1
102
RTVSPost2010Prop29
280
     1
102
RTVSPost2010PropOp29
 70
     1
102
RTVSPost2010Prop30
280
     1
102
RTVSPost2010PropOp30
 70
     1
102
RTVSPost2010Prop31
280
     0
102
RTVSPost2010PropOp31
 70
     1
102
RTVSPost2010Prop32
280
     0
102
RTVSPost2010PropOp32
 70
     1
102
RTVSPost2010Prop33
280
     0
102
RTVSPost2010PropOp33
 70
     1
102
RTVSPost2010Prop34
280
     0
102
RTVSPost2010PropOp34
 70
     1
102
RTVSPost2010Prop35
280
     0
102
RTVSPost2010PropOp35
 70
     1
102
RTVSPost2010Prop36
280
     0
102
RTVSPost2010PropOp36
 70
     1
102
RTVSPost2010Prop37
 90
       50
102
RTVSPost2010PropOp37
 70
     1
102
RTVSPost2010Prop38
140
0.0
102
RTVSPost2010PropOp38
 70
     1
102
RTVSPost2010Prop39
140
1.0
102
RTVSPost2010PropOp39
 70
     1
102
RTVSPost2010Prop40
 90
        0
102
RTVSPost2010PropOp40
 70
     1
102
RTVSPost2010Prop41ColorIndex
 90
       18
102
RTVSPost2010Prop41ColorRGB
 90
        0
102
RTVSPost2010PropOp41
 70
     1
102
RTVSPost2010Prop42
 90
       50
102
RTVSPost2010PropOp42
 70
     1
102
RTVSPost2010Prop43
 90
        3
102
RTVSPost2010PropOp43
 70
     1
102
RTVSPost2010Prop44ColorIndex
 90
        5
102
RTVSPost2010Prop44ColorRGB
 90
      255
102
RTVSPost2010PropOp44
 70
     1
102
RTVSPost2010Prop45
280
     0
102
RTVSPost2010PropOp45
 70
     1
102
RTVSPost2010Prop46
 90
       50
102
RTVSPost2010PropOp46
 70
     1
102
RTVSPost2010Prop47
 90
       50
102
RTVSPost2010PropOp47
 70
     1
102
RTVSPost2010Prop48
 90
       50
102
RTVSPost2010PropOp48
 70
     1
102
RTVSPost2010Prop49
280
     0
102
RTVSPost2010PropOp49
 70
     1
102
RTVSPost2010Prop50
 90
       50
102
RTVSPost2010PropOp50
 70
     1
102
RTVSPost2010Prop51ColorIndex
 90
      256
102
RTVSPost2010Prop51ColorRGB
 90
-16777216
102
RTVSPost2010PropOp51
 70
     0
102
RTVSPost2010Prop52
140
1.0
102
RTVSPost2010PropOp52
 70
     0
102
RTVSPost2010Prop53
 90
        2
102
RTVSPost2010PropOp53
 70
     1
102
RTVSPost2010Prop54
  1
strokes_ogs.tif
102
RTVSPost2010PropOp54
 70
     1
102
RTVSPost2010Prop55
280
     0
102
RTVSPost2010PropOp55
 70
     1
102
RTVSPost2010Prop56
140
1.0
102
RTVSPost2010PropOp56
 70
     1
102
RTVSPost2010Prop57
140
1.0
102
RTVSPost2010PropOp57
 70
     1
  0
XRECORD
  5
AC9
102
{ACAD_REACTORS
330
AC8
102
}
330
AC8
100
AcDbXrecord
280
     1
102
RTVSPropertyOp0
 70
     1
102
RTVSPropertyOp1
 70
     1
102
RTVSPropertyOp2
 70
     1
102
RTVSPropertyOp3
 70
     1
102
RTVSPropertyOp4
 70
     1
102
RTVSPropertyOp5
 70
     1
102
RTVSPropertyOp6
 70
     1
102
RTVSPropertyOp7
 70
     1
102
RTVSPropertyOp8
 70
     1
102
RTVSPropertyOp9
 70
     1
102
RTVSPropertyOp10
 70
     1
102
RTVSPropertyOp11
 70
     1
102
RTVSPropertyOp12
 70
     1
102
RTVSPropertyOp13
 70
     1
102
RTVSPropertyOp14
 70
     1
102
RTVSPropertyOp15
 70
     1
102
RTVSPropertyOp16
 70
     1
102
RTVSPropertyOp17
 70
     1
102
RTVSPropertyOp18
 70
     1
102
RTVSPropertyOp19
 70
     1
102
RTVSPropertyOp20
 70
     1
102
RTVSPropertyOp21
 70
     1
102
RTVSPropertyOp22
 70
     1
102
RTVSPropertyOp23
 70
     1
102
RTVSPropertyOp24
 70
     1
102
RTVSPropertyOp25
 70
     1
102
RTVSPropertyOp26
 70
     1
102
RTVSPropertyOp27
 70
     1
102
RTVSPropertyOp28
 70
     1
102
RTVSPropertyOp29
 70
     1
102
RTVSPropertyOp30
 70
     1
102
RTVSPropertyOp31
 70
     1
102
RTVSPropertyOp32
 70
     1
102
RTVSPropertyOp33
 70
     1
102
RTVSPropertyOp34
 70
     1
102
RTVSPropertyOp35
 70
     1
102
RTVSPropertyOp36
 70
     1
102
RTVSPropertyOp37
 70
     1
102
RTVSPropertyOp38
 70
     1
102
RTVSPropertyOp39
 70
     1
102
RTVSPropertyOp40
 70
     1
102
RTVSPropertyOp41
 70
     1
102
RTVSPropertyOp42
 70
     1
102
RTVSPropertyOp43
 70
     1
102
RTVSPropertyOp44
 70
     1
102
RTVSPropertyOp45
 70
     1
102
RTVSPropertyOp46
 70
     1
102
RTVSPropertyOp47
 70
     1
102
RTVSPropertyOp48
 70
     1
102
RTVSPropertyOp49
 70
     1
102
RTVSPropertyOp50
 70
     1
102
RTVSPropertyOp51
 70
     0
102
RTVSPropertyOp52
 70
     0
102
RTVSPropertyOp53
 70
     1
102
RTVSPropertyOp54
 70
     1
102
RTVSPropertyOp55
 70
     1
102
RTVSPropertyOp56
 70
     1
102
RTVSPropertyOp57
 70
     1
102
RTVSPost2010Prop28
280
     0
102
RTVSPost2010PropOp28
 70
     1
102
RTVSPost2010Prop29
280
     1
102
RTVSPost2010PropOp29
 70
     1
102
RTVSPost2010Prop30
280
     1
102
RTVSPost2010PropOp30
 70
     1
102
RTVSPost2010Prop31
280
     0
102
RTVSPost2010PropOp31
 70
     1
102
RTVSPost2010Prop32
280
     0
102
RTVSPost2010PropOp32
 70
     1
102
RTVSPost2010Prop33
280
     0
102
RTVSPost2010PropOp33
 70
     1
102
RTVSPost2010Prop34
280
     0
102
RTVSPost2010PropOp34
 70
     1
102
RTVSPost2010Prop35
280
     0
102
RTVSPost2010PropOp35
 70
     1
102
RTVSPost2010Prop36
280
     0
102
RTVSPost2010PropOp36
 70
     1
102
RTVSPost2010Prop37
 90
       50
102
RTVSPost2010PropOp37
 70
     1
102
RTVSPost2010Prop38
140
0.0
102
RTVSPost2010PropOp38
 70
     1
102
RTVSPost2010Prop39
140
1.0
102
RTVSPost2010PropOp39
 70
     1
102
RTVSPost2010Prop40
 90
        0
102
RTVSPost2010PropOp40
 70
     1
102
RTVSPost2010Prop41ColorIndex
 90
       18
102
RTVSPost2010Prop41ColorRGB
 90
        0
102
RTVSPost2010PropOp41
 70
     1
102
RTVSPost2010Prop42
 90
       50
102
RTVSPost2010PropOp42
 70
     1
102
RTVSPost2010Prop43
 90
        3
102
RTVSPost2010PropOp43
 70
     1
102
RTVSPost2010Prop44ColorIndex
 90
        5
102
RTVSPost2010Prop44ColorRGB
 90
      255
102
RTVSPost2010PropOp44
 70
     1
102
RTVSPost2010Prop45
280
     0
102
RTVSPost2010PropOp45
 70
     1
102
RTVSPost2010Prop46
 90
       50
102
RTVSPost2010PropOp46
 70
     1
102
RTVSPost2010Prop47
 90
       50
102
RTVSPost2010PropOp47
 70
     1
102
RTVSPost2010Prop48
 90
       50
102
RTVSPost2010PropOp48
 70
     1
102
RTVSPost2010Prop49
280
     0
102
RTVSPost2010PropOp49
 70
     1
102
RTVSPost2010Prop50
 90
       50
102
RTVSPost2010PropOp50
 70
     1
102
RTVSPost2010Prop51ColorIndex
 90
      256
102
RTVSPost2010Prop51ColorRGB
 90
-16777216
102
RTVSPost2010PropOp51
 70
     0
102
RTVSPost2010Prop52
140
1.0
102
RTVSPost2010PropOp52
 70
     0
102
RTVSPost2010Prop53
 90
        2
102
RTVSPost2010PropOp53
 70
     1
102
RTVSPost2010Prop54
  1
strokes_ogs.tif
102
RTVSPost2010PropOp54
 70
     1
102
RTVSPost2010Prop55
280
     0
102
RTVSPost2010PropOp55
 70
     1
102
RTVSPost2010Prop56
140
1.0
102
RTVSPost2010PropOp56
 70
     1
102
RTVSPost2010Prop57
140
1.0
102
RTVSPost2010PropOp57
 70
     1
  0
ENDSEC
  0
EOF
