  0
SECTION
  2
HEADER
  9
$ACADVER
  1
AC1015
  9
$ACADMAINTVER
 70
     6
  9
$DWGCODEPAGE
  3
ANSI_1252
  9
$INSBASE
 10
0.0
 20
0.0
 30
0.0
  9
$EXTMIN
 10
0.0
 20
0.0
 30
0.0
  9
$EXTMAX
 10
297.0
 20
210.0
 30
0.0
  9
$LIMMIN
 10
0.0
 20
0.0
  9
$LIMMAX
 10
297.0
 20
210.0
  9
$ORTHOMODE
 70
     0
  9
$REGENMODE
 70
     1
  9
$FILLMODE
 70
     1
  9
$QTEXTMODE
 70
     0
  9
$MIRRTEXT
 70
     1
  9
$LTSCALE
 40
1.0
  9
$ATTMODE
 70
     1
  9
$TEXTSIZE
 40
2.0
  9
$TRACEWID
 40
1.0
  9
$TEXTSTYLE
  7
Standard
  9
$CLAYER
  8
0
  9
$CELTYPE
  6
ByLayer
  9
$CECOLOR
 62
   256
  9
$CELTSCALE
 40
1.0
  9
$DISPSILH
 70
     0
  9
$DIMSCALE
 40
1.0
  9
$DIMASZ
 40
2.5
  9
$DIMEXO
 40
0.625
  9
$DIMDLI
 40
3.75
  9
$DIMRND
 40
0.0
  9
$DIMDLE
 40
0.0
  9
$DIMEXE
 40
1.25
  9
$DIMTP
 40
0.0
  9
$DIMTM
 40
0.0
  9
$DIMTXT
 40
2.5
  9
$DIMCEN
 40
2.5
  9
$DIMTSZ
 40
0.0
  9
$DIMTOL
 70
     0
  9
$DIMLIM
 70
     0
  9
$DIMTIH
 70
     0
  9
$DIMTOH
 70
     0
  9
$DIMSE1
 70
     0
  9
$DIMSE2
 70
     0
  9
$DIMTAD
 70
     1
  9
$DIMZIN
 70
     8
  9
$DIMBLK
  1

  9
$DIMASO
 70
     1
  9
$DIMSHO
 70
     1
  9
$DIMPOST
  1

  9
$DIMAPOST
  1

  9
$DIMALT
 70
     0
  9
$DIMALTD
 70
     3
  9
$DIMALTF
 40
0.03937007874016
  9
$DIMLFAC
 40
1.0
  9
$DIMTOFL
 70
     1
  9
$DIMTVP
 40
0.0
  9
$DIMTIX
 70
     0
  9
$DIMSOXD
 70
     0
  9
$DIMSAH
 70
     0
  9
$DIMBLK1
  1

  9
$DIMBLK2
  1

  9
$DIMSTYLE
  2
ISO-25
  9
$DIMCLRD
 70
     0
  9
$DIMCLRE
 70
     0
  9
$DIMCLRT
 70
     0
  9
$DIMTFAC
 40
1.0
  9
$DIMGAP
 40
0.625
  9
$DIMJUST
 70
     0
  9
$DIMSD1
 70
     0
  9
$DIMSD2
 70
     0
  9
$DIMTOLJ
 70
     0
  9
$DIMTZIN
 70
     8
  9
$DIMALTZ
 70
     0
  9
$DIMALTTZ
 70
     0
  9
$DIMUPT
 70
     0
  9
$DIMDEC
 70
     2
  9
$DIMTDEC
 70
     2
  9
$DIMALTU
 70
     2
  9
$DIMALTTD
 70
     3
  9
$DIMTXSTY
  7
Standard
  9
$DIMAUNIT
 70
     0
  9
$DIMADEC
 70
     0
  9
$DIMALTRND
 40
0.0
  9
$DIMAZIN
 70
     0
  9
$DIMDSEP
 70
    44
  9
$DIMATFIT
 70
     3
  9
$DIMFRAC
 70
     0
  9
$DIMLDRBLK
  1

  9
$DIMLUNIT
 70
     2
  9
$DIMLWD
 70
    -2
  9
$DIMLWE
 70
    -2
  9
$DIMTMOVE
 70
     0
  9
$LUNITS
 70
     2
  9
$LUPREC
 70
     4
  9
$SKETCHINC
 40
1.0
  9
$FILLETRAD
 40
10.0
  9
$AUNITS
 70
     0
  9
$AUPREC
 70
     0
  9
$MENU
  1
.
  9
$ELEVATION
 40
0.0
  9
$PELEVATION
 40
0.0
  9
$THICKNESS
 40
0.0
  9
$LIMCHECK
 70
     0
  9
$CHAMFERA
 40
0.0
  9
$CHAMFERB
 40
0.0
  9
$CHAMFERC
 40
0.0
  9
$CHAMFERD
 40
0.0
  9
$SKPOLY
 70
     0
  9
$TDCREATE
 40
2459388.536963461
  9
$TDUCREATE
 40
2459388.453630127
  9
$TDUPDATE
 40
2460427.59688243
  9
$TDUUPDATE
 40
2460427.513549097
  9
$TDINDWG
 40
0.0000000116
  9
$TDUSRTIMER
 40
0.0000000116
  9
$USRTIMER
 70
     1
  9
$ANGBASE
 50
0.0
  9
$ANGDIR
 70
     0
  9
$PDMODE
 70
     0
  9
$PDSIZE
 40
0.0
  9
$PLINEWID
 40
0.0
  9
$SPLFRAME
 70
     0
  9
$SPLINETYPE
 70
     6
  9
$SPLINESEGS
 70
     8
  9
$HANDSEED
  5
328
  9
$SURFTAB1
 70
     6
  9
$SURFTAB2
 70
     6
  9
$SURFTYPE
 70
     6
  9
$SURFU
 70
     6
  9
$SURFV
 70
     6
  9
$UCSBASE
  2

  9
$UCSNAME
  2

  9
$UCSORG
 10
0.0
 20
0.0
 30
0.0
  9
$UCSXDIR
 10
1.0
 20
0.0
 30
0.0
  9
$UCSYDIR
 10
0.0
 20
1.0
 30
0.0
  9
$UCSORTHOREF
  2

  9
$UCSORTHOVIEW
 70
     0
  9
$UCSORGTOP
 10
0.0
 20
0.0
 30
0.0
  9
$UCSORGBOTTOM
 10
0.0
 20
0.0
 30
0.0
  9
$UCSORGLEFT
 10
0.0
 20
0.0
 30
0.0
  9
$UCSORGRIGHT
 10
0.0
 20
0.0
 30
0.0
  9
$UCSORGFRONT
 10
0.0
 20
0.0
 30
0.0
  9
$UCSORGBACK
 10
0.0
 20
0.0
 30
0.0
  9
$PUCSBASE
  2

  9
$PUCSNAME
  2

  9
$PUCSORG
 10
0.0
 20
0.0
 30
0.0
  9
$PUCSXDIR
 10
1.0
 20
0.0
 30
0.0
  9
$PUCSYDIR
 10
0.0
 20
1.0
 30
0.0
  9
$PUCSORTHOREF
  2

  9
$PUCSORTHOVIEW
 70
     0
  9
$PUCSORGTOP
 10
0.0
 20
0.0
 30
0.0
  9
$PUCSORGBOTTOM
 10
0.0
 20
0.0
 30
0.0
  9
$PUCSORGLEFT
 10
0.0
 20
0.0
 30
0.0
  9
$PUCSORGRIGHT
 10
0.0
 20
0.0
 30
0.0
  9
$PUCSORGFRONT
 10
0.0
 20
0.0
 30
0.0
  9
$PUCSORGBACK
 10
0.0
 20
0.0
 30
0.0
  9
$USERI1
 70
     0
  9
$USERI2
 70
     0
  9
$USERI3
 70
     0
  9
$USERI4
 70
     0
  9
$USERI5
 70
     0
  9
$USERR1
 40
0.0
  9
$USERR2
 40
0.0
  9
$USERR3
 40
0.0
  9
$USERR4
 40
0.0
  9
$USERR5
 40
0.0
  9
$WORLDVIEW
 70
     1
  9
$SHADEDGE
 70
     3
  9
$SHADEDIF
 70
    70
  9
$TILEMODE
 70
     1
  9
$MAXACTVP
 70
    64
  9
$PINSBASE
 10
0.0
 20
0.0
 30
0.0
  9
$PLIMCHECK
 70
     0
  9
$PEXTMIN
 10
0.0
 20
0.0
 30
0.0
  9
$PEXTMAX
 10
297.0
 20
210.0
 30
0.0
  9
$PLIMMIN
 10
0.0
 20
0.0
  9
$PLIMMAX
 10
297.0
 20
210.0
  9
$UNITMODE
 70
     0
  9
$VISRETAIN
 70
     1
  9
$PLINEGEN
 70
     0
  9
$PSLTSCALE
 70
     1
  9
$TREEDEPTH
 70
  3020
  9
$CMLSTYLE
  2
Standard
  9
$CMLJUST
 70
     0
  9
$CMLSCALE
 40
20.0
  9
$PROXYGRAPHICS
 70
     1
  9
$MEASUREMENT
 70
     1
  9
$CELWEIGHT
370
    -1
  9
$ENDCAPS
280
     0
  9
$JOINSTYLE
280
     0
  9
$LWDISPLAY
290
     0
  9
$INSUNITS
 70
     4
  9
$HYPERLINKBASE
  1

  9
$STYLESHEET
  1

  9
$XEDIT
290
     1
  9
$CEPSNTYPE
380
     0
  9
$PSTYLEMODE
290
     1
  9
$FINGERPRINTGUID
  2
{4CB17505-6331-4A88-9FFE-822CE71D7B58}
  9
$VERSIONGUID
  2
{FAEB1C32-E019-11D5-929B-00C0DF256EC4}
  9
$EXTNAMES
290
     1
  9
$PSVPSCALE
 40
0.0
  9
$OLESTARTUP
290
     0
  0
ENDSEC
  0
SECTION
  2
CLASSES
  0
CLASS
  1
ACDBDICTIONARYWDFLT
  2
AcDbDictionaryWithDefault
  3
ObjectDBX Classes
 90
        0
280
     0
281
     0
  0
CLASS
  1
VISUALSTYLE
  2
AcDbVisualStyle
  3
ObjectDBX Classes
 90
     4095
280
     0
281
     0
  0
CLASS
  1
MATERIAL
  2
AcDbMaterial
  3
ObjectDBX Classes
 90
     1153
280
     0
281
     0
  0
CLASS
  1
SCALE
  2
AcDbScale
  3
ObjectDBX Classes
 90
     1153
280
     0
281
     0
  0
CLASS
  1
TABLESTYLE
  2
AcDbTableStyle
  3
ObjectDBX Classes
 90
     4095
280
     0
281
     0
  0
CLASS
  1
MLEADERSTYLE
  2
AcDbMLeaderStyle
  3
ACDB_MLEADERSTYLE_CLASS
 90
     4095
280
     0
281
     0
  0
CLASS
  1
SUN
  2
AcDbSun
  3
SCENEOE
 90
     1153
280
     0
281
     0
  0
CLASS
  1
DICTIONARYVAR
  2
AcDbDictionaryVar
  3
ObjectDBX Classes
 90
        0
280
     0
281
     0
  0
CLASS
  1
CELLSTYLEMAP
  2
AcDbCellStyleMap
  3
ObjectDBX Classes
 90
     1152
280
     0
281
     0
  0
CLASS
  1
ACDBPLACEHOLDER
  2
AcDbPlaceHolder
  3
ObjectDBX Classes
 90
        0
280
     0
281
     0
  0
CLASS
  1
LAYOUT
  2
AcDbLayout
  3
ObjectDBX Classes
 90
        0
280
     0
281
     0
  0
ENDSEC
  0
SECTION
  2
TABLES
  0
TABLE
  2
VPORT
  5
8
102
{ACAD_XDICTIONARY
360
2EC
102
}
330
0
100
AcDbSymbolTable
 70
     1
  0
VPORT
  5
29
330
8
100
AcDbSymbolTableRecord
100
AcDbViewportTableRecord
  2
*Active
 70
     0
 10
0.0
 20
0.0
 11
1.0
 21
1.0
 12
344.1869158878504
 22
148.5
 13
0.0
 23
0.0
 14
10.0
 24
10.0
 15
10.0
 25
10.0
 16
0.0
 26
0.0
 36
1.0
 17
0.0
 27
0.0
 37
0.0
 40
297.0
 41
1.972972972850329
 42
50.0
 43
0.0
 44
0.0
 50
0.0
 51
0.0
 71
     0
 72
   100
 73
     1
 74
     3
 75
     0
 76
     0
 77
     0
 78
     0
281
     0
 65
     1
110
0.0
120
0.0
130
0.0
111
1.0
121
0.0
131
0.0
112
0.0
122
1.0
132
0.0
 79
     0
146
0.0
  0
ENDTAB
  0
TABLE
  2
LTYPE
  5
5
330
0
100
AcDbSymbolTable
 70
     1
  0
LTYPE
  5
14
330
5
100
AcDbSymbolTableRecord
100
AcDbLinetypeTableRecord
  2
ByBlock
 70
     0
  3

 72
    65
 73
     0
 40
0.0
  0
LTYPE
  5
15
330
5
100
AcDbSymbolTableRecord
100
AcDbLinetypeTableRecord
  2
ByLayer
 70
     0
  3

 72
    65
 73
     0
 40
0.0
  0
LTYPE
  5
16
330
5
100
AcDbSymbolTableRecord
100
AcDbLinetypeTableRecord
  2
Continuous
 70
     0
  3
Solid line
 72
    65
 73
     0
 40
0.0
  0
ENDTAB
  0
TABLE
  2
LAYER
  5
2
330
0
100
AcDbSymbolTable
 70
     8
  0
LAYER
  5
10
330
2
100
AcDbSymbolTableRecord
100
AcDbLayerTableRecord
  2
0
 70
     0
 62
     7
  6
Continuous
370
    -3
390
F
  0
LAYER
  5
6E
330
2
100
AcDbSymbolTableRecord
100
AcDbLayerTableRecord
  2
Default
 70
     0
 62
     7
  6
Continuous
370
    -3
390
F
  0
LAYER
  5
71
330
2
100
AcDbSymbolTableRecord
100
AcDbLayerTableRecord
  2
DV1_0
 70
     0
 62
     7
  6
Continuous
370
    -3
390
F
  0
LAYER
  5
FA
330
2
100
AcDbSymbolTableRecord
100
AcDbLayerTableRecord
  2
DV2_0
 70
     0
 62
     7
  6
Continuous
370
    -3
390
F
  0
LAYER
  5
123
330
2
100
AcDbSymbolTableRecord
100
AcDbLayerTableRecord
  2
DV3_0
 70
     0
 62
     7
  6
Continuous
370
    -3
390
F
  0
LAYER
  5
1AA
330
2
100
AcDbSymbolTableRecord
100
AcDbLayerTableRecord
  2
DV4_0
 70
     0
 62
     7
  6
Continuous
370
    -3
390
F
  0
LAYER
  5
286
330
2
100
AcDbSymbolTableRecord
100
AcDbLayerTableRecord
  2
Predeterminado
 70
     0
 62
     7
  6
Continuous
370
    -3
390
F
  0
LAYER
  5
2A1
330
2
100
AcDbSymbolTableRecord
100
AcDbLayerTableRecord
  2
D
 70
     0
 62
     7
  6
Continuous
370
    -3
390
F
  0
ENDTAB
  0
TABLE
  2
STYLE
  5
3
330
0
100
AcDbSymbolTable
 70
     4
  0
STYLE
  5
11
330
3
100
AcDbSymbolTableRecord
100
AcDbTextStyleTableRecord
  2
Standard
 70
     0
 40
0.0
 41
1.0
 50
0.0
 71
     0
 42
2.0
  3
txt
  4

  0
STYLE
  5
264
330
3
100
AcDbSymbolTableRecord
100
AcDbTextStyleTableRecord
  2
SEACAD_Solid_Edge_ANSI
 70
     0
 40
0.0
 41
1.0
 50
0.0
 71
     0
 42
2.5
  3
seans.ttf
  4

1001
ACAD
1000
Solid Edge ANSI
1071
        0
  0
STYLE
  5
2E3
330
3
100
AcDbSymbolTableRecord
100
AcDbTextStyleTableRecord
  2
MtXpl_Arial
 70
     0
 40
0.2
 41
1.0
 50
0.0
 71
     0
 42
2.0
  3
arialbd.ttf
  4

1001
ACAD
1000
Arial
1071
 33554466
  0
STYLE
  5
2E4
330
3
100
AcDbSymbolTableRecord
100
AcDbTextStyleTableRecord
  2
MtXpl_Arial1
 70
     0
 40
0.2
 41
1.0
 50
0.0
 71
     0
 42
2.0
  3

  4

1001
ACAD
1000
Arial
1071
       34
  0
ENDTAB
  0
TABLE
  2
VIEW
  5
6
330
0
100
AcDbSymbolTable
 70
     0
  0
ENDTAB
  0
TABLE
  2
UCS
  5
7
330
0
100
AcDbSymbolTable
 70
     0
  0
ENDTAB
  0
TABLE
  2
APPID
  5
9
330
0
100
AcDbSymbolTable
 70
     2
  0
APPID
  5
12
330
9
100
AcDbSymbolTableRecord
100
AcDbRegAppTableRecord
  2
ACAD
 70
     0
  0
APPID
  5
2DA
330
9
100
AcDbSymbolTableRecord
100
AcDbRegAppTableRecord
  2
ACAD_MLEADERVER
 70
     0
  0
ENDTAB
  0
TABLE
  2
DIMSTYLE
  5
A
330
0
100
AcDbSymbolTable
 70
     1
100
AcDbDimStyleTable
  0
DIMSTYLE
105
27
330
A
100
AcDbSymbolTableRecord
100
AcDbDimStyleTableRecord
  2
ISO-25
 70
     0
 41
2.5
 42
0.625
 43
3.75
 44
1.25
 73
     0
 74
     0
 77
     1
 78
     8
140
2.5
141
2.5
143
0.03937007874016
147
0.625
171
     3
172
     1
178
     0
271
     2
272
     2
274
     3
278
    44
283
     0
284
     8
340
11
  0
ENDTAB
  0
TABLE
  2
BLOCK_RECORD
  5
1
330
0
100
AcDbSymbolTable
 70
    11
  0
BLOCK_RECORD
  5
1F
330
1
100
AcDbSymbolTableRecord
100
AcDbBlockTableRecord
  2
*Model_Space
340
22
  0
BLOCK_RECORD
  5
1B
330
1
100
AcDbSymbolTableRecord
100
AcDbBlockTableRecord
  2
*Paper_Space
340
1E
  0
BLOCK_RECORD
  5
6F
330
1
100
AcDbSymbolTableRecord
100
AcDbBlockTableRecord
  2
SE
340
0
102
{BLKREFS
331
70
102
}
  0
BLOCK_RECORD
  5
F8
330
1
100
AcDbSymbolTableRecord
100
AcDbBlockTableRecord
  2
SE1
340
0
102
{BLKREFS
331
F9
102
}
  0
BLOCK_RECORD
  5
121
330
1
100
AcDbSymbolTableRecord
100
AcDbBlockTableRecord
  2
SE2
340
0
102
{BLKREFS
331
122
102
}
  0
BLOCK_RECORD
  5
1A8
330
1
100
AcDbSymbolTableRecord
100
AcDbBlockTableRecord
  2
SE3
340
0
102
{BLKREFS
331
1A9
102
}
  0
BLOCK_RECORD
  5
25D
330
1
100
AcDbSymbolTableRecord
100
AcDbBlockTableRecord
  2
GDimGGroup
340
0
102
{BLKREFS
331
25E
102
}
  0
BLOCK_RECORD
  5
268
330
1
100
AcDbSymbolTableRecord
100
AcDbBlockTableRecord
  2
GDimGGroup1
340
0
102
{BLKREFS
331
269
102
}
  0
BLOCK_RECORD
  5
272
330
1
100
AcDbSymbolTableRecord
100
AcDbBlockTableRecord
  2
GDimGGroup2
340
0
102
{BLKREFS
331
273
102
}
  0
BLOCK_RECORD
  5
27C
330
1
100
AcDbSymbolTableRecord
100
AcDbBlockTableRecord
  2
GDimGGroup3
340
0
102
{BLKREFS
331
27D
102
}
  0
BLOCK_RECORD
  5
28D
330
1
100
AcDbSymbolTableRecord
100
AcDbBlockTableRecord
  2
SEANNOT_GROUP
340
0
102
{BLKREFS
331
28E
102
}
  0
BLOCK_RECORD
  5
297
330
1
100
AcDbSymbolTableRecord
100
AcDbBlockTableRecord
  2
SEANNOT_GROUP1
340
0
102
{BLKREFS
331
298
102
}
  0
BLOCK_RECORD
  5
29C
330
1
100
AcDbSymbolTableRecord
100
AcDbBlockTableRecord
  2
SEANNOT_GROUP2
340
0
102
{BLKREFS
331
29D
102
}
  0
ENDTAB
  0
ENDSEC
  0
SECTION
  2
BLOCKS
  0
BLOCK
  5
20
330
1F
100
AcDbEntity
  8
0
100
AcDbBlockBegin
  2
*Model_Space
 70
     0
 10
0.0
 20
0.0
 30
0.0
  3
*Model_Space
  1

  0
ENDBLK
  5
21
330
1F
100
AcDbEntity
  8
0
100
AcDbBlockEnd
  0
BLOCK
  5
1C
330
1B
100
AcDbEntity
 67
     1
  8
0
100
AcDbBlockBegin
  2
*Paper_Space
 70
     0
 10
0.0
 20
0.0
 30
0.0
  3
*Paper_Space
  1

  0
ENDBLK
  5
1D
330
1B
100
AcDbEntity
 67
     1
  8
0
100
AcDbBlockEnd
  0
BLOCK
  5
F6
330
6F
100
AcDbEntity
  8
0
100
AcDbBlockBegin
  2
SE
 70
     0
 10
0.0
 20
0.0
 30
0.0
  3
SE
  1

  0
LINE
  5
72
330
6F
100
AcDbEntity
  8
DV1_0
 62
     7
370
    35
100
AcDbLine
 10
75.69363421573519
 20
127.2461956075397
 30
0.0
 11
75.69363421573519
 21
108.7461956075397
 31
0.0
  0
LINE
  5
73
330
6F
100
AcDbEntity
  8
DV1_0
 62
     7
370
    35
100
AcDbLine
 10
75.19363421573519
 20
127.2461956075397
 30
0.0
 11
75.19363421573519
 21
108.7461956075397
 31
0.0
  0
LINE
  5
74
330
6F
100
AcDbEntity
  8
DV1_0
 62
     7
370
    35
100
AcDbLine
 10
75.69363421573519
 20
108.7461956075397
 30
0.0
 11
75.19363421573519
 21
108.7461956075397
 31
0.0
  0
LINE
  5
75
330
6F
100
AcDbEntity
  8
DV1_0
 62
     7
370
    35
100
AcDbLine
 10
24.94363421573519
 20
108.7461956075397
 30
0.0
 11
24.94363421573519
 21
131.4961956075397
 31
0.0
  0
LINE
  5
76
330
6F
100
AcDbEntity
  8
DV1_0
 62
     7
370
    35
100
AcDbLine
 10
24.44363421573518
 20
108.7461956075397
 30
0.0
 11
24.44363421573518
 21
131.4961956075397
 31
0.0
  0
LINE
  5
77
330
6F
100
AcDbEntity
  8
DV1_0
 62
     7
370
    35
100
AcDbLine
 10
24.94363421573519
 20
131.4961956075397
 30
0.0
 11
24.44363421573519
 21
131.4961956075397
 31
0.0
  0
LINE
  5
78
330
6F
100
AcDbEntity
  8
DV1_0
 62
     7
370
    35
100
AcDbLine
 10
24.94363421573519
 20
108.7461956075397
 30
0.0
 11
24.44363421573519
 21
108.7461956075397
 31
0.0
  0
LINE
  5
79
330
6F
100
AcDbEntity
  8
DV1_0
 62
     7
370
    35
100
AcDbLine
 10
26.44363421573519
 20
108.9961956075397
 30
0.0
 11
26.19363421573518
 21
108.9961956075397
 31
0.0
  0
LINE
  5
7A
330
6F
100
AcDbEntity
  8
DV1_0
 62
     7
370
    25
100
AcDbLine
 10
26.19363421573518
 20
108.9961956075397
 30
0.0
 11
26.19363421573518
 21
108.7461956075397
 31
0.0
  0
LINE
  5
7B
330
6F
100
AcDbEntity
  8
DV1_0
 62
     7
370
    35
100
AcDbLine
 10
26.19363421573518
 20
108.9961956075397
 30
0.0
 11
24.94363421573518
 21
108.9961956075397
 31
0.0
  0
LINE
  5
7C
330
6F
100
AcDbEntity
  8
DV1_0
 62
     7
370
    35
100
AcDbLine
 10
26.44363421573519
 20
108.9961956075397
 30
0.0
 11
26.44363421573519
 21
108.7461956075397
 31
0.0
  0
LINE
  5
7D
330
6F
100
AcDbEntity
  8
DV1_0
 62
     7
370
    35
100
AcDbLine
 10
26.44363421573519
 20
108.7461956075397
 30
0.0
 11
26.19363421573518
 21
108.7461956075397
 31
0.0
  0
LINE
  5
7E
330
6F
100
AcDbEntity
  8
DV1_0
 62
     7
370
    35
100
AcDbLine
 10
26.19363421573518
 20
108.7461956075397
 30
0.0
 11
24.94363421573518
 21
108.7461956075397
 31
0.0
  0
LINE
  5
7F
330
6F
100
AcDbEntity
  8
DV1_0
 62
     7
370
    35
100
AcDbLine
 10
124.9436342157352
 20
131.4961956075397
 30
0.0
 11
124.9436342157352
 21
108.7461956075397
 31
0.0
  0
LINE
  5
80
330
6F
100
AcDbEntity
  8
DV1_0
 62
     7
370
    35
100
AcDbLine
 10
125.4436342157352
 20
131.4961956075397
 30
0.0
 11
125.4436342157352
 21
108.7461956075397
 31
0.0
  0
LINE
  5
81
330
6F
100
AcDbEntity
  8
DV1_0
 62
     7
370
    35
100
AcDbLine
 10
124.9436342157352
 20
131.4961956075397
 30
0.0
 11
125.4436342157352
 21
131.4961956075397
 31
0.0
  0
LINE
  5
82
330
6F
100
AcDbEntity
  8
DV1_0
 62
     7
370
    35
100
AcDbLine
 10
124.9436342157352
 20
108.7461956075397
 30
0.0
 11
125.4436342157352
 21
108.7461956075397
 31
0.0
  0
LINE
  5
83
330
6F
100
AcDbEntity
  8
DV1_0
 62
     7
370
    35
100
AcDbLine
 10
124.9436342157352
 20
108.9961956075397
 30
0.0
 11
123.6936342157352
 21
108.9961956075397
 31
0.0
  0
LINE
  5
84
330
6F
100
AcDbEntity
  8
DV1_0
 62
     7
370
    25
100
AcDbLine
 10
123.6936342157352
 20
108.9961956075397
 30
0.0
 11
123.6936342157352
 21
108.7461956075397
 31
0.0
  0
LINE
  5
85
330
6F
100
AcDbEntity
  8
DV1_0
 62
     7
370
    35
100
AcDbLine
 10
123.6936342157352
 20
108.9961956075397
 30
0.0
 11
123.4436342157352
 21
108.9961956075397
 31
0.0
  0
LINE
  5
86
330
6F
100
AcDbEntity
  8
DV1_0
 62
     7
370
    35
100
AcDbLine
 10
123.4436342157352
 20
108.9961956075397
 30
0.0
 11
123.4436342157352
 21
108.7461956075397
 31
0.0
  0
LINE
  5
87
330
6F
100
AcDbEntity
  8
DV1_0
 62
     7
370
    35
100
AcDbLine
 10
124.9436342157352
 20
108.7461956075397
 30
0.0
 11
123.6936342157352
 21
108.7461956075397
 31
0.0
  0
LINE
  5
88
330
6F
100
AcDbEntity
  8
DV1_0
 62
     7
370
    35
100
AcDbLine
 10
123.6936342157352
 20
108.7461956075397
 30
0.0
 11
123.4436342157352
 21
108.7461956075397
 31
0.0
  0
LINE
  5
89
330
6F
100
AcDbEntity
  8
DV1_0
 62
     7
370
    35
100
AcDbLine
 10
76.69363421573519
 20
115.4961956075397
 30
0.0
 11
75.69363421573519
 21
115.4961956075397
 31
0.0
  0
LINE
  5
8A
330
6F
100
AcDbEntity
  8
DV1_0
 62
     7
370
    35
100
AcDbLine
 10
75.19363421573519
 20
115.4961956075397
 30
0.0
 11
74.19363421573519
 21
115.4961956075397
 31
0.0
  0
LINE
  5
8B
330
6F
100
AcDbEntity
  8
DV1_0
 62
     7
370
    35
100
AcDbLine
 10
76.69363421573519
 20
127.2461956075397
 30
0.0
 11
76.69363421573519
 21
115.4961956075397
 31
0.0
  0
LINE
  5
8C
330
6F
100
AcDbEntity
  8
DV1_0
 62
     7
370
    35
100
AcDbLine
 10
74.19363421573519
 20
127.2461956075397
 30
0.0
 11
74.19363421573519
 21
115.4961956075397
 31
0.0
  0
CIRCLE
  5
8D
330
6F
100
AcDbEntity
  8
DV1_0
 62
     7
370
    35
100
AcDbCircle
 10
76.19363421573519
 20
124.9211956075397
 30
0.0
 40
0.15
  0
CIRCLE
  5
8E
330
6F
100
AcDbEntity
  8
DV1_0
 62
     7
370
    35
100
AcDbCircle
 10
76.19363421573519
 20
122.0961956075397
 30
0.0
 40
0.15
  0
CIRCLE
  5
8F
330
6F
100
AcDbEntity
  8
DV1_0
 62
     7
370
    35
100
AcDbCircle
 10
74.69363421573519
 20
119.0961956075397
 30
0.0
 40
0.15
  0
CIRCLE
  5
90
330
6F
100
AcDbEntity
  8
DV1_0
 62
     7
370
    35
100
AcDbCircle
 10
74.69363421573519
 20
116.2711956075397
 30
0.0
 40
0.15
  0
LINE
  5
91
330
6F
100
AcDbEntity
  8
DV1_0
 62
     7
370
    35
100
AcDbLine
 10
27.44363421573515
 20
145.7455425695111
 30
0.0
 11
27.44363421573515
 21
145.3757051872282
 31
0.0
  0
LINE
  5
92
330
6F
100
AcDbEntity
  8
DV1_0
 62
     7
370
    25
100
AcDbLine
 10
24.99363421573516
 20
145.7455425695111
 30
0.0
 11
24.99363421573516
 21
145.3757051872282
 31
0.0
  0
ELLIPSE
  5
93
330
6F
100
AcDbEntity
  8
DV1_0
 62
     7
370
    35
100
AcDbEllipse
 10
24.99363421573517
 20
134.6261883737856
 30
0.0
 11
-0.4499999999999949
 21
-9.381384558082575E-13
 31
0.0
210
0.0
220
0.0
230
1.0
 40
0.2588190451025202
 41
0.0
 42
1.45945531245339
  0
LINE
  5
94
330
6F
100
AcDbEntity
  8
DV1_0
 62
     7
370
    35
100
AcDbLine
 10
24.94363421573517
 20
135.066180750459
 30
0.0
 11
24.54363421573516
 21
135.066180750459
 31
0.0
  0
LINE
  5
95
330
6F
100
AcDbEntity
  8
DV1_0
 62
     7
370
    35
100
AcDbLine
 10
24.94363421573517
 20
150.9556605929141
 30
0.0
 11
24.54363421573516
 21
150.9556605929141
 31
0.0
  0
LINE
  5
96
330
6F
100
AcDbEntity
  8
DV1_0
 62
     7
370
    35
100
AcDbLine
 10
24.54363421573516
 20
150.9556605929141
 30
0.0
 11
24.54363421573516
 21
135.066180750459
 31
0.0
  0
LINE
  5
97
330
6F
100
AcDbEntity
  8
DV1_0
 62
     7
370
    35
100
AcDbLine
 10
24.54363421573516
 20
134.6261883737847
 30
0.0
 11
24.54363421573516
 21
135.066180750459
 31
0.0
  0
LINE
  5
98
330
6F
100
AcDbEntity
  8
DV1_0
 62
     7
370
    35
100
AcDbLine
 10
24.94363421573517
 20
150.9556605929141
 30
0.0
 11
24.94363421573517
 21
140.9961956075397
 31
0.0
  0
LINE
  5
99
330
6F
100
AcDbEntity
  8
DV1_0
 62
     7
370
    35
100
AcDbLine
 10
24.94363421573519
 20
129.7461956075397
 30
0.0
 11
124.9436342157352
 21
129.7461956075397
 31
0.0
  0
LINE
  5
9A
330
6F
100
AcDbEntity
  8
DV1_0
 62
     7
370
    35
100
AcDbLine
 10
24.94363421573519
 20
131.4961956075397
 30
0.0
 11
124.9436342157352
 21
131.4961956075397
 31
0.0
  0
LINE
  5
9B
330
6F
100
AcDbEntity
  8
DV1_0
 62
     7
370
    35
100
AcDbLine
 10
124.9436342157352
 20
112.9961956075397
 30
0.0
 11
75.69363421573519
 21
112.9961956075397
 31
0.0
  0
LINE
  5
9C
330
6F
100
AcDbEntity
  8
DV1_0
 62
     7
370
    35
100
AcDbLine
 10
75.19363421573519
 20
112.9961956075397
 30
0.0
 11
25.94363421573519
 21
112.9961956075397
 31
0.0
  0
LINE
  5
9D
330
6F
100
AcDbEntity
  8
DV1_0
 62
     7
370
    35
100
AcDbLine
 10
124.9436342157352
 20
115.4961956075397
 30
0.0
 11
75.69363421573519
 21
115.4961956075397
 31
0.0
  0
LINE
  5
9E
330
6F
100
AcDbEntity
  8
DV1_0
 62
     7
370
    35
100
AcDbLine
 10
75.19363421573519
 20
115.4961956075397
 30
0.0
 11
25.94363421573519
 21
115.4961956075397
 31
0.0
  0
LINE
  5
9F
330
6F
100
AcDbEntity
  8
DV1_0
 62
     7
370
    35
100
AcDbLine
 10
25.94363421573519
 20
115.4961956075397
 30
0.0
 11
25.94363421573519
 21
112.9961956075397
 31
0.0
  0
CIRCLE
  5
A0
330
6F
100
AcDbEntity
  8
DV1_0
 62
     7
370
    35
100
AcDbCircle
 10
123.1936342157352
 20
113.7461956075397
 30
0.0
 40
0.15
  0
CIRCLE
  5
A1
330
6F
100
AcDbEntity
  8
DV1_0
 62
     7
370
    35
100
AcDbCircle
 10
76.19363421573519
 20
113.7461956075397
 30
0.0
 40
0.15
  0
CIRCLE
  5
A2
330
6F
100
AcDbEntity
  8
DV1_0
 62
     7
370
    35
100
AcDbCircle
 10
26.69363421573518
 20
113.7461956075397
 30
0.0
 40
0.15
  0
LINE
  5
A3
330
6F
100
AcDbEntity
  8
DV1_0
 62
     7
370
    35
100
AcDbLine
 10
25.94363421573519
 20
127.2461956075397
 30
0.0
 11
25.94363421573519
 21
129.2961956075397
 31
0.0
  0
LINE
  5
A4
330
6F
100
AcDbEntity
  8
DV1_0
 62
     7
370
    35
100
AcDbLine
 10
124.9436342157352
 20
127.2461956075397
 30
0.0
 11
25.94363421573519
 21
127.2461956075397
 31
0.0
  0
LINE
  5
A5
330
6F
100
AcDbEntity
  8
DV1_0
 62
     7
370
    25
100
AcDbLine
 10
25.94363421573519
 20
129.2961956075397
 30
0.0
 11
124.9436342157352
 21
129.2961956075397
 31
0.0
  0
LINE
  5
A6
330
6F
100
AcDbEntity
  8
DV1_0
 62
     7
370
    35
100
AcDbLine
 10
25.94363421573519
 20
129.2961956075397
 30
0.0
 11
25.94363421573519
 21
129.3461956075397
 31
0.0
  0
LINE
  5
A7
330
6F
100
AcDbEntity
  8
DV1_0
 62
     7
370
    35
100
AcDbLine
 10
25.94363421573519
 20
129.3461956075397
 30
0.0
 11
124.9436342157352
 21
129.3461956075397
 31
0.0
  0
LINE
  5
A8
330
6F
100
AcDbEntity
  8
DV1_0
 62
     7
370
    35
100
AcDbLine
 10
25.94363421573519
 20
129.7461956075397
 30
0.0
 11
25.94363421573519
 21
129.3461956075397
 31
0.0
  0
LINE
  5
A9
330
6F
100
AcDbEntity
  8
DV1_0
 62
     7
370
    35
100
AcDbLine
 10
28.44363421573518
 20
115.4961956075397
 30
0.0
 11
25.94363421573518
 21
115.4961956075397
 31
0.0
  0
LINE
  5
AA
330
6F
100
AcDbEntity
  8
DV1_0
 62
     7
370
    35
100
AcDbLine
 10
28.44363421573518
 20
127.2461956075397
 30
0.0
 11
28.44363421573518
 21
115.4961956075397
 31
0.0
  0
LINE
  5
AB
330
6F
100
AcDbEntity
  8
DV1_0
 62
     7
370
    35
100
AcDbLine
 10
25.94363421573519
 20
127.2461956075397
 30
0.0
 11
25.94363421573519
 21
115.4961956075397
 31
0.0
  0
CIRCLE
  5
AC
330
6F
100
AcDbEntity
  8
DV1_0
 62
     7
370
    35
100
AcDbCircle
 10
26.69363421573518
 20
124.9211956075397
 30
0.0
 40
0.15
  0
CIRCLE
  5
AD
330
6F
100
AcDbEntity
  8
DV1_0
 62
     7
370
    35
100
AcDbCircle
 10
26.69363421573518
 20
122.0961956075397
 30
0.0
 40
0.15
  0
CIRCLE
  5
AE
330
6F
100
AcDbEntity
  8
DV1_0
 62
     7
370
    35
100
AcDbCircle
 10
27.69363421573518
 20
119.0961956075397
 30
0.0
 40
0.15
  0
CIRCLE
  5
AF
330
6F
100
AcDbEntity
  8
DV1_0
 62
     7
370
    35
100
AcDbCircle
 10
27.69363421573518
 20
116.2711956075397
 30
0.0
 40
0.15
  0
LINE
  5
B0
330
6F
100
AcDbEntity
  8
DV1_0
 62
     7
370
    35
100
AcDbLine
 10
124.9436342157352
 20
115.4961956075397
 30
0.0
 11
122.4436342157352
 21
115.4961956075397
 31
0.0
  0
LINE
  5
B1
330
6F
100
AcDbEntity
  8
DV1_0
 62
     7
370
    35
100
AcDbLine
 10
122.4436342157352
 20
127.2461956075397
 30
0.0
 11
122.4436342157352
 21
115.4961956075397
 31
0.0
  0
CIRCLE
  5
B2
330
6F
100
AcDbEntity
  8
DV1_0
 62
     7
370
    35
100
AcDbCircle
 10
123.1936342157352
 20
124.9211956075397
 30
0.0
 40
0.15
  0
CIRCLE
  5
B3
330
6F
100
AcDbEntity
  8
DV1_0
 62
     7
370
    35
100
AcDbCircle
 10
123.1936342157352
 20
122.0961956075397
 30
0.0
 40
0.15
  0
CIRCLE
  5
B4
330
6F
100
AcDbEntity
  8
DV1_0
 62
     7
370
    35
100
AcDbCircle
 10
124.1936342157352
 20
119.0961956075397
 30
0.0
 40
0.15
  0
CIRCLE
  5
B5
330
6F
100
AcDbEntity
  8
DV1_0
 62
     7
370
    35
100
AcDbCircle
 10
124.1936342157352
 20
116.2711956075397
 30
0.0
 40
0.15
  0
LINE
  5
B6
330
6F
100
AcDbEntity
  8
DV1_0
 62
     7
370
    35
100
AcDbLine
 10
98.31863421573519
 20
145.7455425695111
 30
0.0
 11
98.31863421573519
 21
145.3757051872264
 31
0.0
  0
LINE
  5
B7
330
6F
100
AcDbEntity
  8
DV1_0
 62
     7
370
    35
100
AcDbLine
 10
98.31863421573519
 20
140.1190246313619
 30
0.0
 11
98.31863421573519
 21
139.7491872490791
 31
0.0
  0
LINE
  5
B8
330
6F
100
AcDbEntity
  8
DV1_0
 62
     7
370
    35
100
AcDbLine
 10
100.8186342157352
 20
134.4925066932145
 30
0.0
 11
100.8186342157352
 21
133.9499774879681
 31
0.0
  0
LINE
  5
B9
330
6F
100
AcDbEntity
  8
DV1_0
 62
     7
370
    35
100
AcDbLine
 10
98.31863421573519
 20
134.4925066932145
 30
0.0
 11
98.31863421573519
 21
133.9499774879681
 31
0.0
  0
LINE
  5
BA
330
6F
100
AcDbEntity
  8
DV1_0
 62
     7
370
    35
100
AcDbLine
 10
100.8186342157352
 20
133.9499774879681
 30
0.0
 11
100.8186342157352
 21
131.4961956075397
 31
0.0
  0
LINE
  5
BB
330
6F
100
AcDbEntity
  8
DV1_0
 62
     7
370
    25
100
AcDbLine
 10
100.8186342157352
 20
133.9499774879681
 30
0.0
 11
98.31863421573519
 21
133.9499774879681
 31
0.0
  0
LINE
  5
BC
330
6F
100
AcDbEntity
  8
DV1_0
 62
     7
370
    35
100
AcDbLine
 10
98.31863421573519
 20
133.9499774879681
 30
0.0
 11
98.31863421573519
 21
131.4961956075397
 31
0.0
  0
LINE
  5
BD
330
6F
100
AcDbEntity
  8
DV1_0
 62
     7
370
    25
100
AcDbLine
 10
100.7686342157352
 20
145.7455425695111
 30
0.0
 11
100.7686342157352
 21
145.3757051872263
 31
0.0
  0
LINE
  5
BE
330
6F
100
AcDbEntity
  8
DV1_0
 62
     7
370
    25
100
AcDbLine
 10
100.7686342157352
 20
140.1190246313618
 30
0.0
 11
100.7686342157352
 21
139.749187249079
 31
0.0
  0
LINE
  5
BF
330
6F
100
AcDbEntity
  8
DV1_0
 62
     7
370
    35
100
AcDbLine
 10
101.2186342157352
 20
134.6261883737847
 30
0.0
 11
101.2186342157352
 21
135.066180750459
 31
0.0
  0
LINE
  5
C0
330
6F
100
AcDbEntity
  8
DV1_0
 62
     7
370
    35
100
AcDbLine
 10
101.2186342157352
 20
135.066180750459
 30
0.0
 11
100.8186342157352
 21
135.066180750459
 31
0.0
  0
LINE
  5
C1
330
6F
100
AcDbEntity
  8
DV1_0
 62
     7
370
    35
100
AcDbLine
 10
101.2186342157352
 20
150.9556605929141
 30
0.0
 11
100.8186342157352
 21
150.9556605929141
 31
0.0
  0
LINE
  5
C2
330
6F
100
AcDbEntity
  8
DV1_0
 62
     7
370
    35
100
AcDbLine
 10
100.8186342157352
 20
150.9556605929141
 30
0.0
 11
100.8186342157352
 21
135.0661807504589
 31
0.0
  0
LINE
  5
C3
330
6F
100
AcDbEntity
  8
DV1_0
 62
     7
370
    35
100
AcDbLine
 10
101.2186342157352
 20
150.9556605929141
 30
0.0
 11
101.2186342157352
 21
135.0661807504589
 31
0.0
  0
ELLIPSE
  5
C4
330
6F
100
AcDbEntity
  8
DV1_0
 62
     7
370
    35
100
AcDbEllipse
 10
100.7686342157352
 20
134.6261883737855
 30
0.0
 11
0.4500000000000032
 21
-9.409140133698202E-13
 31
0.0
210
0.0
220
0.0
230
1.0
 40
0.25881904510252
 41
4.823729994726251
 42
6.283185307179586
  0
LINE
  5
C5
330
6F
100
AcDbEntity
  8
DV1_0
 62
     7
370
    35
100
AcDbLine
 10
100.8186342157352
 20
145.7455425695111
 30
0.0
 11
24.94363421573516
 21
145.7455425695111
 31
0.0
  0
LINE
  5
C6
330
6F
100
AcDbEntity
  8
DV1_0
 62
     7
370
    35
100
AcDbLine
 10
24.94363421573514
 20
150.9315124472569
 30
0.0
 11
24.94363421573514
 21
146.2950684810694
 31
0.0
  0
LINE
  5
C7
330
6F
100
AcDbEntity
  8
DV1_0
 62
     7
370
    35
100
AcDbLine
 10
100.8186342157352
 20
150.9315124472569
 30
0.0
 11
100.8186342157352
 21
146.2950684810694
 31
0.0
  0
LINE
  5
C8
330
6F
100
AcDbEntity
  8
DV1_0
 62
     7
370
    35
100
AcDbLine
 10
24.94363421573514
 20
146.2950684810694
 30
0.0
 11
100.8186342157352
 21
146.2950684810694
 31
0.0
  0
LINE
  5
C9
330
6F
100
AcDbEntity
  8
DV1_0
 62
     7
370
    35
100
AcDbLine
 10
100.8186342157352
 20
150.9315124472569
 30
0.0
 11
24.94363421573516
 21
150.9315124472569
 31
0.0
  0
LINE
  5
CA
330
6F
100
AcDbEntity
  8
DV1_0
 62
     7
370
    35
100
AcDbLine
 10
24.94363421573514
 20
150.9556605929142
 30
0.0
 11
24.94363421573514
 21
151.0022231253756
 31
0.0
  0
LINE
  5
CB
330
6F
100
AcDbEntity
  8
DV1_0
 62
     7
370
    35
100
AcDbLine
 10
24.94363421573514
 20
151.0022231253756
 30
0.0
 11
100.8186342157352
 21
151.0022231253756
 31
0.0
  0
LINE
  5
CC
330
6F
100
AcDbEntity
  8
DV1_0
 62
     7
370
    35
100
AcDbLine
 10
100.8186342157352
 20
151.0022231253756
 30
0.0
 11
100.8186342157352
 21
150.9556605929142
 31
0.0
  0
LINE
  5
CD
330
6F
100
AcDbEntity
  8
DV1_0
 62
     7
370
    35
100
AcDbLine
 10
100.8186342157352
 20
146.1725939939303
 30
0.0
 11
24.94363421573516
 21
146.1725939939302
 31
0.0
  0
LINE
  5
CE
330
6F
100
AcDbEntity
  8
DV1_0
 62
     7
370
    35
100
AcDbLine
 10
100.8186342157352
 20
140.1190246313619
 30
0.0
 11
27.44363421573516
 21
140.1190246313637
 31
0.0
  0
LINE
  5
CF
330
6F
100
AcDbEntity
  8
DV1_0
 62
     7
370
    35
100
AcDbLine
 10
24.94363421573532
 20
145.3049945091095
 30
0.0
 11
24.94363421573532
 21
140.9961956075397
 31
0.0
  0
LINE
  5
D0
330
6F
100
AcDbEntity
  8
DV1_0
 62
     7
370
    35
100
AcDbLine
 10
100.8186342157353
 20
145.3049945091077
 30
0.0
 11
100.8186342157353
 21
140.6685505429202
 31
0.0
  0
LINE
  5
D1
330
6F
100
AcDbEntity
  8
DV1_0
 62
     7
370
    35
100
AcDbLine
 10
27.44363421573514
 20
140.668550542922
 30
0.0
 11
100.8186342157353
 21
140.6685505429202
 31
0.0
  0
LINE
  5
D2
330
6F
100
AcDbEntity
  8
DV1_0
 62
     7
370
    35
100
AcDbLine
 10
100.8186342157353
 20
145.3049945091077
 30
0.0
 11
24.94363421573532
 21
145.3049945091095
 31
0.0
  0
LINE
  5
D3
330
6F
100
AcDbEntity
  8
DV1_0
 62
     7
370
    35
100
AcDbLine
 10
24.94363421573531
 20
145.3757051872282
 30
0.0
 11
100.8186342157353
 21
145.3757051872263
 31
0.0
  0
LINE
  5
D4
330
6F
100
AcDbEntity
  8
DV1_0
 62
     7
370
    35
100
AcDbLine
 10
100.8186342157353
 20
140.546076055781
 30
0.0
 11
27.44363421573514
 21
140.5460760557828
 31
0.0
  0
LINE
  5
D5
330
6F
100
AcDbEntity
  8
DV1_0
 62
     7
370
    35
100
AcDbLine
 10
100.8186342157352
 20
134.4925066932145
 30
0.0
 11
27.44363421573516
 21
134.4925066932163
 31
0.0
  0
LINE
  5
D6
330
6F
100
AcDbEntity
  8
DV1_0
 62
     7
370
    35
100
AcDbLine
 10
100.8186342157353
 20
139.6784765709603
 30
0.0
 11
100.8186342157353
 21
135.0420326047728
 31
0.0
  0
LINE
  5
D7
330
6F
100
AcDbEntity
  8
DV1_0
 62
     7
370
    35
100
AcDbLine
 10
27.44363421573516
 20
135.0420326047746
 30
0.0
 11
100.8186342157353
 21
135.0420326047728
 31
0.0
  0
LINE
  5
D8
330
6F
100
AcDbEntity
  8
DV1_0
 62
     7
370
    35
100
AcDbLine
 10
100.8186342157353
 20
139.6784765709603
 30
0.0
 11
27.44363421573516
 21
139.6784765709621
 31
0.0
  0
LINE
  5
D9
330
6F
100
AcDbEntity
  8
DV1_0
 62
     7
370
    35
100
AcDbLine
 10
27.44363421573516
 20
139.7491872490808
 30
0.0
 11
100.8186342157353
 21
139.749187249079
 31
0.0
  0
LINE
  5
DA
330
6F
100
AcDbEntity
  8
DV1_0
 62
     7
370
    35
100
AcDbLine
 10
100.8186342157353
 20
134.9195581176336
 30
0.0
 11
100.8186342157352
 21
134.4925066932145
 31
0.0
  0
LINE
  5
DB
330
6F
100
AcDbEntity
  8
DV1_0
 62
     7
370
    35
100
AcDbLine
 10
100.8186342157353
 20
135.0420326047728
 30
0.0
 11
100.8186342157353
 21
134.9195581176336
 31
0.0
  0
LINE
  5
DC
330
6F
100
AcDbEntity
  8
DV1_0
 62
     7
370
    35
100
AcDbLine
 10
100.8186342157353
 20
134.9195581176336
 30
0.0
 11
27.44363421573514
 21
134.9195581176354
 31
0.0
  0
LINE
  5
DD
330
6F
100
AcDbEntity
  8
DV1_0
 62
     7
370
    35
100
AcDbLine
 10
24.94363421573519
 20
128.9211956075397
 30
0.0
 11
25.94363421573518
 21
128.9211956075397
 31
0.0
  0
LINE
  5
DE
330
6F
100
AcDbEntity
  8
DV1_0
 62
     7
370
    35
100
AcDbLine
 10
24.94363421573519
 20
123.9211956075397
 30
0.0
 11
25.94363421573519
 21
123.9211956075397
 31
0.0
  0
LINE
  5
DF
330
6F
100
AcDbEntity
  8
DV1_0
 62
     7
370
    35
100
AcDbLine
 10
28.44363421573518
 20
123.9211956075397
 30
0.0
 11
74.19363421573519
 21
123.9211956075397
 31
0.0
  0
LINE
  5
E0
330
6F
100
AcDbEntity
  8
DV1_0
 62
     7
370
    35
100
AcDbLine
 10
76.69363421573519
 20
123.9211956075397
 30
0.0
 11
122.4436342157352
 21
123.9211956075397
 31
0.0
  0
LINE
  5
E1
330
6F
100
AcDbEntity
  8
DV1_0
 62
     7
370
    35
100
AcDbLine
 10
24.94363421573514
 20
123.0961956075397
 30
0.0
 11
25.94363421573519
 21
123.0961956075397
 31
0.0
  0
LINE
  5
E2
330
6F
100
AcDbEntity
  8
DV1_0
 62
     7
370
    35
100
AcDbLine
 10
28.44363421573518
 20
123.0961956075397
 30
0.0
 11
74.19363421573519
 21
123.0961956075397
 31
0.0
  0
LINE
  5
E3
330
6F
100
AcDbEntity
  8
DV1_0
 62
     7
370
    35
100
AcDbLine
 10
76.69363421573519
 20
123.0961956075397
 30
0.0
 11
122.4436342157352
 21
123.0961956075397
 31
0.0
  0
LINE
  5
E4
330
6F
100
AcDbEntity
  8
DV1_0
 62
     7
370
    35
100
AcDbLine
 10
24.94363421573514
 20
118.0961956075397
 30
0.0
 11
25.94363421573519
 21
118.0961956075397
 31
0.0
  0
LINE
  5
E5
330
6F
100
AcDbEntity
  8
DV1_0
 62
     7
370
    35
100
AcDbLine
 10
28.44363421573518
 20
118.0961956075397
 30
0.0
 11
74.19363421573519
 21
118.0961956075397
 31
0.0
  0
LINE
  5
E6
330
6F
100
AcDbEntity
  8
DV1_0
 62
     7
370
    35
100
AcDbLine
 10
76.69363421573519
 20
118.0961956075397
 30
0.0
 11
122.4436342157352
 21
118.0961956075397
 31
0.0
  0
LINE
  5
E7
330
6F
100
AcDbEntity
  8
DV1_0
 62
     7
370
    35
100
AcDbLine
 10
24.94363421573514
 20
117.2711956075397
 30
0.0
 11
25.94363421573519
 21
117.2711956075397
 31
0.0
  0
LINE
  5
E8
330
6F
100
AcDbEntity
  8
DV1_0
 62
     7
370
    35
100
AcDbLine
 10
28.44363421573518
 20
117.2711956075397
 30
0.0
 11
74.19363421573519
 21
117.2711956075397
 31
0.0
  0
LINE
  5
E9
330
6F
100
AcDbEntity
  8
DV1_0
 62
     7
370
    35
100
AcDbLine
 10
76.69363421573519
 20
117.2711956075397
 30
0.0
 11
122.4436342157352
 21
117.2711956075397
 31
0.0
  0
LINE
  5
EA
330
6F
100
AcDbEntity
  8
DV1_0
 62
     7
370
    35
100
AcDbLine
 10
24.94363421573514
 20
112.2711956075397
 30
0.0
 11
75.19363421573519
 21
112.2711956075397
 31
0.0
  0
LINE
  5
EB
330
6F
100
AcDbEntity
  8
DV1_0
 62
     7
370
    35
100
AcDbLine
 10
75.69363421573519
 20
112.2711956075397
 30
0.0
 11
124.9436342157351
 21
112.2711956075397
 31
0.0
  0
LINE
  5
EC
330
6F
100
AcDbEntity
  8
DV1_0
 62
     7
370
    35
100
AcDbLine
 10
24.94363421573517
 20
131.4961956075397
 30
0.0
 11
24.94363421573517
 21
140.4961956075397
 31
0.0
  0
LINE
  5
ED
330
6F
100
AcDbEntity
  8
DV1_0
 62
     7
370
    35
100
AcDbLine
 10
27.44363421573515
 20
131.4961956075397
 30
0.0
 11
27.44363421573515
 21
140.4961956075397
 31
0.0
  0
LINE
  5
EE
330
6F
100
AcDbEntity
  8
DV1_0
 62
     7
370
    35
100
AcDbLine
 10
24.94363421573517
 20
140.4961956075397
 30
0.0
 11
24.94363421573517
 21
140.9961956075397
 31
0.0
  0
LINE
  5
EF
330
6F
100
AcDbEntity
  8
DV1_0
 62
     7
370
    25
100
AcDbLine
 10
24.94363421573517
 20
140.4961956075397
 30
0.0
 11
27.44363421573516
 21
140.4961956075397
 31
0.0
  0
LINE
  5
F0
330
6F
100
AcDbEntity
  8
DV1_0
 62
     7
370
    35
100
AcDbLine
 10
27.44363421573515
 20
140.4961956075397
 30
0.0
 11
27.44363421573515
 21
140.9961956075397
 31
0.0
  0
LINE
  5
F1
330
6F
100
AcDbEntity
  8
DV1_0
 62
     7
370
    35
100
AcDbLine
 10
24.94363421573517
 20
140.9961956075397
 30
0.0
 11
27.44363421573516
 21
140.9961956075397
 31
0.0
  0
LINE
  5
F2
330
6F
100
AcDbEntity
  8
DV1_0
 62
     7
370
    35
100
AcDbLine
 10
64.63113421573517
 20
145.7455425695111
 30
0.0
 11
64.63113421573517
 21
145.3757051872272
 31
0.0
  0
LINE
  5
F3
330
6F
100
AcDbEntity
  8
DV1_0
 62
     7
370
    35
100
AcDbLine
 10
64.63113421573517
 20
140.1190246313627
 30
0.0
 11
64.63113421573517
 21
139.7491872490799
 31
0.0
  0
LINE
  5
F4
330
6F
100
AcDbEntity
  8
DV1_0
 62
     7
370
    35
100
AcDbLine
 10
62.13113421573518
 20
145.7455425695111
 30
0.0
 11
62.13113421573518
 21
145.3757051872273
 31
0.0
  0
LINE
  5
F5
330
6F
100
AcDbEntity
  8
DV1_0
 62
     7
370
    35
100
AcDbLine
 10
62.13113421573518
 20
140.1190246313628
 30
0.0
 11
62.13113421573518
 21
139.7491872490799
 31
0.0
  0
ENDBLK
  5
F7
330
6F
100
AcDbEntity
  8
0
100
AcDbBlockEnd
  0
BLOCK
  5
11F
330
F8
100
AcDbEntity
  8
0
100
AcDbBlockBegin
  2
SE1
 70
     0
 10
0.0
 20
0.0
 30
0.0
  3
SE1
  1

  0
LINE
  5
FB
330
F8
100
AcDbEntity
  8
DV2_0
 62
     7
370
    35
100
AcDbLine
 10
217.9002474282483
 20
131.4961956075397
 30
0.0
 11
177.9002474282483
 21
131.4961956075397
 31
0.0
  0
LINE
  5
FC
330
F8
100
AcDbEntity
  8
DV2_0
 62
     7
370
    35
100
AcDbLine
 10
217.9002474282483
 20
108.7461956075397
 30
0.0
 11
217.9002474282483
 21
131.4961956075397
 31
0.0
  0
LINE
  5
FD
330
F8
100
AcDbEntity
  8
DV2_0
 62
     7
370
    35
100
AcDbLine
 10
177.9002474282483
 20
108.7461956075397
 30
0.0
 11
217.9002474282483
 21
108.7461956075397
 31
0.0
  0
LINE
  5
FE
330
F8
100
AcDbEntity
  8
DV2_0
 62
     7
370
    35
100
AcDbLine
 10
177.9002474282483
 20
131.4961956075397
 30
0.0
 11
177.9002474282483
 21
108.7461956075397
 31
0.0
  0
LINE
  5
FF
330
F8
100
AcDbEntity
  8
DV2_0
 62
     7
370
    35
100
AcDbLine
 10
194.7627474282483
 20
133.9499774879681
 30
0.0
 11
194.7627474282483
 21
131.4961956075397
 31
0.0
  0
ARC
  5
100
330
F8
100
AcDbEntity
  8
DV2_0
 62
     7
370
    35
100
AcDbCircle
 10
192.9127474282483
 20
133.9499774879681
 30
0.0
 40
1.850000000000001
100
AcDbArc
 50
0.0
 51
14.99999999999996
  0
ARC
  5
101
330
F8
100
AcDbEntity
  8
DV2_0
 62
     7
370
    35
100
AcDbCircle
 10
192.9127474282483
 20
133.9499774879681
 30
0.0
 40
2.249999999999999
100
AcDbArc
 50
0.0
 51
14.99999999999953
  0
LINE
  5
102
330
F8
100
AcDbEntity
  8
DV2_0
 62
     7
370
    35
100
AcDbLine
 10
195.1627474282483
 20
133.9499774879681
 30
0.0
 11
195.1627474282483
 21
131.4961956075397
 31
0.0
  0
LINE
  5
103
330
F8
100
AcDbEntity
  8
DV2_0
 62
     7
370
    35
100
AcDbLine
 10
195.0644220730139
 20
134.6131508289469
 30
0.0
 11
195.0860805373987
 21
134.5323203394487
 31
0.0
  0
LINE
  5
104
330
F8
100
AcDbEntity
  8
DV2_0
 62
     7
370
    35
100
AcDbLine
 10
194.678051742498
 20
134.5096232109068
 30
0.0
 11
194.6997102068831
 21
134.4287927214077
 31
0.0
  0
LINE
  5
105
330
F8
100
AcDbEntity
  8
DV2_0
 62
     7
370
    35
100
AcDbLine
 10
194.678051742498
 20
134.5096232109068
 30
0.0
 11
195.0644220730138
 21
134.6131508289469
 31
0.0
  0
LINE
  5
106
330
F8
100
AcDbEntity
  8
DV2_0
 62
     7
370
    35
100
AcDbLine
 10
190.4204525686573
 20
150.3991996459438
 30
0.0
 11
194.6780258605935
 21
134.5097198034894
 31
0.0
  0
LINE
  5
107
330
F8
100
AcDbEntity
  8
DV2_0
 62
     7
370
    35
100
AcDbLine
 10
194.6780258605935
 20
134.5097198034894
 30
0.0
 11
194.678051742498
 21
134.5096232109068
 31
0.0
  0
LINE
  5
108
330
F8
100
AcDbEntity
  8
DV2_0
 62
     7
370
    35
100
AcDbLine
 10
190.4204525686573
 20
150.3991996459438
 30
0.0
 11
190.8551191904874
 21
150.5156682162399
 31
0.0
  0
LINE
  5
109
330
F8
100
AcDbEntity
  8
DV2_0
 62
     7
370
    35
100
AcDbLine
 10
190.8551191904874
 20
150.5156682162399
 30
0.0
 11
192.4971930951788
 21
150.9556605929141
 31
0.0
  0
LINE
  5
10A
330
F8
100
AcDbEntity
  8
DV2_0
 62
     7
370
    35
100
AcDbLine
 10
195.1126924824238
 20
134.6261883737847
 30
0.0
 11
194.6780258605935
 21
134.5097198034894
 31
0.0
  0
LINE
  5
10B
330
F8
100
AcDbEntity
  8
DV2_0
 62
     7
370
    35
100
AcDbLine
 10
192.4971930951788
 20
150.9556605929141
 30
0.0
 11
196.7547663871152
 21
135.066180750459
 31
0.0
  0
LINE
  5
10C
330
F8
100
AcDbEntity
  8
DV2_0
 62
     7
370
    35
100
AcDbLine
 10
195.1126924824238
 20
134.6261883737847
 30
0.0
 11
196.7547663871152
 21
135.066180750459
 31
0.0
  0
LINE
  5
10D
330
F8
100
AcDbEntity
  8
DV2_0
 62
     7
370
    25
100
AcDbLine
 10
190.8551191904874
 20
150.5156682162399
 30
0.0
 11
195.1126924824238
 21
134.6261883737847
 31
0.0
  0
LINE
  5
10E
330
F8
100
AcDbEntity
  8
DV2_0
 62
     7
370
    35
100
AcDbLine
 10
190.8068228991729
 20
150.5027272639848
 30
0.0
 11
190.7874114707902
 21
150.5751717009564
 31
0.0
  0
LINE
  5
10F
330
F8
100
AcDbEntity
  8
DV2_0
 62
     7
370
    35
100
AcDbLine
 10
190.7874114707903
 20
150.5751717009564
 30
0.0
 11
192.3811890841672
 21
151.0022231253756
 31
0.0
  0
LINE
  5
110
330
F8
100
AcDbEntity
  8
DV2_0
 62
     7
370
    35
100
AcDbLine
 10
192.4730449495216
 20
150.9491901167866
 30
0.0
 11
192.3811890841672
 21
151.0022231253756
 31
0.0
  0
LINE
  5
111
330
F8
100
AcDbEntity
  8
DV2_0
 62
     7
370
    35
100
AcDbLine
 10
195.0967485716461
 20
134.4925066932163
 30
0.0
 11
195.0643961910083
 21
134.6132474215025
 31
0.0
  0
LINE
  5
112
330
F8
100
AcDbEntity
  8
DV2_0
 62
     7
370
    35
100
AcDbLine
 10
196.7547663870141
 20
135.0661807504319
 30
0.0
 11
196.7612368631417
 21
135.0420326047747
 31
0.0
  0
LINE
  5
113
330
F8
100
AcDbEntity
  8
DV2_0
 62
     7
370
    35
100
AcDbLine
 10
196.690526185023
 20
134.9195581176355
 30
0.0
 11
195.0967485716461
 21
134.4925066932163
 31
0.0
  0
LINE
  5
114
330
F8
100
AcDbEntity
  8
DV2_0
 62
     7
370
    35
100
AcDbLine
 10
196.690526185023
 20
134.9195581176355
 30
0.0
 11
196.7612368631417
 21
135.0420326047746
 31
0.0
  0
LINE
  5
115
330
F8
100
AcDbEntity
  8
DV2_0
 62
     7
370
    35
100
AcDbLine
 10
212.237747428253
 20
131.4961956075397
 30
0.0
 11
212.237747428253
 21
140.4961956075397
 31
0.0
  0
ARC
  5
116
330
F8
100
AcDbEntity
  8
DV2_0
 62
     7
370
    35
100
AcDbCircle
 10
212.137747428253
 20
140.4961956075397
 30
0.0
 40
0.1000000000000001
100
AcDbArc
 50
0.0
 51
90.0
  0
LINE
  5
117
330
F8
100
AcDbEntity
  8
DV2_0
 62
     7
370
    35
100
AcDbLine
 10
212.137747428253
 20
140.5961956075397
 30
0.0
 11
198.0744751479774
 21
140.5961956075397
 31
0.0
  0
ARC
  5
118
330
F8
100
AcDbEntity
  8
DV2_0
 62
     7
370
    35
100
AcDbCircle
 10
198.0744751479774
 20
139.4961956075397
 30
0.0
 40
1.100000000000001
100
AcDbArc
 50
90.0
 51
105.0000000000009
  0
LINE
  5
119
330
F8
100
AcDbEntity
  8
DV2_0
 62
     7
370
    35
100
AcDbLine
 10
197.7897741983647
 20
140.5587140164577
 30
0.0
 11
195.4509654474116
 21
139.932032100389
 31
0.0
  0
LINE
  5
11A
330
F8
100
AcDbEntity
  8
DV2_0
 62
     7
370
    35
100
AcDbLine
 10
212.637747428253
 20
131.4961956075397
 30
0.0
 11
212.637747428253
 21
140.4961956075397
 31
0.0
  0
ARC
  5
11B
330
F8
100
AcDbEntity
  8
DV2_0
 62
     7
370
    35
100
AcDbCircle
 10
212.137747428253
 20
140.4961956075397
 30
0.0
 40
0.5000000000000004
100
AcDbArc
 50
0.0
 51
90.0
  0
LINE
  5
11C
330
F8
100
AcDbEntity
  8
DV2_0
 62
     7
370
    35
100
AcDbLine
 10
212.137747428253
 20
140.9961956075397
 30
0.0
 11
198.0744751479774
 21
140.9961956075397
 31
0.0
  0
ARC
  5
11D
330
F8
100
AcDbEntity
  8
DV2_0
 62
     7
370
    35
100
AcDbCircle
 10
198.0744751479774
 20
139.4961956075397
 30
0.0
 40
1.500000000000001
100
AcDbArc
 50
90.0
 51
105.0
  0
LINE
  5
11E
330
F8
100
AcDbEntity
  8
DV2_0
 62
     7
370
    35
100
AcDbLine
 10
197.6862465803237
 20
140.9450843469733
 30
0.0
 11
195.3474378293706
 21
140.3184024309046
 31
0.0
  0
ENDBLK
  5
120
330
F8
100
AcDbEntity
  8
0
100
AcDbBlockEnd
  0
BLOCK
  5
1A6
330
121
100
AcDbEntity
  8
0
100
AcDbBlockBegin
  2
SE2
 70
     0
 10
0.0
 20
0.0
 30
0.0
  3
SE2
  1

  0
LINE
  5
124
330
121
100
AcDbEntity
  8
DV3_0
 62
     7
370
    35
100
AcDbLine
 10
76.69363421573519
 20
72.81602482094326
 30
0.0
 11
76.69363421573519
 21
71.99102482094325
 31
0.0
  0
LINE
  5
125
330
121
100
AcDbEntity
  8
DV3_0
 62
     7
370
    35
100
AcDbLine
 10
76.69363421573519
 20
66.99102482094325
 30
0.0
 11
76.69363421573519
 21
66.16602482094325
 31
0.0
  0
LINE
  5
126
330
121
100
AcDbEntity
  8
DV3_0
 62
     7
370
    35
100
AcDbLine
 10
76.69363421573519
 20
55.34102482094325
 30
0.0
 11
76.69363421573519
 21
54.51602482094325
 31
0.0
  0
LINE
  5
127
330
121
100
AcDbEntity
  8
DV3_0
 62
     7
370
    35
100
AcDbLine
 10
76.69363421573519
 20
49.51602482094326
 30
0.0
 11
76.69363421573519
 21
48.69102482094326
 31
0.0
  0
LINE
  5
128
330
121
100
AcDbEntity
  8
DV3_0
 62
     7
370
    35
100
AcDbLine
 10
76.69363421573519
 20
43.69102482094325
 30
0.0
 11
76.69363421573519
 21
42.86602482094325
 31
0.0
  0
LINE
  5
129
330
121
100
AcDbEntity
  8
DV3_0
 62
     7
370
    35
100
AcDbLine
 10
74.19363421573519
 20
72.81602482094326
 30
0.0
 11
74.19363421573519
 21
71.99102482094325
 31
0.0
  0
LINE
  5
12A
330
121
100
AcDbEntity
  8
DV3_0
 62
     7
370
    35
100
AcDbLine
 10
74.19363421573519
 20
66.99102482094325
 30
0.0
 11
74.19363421573519
 21
66.16602482094325
 31
0.0
  0
LINE
  5
12B
330
121
100
AcDbEntity
  8
DV3_0
 62
     7
370
    35
100
AcDbLine
 10
74.19363421573519
 20
55.34102482094325
 30
0.0
 11
74.19363421573519
 21
54.51602482094325
 31
0.0
  0
LINE
  5
12C
330
121
100
AcDbEntity
  8
DV3_0
 62
     7
370
    35
100
AcDbLine
 10
74.19363421573519
 20
49.51602482094326
 30
0.0
 11
74.19363421573519
 21
48.69102482094326
 31
0.0
  0
LINE
  5
12D
330
121
100
AcDbEntity
  8
DV3_0
 62
     7
370
    35
100
AcDbLine
 10
74.19363421573519
 20
43.69102482094325
 30
0.0
 11
74.19363421573519
 21
42.86602482094325
 31
0.0
  0
LINE
  5
12E
330
121
100
AcDbEntity
  8
DV3_0
 62
     7
370
    35
100
AcDbLine
 10
24.94363421573519
 20
37.81602482094325
 30
0.0
 11
24.94363421573519
 21
43.07852482093855
 31
0.0
  0
LINE
  5
12F
330
121
100
AcDbEntity
  8
DV3_0
 62
     7
370
    35
100
AcDbLine
 10
24.94363421573519
 20
65.29312822046516
 30
0.0
 11
24.94363421573519
 21
77.81602482094326
 31
0.0
  0
LINE
  5
130
330
121
100
AcDbEntity
  8
DV3_0
 62
     7
370
    35
100
AcDbLine
 10
24.44363421573518
 20
37.81602482094325
 30
0.0
 11
24.44363421573518
 21
77.81602482094326
 31
0.0
  0
LINE
  5
131
330
121
100
AcDbEntity
  8
DV3_0
 62
     7
370
    35
100
AcDbLine
 10
24.94363421573519
 20
77.81602482094326
 30
0.0
 11
24.44363421573519
 21
77.81602482094326
 31
0.0
  0
LINE
  5
132
330
121
100
AcDbEntity
  8
DV3_0
 62
     7
370
    35
100
AcDbLine
 10
24.94363421573519
 20
37.81602482094325
 30
0.0
 11
24.44363421573519
 21
37.81602482094325
 31
0.0
  0
LINE
  5
133
330
121
100
AcDbEntity
  8
DV3_0
 62
     7
370
    35
100
AcDbLine
 10
124.9436342157352
 20
77.81602482094324
 30
0.0
 11
124.9436342157352
 21
37.81602482094323
 31
0.0
  0
LINE
  5
134
330
121
100
AcDbEntity
  8
DV3_0
 62
     7
370
    35
100
AcDbLine
 10
125.4436342157352
 20
77.81602482094324
 30
0.0
 11
125.4436342157352
 21
37.81602482094323
 31
0.0
  0
LINE
  5
135
330
121
100
AcDbEntity
  8
DV3_0
 62
     7
370
    35
100
AcDbLine
 10
124.9436342157352
 20
37.81602482094325
 30
0.0
 11
125.4436342157352
 21
37.81602482094325
 31
0.0
  0
LINE
  5
136
330
121
100
AcDbEntity
  8
DV3_0
 62
     7
370
    35
100
AcDbLine
 10
125.4436342157352
 20
77.81602482094324
 30
0.0
 11
124.9436342157352
 21
77.81602482094324
 31
0.0
  0
LINE
  5
137
330
121
100
AcDbEntity
  8
DV3_0
 62
     7
370
    35
100
AcDbLine
 10
27.44363421573515
 20
65.29581968053425
 30
0.0
 11
24.99363421573516
 21
65.29581968053425
 31
0.0
  0
LINE
  5
138
330
121
100
AcDbEntity
  8
DV3_0
 62
     7
370
    35
100
AcDbLine
 10
27.44363421573515
 20
64.9288607784013
 30
0.0
 11
27.44363421573515
 21
65.29581968053425
 31
0.0
  0
ELLIPSE
  5
139
330
121
100
AcDbEntity
  8
DV3_0
 62
     7
370
    35
100
AcDbEllipse
 10
24.99363421573515
 20
64.86115305870416
 30
0.0
 11
0.4499999999999949
 21
-2.775557561562891E-15
 31
0.0
210
0.0
220
0.0
230
1.0
 40
0.9659258262890814
 41
1.570796326794903
 42
3.141592653589799
  0
LINE
  5
13A
330
121
100
AcDbEntity
  8
DV3_0
 62
     7
370
    35
100
AcDbLine
 10
24.54363421573516
 20
64.86115305870416
 30
0.0
 11
24.54363421573516
 21
63.21907915401275
 31
0.0
  0
LINE
  5
13B
330
121
100
AcDbEntity
  8
DV3_0
 62
     7
370
    35
100
AcDbLine
 10
24.94363421573517
 20
58.96150586207632
 30
0.0
 11
24.54363421573516
 21
58.96150586207632
 31
0.0
  0
LINE
  5
13C
330
121
100
AcDbEntity
  8
DV3_0
 62
     7
370
    35
100
AcDbLine
 10
24.94363421573517
 20
63.21907915401275
 30
0.0
 11
24.54363421573516
 21
63.21907915401275
 31
0.0
  0
LINE
  5
13D
330
121
100
AcDbEntity
  8
DV3_0
 62
     7
370
    35
100
AcDbLine
 10
24.54363421573516
 20
63.21907915401275
 30
0.0
 11
24.54363421573516
 21
58.96150586207633
 31
0.0
  0
LINE
  5
13E
330
121
100
AcDbEntity
  8
DV3_0
 62
     7
370
    35
100
AcDbLine
 10
24.94363421573517
 20
63.24322729966996
 30
0.0
 11
24.94363421573517
 21
63.21907915401275
 31
0.0
  0
LINE
  5
13F
330
121
100
AcDbEntity
  8
DV3_0
 62
     7
370
    35
100
AcDbLine
 10
24.94363421573517
 20
63.21907915401275
 30
0.0
 11
24.94363421573517
 21
60.36883441982096
 31
0.0
  0
LINE
  5
140
330
121
100
AcDbEntity
  8
DV3_0
 62
     7
370
    35
100
AcDbLine
 10
24.94363421573519
 20
37.86602482094325
 30
0.0
 11
24.94363421573519
 21
42.86602482094325
 31
0.0
  0
LINE
  5
141
330
121
100
AcDbEntity
  8
DV3_0
 62
     7
370
    35
100
AcDbLine
 10
124.9436342157352
 20
37.86602482094325
 30
0.0
 11
124.9436342157352
 21
42.86602482094325
 31
0.0
  0
LINE
  5
142
330
121
100
AcDbEntity
  8
DV3_0
 62
     7
370
    35
100
AcDbLine
 10
24.94363421573519
 20
42.86602482094325
 30
0.0
 11
124.9436342157352
 21
42.86602482094325
 31
0.0
  0
LINE
  5
143
330
121
100
AcDbEntity
  8
DV3_0
 62
     7
370
    35
100
AcDbLine
 10
24.94363421573519
 20
37.86602482094325
 30
0.0
 11
124.9436342157352
 21
37.86602482094325
 31
0.0
  0
LINE
  5
144
330
121
100
AcDbEntity
  8
DV3_0
 62
     7
370
    35
100
AcDbLine
 10
124.9436342157352
 20
43.69102482094325
 30
0.0
 11
124.9436342157352
 21
48.69102482094325
 31
0.0
  0
LINE
  5
145
330
121
100
AcDbEntity
  8
DV3_0
 62
     7
370
    35
100
AcDbLine
 10
27.44363421573516
 20
48.69102482094325
 30
0.0
 11
124.9436342157352
 21
48.69102482094325
 31
0.0
  0
LINE
  5
146
330
121
100
AcDbEntity
  8
DV3_0
 62
     7
370
    35
100
AcDbLine
 10
27.44363421573516
 20
43.69102482094326
 30
0.0
 11
124.9436342157352
 21
43.69102482094326
 31
0.0
  0
LINE
  5
147
330
121
100
AcDbEntity
  8
DV3_0
 62
     7
370
    35
100
AcDbLine
 10
124.9436342157352
 20
49.51602482094325
 30
0.0
 11
124.9436342157352
 21
54.51602482094325
 31
0.0
  0
LINE
  5
148
330
121
100
AcDbEntity
  8
DV3_0
 62
     7
370
    35
100
AcDbLine
 10
27.44363421573516
 20
54.51602482094325
 30
0.0
 11
124.9436342157352
 21
54.51602482094325
 31
0.0
  0
LINE
  5
149
330
121
100
AcDbEntity
  8
DV3_0
 62
     7
370
    35
100
AcDbLine
 10
27.44363421573516
 20
49.51602482094325
 30
0.0
 11
124.9436342157352
 21
49.51602482094325
 31
0.0
  0
LINE
  5
14A
330
121
100
AcDbEntity
  8
DV3_0
 62
     7
370
    35
100
AcDbLine
 10
124.9436342157352
 20
55.34102482094325
 30
0.0
 11
124.9436342157352
 21
60.34102482094325
 31
0.0
  0
LINE
  5
14B
330
121
100
AcDbEntity
  8
DV3_0
 62
     7
370
    35
100
AcDbLine
 10
101.2186342157352
 20
60.34102482094325
 30
0.0
 11
124.9436342157352
 21
60.34102482094325
 31
0.0
  0
LINE
  5
14C
330
121
100
AcDbEntity
  8
DV3_0
 62
     7
370
    35
100
AcDbLine
 10
27.44363421573516
 20
55.34102482094325
 30
0.0
 11
124.9436342157352
 21
55.34102482094325
 31
0.0
  0
LINE
  5
14D
330
121
100
AcDbEntity
  8
DV3_0
 62
     7
370
    35
100
AcDbLine
 10
24.9436342157352
 20
65.29312822046516
 30
0.0
 11
24.9436342157352
 21
66.16602482094325
 31
0.0
  0
LINE
  5
14E
330
121
100
AcDbEntity
  8
DV3_0
 62
     7
370
    35
100
AcDbLine
 10
124.9436342157352
 20
61.16602482094325
 30
0.0
 11
124.9436342157352
 21
66.16602482094325
 31
0.0
  0
LINE
  5
14F
330
121
100
AcDbEntity
  8
DV3_0
 62
     7
370
    35
100
AcDbLine
 10
24.9436342157352
 20
66.16602482094325
 30
0.0
 11
124.9436342157352
 21
66.16602482094325
 31
0.0
  0
LINE
  5
150
330
121
100
AcDbEntity
  8
DV3_0
 62
     7
370
    35
100
AcDbLine
 10
101.2186342157352
 20
61.16602482094325
 30
0.0
 11
124.9436342157352
 21
61.16602482094325
 31
0.0
  0
LINE
  5
151
330
121
100
AcDbEntity
  8
DV3_0
 62
     7
370
    35
100
AcDbLine
 10
24.9436342157352
 20
66.99102482094325
 30
0.0
 11
24.9436342157352
 21
71.99102482094325
 31
0.0
  0
LINE
  5
152
330
121
100
AcDbEntity
  8
DV3_0
 62
     7
370
    35
100
AcDbLine
 10
124.9436342157352
 20
66.99102482094324
 30
0.0
 11
124.9436342157352
 21
71.99102482094324
 31
0.0
  0
LINE
  5
153
330
121
100
AcDbEntity
  8
DV3_0
 62
     7
370
    35
100
AcDbLine
 10
24.9436342157352
 20
71.99102482094324
 30
0.0
 11
124.9436342157352
 21
71.99102482094324
 31
0.0
  0
LINE
  5
154
330
121
100
AcDbEntity
  8
DV3_0
 62
     7
370
    35
100
AcDbLine
 10
24.9436342157352
 20
66.99102482094325
 30
0.0
 11
124.9436342157352
 21
66.99102482094325
 31
0.0
  0
LINE
  5
155
330
121
100
AcDbEntity
  8
DV3_0
 62
     7
370
    35
100
AcDbLine
 10
24.94363421573519
 20
72.81602482094326
 30
0.0
 11
24.94363421573519
 21
77.81602482094326
 31
0.0
  0
LINE
  5
156
330
121
100
AcDbEntity
  8
DV3_0
 62
     7
370
    35
100
AcDbLine
 10
124.9436342157352
 20
72.81602482094326
 30
0.0
 11
124.9436342157352
 21
77.81602482094326
 31
0.0
  0
LINE
  5
157
330
121
100
AcDbEntity
  8
DV3_0
 62
     7
370
    35
100
AcDbLine
 10
24.94363421573519
 20
77.81602482094326
 30
0.0
 11
124.9436342157352
 21
77.81602482094326
 31
0.0
  0
LINE
  5
158
330
121
100
AcDbEntity
  8
DV3_0
 62
     7
370
    35
100
AcDbLine
 10
24.94363421573519
 20
72.81602482094326
 30
0.0
 11
124.9436342157352
 21
72.81602482094326
 31
0.0
  0
LINE
  5
159
330
121
100
AcDbEntity
  8
DV3_0
 62
     7
370
    35
100
AcDbLine
 10
122.4436342157352
 20
42.86602482094325
 30
0.0
 11
122.4436342157352
 21
43.69102482094325
 31
0.0
  0
LINE
  5
15A
330
121
100
AcDbEntity
  8
DV3_0
 62
     7
370
    35
100
AcDbLine
 10
122.4436342157352
 20
48.69102482094325
 30
0.0
 11
122.4436342157352
 21
49.51602482094324
 31
0.0
  0
LINE
  5
15B
330
121
100
AcDbEntity
  8
DV3_0
 62
     7
370
    35
100
AcDbLine
 10
122.4436342157352
 20
54.51602482094325
 30
0.0
 11
122.4436342157352
 21
55.34102482094325
 31
0.0
  0
LINE
  5
15C
330
121
100
AcDbEntity
  8
DV3_0
 62
     7
370
    35
100
AcDbLine
 10
122.4436342157352
 20
60.34102482094325
 30
0.0
 11
122.4436342157352
 21
61.16602482094325
 31
0.0
  0
LINE
  5
15D
330
121
100
AcDbEntity
  8
DV3_0
 62
     7
370
    35
100
AcDbLine
 10
122.4436342157352
 20
66.16602482094325
 30
0.0
 11
122.4436342157352
 21
66.99102482094325
 31
0.0
  0
LINE
  5
15E
330
121
100
AcDbEntity
  8
DV3_0
 62
     7
370
    35
100
AcDbLine
 10
122.4436342157352
 20
71.99102482094325
 30
0.0
 11
122.4436342157352
 21
72.81602482094326
 31
0.0
  0
LINE
  5
15F
330
121
100
AcDbEntity
  8
DV3_0
 62
     7
370
    35
100
AcDbLine
 10
28.44363421573518
 20
42.86602482094325
 30
0.0
 11
28.44363421573518
 21
43.69102482094324
 31
0.0
  0
LINE
  5
160
330
121
100
AcDbEntity
  8
DV3_0
 62
     7
370
    35
100
AcDbLine
 10
28.44363421573518
 20
48.69102482094325
 30
0.0
 11
28.44363421573518
 21
49.51602482094324
 31
0.0
  0
LINE
  5
161
330
121
100
AcDbEntity
  8
DV3_0
 62
     7
370
    35
100
AcDbLine
 10
28.44363421573518
 20
54.51602482094325
 30
0.0
 11
28.44363421573518
 21
55.34102482094325
 31
0.0
  0
LINE
  5
162
330
121
100
AcDbEntity
  8
DV3_0
 62
     7
370
    35
100
AcDbLine
 10
28.44363421573518
 20
66.16602482094325
 30
0.0
 11
28.44363421573518
 21
66.99102482094325
 31
0.0
  0
LINE
  5
163
330
121
100
AcDbEntity
  8
DV3_0
 62
     7
370
    35
100
AcDbLine
 10
28.44363421573518
 20
71.99102482094324
 30
0.0
 11
28.44363421573518
 21
72.81602482094326
 31
0.0
  0
LINE
  5
164
330
121
100
AcDbEntity
  8
DV3_0
 62
     7
370
    35
100
AcDbLine
 10
25.94363421573517
 20
42.86602482094325
 30
0.0
 11
25.94363421573517
 21
43.07852482093855
 31
0.0
  0
LINE
  5
165
330
121
100
AcDbEntity
  8
DV3_0
 62
     7
370
    35
100
AcDbLine
 10
25.94363421573517
 20
66.16602482094325
 30
0.0
 11
25.94363421573517
 21
66.99102482094325
 31
0.0
  0
LINE
  5
166
330
121
100
AcDbEntity
  8
DV3_0
 62
     7
370
    35
100
AcDbLine
 10
25.94363421573517
 20
71.99102482094324
 30
0.0
 11
25.94363421573517
 21
72.81602482094326
 31
0.0
  0
LINE
  5
167
330
121
100
AcDbEntity
  8
DV3_0
 62
     7
370
    35
100
AcDbLine
 10
52.56863421573519
 20
42.86602482094325
 30
0.0
 11
52.56863421573519
 21
43.69102482094325
 31
0.0
  0
LINE
  5
168
330
121
100
AcDbEntity
  8
DV3_0
 62
     7
370
    35
100
AcDbLine
 10
52.56863421573519
 20
48.69102482094325
 30
0.0
 11
52.56863421573519
 21
49.51602482094325
 31
0.0
  0
LINE
  5
169
330
121
100
AcDbEntity
  8
DV3_0
 62
     7
370
    35
100
AcDbLine
 10
52.56863421573519
 20
54.51602482094325
 30
0.0
 11
52.56863421573519
 21
55.34102482094325
 31
0.0
  0
LINE
  5
16A
330
121
100
AcDbEntity
  8
DV3_0
 62
     7
370
    35
100
AcDbLine
 10
52.56863421573519
 20
66.16602482094325
 30
0.0
 11
52.56863421573519
 21
66.99102482094325
 31
0.0
  0
LINE
  5
16B
330
121
100
AcDbEntity
  8
DV3_0
 62
     7
370
    35
100
AcDbLine
 10
52.56863421573519
 20
71.99102482094325
 30
0.0
 11
52.56863421573519
 21
72.81602482094326
 31
0.0
  0
LINE
  5
16C
330
121
100
AcDbEntity
  8
DV3_0
 62
     7
370
    35
100
AcDbLine
 10
50.06863421573518
 20
42.86602482094325
 30
0.0
 11
50.06863421573518
 21
43.69102482094325
 31
0.0
  0
LINE
  5
16D
330
121
100
AcDbEntity
  8
DV3_0
 62
     7
370
    35
100
AcDbLine
 10
50.06863421573518
 20
48.69102482094325
 30
0.0
 11
50.06863421573518
 21
49.51602482094325
 31
0.0
  0
LINE
  5
16E
330
121
100
AcDbEntity
  8
DV3_0
 62
     7
370
    35
100
AcDbLine
 10
50.06863421573518
 20
54.51602482094325
 30
0.0
 11
50.06863421573518
 21
55.34102482094325
 31
0.0
  0
LINE
  5
16F
330
121
100
AcDbEntity
  8
DV3_0
 62
     7
370
    35
100
AcDbLine
 10
50.06863421573518
 20
66.16602482094325
 30
0.0
 11
50.06863421573518
 21
66.99102482094325
 31
0.0
  0
LINE
  5
170
330
121
100
AcDbEntity
  8
DV3_0
 62
     7
370
    35
100
AcDbLine
 10
50.06863421573518
 20
71.99102482094325
 30
0.0
 11
50.06863421573518
 21
72.81602482094326
 31
0.0
  0
LINE
  5
171
330
121
100
AcDbEntity
  8
DV3_0
 62
     7
370
    35
100
AcDbLine
 10
100.8186342157352
 20
42.86602482094324
 30
0.0
 11
100.8186342157352
 21
43.69102482094324
 31
0.0
  0
LINE
  5
172
330
121
100
AcDbEntity
  8
DV3_0
 62
     7
370
    35
100
AcDbLine
 10
100.8186342157352
 20
48.69102482094324
 30
0.0
 11
100.8186342157352
 21
49.51602482094324
 31
0.0
  0
LINE
  5
173
330
121
100
AcDbEntity
  8
DV3_0
 62
     7
370
    35
100
AcDbLine
 10
100.8186342157352
 20
54.51602482094324
 30
0.0
 11
100.8186342157352
 21
55.34102482094325
 31
0.0
  0
LINE
  5
174
330
121
100
AcDbEntity
  8
DV3_0
 62
     7
370
    35
100
AcDbLine
 10
100.8186342157352
 20
66.16602482094325
 30
0.0
 11
100.8186342157352
 21
66.99102482094325
 31
0.0
  0
LINE
  5
175
330
121
100
AcDbEntity
  8
DV3_0
 62
     7
370
    35
100
AcDbLine
 10
100.8186342157352
 20
71.99102482094324
 30
0.0
 11
100.8186342157352
 21
72.81602482094326
 31
0.0
  0
LINE
  5
176
330
121
100
AcDbEntity
  8
DV3_0
 62
     7
370
    35
100
AcDbLine
 10
98.3186342157352
 20
42.86602482094324
 30
0.0
 11
98.3186342157352
 21
43.69102482094324
 31
0.0
  0
LINE
  5
177
330
121
100
AcDbEntity
  8
DV3_0
 62
     7
370
    35
100
AcDbLine
 10
98.3186342157352
 20
48.69102482094324
 30
0.0
 11
98.3186342157352
 21
49.51602482094324
 31
0.0
  0
LINE
  5
178
330
121
100
AcDbEntity
  8
DV3_0
 62
     7
370
    35
100
AcDbLine
 10
98.3186342157352
 20
54.51602482094324
 30
0.0
 11
98.3186342157352
 21
55.34102482094325
 31
0.0
  0
LINE
  5
179
330
121
100
AcDbEntity
  8
DV3_0
 62
     7
370
    35
100
AcDbLine
 10
98.3186342157352
 20
66.16602482094325
 30
0.0
 11
98.3186342157352
 21
66.99102482094325
 31
0.0
  0
LINE
  5
17A
330
121
100
AcDbEntity
  8
DV3_0
 62
     7
370
    35
100
AcDbLine
 10
98.3186342157352
 20
71.99102482094324
 30
0.0
 11
98.3186342157352
 21
72.81602482094326
 31
0.0
  0
LINE
  5
17B
330
121
100
AcDbEntity
  8
DV3_0
 62
     7
370
    35
100
AcDbLine
 10
98.31863421573519
 20
64.92886077840126
 30
0.0
 11
98.31863421573519
 21
65.29581968053425
 31
0.0
  0
LINE
  5
17C
330
121
100
AcDbEntity
  8
DV3_0
 62
     7
370
    35
100
AcDbLine
 10
100.7686342157352
 20
65.29581968053425
 30
0.0
 11
98.31863421573517
 21
65.29581968053425
 31
0.0
  0
ELLIPSE
  5
17D
330
121
100
AcDbEntity
  8
DV3_0
 62
     7
370
    35
100
AcDbEllipse
 10
100.7686342157352
 20
64.86115305870416
 30
0.0
 11
0.4500000000000004
 21
-1.387778780781446E-14
 31
0.0
210
0.0
220
0.0
230
1.0
 40
0.9659258262890754
 41
0.0000000000000319
 42
1.570796326794926
  0
LINE
  5
17E
330
121
100
AcDbEntity
  8
DV3_0
 62
     7
370
    35
100
AcDbLine
 10
100.8186342157352
 20
63.2432272996699
 30
0.0
 11
100.8186342157352
 21
63.21907915401275
 31
0.0
  0
LINE
  5
17F
330
121
100
AcDbEntity
  8
DV3_0
 62
     7
370
    35
100
AcDbLine
 10
101.2186342157352
 20
58.96150586207632
 30
0.0
 11
100.8186342157352
 21
58.96150586207632
 31
0.0
  0
LINE
  5
180
330
121
100
AcDbEntity
  8
DV3_0
 62
     7
370
    35
100
AcDbLine
 10
101.2186342157352
 20
63.21907915401275
 30
0.0
 11
100.8186342157352
 21
63.21907915401275
 31
0.0
  0
LINE
  5
181
330
121
100
AcDbEntity
  8
DV3_0
 62
     7
370
    35
100
AcDbLine
 10
100.8186342157352
 20
63.21907915401275
 30
0.0
 11
100.8186342157352
 21
58.96150586207632
 31
0.0
  0
LINE
  5
182
330
121
100
AcDbEntity
  8
DV3_0
 62
     7
370
    35
100
AcDbLine
 10
101.2186342157352
 20
64.86115305870416
 30
0.0
 11
101.2186342157352
 21
63.21907915401275
 31
0.0
  0
LINE
  5
183
330
121
100
AcDbEntity
  8
DV3_0
 62
     7
370
    35
100
AcDbLine
 10
101.2186342157352
 20
63.21907915401275
 30
0.0
 11
101.2186342157352
 21
58.96150586207632
 31
0.0
  0
LINE
  5
184
330
121
100
AcDbEntity
  8
DV3_0
 62
     7
370
    35
100
AcDbLine
 10
100.8186342157352
 20
64.92886077840124
 30
0.0
 11
100.8186342157352
 21
63.33508316502428
 31
0.0
  0
LINE
  5
185
330
121
100
AcDbEntity
  8
DV3_0
 62
     7
370
    35
100
AcDbLine
 10
24.94363421573514
 20
64.9288607784013
 30
0.0
 11
24.94363421573514
 21
63.33508316502434
 31
0.0
  0
LINE
  5
186
330
121
100
AcDbEntity
  8
DV3_0
 62
     7
370
    35
100
AcDbLine
 10
100.8186342157352
 20
64.92886077840124
 30
0.0
 11
24.94363421573516
 21
64.9288607784013
 31
0.0
  0
LINE
  5
187
330
121
100
AcDbEntity
  8
DV3_0
 62
     7
370
    35
100
AcDbLine
 10
24.94363421573514
 20
63.21260867788518
 30
0.0
 11
24.94363421573514
 21
61.97027726139309
 31
0.0
  0
LINE
  5
188
330
121
100
AcDbEntity
  8
DV3_0
 62
     7
370
    35
100
AcDbLine
 10
100.8186342157352
 20
63.21260867788513
 30
0.0
 11
100.8186342157352
 21
61.97027726139305
 31
0.0
  0
LINE
  5
189
330
121
100
AcDbEntity
  8
DV3_0
 62
     7
370
    35
100
AcDbLine
 10
24.94363421573514
 20
61.9702772613931
 30
0.0
 11
100.8186342157352
 21
61.97027726139305
 31
0.0
  0
LINE
  5
18A
330
121
100
AcDbEntity
  8
DV3_0
 62
     7
370
    35
100
AcDbLine
 10
100.8186342157352
 20
63.21260867788513
 30
0.0
 11
24.94363421573516
 21
63.21260867788518
 31
0.0
  0
LINE
  5
18B
330
121
100
AcDbEntity
  8
DV3_0
 62
     7
370
    35
100
AcDbLine
 10
24.94363421573514
 20
63.24322729966996
 30
0.0
 11
24.94363421573514
 21
63.33508316502434
 31
0.0
  0
LINE
  5
18C
330
121
100
AcDbEntity
  8
DV3_0
 62
     7
370
    35
100
AcDbLine
 10
24.94363421573514
 20
63.33508316502434
 30
0.0
 11
100.8186342157352
 21
63.33508316502429
 31
0.0
  0
LINE
  5
18D
330
121
100
AcDbEntity
  8
DV3_0
 62
     7
370
    35
100
AcDbLine
 10
100.8186342157352
 20
63.33508316502429
 30
0.0
 11
100.8186342157352
 21
63.2432272996699
 31
0.0
  0
LINE
  5
18E
330
121
100
AcDbEntity
  8
DV3_0
 62
     7
370
    35
100
AcDbLine
 10
24.94363421573532
 20
61.70498774021357
 30
0.0
 11
24.94363421573532
 21
60.46265632372148
 31
0.0
  0
LINE
  5
18F
330
121
100
AcDbEntity
  8
DV3_0
 62
     7
370
    35
100
AcDbLine
 10
100.8186342157353
 20
61.70498774022052
 30
0.0
 11
100.8186342157353
 21
60.46265632372844
 31
0.0
  0
LINE
  5
190
330
121
100
AcDbEntity
  8
DV3_0
 62
     7
370
    35
100
AcDbLine
 10
24.94363421573532
 20
60.46265632372148
 30
0.0
 11
100.8186342157353
 21
60.46265632372844
 31
0.0
  0
LINE
  5
191
330
121
100
AcDbEntity
  8
DV3_0
 62
     7
370
    35
100
AcDbLine
 10
100.8186342157353
 20
61.70498774022052
 30
0.0
 11
24.94363421573532
 21
61.70498774021357
 31
0.0
  0
LINE
  5
192
330
121
100
AcDbEntity
  8
DV3_0
 62
     7
370
    35
100
AcDbLine
 10
24.94363421573531
 20
61.82746222735273
 30
0.0
 11
100.8186342157353
 21
61.82746222735968
 31
0.0
  0
LINE
  5
193
330
121
100
AcDbEntity
  8
DV3_0
 62
     7
370
    35
100
AcDbLine
 10
100.8186342157353
 20
60.19736680254892
 30
0.0
 11
100.8186342157353
 21
58.95503538605684
 31
0.0
  0
LINE
  5
194
330
121
100
AcDbEntity
  8
DV3_0
 62
     7
370
    35
100
AcDbLine
 10
27.44363421573516
 20
58.95503538605011
 30
0.0
 11
100.8186342157353
 21
58.95503538605684
 31
0.0
  0
LINE
  5
195
330
121
100
AcDbEntity
  8
DV3_0
 62
     7
370
    35
100
AcDbLine
 10
100.8186342157353
 20
60.19736680254892
 30
0.0
 11
27.44363421573516
 21
60.19736680254219
 31
0.0
  0
LINE
  5
196
330
121
100
AcDbEntity
  8
DV3_0
 62
     7
370
    35
100
AcDbLine
 10
27.44363421573516
 20
60.31984128968134
 30
0.0
 11
100.8186342157353
 21
60.31984128968807
 31
0.0
  0
LINE
  5
197
330
121
100
AcDbEntity
  8
DV3_0
 62
     7
370
    35
100
AcDbLine
 10
24.94363421573517
 20
43.07852482093856
 30
0.0
 11
24.94363421573517
 21
43.57852482093856
 31
0.0
  0
LINE
  5
198
330
121
100
AcDbEntity
  8
DV3_0
 62
     7
370
    35
100
AcDbLine
 10
24.94363421573517
 20
43.07852482093856
 30
0.0
 11
27.44363421573516
 21
43.07852482093856
 31
0.0
  0
LINE
  5
199
330
121
100
AcDbEntity
  8
DV3_0
 62
     7
370
    35
100
AcDbLine
 10
27.44363421573515
 20
43.07852482093856
 30
0.0
 11
27.44363421573515
 21
43.57852482093856
 31
0.0
  0
LINE
  5
19A
330
121
100
AcDbEntity
  8
DV3_0
 62
     7
370
    35
100
AcDbLine
 10
24.94363421573517
 20
43.57852482093856
 30
0.0
 11
24.94363421573517
 21
57.64179710121412
 31
0.0
  0
LINE
  5
19B
330
121
100
AcDbEntity
  8
DV3_0
 62
     7
370
    25
100
AcDbLine
 10
24.94363421573517
 20
43.57852482093856
 30
0.0
 11
27.44363421573516
 21
43.57852482093856
 31
0.0
  0
LINE
  5
19C
330
121
100
AcDbEntity
  8
DV3_0
 62
     7
370
    35
100
AcDbLine
 10
27.44363421573515
 20
43.57852482093856
 30
0.0
 11
27.44363421573515
 21
57.64179710121412
 31
0.0
  0
LINE
  5
19D
330
121
100
AcDbEntity
  8
DV3_0
 62
     7
370
    35
100
AcDbLine
 10
24.94363421573517
 20
57.64179710121412
 30
0.0
 11
24.94363421573517
 21
58.0300256688679
 31
0.0
  0
LINE
  5
19E
330
121
100
AcDbEntity
  8
DV3_0
 62
     7
370
    25
100
AcDbLine
 10
24.94363421573517
 20
57.64179710121412
 30
0.0
 11
27.44363421573516
 21
57.64179710121412
 31
0.0
  0
LINE
  5
19F
330
121
100
AcDbEntity
  8
DV3_0
 62
     7
370
    35
100
AcDbLine
 10
27.44363421573515
 20
57.64179710121412
 30
0.0
 11
27.44363421573515
 21
58.0300256688679
 31
0.0
  0
LINE
  5
1A0
330
121
100
AcDbEntity
  8
DV3_0
 62
     7
370
    35
100
AcDbLine
 10
24.94363421573517
 20
58.0300256688679
 30
0.0
 11
24.94363421573517
 21
60.36883441982096
 31
0.0
  0
LINE
  5
1A1
330
121
100
AcDbEntity
  8
DV3_0
 62
     7
370
    25
100
AcDbLine
 10
24.94363421573517
 20
58.0300256688679
 30
0.0
 11
27.44363421573516
 21
58.0300256688679
 31
0.0
  0
LINE
  5
1A2
330
121
100
AcDbEntity
  8
DV3_0
 62
     7
370
    35
100
AcDbLine
 10
27.44363421573515
 20
58.0300256688679
 30
0.0
 11
27.44363421573515
 21
60.46265632372172
 31
0.0
  0
LINE
  5
1A3
330
121
100
AcDbEntity
  8
DV3_0
 62
     7
370
    35
100
AcDbLine
 10
64.63113421573517
 20
65.29581968053422
 30
0.0
 11
62.13113421573517
 21
65.29581968053422
 31
0.0
  0
LINE
  5
1A4
330
121
100
AcDbEntity
  8
DV3_0
 62
     7
370
    35
100
AcDbLine
 10
62.13113421573518
 20
64.92886077840129
 30
0.0
 11
62.13113421573518
 21
65.29581968053422
 31
0.0
  0
LINE
  5
1A5
330
121
100
AcDbEntity
  8
DV3_0
 62
     7
370
    35
100
AcDbLine
 10
64.63113421573517
 20
64.92886077840129
 30
0.0
 11
64.63113421573517
 21
65.29581968053422
 31
0.0
  0
ENDBLK
  5
1A7
330
121
100
AcDbEntity
  8
0
100
AcDbBlockEnd
  0
BLOCK
  5
25B
330
1A8
100
AcDbEntity
  8
0
100
AcDbBlockBegin
  2
SE3
 70
     0
 10
0.0
 20
0.0
 30
0.0
  3
SE3
  1

  0
LINE
  5
1AB
330
1A8
100
AcDbEntity
  8
DV4_0
 62
     7
370
    35
100
AcDbLine
 10
222.2378142799842
 20
51.45200270599972
 30
0.0
 11
214.4136351493609
 21
44.32192171977782
 31
0.0
  0
LINE
  5
1AC
330
1A8
100
AcDbEntity
  8
DV4_0
 62
     7
370
    35
100
AcDbLine
 10
214.0600817587677
 20
44.11779757454588
 30
0.0
 11
211.7973400589707
 21
45.42419210403025
 31
0.0
  0
LINE
  5
1AD
330
1A8
100
AcDbEntity
  8
DV4_0
 62
     7
370
    35
100
AcDbLine
 10
221.8842608893909
 20
51.24787856076778
 30
0.0
 11
214.0600817587677
 21
44.11779757454588
 31
0.0
  0
LINE
  5
1AE
330
1A8
100
AcDbEntity
  8
DV4_0
 62
     7
370
    35
100
AcDbLine
 10
214.413635149361
 20
44.32192171977781
 30
0.0
 11
214.0600817587677
 21
44.11779757454588
 31
0.0
  0
LINE
  5
1AF
330
1A8
100
AcDbEntity
  8
DV4_0
 62
     7
370
    35
100
AcDbLine
 10
191.1498220483235
 20
16.31608899395682
 30
0.0
 11
191.1498220483235
 21
34.89138621006258
 31
0.0
  0
LINE
  5
1B0
330
1A8
100
AcDbEntity
  8
DV4_0
 62
     7
370
    35
100
AcDbLine
 10
191.1498220483235
 20
34.89138621006259
 30
0.0
 11
162.8655508008616
 21
51.22131782861712
 31
0.0
  0
LINE
  5
1B1
330
1A8
100
AcDbEntity
  8
DV4_0
 62
     7
370
    35
100
AcDbLine
 10
190.7962686577303
 20
34.68726206483065
 30
0.0
 11
162.5119974102683
 21
51.01719368338517
 31
0.0
  0
LINE
  5
1B2
330
1A8
100
AcDbEntity
  8
DV4_0
 62
     7
370
    35
100
AcDbLine
 10
190.7962686577303
 20
16.11196484872488
 30
0.0
 11
190.7962686577303
 21
34.68726206483064
 31
0.0
  0
LINE
  5
1B3
330
1A8
100
AcDbEntity
  8
DV4_0
 62
     7
370
    35
100
AcDbLine
 10
162.5119974102683
 20
32.44189646727941
 30
0.0
 11
190.7962686577303
 21
16.1119648487249
 31
0.0
  0
LINE
  5
1B4
330
1A8
100
AcDbEntity
  8
DV4_0
 62
     7
370
    35
100
AcDbLine
 10
162.5119974102683
 20
51.01719368338518
 30
0.0
 11
162.5119974102683
 21
32.44189646727942
 31
0.0
  0
LINE
  5
1B5
330
1A8
100
AcDbEntity
  8
DV4_0
 62
     7
370
    35
100
AcDbLine
 10
162.8655508008616
 20
51.22131782861711
 30
0.0
 11
162.5119974102683
 21
51.01719368338518
 31
0.0
  0
LINE
  5
1B6
330
1A8
100
AcDbEntity
  8
DV4_0
 62
     7
370
    35
100
AcDbLine
 10
191.1498220483235
 20
34.89138621006259
 30
0.0
 11
190.7962686577303
 21
34.68726206483066
 31
0.0
  0
LINE
  5
1B7
330
1A8
100
AcDbEntity
  8
DV4_0
 62
     7
370
    35
100
AcDbLine
 10
191.1498220483235
 20
16.31608899395682
 30
0.0
 11
190.7962686577303
 21
16.11196484872489
 31
0.0
  0
LINE
  5
1B8
330
1A8
100
AcDbEntity
  8
DV4_0
 62
     7
370
    35
100
AcDbLine
 10
261.8605001669783
 20
57.14091804034311
 30
0.0
 11
260.0927332140119
 21
58.16153876650277
 31
0.0
  0
LINE
  5
1B9
330
1A8
100
AcDbEntity
  8
DV4_0
 62
     7
370
    35
100
AcDbLine
 10
233.5762289195164
 20
92.0461468750034
 30
0.0
 11
261.8605001669783
 21
75.71621525644888
 31
0.0
  0
LINE
  5
1BA
330
1A8
100
AcDbEntity
  8
DV4_0
 62
     7
370
    35
100
AcDbLine
 10
261.8605001669783
 20
75.71621525644888
 30
0.0
 11
261.8605001669783
 21
57.14091804034311
 31
0.0
  0
LINE
  5
1BB
330
1A8
100
AcDbEntity
  8
DV4_0
 62
     7
370
    35
100
AcDbLine
 10
233.9297823101097
 20
92.25027102023532
 30
0.0
 11
262.2140535575716
 21
75.9203394016808
 31
0.0
  0
LINE
  5
1BC
330
1A8
100
AcDbEntity
  8
DV4_0
 62
     7
370
    35
100
AcDbLine
 10
262.2140535575716
 20
75.92033940168082
 30
0.0
 11
262.2140535575716
 21
57.34504218557505
 31
0.0
  0
LINE
  5
1BD
330
1A8
100
AcDbEntity
  8
DV4_0
 62
     7
370
    35
100
AcDbLine
 10
261.8605001669783
 20
75.71621525644888
 30
0.0
 11
262.2140535575716
 21
75.9203394016808
 31
0.0
  0
LINE
  5
1BE
330
1A8
100
AcDbEntity
  8
DV4_0
 62
     7
370
    35
100
AcDbLine
 10
233.5762289195164
 20
92.0461468750034
 30
0.0
 11
233.9297823101097
 21
92.25027102023533
 31
0.0
  0
LINE
  5
1BF
330
1A8
100
AcDbEntity
  8
DV4_0
 62
     7
370
    35
100
AcDbLine
 10
261.8605001669783
 20
57.14091804034311
 30
0.0
 11
262.2140535575716
 21
57.34504218557504
 31
0.0
  0
LINE
  5
1C0
330
1A8
100
AcDbEntity
  8
DV4_0
 62
     7
370
    35
100
AcDbLine
 10
258.8552963469355
 20
58.87597327481453
 30
0.0
 11
246.9759024230014
 21
65.73454455460744
 31
0.0
  0
ELLIPSE
  5
1C1
330
1A8
100
AcDbEntity
  8
DV4_0
 62
     7
370
    35
100
AcDbEllipse
 10
258.3249662610456
 20
58.3656629117347
 30
0.0
 11
0.2499999999999952
 21
-4.526669429471728E-15
 31
0.0
210
0.0
220
0.0
230
1.0
 40
0.5773502691896443
 41
2.356194490192544
 42
3.926990816987064
  0
LINE
  5
1C2
330
1A8
100
AcDbEntity
  8
DV4_0
 62
     7
370
    35
100
AcDbLine
 10
258.1481895657489
 20
58.46772498435067
 30
0.0
 11
259.0320730422321
 21
58.9780353474305
 31
0.0
  0
LINE
  5
1C3
330
1A8
100
AcDbEntity
  8
DV4_0
 62
     7
370
    35
100
AcDbLine
 10
259.0320730422321
 20
58.9780353474305
 30
0.0
 11
260.0927332140119
 21
58.3656629117347
 31
0.0
  0
LINE
  5
1C4
330
1A8
100
AcDbEntity
  8
DV4_0
 62
     7
370
    35
100
AcDbLine
 10
260.092733214012
 20
58.36566291173471
 30
0.0
 11
260.092733214012
 21
58.16153876650278
 31
0.0
  0
LINE
  5
1C5
330
1A8
100
AcDbEntity
  8
DV4_0
 62
     7
370
    35
100
AcDbLine
 10
260.092733214012
 20
58.36566291173471
 30
0.0
 11
259.2088497375288
 21
57.85535254865488
 31
0.0
  0
LINE
  5
1C6
330
1A8
100
AcDbEntity
  8
DV4_0
 62
     7
370
    25
100
AcDbLine
 10
259.2088497375287
 20
57.85535254865488
 30
0.0
 11
259.2088497375287
 21
57.65122840342295
 31
0.0
  0
ELLIPSE
  5
1C7
330
1A8
100
AcDbEntity
  8
DV4_0
 62
     7
370
    35
100
AcDbEllipse
 10
259.0320730422321
 20
57.95741462127084
 30
0.0
 11
0.2499999999999991
 21
1.138161562420286E-15
 31
0.0
210
0.0
220
0.0
230
1.0
 40
0.5773502691896392
 41
3.926990816987709
 42
5.497787143782308
  0
LINE
  5
1C8
330
1A8
100
AcDbEntity
  8
DV4_0
 62
     7
370
    25
100
AcDbLine
 10
258.8552963469355
 20
57.85535254865488
 30
0.0
 11
258.8552963469355
 21
57.65122840342295
 31
0.0
  0
ELLIPSE
  5
1C9
330
1A8
100
AcDbEntity
  8
DV4_0
 62
     7
370
    35
100
AcDbEllipse
 10
259.0320730422321
 20
58.36566291173471
 30
0.0
 11
-0.3000000000000029
 21
-3.399349888776296E-15
 31
0.0
210
0.0
220
0.0
230
1.0
 40
0.5773502691896236
 41
0.0
 42
6.283185307179586
  0
LINE
  5
1CA
330
1A8
100
AcDbEntity
  8
DV4_0
 62
     7
370
    35
100
AcDbLine
 10
258.8552963469355
 20
57.85535254865488
 30
0.0
 11
258.148189565749
 21
58.26360083911874
 31
0.0
  0
LINE
  5
1CB
330
1A8
100
AcDbEntity
  8
DV4_0
 62
     7
370
    25
100
AcDbLine
 10
258.1481895657489
 20
58.26360083911874
 30
0.0
 11
258.1481895657489
 21
58.05947669388681
 31
0.0
  0
ELLIPSE
  5
1CC
330
1A8
100
AcDbEntity
  8
DV4_0
 62
     7
370
    35
100
AcDbEllipse
 10
259.0320730422321
 20
58.16153876650277
 30
0.0
 11
-0.3000000000000009
 21
-1.127820978074418E-15
 31
0.0
210
0.0
220
0.0
230
1.0
 40
0.5773502691896251
 41
3.771729899655261
 42
5.653048061113471
  0
ELLIPSE
  5
1CD
330
1A8
100
AcDbEntity
  8
DV4_0
 62
     7
370
    35
100
AcDbEllipse
 10
258.3249662610456
 20
58.16153876650278
 30
0.0
 11
0.2499999999999972
 21
6.797947621484113E-15
 31
0.0
210
0.0
220
0.0
230
1.0
 40
0.5773502691896254
 41
3.141592653589746
 42
3.926990816987046
  0
LINE
  5
1CE
330
1A8
100
AcDbEntity
  8
DV4_0
 62
     7
370
    35
100
AcDbLine
 10
260.092733214012
 20
58.16153876650278
 30
0.0
 11
259.2088497375288
 21
57.65122840342296
 31
0.0
  0
ELLIPSE
  5
1CF
330
1A8
100
AcDbEntity
  8
DV4_0
 62
     7
370
    35
100
AcDbEllipse
 10
259.0320730422321
 20
57.75329047603891
 30
0.0
 11
0.2499999999999972
 21
1.132865910902606E-15
 31
0.0
210
0.0
220
0.0
230
1.0
 40
0.5773502691896517
 41
3.926990816987701
 42
5.497787143782316
  0
LINE
  5
1D0
330
1A8
100
AcDbEntity
  8
DV4_0
 62
     7
370
    35
100
AcDbLine
 10
258.8552963469355
 20
57.65122840342295
 30
0.0
 11
258.148189565749
 21
58.05947669388681
 31
0.0
  0
LINE
  5
1D1
330
1A8
100
AcDbEntity
  8
DV4_0
 62
     7
370
    35
100
AcDbLine
 10
258.0749662610455
 20
58.36566291173471
 30
0.0
 11
258.0749662610455
 21
58.16153876650278
 31
0.0
  0
LINE
  5
1D2
330
1A8
100
AcDbEntity
  8
DV4_0
 62
     7
370
    35
100
AcDbLine
 10
174.7891388986198
 20
46.34073554638238
 30
0.0
 11
174.7891388986198
 21
44.33723103067022
 31
0.0
  0
ELLIPSE
  5
1D3
330
1A8
100
AcDbEntity
  8
DV4_0
 62
     7
370
    35
100
AcDbEllipse
 10
173.480991353427
 20
47.09599488373947
 30
0.0
 11
0.9249999999977211
 21
-1.602146996999725
 31
0.0
210
0.0
220
0.0
230
0.9999999999999999
 40
0.5773502691895283
 41
0.7853981633981029
 42
0.9393883817335259
  0
LINE
  5
1D4
330
1A8
100
AcDbEntity
  8
DV4_0
 62
     7
370
    35
100
AcDbLine
 10
173.4864397104579
 20
62.56482437656781
 30
0.0
 11
171.7540280965508
 21
61.56461606493135
 31
0.0
  0
ELLIPSE
  5
1D5
330
1A8
100
AcDbEntity
  8
DV4_0
 62
     7
370
    35
100
AcDbEllipse
 10
173.4809913534245
 20
47.09599488374071
 30
0.0
 11
1.12500000000026
 21
-1.948557158515167
 31
0.0
210
0.0
220
0.0
230
0.9999999999999998
 40
0.577350269189592
 41
0.7853981633973701
 42
0.9586102478276802
  0
LINE
  5
1D6
330
1A8
100
AcDbEntity
  8
DV4_0
 62
     7
370
    35
100
AcDbLine
 10
176.8397485640608
 20
46.74229009409317
 30
0.0
 11
176.8397485640608
 21
45.02104691719716
 31
0.0
  0
LINE
  5
1D7
330
1A8
100
AcDbEntity
  8
DV4_0
 62
     7
370
    25
100
AcDbLine
 10
175.4552636305288
 20
46.39872420729283
 30
0.0
 11
175.0719816110944
 21
46.17743623019683
 31
0.0
  0
LINE
  5
1D8
330
1A8
100
AcDbEntity
  8
DV4_0
 62
     7
370
    35
100
AcDbLine
 10
175.0719816110944
 20
46.17743623019683
 30
0.0
 11
175.0719816110944
 21
44.17393171448467
 31
0.0
  0
LINE
  5
1D9
330
1A8
100
AcDbEntity
  8
DV4_0
 62
     7
370
    35
100
AcDbLine
 10
173.6709188385728
 20
62.51539334316901
 30
0.0
 11
173.4864397104579
 21
62.56482437656781
 31
0.0
  0
ELLIPSE
  5
1DA
330
1A8
100
AcDbEntity
  8
DV4_0
 62
     7
370
    35
100
AcDbEllipse
 10
172.0613838124023
 20
61.48226034907984
 30
0.0
 11
0.4408639736697729
 21
0.09021616662269299
 31
0.0
210
0.0
220
0.0
230
1.0
 40
0.4082482904638726
 41
2.255515529797157
 42
3.826311856592142
  0
LINE
  5
1DB
330
1A8
100
AcDbEntity
  8
DV4_0
 62
     7
370
    35
100
AcDbLine
 10
171.7431857608684
 20
61.29854861837111
 30
0.0
 11
172.9043073540851
 21
60.98742702515433
 31
0.0
  0
ELLIPSE
  5
1DC
330
1A8
100
AcDbEntity
  8
DV4_0
 62
     7
370
    35
100
AcDbEllipse
 10
175.0719427585291
 20
46.77040736703833
 30
0.0
 11
0.440863973669612
 21
0.09021616662345432
 31
0.0
210
0.0
220
0.0
230
1.0
 40
0.4082482904650293
 41
3.141592653589793
 42
3.826311856591346
  0
LINE
  5
1DD
330
1A8
100
AcDbEntity
  8
DV4_0
 62
     7
370
    35
100
AcDbLine
 10
176.1977090126867
 20
46.43887335929754
 30
0.0
 11
175.9148663002121
 21
46.27557404311199
 31
0.0
  0
LINE
  5
1DE
330
1A8
100
AcDbEntity
  8
DV4_0
 62
     7
370
    35
100
AcDbLine
 10
173.1871500665598
 20
61.15072634133987
 30
0.0
 11
172.9043073540851
 21
60.98742702515433
 31
0.0
  0
LINE
  5
1DF
330
1A8
100
AcDbEntity
  8
DV4_0
 62
     7
370
    35
100
AcDbLine
 10
172.9043073540851
 20
60.98742702515433
 30
0.0
 11
175.9148663002121
 21
46.27557404311199
 31
0.0
  0
LINE
  5
1E0
330
1A8
100
AcDbEntity
  8
DV4_0
 62
     7
370
    35
100
AcDbLine
 10
174.7537447069953
 20
46.58669563632878
 30
0.0
 11
175.9148663002121
 21
46.275574043112
 31
0.0
  0
LINE
  5
1E1
330
1A8
100
AcDbEntity
  8
DV4_0
 62
     7
370
    25
100
AcDbLine
 10
171.7431857608684
 20
61.29854861837111
 30
0.0
 11
174.7537447069953
 21
46.58669563632878
 31
0.0
  0
LINE
  5
1E2
330
1A8
100
AcDbEntity
  8
DV4_0
 62
     7
370
    35
100
AcDbLine
 10
172.026028473343
 20
61.46184793455664
 30
0.0
 11
173.1871500665597
 21
61.15072634133987
 31
0.0
  0
LINE
  5
1E3
330
1A8
100
AcDbEntity
  8
DV4_0
 62
     7
370
    35
100
AcDbLine
 10
173.1871500665598
 20
61.15072634133987
 30
0.0
 11
176.1977090126867
 21
46.43887335929755
 31
0.0
  0
LINE
  5
1E4
330
1A8
100
AcDbEntity
  8
DV4_0
 62
     7
370
    35
100
AcDbLine
 10
171.6205198387325
 20
61.39204418245715
 30
0.0
 11
174.6310787848595
 21
46.68019120041481
 31
0.0
  0
LINE
  5
1E5
330
1A8
100
AcDbEntity
  8
DV4_0
 62
     7
370
    35
100
AcDbLine
 10
191.1144667092642
 20
34.91179862458578
 30
0.0
 11
187.5789328033315
 21
36.95304007690509
 31
0.0
  0
LINE
  5
1E6
330
1A8
100
AcDbEntity
  8
DV4_0
 62
     7
370
    35
100
AcDbLine
 10
261.825144827919
 20
75.73662767097208
 30
0.0
 11
258.2896109219862
 21
77.7778691232914
 31
0.0
  0
LINE
  5
1E7
330
1A8
100
AcDbEntity
  8
DV4_0
 62
     7
370
    35
100
AcDbLine
 10
261.825144827919
 20
74.30775865434856
 30
0.0
 11
261.825144827919
 21
75.73662767097208
 31
0.0
  0
LINE
  5
1E8
330
1A8
100
AcDbEntity
  8
DV4_0
 62
     7
370
    35
100
AcDbLine
 10
191.1498220483235
 20
33.50334202248545
 30
0.0
 11
261.825144827919
 21
74.30775865434856
 31
0.0
  0
LINE
  5
1E9
330
1A8
100
AcDbEntity
  8
DV4_0
 62
     7
370
    35
100
AcDbLine
 10
187.5789328033315
 20
36.95304007690508
 30
0.0
 11
258.2896109219863
 21
77.77786912329138
 31
0.0
  0
LINE
  5
1EA
330
1A8
100
AcDbEntity
  8
DV4_0
 62
     7
370
    35
100
AcDbLine
 10
191.1144667092642
 20
34.91179862458578
 30
0.0
 11
261.825144827919
 21
75.73662767097207
 31
0.0
  0
LINE
  5
1EB
330
1A8
100
AcDbEntity
  8
DV4_0
 62
     7
370
    35
100
AcDbLine
 10
186.9955697088526
 20
37.2898449165378
 30
0.0
 11
183.4600358029198
 21
39.33108636885711
 31
0.0
  0
LINE
  5
1EC
330
1A8
100
AcDbEntity
  8
DV4_0
 62
     7
370
    35
100
AcDbLine
 10
257.7062478275074
 20
78.11467396292312
 30
0.0
 11
254.1707139215746
 21
80.15591541524243
 31
0.0
  0
LINE
  5
1ED
330
1A8
100
AcDbEntity
  8
DV4_0
 62
     7
370
    35
100
AcDbLine
 10
257.7062478275074
 20
77.4410642836587
 30
0.0
 11
257.7062478275074
 21
78.11467396292313
 31
0.0
  0
LINE
  5
1EE
330
1A8
100
AcDbEntity
  8
DV4_0
 62
     7
370
    35
100
AcDbLine
 10
183.4600358029198
 20
39.33108636885711
 30
0.0
 11
187.145829899858
 21
41.45908058290185
 31
0.0
  0
LINE
  5
1EF
330
1A8
100
AcDbEntity
  8
DV4_0
 62
     7
370
    35
100
AcDbLine
 10
189.196439565299
 20
42.64300062524703
 30
0.0
 11
254.1707139215746
 21
80.15591541524245
 31
0.0
  0
LINE
  5
1F0
330
1A8
100
AcDbEntity
  8
DV4_0
 62
     7
370
    35
100
AcDbLine
 10
186.9955697088526
 20
37.2898449165378
 30
0.0
 11
187.145829899858
 21
37.37659767826327
 31
0.0
  0
LINE
  5
1F1
330
1A8
100
AcDbEntity
  8
DV4_0
 62
     7
370
    35
100
AcDbLine
 10
189.196439565299
 20
38.56051772060844
 30
0.0
 11
257.7062478275074
 21
78.11467396292313
 31
0.0
  0
LINE
  5
1F2
330
1A8
100
AcDbEntity
  8
DV4_0
 62
     7
370
    35
100
AcDbLine
 10
182.8766727084409
 20
39.6678912084898
 30
0.0
 11
179.3411388025082
 21
41.70913266080912
 31
0.0
  0
LINE
  5
1F3
330
1A8
100
AcDbEntity
  8
DV4_0
 62
     7
370
    35
100
AcDbLine
 10
253.5873508270957
 20
80.49272025487514
 30
0.0
 11
250.051816921163
 21
82.53396170719445
 31
0.0
  0
LINE
  5
1F4
330
1A8
100
AcDbEntity
  8
DV4_0
 62
     7
370
    35
100
AcDbLine
 10
253.5873508270957
 20
79.81911057560976
 30
0.0
 11
253.5873508270957
 21
80.49272025487514
 31
0.0
  0
LINE
  5
1F5
330
1A8
100
AcDbEntity
  8
DV4_0
 62
     7
370
    35
100
AcDbLine
 10
179.3411388025082
 20
41.70913266080911
 30
0.0
 11
185.7758105113058
 21
45.4241921040302
 31
0.0
  0
LINE
  5
1F6
330
1A8
100
AcDbEntity
  8
DV4_0
 62
     7
370
    35
100
AcDbLine
 10
187.8264201767468
 20
46.60811214637539
 30
0.0
 11
250.0518169211629
 21
82.53396170719445
 31
0.0
  0
LINE
  5
1F7
330
1A8
100
AcDbEntity
  8
DV4_0
 62
     7
370
    35
100
AcDbLine
 10
182.8766727084409
 20
39.6678912084898
 30
0.0
 11
187.145829899858
 21
42.13269026216722
 31
0.0
  0
LINE
  5
1F8
330
1A8
100
AcDbEntity
  8
DV4_0
 62
     7
370
    35
100
AcDbLine
 10
189.196439565299
 20
43.31661030451239
 30
0.0
 11
253.5873508270957
 21
80.49272025487514
 31
0.0
  0
LINE
  5
1F9
330
1A8
100
AcDbEntity
  8
DV4_0
 62
     7
370
    35
100
AcDbLine
 10
178.7577757080293
 20
42.0459375004418
 30
0.0
 11
175.2222418020966
 21
44.08717895276111
 31
0.0
  0
LINE
  5
1FA
330
1A8
100
AcDbEntity
  8
DV4_0
 62
     7
370
    35
100
AcDbLine
 10
249.4684538266841
 20
82.87076654682714
 30
0.0
 11
245.9329199207513
 21
84.91200799914645
 31
0.0
  0
LINE
  5
1FB
330
1A8
100
AcDbEntity
  8
DV4_0
 62
     7
370
    35
100
AcDbLine
 10
249.468453826684
 20
82.19715686756177
 30
0.0
 11
249.4684538266841
 21
82.87076654682714
 31
0.0
  0
LINE
  5
1FC
330
1A8
100
AcDbEntity
  8
DV4_0
 62
     7
370
    35
100
AcDbLine
 10
175.2222418020966
 20
44.08717895276111
 30
0.0
 11
181.6569135108942
 21
47.80223839598221
 31
0.0
  0
LINE
  5
1FD
330
1A8
100
AcDbEntity
  8
DV4_0
 62
     7
370
    35
100
AcDbLine
 10
183.7075231763352
 20
48.9861584383274
 30
0.0
 11
245.9329199207513
 21
84.91200799914645
 31
0.0
  0
LINE
  5
1FE
330
1A8
100
AcDbEntity
  8
DV4_0
 62
     7
370
    35
100
AcDbLine
 10
178.7577757080293
 20
42.0459375004418
 30
0.0
 11
185.1924474168269
 21
45.7609969436629
 31
0.0
  0
LINE
  5
1FF
330
1A8
100
AcDbEntity
  8
DV4_0
 62
     7
370
    35
100
AcDbLine
 10
187.2430570822679
 20
46.94491698600807
 30
0.0
 11
249.4684538266841
 21
82.87076654682714
 31
0.0
  0
LINE
  5
200
330
1A8
100
AcDbEntity
  8
DV4_0
 62
     7
370
    35
100
AcDbLine
 10
174.6388787076177
 20
44.42398379239381
 30
0.0
 11
171.1033448016849
 21
46.46522524471312
 31
0.0
  0
LINE
  5
201
330
1A8
100
AcDbEntity
  8
DV4_0
 62
     7
370
    35
100
AcDbLine
 10
245.3495568262724
 20
85.24881283877913
 30
0.0
 11
241.8140229203397
 21
87.29005429109846
 31
0.0
  0
LINE
  5
202
330
1A8
100
AcDbEntity
  8
DV4_0
 62
     7
370
    35
100
AcDbLine
 10
245.3495568262724
 20
84.57520315951376
 30
0.0
 11
245.3495568262724
 21
85.24881283877913
 31
0.0
  0
LINE
  5
203
330
1A8
100
AcDbEntity
  8
DV4_0
 62
     7
370
    35
100
AcDbLine
 10
171.1033448016849
 20
46.46522524471312
 30
0.0
 11
174.2976713306375
 21
48.30947052608341
 31
0.0
  0
LINE
  5
204
330
1A8
100
AcDbEntity
  8
DV4_0
 62
     7
370
    35
100
AcDbLine
 10
229.5891731023335
 20
80.23203395787002
 30
0.0
 11
241.8140229203397
 21
87.29005429109847
 31
0.0
  0
LINE
  5
205
330
1A8
100
AcDbEntity
  8
DV4_0
 62
     7
370
    35
100
AcDbLine
 10
174.6388787076177
 20
44.42398379239381
 30
0.0
 11
174.7891388986198
 21
44.51073655411736
 31
0.0
  0
LINE
  5
206
330
1A8
100
AcDbEntity
  8
DV4_0
 62
     7
370
    35
100
AcDbLine
 10
176.8397485640608
 20
45.69465659646253
 30
0.0
 11
181.0735504164153
 21
48.13904323561489
 31
0.0
  0
LINE
  5
207
330
1A8
100
AcDbEntity
  8
DV4_0
 62
     7
370
    35
100
AcDbLine
 10
183.1241600818563
 20
49.32296327796008
 30
0.0
 11
226.6730989681828
 21
74.46595486690262
 31
0.0
  0
LINE
  5
208
330
1A8
100
AcDbEntity
  8
DV4_0
 62
     7
370
    35
100
AcDbLine
 10
228.7237086336237
 20
75.64987490924777
 30
0.0
 11
245.3495568262724
 21
85.24881283877914
 31
0.0
  0
LINE
  5
209
330
1A8
100
AcDbEntity
  8
DV4_0
 62
     7
370
    35
100
AcDbLine
 10
170.519981707206
 20
46.8020300843458
 30
0.0
 11
166.9844478012733
 21
48.84327153666512
 31
0.0
  0
LINE
  5
20A
330
1A8
100
AcDbEntity
  8
DV4_0
 62
     7
370
    35
100
AcDbLine
 10
241.2306598258608
 20
87.62685913073115
 30
0.0
 11
237.695125919928
 21
89.66810058305046
 31
0.0
  0
LINE
  5
20B
330
1A8
100
AcDbEntity
  8
DV4_0
 62
     7
370
    35
100
AcDbLine
 10
241.2306598258608
 20
86.95324945146578
 30
0.0
 11
241.2306598258608
 21
87.62685913073113
 31
0.0
  0
LINE
  5
20C
330
1A8
100
AcDbEntity
  8
DV4_0
 62
     7
370
    35
100
AcDbLine
 10
166.9844478012733
 20
48.84327153666512
 30
0.0
 11
173.4272459764077
 21
52.56302279741332
 31
0.0
  0
LINE
  5
20D
330
1A8
100
AcDbEntity
  8
DV4_0
 62
     7
370
    35
100
AcDbLine
 10
228.7187477481037
 20
84.4855862291999
 30
0.0
 11
237.695125919928
 21
89.66810058305046
 31
0.0
  0
LINE
  5
20E
330
1A8
100
AcDbEntity
  8
DV4_0
 62
     7
370
    35
100
AcDbLine
 10
170.519981707206
 20
46.8020300843458
 30
0.0
 11
174.1743922032144
 21
48.91190496794559
 31
0.0
  0
LINE
  5
20F
330
1A8
100
AcDbEntity
  8
DV4_0
 62
     7
370
    35
100
AcDbLine
 10
229.4658939749104
 20
80.83446839973219
 30
0.0
 11
241.2306598258608
 21
87.62685913073113
 31
0.0
  0
LINE
  5
210
330
1A8
100
AcDbEntity
  8
DV4_0
 62
     7
370
    35
100
AcDbLine
 10
166.4010847067944
 20
49.1800763762978
 30
0.0
 11
162.8655508008616
 21
51.22131782861711
 31
0.0
  0
LINE
  5
211
330
1A8
100
AcDbEntity
  8
DV4_0
 62
     7
370
    35
100
AcDbLine
 10
237.1117628254491
 20
90.00490542268409
 30
0.0
 11
233.5762289195164
 21
92.0461468750034
 31
0.0
  0
LINE
  5
212
330
1A8
100
AcDbEntity
  8
DV4_0
 62
     7
370
    35
100
AcDbLine
 10
237.1117628254491
 20
89.33129574341777
 30
0.0
 11
237.1117628254491
 21
90.00490542268409
 31
0.0
  0
LINE
  5
213
330
1A8
100
AcDbEntity
  8
DV4_0
 62
     7
370
    35
100
AcDbLine
 10
162.8655508008616
 20
51.22131782861711
 30
0.0
 11
172.5568206221779
 21
56.81657506874334
 31
0.0
  0
LINE
  5
214
330
1A8
100
AcDbEntity
  8
DV4_0
 62
     7
370
    35
100
AcDbLine
 10
227.8483223938737
 20
88.7391385005306
 30
0.0
 11
233.5762289195164
 21
92.04614687500342
 31
0.0
  0
LINE
  5
215
330
1A8
100
AcDbEntity
  8
DV4_0
 62
     7
370
    35
100
AcDbLine
 10
166.4010847067944
 20
49.1800763762978
 30
0.0
 11
173.3039668489846
 21
53.16545723927558
 31
0.0
  0
LINE
  5
216
330
1A8
100
AcDbEntity
  8
DV4_0
 62
     7
370
    35
100
AcDbLine
 10
228.5954686206805
 20
85.08802067106285
 30
0.0
 11
237.1117628254491
 21
90.00490542268409
 31
0.0
  0
LINE
  5
217
330
1A8
100
AcDbEntity
  8
DV4_0
 62
     7
370
    35
100
AcDbLine
 10
226.6730989681827
 20
75.5135883645378
 30
0.0
 11
226.6730989681827
 21
73.79234518763724
 31
0.0
  0
LINE
  5
218
330
1A8
100
AcDbEntity
  8
DV4_0
 62
     7
370
    35
100
AcDbLine
 10
223.6026328270544
 20
91.49942196319411
 30
0.0
 11
223.6311718474935
 21
91.35995886665118
 31
0.0
  0
LINE
  5
219
330
1A8
100
AcDbEntity
  8
DV4_0
 62
     7
370
    35
100
AcDbLine
 10
228.7237086336237
 20
76.69750840688316
 30
0.0
 11
228.7237086336237
 21
74.97626522998242
 31
0.0
  0
LINE
  5
21A
330
1A8
100
AcDbEntity
  8
DV4_0
 62
     7
370
    35
100
AcDbLine
 10
226.9559416806573
 20
75.67688768072337
 30
0.0
 11
226.9559416806573
 21
73.95564450382278
 31
0.0
  0
LINE
  5
21B
330
1A8
100
AcDbEntity
  8
DV4_0
 62
     7
370
    35
100
AcDbLine
 10
223.7871119551694
 20
91.44999092979529
 30
0.0
 11
223.6026328270544
 21
91.49942196319411
 31
0.0
  0
LINE
  5
21C
330
1A8
100
AcDbEntity
  8
DV4_0
 62
     7
370
    35
100
AcDbLine
 10
225.3350444409615
 20
92.49963027483058
 30
0.0
 11
223.6026328270544
 21
91.49942196319411
 31
0.0
  0
ELLIPSE
  5
21D
330
1A8
100
AcDbEntity
  8
DV4_0
 62
     7
370
    35
100
AcDbEllipse
 10
225.642400156813
 20
92.41727455897907
 30
0.0
 11
0.4408639736697778
 21
0.09021616662269696
 31
0.0
210
0.0
220
0.0
230
1.0
 40
0.4082482904638547
 41
0.6847192030023619
 42
2.255515529797224
  0
LINE
  5
21E
330
1A8
100
AcDbEntity
  8
DV4_0
 62
     7
370
    35
100
AcDbLine
 10
226.8218017715418
 20
92.13114069783276
 30
0.0
 11
226.8388770890891
 21
92.12656538028547
 31
0.0
  0
LINE
  5
21F
330
1A8
100
AcDbEntity
  8
DV4_0
 62
     7
370
    35
100
AcDbLine
 10
230.1322787476907
 20
77.57801171442868
 30
0.0
 11
229.849436035216
 21
77.41471239824314
 31
0.0
  0
LINE
  5
220
330
1A8
100
AcDbEntity
  8
DV4_0
 62
     7
370
    35
100
AcDbLine
 10
227.1217198015637
 20
92.28986469647103
 30
0.0
 11
226.838877089089
 21
92.12656538028548
 31
0.0
  0
LINE
  5
221
330
1A8
100
AcDbEntity
  8
DV4_0
 62
     7
370
    35
100
AcDbLine
 10
226.8388770890891
 20
92.12656538028548
 30
0.0
 11
229.849436035216
 21
77.41471239824314
 31
0.0
  0
LINE
  5
222
330
1A8
100
AcDbEntity
  8
DV4_0
 62
     7
370
    35
100
AcDbLine
 10
225.9605982083469
 20
92.60098628968781
 30
0.0
 11
227.1217198015637
 21
92.28986469647103
 31
0.0
  0
LINE
  5
223
330
1A8
100
AcDbEntity
  8
DV4_0
 62
     7
370
    35
100
AcDbLine
 10
227.1217198015637
 20
92.28986469647103
 30
0.0
 11
230.1322787476906
 21
77.57801171442868
 31
0.0
  0
LINE
  5
224
330
1A8
100
AcDbEntity
  8
DV4_0
 62
     7
370
    35
100
AcDbLine
 10
171.9781518856065
 20
61.53807388719856
 30
0.0
 11
173.1051228437286
 21
61.2361029290764
 31
0.0
  0
LINE
  5
225
330
1A8
100
AcDbEntity
  8
DV4_0
 62
     7
370
    35
100
AcDbLine
 10
225.6298789081358
 20
92.51391292614417
 30
0.0
 11
171.9781518856065
 21
61.53807388719856
 31
0.0
  0
LINE
  5
226
330
1A8
100
AcDbEntity
  8
DV4_0
 62
     7
370
    35
100
AcDbLine
 10
173.191725384107
 20
61.12836790215744
 30
0.0
 11
174.0701863531897
 21
56.83554757912989
 31
0.0
  0
LINE
  5
227
330
1A8
100
AcDbEntity
  8
DV4_0
 62
     7
370
    35
100
AcDbLine
 10
226.8434524066364
 20
92.10420694110304
 30
0.0
 11
227.7219133757191
 21
87.8113866180755
 31
0.0
  0
LINE
  5
228
330
1A8
100
AcDbEntity
  8
DV4_0
 62
     7
370
    35
100
AcDbLine
 10
174.0701863531897
 20
56.83554757912988
 30
0.0
 11
227.721913375719
 21
87.81138661807549
 31
0.0
  0
LINE
  5
229
330
1A8
100
AcDbEntity
  8
DV4_0
 62
     7
370
    35
100
AcDbLine
 10
226.8434524066364
 20
92.10420694110304
 30
0.0
 11
173.1917253841071
 21
61.12836790215744
 31
0.0
  0
LINE
  5
22A
330
1A8
100
AcDbEntity
  8
DV4_0
 62
     7
370
    35
100
AcDbLine
 10
227.7219133757191
 20
87.81138661807552
 30
0.0
 11
227.671913375719
 21
87.740254131535
 31
0.0
  0
LINE
  5
22B
330
1A8
100
AcDbEntity
  8
DV4_0
 62
     7
370
    35
100
AcDbLine
 10
227.671913375719
 20
87.74025413153498
 30
0.0
 11
174.0779213801086
 21
56.79774842592269
 31
0.0
  0
LINE
  5
22C
330
1A8
100
AcDbEntity
  8
DV4_0
 62
     7
370
    35
100
AcDbLine
 10
226.8469133757191
 20
87.26394015945355
 30
0.0
 11
227.8228988547395
 21
87.0024256385256
 31
0.0
  0
LINE
  5
22D
330
1A8
100
AcDbEntity
  8
DV4_0
 62
     7
370
    35
100
AcDbLine
 10
174.2577743725936
 20
55.91885157265969
 30
0.0
 11
175.1362353416762
 21
51.62603124963214
 31
0.0
  0
LINE
  5
22E
330
1A8
100
AcDbEntity
  8
DV4_0
 62
     7
370
    35
100
AcDbLine
 10
227.909501395118
 20
86.89469061160663
 30
0.0
 11
228.7879623642007
 21
82.6018702885791
 31
0.0
  0
LINE
  5
22F
330
1A8
100
AcDbEntity
  8
DV4_0
 62
     7
370
    35
100
AcDbLine
 10
175.1362353416762
 20
51.62603124963214
 30
0.0
 11
228.7879623642006
 21
82.6018702885791
 31
0.0
  0
LINE
  5
230
330
1A8
100
AcDbEntity
  8
DV4_0
 62
     7
370
    35
100
AcDbLine
 10
227.909501395118
 20
86.89469061160663
 30
0.0
 11
174.2577743725936
 21
55.9188515726597
 31
0.0
  0
LINE
  5
231
330
1A8
100
AcDbEntity
  8
DV4_0
 62
     7
370
    35
100
AcDbLine
 10
174.2289068591642
 20
56.05991993292938
 30
0.0
 11
227.8228988547395
 21
87.00242563852561
 31
0.0
  0
LINE
  5
232
330
1A8
100
AcDbEntity
  8
DV4_0
 62
     7
370
    35
100
AcDbLine
 10
228.7879623642006
 20
82.6018702885791
 30
0.0
 11
228.7379623642006
 21
82.53073780203856
 31
0.0
  0
LINE
  5
233
330
1A8
100
AcDbEntity
  8
DV4_0
 62
     7
370
    35
100
AcDbLine
 10
227.8228988547395
 20
87.00242563852561
 30
0.0
 11
227.909501395118
 21
86.89469061160665
 31
0.0
  0
LINE
  5
234
330
1A8
100
AcDbEntity
  8
DV4_0
 62
     7
370
    35
100
AcDbLine
 10
228.7379623642006
 20
82.53073780203857
 30
0.0
 11
175.1439703686253
 21
51.58823209644235
 31
0.0
  0
LINE
  5
235
330
1A8
100
AcDbEntity
  8
DV4_0
 62
     7
370
    35
100
AcDbLine
 10
227.9129623642006
 20
82.05442382995705
 30
0.0
 11
228.888947843226
 21
81.79290930902779
 31
0.0
  0
LINE
  5
236
330
1A8
100
AcDbEntity
  8
DV4_0
 62
     7
370
    35
100
AcDbLine
 10
175.32382336108
 20
50.70933524316188
 30
0.0
 11
176.2022843301627
 21
46.41651492013433
 31
0.0
  0
LINE
  5
237
330
1A8
100
AcDbEntity
  8
DV4_0
 62
     7
370
    35
100
AcDbLine
 10
228.9755503836044
 20
81.68517428210883
 30
0.0
 11
229.8540113526871
 21
77.39235395908128
 31
0.0
  0
LINE
  5
238
330
1A8
100
AcDbEntity
  8
DV4_0
 62
     7
370
    35
100
AcDbLine
 10
176.2022843301627
 20
46.41651492013433
 30
0.0
 11
180.1296706532329
 21
48.68399247097089
 31
0.0
  0
LINE
  5
239
330
1A8
100
AcDbEntity
  8
DV4_0
 62
     7
370
    35
100
AcDbLine
 10
182.1802803186737
 20
49.86791251331616
 30
0.0
 11
229.8540113526871
 21
77.39235395908128
 31
0.0
  0
LINE
  5
23A
330
1A8
100
AcDbEntity
  8
DV4_0
 62
     7
370
    35
100
AcDbLine
 10
228.9755503836044
 20
81.68517428210883
 30
0.0
 11
177.7540903140448
 21
52.11245052265896
 31
0.0
  0
LINE
  5
23B
330
1A8
100
AcDbEntity
  8
DV4_0
 62
     7
370
    35
100
AcDbLine
 10
175.5863233610786
 20
50.86088968882338
 30
0.0
 11
175.32382336108
 21
50.70933524316189
 31
0.0
  0
LINE
  5
23C
330
1A8
100
AcDbEntity
  8
DV4_0
 62
     7
370
    35
100
AcDbLine
 10
176.1522843301626
 20
46.34538243359381
 30
0.0
 11
176.0727090126868
 21
46.3667045756489
 31
0.0
  0
LINE
  5
23D
330
1A8
100
AcDbEntity
  8
DV4_0
 62
     7
370
    35
100
AcDbLine
 10
176.1522843301626
 20
46.34538243359381
 30
0.0
 11
176.2022843301627
 21
46.41651492013433
 31
0.0
  0
LINE
  5
23E
330
1A8
100
AcDbEntity
  8
DV4_0
 62
     7
370
    35
100
AcDbLine
 10
175.2949558476809
 20
50.850403603449
 30
0.0
 11
175.3997208207002
 21
50.91088968882339
 31
0.0
  0
LINE
  5
23F
330
1A8
100
AcDbEntity
  8
DV4_0
 62
     7
370
    35
100
AcDbLine
 10
177.5674877736664
 20
52.16245052265894
 30
0.0
 11
228.888947843226
 21
81.79290930902779
 31
0.0
  0
LINE
  5
240
330
1A8
100
AcDbEntity
  8
DV4_0
 62
     7
370
    35
100
AcDbLine
 10
229.8540113526871
 20
77.39235395908128
 30
0.0
 11
229.804011352687
 21
77.32122147254076
 31
0.0
  0
LINE
  5
241
330
1A8
100
AcDbEntity
  8
DV4_0
 62
     7
370
    35
100
AcDbLine
 10
228.888947843226
 20
81.79290930902779
 30
0.0
 11
228.9755503836044
 21
81.68517428210883
 31
0.0
  0
LINE
  5
242
330
1A8
100
AcDbEntity
  8
DV4_0
 62
     7
370
    35
100
AcDbLine
 10
229.804011352687
 20
77.32122147254076
 30
0.0
 11
182.2168828590522
 21
49.84678002677566
 31
0.0
  0
LINE
  5
243
330
1A8
100
AcDbEntity
  8
DV4_0
 62
     7
370
    35
100
AcDbLine
 10
180.1662731936113
 20
48.66285998443038
 30
0.0
 11
176.1522843301626
 21
46.34538243359382
 31
0.0
  0
LINE
  5
244
330
1A8
100
AcDbEntity
  8
DV4_0
 62
     7
370
    35
100
AcDbLine
 10
187.145829899858
 20
37.2030921548123
 30
0.0
 11
187.145829899858
 21
44.55156138316181
 31
0.0
  0
ELLIPSE
  5
245
330
1A8
100
AcDbEntity
  8
DV4_0
 62
     7
370
    35
100
AcDbEllipse
 10
187.0751192217394
 20
44.5923862122082
 30
0.0
 11
0.04999999999999395
 21
-0.0866025403784464
 31
0.0
210
0.0
220
0.0
230
1.0
 40
0.5773502691896576
 41
0.7853981633976188
 42
2.356194490192382
  0
LINE
  5
246
330
1A8
100
AcDbEntity
  8
DV4_0
 62
     7
370
    35
100
AcDbLine
 10
187.0751192217394
 20
44.67403587030097
 30
0.0
 11
177.1308840266837
 21
50.41534273705131
 31
0.0
  0
ELLIPSE
  5
247
330
1A8
100
AcDbEntity
  8
DV4_0
 62
     7
370
    35
100
AcDbEllipse
 10
177.1308840266837
 20
49.51719649803154
 30
0.0
 11
-0.5500000000001847
 21
0.9526279441620826
 31
0.0
210
0.0
220
0.0
230
1.0
 40
0.5773502691896798
 41
5.235987755982531
 42
5.759586531580791
  0
LINE
  5
248
330
1A8
100
AcDbEntity
  8
DV4_0
 62
     7
370
    35
100
AcDbLine
 10
176.9295700546022
 20
50.50096782205797
 30
0.0
 11
175.2757825269049
 21
50.94409885455714
 31
0.0
  0
LINE
  5
249
330
1A8
100
AcDbEntity
  8
DV4_0
 62
     7
370
    35
100
AcDbLine
 10
187.4286726123326
 20
37.03979283862675
 30
0.0
 11
187.4286726123326
 21
44.38826206697627
 31
0.0
  0
LINE
  5
24A
330
1A8
100
AcDbEntity
  8
DV4_0
 62
     7
370
    35
100
AcDbLine
 10
189.196439565299
 20
37.88690804134309
 30
0.0
 11
189.196439565299
 21
45.40888279313593
 31
0.0
  0
ELLIPSE
  5
24B
330
1A8
100
AcDbEntity
  8
DV4_0
 62
     7
370
    35
100
AcDbEllipse
 10
187.0751192217394
 20
44.5923862122082
 30
0.0
 11
0.2500000000000012
 21
-0.4330127018922202
 31
0.0
210
0.0
220
0.0
230
1.0
 40
0.5773502691896133
 41
0.7853981633974101
 42
2.356194490192333
  0
LINE
  5
24C
330
1A8
100
AcDbEntity
  8
DV4_0
 62
     7
370
    25
100
AcDbLine
 10
187.4286726123326
 20
44.38826206697627
 30
0.0
 11
189.196439565299
 21
45.40888279313592
 31
0.0
  0
ELLIPSE
  5
24D
330
1A8
100
AcDbEntity
  8
DV4_0
 62
     7
370
    35
100
AcDbEllipse
 10
188.8428861747057
 20
45.61300693836786
 30
0.0
 11
0.2500000000000011
 21
-0.4330127018922204
 31
0.0
210
0.0
220
0.0
230
0.9999999999999999
 40
0.5773502691896325
 41
0.7853981633974509
 42
2.35619449019235
  0
LINE
  5
24E
330
1A8
100
AcDbEntity
  8
DV4_0
 62
     7
370
    35
100
AcDbLine
 10
187.0751192217394
 20
45.00063450267207
 30
0.0
 11
177.1308840266837
 21
50.7419413694224
 31
0.0
  0
LINE
  5
24F
330
1A8
100
AcDbEntity
  8
DV4_0
 62
     7
370
    25
100
AcDbLine
 10
187.0751192217394
 20
45.00063450267207
 30
0.0
 11
188.8428861747057
 21
46.02125522883173
 31
0.0
  0
LINE
  5
250
330
1A8
100
AcDbEntity
  8
DV4_0
 62
     7
370
    35
100
AcDbLine
 10
188.8428861747057
 20
46.02125522883173
 30
0.0
 11
178.8986509796501
 21
51.76256209558206
 31
0.0
  0
ELLIPSE
  5
251
330
1A8
100
AcDbEntity
  8
DV4_0
 62
     7
370
    35
100
AcDbEllipse
 10
177.130884026684
 20
49.51719649802766
 30
0.0
 11
-0.7500000000001839
 21
1.299038105679998
 31
0.0
210
0.0
220
0.0
230
1.0
 40
0.5773502691894931
 41
5.235987755984018
 42
5.759586531582229
  0
LINE
  5
252
330
1A8
100
AcDbEntity
  8
DV4_0
 62
     7
370
    25
100
AcDbLine
 10
177.1308840266837
 20
50.74194136942241
 30
0.0
 11
178.8986509796501
 21
51.76256209558206
 31
0.0
  0
ELLIPSE
  5
253
330
1A8
100
AcDbEntity
  8
DV4_0
 62
     7
370
    35
100
AcDbEllipse
 10
178.8986509796504
 20
50.53781722418725
 30
0.0
 11
-0.7500000000002232
 21
1.299038105680065
 31
0.0
210
0.0
220
0.0
230
1.0
 40
0.5773502691894336
 41
5.235987755984009
 42
5.75958653158227
  0
LINE
  5
254
330
1A8
100
AcDbEntity
  8
DV4_0
 62
     7
370
    35
100
AcDbLine
 10
176.8563649738454
 20
50.85870284897693
 30
0.0
 11
175.202577446148
 21
51.3018338814761
 31
0.0
  0
LINE
  5
255
330
1A8
100
AcDbEntity
  8
DV4_0
 62
     7
370
    25
100
AcDbLine
 10
176.8563649738454
 20
50.85870284897693
 30
0.0
 11
178.6241319268117
 21
51.87932357513657
 31
0.0
  0
LINE
  5
256
330
1A8
100
AcDbEntity
  8
DV4_0
 62
     7
370
    35
100
AcDbLine
 10
178.6241319268117
 20
51.87932357513657
 30
0.0
 11
176.5915022946411
 21
52.42396504358827
 31
0.0
  0
LINE
  5
257
330
1A8
100
AcDbEntity
  8
DV4_0
 62
     7
370
    35
100
AcDbLine
 10
198.0142061828662
 20
76.72593695203307
 30
0.0
 11
198.0427452033054
 21
76.58647385549014
 31
0.0
  0
LINE
  5
258
330
1A8
100
AcDbEntity
  8
DV4_0
 62
     7
370
    35
100
AcDbLine
 10
199.7819731358326
 20
77.74655767819272
 30
0.0
 11
198.0142061828662
 21
76.72593695203307
 31
0.0
  0
LINE
  5
259
330
1A8
100
AcDbEntity
  8
DV4_0
 62
     7
370
    35
100
AcDbLine
 10
198.1986853109812
 20
76.67650591863426
 30
0.0
 11
198.0142061828662
 21
76.72593695203307
 31
0.0
  0
LINE
  5
25A
330
1A8
100
AcDbEntity
  8
DV4_0
 62
     7
370
    35
100
AcDbLine
 10
199.9664522639476
 20
77.69712664479393
 30
0.0
 11
199.7819731358326
 21
77.74655767819273
 31
0.0
  0
ENDBLK
  5
25C
330
1A8
100
AcDbEntity
  8
0
100
AcDbBlockEnd
  0
BLOCK
  5
266
330
25D
100
AcDbEntity
  8
0
100
AcDbBlockBegin
  2
GDimGGroup
 70
     0
 10
0.0
 20
0.0
 30
0.0
  3
GDimGGroup
  1

  0
LWPOLYLINE
  5
25F
330
25D
100
AcDbEntity
  8
Default
 62
     7
370
    25
100
AcDbPolyline
 90
        4
 70
     0
 43
0.0
 10
27.44363424181222
 20
162.3882146900214
 10
27.44363424181222
 20
161.388214681329
 10
24.44363421573518
 20
161.8882146856752
 10
27.44363424181222
 20
162.3882146900214
  0
LWPOLYLINE
  5
260
330
25D
100
AcDbEntity
  8
Default
 62
     7
370
    25
100
AcDbPolyline
 90
        4
 70
     0
 43
0.0
 10
122.4436377063322
 20
162.3882146900214
 10
122.4436377063322
 20
161.388214681329
 10
125.4436377324092
 20
161.8882146856752
 10
122.4436377063322
 20
162.3882146900214
  0
LINE
  5
261
330
25D
100
AcDbEntity
  8
Default
 62
     7
370
    25
100
AcDbLine
 10
24.44363421573518
 20
131.4961956075397
 30
0.0
 11
24.44363421573518
 21
163.3882146987137
 31
0.0
  0
LINE
  5
262
330
25D
100
AcDbEntity
  8
Default
 62
     7
370
    25
100
AcDbLine
 10
125.4436342157352
 20
131.4961956075397
 30
0.0
 11
125.4436342157352
 21
163.3882146987137
 31
0.0
  0
LINE
  5
263
330
25D
100
AcDbEntity
  8
Default
 62
     7
370
    25
100
AcDbLine
 10
24.44363421573518
 20
161.8882146856752
 30
0.0
 11
125.4436377324092
 21
161.8882146856752
 31
0.0
  0
TEXT
  5
265
330
25D
100
AcDbEntity
  8
Default
 62
     7
370
    25
100
AcDbText
 10
70.24798380015916
 20
162.6382146856752
 30
0.0
 40
3.0
  1
2020
  7
SEACAD_Solid_Edge_ANSI
 11
70.24798380015916
 21
165.6382146856752
 31
0.0
100
AcDbText
 73
     3
  0
ENDBLK
  5
267
330
25D
100
AcDbEntity
  8
0
100
AcDbBlockEnd
  0
BLOCK
  5
270
330
268
100
AcDbEntity
  8
0
100
AcDbBlockBegin
  2
GDimGGroup1
 70
     0
 10
0.0
 20
0.0
 30
0.0
  3
GDimGGroup1
  1

  0
LWPOLYLINE
  5
26A
330
268
100
AcDbEntity
  8
Default
 62
     7
370
    25
100
AcDbPolyline
 90
        4
 70
     0
 43
0.0
 10
238.2200397926618
 20
128.4961955814627
 10
237.2200397839695
 20
128.4961955814627
 10
237.7200397883157
 20
131.4961956075397
 10
238.2200397926618
 20
128.4961955814627
  0
LWPOLYLINE
  5
26B
330
268
100
AcDbEntity
  8
Default
 62
     7
370
    25
100
AcDbPolyline
 90
        4
 70
     0
 43
0.0
 10
238.2200397926618
 20
111.7461960955527
 10
237.2200397839695
 20
111.7461960955527
 10
237.7200397883157
 20
108.7461960694757
 10
238.2200397926618
 20
111.7461960955527
  0
LINE
  5
26C
330
268
100
AcDbEntity
  8
Default
 62
     7
370
    25
100
AcDbLine
 10
217.9002474282483
 20
131.4961956075397
 30
0.0
 11
239.2200398013542
 21
131.4961956075397
 31
0.0
  0
LINE
  5
26D
330
268
100
AcDbEntity
  8
Default
 62
     7
370
    25
100
AcDbLine
 10
217.9002474282483
 20
108.7461956075397
 30
0.0
 11
239.2200398013542
 21
108.7461956075397
 31
0.0
  0
LINE
  5
26E
330
268
100
AcDbEntity
  8
Default
 62
     7
370
    25
100
AcDbLine
 10
237.7200397883157
 20
131.4961956075397
 30
0.0
 11
237.7200397883157
 21
108.7461960694757
 31
0.0
  0
TEXT
  5
26F
330
268
100
AcDbEntity
  8
Default
 62
     7
370
    25
100
AcDbText
 10
236.9700397883157
 20
116.5994567080729
 30
0.0
 40
3.0
  1
455
 50
90.0
  7
SEACAD_Solid_Edge_ANSI
 11
233.9700397883157
 21
116.5994567080729
 31
0.0
100
AcDbText
 73
     3
  0
ENDBLK
  5
271
330
268
100
AcDbEntity
  8
0
100
AcDbBlockEnd
  0
BLOCK
  5
27A
330
272
100
AcDbEntity
  8
0
100
AcDbBlockBegin
  2
GDimGGroup2
 70
     0
 10
0.0
 20
0.0
 30
0.0
  3
GDimGGroup2
  1

  0
LWPOLYLINE
  5
274
330
272
100
AcDbEntity
  8
Default
 62
     7
370
    25
100
AcDbPolyline
 90
        4
 70
     0
 43
0.0
 10
169.3219244050383
 20
148.0022230992986
 10
170.3219244137306
 20
148.0022230992986
 10
169.8219244093845
 20
151.0022231253756
 10
169.3219244050383
 20
148.0022230992986
  0
LWPOLYLINE
  5
275
330
272
100
AcDbEntity
  8
Default
 62
     7
370
    25
100
AcDbPolyline
 90
        4
 70
     0
 43
0.0
 10
169.3219244050383
 20
111.7461956913544
 10
170.3219244137306
 20
111.7461956913544
 10
169.8219244093845
 20
108.7461956652773
 10
169.3219244050383
 20
111.7461956913544
  0
LINE
  5
276
330
272
100
AcDbEntity
  8
Default
 62
     7
370
    25
100
AcDbLine
 10
192.3811890841672
 20
151.0022231253756
 30
0.0
 11
168.3219243963459
 21
151.0022231253756
 31
0.0
  0
LINE
  5
277
330
272
100
AcDbEntity
  8
Default
 62
     7
370
    25
100
AcDbLine
 10
177.9002474282483
 20
108.7461956075397
 30
0.0
 11
168.321924396346
 21
108.7461956075397
 31
0.0
  0
LINE
  5
278
330
272
100
AcDbEntity
  8
Default
 62
     7
370
    25
100
AcDbLine
 10
169.8219244093845
 20
151.0022231253756
 30
0.0
 11
169.8219244093845
 21
108.7461956652773
 31
0.0
  0
TEXT
  5
279
330
272
100
AcDbEntity
  8
Default
 62
     7
370
    25
100
AcDbText
 10
169.0719244093845
 20
126.3524702648917
 30
0.0
 40
3.0
  1
845
 50
90.0
  7
SEACAD_Solid_Edge_ANSI
 11
166.0719244093845
 21
126.3524702648917
 31
0.0
100
AcDbText
 73
     3
  0
ENDBLK
  5
27B
330
272
100
AcDbEntity
  8
0
100
AcDbBlockEnd
  0
BLOCK
  5
284
330
27C
100
AcDbEntity
  8
0
100
AcDbBlockBegin
  2
GDimGGroup3
 70
     0
 10
0.0
 20
0.0
 30
0.0
  3
GDimGGroup3
  1

  0
LWPOLYLINE
  5
27E
330
27C
100
AcDbEntity
  8
Default
 62
     7
370
    25
100
AcDbPolyline
 90
        4
 70
     0
 43
0.0
 10
141.8608646175442
 20
40.81602484702028
 10
140.8608646088519
 20
40.81602484702028
 10
141.360864613198
 20
37.81602482094325
 10
141.8608646175442
 20
40.81602484702028
  0
LWPOLYLINE
  5
27F
330
27C
100
AcDbEntity
  8
Default
 62
     7
370
    25
100
AcDbPolyline
 90
        4
 70
     0
 43
0.0
 10
141.8608646175442
 20
74.81602390079654
 10
140.8608646088519
 20
74.81602390079654
 10
141.360864613198
 20
77.81602392687357
 10
141.8608646175442
 20
74.81602390079654
  0
LINE
  5
280
330
27C
100
AcDbEntity
  8
Default
 62
     7
370
    25
100
AcDbLine
 10
125.4436342157352
 20
37.81602482094325
 30
0.0
 11
142.8608646262365
 21
37.81602482094325
 31
0.0
  0
LINE
  5
281
330
27C
100
AcDbEntity
  8
Default
 62
     7
370
    25
100
AcDbLine
 10
125.4436342157352
 20
77.81602482094324
 30
0.0
 11
142.8608646262365
 21
77.81602482094324
 31
0.0
  0
LINE
  5
282
330
27C
100
AcDbEntity
  8
Default
 62
     7
370
    25
100
AcDbLine
 10
141.360864613198
 20
37.81602482094325
 30
0.0
 11
141.360864613198
 21
77.81602392687358
 31
0.0
  0
TEXT
  5
283
330
27C
100
AcDbEntity
  8
Default
 62
     7
370
    25
100
AcDbText
 10
140.610864613198
 20
54.29428524347364
 30
0.0
 40
3.0
  1
800
 50
90.0
  7
SEACAD_Solid_Edge_ANSI
 11
137.610864613198
 21
54.29428524347364
 31
0.0
100
AcDbText
 73
     3
  0
ENDBLK
  5
285
330
27C
100
AcDbEntity
  8
0
100
AcDbBlockEnd
  0
BLOCK
  5
293
330
28D
100
AcDbEntity
  8
0
100
AcDbBlockBegin
  2
SEANNOT_GROUP
 70
     0
 10
0.0
 20
0.0
 30
0.0
  3
SEANNOT_GROUP
  1

  0
TEXT
  5
28F
330
28D
100
AcDbEntity
  8
Predeterminado
 62
     7
370
     5
100
AcDbText
 10
291.0487110700109
 20
14.25425842492689
 30
0.0
 40
1.5
  1
V 
 50
90.0
  7
SEACAD_Solid_Edge_ANSI
 11
289.5487110700109
 21
14.25425842492689
 31
0.0
100
AcDbText
 73
     3
  0
TEXT
  5
290
330
28D
100
AcDbEntity
  8
Predeterminado
 62
     7
370
     5
100
AcDbText
 10
291.0487110700109
 20
16.16675842492689
 30
0.0
 40
1.5
  1
01
 50
90.0
  7
SEACAD_Solid_Edge_ANSI
 11
289.5487110700109
 21
16.16675842492689
 31
0.0
100
AcDbText
 73
     3
  0
TEXT
  5
291
330
28D
100
AcDbEntity
  8
Predeterminado
 62
     7
370
     5
100
AcDbText
 10
291.0487110700109
 20
18.22925842492689
 30
0.0
 40
1.5
  1
 
 50
90.0
  7
SEACAD_Solid_Edge_ANSI
 11
289.5487110700109
 21
18.22925842492689
 31
0.0
100
AcDbText
 73
     3
  0
TEXT
  5
292
330
28D
100
AcDbEntity
  8
Predeterminado
 62
     7
370
     5
100
AcDbText
 10
291.0487110700109
 20
18.75425842492689
 30
0.0
 40
1.5
  1
03/11/2015
 50
90.0
  7
SEACAD_Solid_Edge_ANSI
 11
289.5487110700109
 21
18.75425842492689
 31
0.0
100
AcDbText
 73
     3
  0
ENDBLK
  5
294
330
28D
100
AcDbEntity
  8
0
100
AcDbBlockEnd
  0
BLOCK
  5
29A
330
297
100
AcDbEntity
  8
0
100
AcDbBlockBegin
  2
SEANNOT_GROUP1
 70
     0
 10
0.0
 20
0.0
 30
0.0
  3
SEANNOT_GROUP1
  1

  0
TEXT
  5
299
330
297
100
AcDbEntity
  8
Predeterminado
 62
     7
370
     5
100
AcDbText
 10
142.4551905637284
 20
190.8725958935368
 30
0.0
 40
6.0
  1
Arq
  7
SEACAD_Solid_Edge_ANSI
 11
142.4551905637284
 21
196.8725958935368
 31
0.0
100
AcDbText
 73
     3
  0
ENDBLK
  5
29B
330
297
100
AcDbEntity
  8
0
100
AcDbBlockEnd
  0
BLOCK
  5
29F
330
29C
100
AcDbEntity
  8
0
100
AcDbBlockBegin
  2
SEANNOT_GROUP2
 70
     0
 10
0.0
 20
0.0
 30
0.0
  3
SEANNOT_GROUP2
  1

  0
TEXT
  5
29E
330
29C
100
AcDbEntity
  8
Predeterminado
 62
     7
370
     5
100
AcDbText
 10
149.5065747400854
 20
185.1713686832564
 30
0.0
 40
3.0
  1
UM384
  7
SEACAD_Solid_Edge_ANSI
 11
149.5065747400854
 21
188.1713686832564
 31
0.0
100
AcDbText
 73
     3
  0
ENDBLK
  5
2A0
330
29C
100
AcDbEntity
  8
0
100
AcDbBlockEnd
  0
ENDSEC
  0
SECTION
  2
ENTITIES
  0
INSERT
  5
70
330
1F
100
AcDbEntity
  8
Default
100
AcDbBlockReference
  2
SE
 10
0.0
 20
0.0
 30
0.0
  0
INSERT
  5
F9
330
1F
100
AcDbEntity
  8
Default
100
AcDbBlockReference
  2
SE1
 10
0.0
 20
0.0
 30
0.0
  0
INSERT
  5
122
330
1F
100
AcDbEntity
  8
Default
100
AcDbBlockReference
  2
SE2
 10
0.0
 20
0.0
 30
0.0
  0
INSERT
  5
1A9
330
1F
100
AcDbEntity
  8
Default
100
AcDbBlockReference
  2
SE3
 10
0.0
 20
0.0
 30
0.0
  0
INSERT
  5
25E
330
1F
100
AcDbEntity
  8
Default
100
AcDbBlockReference
  2
GDimGGroup
 10
0.0
 20
0.0
 30
0.0
  0
INSERT
  5
269
330
1F
100
AcDbEntity
  8
Default
100
AcDbBlockReference
  2
GDimGGroup1
 10
0.0
 20
0.0
 30
0.0
  0
INSERT
  5
273
330
1F
100
AcDbEntity
  8
Default
100
AcDbBlockReference
  2
GDimGGroup2
 10
0.0
 20
0.0
 30
0.0
  0
INSERT
  5
27D
330
1F
100
AcDbEntity
  8
Default
100
AcDbBlockReference
  2
GDimGGroup3
 10
0.0
 20
0.0
 30
0.0
  0
LINE
  5
287
330
1F
100
AcDbEntity
  8
Predeterminado
 62
     7
370
    35
100
AcDbLine
 10
11.28870202951687
 20
8.596433905172951
 30
0.0
 11
11.28870202951684
 21
201.9479713239704
 31
0.0
  0
LINE
  5
288
330
1F
100
AcDbEntity
  8
Predeterminado
 62
     7
370
    35
100
AcDbLine
 10
11.28870202951687
 20
8.596433905172951
 30
0.0
 11
288.2887020295169
 21
8.596433905172969
 31
0.0
  0
LINE
  5
289
330
1F
100
AcDbEntity
  8
Predeterminado
 62
     7
370
    35
100
AcDbLine
 10
191.2887020295167
 20
201.9479713239704
 30
0.0
 11
11.28870202951683
 21
201.9479713239704
 31
0.0
  0
LINE
  5
28A
330
1F
100
AcDbEntity
  8
Predeterminado
 62
     7
370
    35
100
AcDbLine
 10
288.2887020295169
 20
201.9479713239704
 30
0.0
 11
11.28870202951691
 21
201.9479713239704
 31
0.0
  0
LINE
  5
28B
330
1F
100
AcDbEntity
  8
Predeterminado
 62
     7
370
    35
100
AcDbLine
 10
11.28870202951684
 20
181.9479713239704
 30
0.0
 11
288.2887020295169
 21
181.9479713239704
 31
0.0
  0
LINE
  5
28C
330
1F
100
AcDbEntity
  8
Predeterminado
 62
     7
370
    35
100
AcDbLine
 10
288.2887020295169
 20
201.9479713239704
 30
0.0
 11
288.2887020295169
 21
8.596433905173
 31
0.0
  0
INSERT
  5
28E
330
1F
100
AcDbEntity
  8
Predeterminado
100
AcDbBlockReference
  2
SEANNOT_GROUP
 10
0.0
 20
0.0
 30
0.0
  0
LINE
  5
295
330
1F
100
AcDbEntity
  8
Predeterminado
 62
     7
370
    35
100
AcDbLine
 10
89.91055911737307
 20
185.9479713239704
 30
0.0
 11
89.91055911737307
 21
197.9479713239704
 31
0.0
  0
LINE
  5
296
330
1F
100
AcDbEntity
  8
Predeterminado
 62
     7
370
    35
100
AcDbLine
 10
199.9105591173731
 20
185.9479713239704
 30
0.0
 11
199.9105591173731
 21
197.9479713239704
 31
0.0
  0
INSERT
  5
298
330
1F
100
AcDbEntity
  8
Predeterminado
100
AcDbBlockReference
  2
SEANNOT_GROUP1
 10
0.0
 20
0.0
 30
0.0
  0
INSERT
  5
29D
330
1F
100
AcDbEntity
  8
Predeterminado
100
AcDbBlockReference
  2
SEANNOT_GROUP2
 10
0.0
 20
0.0
 30
0.0
  0
MTEXT
  5
2A2
102
{ACAD_XDICTIONARY
360
2EA
102
}
330
1F
100
AcDbEntity
  8
D
100
AcDbMText
 10
30.51445010131163
 20
199.4630352844171
 30
0.0
 40
6.500000000000001
 41
45.70995606879774
 71
     1
 72
     1
  1
{\C7;BENITO}\P{\fArial|b1|i0|c0|p34;\C7;–}{\C7;Urban}\P
 73
     1
 44
1.0
1001
ACAD
1000
ACAD_MTEXT_DEFINED_HEIGHT_BEGIN
1070
    46
1040
21.60001000000001
1000
ACAD_MTEXT_DEFINED_HEIGHT_END
  0
MTEXT
  5
2A3
330
1F
100
AcDbEntity
  8
Predeterminado
100
AcDbMText
 10
229.9135975724114
 20
195.9475188821595
 30
0.0
 40
3.0
 41
38.610011
 71
     1
 72
     1
  1
{\fSolid Edge ANSI|b0||i0||c0|p34;\C7;\H3.;\W1.;T +34 938 521 000\P}{\fSolid Edge ANSI|b0||i0||c0|p34;\C7;\H3.;\W1.;www.benito.com\P}
 73
     1
 44
1.0
1001
ACAD
1000
ACAD_MTEXT_DEFINED_HEIGHT_BEGIN
1070
    46
1040
10.80001
1000
ACAD_MTEXT_DEFINED_HEIGHT_END
  0
MTEXT
  5
2A4
330
1F
100
AcDbEntity
  8
Predeterminado
100
AcDbMText
 10
238.6065149365715
 20
7.329097306594801
 30
0.0
 40
2.0
 41
54.23001100000002
 71
     1
 72
     1
  1
{\fSolid Edge ANSI|b0||i0||c0|p34;\C7;\H2.;\W1.;BENITO –Urban –Light –Play –Covers}
 73
     1
 44
1.0
1001
ACAD
1000
ACAD_MTEXT_DEFINED_HEIGHT_BEGIN
1070
    46
1040
3.60001
1000
ACAD_MTEXT_DEFINED_HEIGHT_END
  0
ENDSEC
  0
SECTION
  2
OBJECTS
  0
DICTIONARY
  5
C
330
0
100
AcDbDictionary
281
     1
  3
ACAD_GROUP
350
D
  3
ACAD_LAYOUT
350
1A
  3
ACAD_MATERIAL
350
43
  3
ACAD_MLEADERSTYLE
350
6B
  3
ACAD_MLINESTYLE
350
17
  3
ACAD_PLOTSETTINGS
350
19
  3
ACAD_PLOTSTYLENAME
350
E
  3
ACAD_SCALELIST
350
47
  3
ACAD_TABLESTYLE
350
69
  3
ACAD_VISUALSTYLE
350
2A
  3
ACDB_RECOMPOSE_DATA
350
327
  3
AcDbVariableDictionary
350
2A5
  3
DWGPROPS
350
2E9
  0
DICTIONARY
  5
2EC
330
8
100
AcDbDictionary
280
     1
281
     1
  3
ACAD_XREC_ROUNDTRIP
360
2ED
  0
DICTIONARY
  5
2EA
330
2A2
100
AcDbDictionary
280
     1
281
     1
  3
ACAD_MTEXT_RT
360
2EB
  0
DICTIONARY
  5
D
102
{ACAD_REACTORS
330
C
102
}
330
C
100
AcDbDictionary
281
     1
  0
DICTIONARY
  5
1A
102
{ACAD_REACTORS
330
C
102
}
330
C
100
AcDbDictionary
281
     1
  3
Layout1
350
1E
  3
Model
350
22
  0
DICTIONARY
  5
43
102
{ACAD_REACTORS
330
C
102
}
330
C
100
AcDbDictionary
281
     1
  3
ByBlock
350
45
  3
ByLayer
350
44
  3
Global
350
46
  0
DICTIONARY
  5
6B
102
{ACAD_REACTORS
330
C
102
}
330
C
100
AcDbDictionary
281
     1
  3
Standard
350
6C
  0
DICTIONARY
  5
17
102
{ACAD_REACTORS
330
C
102
}
330
C
100
AcDbDictionary
281
     1
  3
Standard
350
18
  0
DICTIONARY
  5
19
102
{ACAD_REACTORS
330
C
102
}
330
C
100
AcDbDictionary
281
     1
  0
ACDBDICTIONARYWDFLT
  5
E
102
{ACAD_REACTORS
330
C
102
}
330
C
100
AcDbDictionary
281
     1
  3
Normal
350
F
100
AcDbDictionaryWithDefault
340
F
  0
DICTIONARY
  5
47
102
{ACAD_REACTORS
330
C
102
}
330
C
100
AcDbDictionary
281
     1
  3
A0
350
48
  3
A1
350
49
  3
A2
350
4A
  3
A3
350
4B
  3
A4
350
4C
  3
A5
350
4D
  3
A6
350
4E
  3
A7
350
4F
  3
A8
350
50
  3
A9
350
51
  3
B0
350
52
  3
B1
350
53
  3
B2
350
54
  3
B3
350
55
  3
B4
350
56
  3
B5
350
57
  3
B6
350
58
  3
B7
350
59
  3
B8
350
5A
  3
B9
350
5B
  3
C0
350
5C
  3
C1
350
5D
  3
C2
350
5E
  3
C3
350
5F
  3
C4
350
60
  3
C5
350
61
  3
C6
350
62
  3
C7
350
63
  3
C8
350
64
  3
C9
350
65
  3
D0
350
66
  3
D1
350
67
  3
D2
350
68
  0
DICTIONARY
  5
69
102
{ACAD_REACTORS
330
C
102
}
330
C
100
AcDbDictionary
281
     1
  3
Standard
350
6A
  0
DICTIONARY
  5
2A
102
{ACAD_REACTORS
330
C
102
}
330
C
100
AcDbDictionary
281
     1
  3
2dWireframe
350
2F
  3
Basic
350
32
  3
Brighten
350
36
  3
ColorChange
350
3A
  3
Conceptual
350
34
  3
Dim
350
35
  3
EdgeColorOff
350
3D
  3
Facepattern
350
39
  3
Flat
350
2B
  3
FlatWithEdges
350
2C
  3
Gouraud
350
2D
  3
GouraudWithEdges
350
2E
  3
Hidden
350
31
  3
JitterOff
350
3B
  3
Linepattern
350
38
  3
OverhangOff
350
3C
  3
Realistic
350
33
  3
Shaded
350
42
  3
Shaded with edges
350
41
  3
Shades of Gray
350
3E
  3
Sketchy
350
3F
  3
Thicken
350
37
  3
Wireframe
350
30
  3
X-Ray
350
40
  0
XRECORD
  5
327
102
{ACAD_REACTORS
330
C
102
}
330
C
100
AcDbXrecord
280
     1
 90
        1
330
2A2
  0
DICTIONARY
  5
2A5
102
{ACAD_REACTORS
330
C
102
}
330
C
100
AcDbDictionary
281
     1
  3
CANNOSCALE
350
2A6
  3
CMLEADERSTYLE
350
2DF
  3
CTABLESTYLE
350
2DE
  3
DIMASSOC
350
2E7
  3
HIDETEXT
350
2E8
  3
MSLTSCALE
350
2EE
  3
PSOLHEIGHT
350
2E6
  3
PSOLWIDTH
350
2E5
  3
SECTIONTHICKNESSINC
350
2E2
  3
XCLIPFRAME
350
2A7
  0
XRECORD
  5
2E9
102
{ACAD_REACTORS
330
C
102
}
330
C
100
AcDbXrecord
280
     1
  1
DWGPROPS COOKIE
  2

  3

  4

  6

  7

  8
acae2
  9

300
=
301
=
302
=
303
=
304
=
305
=
306
=
307
=
308
=
309
=
 40
0.0
 41
2459388.453630127
 42
2460427.513549097
  1

 90
        0
  0
XRECORD
  5
2ED
102
{ACAD_REACTORS
330
2EC
102
}
330
2EC
100
AcDbXrecord
280
     1
102
VTR_0.000_0.000_1.000_1.000_VISUALSTYLE
340
2F
102
VTR_0.000_0.000_1.000_1.000_GRIDDISPLAY
 70
     3
102
VTR_0.000_0.000_1.000_1.000_GRIDMAJOR
 70
     5
102
VTR_0.000_0.000_1.000_1.000_DEFAULTLIGHTING
280
     1
102
VTR_0.000_0.000_1.000_1.000_DEFAULTLIGHTINGTYPE
 70
     1
102
VTR_0.000_0.000_1.000_1.000_BRIGHTNESS
141
0.0
102
VTR_0.000_0.000_1.000_1.000_CONTRAST
142
0.0
  0
XRECORD
  5
2EB
102
{ACAD_REACTORS
330
2EA
102
}
330
2EA
100
AcDbXrecord
280
     1
 40
129076.0
  1
{\fSolid Edge ANSI|b1||i0||c0|p34;\C7;\H6.5;\W1.;\pxsa0.9538461538;BENITO\P}{\fSolid Edge ANSI|b1||i0||c0|p34;\C7;\H6.5;\W1.;\pxse1.;–Urban\P}
  0
LAYOUT
  5
1E
102
{ACAD_REACTORS
330
1A
102
}
330
1A
100
AcDbPlotSettings
  1

  2
none_device
  4

  6

 40
0.0
 41
0.0
 42
0.0
 43
0.0
 44
0.0
 45
0.0
 46
0.0
 47
0.0
 48
0.0
 49
0.0
140
0.0
141
0.0
142
1.0
143
1.0
 70
   688
 72
     1
 73
     0
 74
     5
  7

 75
    16
147
1.0
148
0.0
149
0.0
100
AcDbLayout
  1
Layout1
 70
     1
 71
     1
 10
0.0
 20
0.0
 11
297.0
 21
210.0
 12
0.0
 22
0.0
 32
0.0
 14
0.0
 24
0.0
 34
0.0
 15
297.0
 25
210.0
 35
0.0
146
0.0
 13
0.0
 23
0.0
 33
0.0
 16
1.0
 26
0.0
 36
0.0
 17
0.0
 27
1.0
 37
0.0
 76
     0
330
1B
  0
LAYOUT
  5
22
102
{ACAD_REACTORS
330
1A
102
}
330
1A
100
AcDbPlotSettings
  1

  2
none_device
  4
Letter_(8.50_x_11.00_Inches)
  6

 40
6.35
 41
6.35
 42
6.35000508
 43
6.35000508
 44
215.9
 45
279.4
 46
0.0
 47
0.0
 48
0.0
 49
0.0
140
0.0
141
0.0
142
1.0
143
1.0
 70
  1712
 72
     1
 73
     0
 74
     0
  7

 75
     0
147
1.0
148
0.0
149
0.0
100
AcDbLayout
  1
Model
 70
     1
 71
     0
 10
0.0
 20
0.0
 11
297.0
 21
210.0
 12
0.0
 22
0.0
 32
0.0
 14
0.0
 24
0.0
 34
0.0
 15
297.0
 25
210.0
 35
0.0
146
0.0
 13
0.0
 23
0.0
 33
0.0
 16
1.0
 26
0.0
 36
0.0
 17
0.0
 27
1.0
 37
0.0
 76
     0
330
1F
331
29
  0
MATERIAL
  5
45
102
{ACAD_REACTORS
330
43
102
}
102
{ACAD_XDICTIONARY
360
321
102
}
330
43
100
AcDbMaterial
  1
ByBlock
  0
MATERIAL
  5
44
102
{ACAD_REACTORS
330
43
102
}
102
{ACAD_XDICTIONARY
360
31F
102
}
330
43
100
AcDbMaterial
  1
ByLayer
  0
MATERIAL
  5
46
102
{ACAD_REACTORS
330
43
102
}
102
{ACAD_XDICTIONARY
360
323
102
}
330
43
100
AcDbMaterial
  1
Global
  0
MLEADERSTYLE
  5
6C
102
{ACAD_REACTORS
330
6B
102
}
102
{ACAD_XDICTIONARY
360
325
102
}
330
6B
100
AcDbMLeaderStyle
170
     2
171
     1
172
     0
 90
        2
 40
0.0
 41
0.0
173
     1
 91
-1056964608
340
14
 92
       -2
290
     1
 42
2.0
291
     1
 43
8.0
  3
Standard
341
0
 44
4.0
300

342
11
174
     1
178
     6
175
     1
176
     0
 93
-1056964608
 45
4.0
292
     0
297
     0
 46
4.0
343
0
 94
-1056964608
 47
1.0
 49
1.0
140
1.0
293
     1
141
0.0
294
     1
177
     0
142
1.0
295
     0
296
     0
143
3.75
1001
ACAD_MLEADERVER
1070
     2
  0
MLINESTYLE
  5
18
102
{ACAD_REACTORS
330
17
102
}
330
17
100
AcDbMlineStyle
  2
Standard
 70
     0
  3

 62
   256
 51
90.0
 52
90.0
 71
     2
 49
0.5
 62
   256
  6
BYLAYER
 49
-0.5
 62
   256
  6
BYLAYER
  0
ACDBPLACEHOLDER
  5
F
102
{ACAD_REACTORS
330
E
102
}
330
E
  0
SCALE
  5
48
102
{ACAD_REACTORS
330
47
102
}
330
47
100
AcDbScale
 70
     0
300
1:1
140
1.0
141
1.0
290
     1
  0
SCALE
  5
49
102
{ACAD_REACTORS
330
47
102
}
330
47
100
AcDbScale
 70
     0
300
1:2
140
1.0
141
2.0
290
     0
  0
SCALE
  5
4A
102
{ACAD_REACTORS
330
47
102
}
330
47
100
AcDbScale
 70
     0
300
1:4
140
1.0
141
4.0
290
     0
  0
SCALE
  5
4B
102
{ACAD_REACTORS
330
47
102
}
330
47
100
AcDbScale
 70
     0
300
1:5
140
1.0
141
5.0
290
     0
  0
SCALE
  5
4C
102
{ACAD_REACTORS
330
47
102
}
330
47
100
AcDbScale
 70
     0
300
1:8
140
1.0
141
8.0
290
     0
  0
SCALE
  5
4D
102
{ACAD_REACTORS
330
47
102
}
330
47
100
AcDbScale
 70
     0
300
1:10
140
1.0
141
10.0
290
     0
  0
SCALE
  5
4E
102
{ACAD_REACTORS
330
47
102
}
330
47
100
AcDbScale
 70
     0
300
1:16
140
1.0
141
16.0
290
     0
  0
SCALE
  5
4F
102
{ACAD_REACTORS
330
47
102
}
330
47
100
AcDbScale
 70
     0
300
1:20
140
1.0
141
20.0
290
     0
  0
SCALE
  5
50
102
{ACAD_REACTORS
330
47
102
}
330
47
100
AcDbScale
 70
     0
300
1:30
140
1.0
141
30.0
290
     0
  0
SCALE
  5
51
102
{ACAD_REACTORS
330
47
102
}
330
47
100
AcDbScale
 70
     0
300
1:40
140
1.0
141
40.0
290
     0
  0
SCALE
  5
52
102
{ACAD_REACTORS
330
47
102
}
330
47
100
AcDbScale
 70
     0
300
1:50
140
1.0
141
50.0
290
     0
  0
SCALE
  5
53
102
{ACAD_REACTORS
330
47
102
}
330
47
100
AcDbScale
 70
     0
300
1:100
140
1.0
141
100.0
290
     0
  0
SCALE
  5
54
102
{ACAD_REACTORS
330
47
102
}
330
47
100
AcDbScale
 70
     0
300
2:1
140
2.0
141
1.0
290
     0
  0
SCALE
  5
55
102
{ACAD_REACTORS
330
47
102
}
330
47
100
AcDbScale
 70
     0
300
4:1
140
4.0
141
1.0
290
     0
  0
SCALE
  5
56
102
{ACAD_REACTORS
330
47
102
}
330
47
100
AcDbScale
 70
     0
300
8:1
140
8.0
141
1.0
290
     0
  0
SCALE
  5
57
102
{ACAD_REACTORS
330
47
102
}
330
47
100
AcDbScale
 70
     0
300
10:1
140
10.0
141
1.0
290
     0
  0
SCALE
  5
58
102
{ACAD_REACTORS
330
47
102
}
330
47
100
AcDbScale
 70
     0
300
100:1
140
100.0
141
1.0
290
     0
  0
SCALE
  5
59
102
{ACAD_REACTORS
330
47
102
}
330
47
100
AcDbScale
 70
     0
300
1/128" = 1'-0"
140
0.0078125
141
12.0
290
     0
  0
SCALE
  5
5A
102
{ACAD_REACTORS
330
47
102
}
330
47
100
AcDbScale
 70
     0
300
1/64" = 1'-0"
140
0.015625
141
12.0
290
     0
  0
SCALE
  5
5B
102
{ACAD_REACTORS
330
47
102
}
330
47
100
AcDbScale
 70
     0
300
1/32" = 1'-0"
140
0.03125
141
12.0
290
     0
  0
SCALE
  5
5C
102
{ACAD_REACTORS
330
47
102
}
330
47
100
AcDbScale
 70
     0
300
1/16" = 1'-0"
140
0.0625
141
12.0
290
     0
  0
SCALE
  5
5D
102
{ACAD_REACTORS
330
47
102
}
330
47
100
AcDbScale
 70
     0
300
3/32" = 1'-0"
140
0.09375
141
12.0
290
     0
  0
SCALE
  5
5E
102
{ACAD_REACTORS
330
47
102
}
330
47
100
AcDbScale
 70
     0
300
1/8" = 1'-0"
140
0.125
141
12.0
290
     0
  0
SCALE
  5
5F
102
{ACAD_REACTORS
330
47
102
}
330
47
100
AcDbScale
 70
     0
300
3/16" = 1'-0"
140
0.1875
141
12.0
290
     0
  0
SCALE
  5
60
102
{ACAD_REACTORS
330
47
102
}
330
47
100
AcDbScale
 70
     0
300
1/4" = 1'-0"
140
0.25
141
12.0
290
     0
  0
SCALE
  5
61
102
{ACAD_REACTORS
330
47
102
}
330
47
100
AcDbScale
 70
     0
300
3/8" = 1'-0"
140
0.375
141
12.0
290
     0
  0
SCALE
  5
62
102
{ACAD_REACTORS
330
47
102
}
330
47
100
AcDbScale
 70
     0
300
1/2" = 1'-0"
140
0.5
141
12.0
290
     0
  0
SCALE
  5
63
102
{ACAD_REACTORS
330
47
102
}
330
47
100
AcDbScale
 70
     0
300
3/4" = 1'-0"
140
0.75
141
12.0
290
     0
  0
SCALE
  5
64
102
{ACAD_REACTORS
330
47
102
}
330
47
100
AcDbScale
 70
     0
300
1" = 1'-0"
140
1.0
141
12.0
290
     0
  0
SCALE
  5
65
102
{ACAD_REACTORS
330
47
102
}
330
47
100
AcDbScale
 70
     0
300
1-1/2" = 1'-0"
140
1.5
141
12.0
290
     0
  0
SCALE
  5
66
102
{ACAD_REACTORS
330
47
102
}
330
47
100
AcDbScale
 70
     0
300
3" = 1'-0"
140
3.0
141
12.0
290
     0
  0
SCALE
  5
67
102
{ACAD_REACTORS
330
47
102
}
330
47
100
AcDbScale
 70
     0
300
6" = 1'-0"
140
6.0
141
12.0
290
     0
  0
SCALE
  5
68
102
{ACAD_REACTORS
330
47
102
}
330
47
100
AcDbScale
 70
     0
300
1'-0" = 1'-0"
140
12.0
141
12.0
290
     0
  0
TABLESTYLE
  5
6A
102
{ACAD_REACTORS
330
69
102
}
330
69
100
AcDbTableStyle
  3
Standard
 70
     0
 71
     0
 40
0.06
 41
0.06
280
     0
281
     0
  7
Standard
140
4.5
170
     2
 62
     0
 63
   257
283
     0
274
    -2
284
     1
 64
     0
275
    -2
285
     1
 65
     0
276
    -2
286
     1
 66
     0
277
    -2
287
     1
 67
     0
278
    -2
288
     1
 68
     0
279
    -2
289
     1
 69
     0
  7
Standard
140
6.0
170
     5
 62
     0
 63
   257
283
     0
274
    -2
284
     1
 64
     0
275
    -2
285
     1
 65
     0
276
    -2
286
     1
 66
     0
277
    -2
287
     1
 67
     0
278
    -2
288
     1
 68
     0
279
    -2
289
     1
 69
     0
  7
Standard
140
4.5
170
     5
 62
     0
 63
   257
283
     0
274
    -2
284
     1
 64
     0
275
    -2
285
     1
 65
     0
276
    -2
286
     1
 66
     0
277
    -2
287
     1
 67
     0
278
    -2
288
     1
 68
     0
279
    -2
289
     1
 69
     0
  0
VISUALSTYLE
  5
2F
102
{ACAD_REACTORS
330
2A
102
}
102
{ACAD_XDICTIONARY
360
2F7
102
}
330
2A
100
AcDbVisualStyle
  2
2dWireframe
 70
     4
 71
     0
 72
     2
 73
     0
 90
        0
 40
0.6
 41
30.0
 62
     5
 63
     7
 74
     1
 91
        4
 64
     7
 65
   257
 75
     1
175
     1
 42
1.0
 92
        0
 66
   257
 43
1.0
 76
     1
 77
     6
 78
     2
 67
     7
 79
     5
170
     0
171
     0
290
     0
174
     0
 93
        1
 44
0.0
173
     0
291
     0
 45
0.0
1001
ACAD
1000
AcDbSavedByObjectVersion
1070
     0
  0
VISUALSTYLE
  5
32
102
{ACAD_REACTORS
330
2A
102
}
102
{ACAD_XDICTIONARY
360
2FD
102
}
330
2A
100
AcDbVisualStyle
  2
Basic
 70
     7
 71
     1
 72
     0
 73
     1
 90
        0
 40
0.6
 41
30.0
 62
     5
 63
     7
 74
     0
 91
        4
 64
     7
 65
   257
 75
     1
175
     1
 42
1.0
 92
        8
 66
     7
 43
1.0
 76
     1
 77
     6
 78
     2
 67
     7
 79
     5
170
     0
171
     0
290
     0
174
     0
 93
        1
 44
0.0
173
     0
291
     1
 45
0.0
1001
ACAD
1000
AcDbSavedByObjectVersion
1070
     0
  0
VISUALSTYLE
  5
36
102
{ACAD_REACTORS
330
2A
102
}
102
{ACAD_XDICTIONARY
360
305
102
}
330
2A
100
AcDbVisualStyle
  2
Brighten
 70
    12
 71
     2
 72
     2
 73
     0
 90
        0
 40
0.6
 41
30.0
 62
     5
 63
     7
 74
     1
 91
        4
 64
     7
 65
   257
 75
     1
175
     1
 42
1.0
 92
        8
 66
     7
 43
1.0
 76
     1
 77
     6
 78
     2
 67
     7
 79
     5
170
     0
171
     0
290
     0
174
     0
 93
        1
 44
50.0
173
     0
291
     1
 45
0.0
1001
ACAD
1000
AcDbSavedByObjectVersion
1070
     0
  0
VISUALSTYLE
  5
3A
102
{ACAD_REACTORS
330
2A
102
}
102
{ACAD_XDICTIONARY
360
30D
102
}
330
2A
100
AcDbVisualStyle
  2
ColorChange
 70
    16
 71
     2
 72
     2
 73
     3
 90
        0
 40
0.6
 41
30.0
 62
     5
 63
     8
 74
     1
 91
        4
 64
     7
 65
   257
 75
     1
175
     1
 42
1.0
 92
        8
 66
     8
 43
1.0
 76
     1
 77
     6
 78
     2
 67
     7
 79
     5
170
     0
171
     0
290
     0
174
     0
 93
        1
 44
0.0
173
     0
291
     1
 45
0.0
1001
ACAD
1000
AcDbSavedByObjectVersion
1070
     0
  0
VISUALSTYLE
  5
34
102
{ACAD_REACTORS
330
2A
102
}
102
{ACAD_XDICTIONARY
360
301
102
}
330
2A
100
AcDbVisualStyle
  2
Conceptual
 70
     9
 71
     3
 72
     2
 73
     0
 90
        0
 40
0.6
 41
30.0
 62
     5
 63
     7
 74
     2
 91
        2
 64
     7
 65
   257
 75
     1
175
     1
 42
179.0
 92
        8
 66
     7
 43
1.0
 76
     1
 77
     6
 78
     2
 67
     7
 79
     3
170
     0
171
     0
290
     0
174
     0
 93
        1
 44
0.0
173
     0
291
     0
 45
0.0
1001
ACAD
1000
AcDbSavedByObjectVersion
1070
     0
  0
VISUALSTYLE
  5
35
102
{ACAD_REACTORS
330
2A
102
}
102
{ACAD_XDICTIONARY
360
303
102
}
330
2A
100
AcDbVisualStyle
  2
Dim
 70
    11
 71
     2
 72
     2
 73
     0
 90
        0
 40
0.6
 41
30.0
 62
     5
 63
     7
 74
     1
 91
        4
 64
     7
 65
   257
 75
     1
175
     1
 42
1.0
 92
        8
 66
     7
 43
1.0
 76
     1
 77
     6
 78
     2
 67
     7
 79
     5
170
     0
171
     0
290
     0
174
     0
 93
        1
 44
-50.0
173
     0
291
     1
 45
0.0
1001
ACAD
1000
AcDbSavedByObjectVersion
1070
     0
  0
VISUALSTYLE
  5
3D
102
{ACAD_REACTORS
330
2A
102
}
102
{ACAD_XDICTIONARY
360
313
102
}
330
2A
100
AcDbVisualStyle
  2
EdgeColorOff
 70
    22
 71
     2
 72
     2
 73
     0
 90
        0
 40
0.6
 41
30.0
 62
     5
 63
     7
 74
     1
 91
        4
 64
     7
 65
   257
 75
     1
175
     1
 42
1.0
 92
        8
 66
     7
 43
1.0
 76
     1
 77
     6
 78
     2
 67
     7
 79
     5
170
     0
171
     0
290
     0
174
     0
 93
        1
 44
0.0
173
     0
291
     1
 45
0.0
1001
ACAD
1000
AcDbSavedByObjectVersion
1070
     0
  0
VISUALSTYLE
  5
39
102
{ACAD_REACTORS
330
2A
102
}
102
{ACAD_XDICTIONARY
360
30B
102
}
330
2A
100
AcDbVisualStyle
  2
Facepattern
 70
    15
 71
     2
 72
     2
 73
     0
 90
        0
 40
0.6
 41
30.0
 62
     5
 63
     7
 74
     1
 91
        4
 64
     7
 65
   257
 75
     1
175
     1
 42
1.0
 92
        8
 66
     7
 43
1.0
 76
     1
 77
     6
 78
     2
 67
     7
 79
     5
170
     0
171
     0
290
     0
174
     0
 93
        1
 44
0.0
173
     0
291
     1
 45
0.0
1001
ACAD
1000
AcDbSavedByObjectVersion
1070
     0
  0
VISUALSTYLE
  5
2B
102
{ACAD_REACTORS
330
2A
102
}
102
{ACAD_XDICTIONARY
360
2EF
102
}
330
2A
100
AcDbVisualStyle
  2
Flat
 70
     0
 71
     2
 72
     1
 73
     1
 90
        2
 40
0.6
 41
30.0
 62
     5
 63
     7
 74
     0
 91
        0
 64
     7
 65
   257
 75
     1
175
     1
 42
1.0
 92
        8
 66
     7
 43
1.0
 76
     1
 77
     6
 78
     2
 67
     7
 79
     5
170
     0
171
     0
290
     0
174
     0
 93
       13
 44
0.0
173
     0
291
     1
 45
0.0
1001
ACAD
1000
AcDbSavedByObjectVersion
1070
     0
  0
VISUALSTYLE
  5
2C
102
{ACAD_REACTORS
330
2A
102
}
102
{ACAD_XDICTIONARY
360
2F1
102
}
330
2A
100
AcDbVisualStyle
  2
FlatWithEdges
 70
     1
 71
     2
 72
     1
 73
     1
 90
        2
 40
0.6
 41
30.0
 62
     5
 63
     7
 74
     1
 91
        0
 64
     7
 65
   257
 75
     1
175
     1
 42
1.0
 92
        0
 66
   257
 43
1.0
 76
     1
 77
     6
 78
     2
 67
     7
 79
     5
170
     0
171
     0
290
     0
174
     0
 93
       13
 44
0.0
173
     0
291
     1
 45
0.0
1001
ACAD
1000
AcDbSavedByObjectVersion
1070
     0
  0
VISUALSTYLE
  5
2D
102
{ACAD_REACTORS
330
2A
102
}
102
{ACAD_XDICTIONARY
360
2F3
102
}
330
2A
100
AcDbVisualStyle
  2
Gouraud
 70
     2
 71
     2
 72
     2
 73
     1
 90
        2
 40
0.6
 41
30.0
 62
     5
 63
     7
 74
     0
 91
        0
 64
     7
 65
   257
 75
     1
175
     1
 42
1.0
 92
        0
 66
     7
 43
1.0
 76
     1
 77
     6
 78
     2
 67
     7
 79
     5
170
     0
171
     0
290
     0
174
     0
 93
       13
 44
0.0
173
     0
291
     1
 45
0.0
1001
ACAD
1000
AcDbSavedByObjectVersion
1070
     0
  0
VISUALSTYLE
  5
2E
102
{ACAD_REACTORS
330
2A
102
}
102
{ACAD_XDICTIONARY
360
2F5
102
}
330
2A
100
AcDbVisualStyle
  2
GouraudWithEdges
 70
     3
 71
     2
 72
     2
 73
     1
 90
        2
 40
0.6
 41
30.0
 62
     5
 63
     7
 74
     1
 91
        0
 64
     7
 65
   257
 75
     1
175
     1
 42
1.0
 92
        0
 66
   257
 43
1.0
 76
     1
 77
     6
 78
     2
 67
     7
 79
     5
170
     0
171
     0
290
     0
174
     0
 93
       13
 44
0.0
173
     0
291
     1
 45
0.0
1001
ACAD
1000
AcDbSavedByObjectVersion
1070
     0
  0
VISUALSTYLE
  5
31
102
{ACAD_REACTORS
330
2A
102
}
102
{ACAD_XDICTIONARY
360
2FB
102
}
330
2A
100
AcDbVisualStyle
  2
Hidden
 70
     6
 71
     1
 72
     2
 73
     2
 90
        0
 40
0.6
 41
30.0
 62
     5
 63
     7
 74
     2
 91
        2
 64
     7
 65
   257
 75
     2
175
     1
 42
40.0
 92
        0
 66
   257
 43
1.0
 76
     1
 77
     6
 78
     2
 67
     7
 79
     3
170
     0
171
     0
290
     0
174
     0
 93
        1
 44
0.0
173
     0
291
     0
 45
0.0
1001
ACAD
1000
AcDbSavedByObjectVersion
1070
     0
  0
VISUALSTYLE
  5
3B
102
{ACAD_REACTORS
330
2A
102
}
102
{ACAD_XDICTIONARY
360
30F
102
}
330
2A
100
AcDbVisualStyle
  2
JitterOff
 70
    20
 71
     2
 72
     2
 73
     0
 90
        0
 40
0.6
 41
30.0
 62
     5
 63
     7
 74
     1
 91
        4
 64
     7
 65
   257
 75
     1
175
     1
 42
1.0
 92
       10
 66
     7
 43
1.0
 76
     1
 77
     6
 78
     2
 67
     7
 79
     5
170
     0
171
     0
290
     0
174
     0
 93
        1
 44
0.0
173
     0
291
     1
 45
0.0
1001
ACAD
1000
AcDbSavedByObjectVersion
1070
     0
  0
VISUALSTYLE
  5
38
102
{ACAD_REACTORS
330
2A
102
}
102
{ACAD_XDICTIONARY
360
309
102
}
330
2A
100
AcDbVisualStyle
  2
Linepattern
 70
    14
 71
     2
 72
     2
 73
     0
 90
        0
 40
0.6
 41
30.0
 62
     5
 63
     7
 74
     1
 91
        4
 64
     7
 65
   257
 75
     7
175
     7
 42
1.0
 92
        8
 66
     7
 43
1.0
 76
     1
 77
     6
 78
     2
 67
     7
 79
     5
170
     0
171
     0
290
     0
174
     0
 93
        1
 44
0.0
173
     0
291
     1
 45
0.0
1001
ACAD
1000
AcDbSavedByObjectVersion
1070
     0
  0
VISUALSTYLE
  5
3C
102
{ACAD_REACTORS
330
2A
102
}
102
{ACAD_XDICTIONARY
360
311
102
}
330
2A
100
AcDbVisualStyle
  2
OverhangOff
 70
    21
 71
     2
 72
     2
 73
     0
 90
        0
 40
0.6
 41
30.0
 62
     5
 63
     7
 74
     1
 91
        4
 64
     7
 65
   257
 75
     1
175
     1
 42
1.0
 92
        9
 66
     7
 43
1.0
 76
     1
 77
     6
 78
     2
 67
     7
 79
     5
170
     0
171
     0
290
     0
174
     0
 93
        1
 44
0.0
173
     0
291
     1
 45
0.0
1001
ACAD
1000
AcDbSavedByObjectVersion
1070
     0
  0
VISUALSTYLE
  5
33
102
{ACAD_REACTORS
330
2A
102
}
102
{ACAD_XDICTIONARY
360
2FF
102
}
330
2A
100
AcDbVisualStyle
  2
Realistic
 70
     8
 71
     2
 72
     3
 73
     0
 90
        2
 40
0.6
 41
30.0
 62
     5
 63
     7
 74
     0
 91
        0
 64
     7
 65
   257
 75
     1
175
     1
 42
1.0
 92
        8
 66
   257
 43
1.0
 76
     1
 77
     6
 78
     2
 67
     7
 79
     3
170
     0
171
     0
290
     0
174
     0
 93
       13
 44
0.0
173
     0
291
     0
 45
0.0
1001
ACAD
1000
AcDbSavedByObjectVersion
1070
     0
  0
VISUALSTYLE
  5
42
102
{ACAD_REACTORS
330
2A
102
}
102
{ACAD_XDICTIONARY
360
31D
102
}
330
2A
100
AcDbVisualStyle
  2
Shaded
 70
    27
 71
     2
 72
     2
 73
     1
 90
        2
 40
0.6
 41
30.0
 62
     5
 63
     7
 74
     0
 91
        4
 64
     7
 65
   257
 75
     1
175
     1
 42
1.0
 92
        8
 66
   257
 43
1.0
 76
     1
 77
     6
 78
     2
 67
     8
 79
     3
170
     0
171
     0
290
     0
174
     0
 93
        5
 44
0.0
173
     0
291
     0
 45
0.0
1001
ACAD
1000
AcDbSavedByObjectVersion
1070
     0
  0
VISUALSTYLE
  5
41
102
{ACAD_REACTORS
330
2A
102
}
102
{ACAD_XDICTIONARY
360
31B
102
}
330
2A
100
AcDbVisualStyle
  2
Shaded with edges
 70
    26
 71
     2
 72
     2
 73
     1
 90
        2
 40
0.6
 41
30.0
 62
     5
 63
     7
 74
     1
 91
       10
 64
     7
 65
   257
 75
     2
175
     1
 42
1.0
 92
        8
 66
   257
 43
1.0
 76
     1
 77
     6
 78
     2
 67
     7
 79
     3
170
     0
171
     0
290
     0
174
     0
 93
        5
 44
0.0
173
     0
291
     0
 45
0.0
1001
ACAD
1000
AcDbSavedByObjectVersion
1070
     0
  0
VISUALSTYLE
  5
3E
102
{ACAD_REACTORS
330
2A
102
}
102
{ACAD_XDICTIONARY
360
315
102
}
330
2A
100
AcDbVisualStyle
  2
Shades of Gray
 70
    23
 71
     2
 72
     2
 73
     3
 90
        0
 40
0.6
 41
30.0
 62
     5
 63
     7
 74
     2
 91
        2
 64
     7
 65
     7
 75
     1
175
     1
 42
40.0
 92
        8
 66
     7
 43
1.0
 76
     1
 77
     6
 78
     2
 67
     7
 79
     3
170
     0
171
     0
290
     0
174
     0
 93
        1
 44
0.0
173
     0
291
     0
 45
0.0
1001
ACAD
1000
AcDbSavedByObjectVersion
1070
     0
  0
VISUALSTYLE
  5
3F
102
{ACAD_REACTORS
330
2A
102
}
102
{ACAD_XDICTIONARY
360
317
102
}
330
2A
100
AcDbVisualStyle
  2
Sketchy
 70
    24
 71
     1
 72
     2
 73
     2
 90
        0
 40
0.6
 41
30.0
 62
     5
 63
     7
 74
     2
 91
        2
 64
     7
 65
     7
 75
     1
175
     1
 42
40.0
 92
       11
 66
     7
 43
1.0
 76
     1
 77
     6
 78
     2
 67
     7
 79
     6
170
     0
171
     0
290
     0
174
     0
 93
        1
 44
0.0
173
     0
291
     0
 45
0.0
1001
ACAD
1000
AcDbSavedByObjectVersion
1070
     0
  0
VISUALSTYLE
  5
37
102
{ACAD_REACTORS
330
2A
102
}
102
{ACAD_XDICTIONARY
360
307
102
}
330
2A
100
AcDbVisualStyle
  2
Thicken
 70
    13
 71
     2
 72
     2
 73
     0
 90
        0
 40
0.6
 41
30.0
 62
     5
 63
     7
 74
     1
 91
        4
 64
     7
 65
   257
 75
     1
175
     1
 42
1.0
 92
       12
 66
     7
 43
1.0
 76
     1
 77
     6
 78
     2
 67
     7
 79
     5
170
     0
171
     0
290
     0
174
     0
 93
        1
 44
0.0
173
     0
291
     1
 45
0.0
1001
ACAD
1000
AcDbSavedByObjectVersion
1070
     0
  0
VISUALSTYLE
  5
30
102
{ACAD_REACTORS
330
2A
102
}
102
{ACAD_XDICTIONARY
360
2F9
102
}
330
2A
100
AcDbVisualStyle
  2
Wireframe
 70
     5
 71
     0
 72
     2
 73
     0
 90
        0
 40
0.6
 41
30.0
 62
     5
 63
     7
 74
     1
 91
        4
 64
     7
 65
   257
 75
     1
175
     1
 42
1.0
 92
        0
 66
   257
 43
1.0
 76
     1
 77
     6
 78
     2
 67
     7
 79
     3
170
     0
171
     0
290
     0
174
     0
 93
        1
 44
0.0
173
     0
291
     0
 45
0.0
1001
ACAD
1000
AcDbSavedByObjectVersion
1070
     0
  0
VISUALSTYLE
  5
40
102
{ACAD_REACTORS
330
2A
102
}
102
{ACAD_XDICTIONARY
360
319
102
}
330
2A
100
AcDbVisualStyle
  2
X-Ray
 70
    25
 71
     2
 72
     2
 73
     1
 90
        1
 40
0.5
 41
30.0
 62
     5
 63
     7
 74
     1
 91
        0
 64
     7
 65
   257
 75
     1
175
     1
 42
1.0
 92
        8
 66
     7
 43
1.0
 76
     1
 77
     6
 78
     2
 67
     7
 79
     3
170
     0
171
     0
290
     0
174
     0
 93
       13
 44
0.0
173
     0
291
     0
 45
0.0
1001
ACAD
1000
AcDbSavedByObjectVersion
1070
     0
  0
DICTIONARYVAR
  5
2A6
102
{ACAD_REACTORS
330
2A5
102
}
330
2A5
100
DictionaryVariables
280
     0
  1
1:1
  0
DICTIONARYVAR
  5
2DF
102
{ACAD_REACTORS
330
2A5
102
}
330
2A5
100
DictionaryVariables
280
     0
  1
Standard
  0
DICTIONARYVAR
  5
2DE
102
{ACAD_REACTORS
330
2A5
102
}
330
2A5
100
DictionaryVariables
280
     0
  1
Standard
  0
DICTIONARYVAR
  5
2E7
102
{ACAD_REACTORS
330
2A5
102
}
330
2A5
100
DictionaryVariables
280
     0
  1
2
  0
DICTIONARYVAR
  5
2E8
102
{ACAD_REACTORS
330
2A5
102
}
330
2A5
100
DictionaryVariables
280
     0
  1
1
  0
DICTIONARYVAR
  5
2EE
102
{ACAD_REACTORS
330
2A5
102
}
330
2A5
100
DictionaryVariables
280
     0
  1
1
  0
DICTIONARYVAR
  5
2E6
102
{ACAD_REACTORS
330
2A5
102
}
330
2A5
100
DictionaryVariables
280
     0
  1
80.000000
  0
DICTIONARYVAR
  5
2E5
102
{ACAD_REACTORS
330
2A5
102
}
330
2A5
100
DictionaryVariables
280
     0
  1
5.000000
  0
DICTIONARYVAR
  5
2E2
102
{ACAD_REACTORS
330
2A5
102
}
330
2A5
100
DictionaryVariables
280
     0
  1
6.000000
  0
DICTIONARYVAR
  5
2A7
102
{ACAD_REACTORS
330
2A5
102
}
330
2A5
100
DictionaryVariables
280
     0
  1
2
  0
DICTIONARY
  5
321
330
45
100
AcDbDictionary
280
     1
281
     1
  3
ACAD_XREC_ROUNDTRIP
360
322
  0
DICTIONARY
  5
31F
330
44
100
AcDbDictionary
280
     1
281
     1
  3
ACAD_XREC_ROUNDTRIP
360
320
  0
DICTIONARY
  5
323
330
46
100
AcDbDictionary
280
     1
281
     1
  3
ACAD_XREC_ROUNDTRIP
360
324
  0
DICTIONARY
  5
325
330
6C
100
AcDbDictionary
280
     1
281
     1
  3
ACAD_XREC_ROUNDTRIP
360
326
  0
DICTIONARY
  5
2F7
330
2F
100
AcDbDictionary
280
     1
281
     1
  3
ACAD_XREC_ROUNDTRIP
360
2F8
  0
DICTIONARY
  5
2FD
330
32
100
AcDbDictionary
280
     1
281
     1
  3
ACAD_XREC_ROUNDTRIP
360
2FE
  0
DICTIONARY
  5
305
330
36
100
AcDbDictionary
280
     1
281
     1
  3
ACAD_XREC_ROUNDTRIP
360
306
  0
DICTIONARY
  5
30D
330
3A
100
AcDbDictionary
280
     1
281
     1
  3
ACAD_XREC_ROUNDTRIP
360
30E
  0
DICTIONARY
  5
301
330
34
100
AcDbDictionary
280
     1
281
     1
  3
ACAD_XREC_ROUNDTRIP
360
302
  0
DICTIONARY
  5
303
330
35
100
AcDbDictionary
280
     1
281
     1
  3
ACAD_XREC_ROUNDTRIP
360
304
  0
DICTIONARY
  5
313
330
3D
100
AcDbDictionary
280
     1
281
     1
  3
ACAD_XREC_ROUNDTRIP
360
314
  0
DICTIONARY
  5
30B
330
39
100
AcDbDictionary
280
     1
281
     1
  3
ACAD_XREC_ROUNDTRIP
360
30C
  0
DICTIONARY
  5
2EF
330
2B
100
AcDbDictionary
280
     1
281
     1
  3
ACAD_XREC_ROUNDTRIP
360
2F0
  0
DICTIONARY
  5
2F1
330
2C
100
AcDbDictionary
280
     1
281
     1
  3
ACAD_XREC_ROUNDTRIP
360
2F2
  0
DICTIONARY
  5
2F3
330
2D
100
AcDbDictionary
280
     1
281
     1
  3
ACAD_XREC_ROUNDTRIP
360
2F4
  0
DICTIONARY
  5
2F5
330
2E
100
AcDbDictionary
280
     1
281
     1
  3
ACAD_XREC_ROUNDTRIP
360
2F6
  0
DICTIONARY
  5
2FB
330
31
100
AcDbDictionary
280
     1
281
     1
  3
ACAD_XREC_ROUNDTRIP
360
2FC
  0
DICTIONARY
  5
30F
330
3B
100
AcDbDictionary
280
     1
281
     1
  3
ACAD_XREC_ROUNDTRIP
360
310
  0
DICTIONARY
  5
309
330
38
100
AcDbDictionary
280
     1
281
     1
  3
ACAD_XREC_ROUNDTRIP
360
30A
  0
DICTIONARY
  5
311
330
3C
100
AcDbDictionary
280
     1
281
     1
  3
ACAD_XREC_ROUNDTRIP
360
312
  0
DICTIONARY
  5
2FF
330
33
100
AcDbDictionary
280
     1
281
     1
  3
ACAD_XREC_ROUNDTRIP
360
300
  0
DICTIONARY
  5
31D
330
42
100
AcDbDictionary
280
     1
281
     1
  3
ACAD_XREC_ROUNDTRIP
360
31E
  0
DICTIONARY
  5
31B
330
41
100
AcDbDictionary
280
     1
281
     1
  3
ACAD_XREC_ROUNDTRIP
360
31C
  0
DICTIONARY
  5
315
330
3E
100
AcDbDictionary
280
     1
281
     1
  3
ACAD_XREC_ROUNDTRIP
360
316
  0
DICTIONARY
  5
317
330
3F
100
AcDbDictionary
280
     1
281
     1
  3
ACAD_XREC_ROUNDTRIP
360
318
  0
DICTIONARY
  5
307
330
37
100
AcDbDictionary
280
     1
281
     1
  3
ACAD_XREC_ROUNDTRIP
360
308
  0
DICTIONARY
  5
2F9
330
30
100
AcDbDictionary
280
     1
281
     1
  3
ACAD_XREC_ROUNDTRIP
360
2FA
  0
DICTIONARY
  5
319
330
40
100
AcDbDictionary
280
     1
281
     1
  3
ACAD_XREC_ROUNDTRIP
360
31A
  0
XRECORD
  5
322
102
{ACAD_REACTORS
330
321
102
}
330
321
100
AcDbXrecord
280
     1
102
MATERIAL
148
0.0
149
0.0
149
0.0
 93
        0
 94
      127
282
     0
 72
     1
 77
     1
171
     1
175
     1
179
     1
273
     0
  0
XRECORD
  5
320
102
{ACAD_REACTORS
330
31F
102
}
330
31F
100
AcDbXrecord
280
     1
102
MATERIAL
148
0.0
149
0.0
149
0.0
 93
        0
 94
      127
282
     0
 72
     1
 77
     1
171
     1
175
     1
179
     1
273
     0
  0
XRECORD
  5
324
102
{ACAD_REACTORS
330
323
102
}
330
323
100
AcDbXrecord
280
     1
102
MATERIAL
148
0.0
149
0.0
149
0.0
 93
        0
 94
      127
282
     0
 72
     1
 77
     1
171
     1
175
     1
179
     1
273
     0
  0
XRECORD
  5
326
102
{ACAD_REACTORS
330
325
102
}
330
325
100
AcDbXrecord
280
     1
102
ACAD_ROUNDTRIP_2010_MLEADER_STYLE
  0
XRECORD
  5
2F8
102
{ACAD_REACTORS
330
2F7
102
}
330
2F7
100
AcDbXrecord
280
     1
102
RTVSPropertyOp0
 70
     1
102
RTVSPropertyOp1
 70
     1
102
RTVSPropertyOp2
 70
     1
102
RTVSPropertyOp3
 70
     1
102
RTVSPropertyOp4
 70
     1
102
RTVSPropertyOp5
 70
     1
102
RTVSPropertyOp6
 70
     1
102
RTVSPropertyOp7
 70
     1
102
RTVSPropertyOp8
 70
     1
102
RTVSPropertyOp9
 70
     1
102
RTVSPropertyOp10
 70
     1
102
RTVSPropertyOp11
 70
     1
102
RTVSPropertyOp12
 70
     1
102
RTVSPropertyOp13
 70
     1
102
RTVSPropertyOp14
 70
     1
102
RTVSPropertyOp15
 70
     1
102
RTVSPropertyOp16
 70
     1
102
RTVSPropertyOp17
 70
     1
102
RTVSPropertyOp18
 70
     1
102
RTVSPropertyOp19
 70
     1
102
RTVSPropertyOp20
 70
     1
102
RTVSPropertyOp21
 70
     1
102
RTVSPropertyOp22
 70
     1
102
RTVSPropertyOp23
 70
     1
102
RTVSPropertyOp24
 70
     1
102
RTVSPropertyOp25
 70
     1
102
RTVSPropertyOp26
 70
     1
102
RTVSPropertyOp27
 70
     1
102
RTVSPropertyOp28
 70
     1
102
RTVSPropertyOp29
 70
     1
102
RTVSPropertyOp30
 70
     1
102
RTVSPropertyOp31
 70
     1
102
RTVSPropertyOp32
 70
     1
102
RTVSPropertyOp33
 70
     1
102
RTVSPropertyOp34
 70
     1
102
RTVSPropertyOp35
 70
     1
102
RTVSPropertyOp36
 70
     1
102
RTVSPropertyOp37
 70
     1
102
RTVSPropertyOp38
 70
     1
102
RTVSPropertyOp39
 70
     1
102
RTVSPropertyOp40
 70
     1
102
RTVSPropertyOp41
 70
     1
102
RTVSPropertyOp42
 70
     1
102
RTVSPropertyOp43
 70
     1
102
RTVSPropertyOp44
 70
     1
102
RTVSPropertyOp45
 70
     1
102
RTVSPropertyOp46
 70
     1
102
RTVSPropertyOp47
 70
     1
102
RTVSPropertyOp48
 70
     1
102
RTVSPropertyOp49
 70
     1
102
RTVSPropertyOp50
 70
     1
102
RTVSPropertyOp51
 70
     0
102
RTVSPropertyOp52
 70
     0
102
RTVSPropertyOp53
 70
     1
102
RTVSPropertyOp54
 70
     1
102
RTVSPropertyOp55
 70
     1
102
RTVSPropertyOp56
 70
     1
102
RTVSPropertyOp57
 70
     1
102
RTVSPost2010Prop28
280
     1
102
RTVSPost2010PropOp28
 70
     1
102
RTVSPost2010Prop29
280
     1
102
RTVSPost2010PropOp29
 70
     1
102
RTVSPost2010Prop30
280
     0
102
RTVSPost2010PropOp30
 70
     1
102
RTVSPost2010Prop31
280
     0
102
RTVSPost2010PropOp31
 70
     1
102
RTVSPost2010Prop32
280
     0
102
RTVSPost2010PropOp32
 70
     1
102
RTVSPost2010Prop33
280
     0
102
RTVSPost2010PropOp33
 70
     1
102
RTVSPost2010Prop34
280
     0
102
RTVSPost2010PropOp34
 70
     1
102
RTVSPost2010Prop35
280
     0
102
RTVSPost2010PropOp35
 70
     1
102
RTVSPost2010Prop36
280
     0
102
RTVSPost2010PropOp36
 70
     1
102
RTVSPost2010Prop37
 90
       50
102
RTVSPost2010PropOp37
 70
     1
102
RTVSPost2010Prop38
140
0.0
102
RTVSPost2010PropOp38
 70
     1
102
RTVSPost2010Prop39
140
1.0
102
RTVSPost2010PropOp39
 70
     1
102
RTVSPost2010Prop40
 90
        0
102
RTVSPost2010PropOp40
 70
     1
102
RTVSPost2010Prop41ColorIndex
 90
       18
102
RTVSPost2010Prop41ColorRGB
 90
        0
102
RTVSPost2010PropOp41
 70
     1
102
RTVSPost2010Prop42
 90
       50
102
RTVSPost2010PropOp42
 70
     1
102
RTVSPost2010Prop43
 90
        3
102
RTVSPost2010PropOp43
 70
     1
102
RTVSPost2010Prop44ColorIndex
 90
        5
102
RTVSPost2010Prop44ColorRGB
 90
      255
102
RTVSPost2010PropOp44
 70
     1
102
RTVSPost2010Prop45
280
     0
102
RTVSPost2010PropOp45
 70
     1
102
RTVSPost2010Prop46
 90
       50
102
RTVSPost2010PropOp46
 70
     1
102
RTVSPost2010Prop47
 90
       50
102
RTVSPost2010PropOp47
 70
     1
102
RTVSPost2010Prop48
 90
       50
102
RTVSPost2010PropOp48
 70
     1
102
RTVSPost2010Prop49
280
     0
102
RTVSPost2010PropOp49
 70
     1
102
RTVSPost2010Prop50
 90
       50
102
RTVSPost2010PropOp50
 70
     1
102
RTVSPost2010Prop51ColorIndex
 90
      256
102
RTVSPost2010Prop51ColorRGB
 90
-16777216
102
RTVSPost2010PropOp51
 70
     0
102
RTVSPost2010Prop52
140
1.0
102
RTVSPost2010PropOp52
 70
     0
102
RTVSPost2010Prop53
 90
        2
102
RTVSPost2010PropOp53
 70
     1
102
RTVSPost2010Prop54
  1
strokes_ogs.tif
102
RTVSPost2010PropOp54
 70
     1
102
RTVSPost2010Prop55
280
     0
102
RTVSPost2010PropOp55
 70
     1
102
RTVSPost2010Prop56
140
1.0
102
RTVSPost2010PropOp56
 70
     1
102
RTVSPost2010Prop57
140
1.0
102
RTVSPost2010PropOp57
 70
     1
  0
XRECORD
  5
2FE
102
{ACAD_REACTORS
330
2FD
102
}
330
2FD
100
AcDbXrecord
280
     1
102
RTVSPropertyOp0
 70
     1
102
RTVSPropertyOp1
 70
     1
102
RTVSPropertyOp2
 70
     1
102
RTVSPropertyOp3
 70
     1
102
RTVSPropertyOp4
 70
     1
102
RTVSPropertyOp5
 70
     1
102
RTVSPropertyOp6
 70
     1
102
RTVSPropertyOp7
 70
     1
102
RTVSPropertyOp8
 70
     1
102
RTVSPropertyOp9
 70
     1
102
RTVSPropertyOp10
 70
     1
102
RTVSPropertyOp11
 70
     1
102
RTVSPropertyOp12
 70
     1
102
RTVSPropertyOp13
 70
     1
102
RTVSPropertyOp14
 70
     1
102
RTVSPropertyOp15
 70
     1
102
RTVSPropertyOp16
 70
     1
102
RTVSPropertyOp17
 70
     1
102
RTVSPropertyOp18
 70
     1
102
RTVSPropertyOp19
 70
     1
102
RTVSPropertyOp20
 70
     1
102
RTVSPropertyOp21
 70
     1
102
RTVSPropertyOp22
 70
     1
102
RTVSPropertyOp23
 70
     1
102
RTVSPropertyOp24
 70
     1
102
RTVSPropertyOp25
 70
     1
102
RTVSPropertyOp26
 70
     1
102
RTVSPropertyOp27
 70
     1
102
RTVSPropertyOp28
 70
     1
102
RTVSPropertyOp29
 70
     1
102
RTVSPropertyOp30
 70
     1
102
RTVSPropertyOp31
 70
     1
102
RTVSPropertyOp32
 70
     1
102
RTVSPropertyOp33
 70
     1
102
RTVSPropertyOp34
 70
     1
102
RTVSPropertyOp35
 70
     1
102
RTVSPropertyOp36
 70
     1
102
RTVSPropertyOp37
 70
     1
102
RTVSPropertyOp38
 70
     1
102
RTVSPropertyOp39
 70
     1
102
RTVSPropertyOp40
 70
     1
102
RTVSPropertyOp41
 70
     1
102
RTVSPropertyOp42
 70
     1
102
RTVSPropertyOp43
 70
     1
102
RTVSPropertyOp44
 70
     1
102
RTVSPropertyOp45
 70
     1
102
RTVSPropertyOp46
 70
     1
102
RTVSPropertyOp47
 70
     1
102
RTVSPropertyOp48
 70
     1
102
RTVSPropertyOp49
 70
     1
102
RTVSPropertyOp50
 70
     1
102
RTVSPropertyOp51
 70
     0
102
RTVSPropertyOp52
 70
     0
102
RTVSPropertyOp53
 70
     1
102
RTVSPropertyOp54
 70
     1
102
RTVSPropertyOp55
 70
     1
102
RTVSPropertyOp56
 70
     1
102
RTVSPropertyOp57
 70
     1
102
RTVSPost2010Prop28
280
     0
102
RTVSPost2010PropOp28
 70
     1
102
RTVSPost2010Prop29
280
     1
102
RTVSPost2010PropOp29
 70
     1
102
RTVSPost2010Prop30
280
     1
102
RTVSPost2010PropOp30
 70
     1
102
RTVSPost2010Prop31
280
     0
102
RTVSPost2010PropOp31
 70
     1
102
RTVSPost2010Prop32
280
     0
102
RTVSPost2010PropOp32
 70
     1
102
RTVSPost2010Prop33
280
     0
102
RTVSPost2010PropOp33
 70
     1
102
RTVSPost2010Prop34
280
     0
102
RTVSPost2010PropOp34
 70
     1
102
RTVSPost2010Prop35
280
     0
102
RTVSPost2010PropOp35
 70
     1
102
RTVSPost2010Prop36
280
     0
102
RTVSPost2010PropOp36
 70
     1
102
RTVSPost2010Prop37
 90
       50
102
RTVSPost2010PropOp37
 70
     1
102
RTVSPost2010Prop38
140
0.0
102
RTVSPost2010PropOp38
 70
     1
102
RTVSPost2010Prop39
140
1.0
102
RTVSPost2010PropOp39
 70
     1
102
RTVSPost2010Prop40
 90
        0
102
RTVSPost2010PropOp40
 70
     1
102
RTVSPost2010Prop41ColorIndex
 90
       18
102
RTVSPost2010Prop41ColorRGB
 90
        0
102
RTVSPost2010PropOp41
 70
     1
102
RTVSPost2010Prop42
 90
       50
102
RTVSPost2010PropOp42
 70
     1
102
RTVSPost2010Prop43
 90
        3
102
RTVSPost2010PropOp43
 70
     1
102
RTVSPost2010Prop44ColorIndex
 90
        5
102
RTVSPost2010Prop44ColorRGB
 90
      255
102
RTVSPost2010PropOp44
 70
     1
102
RTVSPost2010Prop45
280
     0
102
RTVSPost2010PropOp45
 70
     1
102
RTVSPost2010Prop46
 90
       50
102
RTVSPost2010PropOp46
 70
     1
102
RTVSPost2010Prop47
 90
       50
102
RTVSPost2010PropOp47
 70
     1
102
RTVSPost2010Prop48
 90
       50
102
RTVSPost2010PropOp48
 70
     1
102
RTVSPost2010Prop49
280
     0
102
RTVSPost2010PropOp49
 70
     1
102
RTVSPost2010Prop50
 90
       50
102
RTVSPost2010PropOp50
 70
     1
102
RTVSPost2010Prop51ColorIndex
 90
      256
102
RTVSPost2010Prop51ColorRGB
 90
-16777216
102
RTVSPost2010PropOp51
 70
     0
102
RTVSPost2010Prop52
140
1.0
102
RTVSPost2010PropOp52
 70
     0
102
RTVSPost2010Prop53
 90
        2
102
RTVSPost2010PropOp53
 70
     1
102
RTVSPost2010Prop54
  1
strokes_ogs.tif
102
RTVSPost2010PropOp54
 70
     1
102
RTVSPost2010Prop55
280
     0
102
RTVSPost2010PropOp55
 70
     1
102
RTVSPost2010Prop56
140
1.0
102
RTVSPost2010PropOp56
 70
     1
102
RTVSPost2010Prop57
140
1.0
102
RTVSPost2010PropOp57
 70
     1
  0
XRECORD
  5
306
102
{ACAD_REACTORS
330
305
102
}
330
305
100
AcDbXrecord
280
     1
102
RTVSPropertyOp0
 70
     1
102
RTVSPropertyOp1
 70
     1
102
RTVSPropertyOp2
 70
     1
102
RTVSPropertyOp3
 70
     1
102
RTVSPropertyOp4
 70
     1
102
RTVSPropertyOp5
 70
     1
102
RTVSPropertyOp6
 70
     1
102
RTVSPropertyOp7
 70
     1
102
RTVSPropertyOp8
 70
     1
102
RTVSPropertyOp9
 70
     1
102
RTVSPropertyOp10
 70
     1
102
RTVSPropertyOp11
 70
     1
102
RTVSPropertyOp12
 70
     1
102
RTVSPropertyOp13
 70
     1
102
RTVSPropertyOp14
 70
     1
102
RTVSPropertyOp15
 70
     1
102
RTVSPropertyOp16
 70
     1
102
RTVSPropertyOp17
 70
     1
102
RTVSPropertyOp18
 70
     1
102
RTVSPropertyOp19
 70
     1
102
RTVSPropertyOp20
 70
     1
102
RTVSPropertyOp21
 70
     1
102
RTVSPropertyOp22
 70
     1
102
RTVSPropertyOp23
 70
     1
102
RTVSPropertyOp24
 70
     1
102
RTVSPropertyOp25
 70
     1
102
RTVSPropertyOp26
 70
     1
102
RTVSPropertyOp27
 70
     1
102
RTVSPropertyOp28
 70
     1
102
RTVSPropertyOp29
 70
     1
102
RTVSPropertyOp30
 70
     1
102
RTVSPropertyOp31
 70
     1
102
RTVSPropertyOp32
 70
     1
102
RTVSPropertyOp33
 70
     1
102
RTVSPropertyOp34
 70
     1
102
RTVSPropertyOp35
 70
     1
102
RTVSPropertyOp36
 70
     1
102
RTVSPropertyOp37
 70
     1
102
RTVSPropertyOp38
 70
     1
102
RTVSPropertyOp39
 70
     1
102
RTVSPropertyOp40
 70
     1
102
RTVSPropertyOp41
 70
     1
102
RTVSPropertyOp42
 70
     1
102
RTVSPropertyOp43
 70
     1
102
RTVSPropertyOp44
 70
     1
102
RTVSPropertyOp45
 70
     1
102
RTVSPropertyOp46
 70
     1
102
RTVSPropertyOp47
 70
     1
102
RTVSPropertyOp48
 70
     1
102
RTVSPropertyOp49
 70
     1
102
RTVSPropertyOp50
 70
     1
102
RTVSPropertyOp51
 70
     0
102
RTVSPropertyOp52
 70
     0
102
RTVSPropertyOp53
 70
     1
102
RTVSPropertyOp54
 70
     1
102
RTVSPropertyOp55
 70
     1
102
RTVSPropertyOp56
 70
     1
102
RTVSPropertyOp57
 70
     1
102
RTVSPost2010Prop28
280
     0
102
RTVSPost2010PropOp28
 70
     1
102
RTVSPost2010Prop29
280
     1
102
RTVSPost2010PropOp29
 70
     1
102
RTVSPost2010Prop30
280
     1
102
RTVSPost2010PropOp30
 70
     1
102
RTVSPost2010Prop31
280
     0
102
RTVSPost2010PropOp31
 70
     1
102
RTVSPost2010Prop32
280
     0
102
RTVSPost2010PropOp32
 70
     1
102
RTVSPost2010Prop33
280
     0
102
RTVSPost2010PropOp33
 70
     1
102
RTVSPost2010Prop34
280
     0
102
RTVSPost2010PropOp34
 70
     1
102
RTVSPost2010Prop35
280
     0
102
RTVSPost2010PropOp35
 70
     1
102
RTVSPost2010Prop36
280
     0
102
RTVSPost2010PropOp36
 70
     1
102
RTVSPost2010Prop37
 90
       50
102
RTVSPost2010PropOp37
 70
     1
102
RTVSPost2010Prop38
140
0.0
102
RTVSPost2010PropOp38
 70
     1
102
RTVSPost2010Prop39
140
1.0
102
RTVSPost2010PropOp39
 70
     1
102
RTVSPost2010Prop40
 90
        0
102
RTVSPost2010PropOp40
 70
     1
102
RTVSPost2010Prop41ColorIndex
 90
       18
102
RTVSPost2010Prop41ColorRGB
 90
        0
102
RTVSPost2010PropOp41
 70
     1
102
RTVSPost2010Prop42
 90
       50
102
RTVSPost2010PropOp42
 70
     1
102
RTVSPost2010Prop43
 90
        3
102
RTVSPost2010PropOp43
 70
     1
102
RTVSPost2010Prop44ColorIndex
 90
        5
102
RTVSPost2010Prop44ColorRGB
 90
      255
102
RTVSPost2010PropOp44
 70
     1
102
RTVSPost2010Prop45
280
     0
102
RTVSPost2010PropOp45
 70
     1
102
RTVSPost2010Prop46
 90
       50
102
RTVSPost2010PropOp46
 70
     1
102
RTVSPost2010Prop47
 90
       50
102
RTVSPost2010PropOp47
 70
     1
102
RTVSPost2010Prop48
 90
       50
102
RTVSPost2010PropOp48
 70
     1
102
RTVSPost2010Prop49
280
     0
102
RTVSPost2010PropOp49
 70
     1
102
RTVSPost2010Prop50
 90
       50
102
RTVSPost2010PropOp50
 70
     1
102
RTVSPost2010Prop51ColorIndex
 90
      256
102
RTVSPost2010Prop51ColorRGB
 90
-16777216
102
RTVSPost2010PropOp51
 70
     0
102
RTVSPost2010Prop52
140
1.0
102
RTVSPost2010PropOp52
 70
     0
102
RTVSPost2010Prop53
 90
        2
102
RTVSPost2010PropOp53
 70
     1
102
RTVSPost2010Prop54
  1
strokes_ogs.tif
102
RTVSPost2010PropOp54
 70
     1
102
RTVSPost2010Prop55
280
     0
102
RTVSPost2010PropOp55
 70
     1
102
RTVSPost2010Prop56
140
1.0
102
RTVSPost2010PropOp56
 70
     1
102
RTVSPost2010Prop57
140
1.0
102
RTVSPost2010PropOp57
 70
     1
  0
XRECORD
  5
30E
102
{ACAD_REACTORS
330
30D
102
}
330
30D
100
AcDbXrecord
280
     1
102
RTVSPropertyOp0
 70
     1
102
RTVSPropertyOp1
 70
     1
102
RTVSPropertyOp2
 70
     1
102
RTVSPropertyOp3
 70
     1
102
RTVSPropertyOp4
 70
     1
102
RTVSPropertyOp5
 70
     1
102
RTVSPropertyOp6
 70
     1
102
RTVSPropertyOp7
 70
     1
102
RTVSPropertyOp8
 70
     1
102
RTVSPropertyOp9
 70
     1
102
RTVSPropertyOp10
 70
     1
102
RTVSPropertyOp11
 70
     1
102
RTVSPropertyOp12
 70
     1
102
RTVSPropertyOp13
 70
     1
102
RTVSPropertyOp14
 70
     1
102
RTVSPropertyOp15
 70
     1
102
RTVSPropertyOp16
 70
     1
102
RTVSPropertyOp17
 70
     1
102
RTVSPropertyOp18
 70
     1
102
RTVSPropertyOp19
 70
     1
102
RTVSPropertyOp20
 70
     1
102
RTVSPropertyOp21
 70
     1
102
RTVSPropertyOp22
 70
     1
102
RTVSPropertyOp23
 70
     1
102
RTVSPropertyOp24
 70
     1
102
RTVSPropertyOp25
 70
     1
102
RTVSPropertyOp26
 70
     1
102
RTVSPropertyOp27
 70
     1
102
RTVSPropertyOp28
 70
     1
102
RTVSPropertyOp29
 70
     1
102
RTVSPropertyOp30
 70
     1
102
RTVSPropertyOp31
 70
     1
102
RTVSPropertyOp32
 70
     1
102
RTVSPropertyOp33
 70
     1
102
RTVSPropertyOp34
 70
     1
102
RTVSPropertyOp35
 70
     1
102
RTVSPropertyOp36
 70
     1
102
RTVSPropertyOp37
 70
     1
102
RTVSPropertyOp38
 70
     1
102
RTVSPropertyOp39
 70
     1
102
RTVSPropertyOp40
 70
     1
102
RTVSPropertyOp41
 70
     1
102
RTVSPropertyOp42
 70
     1
102
RTVSPropertyOp43
 70
     1
102
RTVSPropertyOp44
 70
     1
102
RTVSPropertyOp45
 70
     1
102
RTVSPropertyOp46
 70
     1
102
RTVSPropertyOp47
 70
     1
102
RTVSPropertyOp48
 70
     1
102
RTVSPropertyOp49
 70
     1
102
RTVSPropertyOp50
 70
     1
102
RTVSPropertyOp51
 70
     0
102
RTVSPropertyOp52
 70
     0
102
RTVSPropertyOp53
 70
     1
102
RTVSPropertyOp54
 70
     1
102
RTVSPropertyOp55
 70
     1
102
RTVSPropertyOp56
 70
     1
102
RTVSPropertyOp57
 70
     1
102
RTVSPost2010Prop28
280
     0
102
RTVSPost2010PropOp28
 70
     1
102
RTVSPost2010Prop29
280
     1
102
RTVSPost2010PropOp29
 70
     1
102
RTVSPost2010Prop30
280
     1
102
RTVSPost2010PropOp30
 70
     1
102
RTVSPost2010Prop31
280
     0
102
RTVSPost2010PropOp31
 70
     1
102
RTVSPost2010Prop32
280
     0
102
RTVSPost2010PropOp32
 70
     1
102
RTVSPost2010Prop33
280
     0
102
RTVSPost2010PropOp33
 70
     1
102
RTVSPost2010Prop34
280
     0
102
RTVSPost2010PropOp34
 70
     1
102
RTVSPost2010Prop35
280
     0
102
RTVSPost2010PropOp35
 70
     1
102
RTVSPost2010Prop36
280
     0
102
RTVSPost2010PropOp36
 70
     1
102
RTVSPost2010Prop37
 90
       50
102
RTVSPost2010PropOp37
 70
     1
102
RTVSPost2010Prop38
140
0.0
102
RTVSPost2010PropOp38
 70
     1
102
RTVSPost2010Prop39
140
1.0
102
RTVSPost2010PropOp39
 70
     1
102
RTVSPost2010Prop40
 90
        0
102
RTVSPost2010PropOp40
 70
     1
102
RTVSPost2010Prop41ColorIndex
 90
       18
102
RTVSPost2010Prop41ColorRGB
 90
        0
102
RTVSPost2010PropOp41
 70
     1
102
RTVSPost2010Prop42
 90
       50
102
RTVSPost2010PropOp42
 70
     1
102
RTVSPost2010Prop43
 90
        3
102
RTVSPost2010PropOp43
 70
     1
102
RTVSPost2010Prop44ColorIndex
 90
        5
102
RTVSPost2010Prop44ColorRGB
 90
      255
102
RTVSPost2010PropOp44
 70
     1
102
RTVSPost2010Prop45
280
     0
102
RTVSPost2010PropOp45
 70
     1
102
RTVSPost2010Prop46
 90
       50
102
RTVSPost2010PropOp46
 70
     1
102
RTVSPost2010Prop47
 90
       50
102
RTVSPost2010PropOp47
 70
     1
102
RTVSPost2010Prop48
 90
       50
102
RTVSPost2010PropOp48
 70
     1
102
RTVSPost2010Prop49
280
     0
102
RTVSPost2010PropOp49
 70
     1
102
RTVSPost2010Prop50
 90
       50
102
RTVSPost2010PropOp50
 70
     1
102
RTVSPost2010Prop51ColorIndex
 90
      256
102
RTVSPost2010Prop51ColorRGB
 90
-16777216
102
RTVSPost2010PropOp51
 70
     0
102
RTVSPost2010Prop52
140
1.0
102
RTVSPost2010PropOp52
 70
     0
102
RTVSPost2010Prop53
 90
        2
102
RTVSPost2010PropOp53
 70
     1
102
RTVSPost2010Prop54
  1
strokes_ogs.tif
102
RTVSPost2010PropOp54
 70
     1
102
RTVSPost2010Prop55
280
     0
102
RTVSPost2010PropOp55
 70
     1
102
RTVSPost2010Prop56
140
1.0
102
RTVSPost2010PropOp56
 70
     1
102
RTVSPost2010Prop57
140
1.0
102
RTVSPost2010PropOp57
 70
     1
  0
XRECORD
  5
302
102
{ACAD_REACTORS
330
301
102
}
330
301
100
AcDbXrecord
280
     1
102
RTVSPropertyOp0
 70
     1
102
RTVSPropertyOp1
 70
     1
102
RTVSPropertyOp2
 70
     1
102
RTVSPropertyOp3
 70
     1
102
RTVSPropertyOp4
 70
     1
102
RTVSPropertyOp5
 70
     1
102
RTVSPropertyOp6
 70
     1
102
RTVSPropertyOp7
 70
     1
102
RTVSPropertyOp8
 70
     1
102
RTVSPropertyOp9
 70
     1
102
RTVSPropertyOp10
 70
     1
102
RTVSPropertyOp11
 70
     1
102
RTVSPropertyOp12
 70
     1
102
RTVSPropertyOp13
 70
     1
102
RTVSPropertyOp14
 70
     1
102
RTVSPropertyOp15
 70
     1
102
RTVSPropertyOp16
 70
     1
102
RTVSPropertyOp17
 70
     1
102
RTVSPropertyOp18
 70
     1
102
RTVSPropertyOp19
 70
     1
102
RTVSPropertyOp20
 70
     1
102
RTVSPropertyOp21
 70
     1
102
RTVSPropertyOp22
 70
     1
102
RTVSPropertyOp23
 70
     1
102
RTVSPropertyOp24
 70
     1
102
RTVSPropertyOp25
 70
     1
102
RTVSPropertyOp26
 70
     1
102
RTVSPropertyOp27
 70
     1
102
RTVSPropertyOp28
 70
     1
102
RTVSPropertyOp29
 70
     1
102
RTVSPropertyOp30
 70
     1
102
RTVSPropertyOp31
 70
     1
102
RTVSPropertyOp32
 70
     1
102
RTVSPropertyOp33
 70
     1
102
RTVSPropertyOp34
 70
     1
102
RTVSPropertyOp35
 70
     1
102
RTVSPropertyOp36
 70
     1
102
RTVSPropertyOp37
 70
     1
102
RTVSPropertyOp38
 70
     1
102
RTVSPropertyOp39
 70
     1
102
RTVSPropertyOp40
 70
     1
102
RTVSPropertyOp41
 70
     1
102
RTVSPropertyOp42
 70
     1
102
RTVSPropertyOp43
 70
     1
102
RTVSPropertyOp44
 70
     1
102
RTVSPropertyOp45
 70
     1
102
RTVSPropertyOp46
 70
     1
102
RTVSPropertyOp47
 70
     1
102
RTVSPropertyOp48
 70
     1
102
RTVSPropertyOp49
 70
     1
102
RTVSPropertyOp50
 70
     1
102
RTVSPropertyOp51
 70
     0
102
RTVSPropertyOp52
 70
     0
102
RTVSPropertyOp53
 70
     1
102
RTVSPropertyOp54
 70
     1
102
RTVSPropertyOp55
 70
     1
102
RTVSPropertyOp56
 70
     1
102
RTVSPropertyOp57
 70
     1
102
RTVSPost2010Prop28
280
     0
102
RTVSPost2010PropOp28
 70
     1
102
RTVSPost2010Prop29
280
     1
102
RTVSPost2010PropOp29
 70
     1
102
RTVSPost2010Prop30
280
     1
102
RTVSPost2010PropOp30
 70
     1
102
RTVSPost2010Prop31
280
     0
102
RTVSPost2010PropOp31
 70
     1
102
RTVSPost2010Prop32
280
     0
102
RTVSPost2010PropOp32
 70
     1
102
RTVSPost2010Prop33
280
     0
102
RTVSPost2010PropOp33
 70
     1
102
RTVSPost2010Prop34
280
     0
102
RTVSPost2010PropOp34
 70
     1
102
RTVSPost2010Prop35
280
     0
102
RTVSPost2010PropOp35
 70
     1
102
RTVSPost2010Prop36
280
     0
102
RTVSPost2010PropOp36
 70
     1
102
RTVSPost2010Prop37
 90
       50
102
RTVSPost2010PropOp37
 70
     1
102
RTVSPost2010Prop38
140
0.0
102
RTVSPost2010PropOp38
 70
     1
102
RTVSPost2010Prop39
140
1.0
102
RTVSPost2010PropOp39
 70
     1
102
RTVSPost2010Prop40
 90
        0
102
RTVSPost2010PropOp40
 70
     1
102
RTVSPost2010Prop41ColorIndex
 90
       18
102
RTVSPost2010Prop41ColorRGB
 90
        0
102
RTVSPost2010PropOp41
 70
     1
102
RTVSPost2010Prop42
 90
       50
102
RTVSPost2010PropOp42
 70
     1
102
RTVSPost2010Prop43
 90
        3
102
RTVSPost2010PropOp43
 70
     1
102
RTVSPost2010Prop44ColorIndex
 90
        5
102
RTVSPost2010Prop44ColorRGB
 90
      255
102
RTVSPost2010PropOp44
 70
     1
102
RTVSPost2010Prop45
280
     0
102
RTVSPost2010PropOp45
 70
     1
102
RTVSPost2010Prop46
 90
       50
102
RTVSPost2010PropOp46
 70
     1
102
RTVSPost2010Prop47
 90
       50
102
RTVSPost2010PropOp47
 70
     1
102
RTVSPost2010Prop48
 90
       50
102
RTVSPost2010PropOp48
 70
     1
102
RTVSPost2010Prop49
280
     0
102
RTVSPost2010PropOp49
 70
     1
102
RTVSPost2010Prop50
 90
       50
102
RTVSPost2010PropOp50
 70
     1
102
RTVSPost2010Prop51ColorIndex
 90
      256
102
RTVSPost2010Prop51ColorRGB
 90
-16777216
102
RTVSPost2010PropOp51
 70
     0
102
RTVSPost2010Prop52
140
1.0
102
RTVSPost2010PropOp52
 70
     0
102
RTVSPost2010Prop53
 90
        2
102
RTVSPost2010PropOp53
 70
     1
102
RTVSPost2010Prop54
  1
strokes_ogs.tif
102
RTVSPost2010PropOp54
 70
     1
102
RTVSPost2010Prop55
280
     0
102
RTVSPost2010PropOp55
 70
     1
102
RTVSPost2010Prop56
140
1.0
102
RTVSPost2010PropOp56
 70
     1
102
RTVSPost2010Prop57
140
1.0
102
RTVSPost2010PropOp57
 70
     1
  0
XRECORD
  5
304
102
{ACAD_REACTORS
330
303
102
}
330
303
100
AcDbXrecord
280
     1
102
RTVSPropertyOp0
 70
     1
102
RTVSPropertyOp1
 70
     1
102
RTVSPropertyOp2
 70
     1
102
RTVSPropertyOp3
 70
     1
102
RTVSPropertyOp4
 70
     1
102
RTVSPropertyOp5
 70
     1
102
RTVSPropertyOp6
 70
     1
102
RTVSPropertyOp7
 70
     1
102
RTVSPropertyOp8
 70
     1
102
RTVSPropertyOp9
 70
     1
102
RTVSPropertyOp10
 70
     1
102
RTVSPropertyOp11
 70
     1
102
RTVSPropertyOp12
 70
     1
102
RTVSPropertyOp13
 70
     1
102
RTVSPropertyOp14
 70
     1
102
RTVSPropertyOp15
 70
     1
102
RTVSPropertyOp16
 70
     1
102
RTVSPropertyOp17
 70
     1
102
RTVSPropertyOp18
 70
     1
102
RTVSPropertyOp19
 70
     1
102
RTVSPropertyOp20
 70
     1
102
RTVSPropertyOp21
 70
     1
102
RTVSPropertyOp22
 70
     1
102
RTVSPropertyOp23
 70
     1
102
RTVSPropertyOp24
 70
     1
102
RTVSPropertyOp25
 70
     1
102
RTVSPropertyOp26
 70
     1
102
RTVSPropertyOp27
 70
     1
102
RTVSPropertyOp28
 70
     1
102
RTVSPropertyOp29
 70
     1
102
RTVSPropertyOp30
 70
     1
102
RTVSPropertyOp31
 70
     1
102
RTVSPropertyOp32
 70
     1
102
RTVSPropertyOp33
 70
     1
102
RTVSPropertyOp34
 70
     1
102
RTVSPropertyOp35
 70
     1
102
RTVSPropertyOp36
 70
     1
102
RTVSPropertyOp37
 70
     1
102
RTVSPropertyOp38
 70
     1
102
RTVSPropertyOp39
 70
     1
102
RTVSPropertyOp40
 70
     1
102
RTVSPropertyOp41
 70
     1
102
RTVSPropertyOp42
 70
     1
102
RTVSPropertyOp43
 70
     1
102
RTVSPropertyOp44
 70
     1
102
RTVSPropertyOp45
 70
     1
102
RTVSPropertyOp46
 70
     1
102
RTVSPropertyOp47
 70
     1
102
RTVSPropertyOp48
 70
     1
102
RTVSPropertyOp49
 70
     1
102
RTVSPropertyOp50
 70
     1
102
RTVSPropertyOp51
 70
     0
102
RTVSPropertyOp52
 70
     0
102
RTVSPropertyOp53
 70
     1
102
RTVSPropertyOp54
 70
     1
102
RTVSPropertyOp55
 70
     1
102
RTVSPropertyOp56
 70
     1
102
RTVSPropertyOp57
 70
     1
102
RTVSPost2010Prop28
280
     0
102
RTVSPost2010PropOp28
 70
     1
102
RTVSPost2010Prop29
280
     1
102
RTVSPost2010PropOp29
 70
     1
102
RTVSPost2010Prop30
280
     1
102
RTVSPost2010PropOp30
 70
     1
102
RTVSPost2010Prop31
280
     0
102
RTVSPost2010PropOp31
 70
     1
102
RTVSPost2010Prop32
280
     0
102
RTVSPost2010PropOp32
 70
     1
102
RTVSPost2010Prop33
280
     0
102
RTVSPost2010PropOp33
 70
     1
102
RTVSPost2010Prop34
280
     0
102
RTVSPost2010PropOp34
 70
     1
102
RTVSPost2010Prop35
280
     0
102
RTVSPost2010PropOp35
 70
     1
102
RTVSPost2010Prop36
280
     0
102
RTVSPost2010PropOp36
 70
     1
102
RTVSPost2010Prop37
 90
       50
102
RTVSPost2010PropOp37
 70
     1
102
RTVSPost2010Prop38
140
0.0
102
RTVSPost2010PropOp38
 70
     1
102
RTVSPost2010Prop39
140
1.0
102
RTVSPost2010PropOp39
 70
     1
102
RTVSPost2010Prop40
 90
        0
102
RTVSPost2010PropOp40
 70
     1
102
RTVSPost2010Prop41ColorIndex
 90
       18
102
RTVSPost2010Prop41ColorRGB
 90
        0
102
RTVSPost2010PropOp41
 70
     1
102
RTVSPost2010Prop42
 90
       50
102
RTVSPost2010PropOp42
 70
     1
102
RTVSPost2010Prop43
 90
        3
102
RTVSPost2010PropOp43
 70
     1
102
RTVSPost2010Prop44ColorIndex
 90
        5
102
RTVSPost2010Prop44ColorRGB
 90
      255
102
RTVSPost2010PropOp44
 70
     1
102
RTVSPost2010Prop45
280
     0
102
RTVSPost2010PropOp45
 70
     1
102
RTVSPost2010Prop46
 90
       50
102
RTVSPost2010PropOp46
 70
     1
102
RTVSPost2010Prop47
 90
       50
102
RTVSPost2010PropOp47
 70
     1
102
RTVSPost2010Prop48
 90
       50
102
RTVSPost2010PropOp48
 70
     1
102
RTVSPost2010Prop49
280
     0
102
RTVSPost2010PropOp49
 70
     1
102
RTVSPost2010Prop50
 90
       50
102
RTVSPost2010PropOp50
 70
     1
102
RTVSPost2010Prop51ColorIndex
 90
      256
102
RTVSPost2010Prop51ColorRGB
 90
-16777216
102
RTVSPost2010PropOp51
 70
     0
102
RTVSPost2010Prop52
140
1.0
102
RTVSPost2010PropOp52
 70
     0
102
RTVSPost2010Prop53
 90
        2
102
RTVSPost2010PropOp53
 70
     1
102
RTVSPost2010Prop54
  1
strokes_ogs.tif
102
RTVSPost2010PropOp54
 70
     1
102
RTVSPost2010Prop55
280
     0
102
RTVSPost2010PropOp55
 70
     1
102
RTVSPost2010Prop56
140
1.0
102
RTVSPost2010PropOp56
 70
     1
102
RTVSPost2010Prop57
140
1.0
102
RTVSPost2010PropOp57
 70
     1
  0
XRECORD
  5
314
102
{ACAD_REACTORS
330
313
102
}
330
313
100
AcDbXrecord
280
     1
102
RTVSPropertyOp0
 70
     0
102
RTVSPropertyOp1
 70
     0
102
RTVSPropertyOp2
 70
     0
102
RTVSPropertyOp3
 70
     0
102
RTVSPropertyOp4
 70
     0
102
RTVSPropertyOp5
 70
     0
102
RTVSPropertyOp6
 70
     0
102
RTVSPropertyOp7
 70
     0
102
RTVSPropertyOp8
 70
     0
102
RTVSPropertyOp9
 70
     0
102
RTVSPropertyOp10
 70
     0
102
RTVSPropertyOp11
 70
     0
102
RTVSPropertyOp12
 70
     0
102
RTVSPropertyOp13
 70
     0
102
RTVSPropertyOp14
 70
     2
102
RTVSPropertyOp15
 70
     0
102
RTVSPropertyOp16
 70
     0
102
RTVSPropertyOp17
 70
     0
102
RTVSPropertyOp18
 70
     0
102
RTVSPropertyOp19
 70
     0
102
RTVSPropertyOp20
 70
     0
102
RTVSPropertyOp21
 70
     0
102
RTVSPropertyOp22
 70
     0
102
RTVSPropertyOp23
 70
     0
102
RTVSPropertyOp24
 70
     0
102
RTVSPropertyOp25
 70
     0
102
RTVSPropertyOp26
 70
     0
102
RTVSPropertyOp27
 70
     0
102
RTVSPropertyOp28
 70
     0
102
RTVSPropertyOp29
 70
     0
102
RTVSPropertyOp30
 70
     0
102
RTVSPropertyOp31
 70
     0
102
RTVSPropertyOp32
 70
     0
102
RTVSPropertyOp33
 70
     0
102
RTVSPropertyOp34
 70
     0
102
RTVSPropertyOp35
 70
     0
102
RTVSPropertyOp36
 70
     0
102
RTVSPropertyOp37
 70
     0
102
RTVSPropertyOp38
 70
     0
102
RTVSPropertyOp39
 70
     0
102
RTVSPropertyOp40
 70
     0
102
RTVSPropertyOp41
 70
     0
102
RTVSPropertyOp42
 70
     0
102
RTVSPropertyOp43
 70
     0
102
RTVSPropertyOp44
 70
     0
102
RTVSPropertyOp45
 70
     0
102
RTVSPropertyOp46
 70
     0
102
RTVSPropertyOp47
 70
     0
102
RTVSPropertyOp48
 70
     0
102
RTVSPropertyOp49
 70
     0
102
RTVSPropertyOp50
 70
     0
102
RTVSPropertyOp51
 70
     0
102
RTVSPropertyOp52
 70
     0
102
RTVSPropertyOp53
 70
     0
102
RTVSPropertyOp54
 70
     0
102
RTVSPropertyOp55
 70
     0
102
RTVSPropertyOp56
 70
     0
102
RTVSPropertyOp57
 70
     0
102
RTVSPost2010Prop28
280
     0
102
RTVSPost2010PropOp28
 70
     0
102
RTVSPost2010Prop29
280
     1
102
RTVSPost2010PropOp29
 70
     0
102
RTVSPost2010Prop30
280
     1
102
RTVSPost2010PropOp30
 70
     0
102
RTVSPost2010Prop31
280
     0
102
RTVSPost2010PropOp31
 70
     0
102
RTVSPost2010Prop32
280
     0
102
RTVSPost2010PropOp32
 70
     0
102
RTVSPost2010Prop33
280
     0
102
RTVSPost2010PropOp33
 70
     0
102
RTVSPost2010Prop34
280
     0
102
RTVSPost2010PropOp34
 70
     0
102
RTVSPost2010Prop35
280
     0
102
RTVSPost2010PropOp35
 70
     0
102
RTVSPost2010Prop36
280
     0
102
RTVSPost2010PropOp36
 70
     0
102
RTVSPost2010Prop37
 90
       50
102
RTVSPost2010PropOp37
 70
     0
102
RTVSPost2010Prop38
140
0.0
102
RTVSPost2010PropOp38
 70
     0
102
RTVSPost2010Prop39
140
1.0
102
RTVSPost2010PropOp39
 70
     0
102
RTVSPost2010Prop40
 90
        0
102
RTVSPost2010PropOp40
 70
     0
102
RTVSPost2010Prop41ColorIndex
 90
       18
102
RTVSPost2010Prop41ColorRGB
 90
        0
102
RTVSPost2010PropOp41
 70
     0
102
RTVSPost2010Prop42
 90
       50
102
RTVSPost2010PropOp42
 70
     0
102
RTVSPost2010Prop43
 90
        3
102
RTVSPost2010PropOp43
 70
     0
102
RTVSPost2010Prop44ColorIndex
 90
        5
102
RTVSPost2010Prop44ColorRGB
 90
      255
102
RTVSPost2010PropOp44
 70
     0
102
RTVSPost2010Prop45
280
     0
102
RTVSPost2010PropOp45
 70
     0
102
RTVSPost2010Prop46
 90
       50
102
RTVSPost2010PropOp46
 70
     0
102
RTVSPost2010Prop47
 90
       50
102
RTVSPost2010PropOp47
 70
     0
102
RTVSPost2010Prop48
 90
       50
102
RTVSPost2010PropOp48
 70
     0
102
RTVSPost2010Prop49
280
     0
102
RTVSPost2010PropOp49
 70
     0
102
RTVSPost2010Prop50
 90
       50
102
RTVSPost2010PropOp50
 70
     0
102
RTVSPost2010Prop51ColorIndex
 90
      256
102
RTVSPost2010Prop51ColorRGB
 90
-16777216
102
RTVSPost2010PropOp51
 70
     0
102
RTVSPost2010Prop52
140
1.0
102
RTVSPost2010PropOp52
 70
     0
102
RTVSPost2010Prop53
 90
        2
102
RTVSPost2010PropOp53
 70
     0
102
RTVSPost2010Prop54
  1
strokes_ogs.tif
102
RTVSPost2010PropOp54
 70
     0
102
RTVSPost2010Prop55
280
     0
102
RTVSPost2010PropOp55
 70
     0
102
RTVSPost2010Prop56
140
1.0
102
RTVSPost2010PropOp56
 70
     0
102
RTVSPost2010Prop57
140
1.0
102
RTVSPost2010PropOp57
 70
     0
  0
XRECORD
  5
30C
102
{ACAD_REACTORS
330
30B
102
}
330
30B
100
AcDbXrecord
280
     1
102
RTVSPropertyOp0
 70
     1
102
RTVSPropertyOp1
 70
     1
102
RTVSPropertyOp2
 70
     1
102
RTVSPropertyOp3
 70
     1
102
RTVSPropertyOp4
 70
     1
102
RTVSPropertyOp5
 70
     1
102
RTVSPropertyOp6
 70
     1
102
RTVSPropertyOp7
 70
     1
102
RTVSPropertyOp8
 70
     1
102
RTVSPropertyOp9
 70
     1
102
RTVSPropertyOp10
 70
     1
102
RTVSPropertyOp11
 70
     1
102
RTVSPropertyOp12
 70
     1
102
RTVSPropertyOp13
 70
     1
102
RTVSPropertyOp14
 70
     1
102
RTVSPropertyOp15
 70
     1
102
RTVSPropertyOp16
 70
     1
102
RTVSPropertyOp17
 70
     1
102
RTVSPropertyOp18
 70
     1
102
RTVSPropertyOp19
 70
     1
102
RTVSPropertyOp20
 70
     1
102
RTVSPropertyOp21
 70
     1
102
RTVSPropertyOp22
 70
     1
102
RTVSPropertyOp23
 70
     1
102
RTVSPropertyOp24
 70
     1
102
RTVSPropertyOp25
 70
     1
102
RTVSPropertyOp26
 70
     1
102
RTVSPropertyOp27
 70
     1
102
RTVSPropertyOp28
 70
     1
102
RTVSPropertyOp29
 70
     1
102
RTVSPropertyOp30
 70
     1
102
RTVSPropertyOp31
 70
     1
102
RTVSPropertyOp32
 70
     1
102
RTVSPropertyOp33
 70
     1
102
RTVSPropertyOp34
 70
     1
102
RTVSPropertyOp35
 70
     1
102
RTVSPropertyOp36
 70
     1
102
RTVSPropertyOp37
 70
     1
102
RTVSPropertyOp38
 70
     1
102
RTVSPropertyOp39
 70
     1
102
RTVSPropertyOp40
 70
     1
102
RTVSPropertyOp41
 70
     1
102
RTVSPropertyOp42
 70
     1
102
RTVSPropertyOp43
 70
     1
102
RTVSPropertyOp44
 70
     1
102
RTVSPropertyOp45
 70
     1
102
RTVSPropertyOp46
 70
     1
102
RTVSPropertyOp47
 70
     1
102
RTVSPropertyOp48
 70
     1
102
RTVSPropertyOp49
 70
     1
102
RTVSPropertyOp50
 70
     1
102
RTVSPropertyOp51
 70
     0
102
RTVSPropertyOp52
 70
     0
102
RTVSPropertyOp53
 70
     1
102
RTVSPropertyOp54
 70
     1
102
RTVSPropertyOp55
 70
     1
102
RTVSPropertyOp56
 70
     1
102
RTVSPropertyOp57
 70
     1
102
RTVSPost2010Prop28
280
     0
102
RTVSPost2010PropOp28
 70
     1
102
RTVSPost2010Prop29
280
     1
102
RTVSPost2010PropOp29
 70
     1
102
RTVSPost2010Prop30
280
     1
102
RTVSPost2010PropOp30
 70
     1
102
RTVSPost2010Prop31
280
     0
102
RTVSPost2010PropOp31
 70
     1
102
RTVSPost2010Prop32
280
     0
102
RTVSPost2010PropOp32
 70
     1
102
RTVSPost2010Prop33
280
     0
102
RTVSPost2010PropOp33
 70
     1
102
RTVSPost2010Prop34
280
     0
102
RTVSPost2010PropOp34
 70
     1
102
RTVSPost2010Prop35
280
     0
102
RTVSPost2010PropOp35
 70
     1
102
RTVSPost2010Prop36
280
     0
102
RTVSPost2010PropOp36
 70
     1
102
RTVSPost2010Prop37
 90
       50
102
RTVSPost2010PropOp37
 70
     1
102
RTVSPost2010Prop38
140
0.0
102
RTVSPost2010PropOp38
 70
     1
102
RTVSPost2010Prop39
140
1.0
102
RTVSPost2010PropOp39
 70
     1
102
RTVSPost2010Prop40
 90
        0
102
RTVSPost2010PropOp40
 70
     1
102
RTVSPost2010Prop41ColorIndex
 90
       18
102
RTVSPost2010Prop41ColorRGB
 90
        0
102
RTVSPost2010PropOp41
 70
     1
102
RTVSPost2010Prop42
 90
       50
102
RTVSPost2010PropOp42
 70
     1
102
RTVSPost2010Prop43
 90
        3
102
RTVSPost2010PropOp43
 70
     1
102
RTVSPost2010Prop44ColorIndex
 90
        5
102
RTVSPost2010Prop44ColorRGB
 90
      255
102
RTVSPost2010PropOp44
 70
     1
102
RTVSPost2010Prop45
280
     0
102
RTVSPost2010PropOp45
 70
     1
102
RTVSPost2010Prop46
 90
       50
102
RTVSPost2010PropOp46
 70
     1
102
RTVSPost2010Prop47
 90
       50
102
RTVSPost2010PropOp47
 70
     1
102
RTVSPost2010Prop48
 90
       50
102
RTVSPost2010PropOp48
 70
     1
102
RTVSPost2010Prop49
280
     0
102
RTVSPost2010PropOp49
 70
     1
102
RTVSPost2010Prop50
 90
       50
102
RTVSPost2010PropOp50
 70
     1
102
RTVSPost2010Prop51ColorIndex
 90
      256
102
RTVSPost2010Prop51ColorRGB
 90
-16777216
102
RTVSPost2010PropOp51
 70
     0
102
RTVSPost2010Prop52
140
1.0
102
RTVSPost2010PropOp52
 70
     0
102
RTVSPost2010Prop53
 90
        2
102
RTVSPost2010PropOp53
 70
     1
102
RTVSPost2010Prop54
  1
strokes_ogs.tif
102
RTVSPost2010PropOp54
 70
     1
102
RTVSPost2010Prop55
280
     0
102
RTVSPost2010PropOp55
 70
     1
102
RTVSPost2010Prop56
140
1.0
102
RTVSPost2010PropOp56
 70
     1
102
RTVSPost2010Prop57
140
1.0
102
RTVSPost2010PropOp57
 70
     1
  0
XRECORD
  5
2F0
102
{ACAD_REACTORS
330
2EF
102
}
330
2EF
100
AcDbXrecord
280
     1
102
RTVSPropertyOp0
 70
     1
102
RTVSPropertyOp1
 70
     1
102
RTVSPropertyOp2
 70
     1
102
RTVSPropertyOp3
 70
     1
102
RTVSPropertyOp4
 70
     1
102
RTVSPropertyOp5
 70
     1
102
RTVSPropertyOp6
 70
     1
102
RTVSPropertyOp7
 70
     1
102
RTVSPropertyOp8
 70
     1
102
RTVSPropertyOp9
 70
     1
102
RTVSPropertyOp10
 70
     1
102
RTVSPropertyOp11
 70
     1
102
RTVSPropertyOp12
 70
     1
102
RTVSPropertyOp13
 70
     1
102
RTVSPropertyOp14
 70
     1
102
RTVSPropertyOp15
 70
     1
102
RTVSPropertyOp16
 70
     1
102
RTVSPropertyOp17
 70
     1
102
RTVSPropertyOp18
 70
     1
102
RTVSPropertyOp19
 70
     1
102
RTVSPropertyOp20
 70
     1
102
RTVSPropertyOp21
 70
     1
102
RTVSPropertyOp22
 70
     1
102
RTVSPropertyOp23
 70
     1
102
RTVSPropertyOp24
 70
     1
102
RTVSPropertyOp25
 70
     1
102
RTVSPropertyOp26
 70
     1
102
RTVSPropertyOp27
 70
     1
102
RTVSPropertyOp28
 70
     1
102
RTVSPropertyOp29
 70
     1
102
RTVSPropertyOp30
 70
     1
102
RTVSPropertyOp31
 70
     1
102
RTVSPropertyOp32
 70
     1
102
RTVSPropertyOp33
 70
     1
102
RTVSPropertyOp34
 70
     1
102
RTVSPropertyOp35
 70
     1
102
RTVSPropertyOp36
 70
     1
102
RTVSPropertyOp37
 70
     1
102
RTVSPropertyOp38
 70
     1
102
RTVSPropertyOp39
 70
     1
102
RTVSPropertyOp40
 70
     1
102
RTVSPropertyOp41
 70
     1
102
RTVSPropertyOp42
 70
     1
102
RTVSPropertyOp43
 70
     1
102
RTVSPropertyOp44
 70
     1
102
RTVSPropertyOp45
 70
     1
102
RTVSPropertyOp46
 70
     1
102
RTVSPropertyOp47
 70
     1
102
RTVSPropertyOp48
 70
     1
102
RTVSPropertyOp49
 70
     1
102
RTVSPropertyOp50
 70
     1
102
RTVSPropertyOp51
 70
     0
102
RTVSPropertyOp52
 70
     0
102
RTVSPropertyOp53
 70
     1
102
RTVSPropertyOp54
 70
     1
102
RTVSPropertyOp55
 70
     1
102
RTVSPropertyOp56
 70
     1
102
RTVSPropertyOp57
 70
     1
102
RTVSPost2010Prop28
280
     0
102
RTVSPost2010PropOp28
 70
     1
102
RTVSPost2010Prop29
280
     1
102
RTVSPost2010PropOp29
 70
     1
102
RTVSPost2010Prop30
280
     1
102
RTVSPost2010PropOp30
 70
     1
102
RTVSPost2010Prop31
280
     0
102
RTVSPost2010PropOp31
 70
     1
102
RTVSPost2010Prop32
280
     0
102
RTVSPost2010PropOp32
 70
     1
102
RTVSPost2010Prop33
280
     0
102
RTVSPost2010PropOp33
 70
     1
102
RTVSPost2010Prop34
280
     0
102
RTVSPost2010PropOp34
 70
     1
102
RTVSPost2010Prop35
280
     0
102
RTVSPost2010PropOp35
 70
     1
102
RTVSPost2010Prop36
280
     0
102
RTVSPost2010PropOp36
 70
     1
102
RTVSPost2010Prop37
 90
       50
102
RTVSPost2010PropOp37
 70
     1
102
RTVSPost2010Prop38
140
0.0
102
RTVSPost2010PropOp38
 70
     1
102
RTVSPost2010Prop39
140
1.0
102
RTVSPost2010PropOp39
 70
     1
102
RTVSPost2010Prop40
 90
        0
102
RTVSPost2010PropOp40
 70
     1
102
RTVSPost2010Prop41ColorIndex
 90
       18
102
RTVSPost2010Prop41ColorRGB
 90
        0
102
RTVSPost2010PropOp41
 70
     1
102
RTVSPost2010Prop42
 90
       50
102
RTVSPost2010PropOp42
 70
     1
102
RTVSPost2010Prop43
 90
        3
102
RTVSPost2010PropOp43
 70
     1
102
RTVSPost2010Prop44ColorIndex
 90
        5
102
RTVSPost2010Prop44ColorRGB
 90
      255
102
RTVSPost2010PropOp44
 70
     1
102
RTVSPost2010Prop45
280
     0
102
RTVSPost2010PropOp45
 70
     1
102
RTVSPost2010Prop46
 90
       50
102
RTVSPost2010PropOp46
 70
     1
102
RTVSPost2010Prop47
 90
       50
102
RTVSPost2010PropOp47
 70
     1
102
RTVSPost2010Prop48
 90
       50
102
RTVSPost2010PropOp48
 70
     1
102
RTVSPost2010Prop49
280
     0
102
RTVSPost2010PropOp49
 70
     1
102
RTVSPost2010Prop50
 90
       50
102
RTVSPost2010PropOp50
 70
     1
102
RTVSPost2010Prop51ColorIndex
 90
      256
102
RTVSPost2010Prop51ColorRGB
 90
-16777216
102
RTVSPost2010PropOp51
 70
     0
102
RTVSPost2010Prop52
140
1.0
102
RTVSPost2010PropOp52
 70
     0
102
RTVSPost2010Prop53
 90
        2
102
RTVSPost2010PropOp53
 70
     1
102
RTVSPost2010Prop54
  1
strokes_ogs.tif
102
RTVSPost2010PropOp54
 70
     1
102
RTVSPost2010Prop55
280
     0
102
RTVSPost2010PropOp55
 70
     1
102
RTVSPost2010Prop56
140
1.0
102
RTVSPost2010PropOp56
 70
     1
102
RTVSPost2010Prop57
140
1.0
102
RTVSPost2010PropOp57
 70
     1
  0
XRECORD
  5
2F2
102
{ACAD_REACTORS
330
2F1
102
}
330
2F1
100
AcDbXrecord
280
     1
102
RTVSPropertyOp0
 70
     1
102
RTVSPropertyOp1
 70
     1
102
RTVSPropertyOp2
 70
     1
102
RTVSPropertyOp3
 70
     1
102
RTVSPropertyOp4
 70
     1
102
RTVSPropertyOp5
 70
     1
102
RTVSPropertyOp6
 70
     1
102
RTVSPropertyOp7
 70
     1
102
RTVSPropertyOp8
 70
     1
102
RTVSPropertyOp9
 70
     1
102
RTVSPropertyOp10
 70
     1
102
RTVSPropertyOp11
 70
     1
102
RTVSPropertyOp12
 70
     1
102
RTVSPropertyOp13
 70
     1
102
RTVSPropertyOp14
 70
     1
102
RTVSPropertyOp15
 70
     1
102
RTVSPropertyOp16
 70
     1
102
RTVSPropertyOp17
 70
     1
102
RTVSPropertyOp18
 70
     1
102
RTVSPropertyOp19
 70
     1
102
RTVSPropertyOp20
 70
     1
102
RTVSPropertyOp21
 70
     1
102
RTVSPropertyOp22
 70
     1
102
RTVSPropertyOp23
 70
     1
102
RTVSPropertyOp24
 70
     1
102
RTVSPropertyOp25
 70
     1
102
RTVSPropertyOp26
 70
     1
102
RTVSPropertyOp27
 70
     1
102
RTVSPropertyOp28
 70
     1
102
RTVSPropertyOp29
 70
     1
102
RTVSPropertyOp30
 70
     1
102
RTVSPropertyOp31
 70
     1
102
RTVSPropertyOp32
 70
     1
102
RTVSPropertyOp33
 70
     1
102
RTVSPropertyOp34
 70
     1
102
RTVSPropertyOp35
 70
     1
102
RTVSPropertyOp36
 70
     1
102
RTVSPropertyOp37
 70
     1
102
RTVSPropertyOp38
 70
     1
102
RTVSPropertyOp39
 70
     1
102
RTVSPropertyOp40
 70
     1
102
RTVSPropertyOp41
 70
     1
102
RTVSPropertyOp42
 70
     1
102
RTVSPropertyOp43
 70
     1
102
RTVSPropertyOp44
 70
     1
102
RTVSPropertyOp45
 70
     1
102
RTVSPropertyOp46
 70
     1
102
RTVSPropertyOp47
 70
     1
102
RTVSPropertyOp48
 70
     1
102
RTVSPropertyOp49
 70
     1
102
RTVSPropertyOp50
 70
     1
102
RTVSPropertyOp51
 70
     0
102
RTVSPropertyOp52
 70
     0
102
RTVSPropertyOp53
 70
     1
102
RTVSPropertyOp54
 70
     1
102
RTVSPropertyOp55
 70
     1
102
RTVSPropertyOp56
 70
     1
102
RTVSPropertyOp57
 70
     1
102
RTVSPost2010Prop28
280
     0
102
RTVSPost2010PropOp28
 70
     1
102
RTVSPost2010Prop29
280
     1
102
RTVSPost2010PropOp29
 70
     1
102
RTVSPost2010Prop30
280
     1
102
RTVSPost2010PropOp30
 70
     1
102
RTVSPost2010Prop31
280
     0
102
RTVSPost2010PropOp31
 70
     1
102
RTVSPost2010Prop32
280
     0
102
RTVSPost2010PropOp32
 70
     1
102
RTVSPost2010Prop33
280
     0
102
RTVSPost2010PropOp33
 70
     1
102
RTVSPost2010Prop34
280
     0
102
RTVSPost2010PropOp34
 70
     1
102
RTVSPost2010Prop35
280
     0
102
RTVSPost2010PropOp35
 70
     1
102
RTVSPost2010Prop36
280
     0
102
RTVSPost2010PropOp36
 70
     1
102
RTVSPost2010Prop37
 90
       50
102
RTVSPost2010PropOp37
 70
     1
102
RTVSPost2010Prop38
140
0.0
102
RTVSPost2010PropOp38
 70
     1
102
RTVSPost2010Prop39
140
1.0
102
RTVSPost2010PropOp39
 70
     1
102
RTVSPost2010Prop40
 90
        0
102
RTVSPost2010PropOp40
 70
     1
102
RTVSPost2010Prop41ColorIndex
 90
       18
102
RTVSPost2010Prop41ColorRGB
 90
        0
102
RTVSPost2010PropOp41
 70
     1
102
RTVSPost2010Prop42
 90
       50
102
RTVSPost2010PropOp42
 70
     1
102
RTVSPost2010Prop43
 90
        3
102
RTVSPost2010PropOp43
 70
     1
102
RTVSPost2010Prop44ColorIndex
 90
        5
102
RTVSPost2010Prop44ColorRGB
 90
      255
102
RTVSPost2010PropOp44
 70
     1
102
RTVSPost2010Prop45
280
     0
102
RTVSPost2010PropOp45
 70
     1
102
RTVSPost2010Prop46
 90
       50
102
RTVSPost2010PropOp46
 70
     1
102
RTVSPost2010Prop47
 90
       50
102
RTVSPost2010PropOp47
 70
     1
102
RTVSPost2010Prop48
 90
       50
102
RTVSPost2010PropOp48
 70
     1
102
RTVSPost2010Prop49
280
     0
102
RTVSPost2010PropOp49
 70
     1
102
RTVSPost2010Prop50
 90
       50
102
RTVSPost2010PropOp50
 70
     1
102
RTVSPost2010Prop51ColorIndex
 90
      256
102
RTVSPost2010Prop51ColorRGB
 90
-16777216
102
RTVSPost2010PropOp51
 70
     0
102
RTVSPost2010Prop52
140
1.0
102
RTVSPost2010PropOp52
 70
     0
102
RTVSPost2010Prop53
 90
        2
102
RTVSPost2010PropOp53
 70
     1
102
RTVSPost2010Prop54
  1
strokes_ogs.tif
102
RTVSPost2010PropOp54
 70
     1
102
RTVSPost2010Prop55
280
     0
102
RTVSPost2010PropOp55
 70
     1
102
RTVSPost2010Prop56
140
1.0
102
RTVSPost2010PropOp56
 70
     1
102
RTVSPost2010Prop57
140
1.0
102
RTVSPost2010PropOp57
 70
     1
  0
XRECORD
  5
2F4
102
{ACAD_REACTORS
330
2F3
102
}
330
2F3
100
AcDbXrecord
280
     1
102
RTVSPropertyOp0
 70
     1
102
RTVSPropertyOp1
 70
     1
102
RTVSPropertyOp2
 70
     1
102
RTVSPropertyOp3
 70
     1
102
RTVSPropertyOp4
 70
     1
102
RTVSPropertyOp5
 70
     1
102
RTVSPropertyOp6
 70
     1
102
RTVSPropertyOp7
 70
     1
102
RTVSPropertyOp8
 70
     1
102
RTVSPropertyOp9
 70
     1
102
RTVSPropertyOp10
 70
     1
102
RTVSPropertyOp11
 70
     1
102
RTVSPropertyOp12
 70
     1
102
RTVSPropertyOp13
 70
     1
102
RTVSPropertyOp14
 70
     1
102
RTVSPropertyOp15
 70
     1
102
RTVSPropertyOp16
 70
     1
102
RTVSPropertyOp17
 70
     1
102
RTVSPropertyOp18
 70
     1
102
RTVSPropertyOp19
 70
     1
102
RTVSPropertyOp20
 70
     1
102
RTVSPropertyOp21
 70
     1
102
RTVSPropertyOp22
 70
     1
102
RTVSPropertyOp23
 70
     1
102
RTVSPropertyOp24
 70
     1
102
RTVSPropertyOp25
 70
     1
102
RTVSPropertyOp26
 70
     1
102
RTVSPropertyOp27
 70
     1
102
RTVSPropertyOp28
 70
     1
102
RTVSPropertyOp29
 70
     1
102
RTVSPropertyOp30
 70
     1
102
RTVSPropertyOp31
 70
     1
102
RTVSPropertyOp32
 70
     1
102
RTVSPropertyOp33
 70
     1
102
RTVSPropertyOp34
 70
     1
102
RTVSPropertyOp35
 70
     1
102
RTVSPropertyOp36
 70
     1
102
RTVSPropertyOp37
 70
     1
102
RTVSPropertyOp38
 70
     1
102
RTVSPropertyOp39
 70
     1
102
RTVSPropertyOp40
 70
     1
102
RTVSPropertyOp41
 70
     1
102
RTVSPropertyOp42
 70
     1
102
RTVSPropertyOp43
 70
     1
102
RTVSPropertyOp44
 70
     1
102
RTVSPropertyOp45
 70
     1
102
RTVSPropertyOp46
 70
     1
102
RTVSPropertyOp47
 70
     1
102
RTVSPropertyOp48
 70
     1
102
RTVSPropertyOp49
 70
     1
102
RTVSPropertyOp50
 70
     1
102
RTVSPropertyOp51
 70
     0
102
RTVSPropertyOp52
 70
     0
102
RTVSPropertyOp53
 70
     1
102
RTVSPropertyOp54
 70
     1
102
RTVSPropertyOp55
 70
     1
102
RTVSPropertyOp56
 70
     1
102
RTVSPropertyOp57
 70
     1
102
RTVSPost2010Prop28
280
     0
102
RTVSPost2010PropOp28
 70
     1
102
RTVSPost2010Prop29
280
     1
102
RTVSPost2010PropOp29
 70
     1
102
RTVSPost2010Prop30
280
     1
102
RTVSPost2010PropOp30
 70
     1
102
RTVSPost2010Prop31
280
     0
102
RTVSPost2010PropOp31
 70
     1
102
RTVSPost2010Prop32
280
     0
102
RTVSPost2010PropOp32
 70
     1
102
RTVSPost2010Prop33
280
     0
102
RTVSPost2010PropOp33
 70
     1
102
RTVSPost2010Prop34
280
     0
102
RTVSPost2010PropOp34
 70
     1
102
RTVSPost2010Prop35
280
     0
102
RTVSPost2010PropOp35
 70
     1
102
RTVSPost2010Prop36
280
     0
102
RTVSPost2010PropOp36
 70
     1
102
RTVSPost2010Prop37
 90
       50
102
RTVSPost2010PropOp37
 70
     1
102
RTVSPost2010Prop38
140
0.0
102
RTVSPost2010PropOp38
 70
     1
102
RTVSPost2010Prop39
140
1.0
102
RTVSPost2010PropOp39
 70
     1
102
RTVSPost2010Prop40
 90
        0
102
RTVSPost2010PropOp40
 70
     1
102
RTVSPost2010Prop41ColorIndex
 90
       18
102
RTVSPost2010Prop41ColorRGB
 90
        0
102
RTVSPost2010PropOp41
 70
     1
102
RTVSPost2010Prop42
 90
       50
102
RTVSPost2010PropOp42
 70
     1
102
RTVSPost2010Prop43
 90
        3
102
RTVSPost2010PropOp43
 70
     1
102
RTVSPost2010Prop44ColorIndex
 90
        5
102
RTVSPost2010Prop44ColorRGB
 90
      255
102
RTVSPost2010PropOp44
 70
     1
102
RTVSPost2010Prop45
280
     0
102
RTVSPost2010PropOp45
 70
     1
102
RTVSPost2010Prop46
 90
       50
102
RTVSPost2010PropOp46
 70
     1
102
RTVSPost2010Prop47
 90
       50
102
RTVSPost2010PropOp47
 70
     1
102
RTVSPost2010Prop48
 90
       50
102
RTVSPost2010PropOp48
 70
     1
102
RTVSPost2010Prop49
280
     0
102
RTVSPost2010PropOp49
 70
     1
102
RTVSPost2010Prop50
 90
       50
102
RTVSPost2010PropOp50
 70
     1
102
RTVSPost2010Prop51ColorIndex
 90
      256
102
RTVSPost2010Prop51ColorRGB
 90
-16777216
102
RTVSPost2010PropOp51
 70
     0
102
RTVSPost2010Prop52
140
1.0
102
RTVSPost2010PropOp52
 70
     0
102
RTVSPost2010Prop53
 90
        2
102
RTVSPost2010PropOp53
 70
     1
102
RTVSPost2010Prop54
  1
strokes_ogs.tif
102
RTVSPost2010PropOp54
 70
     1
102
RTVSPost2010Prop55
280
     0
102
RTVSPost2010PropOp55
 70
     1
102
RTVSPost2010Prop56
140
1.0
102
RTVSPost2010PropOp56
 70
     1
102
RTVSPost2010Prop57
140
1.0
102
RTVSPost2010PropOp57
 70
     1
  0
XRECORD
  5
2F6
102
{ACAD_REACTORS
330
2F5
102
}
330
2F5
100
AcDbXrecord
280
     1
102
RTVSPropertyOp0
 70
     1
102
RTVSPropertyOp1
 70
     1
102
RTVSPropertyOp2
 70
     1
102
RTVSPropertyOp3
 70
     1
102
RTVSPropertyOp4
 70
     1
102
RTVSPropertyOp5
 70
     1
102
RTVSPropertyOp6
 70
     1
102
RTVSPropertyOp7
 70
     1
102
RTVSPropertyOp8
 70
     1
102
RTVSPropertyOp9
 70
     1
102
RTVSPropertyOp10
 70
     1
102
RTVSPropertyOp11
 70
     1
102
RTVSPropertyOp12
 70
     1
102
RTVSPropertyOp13
 70
     1
102
RTVSPropertyOp14
 70
     1
102
RTVSPropertyOp15
 70
     1
102
RTVSPropertyOp16
 70
     1
102
RTVSPropertyOp17
 70
     1
102
RTVSPropertyOp18
 70
     1
102
RTVSPropertyOp19
 70
     1
102
RTVSPropertyOp20
 70
     1
102
RTVSPropertyOp21
 70
     1
102
RTVSPropertyOp22
 70
     1
102
RTVSPropertyOp23
 70
     1
102
RTVSPropertyOp24
 70
     1
102
RTVSPropertyOp25
 70
     1
102
RTVSPropertyOp26
 70
     1
102
RTVSPropertyOp27
 70
     1
102
RTVSPropertyOp28
 70
     1
102
RTVSPropertyOp29
 70
     1
102
RTVSPropertyOp30
 70
     1
102
RTVSPropertyOp31
 70
     1
102
RTVSPropertyOp32
 70
     1
102
RTVSPropertyOp33
 70
     1
102
RTVSPropertyOp34
 70
     1
102
RTVSPropertyOp35
 70
     1
102
RTVSPropertyOp36
 70
     1
102
RTVSPropertyOp37
 70
     1
102
RTVSPropertyOp38
 70
     1
102
RTVSPropertyOp39
 70
     1
102
RTVSPropertyOp40
 70
     1
102
RTVSPropertyOp41
 70
     1
102
RTVSPropertyOp42
 70
     1
102
RTVSPropertyOp43
 70
     1
102
RTVSPropertyOp44
 70
     1
102
RTVSPropertyOp45
 70
     1
102
RTVSPropertyOp46
 70
     1
102
RTVSPropertyOp47
 70
     1
102
RTVSPropertyOp48
 70
     1
102
RTVSPropertyOp49
 70
     1
102
RTVSPropertyOp50
 70
     1
102
RTVSPropertyOp51
 70
     0
102
RTVSPropertyOp52
 70
     0
102
RTVSPropertyOp53
 70
     1
102
RTVSPropertyOp54
 70
     1
102
RTVSPropertyOp55
 70
     1
102
RTVSPropertyOp56
 70
     1
102
RTVSPropertyOp57
 70
     1
102
RTVSPost2010Prop28
280
     0
102
RTVSPost2010PropOp28
 70
     1
102
RTVSPost2010Prop29
280
     1
102
RTVSPost2010PropOp29
 70
     1
102
RTVSPost2010Prop30
280
     1
102
RTVSPost2010PropOp30
 70
     1
102
RTVSPost2010Prop31
280
     0
102
RTVSPost2010PropOp31
 70
     1
102
RTVSPost2010Prop32
280
     0
102
RTVSPost2010PropOp32
 70
     1
102
RTVSPost2010Prop33
280
     0
102
RTVSPost2010PropOp33
 70
     1
102
RTVSPost2010Prop34
280
     0
102
RTVSPost2010PropOp34
 70
     1
102
RTVSPost2010Prop35
280
     0
102
RTVSPost2010PropOp35
 70
     1
102
RTVSPost2010Prop36
280
     0
102
RTVSPost2010PropOp36
 70
     1
102
RTVSPost2010Prop37
 90
       50
102
RTVSPost2010PropOp37
 70
     1
102
RTVSPost2010Prop38
140
0.0
102
RTVSPost2010PropOp38
 70
     1
102
RTVSPost2010Prop39
140
1.0
102
RTVSPost2010PropOp39
 70
     1
102
RTVSPost2010Prop40
 90
        0
102
RTVSPost2010PropOp40
 70
     1
102
RTVSPost2010Prop41ColorIndex
 90
       18
102
RTVSPost2010Prop41ColorRGB
 90
        0
102
RTVSPost2010PropOp41
 70
     1
102
RTVSPost2010Prop42
 90
       50
102
RTVSPost2010PropOp42
 70
     1
102
RTVSPost2010Prop43
 90
        3
102
RTVSPost2010PropOp43
 70
     1
102
RTVSPost2010Prop44ColorIndex
 90
        5
102
RTVSPost2010Prop44ColorRGB
 90
      255
102
RTVSPost2010PropOp44
 70
     1
102
RTVSPost2010Prop45
280
     0
102
RTVSPost2010PropOp45
 70
     1
102
RTVSPost2010Prop46
 90
       50
102
RTVSPost2010PropOp46
 70
     1
102
RTVSPost2010Prop47
 90
       50
102
RTVSPost2010PropOp47
 70
     1
102
RTVSPost2010Prop48
 90
       50
102
RTVSPost2010PropOp48
 70
     1
102
RTVSPost2010Prop49
280
     0
102
RTVSPost2010PropOp49
 70
     1
102
RTVSPost2010Prop50
 90
       50
102
RTVSPost2010PropOp50
 70
     1
102
RTVSPost2010Prop51ColorIndex
 90
      256
102
RTVSPost2010Prop51ColorRGB
 90
-16777216
102
RTVSPost2010PropOp51
 70
     0
102
RTVSPost2010Prop52
140
1.0
102
RTVSPost2010PropOp52
 70
     0
102
RTVSPost2010Prop53
 90
        2
102
RTVSPost2010PropOp53
 70
     1
102
RTVSPost2010Prop54
  1
strokes_ogs.tif
102
RTVSPost2010PropOp54
 70
     1
102
RTVSPost2010Prop55
280
     0
102
RTVSPost2010PropOp55
 70
     1
102
RTVSPost2010Prop56
140
1.0
102
RTVSPost2010PropOp56
 70
     1
102
RTVSPost2010Prop57
140
1.0
102
RTVSPost2010PropOp57
 70
     1
  0
XRECORD
  5
2FC
102
{ACAD_REACTORS
330
2FB
102
}
330
2FB
100
AcDbXrecord
280
     1
102
RTVSPropertyOp0
 70
     1
102
RTVSPropertyOp1
 70
     1
102
RTVSPropertyOp2
 70
     1
102
RTVSPropertyOp3
 70
     1
102
RTVSPropertyOp4
 70
     1
102
RTVSPropertyOp5
 70
     1
102
RTVSPropertyOp6
 70
     1
102
RTVSPropertyOp7
 70
     1
102
RTVSPropertyOp8
 70
     1
102
RTVSPropertyOp9
 70
     1
102
RTVSPropertyOp10
 70
     1
102
RTVSPropertyOp11
 70
     1
102
RTVSPropertyOp12
 70
     1
102
RTVSPropertyOp13
 70
     1
102
RTVSPropertyOp14
 70
     1
102
RTVSPropertyOp15
 70
     1
102
RTVSPropertyOp16
 70
     1
102
RTVSPropertyOp17
 70
     1
102
RTVSPropertyOp18
 70
     1
102
RTVSPropertyOp19
 70
     1
102
RTVSPropertyOp20
 70
     1
102
RTVSPropertyOp21
 70
     1
102
RTVSPropertyOp22
 70
     1
102
RTVSPropertyOp23
 70
     1
102
RTVSPropertyOp24
 70
     1
102
RTVSPropertyOp25
 70
     1
102
RTVSPropertyOp26
 70
     1
102
RTVSPropertyOp27
 70
     1
102
RTVSPropertyOp28
 70
     1
102
RTVSPropertyOp29
 70
     1
102
RTVSPropertyOp30
 70
     1
102
RTVSPropertyOp31
 70
     1
102
RTVSPropertyOp32
 70
     1
102
RTVSPropertyOp33
 70
     1
102
RTVSPropertyOp34
 70
     1
102
RTVSPropertyOp35
 70
     1
102
RTVSPropertyOp36
 70
     1
102
RTVSPropertyOp37
 70
     1
102
RTVSPropertyOp38
 70
     1
102
RTVSPropertyOp39
 70
     1
102
RTVSPropertyOp40
 70
     1
102
RTVSPropertyOp41
 70
     1
102
RTVSPropertyOp42
 70
     1
102
RTVSPropertyOp43
 70
     1
102
RTVSPropertyOp44
 70
     1
102
RTVSPropertyOp45
 70
     1
102
RTVSPropertyOp46
 70
     1
102
RTVSPropertyOp47
 70
     1
102
RTVSPropertyOp48
 70
     1
102
RTVSPropertyOp49
 70
     1
102
RTVSPropertyOp50
 70
     1
102
RTVSPropertyOp51
 70
     0
102
RTVSPropertyOp52
 70
     0
102
RTVSPropertyOp53
 70
     1
102
RTVSPropertyOp54
 70
     1
102
RTVSPropertyOp55
 70
     1
102
RTVSPropertyOp56
 70
     1
102
RTVSPropertyOp57
 70
     1
102
RTVSPost2010Prop28
280
     0
102
RTVSPost2010PropOp28
 70
     1
102
RTVSPost2010Prop29
280
     1
102
RTVSPost2010PropOp29
 70
     1
102
RTVSPost2010Prop30
280
     1
102
RTVSPost2010PropOp30
 70
     1
102
RTVSPost2010Prop31
280
     0
102
RTVSPost2010PropOp31
 70
     1
102
RTVSPost2010Prop32
280
     0
102
RTVSPost2010PropOp32
 70
     1
102
RTVSPost2010Prop33
280
     0
102
RTVSPost2010PropOp33
 70
     1
102
RTVSPost2010Prop34
280
     0
102
RTVSPost2010PropOp34
 70
     1
102
RTVSPost2010Prop35
280
     0
102
RTVSPost2010PropOp35
 70
     1
102
RTVSPost2010Prop36
280
     0
102
RTVSPost2010PropOp36
 70
     1
102
RTVSPost2010Prop37
 90
       50
102
RTVSPost2010PropOp37
 70
     1
102
RTVSPost2010Prop38
140
0.0
102
RTVSPost2010PropOp38
 70
     1
102
RTVSPost2010Prop39
140
1.0
102
RTVSPost2010PropOp39
 70
     1
102
RTVSPost2010Prop40
 90
        0
102
RTVSPost2010PropOp40
 70
     1
102
RTVSPost2010Prop41ColorIndex
 90
       18
102
RTVSPost2010Prop41ColorRGB
 90
        0
102
RTVSPost2010PropOp41
 70
     1
102
RTVSPost2010Prop42
 90
       50
102
RTVSPost2010PropOp42
 70
     1
102
RTVSPost2010Prop43
 90
        3
102
RTVSPost2010PropOp43
 70
     1
102
RTVSPost2010Prop44ColorIndex
 90
        5
102
RTVSPost2010Prop44ColorRGB
 90
      255
102
RTVSPost2010PropOp44
 70
     1
102
RTVSPost2010Prop45
280
     0
102
RTVSPost2010PropOp45
 70
     1
102
RTVSPost2010Prop46
 90
       50
102
RTVSPost2010PropOp46
 70
     1
102
RTVSPost2010Prop47
 90
       50
102
RTVSPost2010PropOp47
 70
     1
102
RTVSPost2010Prop48
 90
       50
102
RTVSPost2010PropOp48
 70
     1
102
RTVSPost2010Prop49
280
     0
102
RTVSPost2010PropOp49
 70
     1
102
RTVSPost2010Prop50
 90
       50
102
RTVSPost2010PropOp50
 70
     1
102
RTVSPost2010Prop51ColorIndex
 90
      256
102
RTVSPost2010Prop51ColorRGB
 90
-16777216
102
RTVSPost2010PropOp51
 70
     0
102
RTVSPost2010Prop52
140
1.0
102
RTVSPost2010PropOp52
 70
     0
102
RTVSPost2010Prop53
 90
        2
102
RTVSPost2010PropOp53
 70
     1
102
RTVSPost2010Prop54
  1
strokes_ogs.tif
102
RTVSPost2010PropOp54
 70
     1
102
RTVSPost2010Prop55
280
     0
102
RTVSPost2010PropOp55
 70
     1
102
RTVSPost2010Prop56
140
1.0
102
RTVSPost2010PropOp56
 70
     1
102
RTVSPost2010Prop57
140
1.0
102
RTVSPost2010PropOp57
 70
     1
  0
XRECORD
  5
310
102
{ACAD_REACTORS
330
30F
102
}
330
30F
100
AcDbXrecord
280
     1
102
RTVSPropertyOp0
 70
     0
102
RTVSPropertyOp1
 70
     0
102
RTVSPropertyOp2
 70
     0
102
RTVSPropertyOp3
 70
     0
102
RTVSPropertyOp4
 70
     0
102
RTVSPropertyOp5
 70
     0
102
RTVSPropertyOp6
 70
     0
102
RTVSPropertyOp7
 70
     0
102
RTVSPropertyOp8
 70
     0
102
RTVSPropertyOp9
 70
     0
102
RTVSPropertyOp10
 70
     0
102
RTVSPropertyOp11
 70
     0
102
RTVSPropertyOp12
 70
     0
102
RTVSPropertyOp13
 70
     0
102
RTVSPropertyOp14
 70
     2
102
RTVSPropertyOp15
 70
     0
102
RTVSPropertyOp16
 70
     0
102
RTVSPropertyOp17
 70
     0
102
RTVSPropertyOp18
 70
     0
102
RTVSPropertyOp19
 70
     0
102
RTVSPropertyOp20
 70
     0
102
RTVSPropertyOp21
 70
     0
102
RTVSPropertyOp22
 70
     0
102
RTVSPropertyOp23
 70
     0
102
RTVSPropertyOp24
 70
     0
102
RTVSPropertyOp25
 70
     0
102
RTVSPropertyOp26
 70
     0
102
RTVSPropertyOp27
 70
     0
102
RTVSPropertyOp28
 70
     0
102
RTVSPropertyOp29
 70
     0
102
RTVSPropertyOp30
 70
     0
102
RTVSPropertyOp31
 70
     0
102
RTVSPropertyOp32
 70
     0
102
RTVSPropertyOp33
 70
     0
102
RTVSPropertyOp34
 70
     0
102
RTVSPropertyOp35
 70
     0
102
RTVSPropertyOp36
 70
     0
102
RTVSPropertyOp37
 70
     0
102
RTVSPropertyOp38
 70
     0
102
RTVSPropertyOp39
 70
     0
102
RTVSPropertyOp40
 70
     0
102
RTVSPropertyOp41
 70
     0
102
RTVSPropertyOp42
 70
     0
102
RTVSPropertyOp43
 70
     0
102
RTVSPropertyOp44
 70
     0
102
RTVSPropertyOp45
 70
     0
102
RTVSPropertyOp46
 70
     0
102
RTVSPropertyOp47
 70
     0
102
RTVSPropertyOp48
 70
     0
102
RTVSPropertyOp49
 70
     0
102
RTVSPropertyOp50
 70
     0
102
RTVSPropertyOp51
 70
     0
102
RTVSPropertyOp52
 70
     0
102
RTVSPropertyOp53
 70
     0
102
RTVSPropertyOp54
 70
     0
102
RTVSPropertyOp55
 70
     0
102
RTVSPropertyOp56
 70
     0
102
RTVSPropertyOp57
 70
     0
102
RTVSPost2010Prop28
280
     0
102
RTVSPost2010PropOp28
 70
     0
102
RTVSPost2010Prop29
280
     1
102
RTVSPost2010PropOp29
 70
     0
102
RTVSPost2010Prop30
280
     1
102
RTVSPost2010PropOp30
 70
     0
102
RTVSPost2010Prop31
280
     0
102
RTVSPost2010PropOp31
 70
     0
102
RTVSPost2010Prop32
280
     0
102
RTVSPost2010PropOp32
 70
     0
102
RTVSPost2010Prop33
280
     0
102
RTVSPost2010PropOp33
 70
     0
102
RTVSPost2010Prop34
280
     0
102
RTVSPost2010PropOp34
 70
     0
102
RTVSPost2010Prop35
280
     0
102
RTVSPost2010PropOp35
 70
     0
102
RTVSPost2010Prop36
280
     0
102
RTVSPost2010PropOp36
 70
     0
102
RTVSPost2010Prop37
 90
       50
102
RTVSPost2010PropOp37
 70
     0
102
RTVSPost2010Prop38
140
0.0
102
RTVSPost2010PropOp38
 70
     0
102
RTVSPost2010Prop39
140
1.0
102
RTVSPost2010PropOp39
 70
     0
102
RTVSPost2010Prop40
 90
        0
102
RTVSPost2010PropOp40
 70
     0
102
RTVSPost2010Prop41ColorIndex
 90
       18
102
RTVSPost2010Prop41ColorRGB
 90
        0
102
RTVSPost2010PropOp41
 70
     0
102
RTVSPost2010Prop42
 90
       50
102
RTVSPost2010PropOp42
 70
     0
102
RTVSPost2010Prop43
 90
        3
102
RTVSPost2010PropOp43
 70
     0
102
RTVSPost2010Prop44ColorIndex
 90
        5
102
RTVSPost2010Prop44ColorRGB
 90
      255
102
RTVSPost2010PropOp44
 70
     0
102
RTVSPost2010Prop45
280
     0
102
RTVSPost2010PropOp45
 70
     0
102
RTVSPost2010Prop46
 90
       50
102
RTVSPost2010PropOp46
 70
     0
102
RTVSPost2010Prop47
 90
       50
102
RTVSPost2010PropOp47
 70
     0
102
RTVSPost2010Prop48
 90
       50
102
RTVSPost2010PropOp48
 70
     0
102
RTVSPost2010Prop49
280
     0
102
RTVSPost2010PropOp49
 70
     0
102
RTVSPost2010Prop50
 90
       50
102
RTVSPost2010PropOp50
 70
     0
102
RTVSPost2010Prop51ColorIndex
 90
      256
102
RTVSPost2010Prop51ColorRGB
 90
-16777216
102
RTVSPost2010PropOp51
 70
     0
102
RTVSPost2010Prop52
140
1.0
102
RTVSPost2010PropOp52
 70
     0
102
RTVSPost2010Prop53
 90
        2
102
RTVSPost2010PropOp53
 70
     0
102
RTVSPost2010Prop54
  1
strokes_ogs.tif
102
RTVSPost2010PropOp54
 70
     0
102
RTVSPost2010Prop55
280
     0
102
RTVSPost2010PropOp55
 70
     0
102
RTVSPost2010Prop56
140
1.0
102
RTVSPost2010PropOp56
 70
     0
102
RTVSPost2010Prop57
140
1.0
102
RTVSPost2010PropOp57
 70
     0
  0
XRECORD
  5
30A
102
{ACAD_REACTORS
330
309
102
}
330
309
100
AcDbXrecord
280
     1
102
RTVSPropertyOp0
 70
     1
102
RTVSPropertyOp1
 70
     1
102
RTVSPropertyOp2
 70
     1
102
RTVSPropertyOp3
 70
     1
102
RTVSPropertyOp4
 70
     1
102
RTVSPropertyOp5
 70
     1
102
RTVSPropertyOp6
 70
     1
102
RTVSPropertyOp7
 70
     1
102
RTVSPropertyOp8
 70
     1
102
RTVSPropertyOp9
 70
     1
102
RTVSPropertyOp10
 70
     1
102
RTVSPropertyOp11
 70
     1
102
RTVSPropertyOp12
 70
     1
102
RTVSPropertyOp13
 70
     1
102
RTVSPropertyOp14
 70
     1
102
RTVSPropertyOp15
 70
     1
102
RTVSPropertyOp16
 70
     1
102
RTVSPropertyOp17
 70
     1
102
RTVSPropertyOp18
 70
     1
102
RTVSPropertyOp19
 70
     1
102
RTVSPropertyOp20
 70
     1
102
RTVSPropertyOp21
 70
     1
102
RTVSPropertyOp22
 70
     1
102
RTVSPropertyOp23
 70
     1
102
RTVSPropertyOp24
 70
     1
102
RTVSPropertyOp25
 70
     1
102
RTVSPropertyOp26
 70
     1
102
RTVSPropertyOp27
 70
     1
102
RTVSPropertyOp28
 70
     1
102
RTVSPropertyOp29
 70
     1
102
RTVSPropertyOp30
 70
     1
102
RTVSPropertyOp31
 70
     1
102
RTVSPropertyOp32
 70
     1
102
RTVSPropertyOp33
 70
     1
102
RTVSPropertyOp34
 70
     1
102
RTVSPropertyOp35
 70
     1
102
RTVSPropertyOp36
 70
     1
102
RTVSPropertyOp37
 70
     1
102
RTVSPropertyOp38
 70
     1
102
RTVSPropertyOp39
 70
     1
102
RTVSPropertyOp40
 70
     1
102
RTVSPropertyOp41
 70
     1
102
RTVSPropertyOp42
 70
     1
102
RTVSPropertyOp43
 70
     1
102
RTVSPropertyOp44
 70
     1
102
RTVSPropertyOp45
 70
     1
102
RTVSPropertyOp46
 70
     1
102
RTVSPropertyOp47
 70
     1
102
RTVSPropertyOp48
 70
     1
102
RTVSPropertyOp49
 70
     1
102
RTVSPropertyOp50
 70
     1
102
RTVSPropertyOp51
 70
     0
102
RTVSPropertyOp52
 70
     0
102
RTVSPropertyOp53
 70
     1
102
RTVSPropertyOp54
 70
     1
102
RTVSPropertyOp55
 70
     1
102
RTVSPropertyOp56
 70
     1
102
RTVSPropertyOp57
 70
     1
102
RTVSPost2010Prop28
280
     0
102
RTVSPost2010PropOp28
 70
     1
102
RTVSPost2010Prop29
280
     1
102
RTVSPost2010PropOp29
 70
     1
102
RTVSPost2010Prop30
280
     1
102
RTVSPost2010PropOp30
 70
     1
102
RTVSPost2010Prop31
280
     0
102
RTVSPost2010PropOp31
 70
     1
102
RTVSPost2010Prop32
280
     0
102
RTVSPost2010PropOp32
 70
     1
102
RTVSPost2010Prop33
280
     0
102
RTVSPost2010PropOp33
 70
     1
102
RTVSPost2010Prop34
280
     0
102
RTVSPost2010PropOp34
 70
     1
102
RTVSPost2010Prop35
280
     0
102
RTVSPost2010PropOp35
 70
     1
102
RTVSPost2010Prop36
280
     0
102
RTVSPost2010PropOp36
 70
     1
102
RTVSPost2010Prop37
 90
       50
102
RTVSPost2010PropOp37
 70
     1
102
RTVSPost2010Prop38
140
0.0
102
RTVSPost2010PropOp38
 70
     1
102
RTVSPost2010Prop39
140
1.0
102
RTVSPost2010PropOp39
 70
     1
102
RTVSPost2010Prop40
 90
        0
102
RTVSPost2010PropOp40
 70
     1
102
RTVSPost2010Prop41ColorIndex
 90
       18
102
RTVSPost2010Prop41ColorRGB
 90
        0
102
RTVSPost2010PropOp41
 70
     1
102
RTVSPost2010Prop42
 90
       50
102
RTVSPost2010PropOp42
 70
     1
102
RTVSPost2010Prop43
 90
        3
102
RTVSPost2010PropOp43
 70
     1
102
RTVSPost2010Prop44ColorIndex
 90
        5
102
RTVSPost2010Prop44ColorRGB
 90
      255
102
RTVSPost2010PropOp44
 70
     1
102
RTVSPost2010Prop45
280
     0
102
RTVSPost2010PropOp45
 70
     1
102
RTVSPost2010Prop46
 90
       50
102
RTVSPost2010PropOp46
 70
     1
102
RTVSPost2010Prop47
 90
       50
102
RTVSPost2010PropOp47
 70
     1
102
RTVSPost2010Prop48
 90
       50
102
RTVSPost2010PropOp48
 70
     1
102
RTVSPost2010Prop49
280
     0
102
RTVSPost2010PropOp49
 70
     1
102
RTVSPost2010Prop50
 90
       50
102
RTVSPost2010PropOp50
 70
     1
102
RTVSPost2010Prop51ColorIndex
 90
      256
102
RTVSPost2010Prop51ColorRGB
 90
-16777216
102
RTVSPost2010PropOp51
 70
     0
102
RTVSPost2010Prop52
140
1.0
102
RTVSPost2010PropOp52
 70
     0
102
RTVSPost2010Prop53
 90
        2
102
RTVSPost2010PropOp53
 70
     1
102
RTVSPost2010Prop54
  1
strokes_ogs.tif
102
RTVSPost2010PropOp54
 70
     1
102
RTVSPost2010Prop55
280
     0
102
RTVSPost2010PropOp55
 70
     1
102
RTVSPost2010Prop56
140
1.0
102
RTVSPost2010PropOp56
 70
     1
102
RTVSPost2010Prop57
140
1.0
102
RTVSPost2010PropOp57
 70
     1
  0
XRECORD
  5
312
102
{ACAD_REACTORS
330
311
102
}
330
311
100
AcDbXrecord
280
     1
102
RTVSPropertyOp0
 70
     0
102
RTVSPropertyOp1
 70
     0
102
RTVSPropertyOp2
 70
     0
102
RTVSPropertyOp3
 70
     0
102
RTVSPropertyOp4
 70
     0
102
RTVSPropertyOp5
 70
     0
102
RTVSPropertyOp6
 70
     0
102
RTVSPropertyOp7
 70
     0
102
RTVSPropertyOp8
 70
     0
102
RTVSPropertyOp9
 70
     0
102
RTVSPropertyOp10
 70
     0
102
RTVSPropertyOp11
 70
     0
102
RTVSPropertyOp12
 70
     0
102
RTVSPropertyOp13
 70
     0
102
RTVSPropertyOp14
 70
     2
102
RTVSPropertyOp15
 70
     0
102
RTVSPropertyOp16
 70
     0
102
RTVSPropertyOp17
 70
     0
102
RTVSPropertyOp18
 70
     0
102
RTVSPropertyOp19
 70
     0
102
RTVSPropertyOp20
 70
     0
102
RTVSPropertyOp21
 70
     0
102
RTVSPropertyOp22
 70
     0
102
RTVSPropertyOp23
 70
     0
102
RTVSPropertyOp24
 70
     0
102
RTVSPropertyOp25
 70
     0
102
RTVSPropertyOp26
 70
     0
102
RTVSPropertyOp27
 70
     0
102
RTVSPropertyOp28
 70
     0
102
RTVSPropertyOp29
 70
     0
102
RTVSPropertyOp30
 70
     0
102
RTVSPropertyOp31
 70
     0
102
RTVSPropertyOp32
 70
     0
102
RTVSPropertyOp33
 70
     0
102
RTVSPropertyOp34
 70
     0
102
RTVSPropertyOp35
 70
     0
102
RTVSPropertyOp36
 70
     0
102
RTVSPropertyOp37
 70
     0
102
RTVSPropertyOp38
 70
     0
102
RTVSPropertyOp39
 70
     0
102
RTVSPropertyOp40
 70
     0
102
RTVSPropertyOp41
 70
     0
102
RTVSPropertyOp42
 70
     0
102
RTVSPropertyOp43
 70
     0
102
RTVSPropertyOp44
 70
     0
102
RTVSPropertyOp45
 70
     0
102
RTVSPropertyOp46
 70
     0
102
RTVSPropertyOp47
 70
     0
102
RTVSPropertyOp48
 70
     0
102
RTVSPropertyOp49
 70
     0
102
RTVSPropertyOp50
 70
     0
102
RTVSPropertyOp51
 70
     0
102
RTVSPropertyOp52
 70
     0
102
RTVSPropertyOp53
 70
     0
102
RTVSPropertyOp54
 70
     0
102
RTVSPropertyOp55
 70
     0
102
RTVSPropertyOp56
 70
     0
102
RTVSPropertyOp57
 70
     0
102
RTVSPost2010Prop28
280
     0
102
RTVSPost2010PropOp28
 70
     0
102
RTVSPost2010Prop29
280
     1
102
RTVSPost2010PropOp29
 70
     0
102
RTVSPost2010Prop30
280
     1
102
RTVSPost2010PropOp30
 70
     0
102
RTVSPost2010Prop31
280
     0
102
RTVSPost2010PropOp31
 70
     0
102
RTVSPost2010Prop32
280
     0
102
RTVSPost2010PropOp32
 70
     0
102
RTVSPost2010Prop33
280
     0
102
RTVSPost2010PropOp33
 70
     0
102
RTVSPost2010Prop34
280
     0
102
RTVSPost2010PropOp34
 70
     0
102
RTVSPost2010Prop35
280
     0
102
RTVSPost2010PropOp35
 70
     0
102
RTVSPost2010Prop36
280
     0
102
RTVSPost2010PropOp36
 70
     0
102
RTVSPost2010Prop37
 90
       50
102
RTVSPost2010PropOp37
 70
     0
102
RTVSPost2010Prop38
140
0.0
102
RTVSPost2010PropOp38
 70
     0
102
RTVSPost2010Prop39
140
1.0
102
RTVSPost2010PropOp39
 70
     0
102
RTVSPost2010Prop40
 90
        0
102
RTVSPost2010PropOp40
 70
     0
102
RTVSPost2010Prop41ColorIndex
 90
       18
102
RTVSPost2010Prop41ColorRGB
 90
        0
102
RTVSPost2010PropOp41
 70
     0
102
RTVSPost2010Prop42
 90
       50
102
RTVSPost2010PropOp42
 70
     0
102
RTVSPost2010Prop43
 90
        3
102
RTVSPost2010PropOp43
 70
     0
102
RTVSPost2010Prop44ColorIndex
 90
        5
102
RTVSPost2010Prop44ColorRGB
 90
      255
102
RTVSPost2010PropOp44
 70
     0
102
RTVSPost2010Prop45
280
     0
102
RTVSPost2010PropOp45
 70
     0
102
RTVSPost2010Prop46
 90
       50
102
RTVSPost2010PropOp46
 70
     0
102
RTVSPost2010Prop47
 90
       50
102
RTVSPost2010PropOp47
 70
     0
102
RTVSPost2010Prop48
 90
       50
102
RTVSPost2010PropOp48
 70
     0
102
RTVSPost2010Prop49
280
     0
102
RTVSPost2010PropOp49
 70
     0
102
RTVSPost2010Prop50
 90
       50
102
RTVSPost2010PropOp50
 70
     0
102
RTVSPost2010Prop51ColorIndex
 90
      256
102
RTVSPost2010Prop51ColorRGB
 90
-16777216
102
RTVSPost2010PropOp51
 70
     0
102
RTVSPost2010Prop52
140
1.0
102
RTVSPost2010PropOp52
 70
     0
102
RTVSPost2010Prop53
 90
        2
102
RTVSPost2010PropOp53
 70
     0
102
RTVSPost2010Prop54
  1
strokes_ogs.tif
102
RTVSPost2010PropOp54
 70
     0
102
RTVSPost2010Prop55
280
     0
102
RTVSPost2010PropOp55
 70
     0
102
RTVSPost2010Prop56
140
1.0
102
RTVSPost2010PropOp56
 70
     0
102
RTVSPost2010Prop57
140
1.0
102
RTVSPost2010PropOp57
 70
     0
  0
XRECORD
  5
300
102
{ACAD_REACTORS
330
2FF
102
}
330
2FF
100
AcDbXrecord
280
     1
102
RTVSPropertyOp0
 70
     1
102
RTVSPropertyOp1
 70
     1
102
RTVSPropertyOp2
 70
     1
102
RTVSPropertyOp3
 70
     1
102
RTVSPropertyOp4
 70
     1
102
RTVSPropertyOp5
 70
     1
102
RTVSPropertyOp6
 70
     1
102
RTVSPropertyOp7
 70
     1
102
RTVSPropertyOp8
 70
     1
102
RTVSPropertyOp9
 70
     1
102
RTVSPropertyOp10
 70
     1
102
RTVSPropertyOp11
 70
     1
102
RTVSPropertyOp12
 70
     1
102
RTVSPropertyOp13
 70
     1
102
RTVSPropertyOp14
 70
     1
102
RTVSPropertyOp15
 70
     1
102
RTVSPropertyOp16
 70
     1
102
RTVSPropertyOp17
 70
     1
102
RTVSPropertyOp18
 70
     1
102
RTVSPropertyOp19
 70
     1
102
RTVSPropertyOp20
 70
     1
102
RTVSPropertyOp21
 70
     1
102
RTVSPropertyOp22
 70
     1
102
RTVSPropertyOp23
 70
     1
102
RTVSPropertyOp24
 70
     1
102
RTVSPropertyOp25
 70
     1
102
RTVSPropertyOp26
 70
     1
102
RTVSPropertyOp27
 70
     1
102
RTVSPropertyOp28
 70
     1
102
RTVSPropertyOp29
 70
     1
102
RTVSPropertyOp30
 70
     1
102
RTVSPropertyOp31
 70
     1
102
RTVSPropertyOp32
 70
     1
102
RTVSPropertyOp33
 70
     1
102
RTVSPropertyOp34
 70
     1
102
RTVSPropertyOp35
 70
     1
102
RTVSPropertyOp36
 70
     1
102
RTVSPropertyOp37
 70
     1
102
RTVSPropertyOp38
 70
     1
102
RTVSPropertyOp39
 70
     1
102
RTVSPropertyOp40
 70
     1
102
RTVSPropertyOp41
 70
     1
102
RTVSPropertyOp42
 70
     1
102
RTVSPropertyOp43
 70
     1
102
RTVSPropertyOp44
 70
     1
102
RTVSPropertyOp45
 70
     1
102
RTVSPropertyOp46
 70
     1
102
RTVSPropertyOp47
 70
     1
102
RTVSPropertyOp48
 70
     1
102
RTVSPropertyOp49
 70
     1
102
RTVSPropertyOp50
 70
     1
102
RTVSPropertyOp51
 70
     0
102
RTVSPropertyOp52
 70
     0
102
RTVSPropertyOp53
 70
     1
102
RTVSPropertyOp54
 70
     1
102
RTVSPropertyOp55
 70
     1
102
RTVSPropertyOp56
 70
     1
102
RTVSPropertyOp57
 70
     1
102
RTVSPost2010Prop28
280
     0
102
RTVSPost2010PropOp28
 70
     1
102
RTVSPost2010Prop29
280
     1
102
RTVSPost2010PropOp29
 70
     1
102
RTVSPost2010Prop30
280
     1
102
RTVSPost2010PropOp30
 70
     1
102
RTVSPost2010Prop31
280
     0
102
RTVSPost2010PropOp31
 70
     1
102
RTVSPost2010Prop32
280
     0
102
RTVSPost2010PropOp32
 70
     1
102
RTVSPost2010Prop33
280
     0
102
RTVSPost2010PropOp33
 70
     1
102
RTVSPost2010Prop34
280
     0
102
RTVSPost2010PropOp34
 70
     1
102
RTVSPost2010Prop35
280
     0
102
RTVSPost2010PropOp35
 70
     1
102
RTVSPost2010Prop36
280
     0
102
RTVSPost2010PropOp36
 70
     1
102
RTVSPost2010Prop37
 90
       50
102
RTVSPost2010PropOp37
 70
     1
102
RTVSPost2010Prop38
140
0.0
102
RTVSPost2010PropOp38
 70
     1
102
RTVSPost2010Prop39
140
1.0
102
RTVSPost2010PropOp39
 70
     1
102
RTVSPost2010Prop40
 90
        0
102
RTVSPost2010PropOp40
 70
     1
102
RTVSPost2010Prop41ColorIndex
 90
       18
102
RTVSPost2010Prop41ColorRGB
 90
        0
102
RTVSPost2010PropOp41
 70
     1
102
RTVSPost2010Prop42
 90
       50
102
RTVSPost2010PropOp42
 70
     1
102
RTVSPost2010Prop43
 90
        3
102
RTVSPost2010PropOp43
 70
     1
102
RTVSPost2010Prop44ColorIndex
 90
        5
102
RTVSPost2010Prop44ColorRGB
 90
      255
102
RTVSPost2010PropOp44
 70
     1
102
RTVSPost2010Prop45
280
     0
102
RTVSPost2010PropOp45
 70
     1
102
RTVSPost2010Prop46
 90
       50
102
RTVSPost2010PropOp46
 70
     1
102
RTVSPost2010Prop47
 90
       50
102
RTVSPost2010PropOp47
 70
     1
102
RTVSPost2010Prop48
 90
       50
102
RTVSPost2010PropOp48
 70
     1
102
RTVSPost2010Prop49
280
     0
102
RTVSPost2010PropOp49
 70
     1
102
RTVSPost2010Prop50
 90
       50
102
RTVSPost2010PropOp50
 70
     1
102
RTVSPost2010Prop51ColorIndex
 90
      256
102
RTVSPost2010Prop51ColorRGB
 90
-16777216
102
RTVSPost2010PropOp51
 70
     0
102
RTVSPost2010Prop52
140
1.0
102
RTVSPost2010PropOp52
 70
     0
102
RTVSPost2010Prop53
 90
        2
102
RTVSPost2010PropOp53
 70
     1
102
RTVSPost2010Prop54
  1
strokes_ogs.tif
102
RTVSPost2010PropOp54
 70
     1
102
RTVSPost2010Prop55
280
     0
102
RTVSPost2010PropOp55
 70
     1
102
RTVSPost2010Prop56
140
1.0
102
RTVSPost2010PropOp56
 70
     1
102
RTVSPost2010Prop57
140
1.0
102
RTVSPost2010PropOp57
 70
     1
  0
XRECORD
  5
31E
102
{ACAD_REACTORS
330
31D
102
}
330
31D
100
AcDbXrecord
280
     1
102
RTVSPropertyOp0
 70
     1
102
RTVSPropertyOp1
 70
     1
102
RTVSPropertyOp2
 70
     1
102
RTVSPropertyOp3
 70
     1
102
RTVSPropertyOp4
 70
     1
102
RTVSPropertyOp5
 70
     1
102
RTVSPropertyOp6
 70
     1
102
RTVSPropertyOp7
 70
     1
102
RTVSPropertyOp8
 70
     1
102
RTVSPropertyOp9
 70
     1
102
RTVSPropertyOp10
 70
     1
102
RTVSPropertyOp11
 70
     1
102
RTVSPropertyOp12
 70
     1
102
RTVSPropertyOp13
 70
     1
102
RTVSPropertyOp14
 70
     1
102
RTVSPropertyOp15
 70
     1
102
RTVSPropertyOp16
 70
     1
102
RTVSPropertyOp17
 70
     1
102
RTVSPropertyOp18
 70
     1
102
RTVSPropertyOp19
 70
     1
102
RTVSPropertyOp20
 70
     1
102
RTVSPropertyOp21
 70
     1
102
RTVSPropertyOp22
 70
     1
102
RTVSPropertyOp23
 70
     1
102
RTVSPropertyOp24
 70
     1
102
RTVSPropertyOp25
 70
     1
102
RTVSPropertyOp26
 70
     1
102
RTVSPropertyOp27
 70
     1
102
RTVSPropertyOp28
 70
     1
102
RTVSPropertyOp29
 70
     1
102
RTVSPropertyOp30
 70
     1
102
RTVSPropertyOp31
 70
     1
102
RTVSPropertyOp32
 70
     1
102
RTVSPropertyOp33
 70
     1
102
RTVSPropertyOp34
 70
     1
102
RTVSPropertyOp35
 70
     1
102
RTVSPropertyOp36
 70
     1
102
RTVSPropertyOp37
 70
     1
102
RTVSPropertyOp38
 70
     1
102
RTVSPropertyOp39
 70
     1
102
RTVSPropertyOp40
 70
     1
102
RTVSPropertyOp41
 70
     1
102
RTVSPropertyOp42
 70
     1
102
RTVSPropertyOp43
 70
     1
102
RTVSPropertyOp44
 70
     1
102
RTVSPropertyOp45
 70
     1
102
RTVSPropertyOp46
 70
     1
102
RTVSPropertyOp47
 70
     1
102
RTVSPropertyOp48
 70
     1
102
RTVSPropertyOp49
 70
     1
102
RTVSPropertyOp50
 70
     1
102
RTVSPropertyOp51
 70
     0
102
RTVSPropertyOp52
 70
     0
102
RTVSPropertyOp53
 70
     1
102
RTVSPropertyOp54
 70
     1
102
RTVSPropertyOp55
 70
     1
102
RTVSPropertyOp56
 70
     1
102
RTVSPropertyOp57
 70
     1
102
RTVSPost2010Prop28
280
     0
102
RTVSPost2010PropOp28
 70
     1
102
RTVSPost2010Prop29
280
     1
102
RTVSPost2010PropOp29
 70
     1
102
RTVSPost2010Prop30
280
     1
102
RTVSPost2010PropOp30
 70
     1
102
RTVSPost2010Prop31
280
     0
102
RTVSPost2010PropOp31
 70
     1
102
RTVSPost2010Prop32
280
     0
102
RTVSPost2010PropOp32
 70
     1
102
RTVSPost2010Prop33
280
     0
102
RTVSPost2010PropOp33
 70
     1
102
RTVSPost2010Prop34
280
     0
102
RTVSPost2010PropOp34
 70
     1
102
RTVSPost2010Prop35
280
     0
102
RTVSPost2010PropOp35
 70
     1
102
RTVSPost2010Prop36
280
     0
102
RTVSPost2010PropOp36
 70
     1
102
RTVSPost2010Prop37
 90
       50
102
RTVSPost2010PropOp37
 70
     1
102
RTVSPost2010Prop38
140
0.0
102
RTVSPost2010PropOp38
 70
     1
102
RTVSPost2010Prop39
140
1.0
102
RTVSPost2010PropOp39
 70
     1
102
RTVSPost2010Prop40
 90
        0
102
RTVSPost2010PropOp40
 70
     1
102
RTVSPost2010Prop41ColorIndex
 90
       18
102
RTVSPost2010Prop41ColorRGB
 90
        0
102
RTVSPost2010PropOp41
 70
     1
102
RTVSPost2010Prop42
 90
       50
102
RTVSPost2010PropOp42
 70
     1
102
RTVSPost2010Prop43
 90
        3
102
RTVSPost2010PropOp43
 70
     1
102
RTVSPost2010Prop44ColorIndex
 90
        5
102
RTVSPost2010Prop44ColorRGB
 90
      255
102
RTVSPost2010PropOp44
 70
     1
102
RTVSPost2010Prop45
280
     0
102
RTVSPost2010PropOp45
 70
     1
102
RTVSPost2010Prop46
 90
       50
102
RTVSPost2010PropOp46
 70
     1
102
RTVSPost2010Prop47
 90
       50
102
RTVSPost2010PropOp47
 70
     1
102
RTVSPost2010Prop48
 90
       50
102
RTVSPost2010PropOp48
 70
     1
102
RTVSPost2010Prop49
280
     0
102
RTVSPost2010PropOp49
 70
     1
102
RTVSPost2010Prop50
 90
       50
102
RTVSPost2010PropOp50
 70
     1
102
RTVSPost2010Prop51ColorIndex
 90
      256
102
RTVSPost2010Prop51ColorRGB
 90
-16777216
102
RTVSPost2010PropOp51
 70
     0
102
RTVSPost2010Prop52
140
1.0
102
RTVSPost2010PropOp52
 70
     0
102
RTVSPost2010Prop53
 90
        2
102
RTVSPost2010PropOp53
 70
     1
102
RTVSPost2010Prop54
  1
strokes_ogs.tif
102
RTVSPost2010PropOp54
 70
     1
102
RTVSPost2010Prop55
280
     0
102
RTVSPost2010PropOp55
 70
     1
102
RTVSPost2010Prop56
140
1.0
102
RTVSPost2010PropOp56
 70
     1
102
RTVSPost2010Prop57
140
1.0
102
RTVSPost2010PropOp57
 70
     1
  0
XRECORD
  5
31C
102
{ACAD_REACTORS
330
31B
102
}
330
31B
100
AcDbXrecord
280
     1
102
RTVSPropertyOp0
 70
     1
102
RTVSPropertyOp1
 70
     1
102
RTVSPropertyOp2
 70
     1
102
RTVSPropertyOp3
 70
     1
102
RTVSPropertyOp4
 70
     1
102
RTVSPropertyOp5
 70
     1
102
RTVSPropertyOp6
 70
     1
102
RTVSPropertyOp7
 70
     1
102
RTVSPropertyOp8
 70
     1
102
RTVSPropertyOp9
 70
     1
102
RTVSPropertyOp10
 70
     1
102
RTVSPropertyOp11
 70
     1
102
RTVSPropertyOp12
 70
     1
102
RTVSPropertyOp13
 70
     1
102
RTVSPropertyOp14
 70
     1
102
RTVSPropertyOp15
 70
     1
102
RTVSPropertyOp16
 70
     1
102
RTVSPropertyOp17
 70
     1
102
RTVSPropertyOp18
 70
     1
102
RTVSPropertyOp19
 70
     1
102
RTVSPropertyOp20
 70
     1
102
RTVSPropertyOp21
 70
     1
102
RTVSPropertyOp22
 70
     1
102
RTVSPropertyOp23
 70
     1
102
RTVSPropertyOp24
 70
     1
102
RTVSPropertyOp25
 70
     1
102
RTVSPropertyOp26
 70
     1
102
RTVSPropertyOp27
 70
     1
102
RTVSPropertyOp28
 70
     1
102
RTVSPropertyOp29
 70
     1
102
RTVSPropertyOp30
 70
     1
102
RTVSPropertyOp31
 70
     1
102
RTVSPropertyOp32
 70
     1
102
RTVSPropertyOp33
 70
     1
102
RTVSPropertyOp34
 70
     1
102
RTVSPropertyOp35
 70
     1
102
RTVSPropertyOp36
 70
     1
102
RTVSPropertyOp37
 70
     1
102
RTVSPropertyOp38
 70
     1
102
RTVSPropertyOp39
 70
     1
102
RTVSPropertyOp40
 70
     1
102
RTVSPropertyOp41
 70
     1
102
RTVSPropertyOp42
 70
     1
102
RTVSPropertyOp43
 70
     1
102
RTVSPropertyOp44
 70
     1
102
RTVSPropertyOp45
 70
     1
102
RTVSPropertyOp46
 70
     1
102
RTVSPropertyOp47
 70
     1
102
RTVSPropertyOp48
 70
     1
102
RTVSPropertyOp49
 70
     1
102
RTVSPropertyOp50
 70
     1
102
RTVSPropertyOp51
 70
     0
102
RTVSPropertyOp52
 70
     0
102
RTVSPropertyOp53
 70
     1
102
RTVSPropertyOp54
 70
     1
102
RTVSPropertyOp55
 70
     1
102
RTVSPropertyOp56
 70
     1
102
RTVSPropertyOp57
 70
     1
102
RTVSPost2010Prop28
280
     0
102
RTVSPost2010PropOp28
 70
     1
102
RTVSPost2010Prop29
280
     1
102
RTVSPost2010PropOp29
 70
     1
102
RTVSPost2010Prop30
280
     1
102
RTVSPost2010PropOp30
 70
     1
102
RTVSPost2010Prop31
280
     0
102
RTVSPost2010PropOp31
 70
     1
102
RTVSPost2010Prop32
280
     0
102
RTVSPost2010PropOp32
 70
     1
102
RTVSPost2010Prop33
280
     0
102
RTVSPost2010PropOp33
 70
     1
102
RTVSPost2010Prop34
280
     0
102
RTVSPost2010PropOp34
 70
     1
102
RTVSPost2010Prop35
280
     0
102
RTVSPost2010PropOp35
 70
     1
102
RTVSPost2010Prop36
280
     0
102
RTVSPost2010PropOp36
 70
     1
102
RTVSPost2010Prop37
 90
       50
102
RTVSPost2010PropOp37
 70
     1
102
RTVSPost2010Prop38
140
0.0
102
RTVSPost2010PropOp38
 70
     1
102
RTVSPost2010Prop39
140
1.0
102
RTVSPost2010PropOp39
 70
     1
102
RTVSPost2010Prop40
 90
        0
102
RTVSPost2010PropOp40
 70
     1
102
RTVSPost2010Prop41ColorIndex
 90
       18
102
RTVSPost2010Prop41ColorRGB
 90
        0
102
RTVSPost2010PropOp41
 70
     1
102
RTVSPost2010Prop42
 90
       50
102
RTVSPost2010PropOp42
 70
     1
102
RTVSPost2010Prop43
 90
        3
102
RTVSPost2010PropOp43
 70
     1
102
RTVSPost2010Prop44ColorIndex
 90
        5
102
RTVSPost2010Prop44ColorRGB
 90
      255
102
RTVSPost2010PropOp44
 70
     1
102
RTVSPost2010Prop45
280
     0
102
RTVSPost2010PropOp45
 70
     1
102
RTVSPost2010Prop46
 90
       50
102
RTVSPost2010PropOp46
 70
     1
102
RTVSPost2010Prop47
 90
       50
102
RTVSPost2010PropOp47
 70
     1
102
RTVSPost2010Prop48
 90
       50
102
RTVSPost2010PropOp48
 70
     1
102
RTVSPost2010Prop49
280
     0
102
RTVSPost2010PropOp49
 70
     1
102
RTVSPost2010Prop50
 90
       50
102
RTVSPost2010PropOp50
 70
     1
102
RTVSPost2010Prop51ColorIndex
 90
      256
102
RTVSPost2010Prop51ColorRGB
 90
-16777216
102
RTVSPost2010PropOp51
 70
     0
102
RTVSPost2010Prop52
140
1.0
102
RTVSPost2010PropOp52
 70
     0
102
RTVSPost2010Prop53
 90
        2
102
RTVSPost2010PropOp53
 70
     1
102
RTVSPost2010Prop54
  1
strokes_ogs.tif
102
RTVSPost2010PropOp54
 70
     1
102
RTVSPost2010Prop55
280
     0
102
RTVSPost2010PropOp55
 70
     1
102
RTVSPost2010Prop56
140
1.0
102
RTVSPost2010PropOp56
 70
     1
102
RTVSPost2010Prop57
140
1.0
102
RTVSPost2010PropOp57
 70
     1
  0
XRECORD
  5
316
102
{ACAD_REACTORS
330
315
102
}
330
315
100
AcDbXrecord
280
     1
102
RTVSPropertyOp0
 70
     1
102
RTVSPropertyOp1
 70
     1
102
RTVSPropertyOp2
 70
     1
102
RTVSPropertyOp3
 70
     1
102
RTVSPropertyOp4
 70
     1
102
RTVSPropertyOp5
 70
     1
102
RTVSPropertyOp6
 70
     1
102
RTVSPropertyOp7
 70
     1
102
RTVSPropertyOp8
 70
     1
102
RTVSPropertyOp9
 70
     1
102
RTVSPropertyOp10
 70
     1
102
RTVSPropertyOp11
 70
     1
102
RTVSPropertyOp12
 70
     1
102
RTVSPropertyOp13
 70
     1
102
RTVSPropertyOp14
 70
     1
102
RTVSPropertyOp15
 70
     1
102
RTVSPropertyOp16
 70
     1
102
RTVSPropertyOp17
 70
     1
102
RTVSPropertyOp18
 70
     1
102
RTVSPropertyOp19
 70
     1
102
RTVSPropertyOp20
 70
     1
102
RTVSPropertyOp21
 70
     1
102
RTVSPropertyOp22
 70
     1
102
RTVSPropertyOp23
 70
     1
102
RTVSPropertyOp24
 70
     1
102
RTVSPropertyOp25
 70
     1
102
RTVSPropertyOp26
 70
     1
102
RTVSPropertyOp27
 70
     1
102
RTVSPropertyOp28
 70
     1
102
RTVSPropertyOp29
 70
     1
102
RTVSPropertyOp30
 70
     1
102
RTVSPropertyOp31
 70
     1
102
RTVSPropertyOp32
 70
     1
102
RTVSPropertyOp33
 70
     1
102
RTVSPropertyOp34
 70
     1
102
RTVSPropertyOp35
 70
     1
102
RTVSPropertyOp36
 70
     1
102
RTVSPropertyOp37
 70
     1
102
RTVSPropertyOp38
 70
     1
102
RTVSPropertyOp39
 70
     1
102
RTVSPropertyOp40
 70
     1
102
RTVSPropertyOp41
 70
     1
102
RTVSPropertyOp42
 70
     1
102
RTVSPropertyOp43
 70
     1
102
RTVSPropertyOp44
 70
     1
102
RTVSPropertyOp45
 70
     1
102
RTVSPropertyOp46
 70
     1
102
RTVSPropertyOp47
 70
     1
102
RTVSPropertyOp48
 70
     1
102
RTVSPropertyOp49
 70
     1
102
RTVSPropertyOp50
 70
     1
102
RTVSPropertyOp51
 70
     0
102
RTVSPropertyOp52
 70
     0
102
RTVSPropertyOp53
 70
     1
102
RTVSPropertyOp54
 70
     1
102
RTVSPropertyOp55
 70
     1
102
RTVSPropertyOp56
 70
     1
102
RTVSPropertyOp57
 70
     1
102
RTVSPost2010Prop28
280
     0
102
RTVSPost2010PropOp28
 70
     1
102
RTVSPost2010Prop29
280
     1
102
RTVSPost2010PropOp29
 70
     1
102
RTVSPost2010Prop30
280
     1
102
RTVSPost2010PropOp30
 70
     1
102
RTVSPost2010Prop31
280
     0
102
RTVSPost2010PropOp31
 70
     1
102
RTVSPost2010Prop32
280
     0
102
RTVSPost2010PropOp32
 70
     1
102
RTVSPost2010Prop33
280
     0
102
RTVSPost2010PropOp33
 70
     1
102
RTVSPost2010Prop34
280
     0
102
RTVSPost2010PropOp34
 70
     1
102
RTVSPost2010Prop35
280
     0
102
RTVSPost2010PropOp35
 70
     1
102
RTVSPost2010Prop36
280
     0
102
RTVSPost2010PropOp36
 70
     1
102
RTVSPost2010Prop37
 90
       50
102
RTVSPost2010PropOp37
 70
     1
102
RTVSPost2010Prop38
140
0.0
102
RTVSPost2010PropOp38
 70
     1
102
RTVSPost2010Prop39
140
1.0
102
RTVSPost2010PropOp39
 70
     1
102
RTVSPost2010Prop40
 90
        0
102
RTVSPost2010PropOp40
 70
     1
102
RTVSPost2010Prop41ColorIndex
 90
       18
102
RTVSPost2010Prop41ColorRGB
 90
        0
102
RTVSPost2010PropOp41
 70
     1
102
RTVSPost2010Prop42
 90
       50
102
RTVSPost2010PropOp42
 70
     1
102
RTVSPost2010Prop43
 90
        3
102
RTVSPost2010PropOp43
 70
     1
102
RTVSPost2010Prop44ColorIndex
 90
        5
102
RTVSPost2010Prop44ColorRGB
 90
      255
102
RTVSPost2010PropOp44
 70
     1
102
RTVSPost2010Prop45
280
     0
102
RTVSPost2010PropOp45
 70
     1
102
RTVSPost2010Prop46
 90
       50
102
RTVSPost2010PropOp46
 70
     1
102
RTVSPost2010Prop47
 90
       50
102
RTVSPost2010PropOp47
 70
     1
102
RTVSPost2010Prop48
 90
       50
102
RTVSPost2010PropOp48
 70
     1
102
RTVSPost2010Prop49
280
     0
102
RTVSPost2010PropOp49
 70
     1
102
RTVSPost2010Prop50
 90
       50
102
RTVSPost2010PropOp50
 70
     1
102
RTVSPost2010Prop51ColorIndex
 90
      256
102
RTVSPost2010Prop51ColorRGB
 90
-16777216
102
RTVSPost2010PropOp51
 70
     0
102
RTVSPost2010Prop52
140
1.0
102
RTVSPost2010PropOp52
 70
     0
102
RTVSPost2010Prop53
 90
        2
102
RTVSPost2010PropOp53
 70
     1
102
RTVSPost2010Prop54
  1
strokes_ogs.tif
102
RTVSPost2010PropOp54
 70
     1
102
RTVSPost2010Prop55
280
     0
102
RTVSPost2010PropOp55
 70
     1
102
RTVSPost2010Prop56
140
1.0
102
RTVSPost2010PropOp56
 70
     1
102
RTVSPost2010Prop57
140
1.0
102
RTVSPost2010PropOp57
 70
     1
  0
XRECORD
  5
318
102
{ACAD_REACTORS
330
317
102
}
330
317
100
AcDbXrecord
280
     1
102
RTVSPropertyOp0
 70
     1
102
RTVSPropertyOp1
 70
     1
102
RTVSPropertyOp2
 70
     1
102
RTVSPropertyOp3
 70
     1
102
RTVSPropertyOp4
 70
     1
102
RTVSPropertyOp5
 70
     1
102
RTVSPropertyOp6
 70
     1
102
RTVSPropertyOp7
 70
     1
102
RTVSPropertyOp8
 70
     1
102
RTVSPropertyOp9
 70
     1
102
RTVSPropertyOp10
 70
     1
102
RTVSPropertyOp11
 70
     1
102
RTVSPropertyOp12
 70
     1
102
RTVSPropertyOp13
 70
     1
102
RTVSPropertyOp14
 70
     1
102
RTVSPropertyOp15
 70
     1
102
RTVSPropertyOp16
 70
     1
102
RTVSPropertyOp17
 70
     1
102
RTVSPropertyOp18
 70
     1
102
RTVSPropertyOp19
 70
     1
102
RTVSPropertyOp20
 70
     1
102
RTVSPropertyOp21
 70
     1
102
RTVSPropertyOp22
 70
     1
102
RTVSPropertyOp23
 70
     1
102
RTVSPropertyOp24
 70
     1
102
RTVSPropertyOp25
 70
     1
102
RTVSPropertyOp26
 70
     1
102
RTVSPropertyOp27
 70
     1
102
RTVSPropertyOp28
 70
     1
102
RTVSPropertyOp29
 70
     1
102
RTVSPropertyOp30
 70
     1
102
RTVSPropertyOp31
 70
     1
102
RTVSPropertyOp32
 70
     1
102
RTVSPropertyOp33
 70
     1
102
RTVSPropertyOp34
 70
     1
102
RTVSPropertyOp35
 70
     1
102
RTVSPropertyOp36
 70
     1
102
RTVSPropertyOp37
 70
     1
102
RTVSPropertyOp38
 70
     1
102
RTVSPropertyOp39
 70
     1
102
RTVSPropertyOp40
 70
     1
102
RTVSPropertyOp41
 70
     1
102
RTVSPropertyOp42
 70
     1
102
RTVSPropertyOp43
 70
     1
102
RTVSPropertyOp44
 70
     1
102
RTVSPropertyOp45
 70
     1
102
RTVSPropertyOp46
 70
     1
102
RTVSPropertyOp47
 70
     1
102
RTVSPropertyOp48
 70
     1
102
RTVSPropertyOp49
 70
     1
102
RTVSPropertyOp50
 70
     1
102
RTVSPropertyOp51
 70
     0
102
RTVSPropertyOp52
 70
     0
102
RTVSPropertyOp53
 70
     1
102
RTVSPropertyOp54
 70
     1
102
RTVSPropertyOp55
 70
     1
102
RTVSPropertyOp56
 70
     1
102
RTVSPropertyOp57
 70
     1
102
RTVSPost2010Prop28
280
     0
102
RTVSPost2010PropOp28
 70
     1
102
RTVSPost2010Prop29
280
     1
102
RTVSPost2010PropOp29
 70
     1
102
RTVSPost2010Prop30
280
     1
102
RTVSPost2010PropOp30
 70
     1
102
RTVSPost2010Prop31
280
     0
102
RTVSPost2010PropOp31
 70
     1
102
RTVSPost2010Prop32
280
     0
102
RTVSPost2010PropOp32
 70
     1
102
RTVSPost2010Prop33
280
     0
102
RTVSPost2010PropOp33
 70
     1
102
RTVSPost2010Prop34
280
     0
102
RTVSPost2010PropOp34
 70
     1
102
RTVSPost2010Prop35
280
     0
102
RTVSPost2010PropOp35
 70
     1
102
RTVSPost2010Prop36
280
     0
102
RTVSPost2010PropOp36
 70
     1
102
RTVSPost2010Prop37
 90
       50
102
RTVSPost2010PropOp37
 70
     1
102
RTVSPost2010Prop38
140
0.0
102
RTVSPost2010PropOp38
 70
     1
102
RTVSPost2010Prop39
140
1.0
102
RTVSPost2010PropOp39
 70
     1
102
RTVSPost2010Prop40
 90
        0
102
RTVSPost2010PropOp40
 70
     1
102
RTVSPost2010Prop41ColorIndex
 90
       18
102
RTVSPost2010Prop41ColorRGB
 90
        0
102
RTVSPost2010PropOp41
 70
     1
102
RTVSPost2010Prop42
 90
       50
102
RTVSPost2010PropOp42
 70
     1
102
RTVSPost2010Prop43
 90
        3
102
RTVSPost2010PropOp43
 70
     1
102
RTVSPost2010Prop44ColorIndex
 90
        5
102
RTVSPost2010Prop44ColorRGB
 90
      255
102
RTVSPost2010PropOp44
 70
     1
102
RTVSPost2010Prop45
280
     0
102
RTVSPost2010PropOp45
 70
     1
102
RTVSPost2010Prop46
 90
       50
102
RTVSPost2010PropOp46
 70
     1
102
RTVSPost2010Prop47
 90
       50
102
RTVSPost2010PropOp47
 70
     1
102
RTVSPost2010Prop48
 90
       50
102
RTVSPost2010PropOp48
 70
     1
102
RTVSPost2010Prop49
280
     0
102
RTVSPost2010PropOp49
 70
     1
102
RTVSPost2010Prop50
 90
       50
102
RTVSPost2010PropOp50
 70
     1
102
RTVSPost2010Prop51ColorIndex
 90
      256
102
RTVSPost2010Prop51ColorRGB
 90
-16777216
102
RTVSPost2010PropOp51
 70
     0
102
RTVSPost2010Prop52
140
1.0
102
RTVSPost2010PropOp52
 70
     0
102
RTVSPost2010Prop53
 90
        2
102
RTVSPost2010PropOp53
 70
     1
102
RTVSPost2010Prop54
  1
strokes_ogs.tif
102
RTVSPost2010PropOp54
 70
     1
102
RTVSPost2010Prop55
280
     0
102
RTVSPost2010PropOp55
 70
     1
102
RTVSPost2010Prop56
140
1.0
102
RTVSPost2010PropOp56
 70
     1
102
RTVSPost2010Prop57
140
1.0
102
RTVSPost2010PropOp57
 70
     1
  0
XRECORD
  5
308
102
{ACAD_REACTORS
330
307
102
}
330
307
100
AcDbXrecord
280
     1
102
RTVSPropertyOp0
 70
     1
102
RTVSPropertyOp1
 70
     1
102
RTVSPropertyOp2
 70
     1
102
RTVSPropertyOp3
 70
     1
102
RTVSPropertyOp4
 70
     1
102
RTVSPropertyOp5
 70
     1
102
RTVSPropertyOp6
 70
     1
102
RTVSPropertyOp7
 70
     1
102
RTVSPropertyOp8
 70
     1
102
RTVSPropertyOp9
 70
     1
102
RTVSPropertyOp10
 70
     1
102
RTVSPropertyOp11
 70
     1
102
RTVSPropertyOp12
 70
     1
102
RTVSPropertyOp13
 70
     1
102
RTVSPropertyOp14
 70
     1
102
RTVSPropertyOp15
 70
     1
102
RTVSPropertyOp16
 70
     1
102
RTVSPropertyOp17
 70
     1
102
RTVSPropertyOp18
 70
     1
102
RTVSPropertyOp19
 70
     1
102
RTVSPropertyOp20
 70
     1
102
RTVSPropertyOp21
 70
     1
102
RTVSPropertyOp22
 70
     1
102
RTVSPropertyOp23
 70
     1
102
RTVSPropertyOp24
 70
     1
102
RTVSPropertyOp25
 70
     1
102
RTVSPropertyOp26
 70
     1
102
RTVSPropertyOp27
 70
     1
102
RTVSPropertyOp28
 70
     1
102
RTVSPropertyOp29
 70
     1
102
RTVSPropertyOp30
 70
     1
102
RTVSPropertyOp31
 70
     1
102
RTVSPropertyOp32
 70
     1
102
RTVSPropertyOp33
 70
     1
102
RTVSPropertyOp34
 70
     1
102
RTVSPropertyOp35
 70
     1
102
RTVSPropertyOp36
 70
     1
102
RTVSPropertyOp37
 70
     1
102
RTVSPropertyOp38
 70
     1
102
RTVSPropertyOp39
 70
     1
102
RTVSPropertyOp40
 70
     1
102
RTVSPropertyOp41
 70
     1
102
RTVSPropertyOp42
 70
     1
102
RTVSPropertyOp43
 70
     1
102
RTVSPropertyOp44
 70
     1
102
RTVSPropertyOp45
 70
     1
102
RTVSPropertyOp46
 70
     1
102
RTVSPropertyOp47
 70
     1
102
RTVSPropertyOp48
 70
     1
102
RTVSPropertyOp49
 70
     1
102
RTVSPropertyOp50
 70
     1
102
RTVSPropertyOp51
 70
     0
102
RTVSPropertyOp52
 70
     0
102
RTVSPropertyOp53
 70
     1
102
RTVSPropertyOp54
 70
     1
102
RTVSPropertyOp55
 70
     1
102
RTVSPropertyOp56
 70
     1
102
RTVSPropertyOp57
 70
     1
102
RTVSPost2010Prop28
280
     0
102
RTVSPost2010PropOp28
 70
     1
102
RTVSPost2010Prop29
280
     1
102
RTVSPost2010PropOp29
 70
     1
102
RTVSPost2010Prop30
280
     1
102
RTVSPost2010PropOp30
 70
     1
102
RTVSPost2010Prop31
280
     0
102
RTVSPost2010PropOp31
 70
     1
102
RTVSPost2010Prop32
280
     0
102
RTVSPost2010PropOp32
 70
     1
102
RTVSPost2010Prop33
280
     0
102
RTVSPost2010PropOp33
 70
     1
102
RTVSPost2010Prop34
280
     0
102
RTVSPost2010PropOp34
 70
     1
102
RTVSPost2010Prop35
280
     0
102
RTVSPost2010PropOp35
 70
     1
102
RTVSPost2010Prop36
280
     0
102
RTVSPost2010PropOp36
 70
     1
102
RTVSPost2010Prop37
 90
       50
102
RTVSPost2010PropOp37
 70
     1
102
RTVSPost2010Prop38
140
0.0
102
RTVSPost2010PropOp38
 70
     1
102
RTVSPost2010Prop39
140
1.0
102
RTVSPost2010PropOp39
 70
     1
102
RTVSPost2010Prop40
 90
        0
102
RTVSPost2010PropOp40
 70
     1
102
RTVSPost2010Prop41ColorIndex
 90
       18
102
RTVSPost2010Prop41ColorRGB
 90
        0
102
RTVSPost2010PropOp41
 70
     1
102
RTVSPost2010Prop42
 90
       50
102
RTVSPost2010PropOp42
 70
     1
102
RTVSPost2010Prop43
 90
        3
102
RTVSPost2010PropOp43
 70
     1
102
RTVSPost2010Prop44ColorIndex
 90
        5
102
RTVSPost2010Prop44ColorRGB
 90
      255
102
RTVSPost2010PropOp44
 70
     1
102
RTVSPost2010Prop45
280
     0
102
RTVSPost2010PropOp45
 70
     1
102
RTVSPost2010Prop46
 90
       50
102
RTVSPost2010PropOp46
 70
     1
102
RTVSPost2010Prop47
 90
       50
102
RTVSPost2010PropOp47
 70
     1
102
RTVSPost2010Prop48
 90
       50
102
RTVSPost2010PropOp48
 70
     1
102
RTVSPost2010Prop49
280
     0
102
RTVSPost2010PropOp49
 70
     1
102
RTVSPost2010Prop50
 90
       50
102
RTVSPost2010PropOp50
 70
     1
102
RTVSPost2010Prop51ColorIndex
 90
      256
102
RTVSPost2010Prop51ColorRGB
 90
-16777216
102
RTVSPost2010PropOp51
 70
     0
102
RTVSPost2010Prop52
140
1.0
102
RTVSPost2010PropOp52
 70
     0
102
RTVSPost2010Prop53
 90
        2
102
RTVSPost2010PropOp53
 70
     1
102
RTVSPost2010Prop54
  1
strokes_ogs.tif
102
RTVSPost2010PropOp54
 70
     1
102
RTVSPost2010Prop55
280
     0
102
RTVSPost2010PropOp55
 70
     1
102
RTVSPost2010Prop56
140
1.0
102
RTVSPost2010PropOp56
 70
     1
102
RTVSPost2010Prop57
140
1.0
102
RTVSPost2010PropOp57
 70
     1
  0
XRECORD
  5
2FA
102
{ACAD_REACTORS
330
2F9
102
}
330
2F9
100
AcDbXrecord
280
     1
102
RTVSPropertyOp0
 70
     1
102
RTVSPropertyOp1
 70
     1
102
RTVSPropertyOp2
 70
     1
102
RTVSPropertyOp3
 70
     1
102
RTVSPropertyOp4
 70
     1
102
RTVSPropertyOp5
 70
     1
102
RTVSPropertyOp6
 70
     1
102
RTVSPropertyOp7
 70
     1
102
RTVSPropertyOp8
 70
     1
102
RTVSPropertyOp9
 70
     1
102
RTVSPropertyOp10
 70
     1
102
RTVSPropertyOp11
 70
     1
102
RTVSPropertyOp12
 70
     1
102
RTVSPropertyOp13
 70
     1
102
RTVSPropertyOp14
 70
     1
102
RTVSPropertyOp15
 70
     1
102
RTVSPropertyOp16
 70
     1
102
RTVSPropertyOp17
 70
     1
102
RTVSPropertyOp18
 70
     1
102
RTVSPropertyOp19
 70
     1
102
RTVSPropertyOp20
 70
     1
102
RTVSPropertyOp21
 70
     1
102
RTVSPropertyOp22
 70
     1
102
RTVSPropertyOp23
 70
     1
102
RTVSPropertyOp24
 70
     1
102
RTVSPropertyOp25
 70
     1
102
RTVSPropertyOp26
 70
     1
102
RTVSPropertyOp27
 70
     1
102
RTVSPropertyOp28
 70
     1
102
RTVSPropertyOp29
 70
     1
102
RTVSPropertyOp30
 70
     1
102
RTVSPropertyOp31
 70
     1
102
RTVSPropertyOp32
 70
     1
102
RTVSPropertyOp33
 70
     1
102
RTVSPropertyOp34
 70
     1
102
RTVSPropertyOp35
 70
     1
102
RTVSPropertyOp36
 70
     1
102
RTVSPropertyOp37
 70
     1
102
RTVSPropertyOp38
 70
     1
102
RTVSPropertyOp39
 70
     1
102
RTVSPropertyOp40
 70
     1
102
RTVSPropertyOp41
 70
     1
102
RTVSPropertyOp42
 70
     1
102
RTVSPropertyOp43
 70
     1
102
RTVSPropertyOp44
 70
     1
102
RTVSPropertyOp45
 70
     1
102
RTVSPropertyOp46
 70
     1
102
RTVSPropertyOp47
 70
     1
102
RTVSPropertyOp48
 70
     1
102
RTVSPropertyOp49
 70
     1
102
RTVSPropertyOp50
 70
     1
102
RTVSPropertyOp51
 70
     0
102
RTVSPropertyOp52
 70
     0
102
RTVSPropertyOp53
 70
     1
102
RTVSPropertyOp54
 70
     1
102
RTVSPropertyOp55
 70
     1
102
RTVSPropertyOp56
 70
     1
102
RTVSPropertyOp57
 70
     1
102
RTVSPost2010Prop28
280
     0
102
RTVSPost2010PropOp28
 70
     1
102
RTVSPost2010Prop29
280
     1
102
RTVSPost2010PropOp29
 70
     1
102
RTVSPost2010Prop30
280
     1
102
RTVSPost2010PropOp30
 70
     1
102
RTVSPost2010Prop31
280
     0
102
RTVSPost2010PropOp31
 70
     1
102
RTVSPost2010Prop32
280
     0
102
RTVSPost2010PropOp32
 70
     1
102
RTVSPost2010Prop33
280
     0
102
RTVSPost2010PropOp33
 70
     1
102
RTVSPost2010Prop34
280
     0
102
RTVSPost2010PropOp34
 70
     1
102
RTVSPost2010Prop35
280
     0
102
RTVSPost2010PropOp35
 70
     1
102
RTVSPost2010Prop36
280
     0
102
RTVSPost2010PropOp36
 70
     1
102
RTVSPost2010Prop37
 90
       50
102
RTVSPost2010PropOp37
 70
     1
102
RTVSPost2010Prop38
140
0.0
102
RTVSPost2010PropOp38
 70
     1
102
RTVSPost2010Prop39
140
1.0
102
RTVSPost2010PropOp39
 70
     1
102
RTVSPost2010Prop40
 90
        0
102
RTVSPost2010PropOp40
 70
     1
102
RTVSPost2010Prop41ColorIndex
 90
       18
102
RTVSPost2010Prop41ColorRGB
 90
        0
102
RTVSPost2010PropOp41
 70
     1
102
RTVSPost2010Prop42
 90
       50
102
RTVSPost2010PropOp42
 70
     1
102
RTVSPost2010Prop43
 90
        3
102
RTVSPost2010PropOp43
 70
     1
102
RTVSPost2010Prop44ColorIndex
 90
        5
102
RTVSPost2010Prop44ColorRGB
 90
      255
102
RTVSPost2010PropOp44
 70
     1
102
RTVSPost2010Prop45
280
     0
102
RTVSPost2010PropOp45
 70
     1
102
RTVSPost2010Prop46
 90
       50
102
RTVSPost2010PropOp46
 70
     1
102
RTVSPost2010Prop47
 90
       50
102
RTVSPost2010PropOp47
 70
     1
102
RTVSPost2010Prop48
 90
       50
102
RTVSPost2010PropOp48
 70
     1
102
RTVSPost2010Prop49
280
     0
102
RTVSPost2010PropOp49
 70
     1
102
RTVSPost2010Prop50
 90
       50
102
RTVSPost2010PropOp50
 70
     1
102
RTVSPost2010Prop51ColorIndex
 90
      256
102
RTVSPost2010Prop51ColorRGB
 90
-16777216
102
RTVSPost2010PropOp51
 70
     0
102
RTVSPost2010Prop52
140
1.0
102
RTVSPost2010PropOp52
 70
     0
102
RTVSPost2010Prop53
 90
        2
102
RTVSPost2010PropOp53
 70
     1
102
RTVSPost2010Prop54
  1
strokes_ogs.tif
102
RTVSPost2010PropOp54
 70
     1
102
RTVSPost2010Prop55
280
     0
102
RTVSPost2010PropOp55
 70
     1
102
RTVSPost2010Prop56
140
1.0
102
RTVSPost2010PropOp56
 70
     1
102
RTVSPost2010Prop57
140
1.0
102
RTVSPost2010PropOp57
 70
     1
  0
XRECORD
  5
31A
102
{ACAD_REACTORS
330
319
102
}
330
319
100
AcDbXrecord
280
     1
102
RTVSPropertyOp0
 70
     1
102
RTVSPropertyOp1
 70
     1
102
RTVSPropertyOp2
 70
     1
102
RTVSPropertyOp3
 70
     1
102
RTVSPropertyOp4
 70
     1
102
RTVSPropertyOp5
 70
     1
102
RTVSPropertyOp6
 70
     1
102
RTVSPropertyOp7
 70
     1
102
RTVSPropertyOp8
 70
     1
102
RTVSPropertyOp9
 70
     1
102
RTVSPropertyOp10
 70
     1
102
RTVSPropertyOp11
 70
     1
102
RTVSPropertyOp12
 70
     1
102
RTVSPropertyOp13
 70
     1
102
RTVSPropertyOp14
 70
     1
102
RTVSPropertyOp15
 70
     1
102
RTVSPropertyOp16
 70
     1
102
RTVSPropertyOp17
 70
     1
102
RTVSPropertyOp18
 70
     1
102
RTVSPropertyOp19
 70
     1
102
RTVSPropertyOp20
 70
     1
102
RTVSPropertyOp21
 70
     1
102
RTVSPropertyOp22
 70
     1
102
RTVSPropertyOp23
 70
     1
102
RTVSPropertyOp24
 70
     1
102
RTVSPropertyOp25
 70
     1
102
RTVSPropertyOp26
 70
     1
102
RTVSPropertyOp27
 70
     1
102
RTVSPropertyOp28
 70
     1
102
RTVSPropertyOp29
 70
     1
102
RTVSPropertyOp30
 70
     1
102
RTVSPropertyOp31
 70
     1
102
RTVSPropertyOp32
 70
     1
102
RTVSPropertyOp33
 70
     1
102
RTVSPropertyOp34
 70
     1
102
RTVSPropertyOp35
 70
     1
102
RTVSPropertyOp36
 70
     1
102
RTVSPropertyOp37
 70
     1
102
RTVSPropertyOp38
 70
     1
102
RTVSPropertyOp39
 70
     1
102
RTVSPropertyOp40
 70
     1
102
RTVSPropertyOp41
 70
     1
102
RTVSPropertyOp42
 70
     1
102
RTVSPropertyOp43
 70
     1
102
RTVSPropertyOp44
 70
     1
102
RTVSPropertyOp45
 70
     1
102
RTVSPropertyOp46
 70
     1
102
RTVSPropertyOp47
 70
     1
102
RTVSPropertyOp48
 70
     1
102
RTVSPropertyOp49
 70
     1
102
RTVSPropertyOp50
 70
     1
102
RTVSPropertyOp51
 70
     0
102
RTVSPropertyOp52
 70
     0
102
RTVSPropertyOp53
 70
     1
102
RTVSPropertyOp54
 70
     1
102
RTVSPropertyOp55
 70
     1
102
RTVSPropertyOp56
 70
     1
102
RTVSPropertyOp57
 70
     1
102
RTVSPost2010Prop28
280
     0
102
RTVSPost2010PropOp28
 70
     1
102
RTVSPost2010Prop29
280
     1
102
RTVSPost2010PropOp29
 70
     1
102
RTVSPost2010Prop30
280
     1
102
RTVSPost2010PropOp30
 70
     1
102
RTVSPost2010Prop31
280
     0
102
RTVSPost2010PropOp31
 70
     1
102
RTVSPost2010Prop32
280
     0
102
RTVSPost2010PropOp32
 70
     1
102
RTVSPost2010Prop33
280
     0
102
RTVSPost2010PropOp33
 70
     1
102
RTVSPost2010Prop34
280
     0
102
RTVSPost2010PropOp34
 70
     1
102
RTVSPost2010Prop35
280
     0
102
RTVSPost2010PropOp35
 70
     1
102
RTVSPost2010Prop36
280
     0
102
RTVSPost2010PropOp36
 70
     1
102
RTVSPost2010Prop37
 90
       50
102
RTVSPost2010PropOp37
 70
     1
102
RTVSPost2010Prop38
140
0.0
102
RTVSPost2010PropOp38
 70
     1
102
RTVSPost2010Prop39
140
1.0
102
RTVSPost2010PropOp39
 70
     1
102
RTVSPost2010Prop40
 90
        0
102
RTVSPost2010PropOp40
 70
     1
102
RTVSPost2010Prop41ColorIndex
 90
       18
102
RTVSPost2010Prop41ColorRGB
 90
        0
102
RTVSPost2010PropOp41
 70
     1
102
RTVSPost2010Prop42
 90
       50
102
RTVSPost2010PropOp42
 70
     1
102
RTVSPost2010Prop43
 90
        3
102
RTVSPost2010PropOp43
 70
     1
102
RTVSPost2010Prop44ColorIndex
 90
        5
102
RTVSPost2010Prop44ColorRGB
 90
      255
102
RTVSPost2010PropOp44
 70
     1
102
RTVSPost2010Prop45
280
     0
102
RTVSPost2010PropOp45
 70
     1
102
RTVSPost2010Prop46
 90
       50
102
RTVSPost2010PropOp46
 70
     1
102
RTVSPost2010Prop47
 90
       50
102
RTVSPost2010PropOp47
 70
     1
102
RTVSPost2010Prop48
 90
       50
102
RTVSPost2010PropOp48
 70
     1
102
RTVSPost2010Prop49
280
     0
102
RTVSPost2010PropOp49
 70
     1
102
RTVSPost2010Prop50
 90
       50
102
RTVSPost2010PropOp50
 70
     1
102
RTVSPost2010Prop51ColorIndex
 90
      256
102
RTVSPost2010Prop51ColorRGB
 90
-16777216
102
RTVSPost2010PropOp51
 70
     0
102
RTVSPost2010Prop52
140
1.0
102
RTVSPost2010PropOp52
 70
     0
102
RTVSPost2010Prop53
 90
        2
102
RTVSPost2010PropOp53
 70
     1
102
RTVSPost2010Prop54
  1
strokes_ogs.tif
102
RTVSPost2010PropOp54
 70
     1
102
RTVSPost2010Prop55
280
     0
102
RTVSPost2010PropOp55
 70
     1
102
RTVSPost2010Prop56
140
1.0
102
RTVSPost2010PropOp56
 70
     1
102
RTVSPost2010Prop57
140
1.0
102
RTVSPost2010PropOp57
 70
     1
  0
ENDSEC
  0
EOF
