  0
SECTION
  2
HEADER
  9
$ACADVER
  1
AC1015
  9
$ACADMAINTVER
 70
     6
  9
$DWGCODEPAGE
  3
ANSI_1252
  9
$INSBASE
 10
0.0
 20
0.0
 30
0.0
  9
$EXTMIN
 10
0.0
 20
0.0
 30
0.0
  9
$EXTMAX
 10
297.0
 20
210.0
 30
0.0
  9
$LIMMIN
 10
0.0
 20
0.0
  9
$LIMMAX
 10
297.0
 20
210.0
  9
$ORTHOMODE
 70
     0
  9
$REGENMODE
 70
     1
  9
$FILLMODE
 70
     1
  9
$QTEXTMODE
 70
     0
  9
$MIRRTEXT
 70
     1
  9
$LTSCALE
 40
1.0
  9
$ATTMODE
 70
     1
  9
$TEXTSIZE
 40
2.0
  9
$TRACEWID
 40
1.0
  9
$TEXTSTYLE
  7
Standard
  9
$CLAYER
  8
0
  9
$CELTYPE
  6
ByLayer
  9
$CECOLOR
 62
   256
  9
$CELTSCALE
 40
1.0
  9
$DISPSILH
 70
     0
  9
$DIMSCALE
 40
1.0
  9
$DIMASZ
 40
2.5
  9
$DIMEXO
 40
0.625
  9
$DIMDLI
 40
3.75
  9
$DIMRND
 40
0.0
  9
$DIMDLE
 40
0.0
  9
$DIMEXE
 40
1.25
  9
$DIMTP
 40
0.0
  9
$DIMTM
 40
0.0
  9
$DIMTXT
 40
2.5
  9
$DIMCEN
 40
2.5
  9
$DIMTSZ
 40
0.0
  9
$DIMTOL
 70
     0
  9
$DIMLIM
 70
     0
  9
$DIMTIH
 70
     0
  9
$DIMTOH
 70
     0
  9
$DIMSE1
 70
     0
  9
$DIMSE2
 70
     0
  9
$DIMTAD
 70
     1
  9
$DIMZIN
 70
     8
  9
$DIMBLK
  1

  9
$DIMASO
 70
     1
  9
$DIMSHO
 70
     1
  9
$DIMPOST
  1

  9
$DIMAPOST
  1

  9
$DIMALT
 70
     0
  9
$DIMALTD
 70
     3
  9
$DIMALTF
 40
0.03937007874016
  9
$DIMLFAC
 40
1.0
  9
$DIMTOFL
 70
     1
  9
$DIMTVP
 40
0.0
  9
$DIMTIX
 70
     0
  9
$DIMSOXD
 70
     0
  9
$DIMSAH
 70
     0
  9
$DIMBLK1
  1

  9
$DIMBLK2
  1

  9
$DIMSTYLE
  2
ISO-25
  9
$DIMCLRD
 70
     0
  9
$DIMCLRE
 70
     0
  9
$DIMCLRT
 70
     0
  9
$DIMTFAC
 40
1.0
  9
$DIMGAP
 40
0.625
  9
$DIMJUST
 70
     0
  9
$DIMSD1
 70
     0
  9
$DIMSD2
 70
     0
  9
$DIMTOLJ
 70
     0
  9
$DIMTZIN
 70
     8
  9
$DIMALTZ
 70
     0
  9
$DIMALTTZ
 70
     0
  9
$DIMUPT
 70
     0
  9
$DIMDEC
 70
     2
  9
$DIMTDEC
 70
     2
  9
$DIMALTU
 70
     2
  9
$DIMALTTD
 70
     3
  9
$DIMTXSTY
  7
Standard
  9
$DIMAUNIT
 70
     0
  9
$DIMADEC
 70
     0
  9
$DIMALTRND
 40
0.0
  9
$DIMAZIN
 70
     0
  9
$DIMDSEP
 70
    44
  9
$DIMATFIT
 70
     3
  9
$DIMFRAC
 70
     0
  9
$DIMLDRBLK
  1

  9
$DIMLUNIT
 70
     2
  9
$DIMLWD
 70
    -2
  9
$DIMLWE
 70
    -2
  9
$DIMTMOVE
 70
     0
  9
$LUNITS
 70
     2
  9
$LUPREC
 70
     4
  9
$SKETCHINC
 40
1.0
  9
$FILLETRAD
 40
10.0
  9
$AUNITS
 70
     0
  9
$AUPREC
 70
     0
  9
$MENU
  1
.
  9
$ELEVATION
 40
0.0
  9
$PELEVATION
 40
0.0
  9
$THICKNESS
 40
0.0
  9
$LIMCHECK
 70
     0
  9
$CHAMFERA
 40
0.0
  9
$CHAMFERB
 40
0.0
  9
$CHAMFERC
 40
0.0
  9
$CHAMFERD
 40
0.0
  9
$SKPOLY
 70
     0
  9
$TDCREATE
 40
2459389.569396435
  9
$TDUCREATE
 40
2459389.486063102
  9
$TDUPDATE
 40
2460427.597087674
  9
$TDUUPDATE
 40
2460427.51375434
  9
$TDINDWG
 40
0.0000000116
  9
$TDUSRTIMER
 40
0.0000000116
  9
$USRTIMER
 70
     1
  9
$ANGBASE
 50
0.0
  9
$ANGDIR
 70
     0
  9
$PDMODE
 70
     0
  9
$PDSIZE
 40
0.0
  9
$PLINEWID
 40
0.0
  9
$SPLFRAME
 70
     0
  9
$SPLINETYPE
 70
     6
  9
$SPLINESEGS
 70
     8
  9
$HANDSEED
  5
369
  9
$SURFTAB1
 70
     6
  9
$SURFTAB2
 70
     6
  9
$SURFTYPE
 70
     6
  9
$SURFU
 70
     6
  9
$SURFV
 70
     6
  9
$UCSBASE
  2

  9
$UCSNAME
  2

  9
$UCSORG
 10
0.0
 20
0.0
 30
0.0
  9
$UCSXDIR
 10
1.0
 20
0.0
 30
0.0
  9
$UCSYDIR
 10
0.0
 20
1.0
 30
0.0
  9
$UCSORTHOREF
  2

  9
$UCSORTHOVIEW
 70
     0
  9
$UCSORGTOP
 10
0.0
 20
0.0
 30
0.0
  9
$UCSORGBOTTOM
 10
0.0
 20
0.0
 30
0.0
  9
$UCSORGLEFT
 10
0.0
 20
0.0
 30
0.0
  9
$UCSORGRIGHT
 10
0.0
 20
0.0
 30
0.0
  9
$UCSORGFRONT
 10
0.0
 20
0.0
 30
0.0
  9
$UCSORGBACK
 10
0.0
 20
0.0
 30
0.0
  9
$PUCSBASE
  2

  9
$PUCSNAME
  2

  9
$PUCSORG
 10
0.0
 20
0.0
 30
0.0
  9
$PUCSXDIR
 10
1.0
 20
0.0
 30
0.0
  9
$PUCSYDIR
 10
0.0
 20
1.0
 30
0.0
  9
$PUCSORTHOREF
  2

  9
$PUCSORTHOVIEW
 70
     0
  9
$PUCSORGTOP
 10
0.0
 20
0.0
 30
0.0
  9
$PUCSORGBOTTOM
 10
0.0
 20
0.0
 30
0.0
  9
$PUCSORGLEFT
 10
0.0
 20
0.0
 30
0.0
  9
$PUCSORGRIGHT
 10
0.0
 20
0.0
 30
0.0
  9
$PUCSORGFRONT
 10
0.0
 20
0.0
 30
0.0
  9
$PUCSORGBACK
 10
0.0
 20
0.0
 30
0.0
  9
$USERI1
 70
     0
  9
$USERI2
 70
     0
  9
$USERI3
 70
     0
  9
$USERI4
 70
     0
  9
$USERI5
 70
     0
  9
$USERR1
 40
0.0
  9
$USERR2
 40
0.0
  9
$USERR3
 40
0.0
  9
$USERR4
 40
0.0
  9
$USERR5
 40
0.0
  9
$WORLDVIEW
 70
     1
  9
$SHADEDGE
 70
     3
  9
$SHADEDIF
 70
    70
  9
$TILEMODE
 70
     1
  9
$MAXACTVP
 70
    64
  9
$PINSBASE
 10
0.0
 20
0.0
 30
0.0
  9
$PLIMCHECK
 70
     0
  9
$PEXTMIN
 10
0.0
 20
0.0
 30
0.0
  9
$PEXTMAX
 10
297.0
 20
210.0
 30
0.0
  9
$PLIMMIN
 10
0.0
 20
0.0
  9
$PLIMMAX
 10
297.0
 20
210.0
  9
$UNITMODE
 70
     0
  9
$VISRETAIN
 70
     1
  9
$PLINEGEN
 70
     0
  9
$PSLTSCALE
 70
     1
  9
$TREEDEPTH
 70
  3020
  9
$CMLSTYLE
  2
Standard
  9
$CMLJUST
 70
     0
  9
$CMLSCALE
 40
20.0
  9
$PROXYGRAPHICS
 70
     1
  9
$MEASUREMENT
 70
     1
  9
$CELWEIGHT
370
    -1
  9
$ENDCAPS
280
     0
  9
$JOINSTYLE
280
     0
  9
$LWDISPLAY
290
     0
  9
$INSUNITS
 70
     4
  9
$HYPERLINKBASE
  1

  9
$STYLESHEET
  1

  9
$XEDIT
290
     1
  9
$CEPSNTYPE
380
     0
  9
$PSTYLEMODE
290
     1
  9
$FINGERPRINTGUID
  2
{258E819B-DECB-415C-AAC3-2C17119DED62}
  9
$VERSIONGUID
  2
{FAEB1C32-E019-11D5-929B-00C0DF256EC4}
  9
$EXTNAMES
290
     1
  9
$PSVPSCALE
 40
0.0
  9
$OLESTARTUP
290
     0
  0
ENDSEC
  0
SECTION
  2
CLASSES
  0
CLASS
  1
ACDBDICTIONARYWDFLT
  2
AcDbDictionaryWithDefault
  3
ObjectDBX Classes
 90
        0
280
     0
281
     0
  0
CLASS
  1
VISUALSTYLE
  2
AcDbVisualStyle
  3
ObjectDBX Classes
 90
     4095
280
     0
281
     0
  0
CLASS
  1
MATERIAL
  2
AcDbMaterial
  3
ObjectDBX Classes
 90
     1153
280
     0
281
     0
  0
CLASS
  1
SCALE
  2
AcDbScale
  3
ObjectDBX Classes
 90
     1153
280
     0
281
     0
  0
CLASS
  1
TABLESTYLE
  2
AcDbTableStyle
  3
ObjectDBX Classes
 90
     4095
280
     0
281
     0
  0
CLASS
  1
MLEADERSTYLE
  2
AcDbMLeaderStyle
  3
ACDB_MLEADERSTYLE_CLASS
 90
     4095
280
     0
281
     0
  0
CLASS
  1
SUN
  2
AcDbSun
  3
SCENEOE
 90
     1153
280
     0
281
     0
  0
CLASS
  1
DICTIONARYVAR
  2
AcDbDictionaryVar
  3
ObjectDBX Classes
 90
        0
280
     0
281
     0
  0
CLASS
  1
CELLSTYLEMAP
  2
AcDbCellStyleMap
  3
ObjectDBX Classes
 90
     1152
280
     0
281
     0
  0
CLASS
  1
ACDBPLACEHOLDER
  2
AcDbPlaceHolder
  3
ObjectDBX Classes
 90
        0
280
     0
281
     0
  0
CLASS
  1
LAYOUT
  2
AcDbLayout
  3
ObjectDBX Classes
 90
        0
280
     0
281
     0
  0
ENDSEC
  0
SECTION
  2
TABLES
  0
TABLE
  2
VPORT
  5
8
102
{ACAD_XDICTIONARY
360
32D
102
}
330
0
100
AcDbSymbolTable
 70
     1
  0
VPORT
  5
29
330
8
100
AcDbSymbolTableRecord
100
AcDbViewportTableRecord
  2
*Active
 70
     0
 10
0.0
 20
0.0
 11
1.0
 21
1.0
 12
344.1869158878504
 22
148.5
 13
0.0
 23
0.0
 14
10.0
 24
10.0
 15
10.0
 25
10.0
 16
0.0
 26
0.0
 36
1.0
 17
0.0
 27
0.0
 37
0.0
 40
297.0
 41
1.972972972850329
 42
50.0
 43
0.0
 44
0.0
 50
0.0
 51
0.0
 71
     0
 72
   100
 73
     1
 74
     3
 75
     0
 76
     0
 77
     0
 78
     0
281
     0
 65
     1
110
0.0
120
0.0
130
0.0
111
1.0
121
0.0
131
0.0
112
0.0
122
1.0
132
0.0
 79
     0
146
0.0
  0
ENDTAB
  0
TABLE
  2
LTYPE
  5
5
330
0
100
AcDbSymbolTable
 70
     1
  0
LTYPE
  5
14
330
5
100
AcDbSymbolTableRecord
100
AcDbLinetypeTableRecord
  2
ByBlock
 70
     0
  3

 72
    65
 73
     0
 40
0.0
  0
LTYPE
  5
15
330
5
100
AcDbSymbolTableRecord
100
AcDbLinetypeTableRecord
  2
ByLayer
 70
     0
  3

 72
    65
 73
     0
 40
0.0
  0
LTYPE
  5
16
330
5
100
AcDbSymbolTableRecord
100
AcDbLinetypeTableRecord
  2
Continuous
 70
     0
  3
Solid line
 72
    65
 73
     0
 40
0.0
  0
ENDTAB
  0
TABLE
  2
LAYER
  5
2
330
0
100
AcDbSymbolTable
 70
     8
  0
LAYER
  5
10
330
2
100
AcDbSymbolTableRecord
100
AcDbLayerTableRecord
  2
0
 70
     0
 62
     7
  6
Continuous
370
    -3
390
F
  0
LAYER
  5
6E
330
2
100
AcDbSymbolTableRecord
100
AcDbLayerTableRecord
  2
Default
 70
     0
 62
     7
  6
Continuous
370
    -3
390
F
  0
LAYER
  5
71
330
2
100
AcDbSymbolTableRecord
100
AcDbLayerTableRecord
  2
DV1_0
 70
     0
 62
     7
  6
Continuous
370
    -3
390
F
  0
LAYER
  5
11C
330
2
100
AcDbSymbolTableRecord
100
AcDbLayerTableRecord
  2
DV2_0
 70
     0
 62
     7
  6
Continuous
370
    -3
390
F
  0
LAYER
  5
17F
330
2
100
AcDbSymbolTableRecord
100
AcDbLayerTableRecord
  2
DV3_0
 70
     0
 62
     7
  6
Continuous
370
    -3
390
F
  0
LAYER
  5
199
330
2
100
AcDbSymbolTableRecord
100
AcDbLayerTableRecord
  2
DV4_0
 70
     0
 62
     7
  6
Continuous
370
    -3
390
F
  0
LAYER
  5
2C7
330
2
100
AcDbSymbolTableRecord
100
AcDbLayerTableRecord
  2
Predeterminado
 70
     0
 62
     7
  6
Continuous
370
    -3
390
F
  0
LAYER
  5
2E2
330
2
100
AcDbSymbolTableRecord
100
AcDbLayerTableRecord
  2
D
 70
     0
 62
     7
  6
Continuous
370
    -3
390
F
  0
ENDTAB
  0
TABLE
  2
STYLE
  5
3
330
0
100
AcDbSymbolTable
 70
     4
  0
STYLE
  5
11
330
3
100
AcDbSymbolTableRecord
100
AcDbTextStyleTableRecord
  2
Standard
 70
     0
 40
0.0
 41
1.0
 50
0.0
 71
     0
 42
2.0
  3
txt
  4

  0
STYLE
  5
29D
330
3
100
AcDbSymbolTableRecord
100
AcDbTextStyleTableRecord
  2
SEACAD_Solid_Edge_ANSI
 70
     0
 40
0.0
 41
1.0
 50
0.0
 71
     0
 42
2.5
  3
seans.ttf
  4

1001
ACAD
1000
Solid Edge ANSI
1071
        0
  0
STYLE
  5
324
330
3
100
AcDbSymbolTableRecord
100
AcDbTextStyleTableRecord
  2
MtXpl_Arial
 70
     0
 40
0.2
 41
1.0
 50
0.0
 71
     0
 42
2.0
  3
arialbd.ttf
  4

1001
ACAD
1000
Arial
1071
 33554466
  0
STYLE
  5
325
330
3
100
AcDbSymbolTableRecord
100
AcDbTextStyleTableRecord
  2
MtXpl_Arial1
 70
     0
 40
0.2
 41
1.0
 50
0.0
 71
     0
 42
2.0
  3

  4

1001
ACAD
1000
Arial
1071
       34
  0
ENDTAB
  0
TABLE
  2
VIEW
  5
6
330
0
100
AcDbSymbolTable
 70
     0
  0
ENDTAB
  0
TABLE
  2
UCS
  5
7
330
0
100
AcDbSymbolTable
 70
     0
  0
ENDTAB
  0
TABLE
  2
APPID
  5
9
330
0
100
AcDbSymbolTable
 70
     2
  0
APPID
  5
12
330
9
100
AcDbSymbolTableRecord
100
AcDbRegAppTableRecord
  2
ACAD
 70
     0
  0
APPID
  5
31B
330
9
100
AcDbSymbolTableRecord
100
AcDbRegAppTableRecord
  2
ACAD_MLEADERVER
 70
     0
  0
ENDTAB
  0
TABLE
  2
DIMSTYLE
  5
A
330
0
100
AcDbSymbolTable
 70
     1
100
AcDbDimStyleTable
  0
DIMSTYLE
105
27
330
A
100
AcDbSymbolTableRecord
100
AcDbDimStyleTableRecord
  2
ISO-25
 70
     0
 41
2.5
 42
0.625
 43
3.75
 44
1.25
 73
     0
 74
     0
 77
     1
 78
     8
140
2.5
141
2.5
143
0.03937007874016
147
0.625
171
     3
172
     1
178
     0
271
     2
272
     2
274
     3
278
    44
283
     0
284
     8
340
11
  0
ENDTAB
  0
TABLE
  2
BLOCK_RECORD
  5
1
330
0
100
AcDbSymbolTable
 70
    12
  0
BLOCK_RECORD
  5
1F
330
1
100
AcDbSymbolTableRecord
100
AcDbBlockTableRecord
  2
*Model_Space
340
22
  0
BLOCK_RECORD
  5
1B
330
1
100
AcDbSymbolTableRecord
100
AcDbBlockTableRecord
  2
*Paper_Space
340
1E
  0
BLOCK_RECORD
  5
6F
330
1
100
AcDbSymbolTableRecord
100
AcDbBlockTableRecord
  2
SE
340
0
102
{BLKREFS
331
70
102
}
  0
BLOCK_RECORD
  5
11A
330
1
100
AcDbSymbolTableRecord
100
AcDbBlockTableRecord
  2
SE1
340
0
102
{BLKREFS
331
11B
102
}
  0
BLOCK_RECORD
  5
17D
330
1
100
AcDbSymbolTableRecord
100
AcDbBlockTableRecord
  2
SE2
340
0
102
{BLKREFS
331
17E
102
}
  0
BLOCK_RECORD
  5
197
330
1
100
AcDbSymbolTableRecord
100
AcDbBlockTableRecord
  2
SE3
340
0
102
{BLKREFS
331
198
102
}
  0
BLOCK_RECORD
  5
296
330
1
100
AcDbSymbolTableRecord
100
AcDbBlockTableRecord
  2
GDimGGroup
340
0
102
{BLKREFS
331
297
102
}
  0
BLOCK_RECORD
  5
2A1
330
1
100
AcDbSymbolTableRecord
100
AcDbBlockTableRecord
  2
GDimGGroup1
340
0
102
{BLKREFS
331
2A2
102
}
  0
BLOCK_RECORD
  5
2A9
330
1
100
AcDbSymbolTableRecord
100
AcDbBlockTableRecord
  2
GDimGGroup2
340
0
102
{BLKREFS
331
2AA
102
}
  0
BLOCK_RECORD
  5
2B3
330
1
100
AcDbSymbolTableRecord
100
AcDbBlockTableRecord
  2
GDimGGroup3
340
0
102
{BLKREFS
331
2B4
102
}
  0
BLOCK_RECORD
  5
2BD
330
1
100
AcDbSymbolTableRecord
100
AcDbBlockTableRecord
  2
GDimGGroup4
340
0
102
{BLKREFS
331
2BE
102
}
  0
BLOCK_RECORD
  5
2CE
330
1
100
AcDbSymbolTableRecord
100
AcDbBlockTableRecord
  2
SEANNOT_GROUP
340
0
102
{BLKREFS
331
2CF
102
}
  0
BLOCK_RECORD
  5
2D8
330
1
100
AcDbSymbolTableRecord
100
AcDbBlockTableRecord
  2
SEANNOT_GROUP1
340
0
102
{BLKREFS
331
2D9
102
}
  0
BLOCK_RECORD
  5
2DD
330
1
100
AcDbSymbolTableRecord
100
AcDbBlockTableRecord
  2
SEANNOT_GROUP2
340
0
102
{BLKREFS
331
2DE
102
}
  0
ENDTAB
  0
ENDSEC
  0
SECTION
  2
BLOCKS
  0
BLOCK
  5
20
330
1F
100
AcDbEntity
  8
0
100
AcDbBlockBegin
  2
*Model_Space
 70
     0
 10
0.0
 20
0.0
 30
0.0
  3
*Model_Space
  1

  0
ENDBLK
  5
21
330
1F
100
AcDbEntity
  8
0
100
AcDbBlockEnd
  0
BLOCK
  5
1C
330
1B
100
AcDbEntity
 67
     1
  8
0
100
AcDbBlockBegin
  2
*Paper_Space
 70
     0
 10
0.0
 20
0.0
 30
0.0
  3
*Paper_Space
  1

  0
ENDBLK
  5
1D
330
1B
100
AcDbEntity
 67
     1
  8
0
100
AcDbBlockEnd
  0
BLOCK
  5
118
330
6F
100
AcDbEntity
  8
0
100
AcDbBlockBegin
  2
SE
 70
     0
 10
0.0
 20
0.0
 30
0.0
  3
SE
  1

  0
LINE
  5
72
330
6F
100
AcDbEntity
  8
DV1_0
 62
     7
370
    25
100
AcDbLine
 10
123.0436342157352
 20
153.8261956075397
 30
0.0
 11
121.385179991657
 21
153.8261956075397
 31
0.0
  0
LINE
  5
73
330
6F
100
AcDbEntity
  8
DV1_0
 62
     7
370
    25
100
AcDbLine
 10
117.5020884398133
 20
153.8261956075397
 30
0.0
 11
113.385179991657
 21
153.8261956075397
 31
0.0
  0
LINE
  5
74
330
6F
100
AcDbEntity
  8
DV1_0
 62
     7
370
    25
100
AcDbLine
 10
109.5020884398133
 20
153.8261956075397
 30
0.0
 11
105.3851799916571
 21
153.8261956075397
 31
0.0
  0
LINE
  5
75
330
6F
100
AcDbEntity
  8
DV1_0
 62
     7
370
    25
100
AcDbLine
 10
101.5020884398134
 20
153.8261956075397
 30
0.0
 11
97.38517999165705
 21
153.8261956075397
 31
0.0
  0
LINE
  5
76
330
6F
100
AcDbEntity
  8
DV1_0
 62
     7
370
    25
100
AcDbLine
 10
93.50208843981335
 20
153.8261956075397
 30
0.0
 11
89.38517999165703
 21
153.8261956075397
 31
0.0
  0
LINE
  5
77
330
6F
100
AcDbEntity
  8
DV1_0
 62
     7
370
    25
100
AcDbLine
 10
85.50208843981332
 20
153.8261956075397
 30
0.0
 11
81.38517999165703
 21
153.8261956075397
 31
0.0
  0
LINE
  5
78
330
6F
100
AcDbEntity
  8
DV1_0
 62
     7
370
    25
100
AcDbLine
 10
77.50208843981332
 20
153.8261956075397
 30
0.0
 11
73.38517999165694
 21
153.8261956075397
 31
0.0
  0
LINE
  5
79
330
6F
100
AcDbEntity
  8
DV1_0
 62
     7
370
    25
100
AcDbLine
 10
69.50208843981325
 20
153.8261956075397
 30
0.0
 11
65.38517999165694
 21
153.8261956075397
 31
0.0
  0
LINE
  5
7A
330
6F
100
AcDbEntity
  8
DV1_0
 62
     7
370
    25
100
AcDbLine
 10
61.50208843981326
 20
153.8261956075397
 30
0.0
 11
57.38517999165693
 21
153.8261956075397
 31
0.0
  0
LINE
  5
7B
330
6F
100
AcDbEntity
  8
DV1_0
 62
     7
370
    25
100
AcDbLine
 10
53.50208843981325
 20
153.8261956075397
 30
0.0
 11
49.38517999165693
 21
153.8261956075397
 31
0.0
  0
LINE
  5
7C
330
6F
100
AcDbEntity
  8
DV1_0
 62
     7
370
    25
100
AcDbLine
 10
45.50208843981326
 20
153.8261956075397
 30
0.0
 11
41.38517999165691
 21
153.8261956075397
 31
0.0
  0
LINE
  5
7D
330
6F
100
AcDbEntity
  8
DV1_0
 62
     7
370
    25
100
AcDbLine
 10
37.50208843981325
 20
153.8261956075397
 30
0.0
 11
33.38517999165691
 21
153.8261956075397
 31
0.0
  0
LINE
  5
7E
330
6F
100
AcDbEntity
  8
DV1_0
 62
     7
370
    25
100
AcDbLine
 10
29.50208843981326
 20
153.8261956075397
 30
0.0
 11
27.84363421573515
 21
153.8261956075397
 31
0.0
  0
LINE
  5
7F
330
6F
100
AcDbEntity
  8
DV1_0
 62
     7
370
    35
100
AcDbLine
 10
27.84363421573516
 20
154.1461956075397
 30
0.0
 11
29.61060393775282
 21
154.1461956075397
 31
0.0
  0
LINE
  5
80
330
6F
100
AcDbEntity
  8
DV1_0
 62
     7
370
    35
100
AcDbLine
 10
33.27666449371738
 20
154.1461956075397
 30
0.0
 11
37.61060393775281
 21
154.1461956075397
 31
0.0
  0
LINE
  5
81
330
6F
100
AcDbEntity
  8
DV1_0
 62
     7
370
    35
100
AcDbLine
 10
41.27666449371739
 20
154.1461956075397
 30
0.0
 11
45.6106039377528
 21
154.1461956075397
 31
0.0
  0
LINE
  5
82
330
6F
100
AcDbEntity
  8
DV1_0
 62
     7
370
    35
100
AcDbLine
 10
49.27666449371739
 20
154.1461956075397
 30
0.0
 11
53.61060393775278
 21
154.1461956075397
 31
0.0
  0
LINE
  5
83
330
6F
100
AcDbEntity
  8
DV1_0
 62
     7
370
    35
100
AcDbLine
 10
57.2766644937174
 20
154.1461956075397
 30
0.0
 11
61.61060393775278
 21
154.1461956075397
 31
0.0
  0
LINE
  5
84
330
6F
100
AcDbEntity
  8
DV1_0
 62
     7
370
    35
100
AcDbLine
 10
65.2766644937174
 20
154.1461956075397
 30
0.0
 11
69.61060393775278
 21
154.1461956075397
 31
0.0
  0
LINE
  5
85
330
6F
100
AcDbEntity
  8
DV1_0
 62
     7
370
    35
100
AcDbLine
 10
73.27666449371742
 20
154.1461956075397
 30
0.0
 11
77.61060393775284
 21
154.1461956075397
 31
0.0
  0
LINE
  5
86
330
6F
100
AcDbEntity
  8
DV1_0
 62
     7
370
    35
100
AcDbLine
 10
81.2766644937175
 20
154.1461956075397
 30
0.0
 11
85.61060393775284
 21
154.1461956075397
 31
0.0
  0
LINE
  5
87
330
6F
100
AcDbEntity
  8
DV1_0
 62
     7
370
    35
100
AcDbLine
 10
89.27666449371752
 20
154.1461956075397
 30
0.0
 11
93.61060393775286
 21
154.1461956075397
 31
0.0
  0
LINE
  5
88
330
6F
100
AcDbEntity
  8
DV1_0
 62
     7
370
    35
100
AcDbLine
 10
97.27666449371752
 20
154.1461956075397
 30
0.0
 11
101.6106039377529
 21
154.1461956075397
 31
0.0
  0
LINE
  5
89
330
6F
100
AcDbEntity
  8
DV1_0
 62
     7
370
    35
100
AcDbLine
 10
105.2766644937175
 20
154.1461956075397
 30
0.0
 11
109.6106039377529
 21
154.1461956075397
 31
0.0
  0
LINE
  5
8A
330
6F
100
AcDbEntity
  8
DV1_0
 62
     7
370
    35
100
AcDbLine
 10
113.2766644937175
 20
154.1461956075397
 30
0.0
 11
117.6106039377528
 21
154.1461956075397
 31
0.0
  0
LINE
  5
8B
330
6F
100
AcDbEntity
  8
DV1_0
 62
     7
370
    35
100
AcDbLine
 10
121.2766644937175
 20
154.1461956075397
 30
0.0
 11
123.0436342157353
 21
154.1461956075397
 31
0.0
  0
LINE
  5
8C
330
6F
100
AcDbEntity
  8
DV1_0
 62
     7
370
    35
100
AcDbLine
 10
123.0436342157352
 20
149.3461956075397
 30
0.0
 11
121.4436342157352
 21
149.3461956075397
 31
0.0
  0
LINE
  5
8D
330
6F
100
AcDbEntity
  8
DV1_0
 62
     7
370
    35
100
AcDbLine
 10
117.4436342157352
 20
149.3461956075397
 30
0.0
 11
113.4436342157352
 21
149.3461956075397
 31
0.0
  0
LINE
  5
8E
330
6F
100
AcDbEntity
  8
DV1_0
 62
     7
370
    35
100
AcDbLine
 10
109.4436342157352
 20
149.3461956075397
 30
0.0
 11
105.4436342157352
 21
149.3461956075397
 31
0.0
  0
LINE
  5
8F
330
6F
100
AcDbEntity
  8
DV1_0
 62
     7
370
    35
100
AcDbLine
 10
101.4436342157352
 20
149.3461956075397
 30
0.0
 11
97.4436342157352
 21
149.3461956075397
 31
0.0
  0
LINE
  5
90
330
6F
100
AcDbEntity
  8
DV1_0
 62
     7
370
    35
100
AcDbLine
 10
93.4436342157352
 20
149.3461956075397
 30
0.0
 11
89.44363421573519
 21
149.3461956075397
 31
0.0
  0
LINE
  5
91
330
6F
100
AcDbEntity
  8
DV1_0
 62
     7
370
    35
100
AcDbLine
 10
85.44363421573519
 20
149.3461956075397
 30
0.0
 11
81.44363421573517
 21
149.3461956075397
 31
0.0
  0
LINE
  5
92
330
6F
100
AcDbEntity
  8
DV1_0
 62
     7
370
    35
100
AcDbLine
 10
77.44363421573517
 20
149.3461956075397
 30
0.0
 11
73.4436342157351
 21
149.3461956075397
 31
0.0
  0
LINE
  5
93
330
6F
100
AcDbEntity
  8
DV1_0
 62
     7
370
    35
100
AcDbLine
 10
69.4436342157351
 20
149.3461956075397
 30
0.0
 11
65.4436342157351
 21
149.3461956075397
 31
0.0
  0
LINE
  5
94
330
6F
100
AcDbEntity
  8
DV1_0
 62
     7
370
    35
100
AcDbLine
 10
61.4436342157351
 20
149.3461956075397
 30
0.0
 11
57.4436342157351
 21
149.3461956075397
 31
0.0
  0
LINE
  5
95
330
6F
100
AcDbEntity
  8
DV1_0
 62
     7
370
    35
100
AcDbLine
 10
53.4436342157351
 20
149.3461956075397
 30
0.0
 11
49.44363421573509
 21
149.3461956075397
 31
0.0
  0
LINE
  5
96
330
6F
100
AcDbEntity
  8
DV1_0
 62
     7
370
    35
100
AcDbLine
 10
45.4436342157351
 20
149.3461956075397
 30
0.0
 11
41.44363421573512
 21
149.3461956075397
 31
0.0
  0
LINE
  5
97
330
6F
100
AcDbEntity
  8
DV1_0
 62
     7
370
    35
100
AcDbLine
 10
37.44363421573509
 20
149.3461956075397
 30
0.0
 11
33.4436342157351
 21
149.3461956075397
 31
0.0
  0
LINE
  5
98
330
6F
100
AcDbEntity
  8
DV1_0
 62
     7
370
    35
100
AcDbLine
 10
29.44363421573509
 20
149.3461956075397
 30
0.0
 11
27.84363421573515
 21
149.3461956075397
 31
0.0
  0
LINE
  5
99
330
6F
100
AcDbEntity
  8
DV1_0
 62
     7
370
    25
100
AcDbLine
 10
27.84363421573516
 20
149.6661956075397
 30
0.0
 11
29.44363421573511
 21
149.6661956075397
 31
0.0
  0
LINE
  5
9A
330
6F
100
AcDbEntity
  8
DV1_0
 62
     7
370
    25
100
AcDbLine
 10
33.44363421573511
 20
149.6661956075397
 30
0.0
 11
37.44363421573512
 21
149.6661956075397
 31
0.0
  0
LINE
  5
9B
330
6F
100
AcDbEntity
  8
DV1_0
 62
     7
370
    25
100
AcDbLine
 10
41.44363421573509
 20
149.6661956075397
 30
0.0
 11
45.4436342157351
 21
149.6661956075397
 31
0.0
  0
LINE
  5
9C
330
6F
100
AcDbEntity
  8
DV1_0
 62
     7
370
    25
100
AcDbLine
 10
49.44363421573511
 20
149.6661956075397
 30
0.0
 11
53.44363421573512
 21
149.6661956075397
 31
0.0
  0
LINE
  5
9D
330
6F
100
AcDbEntity
  8
DV1_0
 62
     7
370
    25
100
AcDbLine
 10
57.4436342157351
 20
149.6661956075397
 30
0.0
 11
61.44363421573511
 21
149.6661956075397
 31
0.0
  0
LINE
  5
9E
330
6F
100
AcDbEntity
  8
DV1_0
 62
     7
370
    25
100
AcDbLine
 10
65.4436342157351
 20
149.6661956075397
 30
0.0
 11
69.4436342157351
 21
149.6661956075397
 31
0.0
  0
LINE
  5
9F
330
6F
100
AcDbEntity
  8
DV1_0
 62
     7
370
    25
100
AcDbLine
 10
73.4436342157351
 20
149.6661956075397
 30
0.0
 11
77.44363421573519
 21
149.6661956075397
 31
0.0
  0
LINE
  5
A0
330
6F
100
AcDbEntity
  8
DV1_0
 62
     7
370
    25
100
AcDbLine
 10
81.44363421573516
 20
149.6661956075397
 30
0.0
 11
85.44363421573519
 21
149.6661956075397
 31
0.0
  0
LINE
  5
A1
330
6F
100
AcDbEntity
  8
DV1_0
 62
     7
370
    25
100
AcDbLine
 10
89.44363421573519
 20
149.6661956075397
 30
0.0
 11
93.4436342157352
 21
149.6661956075397
 31
0.0
  0
LINE
  5
A2
330
6F
100
AcDbEntity
  8
DV1_0
 62
     7
370
    25
100
AcDbLine
 10
97.44363421573522
 20
149.6661956075397
 30
0.0
 11
101.4436342157352
 21
149.6661956075397
 31
0.0
  0
LINE
  5
A3
330
6F
100
AcDbEntity
  8
DV1_0
 62
     7
370
    25
100
AcDbLine
 10
105.4436342157352
 20
149.6661956075397
 30
0.0
 11
109.4436342157352
 21
149.6661956075397
 31
0.0
  0
LINE
  5
A4
330
6F
100
AcDbEntity
  8
DV1_0
 62
     7
370
    25
100
AcDbLine
 10
113.4436342157352
 20
149.6661956075397
 30
0.0
 11
117.4436342157352
 21
149.6661956075397
 31
0.0
  0
LINE
  5
A5
330
6F
100
AcDbEntity
  8
DV1_0
 62
     7
370
    25
100
AcDbLine
 10
121.4436342157352
 20
149.6661956075397
 30
0.0
 11
123.0436342157353
 21
149.6661956075397
 31
0.0
  0
LINE
  5
A6
330
6F
100
AcDbEntity
  8
DV1_0
 62
     7
370
    25
100
AcDbLine
 10
123.0436342157352
 20
127.8261956075397
 30
0.0
 11
121.4436342157352
 21
127.8261956075397
 31
0.0
  0
LINE
  5
A7
330
6F
100
AcDbEntity
  8
DV1_0
 62
     7
370
    25
100
AcDbLine
 10
117.4436342157352
 20
127.8261956075397
 30
0.0
 11
113.4436342157352
 21
127.8261956075397
 31
0.0
  0
LINE
  5
A8
330
6F
100
AcDbEntity
  8
DV1_0
 62
     7
370
    25
100
AcDbLine
 10
109.4436342157352
 20
127.8261956075397
 30
0.0
 11
105.4436342157352
 21
127.8261956075397
 31
0.0
  0
LINE
  5
A9
330
6F
100
AcDbEntity
  8
DV1_0
 62
     7
370
    25
100
AcDbLine
 10
101.4436342157352
 20
127.8261956075397
 30
0.0
 11
97.44363421573522
 21
127.8261956075397
 31
0.0
  0
LINE
  5
AA
330
6F
100
AcDbEntity
  8
DV1_0
 62
     7
370
    25
100
AcDbLine
 10
93.44363421573522
 20
127.8261956075397
 30
0.0
 11
89.44363421573522
 21
127.8261956075397
 31
0.0
  0
LINE
  5
AB
330
6F
100
AcDbEntity
  8
DV1_0
 62
     7
370
    25
100
AcDbLine
 10
85.44363421573522
 20
127.8261956075397
 30
0.0
 11
81.4436342157352
 21
127.8261956075397
 31
0.0
  0
LINE
  5
AC
330
6F
100
AcDbEntity
  8
DV1_0
 62
     7
370
    25
100
AcDbLine
 10
77.4436342157352
 20
127.8261956075397
 30
0.0
 11
73.44363421573516
 21
127.8261956075397
 31
0.0
  0
LINE
  5
AD
330
6F
100
AcDbEntity
  8
DV1_0
 62
     7
370
    25
100
AcDbLine
 10
69.44363421573516
 20
127.8261956075397
 30
0.0
 11
65.44363421573516
 21
127.8261956075397
 31
0.0
  0
LINE
  5
AE
330
6F
100
AcDbEntity
  8
DV1_0
 62
     7
370
    25
100
AcDbLine
 10
61.44363421573516
 20
127.8261956075397
 30
0.0
 11
57.44363421573516
 21
127.8261956075397
 31
0.0
  0
LINE
  5
AF
330
6F
100
AcDbEntity
  8
DV1_0
 62
     7
370
    25
100
AcDbLine
 10
53.44363421573514
 20
127.8261956075397
 30
0.0
 11
49.44363421573514
 21
127.8261956075397
 31
0.0
  0
LINE
  5
B0
330
6F
100
AcDbEntity
  8
DV1_0
 62
     7
370
    25
100
AcDbLine
 10
45.44363421573513
 20
127.8261956075397
 30
0.0
 11
41.44363421573516
 21
127.8261956075397
 31
0.0
  0
LINE
  5
B1
330
6F
100
AcDbEntity
  8
DV1_0
 62
     7
370
    25
100
AcDbLine
 10
37.44363421573514
 20
127.8261956075397
 30
0.0
 11
33.44363421573514
 21
127.8261956075397
 31
0.0
  0
LINE
  5
B2
330
6F
100
AcDbEntity
  8
DV1_0
 62
     7
370
    25
100
AcDbLine
 10
29.44363421573514
 20
127.8261956075397
 30
0.0
 11
27.84363421573515
 21
127.8261956075397
 31
0.0
  0
LINE
  5
B3
330
6F
100
AcDbEntity
  8
DV1_0
 62
     7
370
    35
100
AcDbLine
 10
27.84363421573516
 20
128.1461956075397
 30
0.0
 11
29.44363421573514
 21
128.1461956075397
 31
0.0
  0
LINE
  5
B4
330
6F
100
AcDbEntity
  8
DV1_0
 62
     7
370
    35
100
AcDbLine
 10
33.44363421573514
 20
128.1461956075397
 30
0.0
 11
37.44363421573514
 21
128.1461956075397
 31
0.0
  0
LINE
  5
B5
330
6F
100
AcDbEntity
  8
DV1_0
 62
     7
370
    35
100
AcDbLine
 10
41.44363421573515
 20
128.1461956075397
 30
0.0
 11
45.44363421573516
 21
128.1461956075397
 31
0.0
  0
LINE
  5
B6
330
6F
100
AcDbEntity
  8
DV1_0
 62
     7
370
    35
100
AcDbLine
 10
49.44363421573514
 20
128.1461956075397
 30
0.0
 11
53.44363421573514
 21
128.1461956075397
 31
0.0
  0
LINE
  5
B7
330
6F
100
AcDbEntity
  8
DV1_0
 62
     7
370
    35
100
AcDbLine
 10
57.44363421573514
 20
128.1461956075397
 30
0.0
 11
61.44363421573517
 21
128.1461956075397
 31
0.0
  0
LINE
  5
B8
330
6F
100
AcDbEntity
  8
DV1_0
 62
     7
370
    35
100
AcDbLine
 10
65.44363421573516
 20
128.1461956075397
 30
0.0
 11
69.44363421573517
 21
128.1461956075397
 31
0.0
  0
LINE
  5
B9
330
6F
100
AcDbEntity
  8
DV1_0
 62
     7
370
    35
100
AcDbLine
 10
73.44363421573517
 20
128.1461956075397
 30
0.0
 11
77.44363421573522
 21
128.1461956075397
 31
0.0
  0
LINE
  5
BA
330
6F
100
AcDbEntity
  8
DV1_0
 62
     7
370
    35
100
AcDbLine
 10
81.44363421573522
 20
128.1461956075397
 30
0.0
 11
85.44363421573522
 21
128.1461956075397
 31
0.0
  0
LINE
  5
BB
330
6F
100
AcDbEntity
  8
DV1_0
 62
     7
370
    35
100
AcDbLine
 10
89.44363421573522
 20
128.1461956075397
 30
0.0
 11
93.44363421573522
 21
128.1461956075397
 31
0.0
  0
LINE
  5
BC
330
6F
100
AcDbEntity
  8
DV1_0
 62
     7
370
    35
100
AcDbLine
 10
97.44363421573523
 20
128.1461956075397
 30
0.0
 11
101.4436342157352
 21
128.1461956075397
 31
0.0
  0
LINE
  5
BD
330
6F
100
AcDbEntity
  8
DV1_0
 62
     7
370
    35
100
AcDbLine
 10
105.4436342157352
 20
128.1461956075397
 30
0.0
 11
109.4436342157352
 21
128.1461956075397
 31
0.0
  0
LINE
  5
BE
330
6F
100
AcDbEntity
  8
DV1_0
 62
     7
370
    35
100
AcDbLine
 10
113.4436342157352
 20
128.1461956075397
 30
0.0
 11
117.4436342157352
 21
128.1461956075397
 31
0.0
  0
LINE
  5
BF
330
6F
100
AcDbEntity
  8
DV1_0
 62
     7
370
    35
100
AcDbLine
 10
121.4436342157352
 20
128.1461956075397
 30
0.0
 11
123.0436342157352
 21
128.1461956075397
 31
0.0
  0
LINE
  5
C0
330
6F
100
AcDbEntity
  8
DV1_0
 62
     7
370
    35
100
AcDbLine
 10
123.0436342157352
 20
123.3461956075397
 30
0.0
 11
121.4436342157352
 21
123.3461956075397
 31
0.0
  0
LINE
  5
C1
330
6F
100
AcDbEntity
  8
DV1_0
 62
     7
370
    35
100
AcDbLine
 10
117.4436342157352
 20
123.3461956075397
 30
0.0
 11
113.4436342157352
 21
123.3461956075397
 31
0.0
  0
LINE
  5
C2
330
6F
100
AcDbEntity
  8
DV1_0
 62
     7
370
    35
100
AcDbLine
 10
109.4436342157352
 20
123.3461956075397
 30
0.0
 11
105.4436342157352
 21
123.3461956075397
 31
0.0
  0
LINE
  5
C3
330
6F
100
AcDbEntity
  8
DV1_0
 62
     7
370
    35
100
AcDbLine
 10
101.4436342157352
 20
123.3461956075397
 30
0.0
 11
97.44363421573522
 21
123.3461956075397
 31
0.0
  0
LINE
  5
C4
330
6F
100
AcDbEntity
  8
DV1_0
 62
     7
370
    35
100
AcDbLine
 10
93.44363421573522
 20
123.3461956075397
 30
0.0
 11
89.44363421573522
 21
123.3461956075397
 31
0.0
  0
LINE
  5
C5
330
6F
100
AcDbEntity
  8
DV1_0
 62
     7
370
    35
100
AcDbLine
 10
85.44363421573522
 20
123.3461956075397
 30
0.0
 11
81.4436342157352
 21
123.3461956075397
 31
0.0
  0
LINE
  5
C6
330
6F
100
AcDbEntity
  8
DV1_0
 62
     7
370
    35
100
AcDbLine
 10
77.44363421573522
 20
123.3461956075397
 30
0.0
 11
73.44363421573519
 21
123.3461956075397
 31
0.0
  0
LINE
  5
C7
330
6F
100
AcDbEntity
  8
DV1_0
 62
     7
370
    35
100
AcDbLine
 10
69.44363421573519
 20
123.3461956075397
 30
0.0
 11
65.44363421573517
 21
123.3461956075397
 31
0.0
  0
LINE
  5
C8
330
6F
100
AcDbEntity
  8
DV1_0
 62
     7
370
    35
100
AcDbLine
 10
61.44363421573517
 20
123.3461956075397
 30
0.0
 11
57.44363421573516
 21
123.3461956075397
 31
0.0
  0
LINE
  5
C9
330
6F
100
AcDbEntity
  8
DV1_0
 62
     7
370
    35
100
AcDbLine
 10
53.44363421573514
 20
123.3461956075397
 30
0.0
 11
49.44363421573514
 21
123.3461956075397
 31
0.0
  0
LINE
  5
CA
330
6F
100
AcDbEntity
  8
DV1_0
 62
     7
370
    35
100
AcDbLine
 10
45.44363421573517
 20
123.3461956075397
 30
0.0
 11
41.44363421573517
 21
123.3461956075397
 31
0.0
  0
LINE
  5
CB
330
6F
100
AcDbEntity
  8
DV1_0
 62
     7
370
    35
100
AcDbLine
 10
37.44363421573516
 20
123.3461956075397
 30
0.0
 11
33.44363421573516
 21
123.3461956075397
 31
0.0
  0
LINE
  5
CC
330
6F
100
AcDbEntity
  8
DV1_0
 62
     7
370
    35
100
AcDbLine
 10
29.44363421573516
 20
123.3461956075397
 30
0.0
 11
27.84363421573515
 21
123.3461956075397
 31
0.0
  0
LINE
  5
CD
330
6F
100
AcDbEntity
  8
DV1_0
 62
     7
370
    25
100
AcDbLine
 10
27.84363421573516
 20
123.6661956075397
 30
0.0
 11
29.44363421573516
 21
123.6661956075397
 31
0.0
  0
LINE
  5
CE
330
6F
100
AcDbEntity
  8
DV1_0
 62
     7
370
    25
100
AcDbLine
 10
33.44363421573516
 20
123.6661956075397
 30
0.0
 11
37.44363421573517
 21
123.6661956075397
 31
0.0
  0
LINE
  5
CF
330
6F
100
AcDbEntity
  8
DV1_0
 62
     7
370
    25
100
AcDbLine
 10
41.44363421573517
 20
123.6661956075397
 30
0.0
 11
45.44363421573516
 21
123.6661956075397
 31
0.0
  0
LINE
  5
D0
330
6F
100
AcDbEntity
  8
DV1_0
 62
     7
370
    25
100
AcDbLine
 10
49.44363421573516
 20
123.6661956075397
 30
0.0
 11
53.44363421573516
 21
123.6661956075397
 31
0.0
  0
LINE
  5
D1
330
6F
100
AcDbEntity
  8
DV1_0
 62
     7
370
    25
100
AcDbLine
 10
57.44363421573517
 20
123.6661956075397
 30
0.0
 11
61.44363421573517
 21
123.6661956075397
 31
0.0
  0
LINE
  5
D2
330
6F
100
AcDbEntity
  8
DV1_0
 62
     7
370
    25
100
AcDbLine
 10
65.44363421573517
 20
123.6661956075397
 30
0.0
 11
69.44363421573519
 21
123.6661956075397
 31
0.0
  0
LINE
  5
D3
330
6F
100
AcDbEntity
  8
DV1_0
 62
     7
370
    25
100
AcDbLine
 10
73.44363421573519
 20
123.6661956075397
 30
0.0
 11
77.44363421573522
 21
123.6661956075397
 31
0.0
  0
LINE
  5
D4
330
6F
100
AcDbEntity
  8
DV1_0
 62
     7
370
    25
100
AcDbLine
 10
81.44363421573522
 20
123.6661956075397
 30
0.0
 11
85.44363421573523
 21
123.6661956075397
 31
0.0
  0
LINE
  5
D5
330
6F
100
AcDbEntity
  8
DV1_0
 62
     7
370
    25
100
AcDbLine
 10
89.44363421573522
 20
123.6661956075397
 30
0.0
 11
93.44363421573522
 21
123.6661956075397
 31
0.0
  0
LINE
  5
D6
330
6F
100
AcDbEntity
  8
DV1_0
 62
     7
370
    25
100
AcDbLine
 10
97.44363421573523
 20
123.6661956075397
 30
0.0
 11
101.4436342157352
 21
123.6661956075397
 31
0.0
  0
LINE
  5
D7
330
6F
100
AcDbEntity
  8
DV1_0
 62
     7
370
    25
100
AcDbLine
 10
105.4436342157352
 20
123.6661956075397
 30
0.0
 11
109.4436342157352
 21
123.6661956075397
 31
0.0
  0
LINE
  5
D8
330
6F
100
AcDbEntity
  8
DV1_0
 62
     7
370
    25
100
AcDbLine
 10
113.4436342157352
 20
123.6661956075397
 30
0.0
 11
117.4436342157352
 21
123.6661956075397
 31
0.0
  0
LINE
  5
D9
330
6F
100
AcDbEntity
  8
DV1_0
 62
     7
370
    25
100
AcDbLine
 10
121.4436342157352
 20
123.6661956075397
 30
0.0
 11
123.0436342157352
 21
123.6661956075397
 31
0.0
  0
LINE
  5
DA
330
6F
100
AcDbEntity
  8
DV1_0
 62
     7
370
    35
100
AcDbLine
 10
117.4436342157352
 20
123.3461956075397
 30
0.0
 11
117.4436342157352
 21
153.3461956075397
 31
0.0
  0
ARC
  5
DB
330
6F
100
AcDbEntity
  8
DV1_0
 62
     7
370
    35
100
AcDbCircle
 10
119.4436342157352
 20
153.3461956075397
 30
0.0
 40
1.999999999999993
100
AcDbArc
 50
0.0
 51
180.0
  0
LINE
  5
DC
330
6F
100
AcDbEntity
  8
DV1_0
 62
     7
370
    35
100
AcDbLine
 10
121.4436342157352
 20
153.3461956075397
 30
0.0
 11
121.4436342157352
 21
123.3461956075397
 31
0.0
  0
LINE
  5
DD
330
6F
100
AcDbEntity
  8
DV1_0
 62
     7
370
    35
100
AcDbLine
 10
121.4436342157352
 20
123.3461956075397
 30
0.0
 11
117.4436342157352
 21
123.3461956075397
 31
0.0
  0
LINE
  5
DE
330
6F
100
AcDbEntity
  8
DV1_0
 62
     7
370
    35
100
AcDbLine
 10
109.4436342157352
 20
153.3461956075397
 30
0.0
 11
109.4436342157352
 21
123.3461956075397
 31
0.0
  0
ARC
  5
DF
330
6F
100
AcDbEntity
  8
DV1_0
 62
     7
370
    35
100
AcDbCircle
 10
111.4436342157352
 20
153.3461956075397
 30
0.0
 40
1.999999999999993
100
AcDbArc
 50
0.0
 51
180.0
  0
LINE
  5
E0
330
6F
100
AcDbEntity
  8
DV1_0
 62
     7
370
    35
100
AcDbLine
 10
113.4436342157352
 20
123.3461956075397
 30
0.0
 11
113.4436342157352
 21
153.3461956075397
 31
0.0
  0
LINE
  5
E1
330
6F
100
AcDbEntity
  8
DV1_0
 62
     7
370
    35
100
AcDbLine
 10
109.4436342157352
 20
123.3461956075397
 30
0.0
 11
113.4436342157352
 21
123.3461956075397
 31
0.0
  0
LINE
  5
E2
330
6F
100
AcDbEntity
  8
DV1_0
 62
     7
370
    35
100
AcDbLine
 10
101.4436342157352
 20
153.3461956075397
 30
0.0
 11
101.4436342157352
 21
123.3461956075397
 31
0.0
  0
ARC
  5
E3
330
6F
100
AcDbEntity
  8
DV1_0
 62
     7
370
    35
100
AcDbCircle
 10
103.4436342157352
 20
153.3461956075397
 30
0.0
 40
1.999999999999993
100
AcDbArc
 50
0.0
 51
180.0
  0
LINE
  5
E4
330
6F
100
AcDbEntity
  8
DV1_0
 62
     7
370
    35
100
AcDbLine
 10
105.4436342157352
 20
123.3461956075397
 30
0.0
 11
105.4436342157352
 21
153.3461956075397
 31
0.0
  0
LINE
  5
E5
330
6F
100
AcDbEntity
  8
DV1_0
 62
     7
370
    35
100
AcDbLine
 10
101.4436342157352
 20
123.3461956075397
 30
0.0
 11
105.4436342157352
 21
123.3461956075397
 31
0.0
  0
LINE
  5
E6
330
6F
100
AcDbEntity
  8
DV1_0
 62
     7
370
    35
100
AcDbLine
 10
93.4436342157352
 20
153.3461956075397
 30
0.0
 11
93.44363421573522
 21
123.3461956075397
 31
0.0
  0
ARC
  5
E7
330
6F
100
AcDbEntity
  8
DV1_0
 62
     7
370
    35
100
AcDbCircle
 10
95.4436342157352
 20
153.3461956075397
 30
0.0
 40
2.000000000000002
100
AcDbArc
 50
0.0
 51
180.0
  0
LINE
  5
E8
330
6F
100
AcDbEntity
  8
DV1_0
 62
     7
370
    35
100
AcDbLine
 10
97.44363421573522
 20
123.3461956075397
 30
0.0
 11
97.4436342157352
 21
153.3461956075397
 31
0.0
  0
LINE
  5
E9
330
6F
100
AcDbEntity
  8
DV1_0
 62
     7
370
    35
100
AcDbLine
 10
93.44363421573522
 20
123.3461956075397
 30
0.0
 11
97.44363421573522
 21
123.3461956075397
 31
0.0
  0
LINE
  5
EA
330
6F
100
AcDbEntity
  8
DV1_0
 62
     7
370
    35
100
AcDbLine
 10
85.44363421573517
 20
153.3461956075397
 30
0.0
 11
85.44363421573522
 21
123.3461956075397
 31
0.0
  0
ARC
  5
EB
330
6F
100
AcDbEntity
  8
DV1_0
 62
     7
370
    35
100
AcDbCircle
 10
87.44363421573517
 20
153.3461956075397
 30
0.0
 40
2.000000000000002
100
AcDbArc
 50
0.0
 51
180.0
  0
LINE
  5
EC
330
6F
100
AcDbEntity
  8
DV1_0
 62
     7
370
    35
100
AcDbLine
 10
89.44363421573522
 20
123.3461956075397
 30
0.0
 11
89.44363421573519
 21
153.3461956075397
 31
0.0
  0
LINE
  5
ED
330
6F
100
AcDbEntity
  8
DV1_0
 62
     7
370
    35
100
AcDbLine
 10
85.44363421573523
 20
123.3461956075397
 30
0.0
 11
89.44363421573523
 21
123.3461956075397
 31
0.0
  0
LINE
  5
EE
330
6F
100
AcDbEntity
  8
DV1_0
 62
     7
370
    35
100
AcDbLine
 10
77.44363421573516
 20
153.3461956075397
 30
0.0
 11
77.4436342157352
 21
123.3461956075397
 31
0.0
  0
ARC
  5
EF
330
6F
100
AcDbEntity
  8
DV1_0
 62
     7
370
    35
100
AcDbCircle
 10
79.44363421573516
 20
153.3461956075397
 30
0.0
 40
2.000000000000002
100
AcDbArc
 50
0.0
 51
180.0
  0
LINE
  5
F0
330
6F
100
AcDbEntity
  8
DV1_0
 62
     7
370
    35
100
AcDbLine
 10
81.4436342157352
 20
123.3461956075397
 30
0.0
 11
81.44363421573516
 21
153.3461956075397
 31
0.0
  0
LINE
  5
F1
330
6F
100
AcDbEntity
  8
DV1_0
 62
     7
370
    35
100
AcDbLine
 10
77.44363421573522
 20
123.3461956075397
 30
0.0
 11
81.44363421573522
 21
123.3461956075397
 31
0.0
  0
LINE
  5
F2
330
6F
100
AcDbEntity
  8
DV1_0
 62
     7
370
    35
100
AcDbLine
 10
69.4436342157351
 20
153.3461956075397
 30
0.0
 11
69.44363421573519
 21
123.3461956075397
 31
0.0
  0
ARC
  5
F3
330
6F
100
AcDbEntity
  8
DV1_0
 62
     7
370
    35
100
AcDbCircle
 10
71.4436342157351
 20
153.3461956075397
 30
0.0
 40
2.000000000000002
100
AcDbArc
 50
0.0
 51
180.0000000000008
  0
LINE
  5
F4
330
6F
100
AcDbEntity
  8
DV1_0
 62
     7
370
    35
100
AcDbLine
 10
73.44363421573519
 20
123.3461956075397
 30
0.0
 11
73.4436342157351
 21
153.3461956075397
 31
0.0
  0
LINE
  5
F5
330
6F
100
AcDbEntity
  8
DV1_0
 62
     7
370
    35
100
AcDbLine
 10
69.44363421573519
 20
123.3461956075397
 30
0.0
 11
73.44363421573519
 21
123.3461956075397
 31
0.0
  0
LINE
  5
F6
330
6F
100
AcDbEntity
  8
DV1_0
 62
     7
370
    35
100
AcDbLine
 10
61.44363421573511
 20
153.3461956075396
 30
0.0
 11
61.44363421573519
 21
123.3461956075396
 31
0.0
  0
ARC
  5
F7
330
6F
100
AcDbEntity
  8
DV1_0
 62
     7
370
    35
100
AcDbCircle
 10
63.44363421573509
 20
153.3461956075396
 30
0.0
 40
1.999999999999997
100
AcDbArc
 50
0.0
 51
180.0
  0
LINE
  5
F8
330
6F
100
AcDbEntity
  8
DV1_0
 62
     7
370
    35
100
AcDbLine
 10
65.44363421573519
 20
123.3461956075397
 30
0.0
 11
65.4436342157351
 21
153.3461956075396
 31
0.0
  0
LINE
  5
F9
330
6F
100
AcDbEntity
  8
DV1_0
 62
     7
370
    35
100
AcDbLine
 10
61.44363421573517
 20
123.3461956075397
 30
0.0
 11
65.44363421573517
 21
123.3461956075397
 31
0.0
  0
LINE
  5
FA
330
6F
100
AcDbEntity
  8
DV1_0
 62
     7
370
    35
100
AcDbLine
 10
53.4436342157351
 20
153.3461956075396
 30
0.0
 11
53.44363421573517
 21
123.3461956075396
 31
0.0
  0
ARC
  5
FB
330
6F
100
AcDbEntity
  8
DV1_0
 62
     7
370
    35
100
AcDbCircle
 10
55.44363421573509
 20
153.3461956075396
 30
0.0
 40
2.000000000000002
100
AcDbArc
 50
0.0000000000008142
 51
180.0
  0
LINE
  5
FC
330
6F
100
AcDbEntity
  8
DV1_0
 62
     7
370
    35
100
AcDbLine
 10
57.44363421573517
 20
123.3461956075396
 30
0.0
 11
57.44363421573509
 21
153.3461956075396
 31
0.0
  0
LINE
  5
FD
330
6F
100
AcDbEntity
  8
DV1_0
 62
     7
370
    35
100
AcDbLine
 10
53.44363421573517
 20
123.3461956075396
 30
0.0
 11
57.44363421573517
 21
123.3461956075396
 31
0.0
  0
LINE
  5
FE
330
6F
100
AcDbEntity
  8
DV1_0
 62
     7
370
    35
100
AcDbLine
 10
45.44363421573509
 20
153.3461956075396
 30
0.0
 11
45.44363421573517
 21
123.3461956075396
 31
0.0
  0
ARC
  5
FF
330
6F
100
AcDbEntity
  8
DV1_0
 62
     7
370
    35
100
AcDbCircle
 10
47.44363421573509
 20
153.3461956075396
 30
0.0
 40
1.999999999999997
100
AcDbArc
 50
0.0
 51
180.0
  0
LINE
  5
100
330
6F
100
AcDbEntity
  8
DV1_0
 62
     7
370
    35
100
AcDbLine
 10
49.44363421573517
 20
123.3461956075396
 30
0.0
 11
49.44363421573509
 21
153.3461956075396
 31
0.0
  0
LINE
  5
101
330
6F
100
AcDbEntity
  8
DV1_0
 62
     7
370
    35
100
AcDbLine
 10
45.44363421573516
 20
123.3461956075396
 30
0.0
 11
49.44363421573516
 21
123.3461956075396
 31
0.0
  0
LINE
  5
102
330
6F
100
AcDbEntity
  8
DV1_0
 62
     7
370
    35
100
AcDbLine
 10
37.4436342157351
 20
153.3461956075396
 30
0.0
 11
37.44363421573517
 21
123.3461956075396
 31
0.0
  0
ARC
  5
103
330
6F
100
AcDbEntity
  8
DV1_0
 62
     7
370
    35
100
AcDbCircle
 10
39.44363421573509
 20
153.3461956075396
 30
0.0
 40
2.0
100
AcDbArc
 50
0.0
 51
180.0
  0
LINE
  5
104
330
6F
100
AcDbEntity
  8
DV1_0
 62
     7
370
    35
100
AcDbLine
 10
41.44363421573517
 20
123.3461956075396
 30
0.0
 11
41.4436342157351
 21
153.3461956075396
 31
0.0
  0
LINE
  5
105
330
6F
100
AcDbEntity
  8
DV1_0
 62
     7
370
    35
100
AcDbLine
 10
37.44363421573517
 20
123.3461956075396
 30
0.0
 11
41.44363421573517
 21
123.3461956075396
 31
0.0
  0
LINE
  5
106
330
6F
100
AcDbEntity
  8
DV1_0
 62
     7
370
    35
100
AcDbLine
 10
29.44363421573509
 20
153.3461956075396
 30
0.0
 11
29.44363421573516
 21
123.3461956075396
 31
0.0
  0
ARC
  5
107
330
6F
100
AcDbEntity
  8
DV1_0
 62
     7
370
    35
100
AcDbCircle
 10
31.44363421573509
 20
153.3461956075396
 30
0.0
 40
2.0
100
AcDbArc
 50
0.0
 51
180.0000000000008
  0
LINE
  5
108
330
6F
100
AcDbEntity
  8
DV1_0
 62
     7
370
    35
100
AcDbLine
 10
33.44363421573517
 20
123.3461956075396
 30
0.0
 11
33.4436342157351
 21
153.3461956075396
 31
0.0
  0
LINE
  5
109
330
6F
100
AcDbEntity
  8
DV1_0
 62
     7
370
    35
100
AcDbLine
 10
29.44363421573516
 20
123.3461956075396
 30
0.0
 11
33.44363421573516
 21
123.3461956075396
 31
0.0
  0
LINE
  5
10A
330
6F
100
AcDbEntity
  8
DV1_0
 62
     7
370
    35
100
AcDbLine
 10
23.04363421573513
 20
99.3461956075397
 30
0.0
 11
27.84363421573513
 21
99.3461956075397
 31
0.0
  0
LINE
  5
10B
330
6F
100
AcDbEntity
  8
DV1_0
 62
     7
370
    35
100
AcDbLine
 10
27.84363421573514
 20
99.3461956075397
 30
0.0
 11
27.84363421573517
 21
159.1461956075397
 31
0.0
  0
LINE
  5
10C
330
6F
100
AcDbEntity
  8
DV1_0
 62
     7
370
    35
100
AcDbLine
 10
23.04363421573513
 20
99.3461956075397
 30
0.0
 11
23.04363421573516
 21
159.1461956075397
 31
0.0
  0
LINE
  5
10D
330
6F
100
AcDbEntity
  8
DV1_0
 62
     7
370
    35
100
AcDbLine
 10
23.24363421573516
 20
159.3461956075397
 30
0.0
 11
27.64363421573516
 21
159.3461956075397
 31
0.0
  0
LINE
  5
10E
330
6F
100
AcDbEntity
  8
DV1_0
 62
     7
370
    35
100
AcDbLine
 10
27.84363421573516
 20
159.1461956075397
 30
0.0
 11
23.04363421573516
 21
159.1461956075397
 31
0.0
  0
LINE
  5
10F
330
6F
100
AcDbEntity
  8
DV1_0
 62
     7
370
    35
100
AcDbLine
 10
27.64363421573517
 20
159.3461956075397
 30
0.0
 11
27.84363421573516
 21
159.1461956075397
 31
0.0
  0
LINE
  5
110
330
6F
100
AcDbEntity
  8
DV1_0
 62
     7
370
    35
100
AcDbLine
 10
23.04363421573517
 20
159.1461956075397
 30
0.0
 11
23.24363421573517
 21
159.3461956075397
 31
0.0
  0
LINE
  5
111
330
6F
100
AcDbEntity
  8
DV1_0
 62
     7
370
    35
100
AcDbLine
 10
123.0436342157352
 20
99.3461956075397
 30
0.0
 11
127.8436342157352
 21
99.3461956075397
 31
0.0
  0
LINE
  5
112
330
6F
100
AcDbEntity
  8
DV1_0
 62
     7
370
    35
100
AcDbLine
 10
127.8436342157352
 20
99.3461956075397
 30
0.0
 11
127.8436342157352
 21
159.1461956075397
 31
0.0
  0
LINE
  5
113
330
6F
100
AcDbEntity
  8
DV1_0
 62
     7
370
    35
100
AcDbLine
 10
123.0436342157352
 20
99.3461956075397
 30
0.0
 11
123.0436342157353
 21
159.1461956075397
 31
0.0
  0
LINE
  5
114
330
6F
100
AcDbEntity
  8
DV1_0
 62
     7
370
    35
100
AcDbLine
 10
123.2436342157352
 20
159.3461956075397
 30
0.0
 11
127.6436342157353
 21
159.3461956075397
 31
0.0
  0
LINE
  5
115
330
6F
100
AcDbEntity
  8
DV1_0
 62
     7
370
    35
100
AcDbLine
 10
127.8436342157352
 20
159.1461956075397
 30
0.0
 11
123.0436342157352
 21
159.1461956075397
 31
0.0
  0
LINE
  5
116
330
6F
100
AcDbEntity
  8
DV1_0
 62
     7
370
    35
100
AcDbLine
 10
127.6436342157353
 20
159.3461956075397
 30
0.0
 11
127.8436342157353
 21
159.1461956075397
 31
0.0
  0
LINE
  5
117
330
6F
100
AcDbEntity
  8
DV1_0
 62
     7
370
    35
100
AcDbLine
 10
123.0436342157353
 20
159.1461956075397
 30
0.0
 11
123.2436342157353
 21
159.3461956075397
 31
0.0
  0
ENDBLK
  5
119
330
6F
100
AcDbEntity
  8
0
100
AcDbBlockEnd
  0
BLOCK
  5
17B
330
11A
100
AcDbEntity
  8
0
100
AcDbBlockBegin
  2
SE1
 70
     0
 10
0.0
 20
0.0
 30
0.0
  3
SE1
  1

  0
LINE
  5
11D
330
11A
100
AcDbEntity
  8
DV2_0
 62
     7
370
    35
100
AcDbLine
 10
123.0436342157352
 20
55.61099924780535
 30
0.0
 11
121.385179991657
 21
55.61099924780535
 31
0.0
  0
LINE
  5
11E
330
11A
100
AcDbEntity
  8
DV2_0
 62
     7
370
    35
100
AcDbLine
 10
117.5020884398133
 20
55.61099924780535
 30
0.0
 11
113.385179991657
 21
55.61099924780535
 31
0.0
  0
LINE
  5
11F
330
11A
100
AcDbEntity
  8
DV2_0
 62
     7
370
    35
100
AcDbLine
 10
109.5020884398133
 20
55.61099924780535
 30
0.0
 11
105.3851799916571
 21
55.61099924780535
 31
0.0
  0
LINE
  5
120
330
11A
100
AcDbEntity
  8
DV2_0
 62
     7
370
    35
100
AcDbLine
 10
101.5020884398133
 20
55.61099924780535
 30
0.0
 11
97.38517999165705
 21
55.61099924780535
 31
0.0
  0
LINE
  5
121
330
11A
100
AcDbEntity
  8
DV2_0
 62
     7
370
    35
100
AcDbLine
 10
93.50208843981335
 20
55.61099924780535
 30
0.0
 11
89.38517999165703
 21
55.61099924780535
 31
0.0
  0
LINE
  5
122
330
11A
100
AcDbEntity
  8
DV2_0
 62
     7
370
    35
100
AcDbLine
 10
85.50208843981332
 20
55.61099924780535
 30
0.0
 11
81.38517999165703
 21
55.61099924780535
 31
0.0
  0
LINE
  5
123
330
11A
100
AcDbEntity
  8
DV2_0
 62
     7
370
    35
100
AcDbLine
 10
77.50208843981332
 20
55.61099924780535
 30
0.0
 11
73.38517999165694
 21
55.61099924780535
 31
0.0
  0
LINE
  5
124
330
11A
100
AcDbEntity
  8
DV2_0
 62
     7
370
    35
100
AcDbLine
 10
69.50208843981325
 20
55.61099924780535
 30
0.0
 11
65.38517999165694
 21
55.61099924780535
 31
0.0
  0
LINE
  5
125
330
11A
100
AcDbEntity
  8
DV2_0
 62
     7
370
    35
100
AcDbLine
 10
61.50208843981325
 20
55.61099924780535
 30
0.0
 11
57.38517999165693
 21
55.61099924780535
 31
0.0
  0
LINE
  5
126
330
11A
100
AcDbEntity
  8
DV2_0
 62
     7
370
    35
100
AcDbLine
 10
53.50208843981325
 20
55.61099924780535
 30
0.0
 11
49.38517999165693
 21
55.61099924780535
 31
0.0
  0
LINE
  5
127
330
11A
100
AcDbEntity
  8
DV2_0
 62
     7
370
    35
100
AcDbLine
 10
45.50208843981325
 20
55.61099924780535
 30
0.0
 11
41.38517999165691
 21
55.61099924780535
 31
0.0
  0
LINE
  5
128
330
11A
100
AcDbEntity
  8
DV2_0
 62
     7
370
    35
100
AcDbLine
 10
37.50208843981325
 20
55.61099924780535
 30
0.0
 11
33.38517999165691
 21
55.61099924780535
 31
0.0
  0
LINE
  5
129
330
11A
100
AcDbEntity
  8
DV2_0
 62
     7
370
    35
100
AcDbLine
 10
29.50208843981326
 20
55.61099924780535
 30
0.0
 11
27.84363421573515
 21
55.61099924780535
 31
0.0
  0
LINE
  5
12A
330
11A
100
AcDbEntity
  8
DV2_0
 62
     7
370
    35
100
AcDbLine
 10
25.44363421573517
 20
55.93099924780535
 30
0.0
 11
25.44363421573517
 21
56.97099924780535
 31
0.0
  0
LINE
  5
12B
330
11A
100
AcDbEntity
  8
DV2_0
 62
     7
370
    35
100
AcDbLine
 10
25.44363421573517
 20
55.62396905936269
 30
0.0
 11
25.44363421573517
 21
55.93099924780535
 31
0.0
  0
LINE
  5
12C
330
11A
100
AcDbEntity
  8
DV2_0
 62
     7
370
    35
100
AcDbLine
 10
125.4436342157352
 20
55.93099924780535
 30
0.0
 11
125.4436342157352
 21
56.97099924780535
 31
0.0
  0
LINE
  5
12D
330
11A
100
AcDbEntity
  8
DV2_0
 62
     7
370
    25
100
AcDbLine
 10
25.44363421573517
 20
55.93099924780535
 30
0.0
 11
125.4436342157352
 21
55.93099924780535
 31
0.0
  0
LINE
  5
12E
330
11A
100
AcDbEntity
  8
DV2_0
 62
     7
370
    35
100
AcDbLine
 10
125.4436342157352
 20
55.93099924780535
 30
0.0
 11
125.4436342157352
 21
55.62396905936276
 31
0.0
  0
LINE
  5
12F
330
11A
100
AcDbEntity
  8
DV2_0
 62
     7
370
    25
100
AcDbLine
 10
125.4436342157352
 20
56.97099924780535
 30
0.0
 11
25.44363421573517
 21
56.97099924780535
 31
0.0
  0
LINE
  5
130
330
11A
100
AcDbEntity
  8
DV2_0
 62
     7
370
    35
100
AcDbLine
 10
25.44363421573517
 20
56.97099924780535
 30
0.0
 11
25.44363421573517
 21
57.29099924780535
 31
0.0
  0
LINE
  5
131
330
11A
100
AcDbEntity
  8
DV2_0
 62
     7
370
    35
100
AcDbLine
 10
25.44363421573517
 20
57.29099924780535
 30
0.0
 11
125.4436342157352
 21
57.29099924780535
 31
0.0
  0
LINE
  5
132
330
11A
100
AcDbEntity
  8
DV2_0
 62
     7
370
    35
100
AcDbLine
 10
125.4436342157352
 20
57.29099924780535
 30
0.0
 11
125.4436342157352
 21
56.97099924780535
 31
0.0
  0
LINE
  5
133
330
11A
100
AcDbEntity
  8
DV2_0
 62
     7
370
    35
100
AcDbLine
 10
117.4436342157352
 20
54.41099924780534
 30
0.0
 11
121.4436342157352
 21
54.41099924780534
 31
0.0
  0
LINE
  5
134
330
11A
100
AcDbEntity
  8
DV2_0
 62
     7
370
    35
100
AcDbLine
 10
117.5020884398133
 20
55.61099924780534
 30
0.0
 11
121.385179991657
 21
55.61099924780534
 31
0.0
  0
LINE
  5
135
330
11A
100
AcDbEntity
  8
DV2_0
 62
     7
370
    35
100
AcDbLine
 10
121.4436342157352
 20
54.41099924780534
 30
0.0
 11
121.4436342157352
 21
55.61099924780535
 31
0.0
  0
LINE
  5
136
330
11A
100
AcDbEntity
  8
DV2_0
 62
     7
370
    35
100
AcDbLine
 10
117.4436342157352
 20
54.41099924780534
 30
0.0
 11
117.4436342157352
 21
55.61099924780535
 31
0.0
  0
LINE
  5
137
330
11A
100
AcDbEntity
  8
DV2_0
 62
     7
370
    35
100
AcDbLine
 10
113.385179991657
 20
55.61099924780535
 30
0.0
 11
109.5020884398133
 21
55.61099924780535
 31
0.0
  0
LINE
  5
138
330
11A
100
AcDbEntity
  8
DV2_0
 62
     7
370
    35
100
AcDbLine
 10
113.4436342157352
 20
54.41099924780536
 30
0.0
 11
109.4436342157352
 21
54.41099924780536
 31
0.0
  0
LINE
  5
139
330
11A
100
AcDbEntity
  8
DV2_0
 62
     7
370
    35
100
AcDbLine
 10
109.4436342157352
 20
55.61099924780535
 30
0.0
 11
109.4436342157352
 21
54.41099924780535
 31
0.0
  0
LINE
  5
13A
330
11A
100
AcDbEntity
  8
DV2_0
 62
     7
370
    35
100
AcDbLine
 10
113.4436342157352
 20
55.61099924780535
 30
0.0
 11
113.4436342157352
 21
54.41099924780535
 31
0.0
  0
LINE
  5
13B
330
11A
100
AcDbEntity
  8
DV2_0
 62
     7
370
    35
100
AcDbLine
 10
105.3851799916571
 20
55.61099924780535
 30
0.0
 11
101.5020884398133
 21
55.61099924780535
 31
0.0
  0
LINE
  5
13C
330
11A
100
AcDbEntity
  8
DV2_0
 62
     7
370
    35
100
AcDbLine
 10
105.4436342157352
 20
54.41099924780535
 30
0.0
 11
101.4436342157352
 21
54.41099924780535
 31
0.0
  0
LINE
  5
13D
330
11A
100
AcDbEntity
  8
DV2_0
 62
     7
370
    35
100
AcDbLine
 10
101.4436342157352
 20
55.61099924780535
 30
0.0
 11
101.4436342157352
 21
54.41099924780534
 31
0.0
  0
LINE
  5
13E
330
11A
100
AcDbEntity
  8
DV2_0
 62
     7
370
    35
100
AcDbLine
 10
105.4436342157352
 20
55.61099924780535
 30
0.0
 11
105.4436342157352
 21
54.41099924780534
 31
0.0
  0
LINE
  5
13F
330
11A
100
AcDbEntity
  8
DV2_0
 62
     7
370
    35
100
AcDbLine
 10
97.38517999165707
 20
55.61099924780534
 30
0.0
 11
93.50208843981335
 21
55.61099924780534
 31
0.0
  0
LINE
  5
140
330
11A
100
AcDbEntity
  8
DV2_0
 62
     7
370
    35
100
AcDbLine
 10
97.44363421573522
 20
54.41099924780534
 30
0.0
 11
93.44363421573522
 21
54.41099924780534
 31
0.0
  0
LINE
  5
141
330
11A
100
AcDbEntity
  8
DV2_0
 62
     7
370
    35
100
AcDbLine
 10
93.4436342157352
 20
55.61099924780534
 30
0.0
 11
93.4436342157352
 21
54.41099924780534
 31
0.0
  0
LINE
  5
142
330
11A
100
AcDbEntity
  8
DV2_0
 62
     7
370
    35
100
AcDbLine
 10
97.44363421573522
 20
55.61099924780534
 30
0.0
 11
97.44363421573522
 21
54.41099924780534
 31
0.0
  0
LINE
  5
143
330
11A
100
AcDbEntity
  8
DV2_0
 62
     7
370
    35
100
AcDbLine
 10
89.38517999165703
 20
55.61099924780533
 30
0.0
 11
85.50208843981332
 21
55.61099924780533
 31
0.0
  0
LINE
  5
144
330
11A
100
AcDbEntity
  8
DV2_0
 62
     7
370
    35
100
AcDbLine
 10
89.44363421573517
 20
54.41099924780534
 30
0.0
 11
85.44363421573517
 21
54.41099924780534
 31
0.0
  0
LINE
  5
145
330
11A
100
AcDbEntity
  8
DV2_0
 62
     7
370
    35
100
AcDbLine
 10
85.44363421573517
 20
55.61099924780533
 30
0.0
 11
85.44363421573517
 21
54.41099924780533
 31
0.0
  0
LINE
  5
146
330
11A
100
AcDbEntity
  8
DV2_0
 62
     7
370
    35
100
AcDbLine
 10
89.44363421573517
 20
55.61099924780533
 30
0.0
 11
89.44363421573517
 21
54.41099924780533
 31
0.0
  0
LINE
  5
147
330
11A
100
AcDbEntity
  8
DV2_0
 62
     7
370
    35
100
AcDbLine
 10
81.38517999165703
 20
55.61099924780533
 30
0.0
 11
77.50208843981332
 21
55.61099924780533
 31
0.0
  0
LINE
  5
148
330
11A
100
AcDbEntity
  8
DV2_0
 62
     7
370
    35
100
AcDbLine
 10
81.44363421573517
 20
54.41099924780534
 30
0.0
 11
77.44363421573517
 21
54.41099924780534
 31
0.0
  0
LINE
  5
149
330
11A
100
AcDbEntity
  8
DV2_0
 62
     7
370
    35
100
AcDbLine
 10
77.44363421573516
 20
55.61099924780533
 30
0.0
 11
77.44363421573516
 21
54.41099924780533
 31
0.0
  0
LINE
  5
14A
330
11A
100
AcDbEntity
  8
DV2_0
 62
     7
370
    35
100
AcDbLine
 10
81.44363421573517
 20
55.61099924780533
 30
0.0
 11
81.44363421573517
 21
54.41099924780533
 31
0.0
  0
LINE
  5
14B
330
11A
100
AcDbEntity
  8
DV2_0
 62
     7
370
    35
100
AcDbLine
 10
73.38517999165695
 20
55.6109992478053
 30
0.0
 11
69.50208843981325
 21
55.6109992478053
 31
0.0
  0
LINE
  5
14C
330
11A
100
AcDbEntity
  8
DV2_0
 62
     7
370
    35
100
AcDbLine
 10
73.4436342157351
 20
54.41099924780531
 30
0.0
 11
69.4436342157351
 21
54.41099924780531
 31
0.0
  0
LINE
  5
14D
330
11A
100
AcDbEntity
  8
DV2_0
 62
     7
370
    35
100
AcDbLine
 10
69.4436342157351
 20
55.6109992478053
 30
0.0
 11
69.4436342157351
 21
54.4109992478053
 31
0.0
  0
LINE
  5
14E
330
11A
100
AcDbEntity
  8
DV2_0
 62
     7
370
    35
100
AcDbLine
 10
73.4436342157351
 20
55.6109992478053
 30
0.0
 11
73.4436342157351
 21
54.4109992478053
 31
0.0
  0
LINE
  5
14F
330
11A
100
AcDbEntity
  8
DV2_0
 62
     7
370
    35
100
AcDbLine
 10
65.38517999165695
 20
55.61099924780526
 30
0.0
 11
61.50208843981327
 21
55.61099924780526
 31
0.0
  0
LINE
  5
150
330
11A
100
AcDbEntity
  8
DV2_0
 62
     7
370
    35
100
AcDbLine
 10
65.4436342157351
 20
54.41099924780526
 30
0.0
 11
61.44363421573511
 21
54.41099924780526
 31
0.0
  0
LINE
  5
151
330
11A
100
AcDbEntity
  8
DV2_0
 62
     7
370
    35
100
AcDbLine
 10
61.44363421573511
 20
55.61099924780526
 30
0.0
 11
61.44363421573511
 21
54.41099924780526
 31
0.0
  0
LINE
  5
152
330
11A
100
AcDbEntity
  8
DV2_0
 62
     7
370
    35
100
AcDbLine
 10
65.4436342157351
 20
55.61099924780526
 30
0.0
 11
65.4436342157351
 21
54.41099924780526
 31
0.0
  0
LINE
  5
153
330
11A
100
AcDbEntity
  8
DV2_0
 62
     7
370
    35
100
AcDbLine
 10
57.38517999165694
 20
55.61099924780526
 30
0.0
 11
53.50208843981326
 21
55.61099924780526
 31
0.0
  0
LINE
  5
154
330
11A
100
AcDbEntity
  8
DV2_0
 62
     7
370
    35
100
AcDbLine
 10
57.4436342157351
 20
54.41099924780526
 30
0.0
 11
53.4436342157351
 21
54.41099924780526
 31
0.0
  0
LINE
  5
155
330
11A
100
AcDbEntity
  8
DV2_0
 62
     7
370
    35
100
AcDbLine
 10
53.4436342157351
 20
55.61099924780526
 30
0.0
 11
53.4436342157351
 21
54.41099924780526
 31
0.0
  0
LINE
  5
156
330
11A
100
AcDbEntity
  8
DV2_0
 62
     7
370
    35
100
AcDbLine
 10
57.4436342157351
 20
55.61099924780526
 30
0.0
 11
57.4436342157351
 21
54.41099924780526
 31
0.0
  0
LINE
  5
157
330
11A
100
AcDbEntity
  8
DV2_0
 62
     7
370
    35
100
AcDbLine
 10
49.38517999165693
 20
55.61099924780526
 30
0.0
 11
45.50208843981326
 21
55.61099924780526
 31
0.0
  0
LINE
  5
158
330
11A
100
AcDbEntity
  8
DV2_0
 62
     7
370
    35
100
AcDbLine
 10
49.44363421573509
 20
54.41099924780526
 30
0.0
 11
45.4436342157351
 21
54.41099924780526
 31
0.0
  0
LINE
  5
159
330
11A
100
AcDbEntity
  8
DV2_0
 62
     7
370
    35
100
AcDbLine
 10
45.44363421573509
 20
55.61099924780526
 30
0.0
 11
45.44363421573509
 21
54.41099924780526
 31
0.0
  0
LINE
  5
15A
330
11A
100
AcDbEntity
  8
DV2_0
 62
     7
370
    35
100
AcDbLine
 10
49.44363421573509
 20
55.61099924780526
 30
0.0
 11
49.44363421573509
 21
54.41099924780526
 31
0.0
  0
LINE
  5
15B
330
11A
100
AcDbEntity
  8
DV2_0
 62
     7
370
    35
100
AcDbLine
 10
41.38517999165693
 20
55.61099924780526
 30
0.0
 11
37.50208843981326
 21
55.61099924780526
 31
0.0
  0
LINE
  5
15C
330
11A
100
AcDbEntity
  8
DV2_0
 62
     7
370
    35
100
AcDbLine
 10
41.4436342157351
 20
54.41099924780526
 30
0.0
 11
37.4436342157351
 21
54.41099924780526
 31
0.0
  0
LINE
  5
15D
330
11A
100
AcDbEntity
  8
DV2_0
 62
     7
370
    35
100
AcDbLine
 10
37.4436342157351
 20
55.61099924780526
 30
0.0
 11
37.4436342157351
 21
54.41099924780526
 31
0.0
  0
LINE
  5
15E
330
11A
100
AcDbEntity
  8
DV2_0
 62
     7
370
    35
100
AcDbLine
 10
41.4436342157351
 20
55.61099924780526
 30
0.0
 11
41.4436342157351
 21
54.41099924780526
 31
0.0
  0
LINE
  5
15F
330
11A
100
AcDbEntity
  8
DV2_0
 62
     7
370
    35
100
AcDbLine
 10
33.38517999165691
 20
55.61099924780526
 30
0.0
 11
29.50208843981327
 21
55.61099924780526
 31
0.0
  0
LINE
  5
160
330
11A
100
AcDbEntity
  8
DV2_0
 62
     7
370
    35
100
AcDbLine
 10
33.44363421573509
 20
54.41099924780526
 30
0.0
 11
29.44363421573509
 21
54.41099924780526
 31
0.0
  0
LINE
  5
161
330
11A
100
AcDbEntity
  8
DV2_0
 62
     7
370
    35
100
AcDbLine
 10
29.44363421573509
 20
55.61099924780526
 30
0.0
 11
29.44363421573509
 21
54.41099924780526
 31
0.0
  0
LINE
  5
162
330
11A
100
AcDbEntity
  8
DV2_0
 62
     7
370
    35
100
AcDbLine
 10
33.44363421573509
 20
55.61099924780526
 30
0.0
 11
33.44363421573509
 21
54.41099924780526
 31
0.0
  0
LINE
  5
163
330
11A
100
AcDbEntity
  8
DV2_0
 62
     7
370
    35
100
AcDbLine
 10
27.64363421573517
 20
51.0239690593627
 30
0.0
 11
27.64363421573516
 21
55.4239690593627
 31
0.0
  0
LINE
  5
164
330
11A
100
AcDbEntity
  8
DV2_0
 62
     7
370
    35
100
AcDbLine
 10
23.24363421573516
 20
51.02396905936269
 30
0.0
 11
27.64363421573516
 21
51.02396905936269
 31
0.0
  0
LINE
  5
165
330
11A
100
AcDbEntity
  8
DV2_0
 62
     7
370
    35
100
AcDbLine
 10
23.24363421573516
 20
55.42396905936269
 30
0.0
 11
23.24363421573517
 21
51.02396905936269
 31
0.0
  0
LINE
  5
166
330
11A
100
AcDbEntity
  8
DV2_0
 62
     7
370
    35
100
AcDbLine
 10
27.64363421573517
 20
55.42396905936269
 30
0.0
 11
23.24363421573516
 21
55.42396905936269
 31
0.0
  0
LINE
  5
167
330
11A
100
AcDbEntity
  8
DV2_0
 62
     7
370
    35
100
AcDbLine
 10
23.04363421573517
 20
55.62396905936269
 30
0.0
 11
27.84363421573518
 21
55.62396905936269
 31
0.0
  0
LINE
  5
168
330
11A
100
AcDbEntity
  8
DV2_0
 62
     7
370
    35
100
AcDbLine
 10
23.04363421573517
 20
50.82396905936269
 30
0.0
 11
23.04363421573517
 21
55.62396905936269
 31
0.0
  0
LINE
  5
169
330
11A
100
AcDbEntity
  8
DV2_0
 62
     7
370
    35
100
AcDbLine
 10
27.84363421573516
 20
50.82396905936269
 30
0.0
 11
23.04363421573516
 21
50.82396905936268
 31
0.0
  0
LINE
  5
16A
330
11A
100
AcDbEntity
  8
DV2_0
 62
     7
370
    35
100
AcDbLine
 10
27.84363421573516
 20
55.62396905936269
 30
0.0
 11
27.84363421573516
 21
50.8239690593627
 31
0.0
  0
LINE
  5
16B
330
11A
100
AcDbEntity
  8
DV2_0
 62
     7
370
    35
100
AcDbLine
 10
27.64363421573517
 20
51.0239690593627
 30
0.0
 11
27.84363421573516
 21
50.8239690593627
 31
0.0
  0
LINE
  5
16C
330
11A
100
AcDbEntity
  8
DV2_0
 62
     7
370
    35
100
AcDbLine
 10
23.04363421573517
 20
50.82396905936269
 30
0.0
 11
23.24363421573517
 21
51.02396905936269
 31
0.0
  0
LINE
  5
16D
330
11A
100
AcDbEntity
  8
DV2_0
 62
     7
370
    35
100
AcDbLine
 10
27.64363421573517
 20
55.42396905936269
 30
0.0
 11
27.84363421573516
 21
55.62396905936269
 31
0.0
  0
LINE
  5
16E
330
11A
100
AcDbEntity
  8
DV2_0
 62
     7
370
    35
100
AcDbLine
 10
23.04363421573517
 20
55.62396905936269
 30
0.0
 11
23.24363421573517
 21
55.42396905936269
 31
0.0
  0
LINE
  5
16F
330
11A
100
AcDbEntity
  8
DV2_0
 62
     7
370
    35
100
AcDbLine
 10
127.6436342157353
 20
51.02396905936276
 30
0.0
 11
127.6436342157353
 21
55.42396905936276
 31
0.0
  0
LINE
  5
170
330
11A
100
AcDbEntity
  8
DV2_0
 62
     7
370
    35
100
AcDbLine
 10
123.2436342157352
 20
51.02396905936276
 30
0.0
 11
127.6436342157353
 21
51.02396905936276
 31
0.0
  0
LINE
  5
171
330
11A
100
AcDbEntity
  8
DV2_0
 62
     7
370
    35
100
AcDbLine
 10
123.2436342157352
 20
55.42396905936275
 30
0.0
 11
123.2436342157352
 21
51.02396905936276
 31
0.0
  0
LINE
  5
172
330
11A
100
AcDbEntity
  8
DV2_0
 62
     7
370
    35
100
AcDbLine
 10
127.6436342157353
 20
55.42396905936275
 30
0.0
 11
123.2436342157353
 21
55.42396905936275
 31
0.0
  0
LINE
  5
173
330
11A
100
AcDbEntity
  8
DV2_0
 62
     7
370
    35
100
AcDbLine
 10
123.0436342157353
 20
55.62396905936275
 30
0.0
 11
127.8436342157353
 21
55.62396905936275
 31
0.0
  0
LINE
  5
174
330
11A
100
AcDbEntity
  8
DV2_0
 62
     7
370
    35
100
AcDbLine
 10
123.0436342157353
 20
50.82396905936275
 30
0.0
 11
123.0436342157353
 21
55.62396905936275
 31
0.0
  0
LINE
  5
175
330
11A
100
AcDbEntity
  8
DV2_0
 62
     7
370
    35
100
AcDbLine
 10
127.8436342157352
 20
50.82396905936276
 30
0.0
 11
123.0436342157352
 21
50.82396905936275
 31
0.0
  0
LINE
  5
176
330
11A
100
AcDbEntity
  8
DV2_0
 62
     7
370
    35
100
AcDbLine
 10
127.8436342157352
 20
55.62396905936276
 30
0.0
 11
127.8436342157352
 21
50.82396905936276
 31
0.0
  0
LINE
  5
177
330
11A
100
AcDbEntity
  8
DV2_0
 62
     7
370
    35
100
AcDbLine
 10
127.6436342157353
 20
51.02396905936276
 30
0.0
 11
127.8436342157353
 21
50.82396905936277
 31
0.0
  0
LINE
  5
178
330
11A
100
AcDbEntity
  8
DV2_0
 62
     7
370
    35
100
AcDbLine
 10
123.0436342157353
 20
50.82396905936275
 30
0.0
 11
123.2436342157353
 21
51.02396905936276
 31
0.0
  0
LINE
  5
179
330
11A
100
AcDbEntity
  8
DV2_0
 62
     7
370
    35
100
AcDbLine
 10
127.6436342157353
 20
55.42396905936275
 30
0.0
 11
127.8436342157353
 21
55.62396905936276
 31
0.0
  0
LINE
  5
17A
330
11A
100
AcDbEntity
  8
DV2_0
 62
     7
370
    35
100
AcDbLine
 10
123.0436342157353
 20
55.62396905936275
 30
0.0
 11
123.2436342157353
 21
55.42396905936275
 31
0.0
  0
ENDBLK
  5
17C
330
11A
100
AcDbEntity
  8
0
100
AcDbBlockEnd
  0
BLOCK
  5
195
330
17D
100
AcDbEntity
  8
0
100
AcDbBlockBegin
  2
SE2
 70
     0
 10
0.0
 20
0.0
 30
0.0
  3
SE2
  1

  0
LINE
  5
180
330
17D
100
AcDbEntity
  8
DV3_0
 62
     7
370
    35
100
AcDbLine
 10
199.9364305294847
 20
154.1461956075397
 30
0.0
 11
198.8964305294847
 21
154.1461956075397
 31
0.0
  0
ARC
  5
181
330
17D
100
AcDbEntity
  8
DV3_0
 62
     7
370
    35
100
AcDbCircle
 10
199.9364305294847
 20
153.8261956075397
 30
0.0
 40
0.32
100
AcDbArc
 50
16.36844225816956
 51
90.0
  0
LINE
  5
182
330
17D
100
AcDbEntity
  8
DV3_0
 62
     7
370
    35
100
AcDbLine
 10
198.8964305294847
 20
149.3461956075397
 30
0.0
 11
199.9364305294847
 21
149.3461956075397
 31
0.0
  0
ARC
  5
183
330
17D
100
AcDbEntity
  8
DV3_0
 62
     7
370
    35
100
AcDbCircle
 10
198.8964305294847
 20
149.6661956075397
 30
0.0
 40
0.32
100
AcDbArc
 50
180.0
 51
270.0
  0
ARC
  5
184
330
17D
100
AcDbEntity
  8
DV3_0
 62
     7
370
    35
100
AcDbCircle
 10
199.9364305294847
 20
149.6661956075397
 30
0.0
 40
0.32
100
AcDbArc
 50
270.0
 51
343.6315577418305
  0
LINE
  5
185
330
17D
100
AcDbEntity
  8
DV3_0
 62
     7
370
    35
100
AcDbLine
 10
198.5764305294847
 20
153.8261956075397
 30
0.0
 11
198.5764305294847
 21
149.6661956075397
 31
0.0
  0
ARC
  5
186
330
17D
100
AcDbEntity
  8
DV3_0
 62
     7
370
    35
100
AcDbCircle
 10
198.8964305294847
 20
153.8261956075397
 30
0.0
 40
0.32
100
AcDbArc
 50
90.0
 51
180.0
  0
LINE
  5
187
330
17D
100
AcDbEntity
  8
DV3_0
 62
     7
370
    35
100
AcDbLine
 10
199.9364305294847
 20
128.1461956075397
 30
0.0
 11
198.8964305294847
 21
128.1461956075397
 31
0.0
  0
ARC
  5
188
330
17D
100
AcDbEntity
  8
DV3_0
 62
     7
370
    35
100
AcDbCircle
 10
199.9364305294847
 20
127.8261956075397
 30
0.0
 40
0.3200000000000001
100
AcDbArc
 50
16.36844225820172
 51
90.0
  0
LINE
  5
189
330
17D
100
AcDbEntity
  8
DV3_0
 62
     7
370
    35
100
AcDbLine
 10
198.8964305294847
 20
123.3461956075397
 30
0.0
 11
199.9364305294847
 21
123.3461956075397
 31
0.0
  0
ARC
  5
18A
330
17D
100
AcDbEntity
  8
DV3_0
 62
     7
370
    35
100
AcDbCircle
 10
198.8964305294847
 20
123.6661956075397
 30
0.0
 40
0.3199999999999999
100
AcDbArc
 50
180.0
 51
270.0
  0
ARC
  5
18B
330
17D
100
AcDbEntity
  8
DV3_0
 62
     7
370
    35
100
AcDbCircle
 10
199.9364305294847
 20
123.6661956075397
 30
0.0
 40
0.3200000000000003
100
AcDbArc
 50
270.0
 51
343.6315577417983
  0
LINE
  5
18C
330
17D
100
AcDbEntity
  8
DV3_0
 62
     7
370
    35
100
AcDbLine
 10
198.5764305294847
 20
127.8261956075397
 30
0.0
 11
198.5764305294847
 21
123.6661956075397
 31
0.0
  0
ARC
  5
18D
330
17D
100
AcDbEntity
  8
DV3_0
 62
     7
370
    35
100
AcDbCircle
 10
198.8964305294847
 20
127.8261956075397
 30
0.0
 40
0.3200000000000003
100
AcDbArc
 50
90.0
 51
180.0
  0
LINE
  5
18E
330
17D
100
AcDbEntity
  8
DV3_0
 62
     7
370
    35
100
AcDbLine
 10
200.2434607179274
 20
99.3461956075397
 30
0.0
 11
205.0434607179274
 21
99.3461956075397
 31
0.0
  0
LINE
  5
18F
330
17D
100
AcDbEntity
  8
DV3_0
 62
     7
370
    35
100
AcDbLine
 10
200.2434607179274
 20
99.3461956075397
 30
0.0
 11
200.2434607179273
 21
159.1461956075397
 31
0.0
  0
LINE
  5
190
330
17D
100
AcDbEntity
  8
DV3_0
 62
     7
370
    35
100
AcDbLine
 10
205.0434607179274
 20
99.3461956075397
 30
0.0
 11
205.0434607179273
 21
159.1461956075397
 31
0.0
  0
LINE
  5
191
330
17D
100
AcDbEntity
  8
DV3_0
 62
     7
370
    35
100
AcDbLine
 10
200.4434607179273
 20
159.3461956075397
 30
0.0
 11
204.8434607179273
 21
159.3461956075397
 31
0.0
  0
LINE
  5
192
330
17D
100
AcDbEntity
  8
DV3_0
 62
     7
370
    35
100
AcDbLine
 10
205.0434607179273
 20
159.1461956075397
 30
0.0
 11
200.2434607179273
 21
159.1461956075397
 31
0.0
  0
LINE
  5
193
330
17D
100
AcDbEntity
  8
DV3_0
 62
     7
370
    35
100
AcDbLine
 10
205.0434607179273
 20
159.1461956075397
 30
0.0
 11
204.8434607179273
 21
159.3461956075397
 31
0.0
  0
LINE
  5
194
330
17D
100
AcDbEntity
  8
DV3_0
 62
     7
370
    35
100
AcDbLine
 10
200.2434607179273
 20
159.1461956075397
 30
0.0
 11
200.4434607179273
 21
159.3461956075397
 31
0.0
  0
ENDBLK
  5
196
330
17D
100
AcDbEntity
  8
0
100
AcDbBlockEnd
  0
BLOCK
  5
294
330
197
100
AcDbEntity
  8
0
100
AcDbBlockBegin
  2
SE3
 70
     0
 10
0.0
 20
0.0
 30
0.0
  3
SE3
  1

  0
LINE
  5
19A
330
197
100
AcDbEntity
  8
DV4_0
 62
     7
370
    25
100
AcDbLine
 10
245.2025498407492
 20
101.3932103294139
 30
0.0
 11
242.5791645204257
 21
99.87859810853702
 31
0.0
  0
LINE
  5
19B
330
197
100
AcDbEntity
  8
DV4_0
 62
     7
370
    25
100
AcDbLine
 10
239.5456955912568
 20
98.127224005703
 30
0.0
 11
236.9223102709333
 21
96.61261178482613
 31
0.0
  0
LINE
  5
19C
330
197
100
AcDbEntity
  8
DV4_0
 62
     7
370
    25
100
AcDbLine
 10
233.8888413417644
 20
94.86123768199211
 30
0.0
 11
231.2654560214409
 21
93.34662546111522
 31
0.0
  0
LINE
  5
19D
330
197
100
AcDbEntity
  8
DV4_0
 62
     7
370
    25
100
AcDbLine
 10
228.2319870922721
 20
91.5952513582812
 30
0.0
 11
225.6086017719485
 21
90.0806391374043
 31
0.0
  0
LINE
  5
19E
330
197
100
AcDbEntity
  8
DV4_0
 62
     7
370
    25
100
AcDbLine
 10
222.5751328427797
 20
88.3292650345703
 30
0.0
 11
219.9517475224562
 21
86.81465281369341
 31
0.0
  0
LINE
  5
19F
330
197
100
AcDbEntity
  8
DV4_0
 62
     7
370
    25
100
AcDbLine
 10
216.9182785932873
 20
85.0632787108594
 30
0.0
 11
214.2948932729637
 21
83.54866648998247
 31
0.0
  0
LINE
  5
1A0
330
197
100
AcDbEntity
  8
DV4_0
 62
     7
370
    25
100
AcDbLine
 10
211.2614243437949
 20
81.79729238714847
 30
0.0
 11
208.6380390234714
 21
80.28268016627156
 31
0.0
  0
LINE
  5
1A1
330
197
100
AcDbEntity
  8
DV4_0
 62
     7
370
    25
100
AcDbLine
 10
205.6045700943026
 20
78.5313060634376
 30
0.0
 11
202.9811847739789
 21
77.01669384256063
 31
0.0
  0
LINE
  5
1A2
330
197
100
AcDbEntity
  8
DV4_0
 62
     7
370
    25
100
AcDbLine
 10
199.9477158448102
 20
75.26531973972669
 30
0.0
 11
197.3243305244866
 21
73.75070751884974
 31
0.0
  0
LINE
  5
1A3
330
197
100
AcDbEntity
  8
DV4_0
 62
     7
370
    25
100
AcDbLine
 10
194.2908615953178
 20
71.99933341601579
 30
0.0
 11
191.6674762749942
 21
70.48472119513882
 31
0.0
  0
LINE
  5
1A4
330
197
100
AcDbEntity
  8
DV4_0
 62
     7
370
    25
100
AcDbLine
 10
188.6340073458254
 20
68.73334709230488
 30
0.0
 11
186.0106220255017
 21
67.2187348714279
 31
0.0
  0
LINE
  5
1A5
330
197
100
AcDbEntity
  8
DV4_0
 62
     7
370
    25
100
AcDbLine
 10
185.5580736855423
 20
67.48001377732479
 30
0.0
 11
188.8352220486937
 21
69.3720762669646
 31
0.0
  0
LINE
  5
1A6
330
197
100
AcDbEntity
  8
DV4_0
 62
     7
370
    25
100
AcDbLine
 10
191.2149279350347
 20
70.74600010103569
 30
0.0
 11
194.4920762981861
 21
72.6380625906755
 31
0.0
  0
LINE
  5
1A7
330
197
100
AcDbEntity
  8
DV4_0
 62
     7
370
    25
100
AcDbLine
 10
196.8717821845271
 20
74.01198642474661
 30
0.0
 11
200.1489305476785
 21
75.9040489143864
 31
0.0
  0
LINE
  5
1A8
330
197
100
AcDbEntity
  8
DV4_0
 62
     7
370
    25
100
AcDbLine
 10
202.5286364340195
 20
77.27797274845751
 30
0.0
 11
205.8057847971709
 21
79.1700352380973
 31
0.0
  0
LINE
  5
1A9
330
197
100
AcDbEntity
  8
DV4_0
 62
     7
370
    25
100
AcDbLine
 10
208.1854906835119
 20
80.54395907216843
 30
0.0
 11
211.4626390466632
 21
82.43602156180816
 31
0.0
  0
LINE
  5
1AA
330
197
100
AcDbEntity
  8
DV4_0
 62
     7
370
    25
100
AcDbLine
 10
213.8423449330043
 20
83.80994539587934
 30
0.0
 11
217.1194932961556
 21
85.70200788551908
 31
0.0
  0
LINE
  5
1AB
330
197
100
AcDbEntity
  8
DV4_0
 62
     7
370
    25
100
AcDbLine
 10
219.4991991824967
 20
87.07593171959029
 30
0.0
 11
222.776347545648
 21
88.96799420922997
 31
0.0
  0
LINE
  5
1AC
330
197
100
AcDbEntity
  8
DV4_0
 62
     7
370
    25
100
AcDbLine
 10
225.1560534319891
 20
90.34191804330118
 30
0.0
 11
228.4332017951403
 21
92.23398053294088
 31
0.0
  0
LINE
  5
1AD
330
197
100
AcDbEntity
  8
DV4_0
 62
     7
370
    25
100
AcDbLine
 10
230.8129076814815
 20
93.60790436701211
 30
0.0
 11
234.0900560446327
 21
95.4999668566518
 31
0.0
  0
LINE
  5
1AE
330
197
100
AcDbEntity
  8
DV4_0
 62
     7
370
    25
100
AcDbLine
 10
236.4697619309739
 20
96.873890690723
 30
0.0
 11
239.7469102941251
 21
98.76595318036267
 31
0.0
  0
LINE
  5
1AF
330
197
100
AcDbEntity
  8
DV4_0
 62
     7
370
    25
100
AcDbLine
 10
242.1266161804663
 20
100.1398770144339
 30
0.0
 11
245.4037645436175
 21
102.0319395040736
 31
0.0
  0
LINE
  5
1B0
330
197
100
AcDbEntity
  8
DV4_0
 62
     7
370
    25
100
AcDbLine
 10
247.7834704299586
 20
103.4058633381448
 30
0.0
 11
249.1118433954563
 21
104.1727998273591
 31
0.0
  0
LINE
  5
1B1
330
197
100
AcDbEntity
  8
DV4_0
 62
     7
370
    25
100
AcDbLine
 10
186.6127749802684
 20
64.16976226529641
 30
0.0
 11
188.5926739675907
 21
65.31285747859522
 31
0.0
  0
LINE
  5
1B2
330
197
100
AcDbEntity
  8
DV4_0
 62
     7
370
    25
100
AcDbLine
 10
192.2696292297608
 20
67.43574858900732
 30
0.0
 11
194.2495282170831
 21
68.57884380230614
 31
0.0
  0
LINE
  5
1B3
330
197
100
AcDbEntity
  8
DV4_0
 62
     7
370
    25
100
AcDbLine
 10
197.9264834792531
 20
70.70173491271822
 30
0.0
 11
199.9063824665755
 21
71.84483012601704
 31
0.0
  0
LINE
  5
1B4
330
197
100
AcDbEntity
  8
DV4_0
 62
     7
370
    25
100
AcDbLine
 10
203.5833377287455
 20
73.96772123642913
 30
0.0
 11
205.5632367160678
 21
75.11081644972795
 31
0.0
  0
LINE
  5
1B5
330
197
100
AcDbEntity
  8
DV4_0
 62
     7
370
    25
100
AcDbLine
 10
209.2401919782379
 20
77.23370756014003
 30
0.0
 11
211.2200909655602
 21
78.37680277343883
 31
0.0
  0
LINE
  5
1B6
330
197
100
AcDbEntity
  8
DV4_0
 62
     7
370
    25
100
AcDbLine
 10
214.8970462277302
 20
80.49969388385091
 30
0.0
 11
216.8769452150526
 21
81.64278909714974
 31
0.0
  0
LINE
  5
1B7
330
197
100
AcDbEntity
  8
DV4_0
 62
     7
370
    25
100
AcDbLine
 10
220.5539004772227
 20
83.76568020756184
 30
0.0
 11
222.533799464545
 21
84.90877542086066
 31
0.0
  0
LINE
  5
1B8
330
197
100
AcDbEntity
  8
DV4_0
 62
     7
370
    25
100
AcDbLine
 10
226.2107547267151
 20
87.03166653127275
 30
0.0
 11
228.1906537140374
 21
88.17476174457158
 31
0.0
  0
LINE
  5
1B9
330
197
100
AcDbEntity
  8
DV4_0
 62
     7
370
    25
100
AcDbLine
 10
231.8676089762074
 20
90.29765285498365
 30
0.0
 11
233.8475079635298
 21
91.44074806828249
 31
0.0
  0
LINE
  5
1BA
330
197
100
AcDbEntity
  8
DV4_0
 62
     7
370
    25
100
AcDbLine
 10
237.5244632256998
 20
93.56363917869456
 30
0.0
 11
239.5043622130221
 21
94.70673439199336
 31
0.0
  0
LINE
  5
1BB
330
197
100
AcDbEntity
  8
DV4_0
 62
     7
370
    25
100
AcDbLine
 10
243.1813174751922
 20
96.82962550240543
 30
0.0
 11
245.1612164625145
 21
97.97272071570428
 31
0.0
  0
LINE
  5
1BC
330
197
100
AcDbEntity
  8
DV4_0
 62
     7
370
    25
100
AcDbLine
 10
249.1118433954563
 20
105.0219562715239
 30
0.0
 11
184.3783175517189
 21
67.64803770004852
 31
0.0
  0
LINE
  5
1BD
330
197
100
AcDbEntity
  8
DV4_0
 62
     7
370
    35
100
AcDbLine
 10
186.6127749802684
 20
64.06153699891193
 30
0.0
 11
188.5926739675907
 21
65.20463221221074
 31
0.0
  0
LINE
  5
1BE
330
197
100
AcDbEntity
  8
DV4_0
 62
     7
370
    35
100
AcDbLine
 10
192.2696292297608
 20
67.32752332262282
 30
0.0
 11
194.2495282170831
 21
68.47061853592164
 31
0.0
  0
LINE
  5
1BF
330
197
100
AcDbEntity
  8
DV4_0
 62
     7
370
    35
100
AcDbLine
 10
197.9264834792531
 20
70.59350964633374
 30
0.0
 11
199.9063824665755
 21
71.73660485963255
 31
0.0
  0
LINE
  5
1C0
330
197
100
AcDbEntity
  8
DV4_0
 62
     7
370
    35
100
AcDbLine
 10
203.5833377287455
 20
73.85949597004465
 30
0.0
 11
205.5632367160679
 21
75.00259118334347
 31
0.0
  0
LINE
  5
1C1
330
197
100
AcDbEntity
  8
DV4_0
 62
     7
370
    35
100
AcDbLine
 10
209.2401919782379
 20
77.12548229375555
 30
0.0
 11
211.2200909655602
 21
78.26857750705435
 31
0.0
  0
LINE
  5
1C2
330
197
100
AcDbEntity
  8
DV4_0
 62
     7
370
    35
100
AcDbLine
 10
214.8970462277303
 20
80.39146861746644
 30
0.0
 11
216.8769452150526
 21
81.53456383076528
 31
0.0
  0
LINE
  5
1C3
330
197
100
AcDbEntity
  8
DV4_0
 62
     7
370
    35
100
AcDbLine
 10
220.5539004772227
 20
83.65745494117736
 30
0.0
 11
222.533799464545
 21
84.80055015447618
 31
0.0
  0
LINE
  5
1C4
330
197
100
AcDbEntity
  8
DV4_0
 62
     7
370
    35
100
AcDbLine
 10
226.2107547267151
 20
86.92344126488828
 30
0.0
 11
228.1906537140374
 21
88.0665364781871
 31
0.0
  0
LINE
  5
1C5
330
197
100
AcDbEntity
  8
DV4_0
 62
     7
370
    35
100
AcDbLine
 10
231.8676089762075
 20
90.18942758859919
 30
0.0
 11
233.8475079635298
 21
91.33252280189802
 31
0.0
  0
LINE
  5
1C6
330
197
100
AcDbEntity
  8
DV4_0
 62
     7
370
    35
100
AcDbLine
 10
237.5244632256999
 20
93.4554139123101
 30
0.0
 11
239.5043622130222
 21
94.5985091256089
 31
0.0
  0
LINE
  5
1C7
330
197
100
AcDbEntity
  8
DV4_0
 62
     7
370
    35
100
AcDbLine
 10
243.1813174751922
 20
96.721400236021
 30
0.0
 11
245.1612164625146
 21
97.8644954493198
 31
0.0
  0
LINE
  5
1C8
330
197
100
AcDbEntity
  8
DV4_0
 62
     7
370
    35
100
AcDbLine
 10
248.8381717246846
 20
99.98738655973189
 30
0.0
 11
249.1118433954563
 21
100.1453909725215
 31
0.0
  0
LINE
  5
1C9
330
197
100
AcDbEntity
  8
DV4_0
 62
     7
370
    35
100
AcDbLine
 10
249.1118433954563
 20
105.1301815379084
 30
0.0
 11
184.2845917216985
 21
67.70215033324075
 31
0.0
  0
LINE
  5
1CA
330
197
100
AcDbEntity
  8
DV4_0
 62
     7
370
    25
100
AcDbLine
 10
245.1612164625145
 20
80.14043538824272
 30
0.0
 11
243.1813174751922
 21
78.9973401749439
 31
0.0
  0
LINE
  5
1CB
330
197
100
AcDbEntity
  8
DV4_0
 62
     7
370
    25
100
AcDbLine
 10
239.5043622130222
 20
76.87444906453182
 30
0.0
 11
237.5244632256999
 21
75.73135385123301
 31
0.0
  0
LINE
  5
1CC
330
197
100
AcDbEntity
  8
DV4_0
 62
     7
370
    25
100
AcDbLine
 10
233.8475079635298
 20
73.60846274082093
 30
0.0
 11
231.8676089762075
 21
72.4653675275221
 31
0.0
  0
LINE
  5
1CD
330
197
100
AcDbEntity
  8
DV4_0
 62
     7
370
    25
100
AcDbLine
 10
228.1906537140374
 20
70.34247641711002
 30
0.0
 11
226.2107547267151
 21
69.1993812038112
 31
0.0
  0
LINE
  5
1CE
330
197
100
AcDbEntity
  8
DV4_0
 62
     7
370
    25
100
AcDbLine
 10
222.533799464545
 20
67.07649009339912
 30
0.0
 11
220.5539004772227
 21
65.9333948801003
 31
0.0
  0
LINE
  5
1CF
330
197
100
AcDbEntity
  8
DV4_0
 62
     7
370
    25
100
AcDbLine
 10
216.8769452150527
 20
63.81050376968821
 30
0.0
 11
214.8970462277303
 21
62.66740855638938
 31
0.0
  0
LINE
  5
1D0
330
197
100
AcDbEntity
  8
DV4_0
 62
     7
370
    25
100
AcDbLine
 10
211.2200909655602
 20
60.54451744597728
 30
0.0
 11
209.2401919782379
 21
59.40142223267847
 31
0.0
  0
LINE
  5
1D1
330
197
100
AcDbEntity
  8
DV4_0
 62
     7
370
    25
100
AcDbLine
 10
205.5632367160679
 20
57.27853112226639
 30
0.0
 11
203.5833377287455
 21
56.13543590896757
 31
0.0
  0
LINE
  5
1D2
330
197
100
AcDbEntity
  8
DV4_0
 62
     7
370
    25
100
AcDbLine
 10
199.9063824665755
 20
54.01254479855548
 30
0.0
 11
197.9264834792531
 21
52.86944958525666
 31
0.0
  0
LINE
  5
1D3
330
197
100
AcDbEntity
  8
DV4_0
 62
     7
370
    25
100
AcDbLine
 10
194.2495282170831
 20
50.74655847484458
 30
0.0
 11
192.2696292297608
 21
49.60346326154576
 31
0.0
  0
LINE
  5
1D4
330
197
100
AcDbEntity
  8
DV4_0
 62
     7
370
    25
100
AcDbLine
 10
188.5926739675907
 20
47.48057215113369
 30
0.0
 11
186.6127749802684
 21
46.33747693783486
 31
0.0
  0
LINE
  5
1D5
330
197
100
AcDbEntity
  8
DV4_0
 62
     7
370
    25
100
AcDbLine
 10
186.6127749802684
 20
46.8600347496286
 30
0.0
 11
188.5926739675907
 21
48.00312996292741
 31
0.0
  0
LINE
  5
1D6
330
197
100
AcDbEntity
  8
DV4_0
 62
     7
370
    25
100
AcDbLine
 10
192.2696292297607
 20
50.1260210733395
 30
0.0
 11
194.2495282170831
 21
51.26911628663832
 31
0.0
  0
LINE
  5
1D7
330
197
100
AcDbEntity
  8
DV4_0
 62
     7
370
    25
100
AcDbLine
 10
197.9264834792531
 20
53.3920073970504
 30
0.0
 11
199.9063824665755
 21
54.53510261034922
 31
0.0
  0
LINE
  5
1D8
330
197
100
AcDbEntity
  8
DV4_0
 62
     7
370
    25
100
AcDbLine
 10
203.5833377287455
 20
56.6579937207613
 30
0.0
 11
205.5632367160678
 21
57.80108893406013
 31
0.0
  0
LINE
  5
1D9
330
197
100
AcDbEntity
  8
DV4_0
 62
     7
370
    25
100
AcDbLine
 10
209.2401919782379
 20
59.92398004447222
 30
0.0
 11
211.2200909655602
 21
61.06707525777102
 31
0.0
  0
LINE
  5
1DA
330
197
100
AcDbEntity
  8
DV4_0
 62
     7
370
    25
100
AcDbLine
 10
214.8970462277303
 20
63.18996636818311
 30
0.0
 11
216.8769452150526
 21
64.33306158148194
 31
0.0
  0
LINE
  5
1DB
330
197
100
AcDbEntity
  8
DV4_0
 62
     7
370
    25
100
AcDbLine
 10
220.5539004772227
 20
66.45595269189404
 30
0.0
 11
222.533799464545
 21
67.59904790519286
 31
0.0
  0
LINE
  5
1DC
330
197
100
AcDbEntity
  8
DV4_0
 62
     7
370
    25
100
AcDbLine
 10
226.2107547267151
 20
69.72193901560495
 30
0.0
 11
228.1906537140374
 21
70.86503422890375
 31
0.0
  0
LINE
  5
1DD
330
197
100
AcDbEntity
  8
DV4_0
 62
     7
370
    25
100
AcDbLine
 10
231.8676089762075
 20
72.98792533931585
 30
0.0
 11
233.8475079635298
 21
74.13102055261466
 31
0.0
  0
LINE
  5
1DE
330
197
100
AcDbEntity
  8
DV4_0
 62
     7
370
    25
100
AcDbLine
 10
237.5244632256998
 20
76.25391166302674
 30
0.0
 11
239.5043622130222
 21
77.39700687632558
 31
0.0
  0
LINE
  5
1DF
330
197
100
AcDbEntity
  8
DV4_0
 62
     7
370
    25
100
AcDbLine
 10
243.1813174751922
 20
79.51989798673765
 30
0.0
 11
245.1612164625145
 21
80.66299320003645
 31
0.0
  0
LINE
  5
1E0
330
197
100
AcDbEntity
  8
DV4_0
 62
     7
370
    25
100
AcDbLine
 10
248.8381717246845
 20
82.78588431044852
 30
0.0
 11
249.1118433954563
 21
82.94388872323816
 31
0.0
  0
LINE
  5
1E1
330
197
100
AcDbEntity
  8
DV4_0
 62
     7
370
    25
100
AcDbLine
 10
186.6127749802684
 20
42.94085116117551
 30
0.0
 11
188.5926739675907
 21
44.08394637447433
 31
0.0
  0
LINE
  5
1E2
330
197
100
AcDbEntity
  8
DV4_0
 62
     7
370
    25
100
AcDbLine
 10
192.2696292297607
 20
46.20683748488642
 30
0.0
 11
194.2495282170831
 21
47.34993269818523
 31
0.0
  0
LINE
  5
1E3
330
197
100
AcDbEntity
  8
DV4_0
 62
     7
370
    25
100
AcDbLine
 10
197.9264834792531
 20
49.47282380859732
 30
0.0
 11
199.9063824665755
 21
50.61591902189614
 31
0.0
  0
LINE
  5
1E4
330
197
100
AcDbEntity
  8
DV4_0
 62
     7
370
    25
100
AcDbLine
 10
203.5833377287455
 20
52.73881013230823
 30
0.0
 11
205.5632367160679
 21
53.88190534560706
 31
0.0
  0
LINE
  5
1E5
330
197
100
AcDbEntity
  8
DV4_0
 62
     7
370
    25
100
AcDbLine
 10
209.2401919782379
 20
56.00479645601915
 30
0.0
 11
211.2200909655602
 21
57.14789166931796
 31
0.0
  0
LINE
  5
1E6
330
197
100
AcDbEntity
  8
DV4_0
 62
     7
370
    25
100
AcDbLine
 10
214.8970462277303
 20
59.27078277973006
 30
0.0
 11
216.8769452150526
 21
60.41387799302888
 31
0.0
  0
LINE
  5
1E7
330
197
100
AcDbEntity
  8
DV4_0
 62
     7
370
    25
100
AcDbLine
 10
220.5539004772227
 20
62.53676910344097
 30
0.0
 11
222.533799464545
 21
63.6798643167398
 31
0.0
  0
LINE
  5
1E8
330
197
100
AcDbEntity
  8
DV4_0
 62
     7
370
    25
100
AcDbLine
 10
226.2107547267151
 20
65.80275542715188
 30
0.0
 11
228.1906537140374
 21
66.9458506404507
 31
0.0
  0
LINE
  5
1E9
330
197
100
AcDbEntity
  8
DV4_0
 62
     7
370
    25
100
AcDbLine
 10
231.8676089762075
 20
69.0687417508628
 30
0.0
 11
233.8475079635298
 21
70.2118369641616
 31
0.0
  0
LINE
  5
1EA
330
197
100
AcDbEntity
  8
DV4_0
 62
     7
370
    25
100
AcDbLine
 10
237.5244632256999
 20
72.3347280745737
 30
0.0
 11
239.5043622130222
 21
73.4778232878725
 31
0.0
  0
LINE
  5
1EB
330
197
100
AcDbEntity
  8
DV4_0
 62
     7
370
    25
100
AcDbLine
 10
243.1813174751922
 20
75.6007143982846
 30
0.0
 11
245.1612164625146
 21
76.7438096115834
 31
0.0
  0
LINE
  5
1EC
330
197
100
AcDbEntity
  8
DV4_0
 62
     7
370
    25
100
AcDbLine
 10
249.1118433954563
 20
83.793045167403
 30
0.0
 11
248.8381717246846
 21
83.63504075461339
 31
0.0
  0
LINE
  5
1ED
330
197
100
AcDbEntity
  8
DV4_0
 62
     7
370
    25
100
AcDbLine
 10
245.1612164625145
 20
81.51214964420129
 30
0.0
 11
243.1813174751922
 21
80.36905443090248
 31
0.0
  0
LINE
  5
1EE
330
197
100
AcDbEntity
  8
DV4_0
 62
     7
370
    25
100
AcDbLine
 10
239.5043622130221
 20
78.2461633204904
 30
0.0
 11
237.5244632256998
 21
77.10306810719159
 31
0.0
  0
LINE
  5
1EF
330
197
100
AcDbEntity
  8
DV4_0
 62
     7
370
    25
100
AcDbLine
 10
233.8475079635298
 20
74.98017699677949
 30
0.0
 11
231.8676089762075
 21
73.83708178348067
 31
0.0
  0
LINE
  5
1F0
330
197
100
AcDbEntity
  8
DV4_0
 62
     7
370
    25
100
AcDbLine
 10
228.1906537140374
 20
71.71419067306859
 30
0.0
 11
226.2107547267151
 21
70.57109545976977
 31
0.0
  0
LINE
  5
1F1
330
197
100
AcDbEntity
  8
DV4_0
 62
     7
370
    25
100
AcDbLine
 10
222.533799464545
 20
68.44820434935768
 30
0.0
 11
220.5539004772227
 21
67.30510913605886
 31
0.0
  0
LINE
  5
1F2
330
197
100
AcDbEntity
  8
DV4_0
 62
     7
370
    25
100
AcDbLine
 10
216.8769452150526
 20
65.18221802564679
 30
0.0
 11
214.8970462277303
 21
64.03912281234796
 31
0.0
  0
LINE
  5
1F3
330
197
100
AcDbEntity
  8
DV4_0
 62
     7
370
    25
100
AcDbLine
 10
211.2200909655602
 20
61.91623170193586
 30
0.0
 11
209.2401919782379
 21
60.77313648863705
 31
0.0
  0
LINE
  5
1F4
330
197
100
AcDbEntity
  8
DV4_0
 62
     7
370
    25
100
AcDbLine
 10
205.5632367160679
 20
58.65024537822497
 30
0.0
 11
203.5833377287455
 21
57.50715016492614
 31
0.0
  0
LINE
  5
1F5
330
197
100
AcDbEntity
  8
DV4_0
 62
     7
370
    25
100
AcDbLine
 10
199.9063824665755
 20
55.38425905451405
 30
0.0
 11
197.9264834792531
 21
54.24116384121524
 31
0.0
  0
LINE
  5
1F6
330
197
100
AcDbEntity
  8
DV4_0
 62
     7
370
    25
100
AcDbLine
 10
194.2495282170831
 20
52.11827273080315
 30
0.0
 11
192.2696292297607
 21
50.97517751750432
 31
0.0
  0
LINE
  5
1F7
330
197
100
AcDbEntity
  8
DV4_0
 62
     7
370
    25
100
AcDbLine
 10
188.5926739675907
 20
48.85228640709225
 30
0.0
 11
186.6127749802684
 21
47.70919119379343
 31
0.0
  0
LINE
  5
1F8
330
197
100
AcDbEntity
  8
DV4_0
 62
     7
370
    35
100
AcDbLine
 10
186.6127749802684
 20
42.83262589479102
 30
0.0
 11
188.5926739675907
 21
43.97572110808983
 31
0.0
  0
LINE
  5
1F9
330
197
100
AcDbEntity
  8
DV4_0
 62
     7
370
    35
100
AcDbLine
 10
192.2696292297607
 20
46.09861221850192
 30
0.0
 11
194.2495282170831
 21
47.24170743180075
 31
0.0
  0
LINE
  5
1FA
330
197
100
AcDbEntity
  8
DV4_0
 62
     7
370
    35
100
AcDbLine
 10
197.9264834792531
 20
49.36459854221283
 30
0.0
 11
199.9063824665755
 21
50.50769375551165
 31
0.0
  0
LINE
  5
1FB
330
197
100
AcDbEntity
  8
DV4_0
 62
     7
370
    35
100
AcDbLine
 10
203.5833377287455
 20
52.63058486592374
 30
0.0
 11
205.5632367160678
 21
53.77368007922256
 31
0.0
  0
LINE
  5
1FC
330
197
100
AcDbEntity
  8
DV4_0
 62
     7
370
    35
100
AcDbLine
 10
209.2401919782379
 20
55.89657118963466
 30
0.0
 11
211.2200909655602
 21
57.03966640293347
 31
0.0
  0
LINE
  5
1FD
330
197
100
AcDbEntity
  8
DV4_0
 62
     7
370
    35
100
AcDbLine
 10
214.8970462277303
 20
59.16255751334556
 30
0.0
 11
216.8769452150526
 21
60.30565272664438
 31
0.0
  0
LINE
  5
1FE
330
197
100
AcDbEntity
  8
DV4_0
 62
     7
370
    35
100
AcDbLine
 10
220.5539004772227
 20
62.42854383705648
 30
0.0
 11
222.533799464545
 21
63.5716390503553
 31
0.0
  0
LINE
  5
1FF
330
197
100
AcDbEntity
  8
DV4_0
 62
     7
370
    35
100
AcDbLine
 10
226.2107547267151
 20
65.69453016076739
 30
0.0
 11
228.1906537140374
 21
66.8376253740662
 31
0.0
  0
LINE
  5
200
330
197
100
AcDbEntity
  8
DV4_0
 62
     7
370
    35
100
AcDbLine
 10
231.8676089762075
 20
68.96051648447829
 30
0.0
 11
233.8475079635298
 21
70.10361169777713
 31
0.0
  0
LINE
  5
201
330
197
100
AcDbEntity
  8
DV4_0
 62
     7
370
    35
100
AcDbLine
 10
237.5244632256999
 20
72.22650280818921
 30
0.0
 11
239.5043622130222
 21
73.369598021488
 31
0.0
  0
LINE
  5
202
330
197
100
AcDbEntity
  8
DV4_0
 62
     7
370
    35
100
AcDbLine
 10
243.1813174751922
 20
75.4924891319001
 30
0.0
 11
245.1612164625146
 21
76.63558434519891
 31
0.0
  0
LINE
  5
203
330
197
100
AcDbEntity
  8
DV4_0
 62
     7
370
    35
100
AcDbLine
 10
248.8381717246846
 20
78.758475455611
 30
0.0
 11
249.1118433954563
 21
78.91647986840061
 31
0.0
  0
LINE
  5
204
330
197
100
AcDbEntity
  8
DV4_0
 62
     7
370
    35
100
AcDbLine
 10
249.1118433954563
 20
83.90127043378752
 30
0.0
 11
248.8381717246846
 21
83.74326602099788
 31
0.0
  0
LINE
  5
205
330
197
100
AcDbEntity
  8
DV4_0
 62
     7
370
    35
100
AcDbLine
 10
245.1612164625145
 20
81.6203749105858
 30
0.0
 11
243.1813174751922
 21
80.47727969728697
 31
0.0
  0
LINE
  5
206
330
197
100
AcDbEntity
  8
DV4_0
 62
     7
370
    35
100
AcDbLine
 10
239.5043622130221
 20
78.35438858687489
 30
0.0
 11
237.5244632256998
 21
77.21129337357608
 31
0.0
  0
LINE
  5
207
330
197
100
AcDbEntity
  8
DV4_0
 62
     7
370
    35
100
AcDbLine
 10
233.8475079635298
 20
75.088402263164
 30
0.0
 11
231.8676089762074
 21
73.94530704986516
 31
0.0
  0
LINE
  5
208
330
197
100
AcDbEntity
  8
DV4_0
 62
     7
370
    35
100
AcDbLine
 10
228.1906537140374
 20
71.82241593945308
 30
0.0
 11
226.210754726715
 21
70.67932072615426
 31
0.0
  0
LINE
  5
209
330
197
100
AcDbEntity
  8
DV4_0
 62
     7
370
    35
100
AcDbLine
 10
222.533799464545
 20
68.55642961574218
 30
0.0
 11
220.5539004772227
 21
67.41333440244335
 31
0.0
  0
LINE
  5
20A
330
197
100
AcDbEntity
  8
DV4_0
 62
     7
370
    35
100
AcDbLine
 10
216.8769452150526
 20
65.29044329203127
 30
0.0
 11
214.8970462277302
 21
64.14734807873243
 31
0.0
  0
LINE
  5
20B
330
197
100
AcDbEntity
  8
DV4_0
 62
     7
370
    35
100
AcDbLine
 10
211.2200909655602
 20
62.02445696832034
 30
0.0
 11
209.2401919782379
 21
60.88136175502153
 31
0.0
  0
LINE
  5
20C
330
197
100
AcDbEntity
  8
DV4_0
 62
     7
370
    35
100
AcDbLine
 10
205.5632367160678
 20
58.75847064460944
 30
0.0
 11
203.5833377287455
 21
57.61537543131062
 31
0.0
  0
LINE
  5
20D
330
197
100
AcDbEntity
  8
DV4_0
 62
     7
370
    35
100
AcDbLine
 10
199.9063824665755
 20
55.49248432089854
 30
0.0
 11
197.9264834792531
 21
54.34938910759972
 31
0.0
  0
LINE
  5
20E
330
197
100
AcDbEntity
  8
DV4_0
 62
     7
370
    35
100
AcDbLine
 10
194.2495282170831
 20
52.22649799718761
 30
0.0
 11
192.2696292297607
 21
51.0834027838888
 31
0.0
  0
LINE
  5
20F
330
197
100
AcDbEntity
  8
DV4_0
 62
     7
370
    35
100
AcDbLine
 10
188.5926739675907
 20
48.96051167347672
 30
0.0
 11
186.6127749802683
 21
47.8174164601779
 31
0.0
  0
LINE
  5
210
330
197
100
AcDbEntity
  8
DV4_0
 62
     7
370
    35
100
AcDbLine
 10
246.0097445999384
 20
75.99263275712988
 30
0.0
 11
246.0097445999384
 21
100.4875301849617
 31
0.0
  0
ELLIPSE
  5
211
330
197
100
AcDbEntity
  8
DV4_0
 62
     7
370
    35
100
AcDbEllipse
 10
247.4239581623115
 20
101.3040267658894
 30
0.0
 11
-0.9999999999999997
 21
-1.732050807568871
 31
0.0
210
0.0
220
0.0
230
0.9999999999999999
 40
0.5773502691896262
 41
2.356194490192376
 42
5.497787143782132
  0
LINE
  5
212
330
197
100
AcDbEntity
  8
DV4_0
 62
     7
370
    35
100
AcDbLine
 10
248.8381717246846
 20
102.1205233468171
 30
0.0
 11
248.8381717246846
 21
77.62562591898535
 31
0.0
  0
LINE
  5
213
330
197
100
AcDbEntity
  8
DV4_0
 62
     7
370
    35
100
AcDbLine
 10
248.8381717246846
 20
77.62562591898534
 30
0.0
 11
246.0097445999384
 21
75.99263275712988
 31
0.0
  0
ELLIPSE
  5
214
330
197
100
AcDbEntity
  8
DV4_0
 62
     7
370
    35
100
AcDbEllipse
 10
246.5754300248876
 20
101.793924714446
 30
0.0
 11
-0.9999999999999981
 21
-1.732050807568872
 31
0.0
210
0.0
220
0.0
230
1.0
 40
0.5773502691896254
 41
3.141592653589793
 42
5.49778714378214
  0
LINE
  5
215
330
197
100
AcDbEntity
  8
DV4_0
 62
     7
370
    35
100
AcDbLine
 10
245.1612164625145
 20
76.48253070568651
 30
0.0
 11
245.1612164625145
 21
100.9774281335183
 31
0.0
  0
LINE
  5
216
330
197
100
AcDbEntity
  8
DV4_0
 62
     7
370
    25
100
AcDbLine
 10
246.0097445999384
 20
100.4875301849617
 30
0.0
 11
245.1612164625145
 21
100.9774281335183
 31
0.0
  0
LINE
  5
217
330
197
100
AcDbEntity
  8
DV4_0
 62
     7
370
    35
100
AcDbLine
 10
246.0097445999384
 20
75.99263275712988
 30
0.0
 11
245.1612164625145
 21
76.48253070568651
 31
0.0
  0
LINE
  5
218
330
197
100
AcDbEntity
  8
DV4_0
 62
     7
370
    35
100
AcDbLine
 10
248.4239581623115
 20
103.0360775734583
 30
0.0
 11
247.5754300248876
 21
103.5259755220149
 31
0.0
  0
ELLIPSE
  5
219
330
197
100
AcDbEntity
  8
DV4_0
 62
     7
370
    35
100
AcDbEllipse
 10
240.9185757753953
 20
98.52793839073512
 30
0.0
 11
-1.000000000000001
 21
-1.732050807568871
 31
0.0
210
0.0
220
0.0
230
1.0
 40
0.5773502691896256
 41
3.141592653589799
 42
5.49778714378215
  0
LINE
  5
21A
330
197
100
AcDbEntity
  8
DV4_0
 62
     7
370
    35
100
AcDbLine
 10
239.5043622130221
 20
97.7114418098074
 30
0.0
 11
239.5043622130221
 21
73.21654438197562
 31
0.0
  0
LINE
  5
21B
330
197
100
AcDbEntity
  8
DV4_0
 62
     7
370
    35
100
AcDbLine
 10
240.352890350446
 20
97.22154386125077
 30
0.0
 11
240.352890350446
 21
72.72664643341899
 31
0.0
  0
ELLIPSE
  5
21C
330
197
100
AcDbEntity
  8
DV4_0
 62
     7
370
    35
100
AcDbEllipse
 10
241.7671039128191
 20
98.0380404421785
 30
0.0
 11
-0.9999999999999996
 21
-1.73205080756887
 31
0.0
210
0.0
220
0.0
230
1.0
 40
0.5773502691896274
 41
2.356194490192358
 42
5.497787143782132
  0
LINE
  5
21D
330
197
100
AcDbEntity
  8
DV4_0
 62
     7
370
    35
100
AcDbLine
 10
243.1813174751922
 20
74.35963959527443
 30
0.0
 11
243.1813174751922
 21
98.8545370231062
 31
0.0
  0
LINE
  5
21E
330
197
100
AcDbEntity
  8
DV4_0
 62
     7
370
    35
100
AcDbLine
 10
240.352890350446
 20
72.72664643341899
 30
0.0
 11
243.1813174751922
 21
74.35963959527444
 31
0.0
  0
LINE
  5
21F
330
197
100
AcDbEntity
  8
DV4_0
 62
     7
370
    35
100
AcDbLine
 10
239.5043622130221
 20
73.21654438197561
 30
0.0
 11
240.352890350446
 21
72.72664643341898
 31
0.0
  0
LINE
  5
220
330
197
100
AcDbEntity
  8
DV4_0
 62
     7
370
    25
100
AcDbLine
 10
239.5043622130221
 20
97.7114418098074
 30
0.0
 11
240.352890350446
 21
97.22154386125077
 31
0.0
  0
LINE
  5
221
330
197
100
AcDbEntity
  8
DV4_0
 62
     7
370
    35
100
AcDbLine
 10
242.7671039128191
 20
99.77009124974737
 30
0.0
 11
241.9185757753953
 21
100.259989198304
 31
0.0
  0
ELLIPSE
  5
222
330
197
100
AcDbEntity
  8
DV4_0
 62
     7
370
    35
100
AcDbEllipse
 10
235.2617215259029
 20
95.26195206702421
 30
0.0
 11
-0.999999999999995
 21
-1.732050807568883
 31
0.0
210
0.0
220
0.0
230
1.0
 40
0.577350269189626
 41
3.141592653589795
 42
5.497787143782125
  0
LINE
  5
223
330
197
100
AcDbEntity
  8
DV4_0
 62
     7
370
    35
100
AcDbLine
 10
233.8475079635298
 20
94.4454554860965
 30
0.0
 11
233.8475079635298
 21
69.95055805826473
 31
0.0
  0
LINE
  5
224
330
197
100
AcDbEntity
  8
DV4_0
 62
     7
370
    35
100
AcDbLine
 10
234.6960361009536
 20
93.95555753753987
 30
0.0
 11
234.6960361009536
 21
69.4606601097081
 31
0.0
  0
ELLIPSE
  5
225
330
197
100
AcDbEntity
  8
DV4_0
 62
     7
370
    35
100
AcDbEllipse
 10
236.1102496633267
 20
94.7720541184676
 30
0.0
 11
-0.9999999999999966
 21
-1.732050807568873
 31
0.0
210
0.0
220
0.0
230
1.0
 40
0.5773502691896248
 41
2.356194490192346
 42
5.497787143782141
  0
LINE
  5
226
330
197
100
AcDbEntity
  8
DV4_0
 62
     7
370
    35
100
AcDbLine
 10
237.5244632256998
 20
71.09365327156353
 30
0.0
 11
237.5244632256998
 21
95.5885506993953
 31
0.0
  0
LINE
  5
227
330
197
100
AcDbEntity
  8
DV4_0
 62
     7
370
    35
100
AcDbLine
 10
234.6960361009536
 20
69.4606601097081
 30
0.0
 11
237.5244632256998
 21
71.09365327156355
 31
0.0
  0
LINE
  5
228
330
197
100
AcDbEntity
  8
DV4_0
 62
     7
370
    35
100
AcDbLine
 10
233.8475079635298
 20
69.95055805826472
 30
0.0
 11
234.6960361009537
 21
69.46066010970809
 31
0.0
  0
LINE
  5
229
330
197
100
AcDbEntity
  8
DV4_0
 62
     7
370
    25
100
AcDbLine
 10
233.8475079635298
 20
94.4454554860965
 30
0.0
 11
234.6960361009536
 21
93.95555753753987
 31
0.0
  0
LINE
  5
22A
330
197
100
AcDbEntity
  8
DV4_0
 62
     7
370
    35
100
AcDbLine
 10
237.1102496633267
 20
96.50410492603648
 30
0.0
 11
236.2617215259029
 21
96.99400287459311
 31
0.0
  0
ELLIPSE
  5
22B
330
197
100
AcDbEntity
  8
DV4_0
 62
     7
370
    35
100
AcDbEllipse
 10
229.6048672764105
 20
91.9959657433133
 30
0.0
 11
-1.000000000000016
 21
-1.732050807568881
 31
0.0
210
0.0
220
0.0
230
1.0
 40
0.5773502691896278
 41
3.14159265358979
 42
5.497787143782136
  0
LINE
  5
22C
330
197
100
AcDbEntity
  8
DV4_0
 62
     7
370
    35
100
AcDbLine
 10
228.1906537140374
 20
91.17946916238559
 30
0.0
 11
228.1906537140374
 21
66.68457173455381
 31
0.0
  0
LINE
  5
22D
330
197
100
AcDbEntity
  8
DV4_0
 62
     7
370
    35
100
AcDbLine
 10
229.0391818514613
 20
90.68957121382896
 30
0.0
 11
229.0391818514613
 21
66.19467378599718
 31
0.0
  0
ELLIPSE
  5
22E
330
197
100
AcDbEntity
  8
DV4_0
 62
     7
370
    35
100
AcDbEllipse
 10
230.4533954138344
 20
91.50606779475669
 30
0.0
 11
-1.000000000000018
 21
-1.732050807568881
 31
0.0
210
0.0
220
0.0
230
1.0
 40
0.5773502691896253
 41
2.356194490192353
 42
5.497787143782153
  0
LINE
  5
22F
330
197
100
AcDbEntity
  8
DV4_0
 62
     7
370
    35
100
AcDbLine
 10
231.8676089762075
 20
67.82766694785263
 30
0.0
 11
231.8676089762075
 21
92.32256437568441
 31
0.0
  0
LINE
  5
230
330
197
100
AcDbEntity
  8
DV4_0
 62
     7
370
    35
100
AcDbLine
 10
229.0391818514613
 20
66.1946737859972
 30
0.0
 11
231.8676089762074
 21
67.82766694785265
 31
0.0
  0
LINE
  5
231
330
197
100
AcDbEntity
  8
DV4_0
 62
     7
370
    35
100
AcDbLine
 10
228.1906537140374
 20
66.6845717345538
 30
0.0
 11
229.0391818514613
 21
66.19467378599717
 31
0.0
  0
LINE
  5
232
330
197
100
AcDbEntity
  8
DV4_0
 62
     7
370
    25
100
AcDbLine
 10
228.1906537140374
 20
91.17946916238559
 30
0.0
 11
229.0391818514613
 21
90.68957121382896
 31
0.0
  0
LINE
  5
233
330
197
100
AcDbEntity
  8
DV4_0
 62
     7
370
    35
100
AcDbLine
 10
231.4533954138343
 20
93.23811860232556
 30
0.0
 11
230.6048672764105
 21
93.7280165508822
 31
0.0
  0
ELLIPSE
  5
234
330
197
100
AcDbEntity
  8
DV4_0
 62
     7
370
    35
100
AcDbEllipse
 10
223.9480130269181
 20
88.7299794196024
 30
0.0
 11
-1.00000000000002
 21
-1.732050807568876
 31
0.0
210
0.0
220
0.0
230
1.0
 40
0.5773502691896274
 41
3.141592653589793
 42
5.497787143782174
  0
LINE
  5
235
330
197
100
AcDbEntity
  8
DV4_0
 62
     7
370
    35
100
AcDbLine
 10
222.533799464545
 20
87.91348283867465
 30
0.0
 11
222.533799464545
 21
63.41858541084289
 31
0.0
  0
LINE
  5
236
330
197
100
AcDbEntity
  8
DV4_0
 62
     7
370
    35
100
AcDbLine
 10
223.3823276019689
 20
87.42358489011802
 30
0.0
 11
223.3823276019689
 21
62.92868746228626
 31
0.0
  0
ELLIPSE
  5
237
330
197
100
AcDbEntity
  8
DV4_0
 62
     7
370
    35
100
AcDbEllipse
 10
224.7965411643419
 20
88.24008147104576
 30
0.0
 11
-1.000000000000009
 21
-1.732050807568879
 31
0.0
210
0.0
220
0.0
230
1.0
 40
0.5773502691896245
 41
2.356194490192371
 42
5.497787143782126
  0
LINE
  5
238
330
197
100
AcDbEntity
  8
DV4_0
 62
     7
370
    35
100
AcDbLine
 10
226.2107547267151
 20
64.56168062414172
 30
0.0
 11
226.2107547267151
 21
89.05657805197347
 31
0.0
  0
LINE
  5
239
330
197
100
AcDbEntity
  8
DV4_0
 62
     7
370
    35
100
AcDbLine
 10
223.3823276019689
 20
62.92868746228626
 30
0.0
 11
226.210754726715
 21
64.56168062414172
 31
0.0
  0
LINE
  5
23A
330
197
100
AcDbEntity
  8
DV4_0
 62
     7
370
    35
100
AcDbLine
 10
222.533799464545
 20
63.4185854108429
 30
0.0
 11
223.3823276019689
 21
62.92868746228626
 31
0.0
  0
LINE
  5
23B
330
197
100
AcDbEntity
  8
DV4_0
 62
     7
370
    25
100
AcDbLine
 10
222.533799464545
 20
87.91348283867465
 30
0.0
 11
223.3823276019688
 21
87.42358489011802
 31
0.0
  0
LINE
  5
23C
330
197
100
AcDbEntity
  8
DV4_0
 62
     7
370
    35
100
AcDbLine
 10
225.796541164342
 20
89.97213227861462
 30
0.0
 11
224.9480130269181
 21
90.46203022717125
 31
0.0
  0
ELLIPSE
  5
23D
330
197
100
AcDbEntity
  8
DV4_0
 62
     7
370
    35
100
AcDbEllipse
 10
218.2911587774257
 20
85.46399309589148
 30
0.0
 11
-1.000000000000017
 21
-1.732050807568885
 31
0.0
210
0.0
220
0.0
230
0.9999999999999998
 40
0.5773502691896214
 41
3.141592653589784
 42
5.497787143782151
  0
LINE
  5
23E
330
197
100
AcDbEntity
  8
DV4_0
 62
     7
370
    35
100
AcDbLine
 10
216.8769452150526
 20
84.64749651496375
 30
0.0
 11
216.8769452150526
 21
60.15259908713199
 31
0.0
  0
LINE
  5
23F
330
197
100
AcDbEntity
  8
DV4_0
 62
     7
370
    35
100
AcDbLine
 10
217.7254733524765
 20
84.15759856640712
 30
0.0
 11
217.7254733524765
 21
59.66270113857536
 31
0.0
  0
ELLIPSE
  5
240
330
197
100
AcDbEntity
  8
DV4_0
 62
     7
370
    35
100
AcDbEllipse
 10
219.1396869148496
 20
84.97409514733484
 30
0.0
 11
-0.9999999999999981
 21
-1.732050807568885
 31
0.0
210
0.0
220
0.0
230
1.0
 40
0.5773502691896234
 41
2.356194490192339
 42
5.497787143782134
  0
LINE
  5
241
330
197
100
AcDbEntity
  8
DV4_0
 62
     7
370
    35
100
AcDbLine
 10
220.5539004772227
 20
61.29569430043082
 30
0.0
 11
220.5539004772227
 21
85.79059172826258
 31
0.0
  0
LINE
  5
242
330
197
100
AcDbEntity
  8
DV4_0
 62
     7
370
    35
100
AcDbLine
 10
217.7254733524765
 20
59.66270113857536
 30
0.0
 11
220.5539004772227
 21
61.29569430043081
 31
0.0
  0
LINE
  5
243
330
197
100
AcDbEntity
  8
DV4_0
 62
     7
370
    35
100
AcDbLine
 10
216.8769452150526
 20
60.15259908713199
 30
0.0
 11
217.7254733524765
 21
59.66270113857536
 31
0.0
  0
LINE
  5
244
330
197
100
AcDbEntity
  8
DV4_0
 62
     7
370
    25
100
AcDbLine
 10
216.8769452150526
 20
84.64749651496375
 30
0.0
 11
217.7254733524765
 21
84.15759856640712
 31
0.0
  0
LINE
  5
245
330
197
100
AcDbEntity
  8
DV4_0
 62
     7
370
    35
100
AcDbLine
 10
220.1396869148496
 20
86.70614595490372
 30
0.0
 11
219.2911587774257
 21
87.19604390346035
 31
0.0
  0
ELLIPSE
  5
246
330
197
100
AcDbEntity
  8
DV4_0
 62
     7
370
    35
100
AcDbEllipse
 10
212.6343045279333
 20
82.19800677218052
 30
0.0
 11
-0.999999999999995
 21
-1.73205080756888
 31
0.0
210
0.0
220
0.0
230
1.0
 40
0.5773502691896232
 41
3.14159265358979
 42
5.497787143782118
  0
LINE
  5
247
330
197
100
AcDbEntity
  8
DV4_0
 62
     7
370
    35
100
AcDbLine
 10
211.2200909655602
 20
81.3815101912528
 30
0.0
 11
211.2200909655602
 21
56.88661276342107
 31
0.0
  0
LINE
  5
248
330
197
100
AcDbEntity
  8
DV4_0
 62
     7
370
    35
100
AcDbLine
 10
212.0686191029841
 20
80.89161224269616
 30
0.0
 11
212.0686191029841
 21
56.39671481486442
 31
0.0
  0
ELLIPSE
  5
249
330
197
100
AcDbEntity
  8
DV4_0
 62
     7
370
    35
100
AcDbEllipse
 10
213.4828326653572
 20
81.70810882362389
 30
0.0
 11
-1.000000000000008
 21
-1.732050807568876
 31
0.0
210
0.0
220
0.0
230
1.0
 40
0.577350269189626
 41
2.356194490192363
 42
5.497787143782156
  0
LINE
  5
24A
330
197
100
AcDbEntity
  8
DV4_0
 62
     7
370
    35
100
AcDbLine
 10
214.8970462277303
 20
58.02970797671988
 30
0.0
 11
214.8970462277303
 21
82.52460540455161
 31
0.0
  0
LINE
  5
24B
330
197
100
AcDbEntity
  8
DV4_0
 62
     7
370
    35
100
AcDbLine
 10
212.0686191029841
 20
56.39671481486442
 30
0.0
 11
214.8970462277303
 21
58.02970797671988
 31
0.0
  0
LINE
  5
24C
330
197
100
AcDbEntity
  8
DV4_0
 62
     7
370
    35
100
AcDbLine
 10
211.2200909655602
 20
56.88661276342106
 30
0.0
 11
212.0686191029841
 21
56.39671481486442
 31
0.0
  0
LINE
  5
24D
330
197
100
AcDbEntity
  8
DV4_0
 62
     7
370
    25
100
AcDbLine
 10
211.2200909655602
 20
81.3815101912528
 30
0.0
 11
212.0686191029841
 21
80.89161224269617
 31
0.0
  0
LINE
  5
24E
330
197
100
AcDbEntity
  8
DV4_0
 62
     7
370
    35
100
AcDbLine
 10
214.4828326653572
 20
83.44015963119277
 30
0.0
 11
213.6343045279333
 21
83.93005757974942
 31
0.0
  0
ELLIPSE
  5
24F
330
197
100
AcDbEntity
  8
DV4_0
 62
     7
370
    35
100
AcDbEllipse
 10
206.977450278441
 20
78.93202044846959
 30
0.0
 11
-1.000000000000004
 21
-1.732050807568878
 31
0.0
210
0.0
220
0.0
230
0.9999999999999999
 40
0.5773502691896212
 41
3.141592653589793
 42
5.497787143782137
  0
LINE
  5
250
330
197
100
AcDbEntity
  8
DV4_0
 62
     7
370
    35
100
AcDbLine
 10
205.5632367160678
 20
78.11552386754187
 30
0.0
 11
205.5632367160678
 21
53.62062643971015
 31
0.0
  0
LINE
  5
251
330
197
100
AcDbEntity
  8
DV4_0
 62
     7
370
    35
100
AcDbLine
 10
206.4117648534917
 20
77.62562591898522
 30
0.0
 11
206.4117648534917
 21
53.1307284911535
 31
0.0
  0
ELLIPSE
  5
252
330
197
100
AcDbEntity
  8
DV4_0
 62
     7
370
    35
100
AcDbEllipse
 10
207.8259784158648
 20
78.44212249991294
 30
0.0
 11
-1.000000000000008
 21
-1.732050807568869
 31
0.0
210
0.0
220
0.0
230
0.9999999999999998
 40
0.577350269189627
 41
2.356194490192386
 42
5.497787143782133
  0
LINE
  5
253
330
197
100
AcDbEntity
  8
DV4_0
 62
     7
370
    35
100
AcDbLine
 10
209.2401919782379
 20
54.76372165300895
 30
0.0
 11
209.2401919782379
 21
79.25861908084066
 31
0.0
  0
LINE
  5
254
330
197
100
AcDbEntity
  8
DV4_0
 62
     7
370
    35
100
AcDbLine
 10
206.4117648534917
 20
53.13072849115351
 30
0.0
 11
209.2401919782379
 21
54.76372165300897
 31
0.0
  0
LINE
  5
255
330
197
100
AcDbEntity
  8
DV4_0
 62
     7
370
    35
100
AcDbLine
 10
205.5632367160678
 20
53.62062643971014
 30
0.0
 11
206.4117648534917
 21
53.1307284911535
 31
0.0
  0
LINE
  5
256
330
197
100
AcDbEntity
  8
DV4_0
 62
     7
370
    25
100
AcDbLine
 10
205.5632367160678
 20
78.11552386754187
 30
0.0
 11
206.4117648534917
 21
77.62562591898524
 31
0.0
  0
LINE
  5
257
330
197
100
AcDbEntity
  8
DV4_0
 62
     7
370
    35
100
AcDbLine
 10
208.8259784158648
 20
80.17417330748182
 30
0.0
 11
207.977450278441
 21
80.66407125603847
 31
0.0
  0
ELLIPSE
  5
258
330
197
100
AcDbEntity
  8
DV4_0
 62
     7
370
    35
100
AcDbEllipse
 10
201.3205960289486
 20
75.66603412475867
 30
0.0
 11
-1.000000000000004
 21
-1.732050807568878
 31
0.0
210
0.0
220
0.0
230
0.9999999999999999
 40
0.577350269189626
 41
3.141592653589793
 42
5.497787143782127
  0
LINE
  5
259
330
197
100
AcDbEntity
  8
DV4_0
 62
     7
370
    35
100
AcDbLine
 10
199.9063824665755
 20
74.84953754383093
 30
0.0
 11
199.9063824665755
 21
50.35464011599921
 31
0.0
  0
LINE
  5
25A
330
197
100
AcDbEntity
  8
DV4_0
 62
     7
370
    35
100
AcDbLine
 10
200.7549106039993
 20
74.35963959527429
 30
0.0
 11
200.7549106039993
 21
49.86474216744258
 31
0.0
  0
ELLIPSE
  5
25B
330
197
100
AcDbEntity
  8
DV4_0
 62
     7
370
    35
100
AcDbEllipse
 10
202.1691241663724
 20
75.17613617620204
 30
0.0
 11
-1.000000000000014
 21
-1.732050807568883
 31
0.0
210
0.0
220
0.0
230
1.0
 40
0.5773502691896224
 41
2.356194490192323
 42
5.497787143782171
  0
LINE
  5
25C
330
197
100
AcDbEntity
  8
DV4_0
 62
     7
370
    35
100
AcDbLine
 10
203.5833377287455
 20
51.49773532929805
 30
0.0
 11
203.5833377287455
 21
75.99263275712975
 31
0.0
  0
LINE
  5
25D
330
197
100
AcDbEntity
  8
DV4_0
 62
     7
370
    35
100
AcDbLine
 10
200.7549106039993
 20
49.86474216744259
 30
0.0
 11
203.5833377287455
 21
51.49773532929805
 31
0.0
  0
LINE
  5
25E
330
197
100
AcDbEntity
  8
DV4_0
 62
     7
370
    35
100
AcDbLine
 10
199.9063824665755
 20
50.35464011599922
 30
0.0
 11
200.7549106039993
 21
49.86474216744259
 31
0.0
  0
LINE
  5
25F
330
197
100
AcDbEntity
  8
DV4_0
 62
     7
370
    25
100
AcDbLine
 10
199.9063824665755
 20
74.84953754383093
 30
0.0
 11
200.7549106039993
 21
74.35963959527429
 31
0.0
  0
LINE
  5
260
330
197
100
AcDbEntity
  8
DV4_0
 62
     7
370
    35
100
AcDbLine
 10
203.1691241663724
 20
76.9081869837709
 30
0.0
 11
202.3205960289486
 21
77.39808493232755
 31
0.0
  0
ELLIPSE
  5
261
330
197
100
AcDbEntity
  8
DV4_0
 62
     7
370
    35
100
AcDbEllipse
 10
195.6637417794562
 20
72.40004780104773
 30
0.0
 11
-1.000000000000004
 21
-1.732050807568885
 31
0.0
210
0.0
220
0.0
230
0.9999999999999997
 40
0.5773502691896251
 41
3.141592653589793
 42
5.497787143782124
  0
LINE
  5
262
330
197
100
AcDbEntity
  8
DV4_0
 62
     7
370
    35
100
AcDbLine
 10
194.2495282170831
 20
71.58355122012003
 30
0.0
 11
194.2495282170831
 21
47.08865379228831
 31
0.0
  0
LINE
  5
263
330
197
100
AcDbEntity
  8
DV4_0
 62
     7
370
    35
100
AcDbLine
 10
195.098056354507
 20
71.09365327156337
 30
0.0
 11
195.0980563545069
 21
46.59875584373165
 31
0.0
  0
ELLIPSE
  5
264
330
197
100
AcDbEntity
  8
DV4_0
 62
     7
370
    35
100
AcDbEllipse
 10
196.51226991688
 20
71.91014985249112
 30
0.0
 11
-1.000000000000014
 21
-1.732050807568865
 31
0.0
210
0.0
220
0.0
230
0.9999999999999999
 40
0.5773502691896216
 41
2.356194490192362
 42
5.497787143782153
  0
LINE
  5
265
330
197
100
AcDbEntity
  8
DV4_0
 62
     7
370
    35
100
AcDbLine
 10
197.9264834792531
 20
48.23174900558713
 30
0.0
 11
197.9264834792532
 21
72.72664643341884
 31
0.0
  0
LINE
  5
266
330
197
100
AcDbEntity
  8
DV4_0
 62
     7
370
    35
100
AcDbLine
 10
195.098056354507
 20
46.59875584373167
 30
0.0
 11
197.9264834792531
 21
48.23174900558712
 31
0.0
  0
LINE
  5
267
330
197
100
AcDbEntity
  8
DV4_0
 62
     7
370
    35
100
AcDbLine
 10
194.2495282170831
 20
47.08865379228831
 30
0.0
 11
195.098056354507
 21
46.59875584373166
 31
0.0
  0
LINE
  5
268
330
197
100
AcDbEntity
  8
DV4_0
 62
     7
370
    25
100
AcDbLine
 10
194.2495282170831
 20
71.58355122012003
 30
0.0
 11
195.0980563545069
 21
71.09365327156338
 31
0.0
  0
LINE
  5
269
330
197
100
AcDbEntity
  8
DV4_0
 62
     7
370
    35
100
AcDbLine
 10
197.51226991688
 20
73.64220066005998
 30
0.0
 11
196.6637417794562
 21
74.13209860861662
 31
0.0
  0
ELLIPSE
  5
26A
330
197
100
AcDbEntity
  8
DV4_0
 62
     7
370
    35
100
AcDbEllipse
 10
190.0068875299638
 20
69.13406147733683
 30
0.0
 11
-1.000000000000004
 21
-1.732050807568878
 31
0.0
210
0.0
220
0.0
230
0.9999999999999999
 40
0.5773502691896215
 41
3.141592653589798
 42
5.497787143782146
  0
LINE
  5
26B
330
197
100
AcDbEntity
  8
DV4_0
 62
     7
370
    35
100
AcDbLine
 10
188.5926739675907
 20
68.3175648964091
 30
0.0
 11
188.5926739675907
 21
43.82266746857738
 31
0.0
  0
LINE
  5
26C
330
197
100
AcDbEntity
  8
DV4_0
 62
     7
370
    35
100
AcDbLine
 10
189.4412021050146
 20
67.82766694785248
 30
0.0
 11
189.4412021050145
 21
43.33276952002075
 31
0.0
  0
ELLIPSE
  5
26D
330
197
100
AcDbEntity
  8
DV4_0
 62
     7
370
    35
100
AcDbEllipse
 10
190.8554156673877
 20
68.6441635287802
 30
0.0
 11
-0.999999999999995
 21
-1.73205080756888
 31
0.0
210
0.0
220
0.0
230
1.0
 40
0.5773502691896248
 41
2.356194490192344
 42
5.497787143782143
  0
LINE
  5
26E
330
197
100
AcDbEntity
  8
DV4_0
 62
     7
370
    35
100
AcDbLine
 10
192.2696292297607
 20
44.9657626818762
 30
0.0
 11
192.2696292297608
 21
69.46066010970793
 31
0.0
  0
LINE
  5
26F
330
197
100
AcDbEntity
  8
DV4_0
 62
     7
370
    35
100
AcDbLine
 10
189.4412021050146
 20
43.33276952002074
 30
0.0
 11
192.2696292297607
 21
44.9657626818762
 31
0.0
  0
LINE
  5
270
330
197
100
AcDbEntity
  8
DV4_0
 62
     7
370
    35
100
AcDbLine
 10
188.5926739675907
 20
43.82266746857739
 30
0.0
 11
189.4412021050146
 21
43.33276952002075
 31
0.0
  0
LINE
  5
271
330
197
100
AcDbEntity
  8
DV4_0
 62
     7
370
    25
100
AcDbLine
 10
188.5926739675907
 20
68.3175648964091
 30
0.0
 11
189.4412021050146
 21
67.82766694785246
 31
0.0
  0
LINE
  5
272
330
197
100
AcDbEntity
  8
DV4_0
 62
     7
370
    35
100
AcDbLine
 10
191.8554156673877
 20
70.37621433634908
 30
0.0
 11
191.0068875299638
 21
70.86611228490571
 31
0.0
  0
ELLIPSE
  5
273
330
197
100
AcDbEntity
  8
DV4_0
 62
     7
370
    35
100
AcDbEllipse
 10
184.3500332804714
 20
65.86807515362591
 30
0.0
 11
-1.000000000000008
 21
-1.73205080756888
 31
0.0
210
0.0
220
0.0
230
1.0
 40
0.5773502691896244
 41
3.141592653589779
 42
3.821203337108081
  0
ELLIPSE
  5
274
330
197
100
AcDbEntity
  8
DV4_0
 62
     7
370
    35
100
AcDbEllipse
 10
185.1985614178953
 20
65.37817720506928
 30
0.0
 11
-1.000000000000004
 21
-1.732050807568871
 31
0.0
210
0.0
220
0.0
230
1.0
 40
0.5773502691896261
 41
2.356194490192348
 42
3.933475768219502
  0
LINE
  5
275
330
197
100
AcDbEntity
  8
DV4_0
 62
     7
370
    35
100
AcDbLine
 10
186.6127749802683
 20
41.69977635816528
 30
0.0
 11
186.6127749802684
 21
66.194673785997
 31
0.0
  0
LINE
  5
276
330
197
100
AcDbEntity
  8
DV4_0
 62
     7
370
    35
100
AcDbLine
 10
185.1893903761924
 20
40.87798487384163
 30
0.0
 11
186.6127749802683
 21
41.69977635816528
 31
0.0
  0
LINE
  5
277
330
197
100
AcDbEntity
  8
DV4_0
 62
     7
370
    35
100
AcDbLine
 10
186.1985614178953
 20
67.11022801263813
 30
0.0
 11
185.3500332804714
 21
67.60012596119478
 31
0.0
  0
LINE
  5
278
330
197
100
AcDbEntity
  8
DV4_0
 62
     7
370
    35
100
AcDbLine
 10
181.7952778264969
 20
16.39367725280176
 30
0.0
 11
185.1893903761924
 21
18.35326904702831
 31
0.0
  0
LINE
  5
279
330
197
100
AcDbEntity
  8
DV4_0
 62
     7
370
    35
100
AcDbLine
 10
178.4011652768015
 20
18.35326904702832
 30
0.0
 11
181.7952778264969
 21
16.39367725280177
 31
0.0
  0
LINE
  5
27A
330
197
100
AcDbEntity
  8
DV4_0
 62
     7
370
    35
100
AcDbLine
 10
178.4011652768015
 20
18.35326904702832
 30
0.0
 11
178.4011652768015
 21
67.17976458650637
 31
0.0
  0
LINE
  5
27B
330
197
100
AcDbEntity
  8
DV4_0
 62
     7
370
    35
100
AcDbLine
 10
185.1893903761924
 20
18.35326904702832
 30
0.0
 11
185.1893903761924
 21
67.17976458650637
 31
0.0
  0
LINE
  5
27C
330
197
100
AcDbEntity
  8
DV4_0
 62
     7
370
    35
100
AcDbLine
 10
181.7952778264969
 20
16.39367725280176
 30
0.0
 11
181.7952778264969
 21
65.22017279227981
 31
0.0
  0
LINE
  5
27D
330
197
100
AcDbEntity
  8
DV4_0
 62
     7
370
    35
100
AcDbLine
 10
184.9065476637178
 20
67.3430639026919
 30
0.0
 11
181.7952778264969
 21
69.13935638073289
 31
0.0
  0
LINE
  5
27E
330
197
100
AcDbEntity
  8
DV4_0
 62
     7
370
    35
100
AcDbLine
 10
181.795277826497
 20
65.5467714246509
 30
0.0
 11
184.9065476637178
 21
67.3430639026919
 31
0.0
  0
LINE
  5
27F
330
197
100
AcDbEntity
  8
DV4_0
 62
     7
370
    35
100
AcDbLine
 10
178.6840079892761
 20
67.3430639026919
 30
0.0
 11
181.7952778264969
 21
65.5467714246509
 31
0.0
  0
LINE
  5
280
330
197
100
AcDbEntity
  8
DV4_0
 62
     7
370
    35
100
AcDbLine
 10
181.7952778264969
 20
69.13935638073289
 30
0.0
 11
178.6840079892761
 21
67.3430639026919
 31
0.0
  0
LINE
  5
281
330
197
100
AcDbEntity
  8
DV4_0
 62
     7
370
    35
100
AcDbLine
 10
181.7952778264969
 20
65.22017279227981
 30
0.0
 11
178.4011652768015
 21
67.17976458650635
 31
0.0
  0
LINE
  5
282
330
197
100
AcDbEntity
  8
DV4_0
 62
     7
370
    35
100
AcDbLine
 10
185.1893903761924
 20
67.17976458650635
 30
0.0
 11
181.7952778264969
 21
65.22017279227981
 31
0.0
  0
LINE
  5
283
330
197
100
AcDbEntity
  8
DV4_0
 62
     7
370
    35
100
AcDbLine
 10
184.9065476637178
 20
67.3430639026919
 30
0.0
 11
185.1893903761924
 21
67.17976458650635
 31
0.0
  0
LINE
  5
284
330
197
100
AcDbEntity
  8
DV4_0
 62
     7
370
    35
100
AcDbLine
 10
181.7952778264969
 20
65.22017279227981
 30
0.0
 11
181.7952778264969
 21
65.5467714246509
 31
0.0
  0
LINE
  5
285
330
197
100
AcDbEntity
  8
DV4_0
 62
     7
370
    35
100
AcDbLine
 10
178.4011652768015
 20
67.17976458650637
 30
0.0
 11
178.6840079892761
 21
67.34306390269191
 31
0.0
  0
LINE
  5
286
330
197
100
AcDbEntity
  8
DV4_0
 62
     7
370
    35
100
AcDbLine
 10
252.5059559451517
 20
57.21850629918814
 30
0.0
 11
255.9000684948471
 21
59.17809809341467
 31
0.0
  0
LINE
  5
287
330
197
100
AcDbEntity
  8
DV4_0
 62
     7
370
    35
100
AcDbLine
 10
249.1118433954563
 20
59.17809809341468
 30
0.0
 11
252.5059559451517
 21
57.21850629918813
 31
0.0
  0
LINE
  5
288
330
197
100
AcDbEntity
  8
DV4_0
 62
     7
370
    35
100
AcDbLine
 10
249.1118433954563
 20
59.17809809341468
 30
0.0
 11
249.1118433954563
 21
108.0045936328927
 31
0.0
  0
LINE
  5
289
330
197
100
AcDbEntity
  8
DV4_0
 62
     7
370
    35
100
AcDbLine
 10
255.9000684948471
 20
59.17809809341467
 30
0.0
 11
255.9000684948471
 21
108.0045936328927
 31
0.0
  0
LINE
  5
28A
330
197
100
AcDbEntity
  8
DV4_0
 62
     7
370
    35
100
AcDbLine
 10
252.5059559451517
 20
57.21850629918814
 30
0.0
 11
252.5059559451517
 21
106.0450018386662
 31
0.0
  0
LINE
  5
28B
330
197
100
AcDbEntity
  8
DV4_0
 62
     7
370
    35
100
AcDbLine
 10
255.6172257823725
 20
108.1678929490783
 30
0.0
 11
252.5059559451517
 21
109.9641854271193
 31
0.0
  0
LINE
  5
28C
330
197
100
AcDbEntity
  8
DV4_0
 62
     7
370
    35
100
AcDbLine
 10
252.5059559451517
 20
106.3716004710373
 30
0.0
 11
255.6172257823725
 21
108.1678929490783
 31
0.0
  0
LINE
  5
28D
330
197
100
AcDbEntity
  8
DV4_0
 62
     7
370
    35
100
AcDbLine
 10
249.3946861079309
 20
108.1678929490783
 30
0.0
 11
252.5059559451517
 21
106.3716004710373
 31
0.0
  0
LINE
  5
28E
330
197
100
AcDbEntity
  8
DV4_0
 62
     7
370
    35
100
AcDbLine
 10
252.5059559451517
 20
109.9641854271193
 30
0.0
 11
249.3946861079309
 21
108.1678929490783
 31
0.0
  0
LINE
  5
28F
330
197
100
AcDbEntity
  8
DV4_0
 62
     7
370
    35
100
AcDbLine
 10
252.5059559451517
 20
106.0450018386662
 30
0.0
 11
249.1118433954563
 21
108.0045936328927
 31
0.0
  0
LINE
  5
290
330
197
100
AcDbEntity
  8
DV4_0
 62
     7
370
    35
100
AcDbLine
 10
255.9000684948471
 20
108.0045936328927
 30
0.0
 11
252.5059559451517
 21
106.0450018386662
 31
0.0
  0
LINE
  5
291
330
197
100
AcDbEntity
  8
DV4_0
 62
     7
370
    35
100
AcDbLine
 10
255.6172257823725
 20
108.1678929490783
 30
0.0
 11
255.9000684948471
 21
108.0045936328927
 31
0.0
  0
LINE
  5
292
330
197
100
AcDbEntity
  8
DV4_0
 62
     7
370
    35
100
AcDbLine
 10
252.5059559451517
 20
106.0450018386662
 30
0.0
 11
252.5059559451517
 21
106.3716004710373
 31
0.0
  0
LINE
  5
293
330
197
100
AcDbEntity
  8
DV4_0
 62
     7
370
    35
100
AcDbLine
 10
249.1118433954563
 20
108.0045936328927
 30
0.0
 11
249.3946861079309
 21
108.1678929490783
 31
0.0
  0
ENDBLK
  5
295
330
197
100
AcDbEntity
  8
0
100
AcDbBlockEnd
  0
BLOCK
  5
29F
330
296
100
AcDbEntity
  8
0
100
AcDbBlockBegin
  2
GDimGGroup
 70
     0
 10
0.0
 20
0.0
 30
0.0
  3
GDimGGroup
  1

  0
LWPOLYLINE
  5
298
330
296
100
AcDbEntity
  8
Default
 62
     7
370
    25
100
AcDbPolyline
 90
        4
 70
     0
 43
0.0
 10
183.0002499776641
 20
156.3461955814627
 10
184.0002499863564
 20
156.3461955814627
 10
183.5002499820102
 20
159.3461956075397
 10
183.0002499776641
 20
156.3461955814627
  0
LWPOLYLINE
  5
299
330
296
100
AcDbEntity
  8
Default
 62
     7
370
    25
100
AcDbPolyline
 90
        4
 70
     0
 43
0.0
 10
183.0002499776641
 20
102.3461969747213
 10
184.0002499863564
 20
102.3461969747213
 10
183.5002499820102
 20
99.34619694864422
 10
183.0002499776641
 20
102.3461969747213
  0
LINE
  5
29A
330
296
100
AcDbEntity
  8
Default
 62
     7
370
    25
100
AcDbLine
 10
200.4434607179273
 20
159.3461956075397
 30
0.0
 11
182.0002499689717
 21
159.3461956075397
 31
0.0
  0
LINE
  5
29B
330
296
100
AcDbEntity
  8
Default
 62
     7
370
    25
100
AcDbLine
 10
202.6434607179274
 20
99.3461956075397
 30
0.0
 11
182.0002499689717
 21
99.3461956075397
 31
0.0
  0
LINE
  5
29C
330
296
100
AcDbEntity
  8
Default
 62
     7
370
    25
100
AcDbLine
 10
183.5002499820102
 20
159.3461956075397
 30
0.0
 11
183.5002499820102
 21
99.3461969486442
 31
0.0
  0
TEXT
  5
29E
330
296
100
AcDbEntity
  8
Default
 62
     7
370
    25
100
AcDbText
 10
182.7502499820102
 20
124.6505441041789
 30
0.0
 40
3.0
  1
1500
 50
90.0
  7
SEACAD_Solid_Edge_ANSI
 11
179.7502499820102
 21
124.6505441041789
 31
0.0
100
AcDbText
 73
     3
  0
ENDBLK
  5
2A0
330
296
100
AcDbEntity
  8
0
100
AcDbBlockEnd
  0
BLOCK
  5
2A7
330
2A1
100
AcDbEntity
  8
0
100
AcDbBlockBegin
  2
GDimGGroup1
 70
     0
 10
0.0
 20
0.0
 30
0.0
  3
GDimGGroup1
  1

  0
LWPOLYLINE
  5
2A3
330
2A1
100
AcDbEntity
  8
Default
 62
     7
370
    25
100
AcDbPolyline
 90
        4
 70
     0
 43
0.0
 10
197.2434606918503
 20
112.8963280429758
 10
197.2434606918503
 20
111.8963280342834
 10
200.2434607179274
 20
112.3963280386296
 10
197.2434606918503
 20
112.8963280429758
  0
LWPOLYLINE
  5
2A4
330
2A1
100
AcDbEntity
  8
Default
 62
     7
370
    25
100
AcDbPolyline
 90
        4
 70
     0
 43
0.0
 10
208.0434607440044
 20
112.8963280429758
 10
208.0434607440044
 20
111.8963280342834
 10
205.0434607179274
 20
112.3963280386296
 10
208.0434607440044
 20
112.8963280429758
  0
LINE
  5
2A5
330
2A1
100
AcDbEntity
  8
Default
 62
     7
370
    25
100
AcDbLine
 10
194.2434606657733
 20
112.3963280386296
 30
0.0
 11
221.9539273114313
 21
112.3963280386296
 31
0.0
  0
TEXT
  5
2A6
330
2A1
100
AcDbEntity
  8
Default
 62
     7
370
    25
100
AcDbText
 10
213.8604500056614
 20
113.1463280386296
 30
0.0
 40
3.0
  1
120
  7
SEACAD_Solid_Edge_ANSI
 11
213.8604500056614
 21
116.1463280386296
 31
0.0
100
AcDbText
 73
     3
  0
ENDBLK
  5
2A8
330
2A1
100
AcDbEntity
  8
0
100
AcDbBlockEnd
  0
BLOCK
  5
2B1
330
2A9
100
AcDbEntity
  8
0
100
AcDbBlockBegin
  2
GDimGGroup2
 70
     0
 10
0.0
 20
0.0
 30
0.0
  3
GDimGGroup2
  1

  0
LWPOLYLINE
  5
2AB
330
2A9
100
AcDbEntity
  8
Default
 62
     7
370
    25
100
AcDbPolyline
 90
        4
 70
     0
 43
0.0
 10
137.988418885189
 20
152.3461955814627
 10
136.9884188764967
 20
152.3461955814627
 10
137.4884188808429
 20
155.3461956075397
 10
137.988418885189
 20
152.3461955814627
  0
LWPOLYLINE
  5
2AC
330
2A9
100
AcDbEntity
  8
Default
 62
     7
370
    25
100
AcDbPolyline
 90
        4
 70
     0
 43
0.0
 10
137.988418885189
 20
126.3461941136983
 10
136.9884188764967
 20
126.3461941136983
 10
137.4884188808429
 20
123.3461940876213
 10
137.988418885189
 20
126.3461941136983
  0
LINE
  5
2AD
330
2A9
100
AcDbEntity
  8
Default
 62
     7
370
    25
100
AcDbLine
 10
119.4436342157352
 20
155.3461956075397
 30
0.0
 11
138.9884188938814
 21
155.3461956075397
 31
0.0
  0
LINE
  5
2AE
330
2A9
100
AcDbEntity
  8
Default
 62
     7
370
    25
100
AcDbLine
 10
121.4436342157352
 20
123.3461956075397
 30
0.0
 11
138.9884188938814
 21
123.3461956075397
 31
0.0
  0
LINE
  5
2AF
330
2A9
100
AcDbEntity
  8
Default
 62
     7
370
    25
100
AcDbLine
 10
137.4884188808429
 20
155.3461956075397
 30
0.0
 11
137.4884188808429
 21
123.3461940876213
 31
0.0
  0
TEXT
  5
2B0
330
2A9
100
AcDbEntity
  8
Default
 62
     7
370
    25
100
AcDbText
 10
136.7384188808429
 20
135.8244557171457
 30
0.0
 40
3.0
  1
800
 50
90.0
  7
SEACAD_Solid_Edge_ANSI
 11
133.7384188808429
 21
135.8244557171457
 31
0.0
100
AcDbText
 73
     3
  0
ENDBLK
  5
2B2
330
2A9
100
AcDbEntity
  8
0
100
AcDbBlockEnd
  0
BLOCK
  5
2BB
330
2B3
100
AcDbEntity
  8
0
100
AcDbBlockBegin
  2
GDimGGroup3
 70
     0
 10
0.0
 20
0.0
 30
0.0
  3
GDimGGroup3
  1

  0
LWPOLYLINE
  5
2B5
330
2B3
100
AcDbEntity
  8
Default
 62
     7
370
    25
100
AcDbPolyline
 90
        4
 70
     0
 43
0.0
 10
28.44363424181221
 20
167.0417353843964
 10
28.44363424181221
 20
166.0417353757041
 10
25.44363421573517
 20
166.5417353800502
 10
28.44363424181221
 20
167.0417353843964
  0
LWPOLYLINE
  5
2B6
330
2B3
100
AcDbEntity
  8
Default
 62
     7
370
    25
100
AcDbPolyline
 90
        4
 70
     0
 43
0.0
 10
122.4436356797743
 20
167.0417353843964
 10
122.4436356797743
 20
166.0417353757041
 10
125.4436357058513
 20
166.5417353800502
 10
122.4436356797743
 20
167.0417353843964
  0
LINE
  5
2B7
330
2B3
100
AcDbEntity
  8
Default
 62
     7
370
    25
100
AcDbLine
 10
25.44363421573517
 20
159.3461956075397
 30
0.0
 11
25.44363421573517
 21
168.0417353930887
 31
0.0
  0
LINE
  5
2B8
330
2B3
100
AcDbEntity
  8
Default
 62
     7
370
    25
100
AcDbLine
 10
125.4436342157353
 20
159.3461956075397
 30
0.0
 11
125.4436342157353
 21
168.0417353930887
 31
0.0
  0
LINE
  5
2B9
330
2B3
100
AcDbEntity
  8
Default
 62
     7
370
    25
100
AcDbLine
 10
25.44363421573517
 20
166.5417353800502
 30
0.0
 11
125.4436357058513
 21
166.5417353800502
 31
0.0
  0
TEXT
  5
2BA
330
2B3
100
AcDbEntity
  8
Default
 62
     7
370
    25
100
AcDbText
 10
70.74798278688019
 20
167.2917353800502
 30
0.0
 40
3.0
  1
2500
  7
SEACAD_Solid_Edge_ANSI
 11
70.74798278688019
 21
170.2917353800502
 31
0.0
100
AcDbText
 73
     3
  0
ENDBLK
  5
2BC
330
2B3
100
AcDbEntity
  8
0
100
AcDbBlockEnd
  0
BLOCK
  5
2C5
330
2BD
100
AcDbEntity
  8
0
100
AcDbBlockBegin
  2
GDimGGroup4
 70
     0
 10
0.0
 20
0.0
 30
0.0
  3
GDimGGroup4
  1

  0
LWPOLYLINE
  5
2BF
330
2BD
100
AcDbEntity
  8
Default
 62
     7
370
    25
100
AcDbPolyline
 90
        4
 70
     0
 43
0.0
 10
120.0436341896582
 20
63.47757592553869
 10
120.0436341896582
 20
62.47757591684635
 10
123.0436342157353
 20
62.97757592119252
 10
120.0436341896582
 20
63.47757592553869
  0
LWPOLYLINE
  5
2C0
330
2BD
100
AcDbEntity
  8
Default
 62
     7
370
    25
100
AcDbPolyline
 90
        4
 70
     0
 43
0.0
 10
130.8436342418123
 20
63.47757592553869
 10
130.8436342418123
 20
62.47757591684635
 10
127.8436342157352
 20
62.97757592119252
 10
130.8436342418123
 20
63.47757592553869
  0
LINE
  5
2C1
330
2BD
100
AcDbEntity
  8
Default
 62
     7
370
    25
100
AcDbLine
 10
123.0436342157353
 20
55.62396928735052
 30
0.0
 11
123.0436342157353
 21
64.47757593423103
 31
0.0
  0
LINE
  5
2C2
330
2BD
100
AcDbEntity
  8
Default
 62
     7
370
    25
100
AcDbLine
 10
127.8436342157352
 20
53.22396905936276
 30
0.0
 11
127.8436342157352
 21
64.47757593423103
 31
0.0
  0
LINE
  5
2C3
330
2BD
100
AcDbEntity
  8
Default
 62
     7
370
    25
100
AcDbLine
 10
117.0436341635812
 20
62.97757592119252
 30
0.0
 11
141.4220596052635
 21
62.97757592119252
 31
0.0
  0
TEXT
  5
2C4
330
2BD
100
AcDbEntity
  8
Default
 62
     7
370
    25
100
AcDbText
 10
133.3285804368485
 20
63.72757592119252
 30
0.0
 40
3.0
  1
120
  7
SEACAD_Solid_Edge_ANSI
 11
133.3285804368485
 21
66.72757592119252
 31
0.0
100
AcDbText
 73
     3
  0
ENDBLK
  5
2C6
330
2BD
100
AcDbEntity
  8
0
100
AcDbBlockEnd
  0
BLOCK
  5
2D4
330
2CE
100
AcDbEntity
  8
0
100
AcDbBlockBegin
  2
SEANNOT_GROUP
 70
     0
 10
0.0
 20
0.0
 30
0.0
  3
SEANNOT_GROUP
  1

  0
TEXT
  5
2D0
330
2CE
100
AcDbEntity
  8
Predeterminado
 62
     7
370
     5
100
AcDbText
 10
291.0487110700109
 20
14.25425842492689
 30
0.0
 40
1.5
  1
V 
 50
90.0
  7
SEACAD_Solid_Edge_ANSI
 11
289.5487110700109
 21
14.25425842492689
 31
0.0
100
AcDbText
 73
     3
  0
TEXT
  5
2D1
330
2CE
100
AcDbEntity
  8
Predeterminado
 62
     7
370
     5
100
AcDbText
 10
291.0487110700109
 20
16.16675842492689
 30
0.0
 40
1.5
  1
01
 50
90.0
  7
SEACAD_Solid_Edge_ANSI
 11
289.5487110700109
 21
16.16675842492689
 31
0.0
100
AcDbText
 73
     3
  0
TEXT
  5
2D2
330
2CE
100
AcDbEntity
  8
Predeterminado
 62
     7
370
     5
100
AcDbText
 10
291.0487110700109
 20
18.22925842492689
 30
0.0
 40
1.5
  1
 
 50
90.0
  7
SEACAD_Solid_Edge_ANSI
 11
289.5487110700109
 21
18.22925842492689
 31
0.0
100
AcDbText
 73
     3
  0
TEXT
  5
2D3
330
2CE
100
AcDbEntity
  8
Predeterminado
 62
     7
370
     5
100
AcDbText
 10
291.0487110700109
 20
18.75425842492689
 30
0.0
 40
1.5
  1
20/04/2021
 50
90.0
  7
SEACAD_Solid_Edge_ANSI
 11
289.5487110700109
 21
18.75425842492689
 31
0.0
100
AcDbText
 73
     3
  0
ENDBLK
  5
2D5
330
2CE
100
AcDbEntity
  8
0
100
AcDbBlockEnd
  0
BLOCK
  5
2DB
330
2D8
100
AcDbEntity
  8
0
100
AcDbBlockBegin
  2
SEANNOT_GROUP1
 70
     0
 10
0.0
 20
0.0
 30
0.0
  3
SEANNOT_GROUP1
  1

  0
TEXT
  5
2DA
330
2D8
100
AcDbEntity
  8
Predeterminado
 62
     7
370
     5
100
AcDbText
 10
142.0461862083639
 20
190.8725958935368
 30
0.0
 40
6.0
  1
Reb
  7
SEACAD_Solid_Edge_ANSI
 11
142.0461862083639
 21
196.8725958935368
 31
0.0
100
AcDbText
 73
     3
  0
ENDBLK
  5
2DC
330
2D8
100
AcDbEntity
  8
0
100
AcDbBlockEnd
  0
BLOCK
  5
2E0
330
2DD
100
AcDbEntity
  8
0
100
AcDbBlockBegin
  2
SEANNOT_GROUP2
 70
     0
 10
0.0
 20
0.0
 30
0.0
  3
SEANNOT_GROUP2
  1

  0
TEXT
  5
2DF
330
2DD
100
AcDbEntity
  8
Predeterminado
 62
     7
370
     5
100
AcDbText
 10
151.3640128051875
 20
186.4313175013868
 30
0.0
 40
3.0
  1
VRV480
  7
SEACAD_Solid_Edge_ANSI
 11
151.3640128051875
 21
189.4313175013868
 31
0.0
100
AcDbText
 73
     3
  0
ENDBLK
  5
2E1
330
2DD
100
AcDbEntity
  8
0
100
AcDbBlockEnd
  0
ENDSEC
  0
SECTION
  2
ENTITIES
  0
INSERT
  5
70
330
1F
100
AcDbEntity
  8
Default
100
AcDbBlockReference
  2
SE
 10
0.0
 20
0.0
 30
0.0
  0
INSERT
  5
11B
330
1F
100
AcDbEntity
  8
Default
100
AcDbBlockReference
  2
SE1
 10
0.0
 20
0.0
 30
0.0
  0
INSERT
  5
17E
330
1F
100
AcDbEntity
  8
Default
100
AcDbBlockReference
  2
SE2
 10
0.0
 20
0.0
 30
0.0
  0
INSERT
  5
198
330
1F
100
AcDbEntity
  8
Default
100
AcDbBlockReference
  2
SE3
 10
0.0
 20
0.0
 30
0.0
  0
INSERT
  5
297
330
1F
100
AcDbEntity
  8
Default
100
AcDbBlockReference
  2
GDimGGroup
 10
0.0
 20
0.0
 30
0.0
  0
INSERT
  5
2A2
330
1F
100
AcDbEntity
  8
Default
100
AcDbBlockReference
  2
GDimGGroup1
 10
0.0
 20
0.0
 30
0.0
  0
INSERT
  5
2AA
330
1F
100
AcDbEntity
  8
Default
100
AcDbBlockReference
  2
GDimGGroup2
 10
0.0
 20
0.0
 30
0.0
  0
INSERT
  5
2B4
330
1F
100
AcDbEntity
  8
Default
100
AcDbBlockReference
  2
GDimGGroup3
 10
0.0
 20
0.0
 30
0.0
  0
INSERT
  5
2BE
330
1F
100
AcDbEntity
  8
Default
100
AcDbBlockReference
  2
GDimGGroup4
 10
0.0
 20
0.0
 30
0.0
  0
LINE
  5
2C8
330
1F
100
AcDbEntity
  8
Predeterminado
 62
     7
370
    35
100
AcDbLine
 10
11.28870202951687
 20
8.596433905172951
 30
0.0
 11
11.28870202951684
 21
201.9479713239704
 31
0.0
  0
LINE
  5
2C9
330
1F
100
AcDbEntity
  8
Predeterminado
 62
     7
370
    35
100
AcDbLine
 10
11.28870202951687
 20
8.596433905172951
 30
0.0
 11
288.2887020295169
 21
8.596433905172969
 31
0.0
  0
LINE
  5
2CA
330
1F
100
AcDbEntity
  8
Predeterminado
 62
     7
370
    35
100
AcDbLine
 10
191.2887020295167
 20
201.9479713239704
 30
0.0
 11
11.28870202951683
 21
201.9479713239704
 31
0.0
  0
LINE
  5
2CB
330
1F
100
AcDbEntity
  8
Predeterminado
 62
     7
370
    35
100
AcDbLine
 10
288.2887020295169
 20
201.9479713239704
 30
0.0
 11
11.28870202951691
 21
201.9479713239704
 31
0.0
  0
LINE
  5
2CC
330
1F
100
AcDbEntity
  8
Predeterminado
 62
     7
370
    35
100
AcDbLine
 10
11.28870202951684
 20
181.9479713239704
 30
0.0
 11
288.2887020295169
 21
181.9479713239704
 31
0.0
  0
LINE
  5
2CD
330
1F
100
AcDbEntity
  8
Predeterminado
 62
     7
370
    35
100
AcDbLine
 10
288.2887020295169
 20
201.9479713239704
 30
0.0
 11
288.2887020295169
 21
8.596433905173
 31
0.0
  0
INSERT
  5
2CF
330
1F
100
AcDbEntity
  8
Predeterminado
100
AcDbBlockReference
  2
SEANNOT_GROUP
 10
0.0
 20
0.0
 30
0.0
  0
LINE
  5
2D6
330
1F
100
AcDbEntity
  8
Predeterminado
 62
     7
370
    35
100
AcDbLine
 10
89.91055911737307
 20
185.9479713239704
 30
0.0
 11
89.91055911737307
 21
197.9479713239704
 31
0.0
  0
LINE
  5
2D7
330
1F
100
AcDbEntity
  8
Predeterminado
 62
     7
370
    35
100
AcDbLine
 10
199.9105591173731
 20
185.9479713239704
 30
0.0
 11
199.9105591173731
 21
197.9479713239704
 31
0.0
  0
INSERT
  5
2D9
330
1F
100
AcDbEntity
  8
Predeterminado
100
AcDbBlockReference
  2
SEANNOT_GROUP1
 10
0.0
 20
0.0
 30
0.0
  0
INSERT
  5
2DE
330
1F
100
AcDbEntity
  8
Predeterminado
100
AcDbBlockReference
  2
SEANNOT_GROUP2
 10
0.0
 20
0.0
 30
0.0
  0
MTEXT
  5
2E3
102
{ACAD_XDICTIONARY
360
32B
102
}
330
1F
100
AcDbEntity
  8
D
100
AcDbMText
 10
30.51445010131163
 20
199.4630352844171
 30
0.0
 40
6.500000000000001
 41
45.70995606879774
 71
     1
 72
     1
  1
{\C7;BENITO}\P{\fArial|b1|i0|c0|p34;\C7;–}{\C7;Urban}\P
 73
     1
 44
1.0
1001
ACAD
1000
ACAD_MTEXT_DEFINED_HEIGHT_BEGIN
1070
    46
1040
21.60001000000001
1000
ACAD_MTEXT_DEFINED_HEIGHT_END
  0
MTEXT
  5
2E4
330
1F
100
AcDbEntity
  8
Predeterminado
100
AcDbMText
 10
229.9135975724114
 20
195.9475188821595
 30
0.0
 40
3.0
 41
38.610011
 71
     1
 72
     1
  1
{\fSolid Edge ANSI|b0||i0||c0|p34;\C7;\H3.;\W1.;T +34 938 521 000\P}{\fSolid Edge ANSI|b0||i0||c0|p34;\C7;\H3.;\W1.;www.benito.com\P}
 73
     1
 44
1.0
1001
ACAD
1000
ACAD_MTEXT_DEFINED_HEIGHT_BEGIN
1070
    46
1040
10.80001
1000
ACAD_MTEXT_DEFINED_HEIGHT_END
  0
MTEXT
  5
2E5
330
1F
100
AcDbEntity
  8
Predeterminado
100
AcDbMText
 10
238.6065149365715
 20
7.329097306594801
 30
0.0
 40
2.0
 41
54.23001100000002
 71
     1
 72
     1
  1
{\fSolid Edge ANSI|b0||i0||c0|p34;\C7;\H2.;\W1.;BENITO –Urban –Light –Play –Covers}
 73
     1
 44
1.0
1001
ACAD
1000
ACAD_MTEXT_DEFINED_HEIGHT_BEGIN
1070
    46
1040
3.60001
1000
ACAD_MTEXT_DEFINED_HEIGHT_END
  0
ENDSEC
  0
SECTION
  2
OBJECTS
  0
DICTIONARY
  5
C
330
0
100
AcDbDictionary
281
     1
  3
ACAD_GROUP
350
D
  3
ACAD_LAYOUT
350
1A
  3
ACAD_MATERIAL
350
43
  3
ACAD_MLEADERSTYLE
350
6B
  3
ACAD_MLINESTYLE
350
17
  3
ACAD_PLOTSETTINGS
350
19
  3
ACAD_PLOTSTYLENAME
350
E
  3
ACAD_SCALELIST
350
47
  3
ACAD_TABLESTYLE
350
69
  3
ACAD_VISUALSTYLE
350
2A
  3
ACDB_RECOMPOSE_DATA
350
368
  3
AcDbVariableDictionary
350
2E6
  3
DWGPROPS
350
32A
  0
DICTIONARY
  5
32D
330
8
100
AcDbDictionary
280
     1
281
     1
  3
ACAD_XREC_ROUNDTRIP
360
32E
  0
DICTIONARY
  5
32B
330
2E3
100
AcDbDictionary
280
     1
281
     1
  3
ACAD_MTEXT_RT
360
32C
  0
DICTIONARY
  5
D
102
{ACAD_REACTORS
330
C
102
}
330
C
100
AcDbDictionary
281
     1
  0
DICTIONARY
  5
1A
102
{ACAD_REACTORS
330
C
102
}
330
C
100
AcDbDictionary
281
     1
  3
Layout1
350
1E
  3
Model
350
22
  0
DICTIONARY
  5
43
102
{ACAD_REACTORS
330
C
102
}
330
C
100
AcDbDictionary
281
     1
  3
ByBlock
350
45
  3
ByLayer
350
44
  3
Global
350
46
  0
DICTIONARY
  5
6B
102
{ACAD_REACTORS
330
C
102
}
330
C
100
AcDbDictionary
281
     1
  3
Standard
350
6C
  0
DICTIONARY
  5
17
102
{ACAD_REACTORS
330
C
102
}
330
C
100
AcDbDictionary
281
     1
  3
Standard
350
18
  0
DICTIONARY
  5
19
102
{ACAD_REACTORS
330
C
102
}
330
C
100
AcDbDictionary
281
     1
  0
ACDBDICTIONARYWDFLT
  5
E
102
{ACAD_REACTORS
330
C
102
}
330
C
100
AcDbDictionary
281
     1
  3
Normal
350
F
100
AcDbDictionaryWithDefault
340
F
  0
DICTIONARY
  5
47
102
{ACAD_REACTORS
330
C
102
}
330
C
100
AcDbDictionary
281
     1
  3
A0
350
48
  3
A1
350
49
  3
A2
350
4A
  3
A3
350
4B
  3
A4
350
4C
  3
A5
350
4D
  3
A6
350
4E
  3
A7
350
4F
  3
A8
350
50
  3
A9
350
51
  3
B0
350
52
  3
B1
350
53
  3
B2
350
54
  3
B3
350
55
  3
B4
350
56
  3
B5
350
57
  3
B6
350
58
  3
B7
350
59
  3
B8
350
5A
  3
B9
350
5B
  3
C0
350
5C
  3
C1
350
5D
  3
C2
350
5E
  3
C3
350
5F
  3
C4
350
60
  3
C5
350
61
  3
C6
350
62
  3
C7
350
63
  3
C8
350
64
  3
C9
350
65
  3
D0
350
66
  3
D1
350
67
  3
D2
350
68
  0
DICTIONARY
  5
69
102
{ACAD_REACTORS
330
C
102
}
330
C
100
AcDbDictionary
281
     1
  3
Standard
350
6A
  0
DICTIONARY
  5
2A
102
{ACAD_REACTORS
330
C
102
}
330
C
100
AcDbDictionary
281
     1
  3
2dWireframe
350
2F
  3
Basic
350
32
  3
Brighten
350
36
  3
ColorChange
350
3A
  3
Conceptual
350
34
  3
Dim
350
35
  3
EdgeColorOff
350
3D
  3
Facepattern
350
39
  3
Flat
350
2B
  3
FlatWithEdges
350
2C
  3
Gouraud
350
2D
  3
GouraudWithEdges
350
2E
  3
Hidden
350
31
  3
JitterOff
350
3B
  3
Linepattern
350
38
  3
OverhangOff
350
3C
  3
Realistic
350
33
  3
Shaded
350
42
  3
Shaded with edges
350
41
  3
Shades of Gray
350
3E
  3
Sketchy
350
3F
  3
Thicken
350
37
  3
Wireframe
350
30
  3
X-Ray
350
40
  0
XRECORD
  5
368
102
{ACAD_REACTORS
330
C
102
}
330
C
100
AcDbXrecord
280
     1
 90
        1
330
2E3
  0
DICTIONARY
  5
2E6
102
{ACAD_REACTORS
330
C
102
}
330
C
100
AcDbDictionary
281
     1
  3
CANNOSCALE
350
2E7
  3
CMLEADERSTYLE
350
320
  3
CTABLESTYLE
350
31F
  3
DIMASSOC
350
328
  3
HIDETEXT
350
329
  3
MSLTSCALE
350
32F
  3
PSOLHEIGHT
350
327
  3
PSOLWIDTH
350
326
  3
SECTIONTHICKNESSINC
350
323
  3
XCLIPFRAME
350
2E8
  0
XRECORD
  5
32A
102
{ACAD_REACTORS
330
C
102
}
330
C
100
AcDbXrecord
280
     1
  1
DWGPROPS COOKIE
  2

  3

  4

  6

  7

  8
acae2
  9

300
=
301
=
302
=
303
=
304
=
305
=
306
=
307
=
308
=
309
=
 40
0.0
 41
2459389.486063102
 42
2460427.51375434
  1

 90
        0
  0
XRECORD
  5
32E
102
{ACAD_REACTORS
330
32D
102
}
330
32D
100
AcDbXrecord
280
     1
102
VTR_0.000_0.000_1.000_1.000_VISUALSTYLE
340
2F
102
VTR_0.000_0.000_1.000_1.000_GRIDDISPLAY
 70
     3
102
VTR_0.000_0.000_1.000_1.000_GRIDMAJOR
 70
     5
102
VTR_0.000_0.000_1.000_1.000_DEFAULTLIGHTING
280
     1
102
VTR_0.000_0.000_1.000_1.000_DEFAULTLIGHTINGTYPE
 70
     1
102
VTR_0.000_0.000_1.000_1.000_BRIGHTNESS
141
0.0
102
VTR_0.000_0.000_1.000_1.000_CONTRAST
142
0.0
  0
XRECORD
  5
32C
102
{ACAD_REACTORS
330
32B
102
}
330
32B
100
AcDbXrecord
280
     1
 40
129076.0
  1
{\fSolid Edge ANSI|b1||i0||c0|p34;\C7;\H6.5;\W1.;\pxsa0.9538461538;BENITO\P}{\fSolid Edge ANSI|b1||i0||c0|p34;\C7;\H6.5;\W1.;\pxse1.;–Urban\P}
  0
LAYOUT
  5
1E
102
{ACAD_REACTORS
330
1A
102
}
330
1A
100
AcDbPlotSettings
  1

  2
none_device
  4

  6

 40
0.0
 41
0.0
 42
0.0
 43
0.0
 44
0.0
 45
0.0
 46
0.0
 47
0.0
 48
0.0
 49
0.0
140
0.0
141
0.0
142
1.0
143
1.0
 70
   688
 72
     1
 73
     0
 74
     5
  7

 75
    16
147
1.0
148
0.0
149
0.0
100
AcDbLayout
  1
Layout1
 70
     1
 71
     1
 10
0.0
 20
0.0
 11
297.0
 21
210.0
 12
0.0
 22
0.0
 32
0.0
 14
0.0
 24
0.0
 34
0.0
 15
297.0
 25
210.0
 35
0.0
146
0.0
 13
0.0
 23
0.0
 33
0.0
 16
1.0
 26
0.0
 36
0.0
 17
0.0
 27
1.0
 37
0.0
 76
     0
330
1B
  0
LAYOUT
  5
22
102
{ACAD_REACTORS
330
1A
102
}
330
1A
100
AcDbPlotSettings
  1

  2
none_device
  4
Letter_(8.50_x_11.00_Inches)
  6

 40
6.35
 41
6.35
 42
6.35000508
 43
6.35000508
 44
215.9
 45
279.4
 46
0.0
 47
0.0
 48
0.0
 49
0.0
140
0.0
141
0.0
142
1.0
143
1.0
 70
  1712
 72
     1
 73
     0
 74
     0
  7

 75
     0
147
1.0
148
0.0
149
0.0
100
AcDbLayout
  1
Model
 70
     1
 71
     0
 10
0.0
 20
0.0
 11
297.0
 21
210.0
 12
0.0
 22
0.0
 32
0.0
 14
0.0
 24
0.0
 34
0.0
 15
297.0
 25
210.0
 35
0.0
146
0.0
 13
0.0
 23
0.0
 33
0.0
 16
1.0
 26
0.0
 36
0.0
 17
0.0
 27
1.0
 37
0.0
 76
     0
330
1F
331
29
  0
MATERIAL
  5
45
102
{ACAD_REACTORS
330
43
102
}
102
{ACAD_XDICTIONARY
360
362
102
}
330
43
100
AcDbMaterial
  1
ByBlock
  0
MATERIAL
  5
44
102
{ACAD_REACTORS
330
43
102
}
102
{ACAD_XDICTIONARY
360
360
102
}
330
43
100
AcDbMaterial
  1
ByLayer
  0
MATERIAL
  5
46
102
{ACAD_REACTORS
330
43
102
}
102
{ACAD_XDICTIONARY
360
364
102
}
330
43
100
AcDbMaterial
  1
Global
  0
MLEADERSTYLE
  5
6C
102
{ACAD_REACTORS
330
6B
102
}
102
{ACAD_XDICTIONARY
360
366
102
}
330
6B
100
AcDbMLeaderStyle
170
     2
171
     1
172
     0
 90
        2
 40
0.0
 41
0.0
173
     1
 91
-1056964608
340
14
 92
       -2
290
     1
 42
2.0
291
     1
 43
8.0
  3
Standard
341
0
 44
4.0
300

342
11
174
     1
178
     6
175
     1
176
     0
 93
-1056964608
 45
4.0
292
     0
297
     0
 46
4.0
343
0
 94
-1056964608
 47
1.0
 49
1.0
140
1.0
293
     1
141
0.0
294
     1
177
     0
142
1.0
295
     0
296
     0
143
3.75
1001
ACAD_MLEADERVER
1070
     2
  0
MLINESTYLE
  5
18
102
{ACAD_REACTORS
330
17
102
}
330
17
100
AcDbMlineStyle
  2
Standard
 70
     0
  3

 62
   256
 51
90.0
 52
90.0
 71
     2
 49
0.5
 62
   256
  6
BYLAYER
 49
-0.5
 62
   256
  6
BYLAYER
  0
ACDBPLACEHOLDER
  5
F
102
{ACAD_REACTORS
330
E
102
}
330
E
  0
SCALE
  5
48
102
{ACAD_REACTORS
330
47
102
}
330
47
100
AcDbScale
 70
     0
300
1:1
140
1.0
141
1.0
290
     1
  0
SCALE
  5
49
102
{ACAD_REACTORS
330
47
102
}
330
47
100
AcDbScale
 70
     0
300
1:2
140
1.0
141
2.0
290
     0
  0
SCALE
  5
4A
102
{ACAD_REACTORS
330
47
102
}
330
47
100
AcDbScale
 70
     0
300
1:4
140
1.0
141
4.0
290
     0
  0
SCALE
  5
4B
102
{ACAD_REACTORS
330
47
102
}
330
47
100
AcDbScale
 70
     0
300
1:5
140
1.0
141
5.0
290
     0
  0
SCALE
  5
4C
102
{ACAD_REACTORS
330
47
102
}
330
47
100
AcDbScale
 70
     0
300
1:8
140
1.0
141
8.0
290
     0
  0
SCALE
  5
4D
102
{ACAD_REACTORS
330
47
102
}
330
47
100
AcDbScale
 70
     0
300
1:10
140
1.0
141
10.0
290
     0
  0
SCALE
  5
4E
102
{ACAD_REACTORS
330
47
102
}
330
47
100
AcDbScale
 70
     0
300
1:16
140
1.0
141
16.0
290
     0
  0
SCALE
  5
4F
102
{ACAD_REACTORS
330
47
102
}
330
47
100
AcDbScale
 70
     0
300
1:20
140
1.0
141
20.0
290
     0
  0
SCALE
  5
50
102
{ACAD_REACTORS
330
47
102
}
330
47
100
AcDbScale
 70
     0
300
1:30
140
1.0
141
30.0
290
     0
  0
SCALE
  5
51
102
{ACAD_REACTORS
330
47
102
}
330
47
100
AcDbScale
 70
     0
300
1:40
140
1.0
141
40.0
290
     0
  0
SCALE
  5
52
102
{ACAD_REACTORS
330
47
102
}
330
47
100
AcDbScale
 70
     0
300
1:50
140
1.0
141
50.0
290
     0
  0
SCALE
  5
53
102
{ACAD_REACTORS
330
47
102
}
330
47
100
AcDbScale
 70
     0
300
1:100
140
1.0
141
100.0
290
     0
  0
SCALE
  5
54
102
{ACAD_REACTORS
330
47
102
}
330
47
100
AcDbScale
 70
     0
300
2:1
140
2.0
141
1.0
290
     0
  0
SCALE
  5
55
102
{ACAD_REACTORS
330
47
102
}
330
47
100
AcDbScale
 70
     0
300
4:1
140
4.0
141
1.0
290
     0
  0
SCALE
  5
56
102
{ACAD_REACTORS
330
47
102
}
330
47
100
AcDbScale
 70
     0
300
8:1
140
8.0
141
1.0
290
     0
  0
SCALE
  5
57
102
{ACAD_REACTORS
330
47
102
}
330
47
100
AcDbScale
 70
     0
300
10:1
140
10.0
141
1.0
290
     0
  0
SCALE
  5
58
102
{ACAD_REACTORS
330
47
102
}
330
47
100
AcDbScale
 70
     0
300
100:1
140
100.0
141
1.0
290
     0
  0
SCALE
  5
59
102
{ACAD_REACTORS
330
47
102
}
330
47
100
AcDbScale
 70
     0
300
1/128" = 1'-0"
140
0.0078125
141
12.0
290
     0
  0
SCALE
  5
5A
102
{ACAD_REACTORS
330
47
102
}
330
47
100
AcDbScale
 70
     0
300
1/64" = 1'-0"
140
0.015625
141
12.0
290
     0
  0
SCALE
  5
5B
102
{ACAD_REACTORS
330
47
102
}
330
47
100
AcDbScale
 70
     0
300
1/32" = 1'-0"
140
0.03125
141
12.0
290
     0
  0
SCALE
  5
5C
102
{ACAD_REACTORS
330
47
102
}
330
47
100
AcDbScale
 70
     0
300
1/16" = 1'-0"
140
0.0625
141
12.0
290
     0
  0
SCALE
  5
5D
102
{ACAD_REACTORS
330
47
102
}
330
47
100
AcDbScale
 70
     0
300
3/32" = 1'-0"
140
0.09375
141
12.0
290
     0
  0
SCALE
  5
5E
102
{ACAD_REACTORS
330
47
102
}
330
47
100
AcDbScale
 70
     0
300
1/8" = 1'-0"
140
0.125
141
12.0
290
     0
  0
SCALE
  5
5F
102
{ACAD_REACTORS
330
47
102
}
330
47
100
AcDbScale
 70
     0
300
3/16" = 1'-0"
140
0.1875
141
12.0
290
     0
  0
SCALE
  5
60
102
{ACAD_REACTORS
330
47
102
}
330
47
100
AcDbScale
 70
     0
300
1/4" = 1'-0"
140
0.25
141
12.0
290
     0
  0
SCALE
  5
61
102
{ACAD_REACTORS
330
47
102
}
330
47
100
AcDbScale
 70
     0
300
3/8" = 1'-0"
140
0.375
141
12.0
290
     0
  0
SCALE
  5
62
102
{ACAD_REACTORS
330
47
102
}
330
47
100
AcDbScale
 70
     0
300
1/2" = 1'-0"
140
0.5
141
12.0
290
     0
  0
SCALE
  5
63
102
{ACAD_REACTORS
330
47
102
}
330
47
100
AcDbScale
 70
     0
300
3/4" = 1'-0"
140
0.75
141
12.0
290
     0
  0
SCALE
  5
64
102
{ACAD_REACTORS
330
47
102
}
330
47
100
AcDbScale
 70
     0
300
1" = 1'-0"
140
1.0
141
12.0
290
     0
  0
SCALE
  5
65
102
{ACAD_REACTORS
330
47
102
}
330
47
100
AcDbScale
 70
     0
300
1-1/2" = 1'-0"
140
1.5
141
12.0
290
     0
  0
SCALE
  5
66
102
{ACAD_REACTORS
330
47
102
}
330
47
100
AcDbScale
 70
     0
300
3" = 1'-0"
140
3.0
141
12.0
290
     0
  0
SCALE
  5
67
102
{ACAD_REACTORS
330
47
102
}
330
47
100
AcDbScale
 70
     0
300
6" = 1'-0"
140
6.0
141
12.0
290
     0
  0
SCALE
  5
68
102
{ACAD_REACTORS
330
47
102
}
330
47
100
AcDbScale
 70
     0
300
1'-0" = 1'-0"
140
12.0
141
12.0
290
     0
  0
TABLESTYLE
  5
6A
102
{ACAD_REACTORS
330
69
102
}
330
69
100
AcDbTableStyle
  3
Standard
 70
     0
 71
     0
 40
0.06
 41
0.06
280
     0
281
     0
  7
Standard
140
4.5
170
     2
 62
     0
 63
   257
283
     0
274
    -2
284
     1
 64
     0
275
    -2
285
     1
 65
     0
276
    -2
286
     1
 66
     0
277
    -2
287
     1
 67
     0
278
    -2
288
     1
 68
     0
279
    -2
289
     1
 69
     0
  7
Standard
140
6.0
170
     5
 62
     0
 63
   257
283
     0
274
    -2
284
     1
 64
     0
275
    -2
285
     1
 65
     0
276
    -2
286
     1
 66
     0
277
    -2
287
     1
 67
     0
278
    -2
288
     1
 68
     0
279
    -2
289
     1
 69
     0
  7
Standard
140
4.5
170
     5
 62
     0
 63
   257
283
     0
274
    -2
284
     1
 64
     0
275
    -2
285
     1
 65
     0
276
    -2
286
     1
 66
     0
277
    -2
287
     1
 67
     0
278
    -2
288
     1
 68
     0
279
    -2
289
     1
 69
     0
  0
VISUALSTYLE
  5
2F
102
{ACAD_REACTORS
330
2A
102
}
102
{ACAD_XDICTIONARY
360
338
102
}
330
2A
100
AcDbVisualStyle
  2
2dWireframe
 70
     4
 71
     0
 72
     2
 73
     0
 90
        0
 40
0.6
 41
30.0
 62
     5
 63
     7
 74
     1
 91
        4
 64
     7
 65
   257
 75
     1
175
     1
 42
1.0
 92
        0
 66
   257
 43
1.0
 76
     1
 77
     6
 78
     2
 67
     7
 79
     5
170
     0
171
     0
290
     0
174
     0
 93
        1
 44
0.0
173
     0
291
     0
 45
0.0
1001
ACAD
1000
AcDbSavedByObjectVersion
1070
     0
  0
VISUALSTYLE
  5
32
102
{ACAD_REACTORS
330
2A
102
}
102
{ACAD_XDICTIONARY
360
33E
102
}
330
2A
100
AcDbVisualStyle
  2
Basic
 70
     7
 71
     1
 72
     0
 73
     1
 90
        0
 40
0.6
 41
30.0
 62
     5
 63
     7
 74
     0
 91
        4
 64
     7
 65
   257
 75
     1
175
     1
 42
1.0
 92
        8
 66
     7
 43
1.0
 76
     1
 77
     6
 78
     2
 67
     7
 79
     5
170
     0
171
     0
290
     0
174
     0
 93
        1
 44
0.0
173
     0
291
     1
 45
0.0
1001
ACAD
1000
AcDbSavedByObjectVersion
1070
     0
  0
VISUALSTYLE
  5
36
102
{ACAD_REACTORS
330
2A
102
}
102
{ACAD_XDICTIONARY
360
346
102
}
330
2A
100
AcDbVisualStyle
  2
Brighten
 70
    12
 71
     2
 72
     2
 73
     0
 90
        0
 40
0.6
 41
30.0
 62
     5
 63
     7
 74
     1
 91
        4
 64
     7
 65
   257
 75
     1
175
     1
 42
1.0
 92
        8
 66
     7
 43
1.0
 76
     1
 77
     6
 78
     2
 67
     7
 79
     5
170
     0
171
     0
290
     0
174
     0
 93
        1
 44
50.0
173
     0
291
     1
 45
0.0
1001
ACAD
1000
AcDbSavedByObjectVersion
1070
     0
  0
VISUALSTYLE
  5
3A
102
{ACAD_REACTORS
330
2A
102
}
102
{ACAD_XDICTIONARY
360
34E
102
}
330
2A
100
AcDbVisualStyle
  2
ColorChange
 70
    16
 71
     2
 72
     2
 73
     3
 90
        0
 40
0.6
 41
30.0
 62
     5
 63
     8
 74
     1
 91
        4
 64
     7
 65
   257
 75
     1
175
     1
 42
1.0
 92
        8
 66
     8
 43
1.0
 76
     1
 77
     6
 78
     2
 67
     7
 79
     5
170
     0
171
     0
290
     0
174
     0
 93
        1
 44
0.0
173
     0
291
     1
 45
0.0
1001
ACAD
1000
AcDbSavedByObjectVersion
1070
     0
  0
VISUALSTYLE
  5
34
102
{ACAD_REACTORS
330
2A
102
}
102
{ACAD_XDICTIONARY
360
342
102
}
330
2A
100
AcDbVisualStyle
  2
Conceptual
 70
     9
 71
     3
 72
     2
 73
     0
 90
        0
 40
0.6
 41
30.0
 62
     5
 63
     7
 74
     2
 91
        2
 64
     7
 65
   257
 75
     1
175
     1
 42
179.0
 92
        8
 66
     7
 43
1.0
 76
     1
 77
     6
 78
     2
 67
     7
 79
     3
170
     0
171
     0
290
     0
174
     0
 93
        1
 44
0.0
173
     0
291
     0
 45
0.0
1001
ACAD
1000
AcDbSavedByObjectVersion
1070
     0
  0
VISUALSTYLE
  5
35
102
{ACAD_REACTORS
330
2A
102
}
102
{ACAD_XDICTIONARY
360
344
102
}
330
2A
100
AcDbVisualStyle
  2
Dim
 70
    11
 71
     2
 72
     2
 73
     0
 90
        0
 40
0.6
 41
30.0
 62
     5
 63
     7
 74
     1
 91
        4
 64
     7
 65
   257
 75
     1
175
     1
 42
1.0
 92
        8
 66
     7
 43
1.0
 76
     1
 77
     6
 78
     2
 67
     7
 79
     5
170
     0
171
     0
290
     0
174
     0
 93
        1
 44
-50.0
173
     0
291
     1
 45
0.0
1001
ACAD
1000
AcDbSavedByObjectVersion
1070
     0
  0
VISUALSTYLE
  5
3D
102
{ACAD_REACTORS
330
2A
102
}
102
{ACAD_XDICTIONARY
360
354
102
}
330
2A
100
AcDbVisualStyle
  2
EdgeColorOff
 70
    22
 71
     2
 72
     2
 73
     0
 90
        0
 40
0.6
 41
30.0
 62
     5
 63
     7
 74
     1
 91
        4
 64
     7
 65
   257
 75
     1
175
     1
 42
1.0
 92
        8
 66
     7
 43
1.0
 76
     1
 77
     6
 78
     2
 67
     7
 79
     5
170
     0
171
     0
290
     0
174
     0
 93
        1
 44
0.0
173
     0
291
     1
 45
0.0
1001
ACAD
1000
AcDbSavedByObjectVersion
1070
     0
  0
VISUALSTYLE
  5
39
102
{ACAD_REACTORS
330
2A
102
}
102
{ACAD_XDICTIONARY
360
34C
102
}
330
2A
100
AcDbVisualStyle
  2
Facepattern
 70
    15
 71
     2
 72
     2
 73
     0
 90
        0
 40
0.6
 41
30.0
 62
     5
 63
     7
 74
     1
 91
        4
 64
     7
 65
   257
 75
     1
175
     1
 42
1.0
 92
        8
 66
     7
 43
1.0
 76
     1
 77
     6
 78
     2
 67
     7
 79
     5
170
     0
171
     0
290
     0
174
     0
 93
        1
 44
0.0
173
     0
291
     1
 45
0.0
1001
ACAD
1000
AcDbSavedByObjectVersion
1070
     0
  0
VISUALSTYLE
  5
2B
102
{ACAD_REACTORS
330
2A
102
}
102
{ACAD_XDICTIONARY
360
330
102
}
330
2A
100
AcDbVisualStyle
  2
Flat
 70
     0
 71
     2
 72
     1
 73
     1
 90
        2
 40
0.6
 41
30.0
 62
     5
 63
     7
 74
     0
 91
        0
 64
     7
 65
   257
 75
     1
175
     1
 42
1.0
 92
        8
 66
     7
 43
1.0
 76
     1
 77
     6
 78
     2
 67
     7
 79
     5
170
     0
171
     0
290
     0
174
     0
 93
       13
 44
0.0
173
     0
291
     1
 45
0.0
1001
ACAD
1000
AcDbSavedByObjectVersion
1070
     0
  0
VISUALSTYLE
  5
2C
102
{ACAD_REACTORS
330
2A
102
}
102
{ACAD_XDICTIONARY
360
332
102
}
330
2A
100
AcDbVisualStyle
  2
FlatWithEdges
 70
     1
 71
     2
 72
     1
 73
     1
 90
        2
 40
0.6
 41
30.0
 62
     5
 63
     7
 74
     1
 91
        0
 64
     7
 65
   257
 75
     1
175
     1
 42
1.0
 92
        0
 66
   257
 43
1.0
 76
     1
 77
     6
 78
     2
 67
     7
 79
     5
170
     0
171
     0
290
     0
174
     0
 93
       13
 44
0.0
173
     0
291
     1
 45
0.0
1001
ACAD
1000
AcDbSavedByObjectVersion
1070
     0
  0
VISUALSTYLE
  5
2D
102
{ACAD_REACTORS
330
2A
102
}
102
{ACAD_XDICTIONARY
360
334
102
}
330
2A
100
AcDbVisualStyle
  2
Gouraud
 70
     2
 71
     2
 72
     2
 73
     1
 90
        2
 40
0.6
 41
30.0
 62
     5
 63
     7
 74
     0
 91
        0
 64
     7
 65
   257
 75
     1
175
     1
 42
1.0
 92
        0
 66
     7
 43
1.0
 76
     1
 77
     6
 78
     2
 67
     7
 79
     5
170
     0
171
     0
290
     0
174
     0
 93
       13
 44
0.0
173
     0
291
     1
 45
0.0
1001
ACAD
1000
AcDbSavedByObjectVersion
1070
     0
  0
VISUALSTYLE
  5
2E
102
{ACAD_REACTORS
330
2A
102
}
102
{ACAD_XDICTIONARY
360
336
102
}
330
2A
100
AcDbVisualStyle
  2
GouraudWithEdges
 70
     3
 71
     2
 72
     2
 73
     1
 90
        2
 40
0.6
 41
30.0
 62
     5
 63
     7
 74
     1
 91
        0
 64
     7
 65
   257
 75
     1
175
     1
 42
1.0
 92
        0
 66
   257
 43
1.0
 76
     1
 77
     6
 78
     2
 67
     7
 79
     5
170
     0
171
     0
290
     0
174
     0
 93
       13
 44
0.0
173
     0
291
     1
 45
0.0
1001
ACAD
1000
AcDbSavedByObjectVersion
1070
     0
  0
VISUALSTYLE
  5
31
102
{ACAD_REACTORS
330
2A
102
}
102
{ACAD_XDICTIONARY
360
33C
102
}
330
2A
100
AcDbVisualStyle
  2
Hidden
 70
     6
 71
     1
 72
     2
 73
     2
 90
        0
 40
0.6
 41
30.0
 62
     5
 63
     7
 74
     2
 91
        2
 64
     7
 65
   257
 75
     2
175
     1
 42
40.0
 92
        0
 66
   257
 43
1.0
 76
     1
 77
     6
 78
     2
 67
     7
 79
     3
170
     0
171
     0
290
     0
174
     0
 93
        1
 44
0.0
173
     0
291
     0
 45
0.0
1001
ACAD
1000
AcDbSavedByObjectVersion
1070
     0
  0
VISUALSTYLE
  5
3B
102
{ACAD_REACTORS
330
2A
102
}
102
{ACAD_XDICTIONARY
360
350
102
}
330
2A
100
AcDbVisualStyle
  2
JitterOff
 70
    20
 71
     2
 72
     2
 73
     0
 90
        0
 40
0.6
 41
30.0
 62
     5
 63
     7
 74
     1
 91
        4
 64
     7
 65
   257
 75
     1
175
     1
 42
1.0
 92
       10
 66
     7
 43
1.0
 76
     1
 77
     6
 78
     2
 67
     7
 79
     5
170
     0
171
     0
290
     0
174
     0
 93
        1
 44
0.0
173
     0
291
     1
 45
0.0
1001
ACAD
1000
AcDbSavedByObjectVersion
1070
     0
  0
VISUALSTYLE
  5
38
102
{ACAD_REACTORS
330
2A
102
}
102
{ACAD_XDICTIONARY
360
34A
102
}
330
2A
100
AcDbVisualStyle
  2
Linepattern
 70
    14
 71
     2
 72
     2
 73
     0
 90
        0
 40
0.6
 41
30.0
 62
     5
 63
     7
 74
     1
 91
        4
 64
     7
 65
   257
 75
     7
175
     7
 42
1.0
 92
        8
 66
     7
 43
1.0
 76
     1
 77
     6
 78
     2
 67
     7
 79
     5
170
     0
171
     0
290
     0
174
     0
 93
        1
 44
0.0
173
     0
291
     1
 45
0.0
1001
ACAD
1000
AcDbSavedByObjectVersion
1070
     0
  0
VISUALSTYLE
  5
3C
102
{ACAD_REACTORS
330
2A
102
}
102
{ACAD_XDICTIONARY
360
352
102
}
330
2A
100
AcDbVisualStyle
  2
OverhangOff
 70
    21
 71
     2
 72
     2
 73
     0
 90
        0
 40
0.6
 41
30.0
 62
     5
 63
     7
 74
     1
 91
        4
 64
     7
 65
   257
 75
     1
175
     1
 42
1.0
 92
        9
 66
     7
 43
1.0
 76
     1
 77
     6
 78
     2
 67
     7
 79
     5
170
     0
171
     0
290
     0
174
     0
 93
        1
 44
0.0
173
     0
291
     1
 45
0.0
1001
ACAD
1000
AcDbSavedByObjectVersion
1070
     0
  0
VISUALSTYLE
  5
33
102
{ACAD_REACTORS
330
2A
102
}
102
{ACAD_XDICTIONARY
360
340
102
}
330
2A
100
AcDbVisualStyle
  2
Realistic
 70
     8
 71
     2
 72
     3
 73
     0
 90
        2
 40
0.6
 41
30.0
 62
     5
 63
     7
 74
     0
 91
        0
 64
     7
 65
   257
 75
     1
175
     1
 42
1.0
 92
        8
 66
   257
 43
1.0
 76
     1
 77
     6
 78
     2
 67
     7
 79
     3
170
     0
171
     0
290
     0
174
     0
 93
       13
 44
0.0
173
     0
291
     0
 45
0.0
1001
ACAD
1000
AcDbSavedByObjectVersion
1070
     0
  0
VISUALSTYLE
  5
42
102
{ACAD_REACTORS
330
2A
102
}
102
{ACAD_XDICTIONARY
360
35E
102
}
330
2A
100
AcDbVisualStyle
  2
Shaded
 70
    27
 71
     2
 72
     2
 73
     1
 90
        2
 40
0.6
 41
30.0
 62
     5
 63
     7
 74
     0
 91
        4
 64
     7
 65
   257
 75
     1
175
     1
 42
1.0
 92
        8
 66
   257
 43
1.0
 76
     1
 77
     6
 78
     2
 67
     8
 79
     3
170
     0
171
     0
290
     0
174
     0
 93
        5
 44
0.0
173
     0
291
     0
 45
0.0
1001
ACAD
1000
AcDbSavedByObjectVersion
1070
     0
  0
VISUALSTYLE
  5
41
102
{ACAD_REACTORS
330
2A
102
}
102
{ACAD_XDICTIONARY
360
35C
102
}
330
2A
100
AcDbVisualStyle
  2
Shaded with edges
 70
    26
 71
     2
 72
     2
 73
     1
 90
        2
 40
0.6
 41
30.0
 62
     5
 63
     7
 74
     1
 91
       10
 64
     7
 65
   257
 75
     2
175
     1
 42
1.0
 92
        8
 66
   257
 43
1.0
 76
     1
 77
     6
 78
     2
 67
     7
 79
     3
170
     0
171
     0
290
     0
174
     0
 93
        5
 44
0.0
173
     0
291
     0
 45
0.0
1001
ACAD
1000
AcDbSavedByObjectVersion
1070
     0
  0
VISUALSTYLE
  5
3E
102
{ACAD_REACTORS
330
2A
102
}
102
{ACAD_XDICTIONARY
360
356
102
}
330
2A
100
AcDbVisualStyle
  2
Shades of Gray
 70
    23
 71
     2
 72
     2
 73
     3
 90
        0
 40
0.6
 41
30.0
 62
     5
 63
     7
 74
     2
 91
        2
 64
     7
 65
     7
 75
     1
175
     1
 42
40.0
 92
        8
 66
     7
 43
1.0
 76
     1
 77
     6
 78
     2
 67
     7
 79
     3
170
     0
171
     0
290
     0
174
     0
 93
        1
 44
0.0
173
     0
291
     0
 45
0.0
1001
ACAD
1000
AcDbSavedByObjectVersion
1070
     0
  0
VISUALSTYLE
  5
3F
102
{ACAD_REACTORS
330
2A
102
}
102
{ACAD_XDICTIONARY
360
358
102
}
330
2A
100
AcDbVisualStyle
  2
Sketchy
 70
    24
 71
     1
 72
     2
 73
     2
 90
        0
 40
0.6
 41
30.0
 62
     5
 63
     7
 74
     2
 91
        2
 64
     7
 65
     7
 75
     1
175
     1
 42
40.0
 92
       11
 66
     7
 43
1.0
 76
     1
 77
     6
 78
     2
 67
     7
 79
     6
170
     0
171
     0
290
     0
174
     0
 93
        1
 44
0.0
173
     0
291
     0
 45
0.0
1001
ACAD
1000
AcDbSavedByObjectVersion
1070
     0
  0
VISUALSTYLE
  5
37
102
{ACAD_REACTORS
330
2A
102
}
102
{ACAD_XDICTIONARY
360
348
102
}
330
2A
100
AcDbVisualStyle
  2
Thicken
 70
    13
 71
     2
 72
     2
 73
     0
 90
        0
 40
0.6
 41
30.0
 62
     5
 63
     7
 74
     1
 91
        4
 64
     7
 65
   257
 75
     1
175
     1
 42
1.0
 92
       12
 66
     7
 43
1.0
 76
     1
 77
     6
 78
     2
 67
     7
 79
     5
170
     0
171
     0
290
     0
174
     0
 93
        1
 44
0.0
173
     0
291
     1
 45
0.0
1001
ACAD
1000
AcDbSavedByObjectVersion
1070
     0
  0
VISUALSTYLE
  5
30
102
{ACAD_REACTORS
330
2A
102
}
102
{ACAD_XDICTIONARY
360
33A
102
}
330
2A
100
AcDbVisualStyle
  2
Wireframe
 70
     5
 71
     0
 72
     2
 73
     0
 90
        0
 40
0.6
 41
30.0
 62
     5
 63
     7
 74
     1
 91
        4
 64
     7
 65
   257
 75
     1
175
     1
 42
1.0
 92
        0
 66
   257
 43
1.0
 76
     1
 77
     6
 78
     2
 67
     7
 79
     3
170
     0
171
     0
290
     0
174
     0
 93
        1
 44
0.0
173
     0
291
     0
 45
0.0
1001
ACAD
1000
AcDbSavedByObjectVersion
1070
     0
  0
VISUALSTYLE
  5
40
102
{ACAD_REACTORS
330
2A
102
}
102
{ACAD_XDICTIONARY
360
35A
102
}
330
2A
100
AcDbVisualStyle
  2
X-Ray
 70
    25
 71
     2
 72
     2
 73
     1
 90
        1
 40
0.5
 41
30.0
 62
     5
 63
     7
 74
     1
 91
        0
 64
     7
 65
   257
 75
     1
175
     1
 42
1.0
 92
        8
 66
     7
 43
1.0
 76
     1
 77
     6
 78
     2
 67
     7
 79
     3
170
     0
171
     0
290
     0
174
     0
 93
       13
 44
0.0
173
     0
291
     0
 45
0.0
1001
ACAD
1000
AcDbSavedByObjectVersion
1070
     0
  0
DICTIONARYVAR
  5
2E7
102
{ACAD_REACTORS
330
2E6
102
}
330
2E6
100
DictionaryVariables
280
     0
  1
1:1
  0
DICTIONARYVAR
  5
320
102
{ACAD_REACTORS
330
2E6
102
}
330
2E6
100
DictionaryVariables
280
     0
  1
Standard
  0
DICTIONARYVAR
  5
31F
102
{ACAD_REACTORS
330
2E6
102
}
330
2E6
100
DictionaryVariables
280
     0
  1
Standard
  0
DICTIONARYVAR
  5
328
102
{ACAD_REACTORS
330
2E6
102
}
330
2E6
100
DictionaryVariables
280
     0
  1
2
  0
DICTIONARYVAR
  5
329
102
{ACAD_REACTORS
330
2E6
102
}
330
2E6
100
DictionaryVariables
280
     0
  1
1
  0
DICTIONARYVAR
  5
32F
102
{ACAD_REACTORS
330
2E6
102
}
330
2E6
100
DictionaryVariables
280
     0
  1
1
  0
DICTIONARYVAR
  5
327
102
{ACAD_REACTORS
330
2E6
102
}
330
2E6
100
DictionaryVariables
280
     0
  1
80.000000
  0
DICTIONARYVAR
  5
326
102
{ACAD_REACTORS
330
2E6
102
}
330
2E6
100
DictionaryVariables
280
     0
  1
5.000000
  0
DICTIONARYVAR
  5
323
102
{ACAD_REACTORS
330
2E6
102
}
330
2E6
100
DictionaryVariables
280
     0
  1
6.000000
  0
DICTIONARYVAR
  5
2E8
102
{ACAD_REACTORS
330
2E6
102
}
330
2E6
100
DictionaryVariables
280
     0
  1
2
  0
DICTIONARY
  5
362
330
45
100
AcDbDictionary
280
     1
281
     1
  3
ACAD_XREC_ROUNDTRIP
360
363
  0
DICTIONARY
  5
360
330
44
100
AcDbDictionary
280
     1
281
     1
  3
ACAD_XREC_ROUNDTRIP
360
361
  0
DICTIONARY
  5
364
330
46
100
AcDbDictionary
280
     1
281
     1
  3
ACAD_XREC_ROUNDTRIP
360
365
  0
DICTIONARY
  5
366
330
6C
100
AcDbDictionary
280
     1
281
     1
  3
ACAD_XREC_ROUNDTRIP
360
367
  0
DICTIONARY
  5
338
330
2F
100
AcDbDictionary
280
     1
281
     1
  3
ACAD_XREC_ROUNDTRIP
360
339
  0
DICTIONARY
  5
33E
330
32
100
AcDbDictionary
280
     1
281
     1
  3
ACAD_XREC_ROUNDTRIP
360
33F
  0
DICTIONARY
  5
346
330
36
100
AcDbDictionary
280
     1
281
     1
  3
ACAD_XREC_ROUNDTRIP
360
347
  0
DICTIONARY
  5
34E
330
3A
100
AcDbDictionary
280
     1
281
     1
  3
ACAD_XREC_ROUNDTRIP
360
34F
  0
DICTIONARY
  5
342
330
34
100
AcDbDictionary
280
     1
281
     1
  3
ACAD_XREC_ROUNDTRIP
360
343
  0
DICTIONARY
  5
344
330
35
100
AcDbDictionary
280
     1
281
     1
  3
ACAD_XREC_ROUNDTRIP
360
345
  0
DICTIONARY
  5
354
330
3D
100
AcDbDictionary
280
     1
281
     1
  3
ACAD_XREC_ROUNDTRIP
360
355
  0
DICTIONARY
  5
34C
330
39
100
AcDbDictionary
280
     1
281
     1
  3
ACAD_XREC_ROUNDTRIP
360
34D
  0
DICTIONARY
  5
330
330
2B
100
AcDbDictionary
280
     1
281
     1
  3
ACAD_XREC_ROUNDTRIP
360
331
  0
DICTIONARY
  5
332
330
2C
100
AcDbDictionary
280
     1
281
     1
  3
ACAD_XREC_ROUNDTRIP
360
333
  0
DICTIONARY
  5
334
330
2D
100
AcDbDictionary
280
     1
281
     1
  3
ACAD_XREC_ROUNDTRIP
360
335
  0
DICTIONARY
  5
336
330
2E
100
AcDbDictionary
280
     1
281
     1
  3
ACAD_XREC_ROUNDTRIP
360
337
  0
DICTIONARY
  5
33C
330
31
100
AcDbDictionary
280
     1
281
     1
  3
ACAD_XREC_ROUNDTRIP
360
33D
  0
DICTIONARY
  5
350
330
3B
100
AcDbDictionary
280
     1
281
     1
  3
ACAD_XREC_ROUNDTRIP
360
351
  0
DICTIONARY
  5
34A
330
38
100
AcDbDictionary
280
     1
281
     1
  3
ACAD_XREC_ROUNDTRIP
360
34B
  0
DICTIONARY
  5
352
330
3C
100
AcDbDictionary
280
     1
281
     1
  3
ACAD_XREC_ROUNDTRIP
360
353
  0
DICTIONARY
  5
340
330
33
100
AcDbDictionary
280
     1
281
     1
  3
ACAD_XREC_ROUNDTRIP
360
341
  0
DICTIONARY
  5
35E
330
42
100
AcDbDictionary
280
     1
281
     1
  3
ACAD_XREC_ROUNDTRIP
360
35F
  0
DICTIONARY
  5
35C
330
41
100
AcDbDictionary
280
     1
281
     1
  3
ACAD_XREC_ROUNDTRIP
360
35D
  0
DICTIONARY
  5
356
330
3E
100
AcDbDictionary
280
     1
281
     1
  3
ACAD_XREC_ROUNDTRIP
360
357
  0
DICTIONARY
  5
358
330
3F
100
AcDbDictionary
280
     1
281
     1
  3
ACAD_XREC_ROUNDTRIP
360
359
  0
DICTIONARY
  5
348
330
37
100
AcDbDictionary
280
     1
281
     1
  3
ACAD_XREC_ROUNDTRIP
360
349
  0
DICTIONARY
  5
33A
330
30
100
AcDbDictionary
280
     1
281
     1
  3
ACAD_XREC_ROUNDTRIP
360
33B
  0
DICTIONARY
  5
35A
330
40
100
AcDbDictionary
280
     1
281
     1
  3
ACAD_XREC_ROUNDTRIP
360
35B
  0
XRECORD
  5
363
102
{ACAD_REACTORS
330
362
102
}
330
362
100
AcDbXrecord
280
     1
102
MATERIAL
148
0.0
149
0.0
149
0.0
 93
        0
 94
      127
282
     0
 72
     1
 77
     1
171
     1
175
     1
179
     1
273
     0
  0
XRECORD
  5
361
102
{ACAD_REACTORS
330
360
102
}
330
360
100
AcDbXrecord
280
     1
102
MATERIAL
148
0.0
149
0.0
149
0.0
 93
        0
 94
      127
282
     0
 72
     1
 77
     1
171
     1
175
     1
179
     1
273
     0
  0
XRECORD
  5
365
102
{ACAD_REACTORS
330
364
102
}
330
364
100
AcDbXrecord
280
     1
102
MATERIAL
148
0.0
149
0.0
149
0.0
 93
        0
 94
      127
282
     0
 72
     1
 77
     1
171
     1
175
     1
179
     1
273
     0
  0
XRECORD
  5
367
102
{ACAD_REACTORS
330
366
102
}
330
366
100
AcDbXrecord
280
     1
102
ACAD_ROUNDTRIP_2010_MLEADER_STYLE
  0
XRECORD
  5
339
102
{ACAD_REACTORS
330
338
102
}
330
338
100
AcDbXrecord
280
     1
102
RTVSPropertyOp0
 70
     1
102
RTVSPropertyOp1
 70
     1
102
RTVSPropertyOp2
 70
     1
102
RTVSPropertyOp3
 70
     1
102
RTVSPropertyOp4
 70
     1
102
RTVSPropertyOp5
 70
     1
102
RTVSPropertyOp6
 70
     1
102
RTVSPropertyOp7
 70
     1
102
RTVSPropertyOp8
 70
     1
102
RTVSPropertyOp9
 70
     1
102
RTVSPropertyOp10
 70
     1
102
RTVSPropertyOp11
 70
     1
102
RTVSPropertyOp12
 70
     1
102
RTVSPropertyOp13
 70
     1
102
RTVSPropertyOp14
 70
     1
102
RTVSPropertyOp15
 70
     1
102
RTVSPropertyOp16
 70
     1
102
RTVSPropertyOp17
 70
     1
102
RTVSPropertyOp18
 70
     1
102
RTVSPropertyOp19
 70
     1
102
RTVSPropertyOp20
 70
     1
102
RTVSPropertyOp21
 70
     1
102
RTVSPropertyOp22
 70
     1
102
RTVSPropertyOp23
 70
     1
102
RTVSPropertyOp24
 70
     1
102
RTVSPropertyOp25
 70
     1
102
RTVSPropertyOp26
 70
     1
102
RTVSPropertyOp27
 70
     1
102
RTVSPropertyOp28
 70
     1
102
RTVSPropertyOp29
 70
     1
102
RTVSPropertyOp30
 70
     1
102
RTVSPropertyOp31
 70
     1
102
RTVSPropertyOp32
 70
     1
102
RTVSPropertyOp33
 70
     1
102
RTVSPropertyOp34
 70
     1
102
RTVSPropertyOp35
 70
     1
102
RTVSPropertyOp36
 70
     1
102
RTVSPropertyOp37
 70
     1
102
RTVSPropertyOp38
 70
     1
102
RTVSPropertyOp39
 70
     1
102
RTVSPropertyOp40
 70
     1
102
RTVSPropertyOp41
 70
     1
102
RTVSPropertyOp42
 70
     1
102
RTVSPropertyOp43
 70
     1
102
RTVSPropertyOp44
 70
     1
102
RTVSPropertyOp45
 70
     1
102
RTVSPropertyOp46
 70
     1
102
RTVSPropertyOp47
 70
     1
102
RTVSPropertyOp48
 70
     1
102
RTVSPropertyOp49
 70
     1
102
RTVSPropertyOp50
 70
     1
102
RTVSPropertyOp51
 70
     0
102
RTVSPropertyOp52
 70
     0
102
RTVSPropertyOp53
 70
     1
102
RTVSPropertyOp54
 70
     1
102
RTVSPropertyOp55
 70
     1
102
RTVSPropertyOp56
 70
     1
102
RTVSPropertyOp57
 70
     1
102
RTVSPost2010Prop28
280
     1
102
RTVSPost2010PropOp28
 70
     1
102
RTVSPost2010Prop29
280
     1
102
RTVSPost2010PropOp29
 70
     1
102
RTVSPost2010Prop30
280
     0
102
RTVSPost2010PropOp30
 70
     1
102
RTVSPost2010Prop31
280
     0
102
RTVSPost2010PropOp31
 70
     1
102
RTVSPost2010Prop32
280
     0
102
RTVSPost2010PropOp32
 70
     1
102
RTVSPost2010Prop33
280
     0
102
RTVSPost2010PropOp33
 70
     1
102
RTVSPost2010Prop34
280
     0
102
RTVSPost2010PropOp34
 70
     1
102
RTVSPost2010Prop35
280
     0
102
RTVSPost2010PropOp35
 70
     1
102
RTVSPost2010Prop36
280
     0
102
RTVSPost2010PropOp36
 70
     1
102
RTVSPost2010Prop37
 90
       50
102
RTVSPost2010PropOp37
 70
     1
102
RTVSPost2010Prop38
140
0.0
102
RTVSPost2010PropOp38
 70
     1
102
RTVSPost2010Prop39
140
1.0
102
RTVSPost2010PropOp39
 70
     1
102
RTVSPost2010Prop40
 90
        0
102
RTVSPost2010PropOp40
 70
     1
102
RTVSPost2010Prop41ColorIndex
 90
       18
102
RTVSPost2010Prop41ColorRGB
 90
        0
102
RTVSPost2010PropOp41
 70
     1
102
RTVSPost2010Prop42
 90
       50
102
RTVSPost2010PropOp42
 70
     1
102
RTVSPost2010Prop43
 90
        3
102
RTVSPost2010PropOp43
 70
     1
102
RTVSPost2010Prop44ColorIndex
 90
        5
102
RTVSPost2010Prop44ColorRGB
 90
      255
102
RTVSPost2010PropOp44
 70
     1
102
RTVSPost2010Prop45
280
     0
102
RTVSPost2010PropOp45
 70
     1
102
RTVSPost2010Prop46
 90
       50
102
RTVSPost2010PropOp46
 70
     1
102
RTVSPost2010Prop47
 90
       50
102
RTVSPost2010PropOp47
 70
     1
102
RTVSPost2010Prop48
 90
       50
102
RTVSPost2010PropOp48
 70
     1
102
RTVSPost2010Prop49
280
     0
102
RTVSPost2010PropOp49
 70
     1
102
RTVSPost2010Prop50
 90
       50
102
RTVSPost2010PropOp50
 70
     1
102
RTVSPost2010Prop51ColorIndex
 90
      256
102
RTVSPost2010Prop51ColorRGB
 90
-16777216
102
RTVSPost2010PropOp51
 70
     0
102
RTVSPost2010Prop52
140
1.0
102
RTVSPost2010PropOp52
 70
     0
102
RTVSPost2010Prop53
 90
        2
102
RTVSPost2010PropOp53
 70
     1
102
RTVSPost2010Prop54
  1
strokes_ogs.tif
102
RTVSPost2010PropOp54
 70
     1
102
RTVSPost2010Prop55
280
     0
102
RTVSPost2010PropOp55
 70
     1
102
RTVSPost2010Prop56
140
1.0
102
RTVSPost2010PropOp56
 70
     1
102
RTVSPost2010Prop57
140
1.0
102
RTVSPost2010PropOp57
 70
     1
  0
XRECORD
  5
33F
102
{ACAD_REACTORS
330
33E
102
}
330
33E
100
AcDbXrecord
280
     1
102
RTVSPropertyOp0
 70
     1
102
RTVSPropertyOp1
 70
     1
102
RTVSPropertyOp2
 70
     1
102
RTVSPropertyOp3
 70
     1
102
RTVSPropertyOp4
 70
     1
102
RTVSPropertyOp5
 70
     1
102
RTVSPropertyOp6
 70
     1
102
RTVSPropertyOp7
 70
     1
102
RTVSPropertyOp8
 70
     1
102
RTVSPropertyOp9
 70
     1
102
RTVSPropertyOp10
 70
     1
102
RTVSPropertyOp11
 70
     1
102
RTVSPropertyOp12
 70
     1
102
RTVSPropertyOp13
 70
     1
102
RTVSPropertyOp14
 70
     1
102
RTVSPropertyOp15
 70
     1
102
RTVSPropertyOp16
 70
     1
102
RTVSPropertyOp17
 70
     1
102
RTVSPropertyOp18
 70
     1
102
RTVSPropertyOp19
 70
     1
102
RTVSPropertyOp20
 70
     1
102
RTVSPropertyOp21
 70
     1
102
RTVSPropertyOp22
 70
     1
102
RTVSPropertyOp23
 70
     1
102
RTVSPropertyOp24
 70
     1
102
RTVSPropertyOp25
 70
     1
102
RTVSPropertyOp26
 70
     1
102
RTVSPropertyOp27
 70
     1
102
RTVSPropertyOp28
 70
     1
102
RTVSPropertyOp29
 70
     1
102
RTVSPropertyOp30
 70
     1
102
RTVSPropertyOp31
 70
     1
102
RTVSPropertyOp32
 70
     1
102
RTVSPropertyOp33
 70
     1
102
RTVSPropertyOp34
 70
     1
102
RTVSPropertyOp35
 70
     1
102
RTVSPropertyOp36
 70
     1
102
RTVSPropertyOp37
 70
     1
102
RTVSPropertyOp38
 70
     1
102
RTVSPropertyOp39
 70
     1
102
RTVSPropertyOp40
 70
     1
102
RTVSPropertyOp41
 70
     1
102
RTVSPropertyOp42
 70
     1
102
RTVSPropertyOp43
 70
     1
102
RTVSPropertyOp44
 70
     1
102
RTVSPropertyOp45
 70
     1
102
RTVSPropertyOp46
 70
     1
102
RTVSPropertyOp47
 70
     1
102
RTVSPropertyOp48
 70
     1
102
RTVSPropertyOp49
 70
     1
102
RTVSPropertyOp50
 70
     1
102
RTVSPropertyOp51
 70
     0
102
RTVSPropertyOp52
 70
     0
102
RTVSPropertyOp53
 70
     1
102
RTVSPropertyOp54
 70
     1
102
RTVSPropertyOp55
 70
     1
102
RTVSPropertyOp56
 70
     1
102
RTVSPropertyOp57
 70
     1
102
RTVSPost2010Prop28
280
     0
102
RTVSPost2010PropOp28
 70
     1
102
RTVSPost2010Prop29
280
     1
102
RTVSPost2010PropOp29
 70
     1
102
RTVSPost2010Prop30
280
     1
102
RTVSPost2010PropOp30
 70
     1
102
RTVSPost2010Prop31
280
     0
102
RTVSPost2010PropOp31
 70
     1
102
RTVSPost2010Prop32
280
     0
102
RTVSPost2010PropOp32
 70
     1
102
RTVSPost2010Prop33
280
     0
102
RTVSPost2010PropOp33
 70
     1
102
RTVSPost2010Prop34
280
     0
102
RTVSPost2010PropOp34
 70
     1
102
RTVSPost2010Prop35
280
     0
102
RTVSPost2010PropOp35
 70
     1
102
RTVSPost2010Prop36
280
     0
102
RTVSPost2010PropOp36
 70
     1
102
RTVSPost2010Prop37
 90
       50
102
RTVSPost2010PropOp37
 70
     1
102
RTVSPost2010Prop38
140
0.0
102
RTVSPost2010PropOp38
 70
     1
102
RTVSPost2010Prop39
140
1.0
102
RTVSPost2010PropOp39
 70
     1
102
RTVSPost2010Prop40
 90
        0
102
RTVSPost2010PropOp40
 70
     1
102
RTVSPost2010Prop41ColorIndex
 90
       18
102
RTVSPost2010Prop41ColorRGB
 90
        0
102
RTVSPost2010PropOp41
 70
     1
102
RTVSPost2010Prop42
 90
       50
102
RTVSPost2010PropOp42
 70
     1
102
RTVSPost2010Prop43
 90
        3
102
RTVSPost2010PropOp43
 70
     1
102
RTVSPost2010Prop44ColorIndex
 90
        5
102
RTVSPost2010Prop44ColorRGB
 90
      255
102
RTVSPost2010PropOp44
 70
     1
102
RTVSPost2010Prop45
280
     0
102
RTVSPost2010PropOp45
 70
     1
102
RTVSPost2010Prop46
 90
       50
102
RTVSPost2010PropOp46
 70
     1
102
RTVSPost2010Prop47
 90
       50
102
RTVSPost2010PropOp47
 70
     1
102
RTVSPost2010Prop48
 90
       50
102
RTVSPost2010PropOp48
 70
     1
102
RTVSPost2010Prop49
280
     0
102
RTVSPost2010PropOp49
 70
     1
102
RTVSPost2010Prop50
 90
       50
102
RTVSPost2010PropOp50
 70
     1
102
RTVSPost2010Prop51ColorIndex
 90
      256
102
RTVSPost2010Prop51ColorRGB
 90
-16777216
102
RTVSPost2010PropOp51
 70
     0
102
RTVSPost2010Prop52
140
1.0
102
RTVSPost2010PropOp52
 70
     0
102
RTVSPost2010Prop53
 90
        2
102
RTVSPost2010PropOp53
 70
     1
102
RTVSPost2010Prop54
  1
strokes_ogs.tif
102
RTVSPost2010PropOp54
 70
     1
102
RTVSPost2010Prop55
280
     0
102
RTVSPost2010PropOp55
 70
     1
102
RTVSPost2010Prop56
140
1.0
102
RTVSPost2010PropOp56
 70
     1
102
RTVSPost2010Prop57
140
1.0
102
RTVSPost2010PropOp57
 70
     1
  0
XRECORD
  5
347
102
{ACAD_REACTORS
330
346
102
}
330
346
100
AcDbXrecord
280
     1
102
RTVSPropertyOp0
 70
     1
102
RTVSPropertyOp1
 70
     1
102
RTVSPropertyOp2
 70
     1
102
RTVSPropertyOp3
 70
     1
102
RTVSPropertyOp4
 70
     1
102
RTVSPropertyOp5
 70
     1
102
RTVSPropertyOp6
 70
     1
102
RTVSPropertyOp7
 70
     1
102
RTVSPropertyOp8
 70
     1
102
RTVSPropertyOp9
 70
     1
102
RTVSPropertyOp10
 70
     1
102
RTVSPropertyOp11
 70
     1
102
RTVSPropertyOp12
 70
     1
102
RTVSPropertyOp13
 70
     1
102
RTVSPropertyOp14
 70
     1
102
RTVSPropertyOp15
 70
     1
102
RTVSPropertyOp16
 70
     1
102
RTVSPropertyOp17
 70
     1
102
RTVSPropertyOp18
 70
     1
102
RTVSPropertyOp19
 70
     1
102
RTVSPropertyOp20
 70
     1
102
RTVSPropertyOp21
 70
     1
102
RTVSPropertyOp22
 70
     1
102
RTVSPropertyOp23
 70
     1
102
RTVSPropertyOp24
 70
     1
102
RTVSPropertyOp25
 70
     1
102
RTVSPropertyOp26
 70
     1
102
RTVSPropertyOp27
 70
     1
102
RTVSPropertyOp28
 70
     1
102
RTVSPropertyOp29
 70
     1
102
RTVSPropertyOp30
 70
     1
102
RTVSPropertyOp31
 70
     1
102
RTVSPropertyOp32
 70
     1
102
RTVSPropertyOp33
 70
     1
102
RTVSPropertyOp34
 70
     1
102
RTVSPropertyOp35
 70
     1
102
RTVSPropertyOp36
 70
     1
102
RTVSPropertyOp37
 70
     1
102
RTVSPropertyOp38
 70
     1
102
RTVSPropertyOp39
 70
     1
102
RTVSPropertyOp40
 70
     1
102
RTVSPropertyOp41
 70
     1
102
RTVSPropertyOp42
 70
     1
102
RTVSPropertyOp43
 70
     1
102
RTVSPropertyOp44
 70
     1
102
RTVSPropertyOp45
 70
     1
102
RTVSPropertyOp46
 70
     1
102
RTVSPropertyOp47
 70
     1
102
RTVSPropertyOp48
 70
     1
102
RTVSPropertyOp49
 70
     1
102
RTVSPropertyOp50
 70
     1
102
RTVSPropertyOp51
 70
     0
102
RTVSPropertyOp52
 70
     0
102
RTVSPropertyOp53
 70
     1
102
RTVSPropertyOp54
 70
     1
102
RTVSPropertyOp55
 70
     1
102
RTVSPropertyOp56
 70
     1
102
RTVSPropertyOp57
 70
     1
102
RTVSPost2010Prop28
280
     0
102
RTVSPost2010PropOp28
 70
     1
102
RTVSPost2010Prop29
280
     1
102
RTVSPost2010PropOp29
 70
     1
102
RTVSPost2010Prop30
280
     1
102
RTVSPost2010PropOp30
 70
     1
102
RTVSPost2010Prop31
280
     0
102
RTVSPost2010PropOp31
 70
     1
102
RTVSPost2010Prop32
280
     0
102
RTVSPost2010PropOp32
 70
     1
102
RTVSPost2010Prop33
280
     0
102
RTVSPost2010PropOp33
 70
     1
102
RTVSPost2010Prop34
280
     0
102
RTVSPost2010PropOp34
 70
     1
102
RTVSPost2010Prop35
280
     0
102
RTVSPost2010PropOp35
 70
     1
102
RTVSPost2010Prop36
280
     0
102
RTVSPost2010PropOp36
 70
     1
102
RTVSPost2010Prop37
 90
       50
102
RTVSPost2010PropOp37
 70
     1
102
RTVSPost2010Prop38
140
0.0
102
RTVSPost2010PropOp38
 70
     1
102
RTVSPost2010Prop39
140
1.0
102
RTVSPost2010PropOp39
 70
     1
102
RTVSPost2010Prop40
 90
        0
102
RTVSPost2010PropOp40
 70
     1
102
RTVSPost2010Prop41ColorIndex
 90
       18
102
RTVSPost2010Prop41ColorRGB
 90
        0
102
RTVSPost2010PropOp41
 70
     1
102
RTVSPost2010Prop42
 90
       50
102
RTVSPost2010PropOp42
 70
     1
102
RTVSPost2010Prop43
 90
        3
102
RTVSPost2010PropOp43
 70
     1
102
RTVSPost2010Prop44ColorIndex
 90
        5
102
RTVSPost2010Prop44ColorRGB
 90
      255
102
RTVSPost2010PropOp44
 70
     1
102
RTVSPost2010Prop45
280
     0
102
RTVSPost2010PropOp45
 70
     1
102
RTVSPost2010Prop46
 90
       50
102
RTVSPost2010PropOp46
 70
     1
102
RTVSPost2010Prop47
 90
       50
102
RTVSPost2010PropOp47
 70
     1
102
RTVSPost2010Prop48
 90
       50
102
RTVSPost2010PropOp48
 70
     1
102
RTVSPost2010Prop49
280
     0
102
RTVSPost2010PropOp49
 70
     1
102
RTVSPost2010Prop50
 90
       50
102
RTVSPost2010PropOp50
 70
     1
102
RTVSPost2010Prop51ColorIndex
 90
      256
102
RTVSPost2010Prop51ColorRGB
 90
-16777216
102
RTVSPost2010PropOp51
 70
     0
102
RTVSPost2010Prop52
140
1.0
102
RTVSPost2010PropOp52
 70
     0
102
RTVSPost2010Prop53
 90
        2
102
RTVSPost2010PropOp53
 70
     1
102
RTVSPost2010Prop54
  1
strokes_ogs.tif
102
RTVSPost2010PropOp54
 70
     1
102
RTVSPost2010Prop55
280
     0
102
RTVSPost2010PropOp55
 70
     1
102
RTVSPost2010Prop56
140
1.0
102
RTVSPost2010PropOp56
 70
     1
102
RTVSPost2010Prop57
140
1.0
102
RTVSPost2010PropOp57
 70
     1
  0
XRECORD
  5
34F
102
{ACAD_REACTORS
330
34E
102
}
330
34E
100
AcDbXrecord
280
     1
102
RTVSPropertyOp0
 70
     1
102
RTVSPropertyOp1
 70
     1
102
RTVSPropertyOp2
 70
     1
102
RTVSPropertyOp3
 70
     1
102
RTVSPropertyOp4
 70
     1
102
RTVSPropertyOp5
 70
     1
102
RTVSPropertyOp6
 70
     1
102
RTVSPropertyOp7
 70
     1
102
RTVSPropertyOp8
 70
     1
102
RTVSPropertyOp9
 70
     1
102
RTVSPropertyOp10
 70
     1
102
RTVSPropertyOp11
 70
     1
102
RTVSPropertyOp12
 70
     1
102
RTVSPropertyOp13
 70
     1
102
RTVSPropertyOp14
 70
     1
102
RTVSPropertyOp15
 70
     1
102
RTVSPropertyOp16
 70
     1
102
RTVSPropertyOp17
 70
     1
102
RTVSPropertyOp18
 70
     1
102
RTVSPropertyOp19
 70
     1
102
RTVSPropertyOp20
 70
     1
102
RTVSPropertyOp21
 70
     1
102
RTVSPropertyOp22
 70
     1
102
RTVSPropertyOp23
 70
     1
102
RTVSPropertyOp24
 70
     1
102
RTVSPropertyOp25
 70
     1
102
RTVSPropertyOp26
 70
     1
102
RTVSPropertyOp27
 70
     1
102
RTVSPropertyOp28
 70
     1
102
RTVSPropertyOp29
 70
     1
102
RTVSPropertyOp30
 70
     1
102
RTVSPropertyOp31
 70
     1
102
RTVSPropertyOp32
 70
     1
102
RTVSPropertyOp33
 70
     1
102
RTVSPropertyOp34
 70
     1
102
RTVSPropertyOp35
 70
     1
102
RTVSPropertyOp36
 70
     1
102
RTVSPropertyOp37
 70
     1
102
RTVSPropertyOp38
 70
     1
102
RTVSPropertyOp39
 70
     1
102
RTVSPropertyOp40
 70
     1
102
RTVSPropertyOp41
 70
     1
102
RTVSPropertyOp42
 70
     1
102
RTVSPropertyOp43
 70
     1
102
RTVSPropertyOp44
 70
     1
102
RTVSPropertyOp45
 70
     1
102
RTVSPropertyOp46
 70
     1
102
RTVSPropertyOp47
 70
     1
102
RTVSPropertyOp48
 70
     1
102
RTVSPropertyOp49
 70
     1
102
RTVSPropertyOp50
 70
     1
102
RTVSPropertyOp51
 70
     0
102
RTVSPropertyOp52
 70
     0
102
RTVSPropertyOp53
 70
     1
102
RTVSPropertyOp54
 70
     1
102
RTVSPropertyOp55
 70
     1
102
RTVSPropertyOp56
 70
     1
102
RTVSPropertyOp57
 70
     1
102
RTVSPost2010Prop28
280
     0
102
RTVSPost2010PropOp28
 70
     1
102
RTVSPost2010Prop29
280
     1
102
RTVSPost2010PropOp29
 70
     1
102
RTVSPost2010Prop30
280
     1
102
RTVSPost2010PropOp30
 70
     1
102
RTVSPost2010Prop31
280
     0
102
RTVSPost2010PropOp31
 70
     1
102
RTVSPost2010Prop32
280
     0
102
RTVSPost2010PropOp32
 70
     1
102
RTVSPost2010Prop33
280
     0
102
RTVSPost2010PropOp33
 70
     1
102
RTVSPost2010Prop34
280
     0
102
RTVSPost2010PropOp34
 70
     1
102
RTVSPost2010Prop35
280
     0
102
RTVSPost2010PropOp35
 70
     1
102
RTVSPost2010Prop36
280
     0
102
RTVSPost2010PropOp36
 70
     1
102
RTVSPost2010Prop37
 90
       50
102
RTVSPost2010PropOp37
 70
     1
102
RTVSPost2010Prop38
140
0.0
102
RTVSPost2010PropOp38
 70
     1
102
RTVSPost2010Prop39
140
1.0
102
RTVSPost2010PropOp39
 70
     1
102
RTVSPost2010Prop40
 90
        0
102
RTVSPost2010PropOp40
 70
     1
102
RTVSPost2010Prop41ColorIndex
 90
       18
102
RTVSPost2010Prop41ColorRGB
 90
        0
102
RTVSPost2010PropOp41
 70
     1
102
RTVSPost2010Prop42
 90
       50
102
RTVSPost2010PropOp42
 70
     1
102
RTVSPost2010Prop43
 90
        3
102
RTVSPost2010PropOp43
 70
     1
102
RTVSPost2010Prop44ColorIndex
 90
        5
102
RTVSPost2010Prop44ColorRGB
 90
      255
102
RTVSPost2010PropOp44
 70
     1
102
RTVSPost2010Prop45
280
     0
102
RTVSPost2010PropOp45
 70
     1
102
RTVSPost2010Prop46
 90
       50
102
RTVSPost2010PropOp46
 70
     1
102
RTVSPost2010Prop47
 90
       50
102
RTVSPost2010PropOp47
 70
     1
102
RTVSPost2010Prop48
 90
       50
102
RTVSPost2010PropOp48
 70
     1
102
RTVSPost2010Prop49
280
     0
102
RTVSPost2010PropOp49
 70
     1
102
RTVSPost2010Prop50
 90
       50
102
RTVSPost2010PropOp50
 70
     1
102
RTVSPost2010Prop51ColorIndex
 90
      256
102
RTVSPost2010Prop51ColorRGB
 90
-16777216
102
RTVSPost2010PropOp51
 70
     0
102
RTVSPost2010Prop52
140
1.0
102
RTVSPost2010PropOp52
 70
     0
102
RTVSPost2010Prop53
 90
        2
102
RTVSPost2010PropOp53
 70
     1
102
RTVSPost2010Prop54
  1
strokes_ogs.tif
102
RTVSPost2010PropOp54
 70
     1
102
RTVSPost2010Prop55
280
     0
102
RTVSPost2010PropOp55
 70
     1
102
RTVSPost2010Prop56
140
1.0
102
RTVSPost2010PropOp56
 70
     1
102
RTVSPost2010Prop57
140
1.0
102
RTVSPost2010PropOp57
 70
     1
  0
XRECORD
  5
343
102
{ACAD_REACTORS
330
342
102
}
330
342
100
AcDbXrecord
280
     1
102
RTVSPropertyOp0
 70
     1
102
RTVSPropertyOp1
 70
     1
102
RTVSPropertyOp2
 70
     1
102
RTVSPropertyOp3
 70
     1
102
RTVSPropertyOp4
 70
     1
102
RTVSPropertyOp5
 70
     1
102
RTVSPropertyOp6
 70
     1
102
RTVSPropertyOp7
 70
     1
102
RTVSPropertyOp8
 70
     1
102
RTVSPropertyOp9
 70
     1
102
RTVSPropertyOp10
 70
     1
102
RTVSPropertyOp11
 70
     1
102
RTVSPropertyOp12
 70
     1
102
RTVSPropertyOp13
 70
     1
102
RTVSPropertyOp14
 70
     1
102
RTVSPropertyOp15
 70
     1
102
RTVSPropertyOp16
 70
     1
102
RTVSPropertyOp17
 70
     1
102
RTVSPropertyOp18
 70
     1
102
RTVSPropertyOp19
 70
     1
102
RTVSPropertyOp20
 70
     1
102
RTVSPropertyOp21
 70
     1
102
RTVSPropertyOp22
 70
     1
102
RTVSPropertyOp23
 70
     1
102
RTVSPropertyOp24
 70
     1
102
RTVSPropertyOp25
 70
     1
102
RTVSPropertyOp26
 70
     1
102
RTVSPropertyOp27
 70
     1
102
RTVSPropertyOp28
 70
     1
102
RTVSPropertyOp29
 70
     1
102
RTVSPropertyOp30
 70
     1
102
RTVSPropertyOp31
 70
     1
102
RTVSPropertyOp32
 70
     1
102
RTVSPropertyOp33
 70
     1
102
RTVSPropertyOp34
 70
     1
102
RTVSPropertyOp35
 70
     1
102
RTVSPropertyOp36
 70
     1
102
RTVSPropertyOp37
 70
     1
102
RTVSPropertyOp38
 70
     1
102
RTVSPropertyOp39
 70
     1
102
RTVSPropertyOp40
 70
     1
102
RTVSPropertyOp41
 70
     1
102
RTVSPropertyOp42
 70
     1
102
RTVSPropertyOp43
 70
     1
102
RTVSPropertyOp44
 70
     1
102
RTVSPropertyOp45
 70
     1
102
RTVSPropertyOp46
 70
     1
102
RTVSPropertyOp47
 70
     1
102
RTVSPropertyOp48
 70
     1
102
RTVSPropertyOp49
 70
     1
102
RTVSPropertyOp50
 70
     1
102
RTVSPropertyOp51
 70
     0
102
RTVSPropertyOp52
 70
     0
102
RTVSPropertyOp53
 70
     1
102
RTVSPropertyOp54
 70
     1
102
RTVSPropertyOp55
 70
     1
102
RTVSPropertyOp56
 70
     1
102
RTVSPropertyOp57
 70
     1
102
RTVSPost2010Prop28
280
     0
102
RTVSPost2010PropOp28
 70
     1
102
RTVSPost2010Prop29
280
     1
102
RTVSPost2010PropOp29
 70
     1
102
RTVSPost2010Prop30
280
     1
102
RTVSPost2010PropOp30
 70
     1
102
RTVSPost2010Prop31
280
     0
102
RTVSPost2010PropOp31
 70
     1
102
RTVSPost2010Prop32
280
     0
102
RTVSPost2010PropOp32
 70
     1
102
RTVSPost2010Prop33
280
     0
102
RTVSPost2010PropOp33
 70
     1
102
RTVSPost2010Prop34
280
     0
102
RTVSPost2010PropOp34
 70
     1
102
RTVSPost2010Prop35
280
     0
102
RTVSPost2010PropOp35
 70
     1
102
RTVSPost2010Prop36
280
     0
102
RTVSPost2010PropOp36
 70
     1
102
RTVSPost2010Prop37
 90
       50
102
RTVSPost2010PropOp37
 70
     1
102
RTVSPost2010Prop38
140
0.0
102
RTVSPost2010PropOp38
 70
     1
102
RTVSPost2010Prop39
140
1.0
102
RTVSPost2010PropOp39
 70
     1
102
RTVSPost2010Prop40
 90
        0
102
RTVSPost2010PropOp40
 70
     1
102
RTVSPost2010Prop41ColorIndex
 90
       18
102
RTVSPost2010Prop41ColorRGB
 90
        0
102
RTVSPost2010PropOp41
 70
     1
102
RTVSPost2010Prop42
 90
       50
102
RTVSPost2010PropOp42
 70
     1
102
RTVSPost2010Prop43
 90
        3
102
RTVSPost2010PropOp43
 70
     1
102
RTVSPost2010Prop44ColorIndex
 90
        5
102
RTVSPost2010Prop44ColorRGB
 90
      255
102
RTVSPost2010PropOp44
 70
     1
102
RTVSPost2010Prop45
280
     0
102
RTVSPost2010PropOp45
 70
     1
102
RTVSPost2010Prop46
 90
       50
102
RTVSPost2010PropOp46
 70
     1
102
RTVSPost2010Prop47
 90
       50
102
RTVSPost2010PropOp47
 70
     1
102
RTVSPost2010Prop48
 90
       50
102
RTVSPost2010PropOp48
 70
     1
102
RTVSPost2010Prop49
280
     0
102
RTVSPost2010PropOp49
 70
     1
102
RTVSPost2010Prop50
 90
       50
102
RTVSPost2010PropOp50
 70
     1
102
RTVSPost2010Prop51ColorIndex
 90
      256
102
RTVSPost2010Prop51ColorRGB
 90
-16777216
102
RTVSPost2010PropOp51
 70
     0
102
RTVSPost2010Prop52
140
1.0
102
RTVSPost2010PropOp52
 70
     0
102
RTVSPost2010Prop53
 90
        2
102
RTVSPost2010PropOp53
 70
     1
102
RTVSPost2010Prop54
  1
strokes_ogs.tif
102
RTVSPost2010PropOp54
 70
     1
102
RTVSPost2010Prop55
280
     0
102
RTVSPost2010PropOp55
 70
     1
102
RTVSPost2010Prop56
140
1.0
102
RTVSPost2010PropOp56
 70
     1
102
RTVSPost2010Prop57
140
1.0
102
RTVSPost2010PropOp57
 70
     1
  0
XRECORD
  5
345
102
{ACAD_REACTORS
330
344
102
}
330
344
100
AcDbXrecord
280
     1
102
RTVSPropertyOp0
 70
     1
102
RTVSPropertyOp1
 70
     1
102
RTVSPropertyOp2
 70
     1
102
RTVSPropertyOp3
 70
     1
102
RTVSPropertyOp4
 70
     1
102
RTVSPropertyOp5
 70
     1
102
RTVSPropertyOp6
 70
     1
102
RTVSPropertyOp7
 70
     1
102
RTVSPropertyOp8
 70
     1
102
RTVSPropertyOp9
 70
     1
102
RTVSPropertyOp10
 70
     1
102
RTVSPropertyOp11
 70
     1
102
RTVSPropertyOp12
 70
     1
102
RTVSPropertyOp13
 70
     1
102
RTVSPropertyOp14
 70
     1
102
RTVSPropertyOp15
 70
     1
102
RTVSPropertyOp16
 70
     1
102
RTVSPropertyOp17
 70
     1
102
RTVSPropertyOp18
 70
     1
102
RTVSPropertyOp19
 70
     1
102
RTVSPropertyOp20
 70
     1
102
RTVSPropertyOp21
 70
     1
102
RTVSPropertyOp22
 70
     1
102
RTVSPropertyOp23
 70
     1
102
RTVSPropertyOp24
 70
     1
102
RTVSPropertyOp25
 70
     1
102
RTVSPropertyOp26
 70
     1
102
RTVSPropertyOp27
 70
     1
102
RTVSPropertyOp28
 70
     1
102
RTVSPropertyOp29
 70
     1
102
RTVSPropertyOp30
 70
     1
102
RTVSPropertyOp31
 70
     1
102
RTVSPropertyOp32
 70
     1
102
RTVSPropertyOp33
 70
     1
102
RTVSPropertyOp34
 70
     1
102
RTVSPropertyOp35
 70
     1
102
RTVSPropertyOp36
 70
     1
102
RTVSPropertyOp37
 70
     1
102
RTVSPropertyOp38
 70
     1
102
RTVSPropertyOp39
 70
     1
102
RTVSPropertyOp40
 70
     1
102
RTVSPropertyOp41
 70
     1
102
RTVSPropertyOp42
 70
     1
102
RTVSPropertyOp43
 70
     1
102
RTVSPropertyOp44
 70
     1
102
RTVSPropertyOp45
 70
     1
102
RTVSPropertyOp46
 70
     1
102
RTVSPropertyOp47
 70
     1
102
RTVSPropertyOp48
 70
     1
102
RTVSPropertyOp49
 70
     1
102
RTVSPropertyOp50
 70
     1
102
RTVSPropertyOp51
 70
     0
102
RTVSPropertyOp52
 70
     0
102
RTVSPropertyOp53
 70
     1
102
RTVSPropertyOp54
 70
     1
102
RTVSPropertyOp55
 70
     1
102
RTVSPropertyOp56
 70
     1
102
RTVSPropertyOp57
 70
     1
102
RTVSPost2010Prop28
280
     0
102
RTVSPost2010PropOp28
 70
     1
102
RTVSPost2010Prop29
280
     1
102
RTVSPost2010PropOp29
 70
     1
102
RTVSPost2010Prop30
280
     1
102
RTVSPost2010PropOp30
 70
     1
102
RTVSPost2010Prop31
280
     0
102
RTVSPost2010PropOp31
 70
     1
102
RTVSPost2010Prop32
280
     0
102
RTVSPost2010PropOp32
 70
     1
102
RTVSPost2010Prop33
280
     0
102
RTVSPost2010PropOp33
 70
     1
102
RTVSPost2010Prop34
280
     0
102
RTVSPost2010PropOp34
 70
     1
102
RTVSPost2010Prop35
280
     0
102
RTVSPost2010PropOp35
 70
     1
102
RTVSPost2010Prop36
280
     0
102
RTVSPost2010PropOp36
 70
     1
102
RTVSPost2010Prop37
 90
       50
102
RTVSPost2010PropOp37
 70
     1
102
RTVSPost2010Prop38
140
0.0
102
RTVSPost2010PropOp38
 70
     1
102
RTVSPost2010Prop39
140
1.0
102
RTVSPost2010PropOp39
 70
     1
102
RTVSPost2010Prop40
 90
        0
102
RTVSPost2010PropOp40
 70
     1
102
RTVSPost2010Prop41ColorIndex
 90
       18
102
RTVSPost2010Prop41ColorRGB
 90
        0
102
RTVSPost2010PropOp41
 70
     1
102
RTVSPost2010Prop42
 90
       50
102
RTVSPost2010PropOp42
 70
     1
102
RTVSPost2010Prop43
 90
        3
102
RTVSPost2010PropOp43
 70
     1
102
RTVSPost2010Prop44ColorIndex
 90
        5
102
RTVSPost2010Prop44ColorRGB
 90
      255
102
RTVSPost2010PropOp44
 70
     1
102
RTVSPost2010Prop45
280
     0
102
RTVSPost2010PropOp45
 70
     1
102
RTVSPost2010Prop46
 90
       50
102
RTVSPost2010PropOp46
 70
     1
102
RTVSPost2010Prop47
 90
       50
102
RTVSPost2010PropOp47
 70
     1
102
RTVSPost2010Prop48
 90
       50
102
RTVSPost2010PropOp48
 70
     1
102
RTVSPost2010Prop49
280
     0
102
RTVSPost2010PropOp49
 70
     1
102
RTVSPost2010Prop50
 90
       50
102
RTVSPost2010PropOp50
 70
     1
102
RTVSPost2010Prop51ColorIndex
 90
      256
102
RTVSPost2010Prop51ColorRGB
 90
-16777216
102
RTVSPost2010PropOp51
 70
     0
102
RTVSPost2010Prop52
140
1.0
102
RTVSPost2010PropOp52
 70
     0
102
RTVSPost2010Prop53
 90
        2
102
RTVSPost2010PropOp53
 70
     1
102
RTVSPost2010Prop54
  1
strokes_ogs.tif
102
RTVSPost2010PropOp54
 70
     1
102
RTVSPost2010Prop55
280
     0
102
RTVSPost2010PropOp55
 70
     1
102
RTVSPost2010Prop56
140
1.0
102
RTVSPost2010PropOp56
 70
     1
102
RTVSPost2010Prop57
140
1.0
102
RTVSPost2010PropOp57
 70
     1
  0
XRECORD
  5
355
102
{ACAD_REACTORS
330
354
102
}
330
354
100
AcDbXrecord
280
     1
102
RTVSPropertyOp0
 70
     0
102
RTVSPropertyOp1
 70
     0
102
RTVSPropertyOp2
 70
     0
102
RTVSPropertyOp3
 70
     0
102
RTVSPropertyOp4
 70
     0
102
RTVSPropertyOp5
 70
     0
102
RTVSPropertyOp6
 70
     0
102
RTVSPropertyOp7
 70
     0
102
RTVSPropertyOp8
 70
     0
102
RTVSPropertyOp9
 70
     0
102
RTVSPropertyOp10
 70
     0
102
RTVSPropertyOp11
 70
     0
102
RTVSPropertyOp12
 70
     0
102
RTVSPropertyOp13
 70
     0
102
RTVSPropertyOp14
 70
     2
102
RTVSPropertyOp15
 70
     0
102
RTVSPropertyOp16
 70
     0
102
RTVSPropertyOp17
 70
     0
102
RTVSPropertyOp18
 70
     0
102
RTVSPropertyOp19
 70
     0
102
RTVSPropertyOp20
 70
     0
102
RTVSPropertyOp21
 70
     0
102
RTVSPropertyOp22
 70
     0
102
RTVSPropertyOp23
 70
     0
102
RTVSPropertyOp24
 70
     0
102
RTVSPropertyOp25
 70
     0
102
RTVSPropertyOp26
 70
     0
102
RTVSPropertyOp27
 70
     0
102
RTVSPropertyOp28
 70
     0
102
RTVSPropertyOp29
 70
     0
102
RTVSPropertyOp30
 70
     0
102
RTVSPropertyOp31
 70
     0
102
RTVSPropertyOp32
 70
     0
102
RTVSPropertyOp33
 70
     0
102
RTVSPropertyOp34
 70
     0
102
RTVSPropertyOp35
 70
     0
102
RTVSPropertyOp36
 70
     0
102
RTVSPropertyOp37
 70
     0
102
RTVSPropertyOp38
 70
     0
102
RTVSPropertyOp39
 70
     0
102
RTVSPropertyOp40
 70
     0
102
RTVSPropertyOp41
 70
     0
102
RTVSPropertyOp42
 70
     0
102
RTVSPropertyOp43
 70
     0
102
RTVSPropertyOp44
 70
     0
102
RTVSPropertyOp45
 70
     0
102
RTVSPropertyOp46
 70
     0
102
RTVSPropertyOp47
 70
     0
102
RTVSPropertyOp48
 70
     0
102
RTVSPropertyOp49
 70
     0
102
RTVSPropertyOp50
 70
     0
102
RTVSPropertyOp51
 70
     0
102
RTVSPropertyOp52
 70
     0
102
RTVSPropertyOp53
 70
     0
102
RTVSPropertyOp54
 70
     0
102
RTVSPropertyOp55
 70
     0
102
RTVSPropertyOp56
 70
     0
102
RTVSPropertyOp57
 70
     0
102
RTVSPost2010Prop28
280
     0
102
RTVSPost2010PropOp28
 70
     0
102
RTVSPost2010Prop29
280
     1
102
RTVSPost2010PropOp29
 70
     0
102
RTVSPost2010Prop30
280
     1
102
RTVSPost2010PropOp30
 70
     0
102
RTVSPost2010Prop31
280
     0
102
RTVSPost2010PropOp31
 70
     0
102
RTVSPost2010Prop32
280
     0
102
RTVSPost2010PropOp32
 70
     0
102
RTVSPost2010Prop33
280
     0
102
RTVSPost2010PropOp33
 70
     0
102
RTVSPost2010Prop34
280
     0
102
RTVSPost2010PropOp34
 70
     0
102
RTVSPost2010Prop35
280
     0
102
RTVSPost2010PropOp35
 70
     0
102
RTVSPost2010Prop36
280
     0
102
RTVSPost2010PropOp36
 70
     0
102
RTVSPost2010Prop37
 90
       50
102
RTVSPost2010PropOp37
 70
     0
102
RTVSPost2010Prop38
140
0.0
102
RTVSPost2010PropOp38
 70
     0
102
RTVSPost2010Prop39
140
1.0
102
RTVSPost2010PropOp39
 70
     0
102
RTVSPost2010Prop40
 90
        0
102
RTVSPost2010PropOp40
 70
     0
102
RTVSPost2010Prop41ColorIndex
 90
       18
102
RTVSPost2010Prop41ColorRGB
 90
        0
102
RTVSPost2010PropOp41
 70
     0
102
RTVSPost2010Prop42
 90
       50
102
RTVSPost2010PropOp42
 70
     0
102
RTVSPost2010Prop43
 90
        3
102
RTVSPost2010PropOp43
 70
     0
102
RTVSPost2010Prop44ColorIndex
 90
        5
102
RTVSPost2010Prop44ColorRGB
 90
      255
102
RTVSPost2010PropOp44
 70
     0
102
RTVSPost2010Prop45
280
     0
102
RTVSPost2010PropOp45
 70
     0
102
RTVSPost2010Prop46
 90
       50
102
RTVSPost2010PropOp46
 70
     0
102
RTVSPost2010Prop47
 90
       50
102
RTVSPost2010PropOp47
 70
     0
102
RTVSPost2010Prop48
 90
       50
102
RTVSPost2010PropOp48
 70
     0
102
RTVSPost2010Prop49
280
     0
102
RTVSPost2010PropOp49
 70
     0
102
RTVSPost2010Prop50
 90
       50
102
RTVSPost2010PropOp50
 70
     0
102
RTVSPost2010Prop51ColorIndex
 90
      256
102
RTVSPost2010Prop51ColorRGB
 90
-16777216
102
RTVSPost2010PropOp51
 70
     0
102
RTVSPost2010Prop52
140
1.0
102
RTVSPost2010PropOp52
 70
     0
102
RTVSPost2010Prop53
 90
        2
102
RTVSPost2010PropOp53
 70
     0
102
RTVSPost2010Prop54
  1
strokes_ogs.tif
102
RTVSPost2010PropOp54
 70
     0
102
RTVSPost2010Prop55
280
     0
102
RTVSPost2010PropOp55
 70
     0
102
RTVSPost2010Prop56
140
1.0
102
RTVSPost2010PropOp56
 70
     0
102
RTVSPost2010Prop57
140
1.0
102
RTVSPost2010PropOp57
 70
     0
  0
XRECORD
  5
34D
102
{ACAD_REACTORS
330
34C
102
}
330
34C
100
AcDbXrecord
280
     1
102
RTVSPropertyOp0
 70
     1
102
RTVSPropertyOp1
 70
     1
102
RTVSPropertyOp2
 70
     1
102
RTVSPropertyOp3
 70
     1
102
RTVSPropertyOp4
 70
     1
102
RTVSPropertyOp5
 70
     1
102
RTVSPropertyOp6
 70
     1
102
RTVSPropertyOp7
 70
     1
102
RTVSPropertyOp8
 70
     1
102
RTVSPropertyOp9
 70
     1
102
RTVSPropertyOp10
 70
     1
102
RTVSPropertyOp11
 70
     1
102
RTVSPropertyOp12
 70
     1
102
RTVSPropertyOp13
 70
     1
102
RTVSPropertyOp14
 70
     1
102
RTVSPropertyOp15
 70
     1
102
RTVSPropertyOp16
 70
     1
102
RTVSPropertyOp17
 70
     1
102
RTVSPropertyOp18
 70
     1
102
RTVSPropertyOp19
 70
     1
102
RTVSPropertyOp20
 70
     1
102
RTVSPropertyOp21
 70
     1
102
RTVSPropertyOp22
 70
     1
102
RTVSPropertyOp23
 70
     1
102
RTVSPropertyOp24
 70
     1
102
RTVSPropertyOp25
 70
     1
102
RTVSPropertyOp26
 70
     1
102
RTVSPropertyOp27
 70
     1
102
RTVSPropertyOp28
 70
     1
102
RTVSPropertyOp29
 70
     1
102
RTVSPropertyOp30
 70
     1
102
RTVSPropertyOp31
 70
     1
102
RTVSPropertyOp32
 70
     1
102
RTVSPropertyOp33
 70
     1
102
RTVSPropertyOp34
 70
     1
102
RTVSPropertyOp35
 70
     1
102
RTVSPropertyOp36
 70
     1
102
RTVSPropertyOp37
 70
     1
102
RTVSPropertyOp38
 70
     1
102
RTVSPropertyOp39
 70
     1
102
RTVSPropertyOp40
 70
     1
102
RTVSPropertyOp41
 70
     1
102
RTVSPropertyOp42
 70
     1
102
RTVSPropertyOp43
 70
     1
102
RTVSPropertyOp44
 70
     1
102
RTVSPropertyOp45
 70
     1
102
RTVSPropertyOp46
 70
     1
102
RTVSPropertyOp47
 70
     1
102
RTVSPropertyOp48
 70
     1
102
RTVSPropertyOp49
 70
     1
102
RTVSPropertyOp50
 70
     1
102
RTVSPropertyOp51
 70
     0
102
RTVSPropertyOp52
 70
     0
102
RTVSPropertyOp53
 70
     1
102
RTVSPropertyOp54
 70
     1
102
RTVSPropertyOp55
 70
     1
102
RTVSPropertyOp56
 70
     1
102
RTVSPropertyOp57
 70
     1
102
RTVSPost2010Prop28
280
     0
102
RTVSPost2010PropOp28
 70
     1
102
RTVSPost2010Prop29
280
     1
102
RTVSPost2010PropOp29
 70
     1
102
RTVSPost2010Prop30
280
     1
102
RTVSPost2010PropOp30
 70
     1
102
RTVSPost2010Prop31
280
     0
102
RTVSPost2010PropOp31
 70
     1
102
RTVSPost2010Prop32
280
     0
102
RTVSPost2010PropOp32
 70
     1
102
RTVSPost2010Prop33
280
     0
102
RTVSPost2010PropOp33
 70
     1
102
RTVSPost2010Prop34
280
     0
102
RTVSPost2010PropOp34
 70
     1
102
RTVSPost2010Prop35
280
     0
102
RTVSPost2010PropOp35
 70
     1
102
RTVSPost2010Prop36
280
     0
102
RTVSPost2010PropOp36
 70
     1
102
RTVSPost2010Prop37
 90
       50
102
RTVSPost2010PropOp37
 70
     1
102
RTVSPost2010Prop38
140
0.0
102
RTVSPost2010PropOp38
 70
     1
102
RTVSPost2010Prop39
140
1.0
102
RTVSPost2010PropOp39
 70
     1
102
RTVSPost2010Prop40
 90
        0
102
RTVSPost2010PropOp40
 70
     1
102
RTVSPost2010Prop41ColorIndex
 90
       18
102
RTVSPost2010Prop41ColorRGB
 90
        0
102
RTVSPost2010PropOp41
 70
     1
102
RTVSPost2010Prop42
 90
       50
102
RTVSPost2010PropOp42
 70
     1
102
RTVSPost2010Prop43
 90
        3
102
RTVSPost2010PropOp43
 70
     1
102
RTVSPost2010Prop44ColorIndex
 90
        5
102
RTVSPost2010Prop44ColorRGB
 90
      255
102
RTVSPost2010PropOp44
 70
     1
102
RTVSPost2010Prop45
280
     0
102
RTVSPost2010PropOp45
 70
     1
102
RTVSPost2010Prop46
 90
       50
102
RTVSPost2010PropOp46
 70
     1
102
RTVSPost2010Prop47
 90
       50
102
RTVSPost2010PropOp47
 70
     1
102
RTVSPost2010Prop48
 90
       50
102
RTVSPost2010PropOp48
 70
     1
102
RTVSPost2010Prop49
280
     0
102
RTVSPost2010PropOp49
 70
     1
102
RTVSPost2010Prop50
 90
       50
102
RTVSPost2010PropOp50
 70
     1
102
RTVSPost2010Prop51ColorIndex
 90
      256
102
RTVSPost2010Prop51ColorRGB
 90
-16777216
102
RTVSPost2010PropOp51
 70
     0
102
RTVSPost2010Prop52
140
1.0
102
RTVSPost2010PropOp52
 70
     0
102
RTVSPost2010Prop53
 90
        2
102
RTVSPost2010PropOp53
 70
     1
102
RTVSPost2010Prop54
  1
strokes_ogs.tif
102
RTVSPost2010PropOp54
 70
     1
102
RTVSPost2010Prop55
280
     0
102
RTVSPost2010PropOp55
 70
     1
102
RTVSPost2010Prop56
140
1.0
102
RTVSPost2010PropOp56
 70
     1
102
RTVSPost2010Prop57
140
1.0
102
RTVSPost2010PropOp57
 70
     1
  0
XRECORD
  5
331
102
{ACAD_REACTORS
330
330
102
}
330
330
100
AcDbXrecord
280
     1
102
RTVSPropertyOp0
 70
     1
102
RTVSPropertyOp1
 70
     1
102
RTVSPropertyOp2
 70
     1
102
RTVSPropertyOp3
 70
     1
102
RTVSPropertyOp4
 70
     1
102
RTVSPropertyOp5
 70
     1
102
RTVSPropertyOp6
 70
     1
102
RTVSPropertyOp7
 70
     1
102
RTVSPropertyOp8
 70
     1
102
RTVSPropertyOp9
 70
     1
102
RTVSPropertyOp10
 70
     1
102
RTVSPropertyOp11
 70
     1
102
RTVSPropertyOp12
 70
     1
102
RTVSPropertyOp13
 70
     1
102
RTVSPropertyOp14
 70
     1
102
RTVSPropertyOp15
 70
     1
102
RTVSPropertyOp16
 70
     1
102
RTVSPropertyOp17
 70
     1
102
RTVSPropertyOp18
 70
     1
102
RTVSPropertyOp19
 70
     1
102
RTVSPropertyOp20
 70
     1
102
RTVSPropertyOp21
 70
     1
102
RTVSPropertyOp22
 70
     1
102
RTVSPropertyOp23
 70
     1
102
RTVSPropertyOp24
 70
     1
102
RTVSPropertyOp25
 70
     1
102
RTVSPropertyOp26
 70
     1
102
RTVSPropertyOp27
 70
     1
102
RTVSPropertyOp28
 70
     1
102
RTVSPropertyOp29
 70
     1
102
RTVSPropertyOp30
 70
     1
102
RTVSPropertyOp31
 70
     1
102
RTVSPropertyOp32
 70
     1
102
RTVSPropertyOp33
 70
     1
102
RTVSPropertyOp34
 70
     1
102
RTVSPropertyOp35
 70
     1
102
RTVSPropertyOp36
 70
     1
102
RTVSPropertyOp37
 70
     1
102
RTVSPropertyOp38
 70
     1
102
RTVSPropertyOp39
 70
     1
102
RTVSPropertyOp40
 70
     1
102
RTVSPropertyOp41
 70
     1
102
RTVSPropertyOp42
 70
     1
102
RTVSPropertyOp43
 70
     1
102
RTVSPropertyOp44
 70
     1
102
RTVSPropertyOp45
 70
     1
102
RTVSPropertyOp46
 70
     1
102
RTVSPropertyOp47
 70
     1
102
RTVSPropertyOp48
 70
     1
102
RTVSPropertyOp49
 70
     1
102
RTVSPropertyOp50
 70
     1
102
RTVSPropertyOp51
 70
     0
102
RTVSPropertyOp52
 70
     0
102
RTVSPropertyOp53
 70
     1
102
RTVSPropertyOp54
 70
     1
102
RTVSPropertyOp55
 70
     1
102
RTVSPropertyOp56
 70
     1
102
RTVSPropertyOp57
 70
     1
102
RTVSPost2010Prop28
280
     0
102
RTVSPost2010PropOp28
 70
     1
102
RTVSPost2010Prop29
280
     1
102
RTVSPost2010PropOp29
 70
     1
102
RTVSPost2010Prop30
280
     1
102
RTVSPost2010PropOp30
 70
     1
102
RTVSPost2010Prop31
280
     0
102
RTVSPost2010PropOp31
 70
     1
102
RTVSPost2010Prop32
280
     0
102
RTVSPost2010PropOp32
 70
     1
102
RTVSPost2010Prop33
280
     0
102
RTVSPost2010PropOp33
 70
     1
102
RTVSPost2010Prop34
280
     0
102
RTVSPost2010PropOp34
 70
     1
102
RTVSPost2010Prop35
280
     0
102
RTVSPost2010PropOp35
 70
     1
102
RTVSPost2010Prop36
280
     0
102
RTVSPost2010PropOp36
 70
     1
102
RTVSPost2010Prop37
 90
       50
102
RTVSPost2010PropOp37
 70
     1
102
RTVSPost2010Prop38
140
0.0
102
RTVSPost2010PropOp38
 70
     1
102
RTVSPost2010Prop39
140
1.0
102
RTVSPost2010PropOp39
 70
     1
102
RTVSPost2010Prop40
 90
        0
102
RTVSPost2010PropOp40
 70
     1
102
RTVSPost2010Prop41ColorIndex
 90
       18
102
RTVSPost2010Prop41ColorRGB
 90
        0
102
RTVSPost2010PropOp41
 70
     1
102
RTVSPost2010Prop42
 90
       50
102
RTVSPost2010PropOp42
 70
     1
102
RTVSPost2010Prop43
 90
        3
102
RTVSPost2010PropOp43
 70
     1
102
RTVSPost2010Prop44ColorIndex
 90
        5
102
RTVSPost2010Prop44ColorRGB
 90
      255
102
RTVSPost2010PropOp44
 70
     1
102
RTVSPost2010Prop45
280
     0
102
RTVSPost2010PropOp45
 70
     1
102
RTVSPost2010Prop46
 90
       50
102
RTVSPost2010PropOp46
 70
     1
102
RTVSPost2010Prop47
 90
       50
102
RTVSPost2010PropOp47
 70
     1
102
RTVSPost2010Prop48
 90
       50
102
RTVSPost2010PropOp48
 70
     1
102
RTVSPost2010Prop49
280
     0
102
RTVSPost2010PropOp49
 70
     1
102
RTVSPost2010Prop50
 90
       50
102
RTVSPost2010PropOp50
 70
     1
102
RTVSPost2010Prop51ColorIndex
 90
      256
102
RTVSPost2010Prop51ColorRGB
 90
-16777216
102
RTVSPost2010PropOp51
 70
     0
102
RTVSPost2010Prop52
140
1.0
102
RTVSPost2010PropOp52
 70
     0
102
RTVSPost2010Prop53
 90
        2
102
RTVSPost2010PropOp53
 70
     1
102
RTVSPost2010Prop54
  1
strokes_ogs.tif
102
RTVSPost2010PropOp54
 70
     1
102
RTVSPost2010Prop55
280
     0
102
RTVSPost2010PropOp55
 70
     1
102
RTVSPost2010Prop56
140
1.0
102
RTVSPost2010PropOp56
 70
     1
102
RTVSPost2010Prop57
140
1.0
102
RTVSPost2010PropOp57
 70
     1
  0
XRECORD
  5
333
102
{ACAD_REACTORS
330
332
102
}
330
332
100
AcDbXrecord
280
     1
102
RTVSPropertyOp0
 70
     1
102
RTVSPropertyOp1
 70
     1
102
RTVSPropertyOp2
 70
     1
102
RTVSPropertyOp3
 70
     1
102
RTVSPropertyOp4
 70
     1
102
RTVSPropertyOp5
 70
     1
102
RTVSPropertyOp6
 70
     1
102
RTVSPropertyOp7
 70
     1
102
RTVSPropertyOp8
 70
     1
102
RTVSPropertyOp9
 70
     1
102
RTVSPropertyOp10
 70
     1
102
RTVSPropertyOp11
 70
     1
102
RTVSPropertyOp12
 70
     1
102
RTVSPropertyOp13
 70
     1
102
RTVSPropertyOp14
 70
     1
102
RTVSPropertyOp15
 70
     1
102
RTVSPropertyOp16
 70
     1
102
RTVSPropertyOp17
 70
     1
102
RTVSPropertyOp18
 70
     1
102
RTVSPropertyOp19
 70
     1
102
RTVSPropertyOp20
 70
     1
102
RTVSPropertyOp21
 70
     1
102
RTVSPropertyOp22
 70
     1
102
RTVSPropertyOp23
 70
     1
102
RTVSPropertyOp24
 70
     1
102
RTVSPropertyOp25
 70
     1
102
RTVSPropertyOp26
 70
     1
102
RTVSPropertyOp27
 70
     1
102
RTVSPropertyOp28
 70
     1
102
RTVSPropertyOp29
 70
     1
102
RTVSPropertyOp30
 70
     1
102
RTVSPropertyOp31
 70
     1
102
RTVSPropertyOp32
 70
     1
102
RTVSPropertyOp33
 70
     1
102
RTVSPropertyOp34
 70
     1
102
RTVSPropertyOp35
 70
     1
102
RTVSPropertyOp36
 70
     1
102
RTVSPropertyOp37
 70
     1
102
RTVSPropertyOp38
 70
     1
102
RTVSPropertyOp39
 70
     1
102
RTVSPropertyOp40
 70
     1
102
RTVSPropertyOp41
 70
     1
102
RTVSPropertyOp42
 70
     1
102
RTVSPropertyOp43
 70
     1
102
RTVSPropertyOp44
 70
     1
102
RTVSPropertyOp45
 70
     1
102
RTVSPropertyOp46
 70
     1
102
RTVSPropertyOp47
 70
     1
102
RTVSPropertyOp48
 70
     1
102
RTVSPropertyOp49
 70
     1
102
RTVSPropertyOp50
 70
     1
102
RTVSPropertyOp51
 70
     0
102
RTVSPropertyOp52
 70
     0
102
RTVSPropertyOp53
 70
     1
102
RTVSPropertyOp54
 70
     1
102
RTVSPropertyOp55
 70
     1
102
RTVSPropertyOp56
 70
     1
102
RTVSPropertyOp57
 70
     1
102
RTVSPost2010Prop28
280
     0
102
RTVSPost2010PropOp28
 70
     1
102
RTVSPost2010Prop29
280
     1
102
RTVSPost2010PropOp29
 70
     1
102
RTVSPost2010Prop30
280
     1
102
RTVSPost2010PropOp30
 70
     1
102
RTVSPost2010Prop31
280
     0
102
RTVSPost2010PropOp31
 70
     1
102
RTVSPost2010Prop32
280
     0
102
RTVSPost2010PropOp32
 70
     1
102
RTVSPost2010Prop33
280
     0
102
RTVSPost2010PropOp33
 70
     1
102
RTVSPost2010Prop34
280
     0
102
RTVSPost2010PropOp34
 70
     1
102
RTVSPost2010Prop35
280
     0
102
RTVSPost2010PropOp35
 70
     1
102
RTVSPost2010Prop36
280
     0
102
RTVSPost2010PropOp36
 70
     1
102
RTVSPost2010Prop37
 90
       50
102
RTVSPost2010PropOp37
 70
     1
102
RTVSPost2010Prop38
140
0.0
102
RTVSPost2010PropOp38
 70
     1
102
RTVSPost2010Prop39
140
1.0
102
RTVSPost2010PropOp39
 70
     1
102
RTVSPost2010Prop40
 90
        0
102
RTVSPost2010PropOp40
 70
     1
102
RTVSPost2010Prop41ColorIndex
 90
       18
102
RTVSPost2010Prop41ColorRGB
 90
        0
102
RTVSPost2010PropOp41
 70
     1
102
RTVSPost2010Prop42
 90
       50
102
RTVSPost2010PropOp42
 70
     1
102
RTVSPost2010Prop43
 90
        3
102
RTVSPost2010PropOp43
 70
     1
102
RTVSPost2010Prop44ColorIndex
 90
        5
102
RTVSPost2010Prop44ColorRGB
 90
      255
102
RTVSPost2010PropOp44
 70
     1
102
RTVSPost2010Prop45
280
     0
102
RTVSPost2010PropOp45
 70
     1
102
RTVSPost2010Prop46
 90
       50
102
RTVSPost2010PropOp46
 70
     1
102
RTVSPost2010Prop47
 90
       50
102
RTVSPost2010PropOp47
 70
     1
102
RTVSPost2010Prop48
 90
       50
102
RTVSPost2010PropOp48
 70
     1
102
RTVSPost2010Prop49
280
     0
102
RTVSPost2010PropOp49
 70
     1
102
RTVSPost2010Prop50
 90
       50
102
RTVSPost2010PropOp50
 70
     1
102
RTVSPost2010Prop51ColorIndex
 90
      256
102
RTVSPost2010Prop51ColorRGB
 90
-16777216
102
RTVSPost2010PropOp51
 70
     0
102
RTVSPost2010Prop52
140
1.0
102
RTVSPost2010PropOp52
 70
     0
102
RTVSPost2010Prop53
 90
        2
102
RTVSPost2010PropOp53
 70
     1
102
RTVSPost2010Prop54
  1
strokes_ogs.tif
102
RTVSPost2010PropOp54
 70
     1
102
RTVSPost2010Prop55
280
     0
102
RTVSPost2010PropOp55
 70
     1
102
RTVSPost2010Prop56
140
1.0
102
RTVSPost2010PropOp56
 70
     1
102
RTVSPost2010Prop57
140
1.0
102
RTVSPost2010PropOp57
 70
     1
  0
XRECORD
  5
335
102
{ACAD_REACTORS
330
334
102
}
330
334
100
AcDbXrecord
280
     1
102
RTVSPropertyOp0
 70
     1
102
RTVSPropertyOp1
 70
     1
102
RTVSPropertyOp2
 70
     1
102
RTVSPropertyOp3
 70
     1
102
RTVSPropertyOp4
 70
     1
102
RTVSPropertyOp5
 70
     1
102
RTVSPropertyOp6
 70
     1
102
RTVSPropertyOp7
 70
     1
102
RTVSPropertyOp8
 70
     1
102
RTVSPropertyOp9
 70
     1
102
RTVSPropertyOp10
 70
     1
102
RTVSPropertyOp11
 70
     1
102
RTVSPropertyOp12
 70
     1
102
RTVSPropertyOp13
 70
     1
102
RTVSPropertyOp14
 70
     1
102
RTVSPropertyOp15
 70
     1
102
RTVSPropertyOp16
 70
     1
102
RTVSPropertyOp17
 70
     1
102
RTVSPropertyOp18
 70
     1
102
RTVSPropertyOp19
 70
     1
102
RTVSPropertyOp20
 70
     1
102
RTVSPropertyOp21
 70
     1
102
RTVSPropertyOp22
 70
     1
102
RTVSPropertyOp23
 70
     1
102
RTVSPropertyOp24
 70
     1
102
RTVSPropertyOp25
 70
     1
102
RTVSPropertyOp26
 70
     1
102
RTVSPropertyOp27
 70
     1
102
RTVSPropertyOp28
 70
     1
102
RTVSPropertyOp29
 70
     1
102
RTVSPropertyOp30
 70
     1
102
RTVSPropertyOp31
 70
     1
102
RTVSPropertyOp32
 70
     1
102
RTVSPropertyOp33
 70
     1
102
RTVSPropertyOp34
 70
     1
102
RTVSPropertyOp35
 70
     1
102
RTVSPropertyOp36
 70
     1
102
RTVSPropertyOp37
 70
     1
102
RTVSPropertyOp38
 70
     1
102
RTVSPropertyOp39
 70
     1
102
RTVSPropertyOp40
 70
     1
102
RTVSPropertyOp41
 70
     1
102
RTVSPropertyOp42
 70
     1
102
RTVSPropertyOp43
 70
     1
102
RTVSPropertyOp44
 70
     1
102
RTVSPropertyOp45
 70
     1
102
RTVSPropertyOp46
 70
     1
102
RTVSPropertyOp47
 70
     1
102
RTVSPropertyOp48
 70
     1
102
RTVSPropertyOp49
 70
     1
102
RTVSPropertyOp50
 70
     1
102
RTVSPropertyOp51
 70
     0
102
RTVSPropertyOp52
 70
     0
102
RTVSPropertyOp53
 70
     1
102
RTVSPropertyOp54
 70
     1
102
RTVSPropertyOp55
 70
     1
102
RTVSPropertyOp56
 70
     1
102
RTVSPropertyOp57
 70
     1
102
RTVSPost2010Prop28
280
     0
102
RTVSPost2010PropOp28
 70
     1
102
RTVSPost2010Prop29
280
     1
102
RTVSPost2010PropOp29
 70
     1
102
RTVSPost2010Prop30
280
     1
102
RTVSPost2010PropOp30
 70
     1
102
RTVSPost2010Prop31
280
     0
102
RTVSPost2010PropOp31
 70
     1
102
RTVSPost2010Prop32
280
     0
102
RTVSPost2010PropOp32
 70
     1
102
RTVSPost2010Prop33
280
     0
102
RTVSPost2010PropOp33
 70
     1
102
RTVSPost2010Prop34
280
     0
102
RTVSPost2010PropOp34
 70
     1
102
RTVSPost2010Prop35
280
     0
102
RTVSPost2010PropOp35
 70
     1
102
RTVSPost2010Prop36
280
     0
102
RTVSPost2010PropOp36
 70
     1
102
RTVSPost2010Prop37
 90
       50
102
RTVSPost2010PropOp37
 70
     1
102
RTVSPost2010Prop38
140
0.0
102
RTVSPost2010PropOp38
 70
     1
102
RTVSPost2010Prop39
140
1.0
102
RTVSPost2010PropOp39
 70
     1
102
RTVSPost2010Prop40
 90
        0
102
RTVSPost2010PropOp40
 70
     1
102
RTVSPost2010Prop41ColorIndex
 90
       18
102
RTVSPost2010Prop41ColorRGB
 90
        0
102
RTVSPost2010PropOp41
 70
     1
102
RTVSPost2010Prop42
 90
       50
102
RTVSPost2010PropOp42
 70
     1
102
RTVSPost2010Prop43
 90
        3
102
RTVSPost2010PropOp43
 70
     1
102
RTVSPost2010Prop44ColorIndex
 90
        5
102
RTVSPost2010Prop44ColorRGB
 90
      255
102
RTVSPost2010PropOp44
 70
     1
102
RTVSPost2010Prop45
280
     0
102
RTVSPost2010PropOp45
 70
     1
102
RTVSPost2010Prop46
 90
       50
102
RTVSPost2010PropOp46
 70
     1
102
RTVSPost2010Prop47
 90
       50
102
RTVSPost2010PropOp47
 70
     1
102
RTVSPost2010Prop48
 90
       50
102
RTVSPost2010PropOp48
 70
     1
102
RTVSPost2010Prop49
280
     0
102
RTVSPost2010PropOp49
 70
     1
102
RTVSPost2010Prop50
 90
       50
102
RTVSPost2010PropOp50
 70
     1
102
RTVSPost2010Prop51ColorIndex
 90
      256
102
RTVSPost2010Prop51ColorRGB
 90
-16777216
102
RTVSPost2010PropOp51
 70
     0
102
RTVSPost2010Prop52
140
1.0
102
RTVSPost2010PropOp52
 70
     0
102
RTVSPost2010Prop53
 90
        2
102
RTVSPost2010PropOp53
 70
     1
102
RTVSPost2010Prop54
  1
strokes_ogs.tif
102
RTVSPost2010PropOp54
 70
     1
102
RTVSPost2010Prop55
280
     0
102
RTVSPost2010PropOp55
 70
     1
102
RTVSPost2010Prop56
140
1.0
102
RTVSPost2010PropOp56
 70
     1
102
RTVSPost2010Prop57
140
1.0
102
RTVSPost2010PropOp57
 70
     1
  0
XRECORD
  5
337
102
{ACAD_REACTORS
330
336
102
}
330
336
100
AcDbXrecord
280
     1
102
RTVSPropertyOp0
 70
     1
102
RTVSPropertyOp1
 70
     1
102
RTVSPropertyOp2
 70
     1
102
RTVSPropertyOp3
 70
     1
102
RTVSPropertyOp4
 70
     1
102
RTVSPropertyOp5
 70
     1
102
RTVSPropertyOp6
 70
     1
102
RTVSPropertyOp7
 70
     1
102
RTVSPropertyOp8
 70
     1
102
RTVSPropertyOp9
 70
     1
102
RTVSPropertyOp10
 70
     1
102
RTVSPropertyOp11
 70
     1
102
RTVSPropertyOp12
 70
     1
102
RTVSPropertyOp13
 70
     1
102
RTVSPropertyOp14
 70
     1
102
RTVSPropertyOp15
 70
     1
102
RTVSPropertyOp16
 70
     1
102
RTVSPropertyOp17
 70
     1
102
RTVSPropertyOp18
 70
     1
102
RTVSPropertyOp19
 70
     1
102
RTVSPropertyOp20
 70
     1
102
RTVSPropertyOp21
 70
     1
102
RTVSPropertyOp22
 70
     1
102
RTVSPropertyOp23
 70
     1
102
RTVSPropertyOp24
 70
     1
102
RTVSPropertyOp25
 70
     1
102
RTVSPropertyOp26
 70
     1
102
RTVSPropertyOp27
 70
     1
102
RTVSPropertyOp28
 70
     1
102
RTVSPropertyOp29
 70
     1
102
RTVSPropertyOp30
 70
     1
102
RTVSPropertyOp31
 70
     1
102
RTVSPropertyOp32
 70
     1
102
RTVSPropertyOp33
 70
     1
102
RTVSPropertyOp34
 70
     1
102
RTVSPropertyOp35
 70
     1
102
RTVSPropertyOp36
 70
     1
102
RTVSPropertyOp37
 70
     1
102
RTVSPropertyOp38
 70
     1
102
RTVSPropertyOp39
 70
     1
102
RTVSPropertyOp40
 70
     1
102
RTVSPropertyOp41
 70
     1
102
RTVSPropertyOp42
 70
     1
102
RTVSPropertyOp43
 70
     1
102
RTVSPropertyOp44
 70
     1
102
RTVSPropertyOp45
 70
     1
102
RTVSPropertyOp46
 70
     1
102
RTVSPropertyOp47
 70
     1
102
RTVSPropertyOp48
 70
     1
102
RTVSPropertyOp49
 70
     1
102
RTVSPropertyOp50
 70
     1
102
RTVSPropertyOp51
 70
     0
102
RTVSPropertyOp52
 70
     0
102
RTVSPropertyOp53
 70
     1
102
RTVSPropertyOp54
 70
     1
102
RTVSPropertyOp55
 70
     1
102
RTVSPropertyOp56
 70
     1
102
RTVSPropertyOp57
 70
     1
102
RTVSPost2010Prop28
280
     0
102
RTVSPost2010PropOp28
 70
     1
102
RTVSPost2010Prop29
280
     1
102
RTVSPost2010PropOp29
 70
     1
102
RTVSPost2010Prop30
280
     1
102
RTVSPost2010PropOp30
 70
     1
102
RTVSPost2010Prop31
280
     0
102
RTVSPost2010PropOp31
 70
     1
102
RTVSPost2010Prop32
280
     0
102
RTVSPost2010PropOp32
 70
     1
102
RTVSPost2010Prop33
280
     0
102
RTVSPost2010PropOp33
 70
     1
102
RTVSPost2010Prop34
280
     0
102
RTVSPost2010PropOp34
 70
     1
102
RTVSPost2010Prop35
280
     0
102
RTVSPost2010PropOp35
 70
     1
102
RTVSPost2010Prop36
280
     0
102
RTVSPost2010PropOp36
 70
     1
102
RTVSPost2010Prop37
 90
       50
102
RTVSPost2010PropOp37
 70
     1
102
RTVSPost2010Prop38
140
0.0
102
RTVSPost2010PropOp38
 70
     1
102
RTVSPost2010Prop39
140
1.0
102
RTVSPost2010PropOp39
 70
     1
102
RTVSPost2010Prop40
 90
        0
102
RTVSPost2010PropOp40
 70
     1
102
RTVSPost2010Prop41ColorIndex
 90
       18
102
RTVSPost2010Prop41ColorRGB
 90
        0
102
RTVSPost2010PropOp41
 70
     1
102
RTVSPost2010Prop42
 90
       50
102
RTVSPost2010PropOp42
 70
     1
102
RTVSPost2010Prop43
 90
        3
102
RTVSPost2010PropOp43
 70
     1
102
RTVSPost2010Prop44ColorIndex
 90
        5
102
RTVSPost2010Prop44ColorRGB
 90
      255
102
RTVSPost2010PropOp44
 70
     1
102
RTVSPost2010Prop45
280
     0
102
RTVSPost2010PropOp45
 70
     1
102
RTVSPost2010Prop46
 90
       50
102
RTVSPost2010PropOp46
 70
     1
102
RTVSPost2010Prop47
 90
       50
102
RTVSPost2010PropOp47
 70
     1
102
RTVSPost2010Prop48
 90
       50
102
RTVSPost2010PropOp48
 70
     1
102
RTVSPost2010Prop49
280
     0
102
RTVSPost2010PropOp49
 70
     1
102
RTVSPost2010Prop50
 90
       50
102
RTVSPost2010PropOp50
 70
     1
102
RTVSPost2010Prop51ColorIndex
 90
      256
102
RTVSPost2010Prop51ColorRGB
 90
-16777216
102
RTVSPost2010PropOp51
 70
     0
102
RTVSPost2010Prop52
140
1.0
102
RTVSPost2010PropOp52
 70
     0
102
RTVSPost2010Prop53
 90
        2
102
RTVSPost2010PropOp53
 70
     1
102
RTVSPost2010Prop54
  1
strokes_ogs.tif
102
RTVSPost2010PropOp54
 70
     1
102
RTVSPost2010Prop55
280
     0
102
RTVSPost2010PropOp55
 70
     1
102
RTVSPost2010Prop56
140
1.0
102
RTVSPost2010PropOp56
 70
     1
102
RTVSPost2010Prop57
140
1.0
102
RTVSPost2010PropOp57
 70
     1
  0
XRECORD
  5
33D
102
{ACAD_REACTORS
330
33C
102
}
330
33C
100
AcDbXrecord
280
     1
102
RTVSPropertyOp0
 70
     1
102
RTVSPropertyOp1
 70
     1
102
RTVSPropertyOp2
 70
     1
102
RTVSPropertyOp3
 70
     1
102
RTVSPropertyOp4
 70
     1
102
RTVSPropertyOp5
 70
     1
102
RTVSPropertyOp6
 70
     1
102
RTVSPropertyOp7
 70
     1
102
RTVSPropertyOp8
 70
     1
102
RTVSPropertyOp9
 70
     1
102
RTVSPropertyOp10
 70
     1
102
RTVSPropertyOp11
 70
     1
102
RTVSPropertyOp12
 70
     1
102
RTVSPropertyOp13
 70
     1
102
RTVSPropertyOp14
 70
     1
102
RTVSPropertyOp15
 70
     1
102
RTVSPropertyOp16
 70
     1
102
RTVSPropertyOp17
 70
     1
102
RTVSPropertyOp18
 70
     1
102
RTVSPropertyOp19
 70
     1
102
RTVSPropertyOp20
 70
     1
102
RTVSPropertyOp21
 70
     1
102
RTVSPropertyOp22
 70
     1
102
RTVSPropertyOp23
 70
     1
102
RTVSPropertyOp24
 70
     1
102
RTVSPropertyOp25
 70
     1
102
RTVSPropertyOp26
 70
     1
102
RTVSPropertyOp27
 70
     1
102
RTVSPropertyOp28
 70
     1
102
RTVSPropertyOp29
 70
     1
102
RTVSPropertyOp30
 70
     1
102
RTVSPropertyOp31
 70
     1
102
RTVSPropertyOp32
 70
     1
102
RTVSPropertyOp33
 70
     1
102
RTVSPropertyOp34
 70
     1
102
RTVSPropertyOp35
 70
     1
102
RTVSPropertyOp36
 70
     1
102
RTVSPropertyOp37
 70
     1
102
RTVSPropertyOp38
 70
     1
102
RTVSPropertyOp39
 70
     1
102
RTVSPropertyOp40
 70
     1
102
RTVSPropertyOp41
 70
     1
102
RTVSPropertyOp42
 70
     1
102
RTVSPropertyOp43
 70
     1
102
RTVSPropertyOp44
 70
     1
102
RTVSPropertyOp45
 70
     1
102
RTVSPropertyOp46
 70
     1
102
RTVSPropertyOp47
 70
     1
102
RTVSPropertyOp48
 70
     1
102
RTVSPropertyOp49
 70
     1
102
RTVSPropertyOp50
 70
     1
102
RTVSPropertyOp51
 70
     0
102
RTVSPropertyOp52
 70
     0
102
RTVSPropertyOp53
 70
     1
102
RTVSPropertyOp54
 70
     1
102
RTVSPropertyOp55
 70
     1
102
RTVSPropertyOp56
 70
     1
102
RTVSPropertyOp57
 70
     1
102
RTVSPost2010Prop28
280
     0
102
RTVSPost2010PropOp28
 70
     1
102
RTVSPost2010Prop29
280
     1
102
RTVSPost2010PropOp29
 70
     1
102
RTVSPost2010Prop30
280
     1
102
RTVSPost2010PropOp30
 70
     1
102
RTVSPost2010Prop31
280
     0
102
RTVSPost2010PropOp31
 70
     1
102
RTVSPost2010Prop32
280
     0
102
RTVSPost2010PropOp32
 70
     1
102
RTVSPost2010Prop33
280
     0
102
RTVSPost2010PropOp33
 70
     1
102
RTVSPost2010Prop34
280
     0
102
RTVSPost2010PropOp34
 70
     1
102
RTVSPost2010Prop35
280
     0
102
RTVSPost2010PropOp35
 70
     1
102
RTVSPost2010Prop36
280
     0
102
RTVSPost2010PropOp36
 70
     1
102
RTVSPost2010Prop37
 90
       50
102
RTVSPost2010PropOp37
 70
     1
102
RTVSPost2010Prop38
140
0.0
102
RTVSPost2010PropOp38
 70
     1
102
RTVSPost2010Prop39
140
1.0
102
RTVSPost2010PropOp39
 70
     1
102
RTVSPost2010Prop40
 90
        0
102
RTVSPost2010PropOp40
 70
     1
102
RTVSPost2010Prop41ColorIndex
 90
       18
102
RTVSPost2010Prop41ColorRGB
 90
        0
102
RTVSPost2010PropOp41
 70
     1
102
RTVSPost2010Prop42
 90
       50
102
RTVSPost2010PropOp42
 70
     1
102
RTVSPost2010Prop43
 90
        3
102
RTVSPost2010PropOp43
 70
     1
102
RTVSPost2010Prop44ColorIndex
 90
        5
102
RTVSPost2010Prop44ColorRGB
 90
      255
102
RTVSPost2010PropOp44
 70
     1
102
RTVSPost2010Prop45
280
     0
102
RTVSPost2010PropOp45
 70
     1
102
RTVSPost2010Prop46
 90
       50
102
RTVSPost2010PropOp46
 70
     1
102
RTVSPost2010Prop47
 90
       50
102
RTVSPost2010PropOp47
 70
     1
102
RTVSPost2010Prop48
 90
       50
102
RTVSPost2010PropOp48
 70
     1
102
RTVSPost2010Prop49
280
     0
102
RTVSPost2010PropOp49
 70
     1
102
RTVSPost2010Prop50
 90
       50
102
RTVSPost2010PropOp50
 70
     1
102
RTVSPost2010Prop51ColorIndex
 90
      256
102
RTVSPost2010Prop51ColorRGB
 90
-16777216
102
RTVSPost2010PropOp51
 70
     0
102
RTVSPost2010Prop52
140
1.0
102
RTVSPost2010PropOp52
 70
     0
102
RTVSPost2010Prop53
 90
        2
102
RTVSPost2010PropOp53
 70
     1
102
RTVSPost2010Prop54
  1
strokes_ogs.tif
102
RTVSPost2010PropOp54
 70
     1
102
RTVSPost2010Prop55
280
     0
102
RTVSPost2010PropOp55
 70
     1
102
RTVSPost2010Prop56
140
1.0
102
RTVSPost2010PropOp56
 70
     1
102
RTVSPost2010Prop57
140
1.0
102
RTVSPost2010PropOp57
 70
     1
  0
XRECORD
  5
351
102
{ACAD_REACTORS
330
350
102
}
330
350
100
AcDbXrecord
280
     1
102
RTVSPropertyOp0
 70
     0
102
RTVSPropertyOp1
 70
     0
102
RTVSPropertyOp2
 70
     0
102
RTVSPropertyOp3
 70
     0
102
RTVSPropertyOp4
 70
     0
102
RTVSPropertyOp5
 70
     0
102
RTVSPropertyOp6
 70
     0
102
RTVSPropertyOp7
 70
     0
102
RTVSPropertyOp8
 70
     0
102
RTVSPropertyOp9
 70
     0
102
RTVSPropertyOp10
 70
     0
102
RTVSPropertyOp11
 70
     0
102
RTVSPropertyOp12
 70
     0
102
RTVSPropertyOp13
 70
     0
102
RTVSPropertyOp14
 70
     2
102
RTVSPropertyOp15
 70
     0
102
RTVSPropertyOp16
 70
     0
102
RTVSPropertyOp17
 70
     0
102
RTVSPropertyOp18
 70
     0
102
RTVSPropertyOp19
 70
     0
102
RTVSPropertyOp20
 70
     0
102
RTVSPropertyOp21
 70
     0
102
RTVSPropertyOp22
 70
     0
102
RTVSPropertyOp23
 70
     0
102
RTVSPropertyOp24
 70
     0
102
RTVSPropertyOp25
 70
     0
102
RTVSPropertyOp26
 70
     0
102
RTVSPropertyOp27
 70
     0
102
RTVSPropertyOp28
 70
     0
102
RTVSPropertyOp29
 70
     0
102
RTVSPropertyOp30
 70
     0
102
RTVSPropertyOp31
 70
     0
102
RTVSPropertyOp32
 70
     0
102
RTVSPropertyOp33
 70
     0
102
RTVSPropertyOp34
 70
     0
102
RTVSPropertyOp35
 70
     0
102
RTVSPropertyOp36
 70
     0
102
RTVSPropertyOp37
 70
     0
102
RTVSPropertyOp38
 70
     0
102
RTVSPropertyOp39
 70
     0
102
RTVSPropertyOp40
 70
     0
102
RTVSPropertyOp41
 70
     0
102
RTVSPropertyOp42
 70
     0
102
RTVSPropertyOp43
 70
     0
102
RTVSPropertyOp44
 70
     0
102
RTVSPropertyOp45
 70
     0
102
RTVSPropertyOp46
 70
     0
102
RTVSPropertyOp47
 70
     0
102
RTVSPropertyOp48
 70
     0
102
RTVSPropertyOp49
 70
     0
102
RTVSPropertyOp50
 70
     0
102
RTVSPropertyOp51
 70
     0
102
RTVSPropertyOp52
 70
     0
102
RTVSPropertyOp53
 70
     0
102
RTVSPropertyOp54
 70
     0
102
RTVSPropertyOp55
 70
     0
102
RTVSPropertyOp56
 70
     0
102
RTVSPropertyOp57
 70
     0
102
RTVSPost2010Prop28
280
     0
102
RTVSPost2010PropOp28
 70
     0
102
RTVSPost2010Prop29
280
     1
102
RTVSPost2010PropOp29
 70
     0
102
RTVSPost2010Prop30
280
     1
102
RTVSPost2010PropOp30
 70
     0
102
RTVSPost2010Prop31
280
     0
102
RTVSPost2010PropOp31
 70
     0
102
RTVSPost2010Prop32
280
     0
102
RTVSPost2010PropOp32
 70
     0
102
RTVSPost2010Prop33
280
     0
102
RTVSPost2010PropOp33
 70
     0
102
RTVSPost2010Prop34
280
     0
102
RTVSPost2010PropOp34
 70
     0
102
RTVSPost2010Prop35
280
     0
102
RTVSPost2010PropOp35
 70
     0
102
RTVSPost2010Prop36
280
     0
102
RTVSPost2010PropOp36
 70
     0
102
RTVSPost2010Prop37
 90
       50
102
RTVSPost2010PropOp37
 70
     0
102
RTVSPost2010Prop38
140
0.0
102
RTVSPost2010PropOp38
 70
     0
102
RTVSPost2010Prop39
140
1.0
102
RTVSPost2010PropOp39
 70
     0
102
RTVSPost2010Prop40
 90
        0
102
RTVSPost2010PropOp40
 70
     0
102
RTVSPost2010Prop41ColorIndex
 90
       18
102
RTVSPost2010Prop41ColorRGB
 90
        0
102
RTVSPost2010PropOp41
 70
     0
102
RTVSPost2010Prop42
 90
       50
102
RTVSPost2010PropOp42
 70
     0
102
RTVSPost2010Prop43
 90
        3
102
RTVSPost2010PropOp43
 70
     0
102
RTVSPost2010Prop44ColorIndex
 90
        5
102
RTVSPost2010Prop44ColorRGB
 90
      255
102
RTVSPost2010PropOp44
 70
     0
102
RTVSPost2010Prop45
280
     0
102
RTVSPost2010PropOp45
 70
     0
102
RTVSPost2010Prop46
 90
       50
102
RTVSPost2010PropOp46
 70
     0
102
RTVSPost2010Prop47
 90
       50
102
RTVSPost2010PropOp47
 70
     0
102
RTVSPost2010Prop48
 90
       50
102
RTVSPost2010PropOp48
 70
     0
102
RTVSPost2010Prop49
280
     0
102
RTVSPost2010PropOp49
 70
     0
102
RTVSPost2010Prop50
 90
       50
102
RTVSPost2010PropOp50
 70
     0
102
RTVSPost2010Prop51ColorIndex
 90
      256
102
RTVSPost2010Prop51ColorRGB
 90
-16777216
102
RTVSPost2010PropOp51
 70
     0
102
RTVSPost2010Prop52
140
1.0
102
RTVSPost2010PropOp52
 70
     0
102
RTVSPost2010Prop53
 90
        2
102
RTVSPost2010PropOp53
 70
     0
102
RTVSPost2010Prop54
  1
strokes_ogs.tif
102
RTVSPost2010PropOp54
 70
     0
102
RTVSPost2010Prop55
280
     0
102
RTVSPost2010PropOp55
 70
     0
102
RTVSPost2010Prop56
140
1.0
102
RTVSPost2010PropOp56
 70
     0
102
RTVSPost2010Prop57
140
1.0
102
RTVSPost2010PropOp57
 70
     0
  0
XRECORD
  5
34B
102
{ACAD_REACTORS
330
34A
102
}
330
34A
100
AcDbXrecord
280
     1
102
RTVSPropertyOp0
 70
     1
102
RTVSPropertyOp1
 70
     1
102
RTVSPropertyOp2
 70
     1
102
RTVSPropertyOp3
 70
     1
102
RTVSPropertyOp4
 70
     1
102
RTVSPropertyOp5
 70
     1
102
RTVSPropertyOp6
 70
     1
102
RTVSPropertyOp7
 70
     1
102
RTVSPropertyOp8
 70
     1
102
RTVSPropertyOp9
 70
     1
102
RTVSPropertyOp10
 70
     1
102
RTVSPropertyOp11
 70
     1
102
RTVSPropertyOp12
 70
     1
102
RTVSPropertyOp13
 70
     1
102
RTVSPropertyOp14
 70
     1
102
RTVSPropertyOp15
 70
     1
102
RTVSPropertyOp16
 70
     1
102
RTVSPropertyOp17
 70
     1
102
RTVSPropertyOp18
 70
     1
102
RTVSPropertyOp19
 70
     1
102
RTVSPropertyOp20
 70
     1
102
RTVSPropertyOp21
 70
     1
102
RTVSPropertyOp22
 70
     1
102
RTVSPropertyOp23
 70
     1
102
RTVSPropertyOp24
 70
     1
102
RTVSPropertyOp25
 70
     1
102
RTVSPropertyOp26
 70
     1
102
RTVSPropertyOp27
 70
     1
102
RTVSPropertyOp28
 70
     1
102
RTVSPropertyOp29
 70
     1
102
RTVSPropertyOp30
 70
     1
102
RTVSPropertyOp31
 70
     1
102
RTVSPropertyOp32
 70
     1
102
RTVSPropertyOp33
 70
     1
102
RTVSPropertyOp34
 70
     1
102
RTVSPropertyOp35
 70
     1
102
RTVSPropertyOp36
 70
     1
102
RTVSPropertyOp37
 70
     1
102
RTVSPropertyOp38
 70
     1
102
RTVSPropertyOp39
 70
     1
102
RTVSPropertyOp40
 70
     1
102
RTVSPropertyOp41
 70
     1
102
RTVSPropertyOp42
 70
     1
102
RTVSPropertyOp43
 70
     1
102
RTVSPropertyOp44
 70
     1
102
RTVSPropertyOp45
 70
     1
102
RTVSPropertyOp46
 70
     1
102
RTVSPropertyOp47
 70
     1
102
RTVSPropertyOp48
 70
     1
102
RTVSPropertyOp49
 70
     1
102
RTVSPropertyOp50
 70
     1
102
RTVSPropertyOp51
 70
     0
102
RTVSPropertyOp52
 70
     0
102
RTVSPropertyOp53
 70
     1
102
RTVSPropertyOp54
 70
     1
102
RTVSPropertyOp55
 70
     1
102
RTVSPropertyOp56
 70
     1
102
RTVSPropertyOp57
 70
     1
102
RTVSPost2010Prop28
280
     0
102
RTVSPost2010PropOp28
 70
     1
102
RTVSPost2010Prop29
280
     1
102
RTVSPost2010PropOp29
 70
     1
102
RTVSPost2010Prop30
280
     1
102
RTVSPost2010PropOp30
 70
     1
102
RTVSPost2010Prop31
280
     0
102
RTVSPost2010PropOp31
 70
     1
102
RTVSPost2010Prop32
280
     0
102
RTVSPost2010PropOp32
 70
     1
102
RTVSPost2010Prop33
280
     0
102
RTVSPost2010PropOp33
 70
     1
102
RTVSPost2010Prop34
280
     0
102
RTVSPost2010PropOp34
 70
     1
102
RTVSPost2010Prop35
280
     0
102
RTVSPost2010PropOp35
 70
     1
102
RTVSPost2010Prop36
280
     0
102
RTVSPost2010PropOp36
 70
     1
102
RTVSPost2010Prop37
 90
       50
102
RTVSPost2010PropOp37
 70
     1
102
RTVSPost2010Prop38
140
0.0
102
RTVSPost2010PropOp38
 70
     1
102
RTVSPost2010Prop39
140
1.0
102
RTVSPost2010PropOp39
 70
     1
102
RTVSPost2010Prop40
 90
        0
102
RTVSPost2010PropOp40
 70
     1
102
RTVSPost2010Prop41ColorIndex
 90
       18
102
RTVSPost2010Prop41ColorRGB
 90
        0
102
RTVSPost2010PropOp41
 70
     1
102
RTVSPost2010Prop42
 90
       50
102
RTVSPost2010PropOp42
 70
     1
102
RTVSPost2010Prop43
 90
        3
102
RTVSPost2010PropOp43
 70
     1
102
RTVSPost2010Prop44ColorIndex
 90
        5
102
RTVSPost2010Prop44ColorRGB
 90
      255
102
RTVSPost2010PropOp44
 70
     1
102
RTVSPost2010Prop45
280
     0
102
RTVSPost2010PropOp45
 70
     1
102
RTVSPost2010Prop46
 90
       50
102
RTVSPost2010PropOp46
 70
     1
102
RTVSPost2010Prop47
 90
       50
102
RTVSPost2010PropOp47
 70
     1
102
RTVSPost2010Prop48
 90
       50
102
RTVSPost2010PropOp48
 70
     1
102
RTVSPost2010Prop49
280
     0
102
RTVSPost2010PropOp49
 70
     1
102
RTVSPost2010Prop50
 90
       50
102
RTVSPost2010PropOp50
 70
     1
102
RTVSPost2010Prop51ColorIndex
 90
      256
102
RTVSPost2010Prop51ColorRGB
 90
-16777216
102
RTVSPost2010PropOp51
 70
     0
102
RTVSPost2010Prop52
140
1.0
102
RTVSPost2010PropOp52
 70
     0
102
RTVSPost2010Prop53
 90
        2
102
RTVSPost2010PropOp53
 70
     1
102
RTVSPost2010Prop54
  1
strokes_ogs.tif
102
RTVSPost2010PropOp54
 70
     1
102
RTVSPost2010Prop55
280
     0
102
RTVSPost2010PropOp55
 70
     1
102
RTVSPost2010Prop56
140
1.0
102
RTVSPost2010PropOp56
 70
     1
102
RTVSPost2010Prop57
140
1.0
102
RTVSPost2010PropOp57
 70
     1
  0
XRECORD
  5
353
102
{ACAD_REACTORS
330
352
102
}
330
352
100
AcDbXrecord
280
     1
102
RTVSPropertyOp0
 70
     0
102
RTVSPropertyOp1
 70
     0
102
RTVSPropertyOp2
 70
     0
102
RTVSPropertyOp3
 70
     0
102
RTVSPropertyOp4
 70
     0
102
RTVSPropertyOp5
 70
     0
102
RTVSPropertyOp6
 70
     0
102
RTVSPropertyOp7
 70
     0
102
RTVSPropertyOp8
 70
     0
102
RTVSPropertyOp9
 70
     0
102
RTVSPropertyOp10
 70
     0
102
RTVSPropertyOp11
 70
     0
102
RTVSPropertyOp12
 70
     0
102
RTVSPropertyOp13
 70
     0
102
RTVSPropertyOp14
 70
     2
102
RTVSPropertyOp15
 70
     0
102
RTVSPropertyOp16
 70
     0
102
RTVSPropertyOp17
 70
     0
102
RTVSPropertyOp18
 70
     0
102
RTVSPropertyOp19
 70
     0
102
RTVSPropertyOp20
 70
     0
102
RTVSPropertyOp21
 70
     0
102
RTVSPropertyOp22
 70
     0
102
RTVSPropertyOp23
 70
     0
102
RTVSPropertyOp24
 70
     0
102
RTVSPropertyOp25
 70
     0
102
RTVSPropertyOp26
 70
     0
102
RTVSPropertyOp27
 70
     0
102
RTVSPropertyOp28
 70
     0
102
RTVSPropertyOp29
 70
     0
102
RTVSPropertyOp30
 70
     0
102
RTVSPropertyOp31
 70
     0
102
RTVSPropertyOp32
 70
     0
102
RTVSPropertyOp33
 70
     0
102
RTVSPropertyOp34
 70
     0
102
RTVSPropertyOp35
 70
     0
102
RTVSPropertyOp36
 70
     0
102
RTVSPropertyOp37
 70
     0
102
RTVSPropertyOp38
 70
     0
102
RTVSPropertyOp39
 70
     0
102
RTVSPropertyOp40
 70
     0
102
RTVSPropertyOp41
 70
     0
102
RTVSPropertyOp42
 70
     0
102
RTVSPropertyOp43
 70
     0
102
RTVSPropertyOp44
 70
     0
102
RTVSPropertyOp45
 70
     0
102
RTVSPropertyOp46
 70
     0
102
RTVSPropertyOp47
 70
     0
102
RTVSPropertyOp48
 70
     0
102
RTVSPropertyOp49
 70
     0
102
RTVSPropertyOp50
 70
     0
102
RTVSPropertyOp51
 70
     0
102
RTVSPropertyOp52
 70
     0
102
RTVSPropertyOp53
 70
     0
102
RTVSPropertyOp54
 70
     0
102
RTVSPropertyOp55
 70
     0
102
RTVSPropertyOp56
 70
     0
102
RTVSPropertyOp57
 70
     0
102
RTVSPost2010Prop28
280
     0
102
RTVSPost2010PropOp28
 70
     0
102
RTVSPost2010Prop29
280
     1
102
RTVSPost2010PropOp29
 70
     0
102
RTVSPost2010Prop30
280
     1
102
RTVSPost2010PropOp30
 70
     0
102
RTVSPost2010Prop31
280
     0
102
RTVSPost2010PropOp31
 70
     0
102
RTVSPost2010Prop32
280
     0
102
RTVSPost2010PropOp32
 70
     0
102
RTVSPost2010Prop33
280
     0
102
RTVSPost2010PropOp33
 70
     0
102
RTVSPost2010Prop34
280
     0
102
RTVSPost2010PropOp34
 70
     0
102
RTVSPost2010Prop35
280
     0
102
RTVSPost2010PropOp35
 70
     0
102
RTVSPost2010Prop36
280
     0
102
RTVSPost2010PropOp36
 70
     0
102
RTVSPost2010Prop37
 90
       50
102
RTVSPost2010PropOp37
 70
     0
102
RTVSPost2010Prop38
140
0.0
102
RTVSPost2010PropOp38
 70
     0
102
RTVSPost2010Prop39
140
1.0
102
RTVSPost2010PropOp39
 70
     0
102
RTVSPost2010Prop40
 90
        0
102
RTVSPost2010PropOp40
 70
     0
102
RTVSPost2010Prop41ColorIndex
 90
       18
102
RTVSPost2010Prop41ColorRGB
 90
        0
102
RTVSPost2010PropOp41
 70
     0
102
RTVSPost2010Prop42
 90
       50
102
RTVSPost2010PropOp42
 70
     0
102
RTVSPost2010Prop43
 90
        3
102
RTVSPost2010PropOp43
 70
     0
102
RTVSPost2010Prop44ColorIndex
 90
        5
102
RTVSPost2010Prop44ColorRGB
 90
      255
102
RTVSPost2010PropOp44
 70
     0
102
RTVSPost2010Prop45
280
     0
102
RTVSPost2010PropOp45
 70
     0
102
RTVSPost2010Prop46
 90
       50
102
RTVSPost2010PropOp46
 70
     0
102
RTVSPost2010Prop47
 90
       50
102
RTVSPost2010PropOp47
 70
     0
102
RTVSPost2010Prop48
 90
       50
102
RTVSPost2010PropOp48
 70
     0
102
RTVSPost2010Prop49
280
     0
102
RTVSPost2010PropOp49
 70
     0
102
RTVSPost2010Prop50
 90
       50
102
RTVSPost2010PropOp50
 70
     0
102
RTVSPost2010Prop51ColorIndex
 90
      256
102
RTVSPost2010Prop51ColorRGB
 90
-16777216
102
RTVSPost2010PropOp51
 70
     0
102
RTVSPost2010Prop52
140
1.0
102
RTVSPost2010PropOp52
 70
     0
102
RTVSPost2010Prop53
 90
        2
102
RTVSPost2010PropOp53
 70
     0
102
RTVSPost2010Prop54
  1
strokes_ogs.tif
102
RTVSPost2010PropOp54
 70
     0
102
RTVSPost2010Prop55
280
     0
102
RTVSPost2010PropOp55
 70
     0
102
RTVSPost2010Prop56
140
1.0
102
RTVSPost2010PropOp56
 70
     0
102
RTVSPost2010Prop57
140
1.0
102
RTVSPost2010PropOp57
 70
     0
  0
XRECORD
  5
341
102
{ACAD_REACTORS
330
340
102
}
330
340
100
AcDbXrecord
280
     1
102
RTVSPropertyOp0
 70
     1
102
RTVSPropertyOp1
 70
     1
102
RTVSPropertyOp2
 70
     1
102
RTVSPropertyOp3
 70
     1
102
RTVSPropertyOp4
 70
     1
102
RTVSPropertyOp5
 70
     1
102
RTVSPropertyOp6
 70
     1
102
RTVSPropertyOp7
 70
     1
102
RTVSPropertyOp8
 70
     1
102
RTVSPropertyOp9
 70
     1
102
RTVSPropertyOp10
 70
     1
102
RTVSPropertyOp11
 70
     1
102
RTVSPropertyOp12
 70
     1
102
RTVSPropertyOp13
 70
     1
102
RTVSPropertyOp14
 70
     1
102
RTVSPropertyOp15
 70
     1
102
RTVSPropertyOp16
 70
     1
102
RTVSPropertyOp17
 70
     1
102
RTVSPropertyOp18
 70
     1
102
RTVSPropertyOp19
 70
     1
102
RTVSPropertyOp20
 70
     1
102
RTVSPropertyOp21
 70
     1
102
RTVSPropertyOp22
 70
     1
102
RTVSPropertyOp23
 70
     1
102
RTVSPropertyOp24
 70
     1
102
RTVSPropertyOp25
 70
     1
102
RTVSPropertyOp26
 70
     1
102
RTVSPropertyOp27
 70
     1
102
RTVSPropertyOp28
 70
     1
102
RTVSPropertyOp29
 70
     1
102
RTVSPropertyOp30
 70
     1
102
RTVSPropertyOp31
 70
     1
102
RTVSPropertyOp32
 70
     1
102
RTVSPropertyOp33
 70
     1
102
RTVSPropertyOp34
 70
     1
102
RTVSPropertyOp35
 70
     1
102
RTVSPropertyOp36
 70
     1
102
RTVSPropertyOp37
 70
     1
102
RTVSPropertyOp38
 70
     1
102
RTVSPropertyOp39
 70
     1
102
RTVSPropertyOp40
 70
     1
102
RTVSPropertyOp41
 70
     1
102
RTVSPropertyOp42
 70
     1
102
RTVSPropertyOp43
 70
     1
102
RTVSPropertyOp44
 70
     1
102
RTVSPropertyOp45
 70
     1
102
RTVSPropertyOp46
 70
     1
102
RTVSPropertyOp47
 70
     1
102
RTVSPropertyOp48
 70
     1
102
RTVSPropertyOp49
 70
     1
102
RTVSPropertyOp50
 70
     1
102
RTVSPropertyOp51
 70
     0
102
RTVSPropertyOp52
 70
     0
102
RTVSPropertyOp53
 70
     1
102
RTVSPropertyOp54
 70
     1
102
RTVSPropertyOp55
 70
     1
102
RTVSPropertyOp56
 70
     1
102
RTVSPropertyOp57
 70
     1
102
RTVSPost2010Prop28
280
     0
102
RTVSPost2010PropOp28
 70
     1
102
RTVSPost2010Prop29
280
     1
102
RTVSPost2010PropOp29
 70
     1
102
RTVSPost2010Prop30
280
     1
102
RTVSPost2010PropOp30
 70
     1
102
RTVSPost2010Prop31
280
     0
102
RTVSPost2010PropOp31
 70
     1
102
RTVSPost2010Prop32
280
     0
102
RTVSPost2010PropOp32
 70
     1
102
RTVSPost2010Prop33
280
     0
102
RTVSPost2010PropOp33
 70
     1
102
RTVSPost2010Prop34
280
     0
102
RTVSPost2010PropOp34
 70
     1
102
RTVSPost2010Prop35
280
     0
102
RTVSPost2010PropOp35
 70
     1
102
RTVSPost2010Prop36
280
     0
102
RTVSPost2010PropOp36
 70
     1
102
RTVSPost2010Prop37
 90
       50
102
RTVSPost2010PropOp37
 70
     1
102
RTVSPost2010Prop38
140
0.0
102
RTVSPost2010PropOp38
 70
     1
102
RTVSPost2010Prop39
140
1.0
102
RTVSPost2010PropOp39
 70
     1
102
RTVSPost2010Prop40
 90
        0
102
RTVSPost2010PropOp40
 70
     1
102
RTVSPost2010Prop41ColorIndex
 90
       18
102
RTVSPost2010Prop41ColorRGB
 90
        0
102
RTVSPost2010PropOp41
 70
     1
102
RTVSPost2010Prop42
 90
       50
102
RTVSPost2010PropOp42
 70
     1
102
RTVSPost2010Prop43
 90
        3
102
RTVSPost2010PropOp43
 70
     1
102
RTVSPost2010Prop44ColorIndex
 90
        5
102
RTVSPost2010Prop44ColorRGB
 90
      255
102
RTVSPost2010PropOp44
 70
     1
102
RTVSPost2010Prop45
280
     0
102
RTVSPost2010PropOp45
 70
     1
102
RTVSPost2010Prop46
 90
       50
102
RTVSPost2010PropOp46
 70
     1
102
RTVSPost2010Prop47
 90
       50
102
RTVSPost2010PropOp47
 70
     1
102
RTVSPost2010Prop48
 90
       50
102
RTVSPost2010PropOp48
 70
     1
102
RTVSPost2010Prop49
280
     0
102
RTVSPost2010PropOp49
 70
     1
102
RTVSPost2010Prop50
 90
       50
102
RTVSPost2010PropOp50
 70
     1
102
RTVSPost2010Prop51ColorIndex
 90
      256
102
RTVSPost2010Prop51ColorRGB
 90
-16777216
102
RTVSPost2010PropOp51
 70
     0
102
RTVSPost2010Prop52
140
1.0
102
RTVSPost2010PropOp52
 70
     0
102
RTVSPost2010Prop53
 90
        2
102
RTVSPost2010PropOp53
 70
     1
102
RTVSPost2010Prop54
  1
strokes_ogs.tif
102
RTVSPost2010PropOp54
 70
     1
102
RTVSPost2010Prop55
280
     0
102
RTVSPost2010PropOp55
 70
     1
102
RTVSPost2010Prop56
140
1.0
102
RTVSPost2010PropOp56
 70
     1
102
RTVSPost2010Prop57
140
1.0
102
RTVSPost2010PropOp57
 70
     1
  0
XRECORD
  5
35F
102
{ACAD_REACTORS
330
35E
102
}
330
35E
100
AcDbXrecord
280
     1
102
RTVSPropertyOp0
 70
     1
102
RTVSPropertyOp1
 70
     1
102
RTVSPropertyOp2
 70
     1
102
RTVSPropertyOp3
 70
     1
102
RTVSPropertyOp4
 70
     1
102
RTVSPropertyOp5
 70
     1
102
RTVSPropertyOp6
 70
     1
102
RTVSPropertyOp7
 70
     1
102
RTVSPropertyOp8
 70
     1
102
RTVSPropertyOp9
 70
     1
102
RTVSPropertyOp10
 70
     1
102
RTVSPropertyOp11
 70
     1
102
RTVSPropertyOp12
 70
     1
102
RTVSPropertyOp13
 70
     1
102
RTVSPropertyOp14
 70
     1
102
RTVSPropertyOp15
 70
     1
102
RTVSPropertyOp16
 70
     1
102
RTVSPropertyOp17
 70
     1
102
RTVSPropertyOp18
 70
     1
102
RTVSPropertyOp19
 70
     1
102
RTVSPropertyOp20
 70
     1
102
RTVSPropertyOp21
 70
     1
102
RTVSPropertyOp22
 70
     1
102
RTVSPropertyOp23
 70
     1
102
RTVSPropertyOp24
 70
     1
102
RTVSPropertyOp25
 70
     1
102
RTVSPropertyOp26
 70
     1
102
RTVSPropertyOp27
 70
     1
102
RTVSPropertyOp28
 70
     1
102
RTVSPropertyOp29
 70
     1
102
RTVSPropertyOp30
 70
     1
102
RTVSPropertyOp31
 70
     1
102
RTVSPropertyOp32
 70
     1
102
RTVSPropertyOp33
 70
     1
102
RTVSPropertyOp34
 70
     1
102
RTVSPropertyOp35
 70
     1
102
RTVSPropertyOp36
 70
     1
102
RTVSPropertyOp37
 70
     1
102
RTVSPropertyOp38
 70
     1
102
RTVSPropertyOp39
 70
     1
102
RTVSPropertyOp40
 70
     1
102
RTVSPropertyOp41
 70
     1
102
RTVSPropertyOp42
 70
     1
102
RTVSPropertyOp43
 70
     1
102
RTVSPropertyOp44
 70
     1
102
RTVSPropertyOp45
 70
     1
102
RTVSPropertyOp46
 70
     1
102
RTVSPropertyOp47
 70
     1
102
RTVSPropertyOp48
 70
     1
102
RTVSPropertyOp49
 70
     1
102
RTVSPropertyOp50
 70
     1
102
RTVSPropertyOp51
 70
     0
102
RTVSPropertyOp52
 70
     0
102
RTVSPropertyOp53
 70
     1
102
RTVSPropertyOp54
 70
     1
102
RTVSPropertyOp55
 70
     1
102
RTVSPropertyOp56
 70
     1
102
RTVSPropertyOp57
 70
     1
102
RTVSPost2010Prop28
280
     0
102
RTVSPost2010PropOp28
 70
     1
102
RTVSPost2010Prop29
280
     1
102
RTVSPost2010PropOp29
 70
     1
102
RTVSPost2010Prop30
280
     1
102
RTVSPost2010PropOp30
 70
     1
102
RTVSPost2010Prop31
280
     0
102
RTVSPost2010PropOp31
 70
     1
102
RTVSPost2010Prop32
280
     0
102
RTVSPost2010PropOp32
 70
     1
102
RTVSPost2010Prop33
280
     0
102
RTVSPost2010PropOp33
 70
     1
102
RTVSPost2010Prop34
280
     0
102
RTVSPost2010PropOp34
 70
     1
102
RTVSPost2010Prop35
280
     0
102
RTVSPost2010PropOp35
 70
     1
102
RTVSPost2010Prop36
280
     0
102
RTVSPost2010PropOp36
 70
     1
102
RTVSPost2010Prop37
 90
       50
102
RTVSPost2010PropOp37
 70
     1
102
RTVSPost2010Prop38
140
0.0
102
RTVSPost2010PropOp38
 70
     1
102
RTVSPost2010Prop39
140
1.0
102
RTVSPost2010PropOp39
 70
     1
102
RTVSPost2010Prop40
 90
        0
102
RTVSPost2010PropOp40
 70
     1
102
RTVSPost2010Prop41ColorIndex
 90
       18
102
RTVSPost2010Prop41ColorRGB
 90
        0
102
RTVSPost2010PropOp41
 70
     1
102
RTVSPost2010Prop42
 90
       50
102
RTVSPost2010PropOp42
 70
     1
102
RTVSPost2010Prop43
 90
        3
102
RTVSPost2010PropOp43
 70
     1
102
RTVSPost2010Prop44ColorIndex
 90
        5
102
RTVSPost2010Prop44ColorRGB
 90
      255
102
RTVSPost2010PropOp44
 70
     1
102
RTVSPost2010Prop45
280
     0
102
RTVSPost2010PropOp45
 70
     1
102
RTVSPost2010Prop46
 90
       50
102
RTVSPost2010PropOp46
 70
     1
102
RTVSPost2010Prop47
 90
       50
102
RTVSPost2010PropOp47
 70
     1
102
RTVSPost2010Prop48
 90
       50
102
RTVSPost2010PropOp48
 70
     1
102
RTVSPost2010Prop49
280
     0
102
RTVSPost2010PropOp49
 70
     1
102
RTVSPost2010Prop50
 90
       50
102
RTVSPost2010PropOp50
 70
     1
102
RTVSPost2010Prop51ColorIndex
 90
      256
102
RTVSPost2010Prop51ColorRGB
 90
-16777216
102
RTVSPost2010PropOp51
 70
     0
102
RTVSPost2010Prop52
140
1.0
102
RTVSPost2010PropOp52
 70
     0
102
RTVSPost2010Prop53
 90
        2
102
RTVSPost2010PropOp53
 70
     1
102
RTVSPost2010Prop54
  1
strokes_ogs.tif
102
RTVSPost2010PropOp54
 70
     1
102
RTVSPost2010Prop55
280
     0
102
RTVSPost2010PropOp55
 70
     1
102
RTVSPost2010Prop56
140
1.0
102
RTVSPost2010PropOp56
 70
     1
102
RTVSPost2010Prop57
140
1.0
102
RTVSPost2010PropOp57
 70
     1
  0
XRECORD
  5
35D
102
{ACAD_REACTORS
330
35C
102
}
330
35C
100
AcDbXrecord
280
     1
102
RTVSPropertyOp0
 70
     1
102
RTVSPropertyOp1
 70
     1
102
RTVSPropertyOp2
 70
     1
102
RTVSPropertyOp3
 70
     1
102
RTVSPropertyOp4
 70
     1
102
RTVSPropertyOp5
 70
     1
102
RTVSPropertyOp6
 70
     1
102
RTVSPropertyOp7
 70
     1
102
RTVSPropertyOp8
 70
     1
102
RTVSPropertyOp9
 70
     1
102
RTVSPropertyOp10
 70
     1
102
RTVSPropertyOp11
 70
     1
102
RTVSPropertyOp12
 70
     1
102
RTVSPropertyOp13
 70
     1
102
RTVSPropertyOp14
 70
     1
102
RTVSPropertyOp15
 70
     1
102
RTVSPropertyOp16
 70
     1
102
RTVSPropertyOp17
 70
     1
102
RTVSPropertyOp18
 70
     1
102
RTVSPropertyOp19
 70
     1
102
RTVSPropertyOp20
 70
     1
102
RTVSPropertyOp21
 70
     1
102
RTVSPropertyOp22
 70
     1
102
RTVSPropertyOp23
 70
     1
102
RTVSPropertyOp24
 70
     1
102
RTVSPropertyOp25
 70
     1
102
RTVSPropertyOp26
 70
     1
102
RTVSPropertyOp27
 70
     1
102
RTVSPropertyOp28
 70
     1
102
RTVSPropertyOp29
 70
     1
102
RTVSPropertyOp30
 70
     1
102
RTVSPropertyOp31
 70
     1
102
RTVSPropertyOp32
 70
     1
102
RTVSPropertyOp33
 70
     1
102
RTVSPropertyOp34
 70
     1
102
RTVSPropertyOp35
 70
     1
102
RTVSPropertyOp36
 70
     1
102
RTVSPropertyOp37
 70
     1
102
RTVSPropertyOp38
 70
     1
102
RTVSPropertyOp39
 70
     1
102
RTVSPropertyOp40
 70
     1
102
RTVSPropertyOp41
 70
     1
102
RTVSPropertyOp42
 70
     1
102
RTVSPropertyOp43
 70
     1
102
RTVSPropertyOp44
 70
     1
102
RTVSPropertyOp45
 70
     1
102
RTVSPropertyOp46
 70
     1
102
RTVSPropertyOp47
 70
     1
102
RTVSPropertyOp48
 70
     1
102
RTVSPropertyOp49
 70
     1
102
RTVSPropertyOp50
 70
     1
102
RTVSPropertyOp51
 70
     0
102
RTVSPropertyOp52
 70
     0
102
RTVSPropertyOp53
 70
     1
102
RTVSPropertyOp54
 70
     1
102
RTVSPropertyOp55
 70
     1
102
RTVSPropertyOp56
 70
     1
102
RTVSPropertyOp57
 70
     1
102
RTVSPost2010Prop28
280
     0
102
RTVSPost2010PropOp28
 70
     1
102
RTVSPost2010Prop29
280
     1
102
RTVSPost2010PropOp29
 70
     1
102
RTVSPost2010Prop30
280
     1
102
RTVSPost2010PropOp30
 70
     1
102
RTVSPost2010Prop31
280
     0
102
RTVSPost2010PropOp31
 70
     1
102
RTVSPost2010Prop32
280
     0
102
RTVSPost2010PropOp32
 70
     1
102
RTVSPost2010Prop33
280
     0
102
RTVSPost2010PropOp33
 70
     1
102
RTVSPost2010Prop34
280
     0
102
RTVSPost2010PropOp34
 70
     1
102
RTVSPost2010Prop35
280
     0
102
RTVSPost2010PropOp35
 70
     1
102
RTVSPost2010Prop36
280
     0
102
RTVSPost2010PropOp36
 70
     1
102
RTVSPost2010Prop37
 90
       50
102
RTVSPost2010PropOp37
 70
     1
102
RTVSPost2010Prop38
140
0.0
102
RTVSPost2010PropOp38
 70
     1
102
RTVSPost2010Prop39
140
1.0
102
RTVSPost2010PropOp39
 70
     1
102
RTVSPost2010Prop40
 90
        0
102
RTVSPost2010PropOp40
 70
     1
102
RTVSPost2010Prop41ColorIndex
 90
       18
102
RTVSPost2010Prop41ColorRGB
 90
        0
102
RTVSPost2010PropOp41
 70
     1
102
RTVSPost2010Prop42
 90
       50
102
RTVSPost2010PropOp42
 70
     1
102
RTVSPost2010Prop43
 90
        3
102
RTVSPost2010PropOp43
 70
     1
102
RTVSPost2010Prop44ColorIndex
 90
        5
102
RTVSPost2010Prop44ColorRGB
 90
      255
102
RTVSPost2010PropOp44
 70
     1
102
RTVSPost2010Prop45
280
     0
102
RTVSPost2010PropOp45
 70
     1
102
RTVSPost2010Prop46
 90
       50
102
RTVSPost2010PropOp46
 70
     1
102
RTVSPost2010Prop47
 90
       50
102
RTVSPost2010PropOp47
 70
     1
102
RTVSPost2010Prop48
 90
       50
102
RTVSPost2010PropOp48
 70
     1
102
RTVSPost2010Prop49
280
     0
102
RTVSPost2010PropOp49
 70
     1
102
RTVSPost2010Prop50
 90
       50
102
RTVSPost2010PropOp50
 70
     1
102
RTVSPost2010Prop51ColorIndex
 90
      256
102
RTVSPost2010Prop51ColorRGB
 90
-16777216
102
RTVSPost2010PropOp51
 70
     0
102
RTVSPost2010Prop52
140
1.0
102
RTVSPost2010PropOp52
 70
     0
102
RTVSPost2010Prop53
 90
        2
102
RTVSPost2010PropOp53
 70
     1
102
RTVSPost2010Prop54
  1
strokes_ogs.tif
102
RTVSPost2010PropOp54
 70
     1
102
RTVSPost2010Prop55
280
     0
102
RTVSPost2010PropOp55
 70
     1
102
RTVSPost2010Prop56
140
1.0
102
RTVSPost2010PropOp56
 70
     1
102
RTVSPost2010Prop57
140
1.0
102
RTVSPost2010PropOp57
 70
     1
  0
XRECORD
  5
357
102
{ACAD_REACTORS
330
356
102
}
330
356
100
AcDbXrecord
280
     1
102
RTVSPropertyOp0
 70
     1
102
RTVSPropertyOp1
 70
     1
102
RTVSPropertyOp2
 70
     1
102
RTVSPropertyOp3
 70
     1
102
RTVSPropertyOp4
 70
     1
102
RTVSPropertyOp5
 70
     1
102
RTVSPropertyOp6
 70
     1
102
RTVSPropertyOp7
 70
     1
102
RTVSPropertyOp8
 70
     1
102
RTVSPropertyOp9
 70
     1
102
RTVSPropertyOp10
 70
     1
102
RTVSPropertyOp11
 70
     1
102
RTVSPropertyOp12
 70
     1
102
RTVSPropertyOp13
 70
     1
102
RTVSPropertyOp14
 70
     1
102
RTVSPropertyOp15
 70
     1
102
RTVSPropertyOp16
 70
     1
102
RTVSPropertyOp17
 70
     1
102
RTVSPropertyOp18
 70
     1
102
RTVSPropertyOp19
 70
     1
102
RTVSPropertyOp20
 70
     1
102
RTVSPropertyOp21
 70
     1
102
RTVSPropertyOp22
 70
     1
102
RTVSPropertyOp23
 70
     1
102
RTVSPropertyOp24
 70
     1
102
RTVSPropertyOp25
 70
     1
102
RTVSPropertyOp26
 70
     1
102
RTVSPropertyOp27
 70
     1
102
RTVSPropertyOp28
 70
     1
102
RTVSPropertyOp29
 70
     1
102
RTVSPropertyOp30
 70
     1
102
RTVSPropertyOp31
 70
     1
102
RTVSPropertyOp32
 70
     1
102
RTVSPropertyOp33
 70
     1
102
RTVSPropertyOp34
 70
     1
102
RTVSPropertyOp35
 70
     1
102
RTVSPropertyOp36
 70
     1
102
RTVSPropertyOp37
 70
     1
102
RTVSPropertyOp38
 70
     1
102
RTVSPropertyOp39
 70
     1
102
RTVSPropertyOp40
 70
     1
102
RTVSPropertyOp41
 70
     1
102
RTVSPropertyOp42
 70
     1
102
RTVSPropertyOp43
 70
     1
102
RTVSPropertyOp44
 70
     1
102
RTVSPropertyOp45
 70
     1
102
RTVSPropertyOp46
 70
     1
102
RTVSPropertyOp47
 70
     1
102
RTVSPropertyOp48
 70
     1
102
RTVSPropertyOp49
 70
     1
102
RTVSPropertyOp50
 70
     1
102
RTVSPropertyOp51
 70
     0
102
RTVSPropertyOp52
 70
     0
102
RTVSPropertyOp53
 70
     1
102
RTVSPropertyOp54
 70
     1
102
RTVSPropertyOp55
 70
     1
102
RTVSPropertyOp56
 70
     1
102
RTVSPropertyOp57
 70
     1
102
RTVSPost2010Prop28
280
     0
102
RTVSPost2010PropOp28
 70
     1
102
RTVSPost2010Prop29
280
     1
102
RTVSPost2010PropOp29
 70
     1
102
RTVSPost2010Prop30
280
     1
102
RTVSPost2010PropOp30
 70
     1
102
RTVSPost2010Prop31
280
     0
102
RTVSPost2010PropOp31
 70
     1
102
RTVSPost2010Prop32
280
     0
102
RTVSPost2010PropOp32
 70
     1
102
RTVSPost2010Prop33
280
     0
102
RTVSPost2010PropOp33
 70
     1
102
RTVSPost2010Prop34
280
     0
102
RTVSPost2010PropOp34
 70
     1
102
RTVSPost2010Prop35
280
     0
102
RTVSPost2010PropOp35
 70
     1
102
RTVSPost2010Prop36
280
     0
102
RTVSPost2010PropOp36
 70
     1
102
RTVSPost2010Prop37
 90
       50
102
RTVSPost2010PropOp37
 70
     1
102
RTVSPost2010Prop38
140
0.0
102
RTVSPost2010PropOp38
 70
     1
102
RTVSPost2010Prop39
140
1.0
102
RTVSPost2010PropOp39
 70
     1
102
RTVSPost2010Prop40
 90
        0
102
RTVSPost2010PropOp40
 70
     1
102
RTVSPost2010Prop41ColorIndex
 90
       18
102
RTVSPost2010Prop41ColorRGB
 90
        0
102
RTVSPost2010PropOp41
 70
     1
102
RTVSPost2010Prop42
 90
       50
102
RTVSPost2010PropOp42
 70
     1
102
RTVSPost2010Prop43
 90
        3
102
RTVSPost2010PropOp43
 70
     1
102
RTVSPost2010Prop44ColorIndex
 90
        5
102
RTVSPost2010Prop44ColorRGB
 90
      255
102
RTVSPost2010PropOp44
 70
     1
102
RTVSPost2010Prop45
280
     0
102
RTVSPost2010PropOp45
 70
     1
102
RTVSPost2010Prop46
 90
       50
102
RTVSPost2010PropOp46
 70
     1
102
RTVSPost2010Prop47
 90
       50
102
RTVSPost2010PropOp47
 70
     1
102
RTVSPost2010Prop48
 90
       50
102
RTVSPost2010PropOp48
 70
     1
102
RTVSPost2010Prop49
280
     0
102
RTVSPost2010PropOp49
 70
     1
102
RTVSPost2010Prop50
 90
       50
102
RTVSPost2010PropOp50
 70
     1
102
RTVSPost2010Prop51ColorIndex
 90
      256
102
RTVSPost2010Prop51ColorRGB
 90
-16777216
102
RTVSPost2010PropOp51
 70
     0
102
RTVSPost2010Prop52
140
1.0
102
RTVSPost2010PropOp52
 70
     0
102
RTVSPost2010Prop53
 90
        2
102
RTVSPost2010PropOp53
 70
     1
102
RTVSPost2010Prop54
  1
strokes_ogs.tif
102
RTVSPost2010PropOp54
 70
     1
102
RTVSPost2010Prop55
280
     0
102
RTVSPost2010PropOp55
 70
     1
102
RTVSPost2010Prop56
140
1.0
102
RTVSPost2010PropOp56
 70
     1
102
RTVSPost2010Prop57
140
1.0
102
RTVSPost2010PropOp57
 70
     1
  0
XRECORD
  5
359
102
{ACAD_REACTORS
330
358
102
}
330
358
100
AcDbXrecord
280
     1
102
RTVSPropertyOp0
 70
     1
102
RTVSPropertyOp1
 70
     1
102
RTVSPropertyOp2
 70
     1
102
RTVSPropertyOp3
 70
     1
102
RTVSPropertyOp4
 70
     1
102
RTVSPropertyOp5
 70
     1
102
RTVSPropertyOp6
 70
     1
102
RTVSPropertyOp7
 70
     1
102
RTVSPropertyOp8
 70
     1
102
RTVSPropertyOp9
 70
     1
102
RTVSPropertyOp10
 70
     1
102
RTVSPropertyOp11
 70
     1
102
RTVSPropertyOp12
 70
     1
102
RTVSPropertyOp13
 70
     1
102
RTVSPropertyOp14
 70
     1
102
RTVSPropertyOp15
 70
     1
102
RTVSPropertyOp16
 70
     1
102
RTVSPropertyOp17
 70
     1
102
RTVSPropertyOp18
 70
     1
102
RTVSPropertyOp19
 70
     1
102
RTVSPropertyOp20
 70
     1
102
RTVSPropertyOp21
 70
     1
102
RTVSPropertyOp22
 70
     1
102
RTVSPropertyOp23
 70
     1
102
RTVSPropertyOp24
 70
     1
102
RTVSPropertyOp25
 70
     1
102
RTVSPropertyOp26
 70
     1
102
RTVSPropertyOp27
 70
     1
102
RTVSPropertyOp28
 70
     1
102
RTVSPropertyOp29
 70
     1
102
RTVSPropertyOp30
 70
     1
102
RTVSPropertyOp31
 70
     1
102
RTVSPropertyOp32
 70
     1
102
RTVSPropertyOp33
 70
     1
102
RTVSPropertyOp34
 70
     1
102
RTVSPropertyOp35
 70
     1
102
RTVSPropertyOp36
 70
     1
102
RTVSPropertyOp37
 70
     1
102
RTVSPropertyOp38
 70
     1
102
RTVSPropertyOp39
 70
     1
102
RTVSPropertyOp40
 70
     1
102
RTVSPropertyOp41
 70
     1
102
RTVSPropertyOp42
 70
     1
102
RTVSPropertyOp43
 70
     1
102
RTVSPropertyOp44
 70
     1
102
RTVSPropertyOp45
 70
     1
102
RTVSPropertyOp46
 70
     1
102
RTVSPropertyOp47
 70
     1
102
RTVSPropertyOp48
 70
     1
102
RTVSPropertyOp49
 70
     1
102
RTVSPropertyOp50
 70
     1
102
RTVSPropertyOp51
 70
     0
102
RTVSPropertyOp52
 70
     0
102
RTVSPropertyOp53
 70
     1
102
RTVSPropertyOp54
 70
     1
102
RTVSPropertyOp55
 70
     1
102
RTVSPropertyOp56
 70
     1
102
RTVSPropertyOp57
 70
     1
102
RTVSPost2010Prop28
280
     0
102
RTVSPost2010PropOp28
 70
     1
102
RTVSPost2010Prop29
280
     1
102
RTVSPost2010PropOp29
 70
     1
102
RTVSPost2010Prop30
280
     1
102
RTVSPost2010PropOp30
 70
     1
102
RTVSPost2010Prop31
280
     0
102
RTVSPost2010PropOp31
 70
     1
102
RTVSPost2010Prop32
280
     0
102
RTVSPost2010PropOp32
 70
     1
102
RTVSPost2010Prop33
280
     0
102
RTVSPost2010PropOp33
 70
     1
102
RTVSPost2010Prop34
280
     0
102
RTVSPost2010PropOp34
 70
     1
102
RTVSPost2010Prop35
280
     0
102
RTVSPost2010PropOp35
 70
     1
102
RTVSPost2010Prop36
280
     0
102
RTVSPost2010PropOp36
 70
     1
102
RTVSPost2010Prop37
 90
       50
102
RTVSPost2010PropOp37
 70
     1
102
RTVSPost2010Prop38
140
0.0
102
RTVSPost2010PropOp38
 70
     1
102
RTVSPost2010Prop39
140
1.0
102
RTVSPost2010PropOp39
 70
     1
102
RTVSPost2010Prop40
 90
        0
102
RTVSPost2010PropOp40
 70
     1
102
RTVSPost2010Prop41ColorIndex
 90
       18
102
RTVSPost2010Prop41ColorRGB
 90
        0
102
RTVSPost2010PropOp41
 70
     1
102
RTVSPost2010Prop42
 90
       50
102
RTVSPost2010PropOp42
 70
     1
102
RTVSPost2010Prop43
 90
        3
102
RTVSPost2010PropOp43
 70
     1
102
RTVSPost2010Prop44ColorIndex
 90
        5
102
RTVSPost2010Prop44ColorRGB
 90
      255
102
RTVSPost2010PropOp44
 70
     1
102
RTVSPost2010Prop45
280
     0
102
RTVSPost2010PropOp45
 70
     1
102
RTVSPost2010Prop46
 90
       50
102
RTVSPost2010PropOp46
 70
     1
102
RTVSPost2010Prop47
 90
       50
102
RTVSPost2010PropOp47
 70
     1
102
RTVSPost2010Prop48
 90
       50
102
RTVSPost2010PropOp48
 70
     1
102
RTVSPost2010Prop49
280
     0
102
RTVSPost2010PropOp49
 70
     1
102
RTVSPost2010Prop50
 90
       50
102
RTVSPost2010PropOp50
 70
     1
102
RTVSPost2010Prop51ColorIndex
 90
      256
102
RTVSPost2010Prop51ColorRGB
 90
-16777216
102
RTVSPost2010PropOp51
 70
     0
102
RTVSPost2010Prop52
140
1.0
102
RTVSPost2010PropOp52
 70
     0
102
RTVSPost2010Prop53
 90
        2
102
RTVSPost2010PropOp53
 70
     1
102
RTVSPost2010Prop54
  1
strokes_ogs.tif
102
RTVSPost2010PropOp54
 70
     1
102
RTVSPost2010Prop55
280
     0
102
RTVSPost2010PropOp55
 70
     1
102
RTVSPost2010Prop56
140
1.0
102
RTVSPost2010PropOp56
 70
     1
102
RTVSPost2010Prop57
140
1.0
102
RTVSPost2010PropOp57
 70
     1
  0
XRECORD
  5
349
102
{ACAD_REACTORS
330
348
102
}
330
348
100
AcDbXrecord
280
     1
102
RTVSPropertyOp0
 70
     1
102
RTVSPropertyOp1
 70
     1
102
RTVSPropertyOp2
 70
     1
102
RTVSPropertyOp3
 70
     1
102
RTVSPropertyOp4
 70
     1
102
RTVSPropertyOp5
 70
     1
102
RTVSPropertyOp6
 70
     1
102
RTVSPropertyOp7
 70
     1
102
RTVSPropertyOp8
 70
     1
102
RTVSPropertyOp9
 70
     1
102
RTVSPropertyOp10
 70
     1
102
RTVSPropertyOp11
 70
     1
102
RTVSPropertyOp12
 70
     1
102
RTVSPropertyOp13
 70
     1
102
RTVSPropertyOp14
 70
     1
102
RTVSPropertyOp15
 70
     1
102
RTVSPropertyOp16
 70
     1
102
RTVSPropertyOp17
 70
     1
102
RTVSPropertyOp18
 70
     1
102
RTVSPropertyOp19
 70
     1
102
RTVSPropertyOp20
 70
     1
102
RTVSPropertyOp21
 70
     1
102
RTVSPropertyOp22
 70
     1
102
RTVSPropertyOp23
 70
     1
102
RTVSPropertyOp24
 70
     1
102
RTVSPropertyOp25
 70
     1
102
RTVSPropertyOp26
 70
     1
102
RTVSPropertyOp27
 70
     1
102
RTVSPropertyOp28
 70
     1
102
RTVSPropertyOp29
 70
     1
102
RTVSPropertyOp30
 70
     1
102
RTVSPropertyOp31
 70
     1
102
RTVSPropertyOp32
 70
     1
102
RTVSPropertyOp33
 70
     1
102
RTVSPropertyOp34
 70
     1
102
RTVSPropertyOp35
 70
     1
102
RTVSPropertyOp36
 70
     1
102
RTVSPropertyOp37
 70
     1
102
RTVSPropertyOp38
 70
     1
102
RTVSPropertyOp39
 70
     1
102
RTVSPropertyOp40
 70
     1
102
RTVSPropertyOp41
 70
     1
102
RTVSPropertyOp42
 70
     1
102
RTVSPropertyOp43
 70
     1
102
RTVSPropertyOp44
 70
     1
102
RTVSPropertyOp45
 70
     1
102
RTVSPropertyOp46
 70
     1
102
RTVSPropertyOp47
 70
     1
102
RTVSPropertyOp48
 70
     1
102
RTVSPropertyOp49
 70
     1
102
RTVSPropertyOp50
 70
     1
102
RTVSPropertyOp51
 70
     0
102
RTVSPropertyOp52
 70
     0
102
RTVSPropertyOp53
 70
     1
102
RTVSPropertyOp54
 70
     1
102
RTVSPropertyOp55
 70
     1
102
RTVSPropertyOp56
 70
     1
102
RTVSPropertyOp57
 70
     1
102
RTVSPost2010Prop28
280
     0
102
RTVSPost2010PropOp28
 70
     1
102
RTVSPost2010Prop29
280
     1
102
RTVSPost2010PropOp29
 70
     1
102
RTVSPost2010Prop30
280
     1
102
RTVSPost2010PropOp30
 70
     1
102
RTVSPost2010Prop31
280
     0
102
RTVSPost2010PropOp31
 70
     1
102
RTVSPost2010Prop32
280
     0
102
RTVSPost2010PropOp32
 70
     1
102
RTVSPost2010Prop33
280
     0
102
RTVSPost2010PropOp33
 70
     1
102
RTVSPost2010Prop34
280
     0
102
RTVSPost2010PropOp34
 70
     1
102
RTVSPost2010Prop35
280
     0
102
RTVSPost2010PropOp35
 70
     1
102
RTVSPost2010Prop36
280
     0
102
RTVSPost2010PropOp36
 70
     1
102
RTVSPost2010Prop37
 90
       50
102
RTVSPost2010PropOp37
 70
     1
102
RTVSPost2010Prop38
140
0.0
102
RTVSPost2010PropOp38
 70
     1
102
RTVSPost2010Prop39
140
1.0
102
RTVSPost2010PropOp39
 70
     1
102
RTVSPost2010Prop40
 90
        0
102
RTVSPost2010PropOp40
 70
     1
102
RTVSPost2010Prop41ColorIndex
 90
       18
102
RTVSPost2010Prop41ColorRGB
 90
        0
102
RTVSPost2010PropOp41
 70
     1
102
RTVSPost2010Prop42
 90
       50
102
RTVSPost2010PropOp42
 70
     1
102
RTVSPost2010Prop43
 90
        3
102
RTVSPost2010PropOp43
 70
     1
102
RTVSPost2010Prop44ColorIndex
 90
        5
102
RTVSPost2010Prop44ColorRGB
 90
      255
102
RTVSPost2010PropOp44
 70
     1
102
RTVSPost2010Prop45
280
     0
102
RTVSPost2010PropOp45
 70
     1
102
RTVSPost2010Prop46
 90
       50
102
RTVSPost2010PropOp46
 70
     1
102
RTVSPost2010Prop47
 90
       50
102
RTVSPost2010PropOp47
 70
     1
102
RTVSPost2010Prop48
 90
       50
102
RTVSPost2010PropOp48
 70
     1
102
RTVSPost2010Prop49
280
     0
102
RTVSPost2010PropOp49
 70
     1
102
RTVSPost2010Prop50
 90
       50
102
RTVSPost2010PropOp50
 70
     1
102
RTVSPost2010Prop51ColorIndex
 90
      256
102
RTVSPost2010Prop51ColorRGB
 90
-16777216
102
RTVSPost2010PropOp51
 70
     0
102
RTVSPost2010Prop52
140
1.0
102
RTVSPost2010PropOp52
 70
     0
102
RTVSPost2010Prop53
 90
        2
102
RTVSPost2010PropOp53
 70
     1
102
RTVSPost2010Prop54
  1
strokes_ogs.tif
102
RTVSPost2010PropOp54
 70
     1
102
RTVSPost2010Prop55
280
     0
102
RTVSPost2010PropOp55
 70
     1
102
RTVSPost2010Prop56
140
1.0
102
RTVSPost2010PropOp56
 70
     1
102
RTVSPost2010Prop57
140
1.0
102
RTVSPost2010PropOp57
 70
     1
  0
XRECORD
  5
33B
102
{ACAD_REACTORS
330
33A
102
}
330
33A
100
AcDbXrecord
280
     1
102
RTVSPropertyOp0
 70
     1
102
RTVSPropertyOp1
 70
     1
102
RTVSPropertyOp2
 70
     1
102
RTVSPropertyOp3
 70
     1
102
RTVSPropertyOp4
 70
     1
102
RTVSPropertyOp5
 70
     1
102
RTVSPropertyOp6
 70
     1
102
RTVSPropertyOp7
 70
     1
102
RTVSPropertyOp8
 70
     1
102
RTVSPropertyOp9
 70
     1
102
RTVSPropertyOp10
 70
     1
102
RTVSPropertyOp11
 70
     1
102
RTVSPropertyOp12
 70
     1
102
RTVSPropertyOp13
 70
     1
102
RTVSPropertyOp14
 70
     1
102
RTVSPropertyOp15
 70
     1
102
RTVSPropertyOp16
 70
     1
102
RTVSPropertyOp17
 70
     1
102
RTVSPropertyOp18
 70
     1
102
RTVSPropertyOp19
 70
     1
102
RTVSPropertyOp20
 70
     1
102
RTVSPropertyOp21
 70
     1
102
RTVSPropertyOp22
 70
     1
102
RTVSPropertyOp23
 70
     1
102
RTVSPropertyOp24
 70
     1
102
RTVSPropertyOp25
 70
     1
102
RTVSPropertyOp26
 70
     1
102
RTVSPropertyOp27
 70
     1
102
RTVSPropertyOp28
 70
     1
102
RTVSPropertyOp29
 70
     1
102
RTVSPropertyOp30
 70
     1
102
RTVSPropertyOp31
 70
     1
102
RTVSPropertyOp32
 70
     1
102
RTVSPropertyOp33
 70
     1
102
RTVSPropertyOp34
 70
     1
102
RTVSPropertyOp35
 70
     1
102
RTVSPropertyOp36
 70
     1
102
RTVSPropertyOp37
 70
     1
102
RTVSPropertyOp38
 70
     1
102
RTVSPropertyOp39
 70
     1
102
RTVSPropertyOp40
 70
     1
102
RTVSPropertyOp41
 70
     1
102
RTVSPropertyOp42
 70
     1
102
RTVSPropertyOp43
 70
     1
102
RTVSPropertyOp44
 70
     1
102
RTVSPropertyOp45
 70
     1
102
RTVSPropertyOp46
 70
     1
102
RTVSPropertyOp47
 70
     1
102
RTVSPropertyOp48
 70
     1
102
RTVSPropertyOp49
 70
     1
102
RTVSPropertyOp50
 70
     1
102
RTVSPropertyOp51
 70
     0
102
RTVSPropertyOp52
 70
     0
102
RTVSPropertyOp53
 70
     1
102
RTVSPropertyOp54
 70
     1
102
RTVSPropertyOp55
 70
     1
102
RTVSPropertyOp56
 70
     1
102
RTVSPropertyOp57
 70
     1
102
RTVSPost2010Prop28
280
     0
102
RTVSPost2010PropOp28
 70
     1
102
RTVSPost2010Prop29
280
     1
102
RTVSPost2010PropOp29
 70
     1
102
RTVSPost2010Prop30
280
     1
102
RTVSPost2010PropOp30
 70
     1
102
RTVSPost2010Prop31
280
     0
102
RTVSPost2010PropOp31
 70
     1
102
RTVSPost2010Prop32
280
     0
102
RTVSPost2010PropOp32
 70
     1
102
RTVSPost2010Prop33
280
     0
102
RTVSPost2010PropOp33
 70
     1
102
RTVSPost2010Prop34
280
     0
102
RTVSPost2010PropOp34
 70
     1
102
RTVSPost2010Prop35
280
     0
102
RTVSPost2010PropOp35
 70
     1
102
RTVSPost2010Prop36
280
     0
102
RTVSPost2010PropOp36
 70
     1
102
RTVSPost2010Prop37
 90
       50
102
RTVSPost2010PropOp37
 70
     1
102
RTVSPost2010Prop38
140
0.0
102
RTVSPost2010PropOp38
 70
     1
102
RTVSPost2010Prop39
140
1.0
102
RTVSPost2010PropOp39
 70
     1
102
RTVSPost2010Prop40
 90
        0
102
RTVSPost2010PropOp40
 70
     1
102
RTVSPost2010Prop41ColorIndex
 90
       18
102
RTVSPost2010Prop41ColorRGB
 90
        0
102
RTVSPost2010PropOp41
 70
     1
102
RTVSPost2010Prop42
 90
       50
102
RTVSPost2010PropOp42
 70
     1
102
RTVSPost2010Prop43
 90
        3
102
RTVSPost2010PropOp43
 70
     1
102
RTVSPost2010Prop44ColorIndex
 90
        5
102
RTVSPost2010Prop44ColorRGB
 90
      255
102
RTVSPost2010PropOp44
 70
     1
102
RTVSPost2010Prop45
280
     0
102
RTVSPost2010PropOp45
 70
     1
102
RTVSPost2010Prop46
 90
       50
102
RTVSPost2010PropOp46
 70
     1
102
RTVSPost2010Prop47
 90
       50
102
RTVSPost2010PropOp47
 70
     1
102
RTVSPost2010Prop48
 90
       50
102
RTVSPost2010PropOp48
 70
     1
102
RTVSPost2010Prop49
280
     0
102
RTVSPost2010PropOp49
 70
     1
102
RTVSPost2010Prop50
 90
       50
102
RTVSPost2010PropOp50
 70
     1
102
RTVSPost2010Prop51ColorIndex
 90
      256
102
RTVSPost2010Prop51ColorRGB
 90
-16777216
102
RTVSPost2010PropOp51
 70
     0
102
RTVSPost2010Prop52
140
1.0
102
RTVSPost2010PropOp52
 70
     0
102
RTVSPost2010Prop53
 90
        2
102
RTVSPost2010PropOp53
 70
     1
102
RTVSPost2010Prop54
  1
strokes_ogs.tif
102
RTVSPost2010PropOp54
 70
     1
102
RTVSPost2010Prop55
280
     0
102
RTVSPost2010PropOp55
 70
     1
102
RTVSPost2010Prop56
140
1.0
102
RTVSPost2010PropOp56
 70
     1
102
RTVSPost2010Prop57
140
1.0
102
RTVSPost2010PropOp57
 70
     1
  0
XRECORD
  5
35B
102
{ACAD_REACTORS
330
35A
102
}
330
35A
100
AcDbXrecord
280
     1
102
RTVSPropertyOp0
 70
     1
102
RTVSPropertyOp1
 70
     1
102
RTVSPropertyOp2
 70
     1
102
RTVSPropertyOp3
 70
     1
102
RTVSPropertyOp4
 70
     1
102
RTVSPropertyOp5
 70
     1
102
RTVSPropertyOp6
 70
     1
102
RTVSPropertyOp7
 70
     1
102
RTVSPropertyOp8
 70
     1
102
RTVSPropertyOp9
 70
     1
102
RTVSPropertyOp10
 70
     1
102
RTVSPropertyOp11
 70
     1
102
RTVSPropertyOp12
 70
     1
102
RTVSPropertyOp13
 70
     1
102
RTVSPropertyOp14
 70
     1
102
RTVSPropertyOp15
 70
     1
102
RTVSPropertyOp16
 70
     1
102
RTVSPropertyOp17
 70
     1
102
RTVSPropertyOp18
 70
     1
102
RTVSPropertyOp19
 70
     1
102
RTVSPropertyOp20
 70
     1
102
RTVSPropertyOp21
 70
     1
102
RTVSPropertyOp22
 70
     1
102
RTVSPropertyOp23
 70
     1
102
RTVSPropertyOp24
 70
     1
102
RTVSPropertyOp25
 70
     1
102
RTVSPropertyOp26
 70
     1
102
RTVSPropertyOp27
 70
     1
102
RTVSPropertyOp28
 70
     1
102
RTVSPropertyOp29
 70
     1
102
RTVSPropertyOp30
 70
     1
102
RTVSPropertyOp31
 70
     1
102
RTVSPropertyOp32
 70
     1
102
RTVSPropertyOp33
 70
     1
102
RTVSPropertyOp34
 70
     1
102
RTVSPropertyOp35
 70
     1
102
RTVSPropertyOp36
 70
     1
102
RTVSPropertyOp37
 70
     1
102
RTVSPropertyOp38
 70
     1
102
RTVSPropertyOp39
 70
     1
102
RTVSPropertyOp40
 70
     1
102
RTVSPropertyOp41
 70
     1
102
RTVSPropertyOp42
 70
     1
102
RTVSPropertyOp43
 70
     1
102
RTVSPropertyOp44
 70
     1
102
RTVSPropertyOp45
 70
     1
102
RTVSPropertyOp46
 70
     1
102
RTVSPropertyOp47
 70
     1
102
RTVSPropertyOp48
 70
     1
102
RTVSPropertyOp49
 70
     1
102
RTVSPropertyOp50
 70
     1
102
RTVSPropertyOp51
 70
     0
102
RTVSPropertyOp52
 70
     0
102
RTVSPropertyOp53
 70
     1
102
RTVSPropertyOp54
 70
     1
102
RTVSPropertyOp55
 70
     1
102
RTVSPropertyOp56
 70
     1
102
RTVSPropertyOp57
 70
     1
102
RTVSPost2010Prop28
280
     0
102
RTVSPost2010PropOp28
 70
     1
102
RTVSPost2010Prop29
280
     1
102
RTVSPost2010PropOp29
 70
     1
102
RTVSPost2010Prop30
280
     1
102
RTVSPost2010PropOp30
 70
     1
102
RTVSPost2010Prop31
280
     0
102
RTVSPost2010PropOp31
 70
     1
102
RTVSPost2010Prop32
280
     0
102
RTVSPost2010PropOp32
 70
     1
102
RTVSPost2010Prop33
280
     0
102
RTVSPost2010PropOp33
 70
     1
102
RTVSPost2010Prop34
280
     0
102
RTVSPost2010PropOp34
 70
     1
102
RTVSPost2010Prop35
280
     0
102
RTVSPost2010PropOp35
 70
     1
102
RTVSPost2010Prop36
280
     0
102
RTVSPost2010PropOp36
 70
     1
102
RTVSPost2010Prop37
 90
       50
102
RTVSPost2010PropOp37
 70
     1
102
RTVSPost2010Prop38
140
0.0
102
RTVSPost2010PropOp38
 70
     1
102
RTVSPost2010Prop39
140
1.0
102
RTVSPost2010PropOp39
 70
     1
102
RTVSPost2010Prop40
 90
        0
102
RTVSPost2010PropOp40
 70
     1
102
RTVSPost2010Prop41ColorIndex
 90
       18
102
RTVSPost2010Prop41ColorRGB
 90
        0
102
RTVSPost2010PropOp41
 70
     1
102
RTVSPost2010Prop42
 90
       50
102
RTVSPost2010PropOp42
 70
     1
102
RTVSPost2010Prop43
 90
        3
102
RTVSPost2010PropOp43
 70
     1
102
RTVSPost2010Prop44ColorIndex
 90
        5
102
RTVSPost2010Prop44ColorRGB
 90
      255
102
RTVSPost2010PropOp44
 70
     1
102
RTVSPost2010Prop45
280
     0
102
RTVSPost2010PropOp45
 70
     1
102
RTVSPost2010Prop46
 90
       50
102
RTVSPost2010PropOp46
 70
     1
102
RTVSPost2010Prop47
 90
       50
102
RTVSPost2010PropOp47
 70
     1
102
RTVSPost2010Prop48
 90
       50
102
RTVSPost2010PropOp48
 70
     1
102
RTVSPost2010Prop49
280
     0
102
RTVSPost2010PropOp49
 70
     1
102
RTVSPost2010Prop50
 90
       50
102
RTVSPost2010PropOp50
 70
     1
102
RTVSPost2010Prop51ColorIndex
 90
      256
102
RTVSPost2010Prop51ColorRGB
 90
-16777216
102
RTVSPost2010PropOp51
 70
     0
102
RTVSPost2010Prop52
140
1.0
102
RTVSPost2010PropOp52
 70
     0
102
RTVSPost2010Prop53
 90
        2
102
RTVSPost2010PropOp53
 70
     1
102
RTVSPost2010Prop54
  1
strokes_ogs.tif
102
RTVSPost2010PropOp54
 70
     1
102
RTVSPost2010Prop55
280
     0
102
RTVSPost2010PropOp55
 70
     1
102
RTVSPost2010Prop56
140
1.0
102
RTVSPost2010PropOp56
 70
     1
102
RTVSPost2010Prop57
140
1.0
102
RTVSPost2010PropOp57
 70
     1
  0
ENDSEC
  0
EOF
