  0
SECTION
  2
HEADER
  9
$ACADVER
  1
AC1015
  9
$ACADMAINTVER
 70
     6
  9
$DWGCODEPAGE
  3
ANSI_1252
  9
$INSBASE
 10
0.0
 20
0.0
 30
0.0
  9
$EXTMIN
 10
-102.0
 20
-166.0312464002651
 30
0.0
  9
$EXTMAX
 10
63.0
 20
35.5
 30
0.0
  9
$LIMMIN
 10
0.0
 20
0.0
  9
$LIMMAX
 10
12.0
 20
9.0
  9
$ORTHOMODE
 70
     0
  9
$REGENMODE
 70
     1
  9
$FILLMODE
 70
     1
  9
$QTEXTMODE
 70
     0
  9
$MIRRTEXT
 70
     1
  9
$LTSCALE
 40
1.0
  9
$ATTMODE
 70
     1
  9
$TEXTSIZE
 40
0.2
  9
$TRACEWID
 40
0.05
  9
$TEXTSTYLE
  7
Standard
  9
$CLAYER
  8
0
  9
$CELTYPE
  6
ByBlock
  9
$CECOLOR
 62
   256
  9
$CELTSCALE
 40
1.0
  9
$DISPSILH
 70
     0
  9
$DIMSCALE
 40
1.0
  9
$DIMASZ
 40
0.18
  9
$DIMEXO
 40
0.0625
  9
$DIMDLI
 40
0.38
  9
$DIMRND
 40
0.0
  9
$DIMDLE
 40
0.0
  9
$DIMEXE
 40
0.18
  9
$DIMTP
 40
0.0
  9
$DIMTM
 40
0.0
  9
$DIMTXT
 40
0.18
  9
$DIMCEN
 40
0.09
  9
$DIMTSZ
 40
0.0
  9
$DIMTOL
 70
     0
  9
$DIMLIM
 70
     0
  9
$DIMTIH
 70
     1
  9
$DIMTOH
 70
     1
  9
$DIMSE1
 70
     0
  9
$DIMSE2
 70
     0
  9
$DIMTAD
 70
     0
  9
$DIMZIN
 70
     0
  9
$DIMBLK
  1

  9
$DIMASO
 70
     1
  9
$DIMSHO
 70
     1
  9
$DIMPOST
  1

  9
$DIMAPOST
  1

  9
$DIMALT
 70
     0
  9
$DIMALTD
 70
     2
  9
$DIMALTF
 40
25.4
  9
$DIMLFAC
 40
1.0
  9
$DIMTOFL
 70
     0
  9
$DIMTVP
 40
0.0
  9
$DIMTIX
 70
     0
  9
$DIMSOXD
 70
     0
  9
$DIMSAH
 70
     0
  9
$DIMBLK1
  1

  9
$DIMBLK2
  1

  9
$DIMSTYLE
  2
Standard
  9
$DIMCLRD
 70
     0
  9
$DIMCLRE
 70
     0
  9
$DIMCLRT
 70
     0
  9
$DIMTFAC
 40
1.0
  9
$DIMGAP
 40
0.09
  9
$DIMJUST
 70
     0
  9
$DIMSD1
 70
     0
  9
$DIMSD2
 70
     0
  9
$DIMTOLJ
 70
     1
  9
$DIMTZIN
 70
     0
  9
$DIMALTZ
 70
     0
  9
$DIMALTTZ
 70
     0
  9
$DIMUPT
 70
     0
  9
$DIMDEC
 70
     4
  9
$DIMTDEC
 70
     4
  9
$DIMALTU
 70
     2
  9
$DIMALTTD
 70
     2
  9
$DIMTXSTY
  7
Standard
  9
$DIMAUNIT
 70
     0
  9
$DIMADEC
 70
     0
  9
$DIMALTRND
 40
0.0
  9
$DIMAZIN
 70
     0
  9
$DIMDSEP
 70
    46
  9
$DIMATFIT
 70
     3
  9
$DIMFRAC
 70
     0
  9
$DIMLDRBLK
  1

  9
$DIMLUNIT
 70
     2
  9
$DIMLWD
 70
    -2
  9
$DIMLWE
 70
    -2
  9
$DIMTMOVE
 70
     0
  9
$LUNITS
 70
     2
  9
$LUPREC
 70
     4
  9
$SKETCHINC
 40
1.0
  9
$FILLETRAD
 40
0.5
  9
$AUNITS
 70
     0
  9
$AUPREC
 70
     0
  9
$MENU
  1
.
  9
$ELEVATION
 40
0.0
  9
$PELEVATION
 40
0.0
  9
$THICKNESS
 40
0.0
  9
$LIMCHECK
 70
     0
  9
$CHAMFERA
 40
0.5
  9
$CHAMFERB
 40
0.5
  9
$CHAMFERC
 40
1.0
  9
$CHAMFERD
 40
0.0
  9
$SKPOLY
 70
     0
  9
$TDCREATE
 40
2459772.083338634
  9
$TDUCREATE
 40
2459772.000005301
  9
$TDUPDATE
 40
2460419.632342916
  9
$TDUUPDATE
 40
2460419.549009583
  9
$TDINDWG
 40
0.0
  9
$TDUSRTIMER
 40
0.0
  9
$USRTIMER
 70
     1
  9
$ANGBASE
 50
0.0
  9
$ANGDIR
 70
     0
  9
$PDMODE
 70
     0
  9
$PDSIZE
 40
0.0
  9
$PLINEWID
 40
0.0
  9
$SPLFRAME
 70
     0
  9
$SPLINETYPE
 70
     6
  9
$SPLINESEGS
 70
     8
  9
$HANDSEED
  5
4D6
  9
$SURFTAB1
 70
     6
  9
$SURFTAB2
 70
     6
  9
$SURFTYPE
 70
     6
  9
$SURFU
 70
     6
  9
$SURFV
 70
     6
  9
$UCSBASE
  2

  9
$UCSNAME
  2

  9
$UCSORG
 10
0.0
 20
0.0
 30
0.0
  9
$UCSXDIR
 10
1.0
 20
0.0
 30
0.0
  9
$UCSYDIR
 10
0.0
 20
1.0
 30
0.0
  9
$UCSORTHOREF
  2

  9
$UCSORTHOVIEW
 70
     0
  9
$UCSORGTOP
 10
0.0
 20
0.0
 30
0.0
  9
$UCSORGBOTTOM
 10
0.0
 20
0.0
 30
0.0
  9
$UCSORGLEFT
 10
0.0
 20
0.0
 30
0.0
  9
$UCSORGRIGHT
 10
0.0
 20
0.0
 30
0.0
  9
$UCSORGFRONT
 10
0.0
 20
0.0
 30
0.0
  9
$UCSORGBACK
 10
0.0
 20
0.0
 30
0.0
  9
$PUCSBASE
  2

  9
$PUCSNAME
  2

  9
$PUCSORG
 10
0.0
 20
0.0
 30
0.0
  9
$PUCSXDIR
 10
1.0
 20
0.0
 30
0.0
  9
$PUCSYDIR
 10
0.0
 20
1.0
 30
0.0
  9
$PUCSORTHOREF
  2

  9
$PUCSORTHOVIEW
 70
     0
  9
$PUCSORGTOP
 10
0.0
 20
0.0
 30
0.0
  9
$PUCSORGBOTTOM
 10
0.0
 20
0.0
 30
0.0
  9
$PUCSORGLEFT
 10
0.0
 20
0.0
 30
0.0
  9
$PUCSORGRIGHT
 10
0.0
 20
0.0
 30
0.0
  9
$PUCSORGFRONT
 10
0.0
 20
0.0
 30
0.0
  9
$PUCSORGBACK
 10
0.0
 20
0.0
 30
0.0
  9
$USERI1
 70
     0
  9
$USERI2
 70
     0
  9
$USERI3
 70
     0
  9
$USERI4
 70
     0
  9
$USERI5
 70
     0
  9
$USERR1
 40
1.0
  9
$USERR2
 40
0.0
  9
$USERR3
 40
0.0
  9
$USERR4
 40
0.0
  9
$USERR5
 40
0.0
  9
$WORLDVIEW
 70
     1
  9
$SHADEDGE
 70
     3
  9
$SHADEDIF
 70
    70
  9
$TILEMODE
 70
     1
  9
$MAXACTVP
 70
    64
  9
$PINSBASE
 10
0.0
 20
0.0
 30
0.0
  9
$PLIMCHECK
 70
     0
  9
$PEXTMIN
 10
1.000000000000000E+20
 20
1.000000000000000E+20
 30
1.000000000000000E+20
  9
$PEXTMAX
 10
-1.000000000000000E+20
 20
-1.000000000000000E+20
 30
-1.000000000000000E+20
  9
$PLIMMIN
 10
0.0
 20
0.0
  9
$PLIMMAX
 10
12.0
 20
9.0
  9
$UNITMODE
 70
     0
  9
$VISRETAIN
 70
     1
  9
$PLINEGEN
 70
     0
  9
$PSLTSCALE
 70
     1
  9
$TREEDEPTH
 70
  3020
  9
$CMLSTYLE
  2
Standard
  9
$CMLJUST
 70
     0
  9
$CMLSCALE
 40
1.0
  9
$PROXYGRAPHICS
 70
     1
  9
$MEASUREMENT
 70
     0
  9
$CELWEIGHT
370
    -1
  9
$ENDCAPS
280
     0
  9
$JOINSTYLE
280
     0
  9
$LWDISPLAY
290
     0
  9
$INSUNITS
 70
     0
  9
$HYPERLINKBASE
  1

  9
$STYLESHEET
  1

  9
$XEDIT
290
     1
  9
$CEPSNTYPE
380
     0
  9
$PSTYLEMODE
290
     1
  9
$FINGERPRINTGUID
  2
{629E076B-CFE6-4B3F-9F7B-4F083EF8C4E4}
  9
$VERSIONGUID
  2
{FAEB1C32-E019-11D5-929B-00C0DF256EC4}
  9
$EXTNAMES
290
     1
  9
$PSVPSCALE
 40
0.0
  9
$OLESTARTUP
290
     0
  0
ENDSEC
  0
SECTION
  2
CLASSES
  0
CLASS
  1
ACDBDICTIONARYWDFLT
  2
AcDbDictionaryWithDefault
  3
ObjectDBX Classes
 90
        0
280
     0
281
     0
  0
CLASS
  1
SCALE
  2
AcDbScale
  3
ObjectDBX Classes
 90
     1153
280
     0
281
     0
  0
CLASS
  1
DICTIONARYVAR
  2
AcDbDictionaryVar
  3
ObjectDBX Classes
 90
        0
280
     0
281
     0
  0
CLASS
  1
VISUALSTYLE
  2
AcDbVisualStyle
  3
ObjectDBX Classes
 90
     4095
280
     0
281
     0
  0
CLASS
  1
MATERIAL
  2
AcDbMaterial
  3
ObjectDBX Classes
 90
     1153
280
     0
281
     0
  0
CLASS
  1
MLEADERSTYLE
  2
AcDbMLeaderStyle
  3
ACDB_MLEADERSTYLE_CLASS
 90
     4095
280
     0
281
     0
  0
CLASS
  1
TABLESTYLE
  2
AcDbTableStyle
  3
ObjectDBX Classes
 90
     4095
280
     0
281
     0
  0
CLASS
  1
ACDBPLACEHOLDER
  2
AcDbPlaceHolder
  3
ObjectDBX Classes
 90
        0
280
     0
281
     0
  0
CLASS
  1
LAYOUT
  2
AcDbLayout
  3
ObjectDBX Classes
 90
        0
280
     0
281
     0
  0
ENDSEC
  0
SECTION
  2
TABLES
  0
TABLE
  2
VPORT
  5
E
102
{ACAD_XDICTIONARY
360
49B
102
}
330
0
100
AcDbSymbolTable
 70
     1
  0
VPORT
  5
F
330
E
100
AcDbSymbolTableRecord
100
AcDbViewportTableRecord
  2
*Active
 70
     0
 10
0.0
 20
0.0
 11
1.0
 21
1.0
 12
-19.5
 22
-65.26562320013257
 13
0.0
 23
0.0
 14
0.5
 24
0.5
 15
0.5
 25
0.5
 16
0.0
 26
0.0
 36
1.0
 17
0.0
 27
0.0
 37
0.0
 40
201.5312464002651
 41
2.437532488506921
 42
50.0
 43
0.0
 44
0.0
 50
0.0
 51
0.0
 71
     0
 72
   100
 73
     1
 74
     3
 75
     0
 76
     0
 77
     0
 78
     0
281
     0
 65
     1
110
0.0
120
0.0
130
0.0
111
1.0
121
0.0
131
0.0
112
0.0
122
1.0
132
0.0
 79
     0
146
0.0
  0
ENDTAB
  0
TABLE
  2
LTYPE
  5
18
330
0
100
AcDbSymbolTable
 70
     1
  0
LTYPE
  5
19
330
18
100
AcDbSymbolTableRecord
100
AcDbLinetypeTableRecord
  2
ByBlock
 70
     0
  3

 72
    65
 73
     0
 40
0.0
  0
LTYPE
  5
1A
330
18
100
AcDbSymbolTableRecord
100
AcDbLinetypeTableRecord
  2
ByLayer
 70
     0
  3

 72
    65
 73
     0
 40
0.0
  0
LTYPE
  5
1B
330
18
100
AcDbSymbolTableRecord
100
AcDbLinetypeTableRecord
  2
Continuous
 70
     0
  3
Solid line
 72
    65
 73
     0
 40
0.0
  0
ENDTAB
  0
TABLE
  2
LAYER
  5
1C
330
0
100
AcDbSymbolTable
 70
     2
  0
LAYER
  5
1D
330
1C
100
AcDbSymbolTableRecord
100
AcDbLayerTableRecord
  2
0
 70
     0
 62
     7
  6
Continuous
370
    -3
390
3
  0
LAYER
  5
27
330
1C
100
AcDbSymbolTableRecord
100
AcDbLayerTableRecord
  2
$TD_AUDIT_GENERATED_(27)
 70
     0
 62
     7
  6
Continuous
370
    -3
390
3
  0
ENDTAB
  0
TABLE
  2
STYLE
  5
14
330
0
100
AcDbSymbolTable
 70
     1
  0
STYLE
  5
15
330
14
100
AcDbSymbolTableRecord
100
AcDbTextStyleTableRecord
  2
Standard
 70
     0
 40
0.2
 41
1.0
 50
0.0
 71
     0
 42
0.2
  3

  4

  0
ENDTAB
  0
TABLE
  2
VIEW
  5
10
330
0
100
AcDbSymbolTable
 70
     0
  0
ENDTAB
  0
TABLE
  2
UCS
  5
11
330
0
100
AcDbSymbolTable
 70
     0
  0
ENDTAB
  0
TABLE
  2
APPID
  5
12
330
0
100
AcDbSymbolTable
 70
     2
  0
APPID
  5
13
330
12
100
AcDbSymbolTableRecord
100
AcDbRegAppTableRecord
  2
ACAD
 70
     0
  0
APPID
  5
49D
330
12
100
AcDbSymbolTableRecord
100
AcDbRegAppTableRecord
  2
ACAD_MLEADERVER
 70
     0
  0
ENDTAB
  0
TABLE
  2
DIMSTYLE
  5
16
330
0
100
AcDbSymbolTable
 70
     1
100
AcDbDimStyleTable
  0
DIMSTYLE
105
17
330
16
100
AcDbSymbolTableRecord
100
AcDbDimStyleTableRecord
  2
Standard
 70
     0
178
     0
340
15
  0
ENDTAB
  0
TABLE
  2
BLOCK_RECORD
  5
1E
330
0
100
AcDbSymbolTable
 70
     2
  0
BLOCK_RECORD
  5
1F
330
1E
100
AcDbSymbolTableRecord
100
AcDbBlockTableRecord
  2
*Model_Space
340
C
  0
BLOCK_RECORD
  5
22
330
1E
100
AcDbSymbolTableRecord
100
AcDbBlockTableRecord
  2
*Paper_Space
340
D
  0
BLOCK_RECORD
  5
28
330
1E
100
AcDbSymbolTableRecord
100
AcDbBlockTableRecord
  2
(null)_Text26678
340
0
102
{BLKREFS
331
32
102
}
  0
BLOCK_RECORD
  5
33
330
1E
100
AcDbSymbolTableRecord
100
AcDbBlockTableRecord
  2
Block_Picture__26678
340
0
102
{BLKREFS
331
471
102
}
  0
ENDTAB
  0
ENDSEC
  0
SECTION
  2
BLOCKS
  0
BLOCK
  5
20
330
1F
100
AcDbEntity
  8
0
100
AcDbBlockBegin
  2
*Model_Space
 70
     0
 10
0.0
 20
0.0
 30
0.0
  3
*Model_Space
  1

  0
ENDBLK
  5
21
330
1F
100
AcDbEntity
  8
0
100
AcDbBlockEnd
  0
BLOCK
  5
23
330
22
100
AcDbEntity
 67
     1
  8
0
100
AcDbBlockBegin
  2
*Paper_Space
 70
     0
 10
0.0
 20
0.0
 30
0.0
  3
*Paper_Space
  1

  0
ENDBLK
  5
24
330
22
100
AcDbEntity
 67
     1
  8
0
100
AcDbBlockEnd
  0
BLOCK
  5
29
330
28
100
AcDbEntity
  8
$TD_AUDIT_GENERATED_(27)
100
AcDbBlockBegin
  2
(null)_Text26678
 70
     0
 10
0.0
 20
0.0
 30
0.0
  3
(null)_Text26678
  1

  0
TEXT
  5
2B
330
28
100
AcDbEntity
  8
$TD_AUDIT_GENERATED_(27)
 62
     1
100
AcDbText
 10
0.0
 20
-45.0
 30
0.0
 40
10.0
  1
Oventrop
100
AcDbText
  0
TEXT
  5
2C
330
28
100
AcDbEntity
  8
$TD_AUDIT_GENERATED_(27)
 62
     2
100
AcDbText
 10
0.0
 20
-60.0
 30
0.0
 40
10.0
  1
Isolating and control valve assemblies
100
AcDbText
  0
TEXT
  5
2D
330
28
100
AcDbEntity
  8
$TD_AUDIT_GENERATED_(27)
 62
     2
100
AcDbText
 10
0.0
 20
-75.0
 30
0.0
 40
10.0
  1
Cocon QTZ Ms-Durchflussregler PN25 (600-4800 l/h)
100
AcDbText
  0
TEXT
  5
2E
330
28
100
AcDbEntity
  8
$TD_AUDIT_GENERATED_(27)
 62
     2
100
AcDbText
 10
0.0
 20
-90.0
 30
0.0
 40
10.0
  1
Throughflow controller
100
AcDbText
  0
TEXT
  5
2F
330
28
100
AcDbEntity
  8
$TD_AUDIT_GENERATED_(27)
 62
     2
100
AcDbText
 10
0.0
 20
-105.0
 30
0.0
 40
10.0
  1
DN32, kvs=0 m3/h
100
AcDbText
  0
TEXT
  5
30
330
28
100
AcDbEntity
  8
$TD_AUDIT_GENERATED_(27)
 62
     2
100
AcDbText
 10
0.0
 20
-120.0
 30
0.0
 40
10.0
  1
Art.-Nr. 1143610
100
AcDbText
  0
TEXT
  5
31
330
28
100
AcDbEntity
  8
$TD_AUDIT_GENERATED_(27)
 62
     2
100
AcDbText
 10
0.0
 20
-135.0
 30
0.0
 40
10.0
  1
EAN 4026755421804
100
AcDbText
  0
ENDBLK
  5
2A
330
28
100
AcDbEntity
  8
$TD_AUDIT_GENERATED_(27)
100
AcDbBlockEnd
  0
BLOCK
  5
34
330
33
100
AcDbEntity
  8
$TD_AUDIT_GENERATED_(27)
100
AcDbBlockBegin
  2
Block_Picture__26678
 70
     0
 10
0.0
 20
0.0
 30
0.0
  3
Block_Picture__26678
  1

  0
LINE
  5
36
330
33
100
AcDbEntity
  8
$TD_AUDIT_GENERATED_(27)
100
AcDbLine
 10
-12.43368744460282
 20
-26.450000593742
 30
0.0
 11
-9.689306716542724
 21
-26.0
 31
0.0
  0
LINE
  5
37
330
33
100
AcDbEntity
  8
$TD_AUDIT_GENERATED_(27)
100
AcDbLine
 10
-0.7088876862075768
 20
26.0
 30
0.0
 11
-4.324153425330454
 21
27.90705104568005
 31
0.0
  0
LINE
  5
38
330
33
100
AcDbEntity
  8
$TD_AUDIT_GENERATED_(27)
100
AcDbLine
 10
-1.360921335007869
 20
26.3439474622552
 30
0.0
 11
-3.729015583113398
 21
27.59311610931965
 31
0.0
  0
LINE
  5
39
330
33
100
AcDbEntity
  8
$TD_AUDIT_GENERATED_(27)
100
AcDbLine
 10
-3.729015583113398
 20
27.59311610931965
 30
0.0
 11
-4.324153415806494
 21
27.90705104745686
 31
0.0
  0
LINE
  5
3A
330
33
100
AcDbEntity
  8
$TD_AUDIT_GENERATED_(27)
100
AcDbLine
 10
-0.2561226771063695
 20
26.0
 30
0.0
 11
-1.1907947723791
 21
26.63873603626989
 31
0.0
  0
LINE
  5
3B
330
33
100
AcDbEntity
  8
$TD_AUDIT_GENERATED_(27)
100
AcDbLine
 10
-1.1907947723791
 20
26.63873603626989
 30
0.0
 11
-3.559197274661221
 21
27.95818693884793
 31
0.0
  0
LINE
  5
3C
330
33
100
AcDbEntity
  8
$TD_AUDIT_GENERATED_(27)
100
AcDbLine
 10
-3.559197274661221
 20
27.95818693884793
 30
0.0
 11
-3.681701652005983
 21
28.01239491327141
 31
0.0
  0
LINE
  5
3D
330
33
100
AcDbEntity
  8
$TD_AUDIT_GENERATED_(27)
100
AcDbLine
 10
-12.43368855927688
 20
-26.45000041112676
 30
0.0
 11
-9.689308944917014
 21
-26.0
 31
0.0
  0
LINE
  5
3E
330
33
100
AcDbEntity
  8
$TD_AUDIT_GENERATED_(27)
100
AcDbLine
 10
-13.53292574130846
 20
-26.0
 30
0.0
 11
-13.83785903828554
 21
-26.05000041112677
 31
0.0
  0
LINE
  5
3F
330
33
100
AcDbEntity
  8
$TD_AUDIT_GENERATED_(27)
100
AcDbLine
 10
-4.324153425330273
 20
-27.90705104567996
 30
0.0
 11
-0.7088876862076154
 21
-26.0
 31
0.0
  0
LINE
  5
40
330
33
100
AcDbEntity
  8
$TD_AUDIT_GENERATED_(27)
100
AcDbLine
 10
-4.324153415806325
 20
-27.90705104745676
 30
0.0
 11
-3.729015583113218
 21
-27.59311610931954
 31
0.0
  0
LINE
  5
41
330
33
100
AcDbEntity
  8
$TD_AUDIT_GENERATED_(27)
100
AcDbLine
 10
-3.729015583113218
 20
-27.59311610931954
 30
0.0
 11
-1.360921335007706
 21
-26.34394746225507
 31
0.0
  0
LINE
  5
42
330
33
100
AcDbEntity
  8
$TD_AUDIT_GENERATED_(27)
100
AcDbLine
 10
-1.360921335007706
 20
-26.34394746225507
 30
0.0
 11
-0.7088876768223078
 21
-26.0
 31
0.0
  0
LINE
  5
43
330
33
100
AcDbEntity
  8
$TD_AUDIT_GENERATED_(27)
100
AcDbLine
 10
-3.681701652005803
 20
-28.01239491327132
 30
0.0
 11
-3.559197274661035
 21
-27.95818693884783
 31
0.0
  0
LINE
  5
44
330
33
100
AcDbEntity
  8
$TD_AUDIT_GENERATED_(27)
100
AcDbLine
 10
-3.559197274661035
 20
-27.95818693884783
 30
0.0
 11
-1.19079477237892
 21
-26.63873603626978
 31
0.0
  0
LINE
  5
45
330
33
100
AcDbEntity
  8
$TD_AUDIT_GENERATED_(27)
100
AcDbLine
 10
-1.19079477237892
 20
-26.63873603626978
 30
0.0
 11
-0.2561226771063664
 21
-26.0
 31
0.0
  0
LINE
  5
46
330
33
100
AcDbEntity
  8
$TD_AUDIT_GENERATED_(27)
100
AcDbLine
 10
-9.689306716542726
 20
-26.0
 30
0.0
 11
-12.43368744460282
 21
-26.450000593742
 31
0.0
  0
LINE
  5
47
330
33
100
AcDbEntity
  8
$TD_AUDIT_GENERATED_(27)
100
AcDbLine
 10
-13.83785903828554
 20
-26.05000041112677
 30
0.0
 11
-13.53292574130846
 21
-26.0
 31
0.0
  0
LINE
  5
48
330
33
100
AcDbEntity
  8
$TD_AUDIT_GENERATED_(27)
100
AcDbLine
 10
-13.15362721402724
 20
-25.95000018261524
 30
0.0
 11
-12.94093703430305
 21
-25.91512502619821
 31
0.0
  0
LINE
  5
49
330
33
100
AcDbEntity
  8
$TD_AUDIT_GENERATED_(27)
100
AcDbLine
 10
-4.324153425330454
 20
27.90705104568005
 30
0.0
 11
-4.468772083635857
 21
27.98333732266424
 31
0.0
  0
LINE
  5
4A
330
33
100
AcDbEntity
  8
$TD_AUDIT_GENERATED_(27)
100
AcDbLine
 10
-4.468772074111907
 20
27.98333732444104
 30
0.0
 11
-4.324153415806483
 21
27.90705104745686
 31
0.0
  0
LINE
  5
4B
330
33
100
AcDbEntity
  8
$TD_AUDIT_GENERATED_(27)
100
AcDbLine
 10
-3.681701652005983
 20
28.01239491327141
 30
0.0
 11
-3.846589694852559
 21
28.08535758614155
 31
0.0
  0
LINE
  5
4C
330
33
100
AcDbEntity
  8
$TD_AUDIT_GENERATED_(27)
100
AcDbLine
 10
-4.468772083635857
 20
27.98333732266424
 30
0.0
 11
-4.468779746552932
 21
27.98334136484954
 31
0.0
  0
LINE
  5
4D
330
33
100
AcDbEntity
  8
$TD_AUDIT_GENERATED_(27)
100
AcDbLine
 10
-4.468779737028976
 20
27.98334136662634
 30
0.0
 11
-4.468772074111906
 21
27.98333732444104
 31
0.0
  0
LINE
  5
4E
330
33
100
AcDbEntity
  8
$TD_AUDIT_GENERATED_(27)
100
AcDbLine
 10
-3.846589694852559
 20
28.08535758614155
 30
0.0
 11
-3.846598345800266
 21
28.0853614141709
 31
0.0
  0
LINE
  5
4F
330
33
100
AcDbEntity
  8
$TD_AUDIT_GENERATED_(27)
100
AcDbLine
 10
-16.8393040740394
 20
-25.34565372370366
 30
0.0
 11
-13.45855911837418
 21
-25.9
 31
0.0
  0
LINE
  5
50
330
33
100
AcDbEntity
  8
$TD_AUDIT_GENERATED_(27)
100
AcDbLine
 10
-13.45855911837418
 20
-25.9
 30
0.0
 11
-13.03317872775814
 21
-25.9
 31
0.0
  0
LINE
  5
51
330
33
100
AcDbEntity
  8
$TD_AUDIT_GENERATED_(27)
100
AcDbLine
 10
-16.8393040740394
 20
-25.34565372370366
 30
0.0
 11
-13.45855911837418
 21
-25.9
 31
0.0
  0
LINE
  5
52
330
33
100
AcDbEntity
  8
$TD_AUDIT_GENERATED_(27)
100
AcDbLine
 10
-12.73861712057551
 20
-26.50000041112677
 30
0.0
 11
-12.43368744460282
 21
-26.450000593742
 31
0.0
  0
LINE
  5
53
330
33
100
AcDbEntity
  8
$TD_AUDIT_GENERATED_(27)
100
AcDbLine
 10
-12.73861823524957
 20
-26.50000022851152
 30
0.0
 11
-12.43368855927688
 21
-26.45000041112676
 31
0.0
  0
LINE
  5
54
330
33
100
AcDbEntity
  8
$TD_AUDIT_GENERATED_(27)
100
AcDbLine
 10
-13.83785903828554
 20
-26.05000041112677
 30
0.0
 11
-14.14278871425821
 21
-26.10000022851153
 31
0.0
  0
LINE
  5
55
330
33
100
AcDbEntity
  8
$TD_AUDIT_GENERATED_(27)
100
AcDbLine
 10
-4.468772083635733
 20
-27.98333732266418
 30
0.0
 11
-4.324153425330273
 21
-27.90705104567996
 31
0.0
  0
LINE
  5
56
330
33
100
AcDbEntity
  8
$TD_AUDIT_GENERATED_(27)
100
AcDbLine
 10
-4.468772074111768
 20
-27.98333732444098
 30
0.0
 11
-4.324153415806295
 21
-27.90705104745677
 31
0.0
  0
LINE
  5
57
330
33
100
AcDbEntity
  8
$TD_AUDIT_GENERATED_(27)
100
AcDbLine
 10
-3.846589694852444
 20
-28.08535758614148
 30
0.0
 11
-3.681701652005803
 21
-28.01239491327132
 31
0.0
  0
LINE
  5
58
330
33
100
AcDbEntity
  8
$TD_AUDIT_GENERATED_(27)
100
AcDbLine
 10
-12.43368744460282
 20
-26.450000593742
 30
0.0
 11
-12.73861712057551
 21
-26.50000041112677
 31
0.0
  0
LINE
  5
59
330
33
100
AcDbEntity
  8
$TD_AUDIT_GENERATED_(27)
100
AcDbLine
 10
-14.14278871425821
 20
-26.10000022851153
 30
0.0
 11
-13.83785903828554
 21
-26.05000041112677
 31
0.0
  0
LINE
  5
5A
330
33
100
AcDbEntity
  8
$TD_AUDIT_GENERATED_(27)
100
AcDbLine
 10
-18.13339887103344
 20
-25.44565335847317
 30
0.0
 11
-14.75265168796775
 21
-26.0
 31
0.0
  0
LINE
  5
5B
330
33
100
AcDbEntity
  8
$TD_AUDIT_GENERATED_(27)
100
AcDbLine
 10
-14.75265168796775
 20
-26.0
 30
0.0
 11
-13.45855688999989
 21
-26.0
 31
0.0
  0
LINE
  5
5C
330
33
100
AcDbEntity
  8
$TD_AUDIT_GENERATED_(27)
100
AcDbLine
 10
-13.45855688999989
 20
-26.0
 30
0.0
 11
-16.83930407306556
 21
-25.44565335847317
 31
0.0
  0
LINE
  5
5D
330
33
100
AcDbEntity
  8
$TD_AUDIT_GENERATED_(27)
100
AcDbLine
 10
-18.13339887103344
 20
-25.44565335847317
 30
0.0
 11
-14.75265168796775
 21
-26.0
 31
0.0
  0
LINE
  5
5E
330
33
100
AcDbEntity
  8
$TD_AUDIT_GENERATED_(27)
100
AcDbLine
 10
-12.73863577051141
 20
-26.50000346918724
 30
0.0
 11
-12.73861712057551
 21
-26.50000041112677
 31
0.0
  0
LINE
  5
5F
330
33
100
AcDbEntity
  8
$TD_AUDIT_GENERATED_(27)
100
AcDbLine
 10
-12.7386368851853
 20
-26.50000328657197
 30
0.0
 11
-12.73861823524957
 21
-26.50000022851152
 31
0.0
  0
LINE
  5
60
330
33
100
AcDbEntity
  8
$TD_AUDIT_GENERATED_(27)
100
AcDbLine
 10
-14.14278871425821
 20
-26.10000022851153
 30
0.0
 11
-14.14280696493766
 21
-26.10000322110527
 31
0.0
  0
LINE
  5
61
330
33
100
AcDbEntity
  8
$TD_AUDIT_GENERATED_(27)
100
AcDbLine
 10
-4.468781630913426
 20
-27.98334235884885
 30
0.0
 11
-4.468772083635733
 21
-27.98333732266418
 31
0.0
  0
LINE
  5
62
330
33
100
AcDbEntity
  8
$TD_AUDIT_GENERATED_(27)
100
AcDbLine
 10
-4.468781624478305
 20
-27.98334236011917
 30
0.0
 11
-4.468772077200621
 21
-27.9833373239345
 31
0.0
  0
LINE
  5
63
330
33
100
AcDbEntity
  8
$TD_AUDIT_GENERATED_(27)
100
AcDbLine
 10
-3.846600635316251
 20
-28.08536242727773
 30
0.0
 11
-3.846589694852444
 21
-28.08535758614148
 31
0.0
  0
LINE
  5
64
330
33
100
AcDbEntity
  8
$TD_AUDIT_GENERATED_(27)
100
AcDbLine
 10
-12.73861712057551
 20
-26.50000041112677
 30
0.0
 11
-12.73863577051141
 21
-26.50000346918724
 31
0.0
  0
LINE
  5
65
330
33
100
AcDbEntity
  8
$TD_AUDIT_GENERATED_(27)
100
AcDbLine
 10
-14.14280696493766
 20
-26.10000322110527
 30
0.0
 11
-14.14278871425821
 21
-26.10000022851153
 31
0.0
  0
LINE
  5
66
330
33
100
AcDbEntity
  8
$TD_AUDIT_GENERATED_(27)
100
AcDbLine
 10
-16.83930407306556
 20
-25.44565335847317
 30
0.0
 11
-13.45855688999989
 21
-26.0
 31
0.0
  0
LINE
  5
67
330
33
100
AcDbEntity
  8
$TD_AUDIT_GENERATED_(27)
100
AcDbLine
 10
-13.45855688999989
 20
-26.0
 30
0.0
 11
-13.15362721402724
 21
-25.95000018261524
 31
0.0
  0
LINE
  5
68
330
33
100
AcDbEntity
  8
$TD_AUDIT_GENERATED_(27)
100
AcDbLine
 10
-6.857532724574716
 20
26.0
 30
0.0
 11
-6.857532724574716
 21
26.52721888176031
 31
0.0
  0
LINE
  5
69
330
33
100
AcDbEntity
  8
$TD_AUDIT_GENERATED_(27)
100
AcDbLine
 10
-26.0
 20
22.09476676208941
 30
0.0
 11
-26.36922640518552
 21
21.9
 31
0.0
  0
LINE
  5
6A
330
33
100
AcDbEntity
  8
$TD_AUDIT_GENERATED_(27)
100
AcDbLine
 10
-26.0
 20
22.88825086240226
 30
0.0
 11
-27.8734629534929
 21
21.9
 31
0.0
  0
LINE
  5
6B
330
33
100
AcDbEntity
  8
$TD_AUDIT_GENERATED_(27)
100
AcDbLine
 10
-26.57936815552504
 20
21.9
 30
0.0
 11
-26.0
 21
22.20561644054852
 31
0.0
  0
LINE
  5
6C
330
33
100
AcDbEntity
  8
$TD_AUDIT_GENERATED_(27)
100
AcDbLine
 10
-26.0
 20
22.88825086200148
 30
0.0
 11
-27.87346295273315
 21
21.9
 31
0.0
  0
LINE
  5
6D
330
33
100
AcDbEntity
  8
$TD_AUDIT_GENERATED_(27)
100
AcDbLine
 10
-26.0
 20
22.20561644054852
 30
0.0
 11
-26.57936815552504
 21
21.9
 31
0.0
  0
LINE
  5
6E
330
33
100
AcDbEntity
  8
$TD_AUDIT_GENERATED_(27)
100
AcDbLine
 10
-21.18938543854242
 20
-24.63236377204451
 30
0.0
 11
-16.8393040740394
 21
-25.34565372370366
 31
0.0
  0
LINE
  5
6F
330
33
100
AcDbEntity
  8
$TD_AUDIT_GENERATED_(27)
100
AcDbLine
 10
-21.18938352654702
 20
-24.63236478010752
 30
0.0
 11
-16.83930407306556
 21
-25.34565372370366
 31
0.0
  0
LINE
  5
70
330
33
100
AcDbEntity
  8
$TD_AUDIT_GENERATED_(27)
100
AcDbLine
 10
-22.20839920081798
 20
-24.77746889370394
 30
0.0
 11
-18.13339887103344
 21
-25.44565335847317
 31
0.0
  0
LINE
  5
71
330
33
100
AcDbEntity
  8
$TD_AUDIT_GENERATED_(27)
100
AcDbLine
 10
-16.83930407306556
 20
-25.44565335847317
 30
0.0
 11
-20.91430440285012
 21
-24.77746889370394
 31
0.0
  0
LINE
  5
72
330
33
100
AcDbEntity
  8
$TD_AUDIT_GENERATED_(27)
100
AcDbLine
 10
-22.20839920005821
 20
-24.77746889370394
 30
0.0
 11
-18.13339887027367
 21
-25.44565335847317
 31
0.0
  0
LINE
  5
73
330
33
100
AcDbEntity
  8
$TD_AUDIT_GENERATED_(27)
100
AcDbLine
 10
-20.91430440285012
 20
-24.77746889370394
 30
0.0
 11
-16.83930407306556
 21
-25.44565335847317
 31
0.0
  0
LINE
  5
74
330
33
100
AcDbEntity
  8
$TD_AUDIT_GENERATED_(27)
100
AcDbLine
 10
-26.36922640518554
 20
-21.9
 30
0.0
 11
-21.18938543854242
 21
-24.63236377204451
 31
0.0
  0
LINE
  5
75
330
33
100
AcDbEntity
  8
$TD_AUDIT_GENERATED_(27)
100
AcDbLine
 10
-26.36922732682407
 20
-21.9
 30
0.0
 11
-21.18938543854242
 21
-24.63236377204451
 31
0.0
  0
LINE
  5
76
330
33
100
AcDbEntity
  8
$TD_AUDIT_GENERATED_(27)
100
AcDbLine
 10
-22.51332675840691
 20
-24.72746942367403
 30
0.0
 11
-22.20839920081798
 21
-24.77746889370394
 31
0.0
  0
LINE
  5
77
330
33
100
AcDbEntity
  8
$TD_AUDIT_GENERATED_(27)
100
AcDbLine
 10
-20.91430440285012
 20
-24.77746889370394
 30
0.0
 11
-21.21923196043904
 21
-24.72746942367403
 31
0.0
  0
LINE
  5
78
330
33
100
AcDbEntity
  8
$TD_AUDIT_GENERATED_(27)
100
AcDbLine
 10
-22.51332436633275
 20
-24.72747068509129
 30
0.0
 11
-22.20839920005823
 21
-24.77746889370394
 31
0.0
  0
LINE
  5
79
330
33
100
AcDbEntity
  8
$TD_AUDIT_GENERATED_(27)
100
AcDbLine
 10
-27.87346295349293
 20
-21.9
 30
0.0
 11
-22.51332675840691
 21
-24.72746942367403
 31
0.0
  0
LINE
  5
7A
330
33
100
AcDbEntity
  8
$TD_AUDIT_GENERATED_(27)
100
AcDbLine
 10
-21.21923196043904
 20
-24.72746942367403
 30
0.0
 11
-26.57936815552507
 21
-21.9
 31
0.0
  0
LINE
  5
7B
330
33
100
AcDbEntity
  8
$TD_AUDIT_GENERATED_(27)
100
AcDbLine
 10
-27.87346295349293
 20
-21.9
 30
0.0
 11
-22.51332675840691
 21
-24.72746942367403
 31
0.0
  0
LINE
  5
7C
330
33
100
AcDbEntity
  8
$TD_AUDIT_GENERATED_(27)
100
AcDbLine
 10
-26.57936815552507
 20
-21.9
 30
0.0
 11
-21.21923196043904
 21
-24.72746942367403
 31
0.0
  0
LINE
  5
7D
330
33
100
AcDbEntity
  8
$TD_AUDIT_GENERATED_(27)
100
AcDbLine
 10
-21.21923196043904
 20
-24.72746942367403
 30
0.0
 11
-20.91430440285012
 21
-24.77746889370394
 31
0.0
  0
LINE
  5
7E
330
33
100
AcDbEntity
  8
$TD_AUDIT_GENERATED_(27)
100
AcDbLine
 10
22.5319911732661
 20
-20.0
 30
0.0
 11
24.89942524016361
 21
-20.0
 31
0.0
  0
LINE
  5
7F
330
33
100
AcDbEntity
  8
$TD_AUDIT_GENERATED_(27)
100
AcDbLine
 10
17.0
 20
24.24676824280433
 30
0.0
 11
17.0
 21
23.40342340804373
 31
0.0
  0
LINE
  5
80
330
33
100
AcDbEntity
  8
$TD_AUDIT_GENERATED_(27)
100
AcDbLine
 10
24.76930796246016
 20
17.68375969858754
 30
0.0
 11
25.99999999999998
 21
17.58444173965945
 31
0.0
  0
LINE
  5
81
330
33
100
AcDbEntity
  8
$TD_AUDIT_GENERATED_(27)
100
AcDbLine
 10
26.5924081794729
 20
17.63224961477594
 30
0.0
 11
28.42427698645956
 21
17.78008308195076
 31
0.0
  0
LINE
  5
82
330
33
100
AcDbEntity
  8
$TD_AUDIT_GENERATED_(27)
100
AcDbLine
 10
25.99999999999998
 20
17.58444173965945
 30
0.0
 11
26.5924081794729
 21
17.63224961477594
 31
0.0
  0
LINE
  5
83
330
33
100
AcDbEntity
  8
$TD_AUDIT_GENERATED_(27)
100
AcDbLine
 10
7.505740345122905
 20
23.0
 30
0.0
 11
14.37095176558263
 21
21.87430042028427
 31
0.0
  0
LINE
  5
84
330
33
100
AcDbEntity
  8
$TD_AUDIT_GENERATED_(27)
100
AcDbLine
 10
14.4899572459923
 20
24.72747004032135
 30
0.0
 11
6.729283466342179
 21
26.0
 31
0.0
  0
LINE
  5
85
330
33
100
AcDbEntity
  8
$TD_AUDIT_GENERATED_(27)
100
AcDbLine
 10
14.37095176558263
 20
21.87430042028427
 30
0.0
 11
20.56415177109896
 21
18.60738968849182
 31
0.0
  0
LINE
  5
86
330
33
100
AcDbEntity
  8
$TD_AUDIT_GENERATED_(27)
100
AcDbLine
 10
21.49096594788032
 20
21.03444051742554
 30
0.0
 11
14.4899572459923
 21
24.72747004032135
 31
0.0
  0
LINE
  5
87
330
33
100
AcDbEntity
  8
$TD_AUDIT_GENERATED_(27)
100
AcDbLine
 10
21.64754029967006
 20
20.91565219472879
 30
0.0
 11
21.49096594788032
 21
21.03444051742554
 31
0.0
  0
LINE
  5
88
330
33
100
AcDbEntity
  8
$TD_AUDIT_GENERATED_(27)
100
AcDbLine
 10
18.66971826584219
 20
27.5
 30
0.0
 11
18.3
 21
27.5
 31
0.0
  0
LINE
  5
89
330
33
100
AcDbEntity
  8
$TD_AUDIT_GENERATED_(27)
100
AcDbLine
 10
18.3
 20
27.5
 30
0.0
 11
18.3
 21
26.0
 31
0.0
  0
LINE
  5
8A
330
33
100
AcDbEntity
  8
$TD_AUDIT_GENERATED_(27)
100
AcDbLine
 10
18.94708608296002
 20
28.79343907088953
 30
0.0
 11
18.94708608296002
 21
27.5
 31
0.0
  0
LINE
  5
8B
330
33
100
AcDbEntity
  8
$TD_AUDIT_GENERATED_(27)
100
AcDbLine
 10
18.94708608296002
 20
27.5
 30
0.0
 11
19.7705691433129
 21
27.5
 31
0.0
  0
LINE
  5
8C
330
33
100
AcDbEntity
  8
$TD_AUDIT_GENERATED_(27)
100
AcDbLine
 10
18.67686482452731
 20
27.5
 30
0.0
 11
18.66971826584219
 21
27.5
 31
0.0
  0
LINE
  5
8D
330
33
100
AcDbEntity
  8
$TD_AUDIT_GENERATED_(27)
100
AcDbLine
 10
19.7705691433129
 20
27.49999999999999
 30
0.0
 11
18.67686482452731
 21
27.49999999999999
 31
0.0
  0
LINE
  5
8E
330
33
100
AcDbEntity
  8
$TD_AUDIT_GENERATED_(27)
100
AcDbLine
 10
18.67686482452731
 20
26.0
 30
0.0
 11
18.71884705062546
 21
26.0
 31
0.0
  0
LINE
  5
8F
330
33
100
AcDbEntity
  8
$TD_AUDIT_GENERATED_(27)
100
AcDbLine
 10
21.47405355734794
 20
27.49999999999999
 30
0.0
 11
19.7705691433129
 21
27.49999999999999
 31
0.0
  0
LINE
  5
90
330
33
100
AcDbEntity
  8
$TD_AUDIT_GENERATED_(27)
100
AcDbLine
 10
19.7705691433129
 20
25.99999999999999
 30
0.0
 11
20.70993272936773
 21
25.99999999999999
 31
0.0
  0
LINE
  5
91
330
33
100
AcDbEntity
  8
$TD_AUDIT_GENERATED_(27)
100
AcDbLine
 10
21.77204860921891
 20
27.49999999999999
 30
0.0
 11
21.47405355734794
 21
27.49999999999999
 31
0.0
  0
LINE
  5
92
330
33
100
AcDbEntity
  8
$TD_AUDIT_GENERATED_(27)
100
AcDbLine
 10
21.47405355734794
 20
25.99999999999999
 30
0.0
 11
22.41676100069624
 21
25.99999999999999
 31
0.0
  0
LINE
  5
93
330
33
100
AcDbEntity
  8
$TD_AUDIT_GENERATED_(27)
100
AcDbLine
 10
17.44049135334361
 20
26.0
 30
0.0
 11
17.0
 21
26.0
 31
0.0
  0
LINE
  5
94
330
33
100
AcDbEntity
  8
$TD_AUDIT_GENERATED_(27)
100
AcDbLine
 10
17.0
 20
26.0
 30
0.0
 11
17.0
 21
24.24676824280433
 31
0.0
  0
LINE
  5
95
330
33
100
AcDbEntity
  8
$TD_AUDIT_GENERATED_(27)
100
AcDbLine
 10
18.71884705062546
 20
25.99999999999999
 30
0.0
 11
17.44049135334361
 21
25.99999999999999
 31
0.0
  0
LINE
  5
96
330
33
100
AcDbEntity
  8
$TD_AUDIT_GENERATED_(27)
100
AcDbLine
 10
20.70993272936773
 20
25.99999999999999
 30
0.0
 11
18.71884705062546
 21
25.99999999999999
 31
0.0
  0
LINE
  5
97
330
33
100
AcDbEntity
  8
$TD_AUDIT_GENERATED_(27)
100
AcDbLine
 10
22.41676100069624
 20
25.99999999999999
 30
0.0
 11
20.70993272936773
 21
25.99999999999999
 31
0.0
  0
LINE
  5
98
330
33
100
AcDbEntity
  8
$TD_AUDIT_GENERATED_(27)
100
AcDbLine
 10
28.42427698645956
 20
17.78008308195076
 30
0.0
 11
28.7811529493745
 21
17.80888329447026
 31
0.0
  0
LINE
  5
99
330
33
100
AcDbEntity
  8
$TD_AUDIT_GENERATED_(27)
100
AcDbLine
 10
28.7811529493745
 20
17.80888329447026
 30
0.0
 11
29.08242615884038
 21
17.88709869535757
 31
0.0
  0
LINE
  5
9A
330
33
100
AcDbEntity
  8
$TD_AUDIT_GENERATED_(27)
100
AcDbLine
 10
20.56415177109896
 20
18.60738968849182
 30
0.0
 11
25.47910300397851
 21
13.51905649900436
 31
0.0
  0
LINE
  5
9B
330
33
100
AcDbEntity
  8
$TD_AUDIT_GENERATED_(27)
100
AcDbLine
 10
27.1721954104587
 20
15.19610694824877
 30
0.0
 11
21.64754029967006
 21
20.91565219472879
 31
0.0
  0
LINE
  5
9C
330
33
100
AcDbEntity
  8
$TD_AUDIT_GENERATED_(27)
100
AcDbLine
 10
24.69667235825798
 20
27.49999999999999
 30
0.0
 11
24.69667235825798
 21
28.0305399595865
 31
0.0
  0
LINE
  5
9D
330
33
100
AcDbEntity
  8
$TD_AUDIT_GENERATED_(27)
100
AcDbLine
 10
22.18194580031535
 20
27.49999999999999
 30
0.0
 11
23.62056914331288
 21
27.49999999999999
 31
0.0
  0
LINE
  5
9E
330
33
100
AcDbEntity
  8
$TD_AUDIT_GENERATED_(27)
100
AcDbLine
 10
23.62056914331288
 20
27.49999999999999
 30
0.0
 11
21.77204860921891
 21
27.49999999999999
 31
0.0
  0
LINE
  5
9F
330
33
100
AcDbEntity
  8
$TD_AUDIT_GENERATED_(27)
100
AcDbLine
 10
22.86811483508688
 20
25.99999999999999
 30
0.0
 11
23.21884705062545
 21
25.99999999999999
 31
0.0
  0
LINE
  5
A0
330
33
100
AcDbEntity
  8
$TD_AUDIT_GENERATED_(27)
100
AcDbLine
 10
24.50131408539915
 20
27.49999999999999
 30
0.0
 11
23.62056914331288
 21
27.49999999999999
 31
0.0
  0
LINE
  5
A1
330
33
100
AcDbEntity
  8
$TD_AUDIT_GENERATED_(27)
100
AcDbLine
 10
24.69667235825798
 20
28.0305399595865
 30
0.0
 11
24.69667235825798
 21
27.49999999999999
 31
0.0
  0
LINE
  5
A2
330
33
100
AcDbEntity
  8
$TD_AUDIT_GENERATED_(27)
100
AcDbLine
 10
24.69667235825798
 20
27.49999999999999
 30
0.0
 11
24.90492841182328
 21
27.49999999999999
 31
0.0
  0
LINE
  5
A3
330
33
100
AcDbEntity
  8
$TD_AUDIT_GENERATED_(27)
100
AcDbLine
 10
24.90492841182328
 20
27.49999999999999
 30
0.0
 11
24.50131408539915
 21
27.49999999999999
 31
0.0
  0
LINE
  5
A4
330
33
100
AcDbEntity
  8
$TD_AUDIT_GENERATED_(27)
100
AcDbLine
 10
24.50131408539915
 20
25.99999999999999
 30
0.0
 11
25.24316220307162
 21
25.99999999999999
 31
0.0
  0
LINE
  5
A5
330
33
100
AcDbEntity
  8
$TD_AUDIT_GENERATED_(27)
100
AcDbLine
 10
23.21884705062545
 20
25.99999999999999
 30
0.0
 11
22.41676100069624
 21
25.99999999999999
 31
0.0
  0
LINE
  5
A6
330
33
100
AcDbEntity
  8
$TD_AUDIT_GENERATED_(27)
100
AcDbLine
 10
25.24316220307162
 20
25.99999999999999
 30
0.0
 11
23.21884705062545
 21
25.99999999999999
 31
0.0
  0
LINE
  5
A7
330
33
100
AcDbEntity
  8
$TD_AUDIT_GENERATED_(27)
100
AcDbLine
 10
25.47910300397851
 20
13.51905649900436
 30
0.0
 11
26.68651231209378
 21
11.06578925779866
 31
0.0
  0
LINE
  5
A8
330
33
100
AcDbEntity
  8
$TD_AUDIT_GENERATED_(27)
100
AcDbLine
 10
30.71923703809616
 20
7.989072043193017
 30
0.0
 11
27.1721954104587
 21
15.19610694824877
 31
0.0
  0
LINE
  5
A9
330
33
100
AcDbEntity
  8
$TD_AUDIT_GENERATED_(27)
100
AcDbLine
 10
24.69667235825798
 20
28.0305399595865
 30
0.0
 11
24.69667235825798
 21
29.4752849334307
 31
0.0
  0
LINE
  5
AA
330
33
100
AcDbEntity
  8
$TD_AUDIT_GENERATED_(27)
100
AcDbLine
 10
24.69667235825798
 20
29.4752849334307
 30
0.0
 11
24.69667235825798
 21
28.0305399595865
 31
0.0
  0
LINE
  5
AB
330
33
100
AcDbEntity
  8
$TD_AUDIT_GENERATED_(27)
100
AcDbLine
 10
24.9649191188322
 20
27.49999999999999
 30
0.0
 11
25.99999999999998
 21
27.49999999999999
 31
0.0
  0
LINE
  5
AC
330
33
100
AcDbEntity
  8
$TD_AUDIT_GENERATED_(27)
100
AcDbLine
 10
25.99999999999998
 20
27.49999999999999
 30
0.0
 11
24.90492841182328
 21
27.49999999999999
 31
0.0
  0
LINE
  5
AD
330
33
100
AcDbEntity
  8
$TD_AUDIT_GENERATED_(27)
100
AcDbLine
 10
28.37943085668707
 20
27.49999999999999
 30
0.0
 11
25.99999999999998
 21
27.49999999999999
 31
0.0
  0
LINE
  5
AE
330
33
100
AcDbEntity
  8
$TD_AUDIT_GENERATED_(27)
100
AcDbLine
 10
30.52594644265202
 20
27.49999999999999
 30
0.0
 11
28.37943085668707
 21
27.49999999999999
 31
0.0
  0
LINE
  5
AF
330
33
100
AcDbEntity
  8
$TD_AUDIT_GENERATED_(27)
100
AcDbLine
 10
28.37943085668707
 20
25.99999999999999
 30
0.0
 11
28.7811529493745
 21
25.99999999999999
 31
0.0
  0
LINE
  5
B0
330
33
100
AcDbEntity
  8
$TD_AUDIT_GENERATED_(27)
100
AcDbLine
 10
30.81814535642162
 20
27.49999999999999
 30
0.0
 11
30.52594644265202
 21
27.49999999999999
 31
0.0
  0
LINE
  5
B1
330
33
100
AcDbEntity
  8
$TD_AUDIT_GENERATED_(27)
100
AcDbLine
 10
30.52594644265202
 20
25.99999999999999
 30
0.0
 11
30.68316858513064
 21
25.99999999999999
 31
0.0
  0
LINE
  5
B2
330
33
100
AcDbEntity
  8
$TD_AUDIT_GENERATED_(27)
100
AcDbLine
 10
25.99999999999998
 20
25.99999999999999
 30
0.0
 11
25.24316220307162
 21
25.99999999999999
 31
0.0
  0
LINE
  5
B3
330
33
100
AcDbEntity
  8
$TD_AUDIT_GENERATED_(27)
100
AcDbLine
 10
28.7811529493745
 20
25.99999999999999
 30
0.0
 11
25.99999999999998
 21
25.99999999999999
 31
0.0
  0
LINE
  5
B4
330
33
100
AcDbEntity
  8
$TD_AUDIT_GENERATED_(27)
100
AcDbLine
 10
30.68316858513064
 20
25.99999999999999
 30
0.0
 11
28.7811529493745
 21
25.99999999999999
 31
0.0
  0
LINE
  5
B5
330
33
100
AcDbEntity
  8
$TD_AUDIT_GENERATED_(27)
100
AcDbLine
 10
29.35124948284812
 20
17.95688958082131
 30
0.0
 11
31.29006727063223
 21
18.46023805574156
 31
0.0
  0
LINE
  5
B6
330
33
100
AcDbEntity
  8
$TD_AUDIT_GENERATED_(27)
100
AcDbLine
 10
29.08242615884038
 20
17.88709869535758
 30
0.0
 11
29.35124948284812
 21
17.95688958082131
 31
0.0
  0
LINE
  5
B7
330
33
100
AcDbEntity
  8
$TD_AUDIT_GENERATED_(27)
100
AcDbLine
 10
31.79500144160994
 20
18.71751486617407
 30
0.0
 11
31.92497241804755
 21
18.78373838636467
 31
0.0
  0
LINE
  5
B8
330
33
100
AcDbEntity
  8
$TD_AUDIT_GENERATED_(27)
100
AcDbLine
 10
31.29006727063223
 20
18.46023805574156
 30
0.0
 11
31.79500144160994
 21
18.71751486617407
 31
0.0
  0
LINE
  5
B9
330
33
100
AcDbEntity
  8
$TD_AUDIT_GENERATED_(27)
100
AcDbLine
 10
31.41833856985213
 20
3.419413024479791
 30
0.0
 11
30.71923703809616
 21
7.989072043193017
 31
0.0
  0
LINE
  5
BA
330
33
100
AcDbEntity
  8
$TD_AUDIT_GENERATED_(27)
100
AcDbLine
 10
31.41833871155778
 20
3.419412098224458
 30
0.0
 11
31.79655539519517
 21
0.0000003045226409
 31
0.0
  0
LINE
  5
BB
330
33
100
AcDbEntity
  8
$TD_AUDIT_GENERATED_(27)
100
AcDbLine
 10
31.74958627529797
 20
27.49999999999999
 30
0.0
 11
31.74958627529797
 21
30.65952363497755
 31
0.0
  0
LINE
  5
BC
330
33
100
AcDbEntity
  8
$TD_AUDIT_GENERATED_(27)
100
AcDbLine
 10
30.99639877319249
 20
27.49999999999999
 30
0.0
 11
31.71077186461116
 21
27.49999999999999
 31
0.0
  0
LINE
  5
BD
330
33
100
AcDbEntity
  8
$TD_AUDIT_GENERATED_(27)
100
AcDbLine
 10
31.71077186461116
 20
27.49999999999999
 30
0.0
 11
30.81814535642162
 21
27.49999999999999
 31
0.0
  0
LINE
  5
BE
330
33
100
AcDbEntity
  8
$TD_AUDIT_GENERATED_(27)
100
AcDbLine
 10
31.09297344076082
 20
25.99999999999999
 30
0.0
 11
31.29006727063223
 21
25.99999999999999
 31
0.0
  0
LINE
  5
BF
330
33
100
AcDbEntity
  8
$TD_AUDIT_GENERATED_(27)
100
AcDbLine
 10
33.05291391703999
 20
27.5
 30
0.0
 11
33.05291391703999
 21
31.16191647398322
 31
0.0
  0
LINE
  5
C0
330
33
100
AcDbEntity
  8
$TD_AUDIT_GENERATED_(27)
100
AcDbLine
 10
31.74958627529797
 20
30.65952363497755
 30
0.0
 11
31.74958627529797
 21
27.49999999999999
 31
0.0
  0
LINE
  5
C1
330
33
100
AcDbEntity
  8
$TD_AUDIT_GENERATED_(27)
100
AcDbLine
 10
31.74958627529797
 20
27.49999999999999
 30
0.0
 11
32.22943085668708
 21
27.49999999999999
 31
0.0
  0
LINE
  5
C2
330
33
100
AcDbEntity
  8
$TD_AUDIT_GENERATED_(27)
100
AcDbLine
 10
32.22943085668708
 20
27.49999999999999
 30
0.0
 11
31.71077186461116
 21
27.49999999999999
 31
0.0
  0
LINE
  5
C3
330
33
100
AcDbEntity
  8
$TD_AUDIT_GENERATED_(27)
100
AcDbLine
 10
33.32313517547267
 20
27.5
 30
0.0
 11
32.22943085668708
 21
27.5
 31
0.0
  0
LINE
  5
C4
330
33
100
AcDbEntity
  8
$TD_AUDIT_GENERATED_(27)
100
AcDbLine
 10
32.22943085668708
 20
25.99999999999999
 30
0.0
 11
33.28115294937451
 21
25.99999999999999
 31
0.0
  0
LINE
  5
C5
330
33
100
AcDbEntity
  8
$TD_AUDIT_GENERATED_(27)
100
AcDbLine
 10
33.7
 20
26.0
 30
0.0
 11
33.7
 21
27.5
 31
0.0
  0
LINE
  5
C6
330
33
100
AcDbEntity
  8
$TD_AUDIT_GENERATED_(27)
100
AcDbLine
 10
33.7
 20
27.5
 30
0.0
 11
33.32313517547267
 21
27.5
 31
0.0
  0
LINE
  5
C7
330
33
100
AcDbEntity
  8
$TD_AUDIT_GENERATED_(27)
100
AcDbLine
 10
31.29006727063223
 20
25.99999999999999
 30
0.0
 11
30.68316858513064
 21
25.99999999999999
 31
0.0
  0
LINE
  5
C8
330
33
100
AcDbEntity
  8
$TD_AUDIT_GENERATED_(27)
100
AcDbLine
 10
33.28115294937451
 20
25.99999999999999
 30
0.0
 11
31.29006727063223
 21
25.99999999999999
 31
0.0
  0
LINE
  5
C9
330
33
100
AcDbEntity
  8
$TD_AUDIT_GENERATED_(27)
100
AcDbLine
 10
32.39088033250783
 20
19.02113032590307
 30
0.0
 11
33.07052165477676
 21
19.12877493635206
 31
0.0
  0
LINE
  5
CA
330
33
100
AcDbEntity
  8
$TD_AUDIT_GENERATED_(27)
100
AcDbLine
 10
33.07052165477676
 20
19.12877493635206
 30
0.0
 11
33.28115294937451
 21
19.16213565606175
 31
0.0
  0
LINE
  5
CB
330
33
100
AcDbEntity
  8
$TD_AUDIT_GENERATED_(27)
100
AcDbLine
 10
32.39088033250783
 20
19.02113032590307
 30
0.0
 11
31.92497241804755
 21
18.78373838636468
 31
0.0
  0
LINE
  5
CC
330
33
100
AcDbEntity
  8
$TD_AUDIT_GENERATED_(27)
100
AcDbLine
 10
34.55950864665637
 20
26.0
 30
0.0
 11
33.28115294937451
 21
26.0
 31
0.0
  0
LINE
  5
CD
330
33
100
AcDbEntity
  8
$TD_AUDIT_GENERATED_(27)
100
AcDbLine
 10
33.58406320513241
 20
19.25629439018265
 30
0.0
 11
34.55950864665637
 21
19.55950864665638
 31
0.0
  0
LINE
  5
CE
330
33
100
AcDbEntity
  8
$TD_AUDIT_GENERATED_(27)
100
AcDbLine
 10
33.28115294937451
 20
19.16213565606175
 30
0.0
 11
33.58406320513241
 21
19.25629439018265
 31
0.0
  0
LINE
  5
CF
330
33
100
AcDbEntity
  8
$TD_AUDIT_GENERATED_(27)
100
AcDbLine
 10
35.0
 20
20.0
 30
0.0
 11
35.0
 21
26.0
 31
0.0
  0
LINE
  5
D0
330
33
100
AcDbEntity
  8
$TD_AUDIT_GENERATED_(27)
100
AcDbLine
 10
35.0
 20
26.0
 30
0.0
 11
34.55950864665637
 21
26.0
 31
0.0
  0
LINE
  5
D1
330
33
100
AcDbEntity
  8
$TD_AUDIT_GENERATED_(27)
100
AcDbLine
 10
34.66963148499227
 20
19.66963148499228
 30
0.0
 11
35.0
 21
19.99999999999999
 31
0.0
  0
LINE
  5
D2
330
33
100
AcDbEntity
  8
$TD_AUDIT_GENERATED_(27)
100
AcDbLine
 10
34.55950864665637
 20
19.55950864665638
 30
0.0
 11
34.66963148499227
 21
19.66963148499228
 31
0.0
  0
LINE
  5
D3
330
33
100
AcDbEntity
  8
$TD_AUDIT_GENERATED_(27)
100
AcDbLine
 10
39.0
 20
24.0
 30
0.0
 11
38.29349419072021
 21
23.11167057224222
 31
0.0
  0
LINE
  5
D4
330
33
100
AcDbEntity
  8
$TD_AUDIT_GENERATED_(27)
100
AcDbLine
 10
38.29349419072021
 20
23.11167057224222
 30
0.0
 11
37.53773263881754
 21
22.26485057517542
 31
0.0
  0
LINE
  5
D5
330
33
100
AcDbEntity
  8
$TD_AUDIT_GENERATED_(27)
100
AcDbLine
 10
37.53773263881754
 20
22.26485057517542
 30
0.0
 11
36.73514942482458
 21
21.46226736118246
 31
0.0
  0
LINE
  5
D6
330
33
100
AcDbEntity
  8
$TD_AUDIT_GENERATED_(27)
100
AcDbLine
 10
36.73514942482458
 20
21.46226736118246
 30
0.0
 11
36.21718546588133
 21
21.00000000000001
 31
0.0
  0
LINE
  5
D7
330
33
100
AcDbEntity
  8
$TD_AUDIT_GENERATED_(27)
100
AcDbLine
 10
34.99999999999997
 20
14.87256528184001
 30
0.0
 11
34.99999999999997
 21
13.70481694000554
 31
0.0
  0
LINE
  5
D8
330
33
100
AcDbEntity
  8
$TD_AUDIT_GENERATED_(27)
100
AcDbLine
 10
34.99999999999997
 20
13.70481694000554
 30
0.0
 11
34.99999999999997
 21
14.87256528184
 31
0.0
  0
LINE
  5
D9
330
33
100
AcDbEntity
  8
$TD_AUDIT_GENERATED_(27)
100
AcDbLine
 10
36.21718546588133
 20
21.00000000000001
 30
0.0
 11
35.88832942775777
 21
20.70650580927979
 31
0.0
  0
LINE
  5
DA
330
33
100
AcDbEntity
  8
$TD_AUDIT_GENERATED_(27)
100
AcDbLine
 10
35.88832942775777
 20
20.70650580927979
 30
0.0
 11
35.0
 21
20.0
 31
0.0
  0
LINE
  5
DB
330
33
100
AcDbEntity
  8
$TD_AUDIT_GENERATED_(27)
100
AcDbLine
 10
35.0
 20
20.0
 30
0.0
 11
35.0
 21
19.3104515801642
 31
0.0
  0
LINE
  5
DC
330
33
100
AcDbEntity
  8
$TD_AUDIT_GENERATED_(27)
100
AcDbLine
 10
34.99999999999999
 20
19.3104515801642
 30
0.0
 11
34.99999999999999
 21
20.0
 31
0.0
  0
LINE
  5
DD
330
33
100
AcDbEntity
  8
$TD_AUDIT_GENERATED_(27)
100
AcDbLine
 10
34.99999999999998
 20
15.56360636392438
 30
0.0
 11
34.99999999999998
 21
14.87256528184001
 31
0.0
  0
LINE
  5
DE
330
33
100
AcDbEntity
  8
$TD_AUDIT_GENERATED_(27)
100
AcDbLine
 10
34.99999999999997
 20
14.87256528184
 30
0.0
 11
34.99999999999997
 21
15.56360636392437
 31
0.0
  0
LINE
  5
DF
330
33
100
AcDbEntity
  8
$TD_AUDIT_GENERATED_(27)
100
AcDbLine
 10
34.99999999999999
 20
19.3104515801642
 30
0.0
 11
34.99999999999999
 21
19.15757135772412
 31
0.0
  0
LINE
  5
E0
330
33
100
AcDbEntity
  8
$TD_AUDIT_GENERATED_(27)
100
AcDbLine
 10
34.99999999999999
 20
19.15757135772412
 30
0.0
 11
34.99999999999999
 21
19.3104515801642
 31
0.0
  0
LINE
  5
E1
330
33
100
AcDbEntity
  8
$TD_AUDIT_GENERATED_(27)
100
AcDbLine
 10
34.99999999999998
 20
15.98529177015337
 30
0.0
 11
34.99999999999998
 21
15.56360636392438
 31
0.0
  0
LINE
  5
E2
330
33
100
AcDbEntity
  8
$TD_AUDIT_GENERATED_(27)
100
AcDbLine
 10
34.99999999999998
 20
15.56360636392437
 30
0.0
 11
34.99999999999998
 21
15.98529177015337
 31
0.0
  0
LINE
  5
E3
330
33
100
AcDbEntity
  8
$TD_AUDIT_GENERATED_(27)
100
AcDbLine
 10
34.99999999999999
 20
19.15757135772412
 30
0.0
 11
34.99999999999999
 21
19.06428116069333
 31
0.0
  0
LINE
  5
E4
330
33
100
AcDbEntity
  8
$TD_AUDIT_GENERATED_(27)
100
AcDbLine
 10
34.99999999999999
 20
19.06428116069333
 30
0.0
 11
34.99999999999999
 21
19.15757135772412
 31
0.0
  0
LINE
  5
E5
330
33
100
AcDbEntity
  8
$TD_AUDIT_GENERATED_(27)
100
AcDbLine
 10
34.99999999999999
 20
19.06428116069333
 30
0.0
 11
34.99999999999999
 21
19.02113032590307
 31
0.0
  0
LINE
  5
E6
330
33
100
AcDbEntity
  8
$TD_AUDIT_GENERATED_(27)
100
AcDbLine
 10
34.99999999999999
 20
19.02113032590307
 30
0.0
 11
34.99999999999999
 21
19.06428116069333
 31
0.0
  0
LINE
  5
E7
330
33
100
AcDbEntity
  8
$TD_AUDIT_GENERATED_(27)
100
AcDbLine
 10
34.99999999999999
 20
19.02113032590307
 30
0.0
 11
34.99999999999999
 21
16.18033988749894
 31
0.0
  0
LINE
  5
E8
330
33
100
AcDbEntity
  8
$TD_AUDIT_GENERATED_(27)
100
AcDbLine
 10
34.99999999999998
 20
16.18033988749894
 30
0.0
 11
34.99999999999998
 21
19.02113032590307
 31
0.0
  0
LINE
  5
E9
330
33
100
AcDbEntity
  8
$TD_AUDIT_GENERATED_(27)
100
AcDbLine
 10
34.99999999999998
 20
16.18033988749894
 30
0.0
 11
34.99999999999998
 21
15.98529177015337
 31
0.0
  0
LINE
  5
EA
330
33
100
AcDbEntity
  8
$TD_AUDIT_GENERATED_(27)
100
AcDbLine
 10
34.99999999999998
 20
15.98529177015337
 30
0.0
 11
34.99999999999998
 21
16.18033988749894
 31
0.0
  0
LINE
  5
EB
330
33
100
AcDbEntity
  8
$TD_AUDIT_GENERATED_(27)
100
AcDbLine
 10
30.71923703809616
 20
-7.989071272708523
 30
0.0
 11
31.41833862861661
 21
-3.419411957907608
 31
0.0
  0
LINE
  5
EC
330
33
100
AcDbEntity
  8
$TD_AUDIT_GENERATED_(27)
100
AcDbLine
 10
31.41833862861662
 20
-3.419411957907528
 30
0.0
 11
31.79655537469126
 21
0.0000003045226404
 31
0.0
  0
LINE
  5
ED
330
33
100
AcDbEntity
  8
$TD_AUDIT_GENERATED_(27)
100
AcDbLine
 10
34.99999999999997
 20
2.930574262105497
 30
0.0
 11
34.99999999999997
 21
1.763551431136869
 31
0.0
  0
LINE
  5
EE
330
33
100
AcDbEntity
  8
$TD_AUDIT_GENERATED_(27)
100
AcDbLine
 10
34.99999999999996
 20
1.763551431136867
 30
0.0
 11
34.99999999999996
 21
2.930574262105465
 31
0.0
  0
LINE
  5
EF
330
33
100
AcDbEntity
  8
$TD_AUDIT_GENERATED_(27)
100
AcDbLine
 10
34.99999999999997
 20
4.353637380180214
 30
0.0
 11
34.99999999999997
 21
2.930574262105497
 31
0.0
  0
LINE
  5
F0
330
33
100
AcDbEntity
  8
$TD_AUDIT_GENERATED_(27)
100
AcDbLine
 10
34.99999999999996
 20
2.930574262105465
 30
0.0
 11
34.99999999999996
 21
4.353637380180184
 31
0.0
  0
LINE
  5
F1
330
33
100
AcDbEntity
  8
$TD_AUDIT_GENERATED_(27)
100
AcDbLine
 10
34.99999999999997
 20
13.70481694000554
 30
0.0
 11
34.99999999999997
 21
13.0634796515081
 31
0.0
  0
LINE
  5
F2
330
33
100
AcDbEntity
  8
$TD_AUDIT_GENERATED_(27)
100
AcDbLine
 10
34.99999999999997
 20
13.06347965150811
 30
0.0
 11
34.99999999999997
 21
13.70481694000554
 31
0.0
  0
LINE
  5
F3
330
33
100
AcDbEntity
  8
$TD_AUDIT_GENERATED_(27)
100
AcDbLine
 10
34.99999999999997
 20
5.318885116174835
 30
0.0
 11
34.99999999999997
 21
4.353637380180214
 31
0.0
  0
LINE
  5
F4
330
33
100
AcDbEntity
  8
$TD_AUDIT_GENERATED_(27)
100
AcDbLine
 10
34.99999999999996
 20
4.353637380180184
 30
0.0
 11
34.99999999999996
 21
5.318885116174807
 31
0.0
  0
LINE
  5
F5
330
33
100
AcDbEntity
  8
$TD_AUDIT_GENERATED_(27)
100
AcDbLine
 10
34.99999999999997
 20
13.0634796515081
 30
0.0
 11
34.99999999999997
 21
12.37243856942408
 31
0.0
  0
LINE
  5
F6
330
33
100
AcDbEntity
  8
$TD_AUDIT_GENERATED_(27)
100
AcDbLine
 10
34.99999999999997
 20
12.37243856942409
 30
0.0
 11
34.99999999999997
 21
13.06347965150811
 31
0.0
  0
LINE
  5
F7
330
33
100
AcDbEntity
  8
$TD_AUDIT_GENERATED_(27)
100
AcDbLine
 10
34.99999999999997
 20
12.37243856942408
 30
0.0
 11
34.99999999999997
 21
11.950753163195
 31
0.0
  0
LINE
  5
F8
330
33
100
AcDbEntity
  8
$TD_AUDIT_GENERATED_(27)
100
AcDbLine
 10
34.99999999999997
 20
11.95075316319501
 30
0.0
 11
34.99999999999997
 21
12.37243856942409
 31
0.0
  0
LINE
  5
F9
330
33
100
AcDbEntity
  8
$TD_AUDIT_GENERATED_(27)
100
AcDbLine
 10
34.99999999999997
 20
11.950753163195
 30
0.0
 11
34.99999999999997
 21
11.75570504584945
 31
0.0
  0
LINE
  5
FA
330
33
100
AcDbEntity
  8
$TD_AUDIT_GENERATED_(27)
100
AcDbLine
 10
34.99999999999997
 20
11.75570504584945
 30
0.0
 11
34.99999999999997
 21
11.95075316319501
 31
0.0
  0
LINE
  5
FB
330
33
100
AcDbEntity
  8
$TD_AUDIT_GENERATED_(27)
100
AcDbLine
 10
34.99999999999997
 20
11.75570504584945
 30
0.0
 11
34.99999999999997
 21
6.426114853472096
 31
0.0
  0
LINE
  5
FC
330
33
100
AcDbEntity
  8
$TD_AUDIT_GENERATED_(27)
100
AcDbLine
 10
34.99999999999997
 20
6.426114853472117
 30
0.0
 11
34.99999999999997
 21
11.75570504584945
 31
0.0
  0
LINE
  5
FD
330
33
100
AcDbEntity
  8
$TD_AUDIT_GENERATED_(27)
100
AcDbLine
 10
34.99999999999997
 20
6.426114853472096
 30
0.0
 11
34.99999999999997
 21
6.180339887498944
 31
0.0
  0
LINE
  5
FE
330
33
100
AcDbEntity
  8
$TD_AUDIT_GENERATED_(27)
100
AcDbLine
 10
34.99999999999997
 20
6.180339887498944
 30
0.0
 11
34.99999999999997
 21
6.426114853472117
 31
0.0
  0
LINE
  5
FF
330
33
100
AcDbEntity
  8
$TD_AUDIT_GENERATED_(27)
100
AcDbLine
 10
34.99999999999997
 20
6.180339887498944
 30
0.0
 11
34.99999999999997
 21
5.318885116174835
 31
0.0
  0
LINE
  5
100
330
33
100
AcDbEntity
  8
$TD_AUDIT_GENERATED_(27)
100
AcDbLine
 10
34.99999999999997
 20
5.318885116174807
 30
0.0
 11
34.99999999999997
 21
6.180339887498944
 31
0.0
  0
LINE
  5
101
330
33
100
AcDbEntity
  8
$TD_AUDIT_GENERATED_(27)
100
AcDbLine
 10
46.86812628251587
 20
24.00000279750111
 30
0.0
 11
38.99999999999996
 21
24.00000279750111
 31
0.0
  0
LINE
  5
102
330
33
100
AcDbEntity
  8
$TD_AUDIT_GENERATED_(27)
100
AcDbLine
 10
38.99999999999996
 20
24.0000027975011
 30
0.0
 11
38.99999999999996
 21
14.0985794459318
 31
0.0
  0
LINE
  5
103
330
33
100
AcDbEntity
  8
$TD_AUDIT_GENERATED_(27)
100
AcDbLine
 10
26.68650881057926
 20
-11.06579288283316
 30
0.0
 11
25.47909638300679
 21
-13.51906472444534
 31
0.0
  0
LINE
  5
104
330
33
100
AcDbEntity
  8
$TD_AUDIT_GENERATED_(27)
100
AcDbLine
 10
34.99999999999997
 20
1.763551431136869
 30
0.0
 11
34.99999999999997
 21
1.42650051997054
 31
0.0
  0
LINE
  5
105
330
33
100
AcDbEntity
  8
$TD_AUDIT_GENERATED_(27)
100
AcDbLine
 10
34.99999999999996
 20
1.426500519970533
 30
0.0
 11
34.99999999999996
 21
1.763551431136867
 31
0.0
  0
LINE
  5
106
330
33
100
AcDbEntity
  8
$TD_AUDIT_GENERATED_(27)
100
AcDbLine
 10
27.17218796814981
 20
-15.19611619406269
 30
0.0
 11
30.71923703809616
 21
-7.989071272708523
 31
0.0
  0
LINE
  5
107
330
33
100
AcDbEntity
  8
$TD_AUDIT_GENERATED_(27)
100
AcDbLine
 10
34.99999999999997
 20
-6.426114853472181
 30
0.0
 11
34.99999999999997
 21
-7.060465659920809
 31
0.0
  0
LINE
  5
108
330
33
100
AcDbEntity
  8
$TD_AUDIT_GENERATED_(27)
100
AcDbLine
 10
34.99999999999997
 20
-7.060465659920806
 30
0.0
 11
34.99999999999997
 21
-6.426114853472202
 31
0.0
  0
LINE
  5
109
330
33
100
AcDbEntity
  8
$TD_AUDIT_GENERATED_(27)
100
AcDbLine
 10
34.99999999999997
 20
-0.272443648516481
 30
0.0
 11
34.99999999999997
 21
-6.180339887499055
 31
0.0
  0
LINE
  5
10A
330
33
100
AcDbEntity
  8
$TD_AUDIT_GENERATED_(27)
100
AcDbLine
 10
34.99999999999997
 20
-6.180339887499055
 30
0.0
 11
34.99999999999997
 21
-0.2724436485165231
 31
0.0
  0
LINE
  5
10B
330
33
100
AcDbEntity
  8
$TD_AUDIT_GENERATED_(27)
100
AcDbLine
 10
34.99999999999997
 20
-6.180339887499055
 30
0.0
 11
34.99999999999997
 21
-6.426114853472181
 31
0.0
  0
LINE
  5
10C
330
33
100
AcDbEntity
  8
$TD_AUDIT_GENERATED_(27)
100
AcDbLine
 10
34.99999999999997
 20
-6.426114853472202
 30
0.0
 11
34.99999999999997
 21
-6.180339887499055
 31
0.0
  0
LINE
  5
10D
330
33
100
AcDbEntity
  8
$TD_AUDIT_GENERATED_(27)
100
AcDbLine
 10
34.99999999999997
 20
0.0
 30
0.0
 11
34.99999999999997
 21
-0.272443648516481
 31
0.0
  0
LINE
  5
10E
330
33
100
AcDbEntity
  8
$TD_AUDIT_GENERATED_(27)
100
AcDbLine
 10
34.99999999999996
 20
-0.2724436485165231
 30
0.0
 11
34.99999999999996
 21
0.0
 31
0.0
  0
LINE
  5
10F
330
33
100
AcDbEntity
  8
$TD_AUDIT_GENERATED_(27)
100
AcDbLine
 10
34.99999999999997
 20
1.42650051997054
 30
0.0
 11
34.99999999999997
 21
0.0
 31
0.0
  0
LINE
  5
110
330
33
100
AcDbEntity
  8
$TD_AUDIT_GENERATED_(27)
100
AcDbLine
 10
34.99999999999996
 20
0.0
 30
0.0
 11
34.99999999999996
 21
1.426500519970533
 31
0.0
  0
LINE
  5
111
330
33
100
AcDbEntity
  8
$TD_AUDIT_GENERATED_(27)
100
AcDbLine
 10
60.3346197282327
 20
24.00000279750112
 30
0.0
 11
46.86812628251587
 21
24.00000279750112
 31
0.0
  0
LINE
  5
112
330
33
100
AcDbEntity
  8
$TD_AUDIT_GENERATED_(27)
100
AcDbLine
 10
25.47909638300679
 20
-13.51906472444534
 30
0.0
 11
20.56414779851592
 21
-18.60739243030548
 31
0.0
  0
LINE
  5
113
330
33
100
AcDbEntity
  8
$TD_AUDIT_GENERATED_(27)
100
AcDbLine
 10
21.64753583428472
 20
-20.91565527666676
 30
0.0
 11
27.17218796814981
 21
-15.19611619406269
 31
0.0
  0
LINE
  5
114
330
33
100
AcDbEntity
  8
$TD_AUDIT_GENERATED_(27)
100
AcDbLine
 10
34.99999999999998
 20
-13.06347965150799
 30
0.0
 11
34.99999999999998
 21
-14.04604556430169
 31
0.0
  0
LINE
  5
115
330
33
100
AcDbEntity
  8
$TD_AUDIT_GENERATED_(27)
100
AcDbLine
 10
34.99999999999998
 20
-14.0460455643017
 30
0.0
 11
34.99999999999998
 21
-13.06347965150801
 31
0.0
  0
LINE
  5
116
330
33
100
AcDbEntity
  8
$TD_AUDIT_GENERATED_(27)
100
AcDbLine
 10
34.99999999999997
 20
-7.060465659920809
 30
0.0
 11
34.99999999999997
 21
-10.97857546965077
 31
0.0
  0
LINE
  5
117
330
33
100
AcDbEntity
  8
$TD_AUDIT_GENERATED_(27)
100
AcDbLine
 10
34.99999999999997
 20
-10.97857546965075
 30
0.0
 11
34.99999999999997
 21
-7.060465659920806
 31
0.0
  0
LINE
  5
118
330
33
100
AcDbEntity
  8
$TD_AUDIT_GENERATED_(27)
100
AcDbLine
 10
34.99999999999997
 20
-10.97857546965077
 30
0.0
 11
34.99999999999997
 21
-11.50993007987637
 31
0.0
  0
LINE
  5
119
330
33
100
AcDbEntity
  8
$TD_AUDIT_GENERATED_(27)
100
AcDbLine
 10
34.99999999999997
 20
-11.50993007987636
 30
0.0
 11
34.99999999999997
 21
-10.97857546965075
 31
0.0
  0
LINE
  5
11A
330
33
100
AcDbEntity
  8
$TD_AUDIT_GENERATED_(27)
100
AcDbLine
 10
34.99999999999997
 20
-11.50993007987637
 30
0.0
 11
34.99999999999997
 21
-11.75570504584955
 31
0.0
  0
LINE
  5
11B
330
33
100
AcDbEntity
  8
$TD_AUDIT_GENERATED_(27)
100
AcDbLine
 10
34.99999999999997
 20
-11.75570504584955
 30
0.0
 11
34.99999999999997
 21
-11.50993007987636
 31
0.0
  0
LINE
  5
11C
330
33
100
AcDbEntity
  8
$TD_AUDIT_GENERATED_(27)
100
AcDbLine
 10
34.99999999999997
 20
-11.75570504584955
 30
0.0
 11
34.99999999999997
 21
-13.06347965150799
 31
0.0
  0
LINE
  5
11D
330
33
100
AcDbEntity
  8
$TD_AUDIT_GENERATED_(27)
100
AcDbLine
 10
34.99999999999998
 20
-13.06347965150801
 30
0.0
 11
34.99999999999998
 21
-11.75570504584955
 31
0.0
  0
LINE
  5
11E
330
33
100
AcDbEntity
  8
$TD_AUDIT_GENERATED_(27)
100
AcDbLine
 10
20.56414779851592
 20
-18.60739243030548
 30
0.0
 11
14.3709524276798
 21
-21.87430042028427
 31
0.0
  0
LINE
  5
11F
330
33
100
AcDbEntity
  8
$TD_AUDIT_GENERATED_(27)
100
AcDbLine
 10
14.48995799444998
 20
-24.72747004032135
 30
0.0
 11
21.49096145713428
 21
-21.03444361686707
 31
0.0
  0
LINE
  5
120
330
33
100
AcDbEntity
  8
$TD_AUDIT_GENERATED_(27)
100
AcDbLine
 10
21.49096145713428
 20
-21.03444361686707
 30
0.0
 11
21.64753583428472
 21
-20.91565527666676
 31
0.0
  0
LINE
  5
121
330
33
100
AcDbEntity
  8
$TD_AUDIT_GENERATED_(27)
100
AcDbLine
 10
37.53773263881754
 20
-22.26485057517542
 30
0.0
 11
37.97255214301604
 21
-22.7520596033973
 31
0.0
  0
LINE
  5
122
330
33
100
AcDbEntity
  8
$TD_AUDIT_GENERATED_(27)
100
AcDbLine
 10
36.73514942482458
 20
-21.46226736118246
 30
0.0
 11
37.53773263881754
 21
-22.26485057517542
 31
0.0
  0
LINE
  5
123
330
33
100
AcDbEntity
  8
$TD_AUDIT_GENERATED_(27)
100
AcDbLine
 10
36.21718546588128
 20
-20.99999999999996
 30
0.0
 11
36.73514942482458
 21
-21.46226736118246
 31
0.0
  0
LINE
  5
124
330
33
100
AcDbEntity
  8
$TD_AUDIT_GENERATED_(27)
100
AcDbLine
 10
35.88832942775777
 20
-20.70650580927979
 30
0.0
 11
36.21718546588128
 21
-20.99999999999996
 31
0.0
  0
LINE
  5
125
330
33
100
AcDbEntity
  8
$TD_AUDIT_GENERATED_(27)
100
AcDbLine
 10
35.0
 20
-19.53584263566693
 30
0.0
 11
35.0
 21
-20.0
 31
0.0
  0
LINE
  5
126
330
33
100
AcDbEntity
  8
$TD_AUDIT_GENERATED_(27)
100
AcDbLine
 10
35.0
 20
-20.0
 30
0.0
 11
35.88832942775777
 21
-20.70650580927979
 31
0.0
  0
LINE
  5
127
330
33
100
AcDbEntity
  8
$TD_AUDIT_GENERATED_(27)
100
AcDbLine
 10
34.2616930970101
 20
-20.0
 30
0.0
 11
35.0
 21
-20.0
 31
0.0
  0
LINE
  5
128
330
33
100
AcDbEntity
  8
$TD_AUDIT_GENERATED_(27)
100
AcDbLine
 10
35.0
 20
-20.0
 30
0.0
 11
35.0
 21
-19.53584263566693
 31
0.0
  0
LINE
  5
129
330
33
100
AcDbEntity
  8
$TD_AUDIT_GENERATED_(27)
100
AcDbLine
 10
38.99999999999997
 20
-14.10684605501946
 30
0.0
 11
38.99999999999997
 21
-14.09858140285929
 31
0.0
  0
LINE
  5
12A
330
33
100
AcDbEntity
  8
$TD_AUDIT_GENERATED_(27)
100
AcDbLine
 10
34.99999999999998
 20
-14.04604556430169
 30
0.0
 11
34.99999999999998
 21
-14.87256528184024
 31
0.0
  0
LINE
  5
12B
330
33
100
AcDbEntity
  8
$TD_AUDIT_GENERATED_(27)
100
AcDbLine
 10
34.99999999999998
 20
-14.87256528184024
 30
0.0
 11
34.99999999999998
 21
-14.0460455643017
 31
0.0
  0
LINE
  5
12C
330
33
100
AcDbEntity
  8
$TD_AUDIT_GENERATED_(27)
100
AcDbLine
 10
34.99999999999998
 20
-14.87256528184024
 30
0.0
 11
34.99999999999998
 21
-15.56360636392443
 31
0.0
  0
LINE
  5
12D
330
33
100
AcDbEntity
  8
$TD_AUDIT_GENERATED_(27)
100
AcDbLine
 10
34.99999999999998
 20
-15.56360636392442
 30
0.0
 11
34.99999999999998
 21
-14.87256528184024
 31
0.0
  0
LINE
  5
12E
330
33
100
AcDbEntity
  8
$TD_AUDIT_GENERATED_(27)
100
AcDbLine
 10
34.99999999999998
 20
-15.56360636392443
 30
0.0
 11
34.99999999999998
 21
-15.9852917701535
 31
0.0
  0
LINE
  5
12F
330
33
100
AcDbEntity
  8
$TD_AUDIT_GENERATED_(27)
100
AcDbLine
 10
34.99999999999998
 20
-15.98529177015349
 30
0.0
 11
34.99999999999998
 21
-15.56360636392442
 31
0.0
  0
LINE
  5
130
330
33
100
AcDbEntity
  8
$TD_AUDIT_GENERATED_(27)
100
AcDbLine
 10
34.99999999999998
 20
-15.9852917701535
 30
0.0
 11
34.99999999999998
 21
-16.180339887499
 31
0.0
  0
LINE
  5
131
330
33
100
AcDbEntity
  8
$TD_AUDIT_GENERATED_(27)
100
AcDbLine
 10
34.99999999999998
 20
-16.180339887499
 30
0.0
 11
34.99999999999998
 21
-15.98529177015349
 31
0.0
  0
LINE
  5
132
330
33
100
AcDbEntity
  8
$TD_AUDIT_GENERATED_(27)
100
AcDbLine
 10
34.99999999999998
 20
-16.180339887499
 30
0.0
 11
34.99999999999998
 21
-18.18148734330638
 31
0.0
  0
LINE
  5
133
330
33
100
AcDbEntity
  8
$TD_AUDIT_GENERATED_(27)
100
AcDbLine
 10
34.99999999999999
 20
-18.18148734330638
 30
0.0
 11
34.99999999999999
 21
-16.180339887499
 31
0.0
  0
LINE
  5
134
330
33
100
AcDbEntity
  8
$TD_AUDIT_GENERATED_(27)
100
AcDbLine
 10
34.99999999999999
 20
-18.18148734330638
 30
0.0
 11
34.99999999999999
 21
-18.62516302927513
 31
0.0
  0
LINE
  5
135
330
33
100
AcDbEntity
  8
$TD_AUDIT_GENERATED_(27)
100
AcDbLine
 10
34.99999999999999
 20
-18.62516302927513
 30
0.0
 11
34.99999999999999
 21
-18.18148734330638
 31
0.0
  0
LINE
  5
136
330
33
100
AcDbEntity
  8
$TD_AUDIT_GENERATED_(27)
100
AcDbLine
 10
34.99999999999999
 20
-18.62516302927513
 30
0.0
 11
34.99999999999999
 21
-18.89590172589114
 31
0.0
  0
LINE
  5
137
330
33
100
AcDbEntity
  8
$TD_AUDIT_GENERATED_(27)
100
AcDbLine
 10
34.99999999999999
 20
-18.89590172589114
 30
0.0
 11
34.99999999999999
 21
-18.62516302927513
 31
0.0
  0
LINE
  5
138
330
33
100
AcDbEntity
  8
$TD_AUDIT_GENERATED_(27)
100
AcDbLine
 10
34.99999999999999
 20
-18.89590172589114
 30
0.0
 11
34.99999999999999
 21
-19.0211303259031
 31
0.0
  0
LINE
  5
139
330
33
100
AcDbEntity
  8
$TD_AUDIT_GENERATED_(27)
100
AcDbLine
 10
34.99999999999999
 20
-19.0211303259031
 30
0.0
 11
34.99999999999999
 21
-18.89590172589114
 31
0.0
  0
LINE
  5
13A
330
33
100
AcDbEntity
  8
$TD_AUDIT_GENERATED_(27)
100
AcDbLine
 10
34.99999999999999
 20
-19.0211303259031
 30
0.0
 11
34.99999999999999
 21
-19.53584263566693
 31
0.0
  0
LINE
  5
13B
330
33
100
AcDbEntity
  8
$TD_AUDIT_GENERATED_(27)
100
AcDbLine
 10
24.89942524016361
 20
-20.0
 30
0.0
 11
34.2616930970101
 21
-20.0
 31
0.0
  0
LINE
  5
13C
330
33
100
AcDbEntity
  8
$TD_AUDIT_GENERATED_(27)
100
AcDbLine
 10
35.0
 20
-19.53584263566693
 30
0.0
 11
35.0
 21
-19.0211303259031
 31
0.0
  0
LINE
  5
13D
330
33
100
AcDbEntity
  8
$TD_AUDIT_GENERATED_(27)
100
AcDbLine
 10
38.99999999999998
 20
-14.09858140285929
 30
0.0
 11
38.99999999999998
 21
-20.79358231698923
 31
0.0
  0
LINE
  5
13E
330
33
100
AcDbEntity
  8
$TD_AUDIT_GENERATED_(27)
100
AcDbLine
 10
14.3709524276798
 20
-21.87430042028427
 30
0.0
 11
7.505742287333058
 21
-23.0
 31
0.0
  0
LINE
  5
13F
330
33
100
AcDbEntity
  8
$TD_AUDIT_GENERATED_(27)
100
AcDbLine
 10
6.729285661884091
 20
-26.0
 30
0.0
 11
14.48995799444998
 21
-24.72747004032135
 31
0.0
  0
LINE
  5
140
330
33
100
AcDbEntity
  8
$TD_AUDIT_GENERATED_(27)
100
AcDbLine
 10
39.0
 20
-24.0
 30
0.0
 11
39.0
 21
-23.99999720249797
 31
0.0
  0
LINE
  5
141
330
33
100
AcDbEntity
  8
$TD_AUDIT_GENERATED_(27)
100
AcDbLine
 10
38.42631952543068
 20
-23.27867932436467
 30
0.0
 11
38.99999777509179
 21
-23.99999720249797
 31
0.0
  0
LINE
  5
142
330
33
100
AcDbEntity
  8
$TD_AUDIT_GENERATED_(27)
100
AcDbLine
 10
38.29349419072021
 20
-23.11167057224222
 30
0.0
 11
38.42631952543068
 21
-23.27867932436467
 31
0.0
  0
LINE
  5
143
330
33
100
AcDbEntity
  8
$TD_AUDIT_GENERATED_(27)
100
AcDbLine
 10
37.97255214301604
 20
-22.7520596033973
 30
0.0
 11
38.29349419072021
 21
-23.11167057224222
 31
0.0
  0
LINE
  5
144
330
33
100
AcDbEntity
  8
$TD_AUDIT_GENERATED_(27)
100
AcDbLine
 10
38.99999999999999
 20
-20.79358231698923
 30
0.0
 11
38.99999999999999
 21
-23.99999720249797
 31
0.0
  0
LINE
  5
145
330
33
100
AcDbEntity
  8
$TD_AUDIT_GENERATED_(27)
100
AcDbLine
 10
39.0
 20
-23.99999720249797
 30
0.0
 11
60.33458356155084
 21
-23.99999720249797
 31
0.0
  0
LINE
  5
146
330
33
100
AcDbEntity
  8
$TD_AUDIT_GENERATED_(27)
100
AcDbLine
 10
7.505742287333058
 20
-23.0
 30
0.0
 11
0.6405269383716625
 21
-21.87429904937744
 31
0.0
  0
LINE
  5
147
330
33
100
AcDbEntity
  8
$TD_AUDIT_GENERATED_(27)
100
AcDbLine
 10
-1.031392558680965
 20
-24.72746849060059
 30
0.0
 11
6.729285661884091
 21
-26.0
 31
0.0
  0
LINE
  5
148
330
33
100
AcDbEntity
  8
$TD_AUDIT_GENERATED_(27)
100
AcDbLine
 10
-20.18399556860555
 20
-24.72746849060059
 30
0.0
 11
-12.42331734804049
 21
-26.0
 31
0.0
  0
LINE
  5
149
330
33
100
AcDbEntity
  8
$TD_AUDIT_GENERATED_(27)
100
AcDbLine
 10
-12.42331734804049
 20
-26.0
 30
0.0
 11
6.729285661884091
 21
-26.0
 31
0.0
  0
LINE
  5
14A
330
33
100
AcDbEntity
  8
$TD_AUDIT_GENERATED_(27)
100
AcDbLine
 10
6.729285661884091
 20
-26.0
 30
0.0
 11
-1.031392558680965
 21
-24.72746849060059
 31
0.0
  0
LINE
  5
14B
330
33
100
AcDbEntity
  8
$TD_AUDIT_GENERATED_(27)
100
AcDbLine
 10
-20.79783774550645
 20
-26.17851600999671
 30
0.0
 11
-15.78792250999988
 21
-27.0
 31
0.0
  0
LINE
  5
14C
330
33
100
AcDbEntity
  8
$TD_AUDIT_GENERATED_(27)
100
AcDbLine
 10
-15.78792250999988
 20
-27.0
 30
0.0
 11
-12.73863577051141
 21
-26.50000346918724
 31
0.0
  0
LINE
  5
14D
330
33
100
AcDbEntity
  8
$TD_AUDIT_GENERATED_(27)
100
AcDbLine
 10
-15.78792473837418
 20
-27.0
 30
0.0
 11
-12.7386368851853
 21
-26.50000328657197
 31
0.0
  0
LINE
  5
14E
330
33
100
AcDbEntity
  8
$TD_AUDIT_GENERATED_(27)
100
AcDbLine
 10
-14.14280696493766
 20
-26.10000322110527
 30
0.0
 11
-14.75264889999988
 21
-26.2
 31
0.0
  0
LINE
  5
14F
330
33
100
AcDbEntity
  8
$TD_AUDIT_GENERATED_(27)
100
AcDbLine
 10
-6.782678405584926
 20
-29.20392186313825
 30
0.0
 11
-4.468781630913426
 21
-27.98334235884885
 31
0.0
  0
LINE
  5
150
330
33
100
AcDbEntity
  8
$TD_AUDIT_GENERATED_(27)
100
AcDbLine
 10
-6.782678397527272
 20
-29.20392186568853
 30
0.0
 11
-6.106696158242327
 21
-28.84734153956228
 31
0.0
  0
LINE
  5
151
330
33
100
AcDbEntity
  8
$TD_AUDIT_GENERATED_(27)
100
AcDbLine
 10
-6.106696158242327
 20
-28.84734153956228
 30
0.0
 11
-4.46878162138942
 21
-27.98334236062566
 31
0.0
  0
LINE
  5
152
330
33
100
AcDbEntity
  8
$TD_AUDIT_GENERATED_(27)
100
AcDbLine
 10
-6.580774483700071
 20
-29.23702838045599
 30
0.0
 11
-6.032309842966747
 21
-29.05253495934199
 31
0.0
  0
LINE
  5
153
330
33
100
AcDbEntity
  8
$TD_AUDIT_GENERATED_(27)
100
AcDbLine
 10
-6.032309842966747
 20
-29.05253495934199
 30
0.0
 11
-3.846600635316251
 21
-28.08536242727773
 31
0.0
  0
LINE
  5
154
330
33
100
AcDbEntity
  8
$TD_AUDIT_GENERATED_(27)
100
AcDbLine
 10
-12.73863577051141
 20
-26.50000346918724
 30
0.0
 11
-15.78792250999988
 21
-27.0
 31
0.0
  0
LINE
  5
155
330
33
100
AcDbEntity
  8
$TD_AUDIT_GENERATED_(27)
100
AcDbLine
 10
-20.79783674179629
 20
-26.17851653996688
 30
0.0
 11
-15.78792473837418
 21
-27.0
 31
0.0
  0
LINE
  5
156
330
33
100
AcDbEntity
  8
$TD_AUDIT_GENERATED_(27)
100
AcDbLine
 10
-14.75264889999988
 20
-26.2
 30
0.0
 11
-21.96321833667709
 21
-25.017671143604
 31
0.0
  0
LINE
  5
157
330
33
100
AcDbEntity
  8
$TD_AUDIT_GENERATED_(27)
100
AcDbLine
 10
-7.311266804795475
 20
-29.48275200514972
 30
0.0
 11
-6.782678405584926
 21
-29.20392186313825
 31
0.0
  0
LINE
  5
158
330
33
100
AcDbEntity
  8
$TD_AUDIT_GENERATED_(27)
100
AcDbLine
 10
-7.311263586867206
 20
-29.48275148404497
 30
0.0
 11
-6.782678397527292
 21
-29.20392186568852
 31
0.0
  0
LINE
  5
159
330
33
100
AcDbEntity
  8
$TD_AUDIT_GENERATED_(27)
100
AcDbLine
 10
-7.311263586867206
 20
-29.48275148404497
 30
0.0
 11
-6.580774483700071
 21
-29.23702838045599
 31
0.0
  0
LINE
  5
15A
330
33
100
AcDbEntity
  8
$TD_AUDIT_GENERATED_(27)
100
AcDbLine
 10
-13.41347805748813
 20
-30.48334155847744
 30
0.0
 11
-7.311266804795475
 21
-29.48275200514972
 31
0.0
  0
LINE
  5
15B
330
33
100
AcDbEntity
  8
$TD_AUDIT_GENERATED_(27)
100
AcDbLine
 10
-13.41347804902487
 20
-30.48334156363392
 30
0.0
 11
-11.2822197623192
 21
-30.13387565876545
 31
0.0
  0
LINE
  5
15C
330
33
100
AcDbEntity
  8
$TD_AUDIT_GENERATED_(27)
100
AcDbLine
 10
-11.2822197623192
 20
-30.13387565876545
 30
0.0
 11
-8.646540496879702
 21
-29.70169902152472
 31
0.0
  0
LINE
  5
15D
330
33
100
AcDbEntity
  8
$TD_AUDIT_GENERATED_(27)
100
AcDbLine
 10
-12.87748375104236
 20
-30.76607821491246
 30
0.0
 11
-11.21233424093674
 21
-30.53256150431556
 31
0.0
  0
LINE
  5
15E
330
33
100
AcDbEntity
  8
$TD_AUDIT_GENERATED_(27)
100
AcDbLine
 10
-11.21233424093674
 20
-30.53256150431556
 30
0.0
 11
-8.59022042906271
 21
-29.91296905095744
 31
0.0
  0
LINE
  5
15F
330
33
100
AcDbEntity
  8
$TD_AUDIT_GENERATED_(27)
100
AcDbLine
 10
-8.59022042906271
 20
-29.91296905095744
 30
0.0
 11
-7.311263586867206
 21
-29.48275148404497
 31
0.0
  0
LINE
  5
160
330
33
100
AcDbEntity
  8
$TD_AUDIT_GENERATED_(27)
100
AcDbLine
 10
-15.78792250999988
 20
-27.0
 30
0.0
 11
-20.79783774550645
 21
-26.17851600999671
 31
0.0
  0
LINE
  5
161
330
33
100
AcDbEntity
  8
$TD_AUDIT_GENERATED_(27)
100
AcDbLine
 10
-21.96321833667709
 20
-25.017671143604
 30
0.0
 11
-14.75264889999988
 21
-26.2
 31
0.0
  0
LINE
  5
162
330
33
100
AcDbEntity
  8
$TD_AUDIT_GENERATED_(27)
100
AcDbLine
 10
-14.75264889999988
 20
-26.2
 30
0.0
 11
-14.14280696493766
 21
-26.10000322110527
 31
0.0
  0
LINE
  5
163
330
33
100
AcDbEntity
  8
$TD_AUDIT_GENERATED_(27)
100
AcDbLine
 10
0.6405269383716625
 20
-21.87429904937744
 30
0.0
 11
-5.552668432464456
 21
-18.60739243030548
 31
0.0
  0
LINE
  5
164
330
33
100
AcDbEntity
  8
$TD_AUDIT_GENERATED_(27)
100
AcDbLine
 10
-8.032396021365274
 20
-21.03444361686707
 30
0.0
 11
-1.031392558680965
 21
-24.72746849060059
 31
0.0
  0
LINE
  5
165
330
33
100
AcDbEntity
  8
$TD_AUDIT_GENERATED_(27)
100
AcDbLine
 10
-25.54413187153635
 20
-21.9
 30
0.0
 11
-20.18399556860555
 21
-24.72746849060059
 31
0.0
  0
LINE
  5
166
330
33
100
AcDbEntity
  8
$TD_AUDIT_GENERATED_(27)
100
AcDbLine
 10
-1.031392558680965
 20
-24.72746849060059
 30
0.0
 11
-8.032396021365274
 21
-21.03444361686707
 31
0.0
  0
LINE
  5
167
330
33
100
AcDbEntity
  8
$TD_AUDIT_GENERATED_(27)
100
AcDbLine
 10
-14.06285376675359
 20
-21.9
 30
0.0
 11
-14.35721265798336
 21
-21.03444361686704
 31
0.0
  0
LINE
  5
168
330
33
100
AcDbEntity
  8
$TD_AUDIT_GENERATED_(27)
100
AcDbLine
 10
-28.36663018614761
 20
-23.29446793798005
 30
0.0
 11
-23.84708508314824
 21
-25.67852593996918
 31
0.0
  0
LINE
  5
169
330
33
100
AcDbEntity
  8
$TD_AUDIT_GENERATED_(27)
100
AcDbLine
 10
-23.84708508314824
 20
-25.67852593996918
 30
0.0
 11
-20.79783774550645
 21
-26.17851600999671
 31
0.0
  0
LINE
  5
16A
330
33
100
AcDbEntity
  8
$TD_AUDIT_GENERATED_(27)
100
AcDbLine
 10
-23.84708731152253
 20
-25.67852593996918
 30
0.0
 11
-20.79783674179629
 21
-26.17851653996688
 31
0.0
  0
LINE
  5
16B
330
33
100
AcDbEntity
  8
$TD_AUDIT_GENERATED_(27)
100
AcDbLine
 10
-21.96321833667709
 20
-25.017671143604
 30
0.0
 11
-22.57302147098088
 21
-24.91768072693306
 31
0.0
  0
LINE
  5
16C
330
33
100
AcDbEntity
  8
$TD_AUDIT_GENERATED_(27)
100
AcDbLine
 10
-20.69521882702061
 20
-30.92342106567203
 30
0.0
 11
-18.37611043715485
 21
-31.03124640026514
 31
0.0
  0
LINE
  5
16D
330
33
100
AcDbEntity
  8
$TD_AUDIT_GENERATED_(27)
100
AcDbLine
 10
-18.37611043715485
 20
-31.03124640026514
 30
0.0
 11
-17.07384982370424
 21
-31.03124640026514
 31
0.0
  0
LINE
  5
16E
330
33
100
AcDbEntity
  8
$TD_AUDIT_GENERATED_(27)
100
AcDbLine
 10
-15.97843574820453
 20
-30.90392186351456
 30
0.0
 11
-13.41347805748813
 21
-30.48334155847744
 31
0.0
  0
LINE
  5
16F
330
33
100
AcDbEntity
  8
$TD_AUDIT_GENERATED_(27)
100
AcDbLine
 10
-15.97843574136668
 20
-30.90392186893757
 30
0.0
 11
-13.90727250221437
 21
-30.56430984724335
 31
0.0
  0
LINE
  5
170
330
33
100
AcDbEntity
  8
$TD_AUDIT_GENERATED_(27)
100
AcDbLine
 10
-13.90727250221437
 20
-30.56430984724335
 30
0.0
 11
-13.41347804902485
 21
-30.48334156363394
 31
0.0
  0
LINE
  5
171
330
33
100
AcDbEntity
  8
$TD_AUDIT_GENERATED_(27)
100
AcDbLine
 10
-15.80407574598263
 20
-30.99589668780734
 30
0.0
 11
-13.87753955995355
 21
-30.90632372529636
 31
0.0
  0
LINE
  5
172
330
33
100
AcDbEntity
  8
$TD_AUDIT_GENERATED_(27)
100
AcDbLine
 10
-13.87753955995355
 20
-30.90632372529636
 30
0.0
 11
-12.87748375104236
 21
-30.76607821491246
 31
0.0
  0
LINE
  5
173
330
33
100
AcDbEntity
  8
$TD_AUDIT_GENERATED_(27)
100
AcDbLine
 10
-20.79783774550645
 20
-26.17851600999671
 30
0.0
 11
-23.84708508314824
 21
-25.67852593996918
 31
0.0
  0
LINE
  5
174
330
33
100
AcDbEntity
  8
$TD_AUDIT_GENERATED_(27)
100
AcDbLine
 10
-28.3666278732061
 20
-23.29447033352209
 30
0.0
 11
-23.84708731152253
 21
-25.67852593996918
 31
0.0
  0
LINE
  5
175
330
33
100
AcDbEntity
  8
$TD_AUDIT_GENERATED_(27)
100
AcDbLine
 10
-22.57302147098088
 20
-24.91768072693306
 30
0.0
 11
-28.29374812295269
 21
-21.9
 31
0.0
  0
LINE
  5
176
330
33
100
AcDbEntity
  8
$TD_AUDIT_GENERATED_(27)
100
AcDbLine
 10
-19.31855190732932
 20
-30.90632372529639
 30
0.0
 11
-21.06294859720114
 21
-30.90632372529639
 31
0.0
  0
LINE
  5
177
330
33
100
AcDbEntity
  8
$TD_AUDIT_GENERATED_(27)
100
AcDbLine
 10
-21.06294859720114
 20
-30.90632372529639
 30
0.0
 11
-20.69521882702061
 21
-30.92342106567203
 31
0.0
  0
LINE
  5
178
330
33
100
AcDbEntity
  8
$TD_AUDIT_GENERATED_(27)
100
AcDbLine
 10
-17.07384982370424
 20
-31.03124640026514
 30
0.0
 11
-16.57044303613572
 21
-31.03124640026514
 31
0.0
  0
LINE
  5
179
330
33
100
AcDbEntity
  8
$TD_AUDIT_GENERATED_(27)
100
AcDbLine
 10
-21.99603608660631
 20
-30.53256150431561
 30
0.0
 11
-23.72815391621798
 21
-30.53256150431561
 31
0.0
  0
LINE
  5
17A
330
33
100
AcDbEntity
  8
$TD_AUDIT_GENERATED_(27)
100
AcDbLine
 10
-23.72815391621798
 20
-30.53256150431561
 30
0.0
 11
-21.06294859720114
 21
-30.90632372529639
 31
0.0
  0
LINE
  5
17B
330
33
100
AcDbEntity
  8
$TD_AUDIT_GENERATED_(27)
100
AcDbLine
 10
-21.06294859720114
 20
-30.90632372529639
 30
0.0
 11
-19.31855190732932
 21
-30.90632372529639
 31
0.0
  0
LINE
  5
17C
330
33
100
AcDbEntity
  8
$TD_AUDIT_GENERATED_(27)
100
AcDbLine
 10
-24.03292109294032
 20
-30.46054653613486
 30
0.0
 11
-23.72815391621798
 21
-30.53256150431561
 31
0.0
  0
LINE
  5
17D
330
33
100
AcDbEntity
  8
$TD_AUDIT_GENERATED_(27)
100
AcDbLine
 10
-23.72815391621798
 20
-30.53256150431561
 30
0.0
 11
-21.99603608660631
 21
-30.53256150431561
 31
0.0
  0
LINE
  5
17E
330
33
100
AcDbEntity
  8
$TD_AUDIT_GENERATED_(27)
100
AcDbLine
 10
-16.56437938878058
 20
-31.0
 30
0.0
 11
-15.97843574820453
 21
-30.90392186351456
 31
0.0
  0
LINE
  5
17F
330
33
100
AcDbEntity
  8
$TD_AUDIT_GENERATED_(27)
100
AcDbLine
 10
-16.56437771999983
 20
-31.00000028060725
 30
0.0
 11
-15.97843574136668
 21
-30.90392186893756
 31
0.0
  0
LINE
  5
180
330
33
100
AcDbEntity
  8
$TD_AUDIT_GENERATED_(27)
100
AcDbLine
 10
-16.41591607526118
 20
-31.02434377915948
 30
0.0
 11
-15.80407574598263
 21
-30.99589668780734
 31
0.0
  0
LINE
  5
181
330
33
100
AcDbEntity
  8
$TD_AUDIT_GENERATED_(27)
100
AcDbLine
 10
-22.66661545304353
 20
-29.99940637827861
 30
0.0
 11
-16.56437938878058
 21
-31.0
 31
0.0
  0
LINE
  5
182
330
33
100
AcDbEntity
  8
$TD_AUDIT_GENERATED_(27)
100
AcDbLine
 10
-22.66661544659786
 20
-29.99940638631003
 30
0.0
 11
-21.84653577100358
 21
-30.13387619115887
 31
0.0
  0
LINE
  5
183
330
33
100
AcDbEntity
  8
$TD_AUDIT_GENERATED_(27)
100
AcDbLine
 10
-21.84653577100358
 20
-30.13387619115887
 30
0.0
 11
-19.22148298472999
 21
-30.56431038724149
 31
0.0
  0
LINE
  5
184
330
33
100
AcDbEntity
  8
$TD_AUDIT_GENERATED_(27)
100
AcDbLine
 10
-19.22148298472999
 20
-30.56431038724149
 30
0.0
 11
-16.56437938878058
 21
-31.0
 31
0.0
  0
LINE
  5
185
330
33
100
AcDbEntity
  8
$TD_AUDIT_GENERATED_(27)
100
AcDbLine
 10
-19.25121588004612
 20
-30.90632372529639
 30
0.0
 11
-19.31855190732932
 21
-30.90632372529639
 31
0.0
  0
LINE
  5
186
330
33
100
AcDbEntity
  8
$TD_AUDIT_GENERATED_(27)
100
AcDbLine
 10
-16.57044303613572
 20
-31.03124640026514
 30
0.0
 11
-16.56437771999983
 21
-31.03124640026514
 31
0.0
  0
LINE
  5
187
330
33
100
AcDbEntity
  8
$TD_AUDIT_GENERATED_(27)
100
AcDbLine
 10
-16.56437771999983
 20
-31.03124640026514
 30
0.0
 11
-19.25121588004612
 21
-30.90632372529639
 31
0.0
  0
LINE
  5
188
330
33
100
AcDbEntity
  8
$TD_AUDIT_GENERATED_(27)
100
AcDbLine
 10
-21.91642119906296
 20
-30.53256150431561
 30
0.0
 11
-21.99603608660631
 21
-30.53256150431561
 31
0.0
  0
LINE
  5
189
330
33
100
AcDbEntity
  8
$TD_AUDIT_GENERATED_(27)
100
AcDbLine
 10
-19.31855190732932
 20
-30.90632372529639
 30
0.0
 11
-19.25121588004612
 21
-30.90632372529639
 31
0.0
  0
LINE
  5
18A
330
33
100
AcDbEntity
  8
$TD_AUDIT_GENERATED_(27)
100
AcDbLine
 10
-19.25121588004612
 20
-30.90632372529639
 30
0.0
 11
-21.91642119906296
 21
-30.53256150431561
 31
0.0
  0
LINE
  5
18B
330
33
100
AcDbEntity
  8
$TD_AUDIT_GENERATED_(27)
100
AcDbLine
 10
-21.99603608660631
 20
-30.53256150431561
 30
0.0
 11
-21.91642119906296
 21
-30.53256150431561
 31
0.0
  0
LINE
  5
18C
330
33
100
AcDbEntity
  8
$TD_AUDIT_GENERATED_(27)
100
AcDbLine
 10
-21.91642119906296
 20
-30.53256150431561
 30
0.0
 11
-22.22118837578528
 21
-30.46054653613486
 31
0.0
  0
LINE
  5
18D
330
33
100
AcDbEntity
  8
$TD_AUDIT_GENERATED_(27)
100
AcDbLine
 10
-22.22118837578528
 20
-30.46054653613486
 30
0.0
 11
-21.91642119906296
 21
-30.53256150431561
 31
0.0
  0
LINE
  5
18E
330
33
100
AcDbEntity
  8
$TD_AUDIT_GENERATED_(27)
100
AcDbLine
 10
-21.91642119906296
 20
-30.53256150431561
 30
0.0
 11
-19.25121588004612
 21
-30.90632372529639
 31
0.0
  0
LINE
  5
18F
330
33
100
AcDbEntity
  8
$TD_AUDIT_GENERATED_(27)
100
AcDbLine
 10
-19.25121588004612
 20
-30.90632372529639
 30
0.0
 11
-16.56437771999983
 21
-31.03124640026514
 31
0.0
  0
LINE
  5
190
330
33
100
AcDbEntity
  8
$TD_AUDIT_GENERATED_(27)
100
AcDbLine
 10
-16.56437771999983
 20
-31.03124640026514
 30
0.0
 11
-16.41591607526118
 21
-31.02434377915948
 31
0.0
  0
LINE
  5
191
330
33
100
AcDbEntity
  8
$TD_AUDIT_GENERATED_(27)
100
AcDbLine
 10
-23.84708508314824
 20
-25.67852593996918
 30
0.0
 11
-28.36663018614762
 21
-23.29446793798004
 31
0.0
  0
LINE
  5
192
330
33
100
AcDbEntity
  8
$TD_AUDIT_GENERATED_(27)
100
AcDbLine
 10
-28.29374812295269
 20
-21.9
 30
0.0
 11
-22.57302147098088
 21
-24.91768072693306
 31
0.0
  0
LINE
  5
193
330
33
100
AcDbEntity
  8
$TD_AUDIT_GENERATED_(27)
100
AcDbLine
 10
-22.57302147098088
 20
-24.91768072693306
 30
0.0
 11
-21.96321833667709
 21
-25.017671143604
 31
0.0
  0
LINE
  5
194
330
33
100
AcDbEntity
  8
$TD_AUDIT_GENERATED_(27)
100
AcDbLine
 10
-14.92544016111383
 20
-21.9
 30
0.0
 11
-14.06285376675359
 21
-21.9
 31
0.0
  0
LINE
  5
195
330
33
100
AcDbEntity
  8
$TD_AUDIT_GENERATED_(27)
100
AcDbLine
 10
-5.552668432464456
 20
-18.60739243030548
 30
0.0
 11
-10.46761966534402
 21
-13.51905924081802
 31
0.0
  0
LINE
  5
196
330
33
100
AcDbEntity
  8
$TD_AUDIT_GENERATED_(27)
100
AcDbLine
 10
-13.58842784983782
 20
-15.2824147939682
 30
0.0
 11
-8.032396021365274
 21
-21.03444361686707
 31
0.0
  0
LINE
  5
197
330
33
100
AcDbEntity
  8
$TD_AUDIT_GENERATED_(27)
100
AcDbLine
 10
-8.032396021365274
 20
-21.03444361686707
 30
0.0
 11
-13.58842784983782
 21
-15.2824147939682
 31
0.0
  0
LINE
  5
198
330
33
100
AcDbEntity
  8
$TD_AUDIT_GENERATED_(27)
100
AcDbLine
 10
-14.35721265798335
 20
-21.03444361686707
 30
0.0
 11
-14.22177527411489
 21
-20.82813770686383
 31
0.0
  0
LINE
  5
199
330
33
100
AcDbEntity
  8
$TD_AUDIT_GENERATED_(27)
100
AcDbLine
 10
-15.80633635992053
 20
-17.7174721768113
 30
0.0
 11
-15.118794039113
 21
-19.06719243496142
 31
0.0
  0
LINE
  5
19A
330
33
100
AcDbEntity
  8
$TD_AUDIT_GENERATED_(27)
100
AcDbLine
 10
-14.93525613542894
 20
-19.42749727619627
 30
0.0
 11
-15.11879403911301
 21
-19.06719243496142
 31
0.0
  0
LINE
  5
19B
330
33
100
AcDbEntity
  8
$TD_AUDIT_GENERATED_(27)
100
AcDbLine
 10
-14.22177527411489
 20
-20.82813770686383
 30
0.0
 11
-14.93525613542894
 21
-19.42749727619627
 31
0.0
  0
LINE
  5
19C
330
33
100
AcDbEntity
  8
$TD_AUDIT_GENERATED_(27)
100
AcDbLine
 10
-17.67482109909658
 20
-15.2824147939682
 30
0.0
 11
-16.74679891567814
 21
-16.491837178746
 31
0.0
  0
LINE
  5
19D
330
33
100
AcDbEntity
  8
$TD_AUDIT_GENERATED_(27)
100
AcDbLine
 10
-16.74679891567814
 20
-16.491837178746
 30
0.0
 11
-16.53254059346012
 21
-16.77106413651212
 31
0.0
  0
LINE
  5
19E
330
33
100
AcDbEntity
  8
$TD_AUDIT_GENERATED_(27)
100
AcDbLine
 10
-16.53254059346012
 20
-16.77106413651212
 30
0.0
 11
-15.80633635992053
 21
-17.7174721768113
 31
0.0
  0
LINE
  5
19F
330
33
100
AcDbEntity
  8
$TD_AUDIT_GENERATED_(27)
100
AcDbLine
 10
-31.0101735626632
 20
-21.9
 30
0.0
 11
-28.36663018614761
 21
-23.29446793798005
 31
0.0
  0
LINE
  5
1A0
330
33
100
AcDbEntity
  8
$TD_AUDIT_GENERATED_(27)
100
AcDbLine
 10
-31.0101757910375
 20
-21.9
 30
0.0
 11
-28.3666278732061
 21
-23.29447033352209
 31
0.0
  0
LINE
  5
1A1
330
33
100
AcDbEntity
  8
$TD_AUDIT_GENERATED_(27)
100
AcDbLine
 10
-24.58133804569038
 20
-29.91296905095753
 30
0.0
 11
-26.35026772809202
 21
-29.91296905095753
 31
0.0
  0
LINE
  5
1A2
330
33
100
AcDbEntity
  8
$TD_AUDIT_GENERATED_(27)
100
AcDbLine
 10
-26.35026772809202
 20
-29.91296905095753
 30
0.0
 11
-24.03292109294032
 21
-30.46054653613486
 31
0.0
  0
LINE
  5
1A3
330
33
100
AcDbEntity
  8
$TD_AUDIT_GENERATED_(27)
100
AcDbLine
 10
-28.39756805057069
 20
-29.0525349593421
 30
0.0
 11
-28.90817831418799
 21
-29.0525349593421
 31
0.0
  0
LINE
  5
1A4
330
33
100
AcDbEntity
  8
$TD_AUDIT_GENERATED_(27)
100
AcDbLine
 10
-28.90817831418799
 20
-29.0525349593421
 30
0.0
 11
-26.35026772809202
 21
-29.91296905095753
 31
0.0
  0
LINE
  5
1A5
330
33
100
AcDbEntity
  8
$TD_AUDIT_GENERATED_(27)
100
AcDbLine
 10
-26.35026772809202
 20
-29.91296905095753
 30
0.0
 11
-24.58133804569038
 21
-29.91296905095753
 31
0.0
  0
LINE
  5
1A6
330
33
100
AcDbEntity
  8
$TD_AUDIT_GENERATED_(27)
100
AcDbLine
 10
-29.83792871968955
 20
-28.6411220180738
 30
0.0
 11
-28.90817831418799
 21
-29.0525349593421
 31
0.0
  0
LINE
  5
1A7
330
33
100
AcDbEntity
  8
$TD_AUDIT_GENERATED_(27)
100
AcDbLine
 10
-28.90817831418799
 20
-29.0525349593421
 30
0.0
 11
-28.39756805057069
 21
-29.0525349593421
 31
0.0
  0
LINE
  5
1A8
330
33
100
AcDbEntity
  8
$TD_AUDIT_GENERATED_(27)
100
AcDbLine
 10
-25.23154927955971
 20
-29.57882998629343
 30
0.0
 11
-22.66661545304353
 21
-29.99940637827861
 31
0.0
  0
LINE
  5
1A9
330
33
100
AcDbEntity
  8
$TD_AUDIT_GENERATED_(27)
100
AcDbLine
 10
-25.23154927473946
 20
-29.57882999405831
 30
0.0
 11
-24.48221508300921
 21
-29.70169954628262
 31
0.0
  0
LINE
  5
1AA
330
33
100
AcDbEntity
  8
$TD_AUDIT_GENERATED_(27)
100
AcDbLine
 10
-24.48221508300921
 20
-29.70169954628262
 30
0.0
 11
-22.6666154465979
 21
-29.99940638630999
 31
0.0
  0
LINE
  5
1AB
330
33
100
AcDbEntity
  8
$TD_AUDIT_GENERATED_(27)
100
AcDbLine
 10
-24.538535010937
 20
-29.91296905095753
 30
0.0
 11
-24.58133804569038
 21
-29.91296905095753
 31
0.0
  0
LINE
  5
1AC
330
33
100
AcDbEntity
  8
$TD_AUDIT_GENERATED_(27)
100
AcDbLine
 10
-22.22118837578528
 20
-30.46054653613486
 30
0.0
 11
-24.538535010937
 21
-29.91296905095753
 31
0.0
  0
LINE
  5
1AD
330
33
100
AcDbEntity
  8
$TD_AUDIT_GENERATED_(27)
100
AcDbLine
 10
-24.58133804569038
 20
-29.91296905095753
 30
0.0
 11
-24.538535010937
 21
-29.91296905095753
 31
0.0
  0
LINE
  5
1AE
330
33
100
AcDbEntity
  8
$TD_AUDIT_GENERATED_(27)
100
AcDbLine
 10
-24.538535010937
 20
-29.91296905095753
 30
0.0
 11
-25.08700414779329
 21
-29.72847411743043
 31
0.0
  0
LINE
  5
1AF
330
33
100
AcDbEntity
  8
$TD_AUDIT_GENERATED_(27)
100
AcDbLine
 10
-25.08700414779329
 20
-29.72847411743043
 30
0.0
 11
-24.538535010937
 21
-29.91296905095753
 31
0.0
  0
LINE
  5
1B0
330
33
100
AcDbEntity
  8
$TD_AUDIT_GENERATED_(27)
100
AcDbLine
 10
-24.538535010937
 20
-29.91296905095753
 30
0.0
 11
-22.22118837578528
 21
-30.46054653613486
 31
0.0
  0
LINE
  5
1B1
330
33
100
AcDbEntity
  8
$TD_AUDIT_GENERATED_(27)
100
AcDbLine
 10
-28.36663018614762
 20
-23.29446793798004
 30
0.0
 11
-31.0101735626632
 21
-21.9
 31
0.0
  0
LINE
  5
1B2
330
33
100
AcDbEntity
  8
$TD_AUDIT_GENERATED_(27)
100
AcDbLine
 10
-27.13924853067427
 20
-29.0525349593421
 30
0.0
 11
-28.39756805057069
 21
-29.0525349593421
 31
0.0
  0
LINE
  5
1B3
330
33
100
AcDbEntity
  8
$TD_AUDIT_GENERATED_(27)
100
AcDbLine
 10
-29.64917295176997
 20
-27.95818693884797
 30
0.0
 11
-31.38129088249371
 21
-27.95818693884797
 31
0.0
  0
LINE
  5
1B4
330
33
100
AcDbEntity
  8
$TD_AUDIT_GENERATED_(27)
100
AcDbLine
 10
-31.38129088249371
 20
-27.95818693884797
 30
0.0
 11
-29.83792871968955
 21
-28.6411220180738
 31
0.0
  0
LINE
  5
1B5
330
33
100
AcDbEntity
  8
$TD_AUDIT_GENERATED_(27)
100
AcDbLine
 10
-28.39756805057069
 20
-29.0525349593421
 30
0.0
 11
-27.13924853067427
 21
-29.0525349593421
 31
0.0
  0
LINE
  5
1B6
330
33
100
AcDbEntity
  8
$TD_AUDIT_GENERATED_(27)
100
AcDbLine
 10
-32.86103752484187
 20
-27.13381141950455
 30
0.0
 11
-31.38129088249371
 21
-27.95818693884797
 31
0.0
  0
LINE
  5
1B7
330
33
100
AcDbEntity
  8
$TD_AUDIT_GENERATED_(27)
100
AcDbLine
 10
-31.38129088249371
 20
-27.95818693884797
 30
0.0
 11
-29.64917295176997
 21
-27.95818693884797
 31
0.0
  0
LINE
  5
1B8
330
33
100
AcDbEntity
  8
$TD_AUDIT_GENERATED_(27)
100
AcDbLine
 10
-25.81749197276573
 20
-29.48275200514981
 30
0.0
 11
-25.23154927955971
 21
-29.57882998629343
 31
0.0
  0
LINE
  5
1B9
330
33
100
AcDbEntity
  8
$TD_AUDIT_GENERATED_(27)
100
AcDbLine
 10
-25.81749197276573
 20
-29.48275200514981
 30
0.0
 11
-25.23154927955971
 21
-29.57882998629343
 31
0.0
  0
LINE
  5
1BA
330
33
100
AcDbEntity
  8
$TD_AUDIT_GENERATED_(27)
100
AcDbLine
 10
-25.08700414779329
 20
-29.72847411743043
 30
0.0
 11
-25.81749172515577
 21
-29.48275152709409
 31
0.0
  0
LINE
  5
1BB
330
33
100
AcDbEntity
  8
$TD_AUDIT_GENERATED_(27)
100
AcDbLine
 10
-25.81749172515577
 20
-29.48275152709409
 30
0.0
 11
-25.08700414779329
 21
-29.72847411743043
 31
0.0
  0
LINE
  5
1BC
330
33
100
AcDbEntity
  8
$TD_AUDIT_GENERATED_(27)
100
AcDbLine
 10
-31.32240612582981
 20
-26.57891227398616
 30
0.0
 11
-25.81749197276573
 21
-29.48275200514981
 31
0.0
  0
LINE
  5
1BD
330
33
100
AcDbEntity
  8
$TD_AUDIT_GENERATED_(27)
100
AcDbLine
 10
-31.32240612216111
 20
-26.57891228410634
 30
0.0
 11
-29.39974051499895
 21
-27.59311752411207
 31
0.0
  0
LINE
  5
1BE
330
33
100
AcDbEntity
  8
$TD_AUDIT_GENERATED_(27)
100
AcDbLine
 10
-29.39974051499895
 20
-27.59311752411207
 30
0.0
 11
-27.02205981795809
 21
-28.84734301866317
 31
0.0
  0
LINE
  5
1BF
330
33
100
AcDbEntity
  8
$TD_AUDIT_GENERATED_(27)
100
AcDbLine
 10
-27.02205981795809
 20
-28.84734301866316
 30
0.0
 11
-25.81749495276906
 21
-29.48275044138432
 31
0.0
  0
LINE
  5
1C0
330
33
100
AcDbEntity
  8
$TD_AUDIT_GENERATED_(27)
100
AcDbLine
 10
-27.09644559703297
 20
-29.0525349593421
 30
0.0
 11
-27.13924853067427
 21
-29.0525349593421
 31
0.0
  0
LINE
  5
1C1
330
33
100
AcDbEntity
  8
$TD_AUDIT_GENERATED_(27)
100
AcDbLine
 10
-25.81749495276905
 20
-29.48275044138433
 30
0.0
 11
-27.09644559703297
 21
-29.0525349593421
 31
0.0
  0
LINE
  5
1C2
330
33
100
AcDbEntity
  8
$TD_AUDIT_GENERATED_(27)
100
AcDbLine
 10
-29.56955816533869
 20
-27.95818693884797
 30
0.0
 11
-29.64917295176997
 21
-27.95818693884797
 31
0.0
  0
LINE
  5
1C3
330
33
100
AcDbEntity
  8
$TD_AUDIT_GENERATED_(27)
100
AcDbLine
 10
-27.13924853067427
 20
-29.0525349593421
 30
0.0
 11
-27.09644559703297
 21
-29.0525349593421
 31
0.0
  0
LINE
  5
1C4
330
33
100
AcDbEntity
  8
$TD_AUDIT_GENERATED_(27)
100
AcDbLine
 10
-27.09644559703297
 20
-29.0525349593421
 30
0.0
 11
-29.56955816533869
 21
-27.95818693884797
 31
0.0
  0
LINE
  5
1C5
330
33
100
AcDbEntity
  8
$TD_AUDIT_GENERATED_(27)
100
AcDbLine
 10
-29.64917295176997
 20
-27.95818693884797
 30
0.0
 11
-29.56955816533869
 21
-27.95818693884797
 31
0.0
  0
LINE
  5
1C6
330
33
100
AcDbEntity
  8
$TD_AUDIT_GENERATED_(27)
100
AcDbLine
 10
-29.56955816533869
 20
-27.95818693884797
 30
0.0
 11
-31.04930480768684
 21
-27.13381141950456
 31
0.0
  0
LINE
  5
1C7
330
33
100
AcDbEntity
  8
$TD_AUDIT_GENERATED_(27)
100
AcDbLine
 10
-31.04930480768684
 20
-27.13381141950456
 30
0.0
 11
-29.56955816533869
 21
-27.95818693884797
 31
0.0
  0
LINE
  5
1C8
330
33
100
AcDbEntity
  8
$TD_AUDIT_GENERATED_(27)
100
AcDbLine
 10
-29.56955816533869
 20
-27.95818693884797
 30
0.0
 11
-27.09644559703297
 21
-29.0525349593421
 31
0.0
  0
LINE
  5
1C9
330
33
100
AcDbEntity
  8
$TD_AUDIT_GENERATED_(27)
100
AcDbLine
 10
-27.09644559703297
 20
-29.0525349593421
 30
0.0
 11
-25.81749495276906
 21
-29.48275044138432
 31
0.0
  0
LINE
  5
1CA
330
33
100
AcDbEntity
  8
$TD_AUDIT_GENERATED_(27)
100
AcDbLine
 10
-18.28569269108497
 20
-21.9
 30
0.0
 11
-14.92544016111383
 21
-21.9
 31
0.0
  0
LINE
  5
1CB
330
33
100
AcDbEntity
  8
$TD_AUDIT_GENERATED_(27)
100
AcDbLine
 10
-10.46761966534402
 20
-13.51905924081802
 30
0.0
 11
-13.62321186402054
 21
-7.107389688491821
 31
0.0
  0
LINE
  5
1CC
330
33
100
AcDbEntity
  8
$TD_AUDIT_GENERATED_(27)
100
AcDbLine
 10
-17.1556190309504
 20
-8.034440517425537
 30
0.0
 11
-13.58842784983782
 21
-15.2824147939682
 31
0.0
  0
LINE
  5
1CD
330
33
100
AcDbEntity
  8
$TD_AUDIT_GENERATED_(27)
100
AcDbLine
 10
-13.58842784983782
 20
-15.2824147939682
 30
0.0
 11
-17.1556190309504
 21
-8.034440517425537
 31
0.0
  0
LINE
  5
1CE
330
33
100
AcDbEntity
  8
$TD_AUDIT_GENERATED_(27)
100
AcDbLine
 10
-18.3003165572279
 20
-12.8724970252051
 30
0.0
 11
-17.81253449977895
 21
-14.75183065145069
 31
0.0
  0
LINE
  5
1CF
330
33
100
AcDbEntity
  8
$TD_AUDIT_GENERATED_(27)
100
AcDbLine
 10
-17.81253449977895
 20
-14.75183065145069
 30
0.0
 11
-17.67482109909658
 21
-15.2824147939682
 31
0.0
  0
LINE
  5
1D0
330
33
100
AcDbEntity
  8
$TD_AUDIT_GENERATED_(27)
100
AcDbLine
 10
-19.52576050593005
 20
-9.738150862009952
 30
0.0
 11
-18.76441822538941
 21
-11.68545351784999
 31
0.0
  0
LINE
  5
1D1
330
33
100
AcDbEntity
  8
$TD_AUDIT_GENERATED_(27)
100
AcDbLine
 10
-18.76441822538941
 20
-11.68545351784999
 30
0.0
 11
-18.3003165572279
 21
-12.8724970252051
 31
0.0
  0
LINE
  5
1D2
330
33
100
AcDbEntity
  8
$TD_AUDIT_GENERATED_(27)
100
AcDbLine
 10
-20.19186482989659
 20
-8.034440517425537
 30
0.0
 11
-19.52576050593005
 21
-9.738150862009954
 31
0.0
  0
LINE
  5
1D3
330
33
100
AcDbEntity
  8
$TD_AUDIT_GENERATED_(27)
100
AcDbLine
 10
-32.00529659379195
 20
-26.63873603626995
 30
0.0
 11
-33.74969338477583
 21
-26.63873603626995
 31
0.0
  0
LINE
  5
1D4
330
33
100
AcDbEntity
  8
$TD_AUDIT_GENERATED_(27)
100
AcDbLine
 10
-33.74969338477583
 20
-26.63873603626995
 30
0.0
 11
-32.86103752484187
 21
-27.13381141950455
 31
0.0
  0
LINE
  5
1D5
330
33
100
AcDbEntity
  8
$TD_AUDIT_GENERATED_(27)
100
AcDbLine
 10
-34.69205391284442
 20
-25.10480569445101
 30
0.0
 11
-35.9943168366841
 21
-25.10480569445101
 31
0.0
  0
LINE
  5
1D6
330
33
100
AcDbEntity
  8
$TD_AUDIT_GENERATED_(27)
100
AcDbLine
 10
-35.9943168366841
 20
-25.10480569445101
 30
0.0
 11
-33.74969338477583
 21
-26.63873603626995
 31
0.0
  0
LINE
  5
1D7
330
33
100
AcDbEntity
  8
$TD_AUDIT_GENERATED_(27)
100
AcDbLine
 10
-33.74969338477583
 20
-26.63873603626995
 30
0.0
 11
-32.00529659379195
 21
-26.63873603626995
 31
0.0
  0
LINE
  5
1D8
330
33
100
AcDbEntity
  8
$TD_AUDIT_GENERATED_(27)
100
AcDbLine
 10
-37.80929957075919
 20
-23.60634653953452
 30
0.0
 11
-35.9943168366841
 21
-25.10480569445101
 31
0.0
  0
LINE
  5
1D9
330
33
100
AcDbEntity
  8
$TD_AUDIT_GENERATED_(27)
100
AcDbLine
 10
-35.9943168366841
 20
-25.10480569445101
 30
0.0
 11
-34.69205391284442
 21
-25.10480569445101
 31
0.0
  0
LINE
  5
1DA
330
33
100
AcDbEntity
  8
$TD_AUDIT_GENERATED_(27)
100
AcDbLine
 10
-33.63625950784046
 20
-25.3583556593058
 30
0.0
 11
-31.32240612582981
 21
-26.57891227398616
 31
0.0
  0
LINE
  5
1DB
330
33
100
AcDbEntity
  8
$TD_AUDIT_GENERATED_(27)
100
AcDbLine
 10
-33.63625950563806
 20
-25.35835566865252
 30
0.0
 11
-31.76783488452468
 21
-26.34394881299855
 31
0.0
  0
LINE
  5
1DC
330
33
100
AcDbEntity
  8
$TD_AUDIT_GENERATED_(27)
100
AcDbLine
 10
-31.76783488452468
 20
-26.34394881299855
 30
0.0
 11
-31.32240612216111
 21
-26.57891228410635
 31
0.0
  0
LINE
  5
1DD
330
33
100
AcDbEntity
  8
$TD_AUDIT_GENERATED_(27)
100
AcDbLine
 10
-31.93796066762081
 20
-26.63873603626995
 30
0.0
 11
-32.00529659379195
 21
-26.63873603626995
 31
0.0
  0
LINE
  5
1DE
330
33
100
AcDbEntity
  8
$TD_AUDIT_GENERATED_(27)
100
AcDbLine
 10
-31.04930480768684
 20
-27.13381141950456
 30
0.0
 11
-31.93796066762081
 21
-26.63873603626995
 31
0.0
  0
LINE
  5
1DF
330
33
100
AcDbEntity
  8
$TD_AUDIT_GENERATED_(27)
100
AcDbLine
 10
-32.00529659379195
 20
-26.63873603626995
 30
0.0
 11
-31.93796066762081
 21
-26.63873603626995
 31
0.0
  0
LINE
  5
1E0
330
33
100
AcDbEntity
  8
$TD_AUDIT_GENERATED_(27)
100
AcDbLine
 10
-31.93796066762081
 20
-26.63873603626995
 30
0.0
 11
-33.5474197364935
 21
-25.53886420807506
 31
0.0
  0
LINE
  5
1E1
330
33
100
AcDbEntity
  8
$TD_AUDIT_GENERATED_(27)
100
AcDbLine
 10
-33.5474197364935
 20
-25.53886420807506
 30
0.0
 11
-31.93796066762081
 21
-26.63873603626995
 31
0.0
  0
LINE
  5
1E2
330
33
100
AcDbEntity
  8
$TD_AUDIT_GENERATED_(27)
100
AcDbLine
 10
-31.93796066762081
 20
-26.63873603626995
 30
0.0
 11
-31.04930480768684
 21
-27.13381141950456
 31
0.0
  0
LINE
  5
1E3
330
33
100
AcDbEntity
  8
$TD_AUDIT_GENERATED_(27)
100
AcDbLine
 10
-34.18864924854184
 20
-25.10480569445101
 30
0.0
 11
-34.69205391284442
 21
-25.10480569445101
 31
0.0
  0
LINE
  5
1E4
330
33
100
AcDbEntity
  8
$TD_AUDIT_GENERATED_(27)
100
AcDbLine
 10
-36.35269197300599
 20
-23.36874621856707
 30
0.0
 11
-38.09708885000094
 21
-23.36874621856707
 31
0.0
  0
LINE
  5
1E5
330
33
100
AcDbEntity
  8
$TD_AUDIT_GENERATED_(27)
100
AcDbLine
 10
-38.09708885000094
 20
-23.36874621856707
 30
0.0
 11
-37.80929957075919
 21
-23.60634653953452
 31
0.0
  0
LINE
  5
1E6
330
33
100
AcDbEntity
  8
$TD_AUDIT_GENERATED_(27)
100
AcDbLine
 10
-34.69205391284442
 20
-25.10480569445101
 30
0.0
 11
-34.18864924854184
 21
-25.10480569445101
 31
0.0
  0
LINE
  5
1E7
330
33
100
AcDbEntity
  8
$TD_AUDIT_GENERATED_(27)
100
AcDbLine
 10
-39.58093265245942
 20
-21.9
 30
0.0
 11
-38.09708885000094
 21
-23.36874621856707
 31
0.0
  0
LINE
  5
1E8
330
33
100
AcDbEntity
  8
$TD_AUDIT_GENERATED_(27)
100
AcDbLine
 10
-38.09708885000094
 20
-23.36874621856707
 30
0.0
 11
-36.35269197300599
 21
-23.36874621856707
 31
0.0
  0
LINE
  5
1E9
330
33
100
AcDbEntity
  8
$TD_AUDIT_GENERATED_(27)
100
AcDbLine
 10
-34.16484542680412
 20
-25.07952682562345
 30
0.0
 11
-33.63625950784046
 21
-25.3583556593058
 31
0.0
  0
LINE
  5
1EA
330
33
100
AcDbEntity
  8
$TD_AUDIT_GENERATED_(27)
100
AcDbLine
 10
-34.16484446464911
 20
-25.07952783251949
 30
0.0
 11
-33.63625950563807
 21
-25.3583556686525
 31
0.0
  0
LINE
  5
1EB
330
33
100
AcDbEntity
  8
$TD_AUDIT_GENERATED_(27)
100
AcDbLine
 10
-33.5474197364935
 20
-25.53886420807506
 30
0.0
 11
-34.05856094108511
 21
-25.18956063022533
 31
0.0
  0
LINE
  5
1EC
330
33
100
AcDbEntity
  8
$TD_AUDIT_GENERATED_(27)
100
AcDbLine
 10
-34.05856094108511
 20
-25.18956063022533
 30
0.0
 11
-33.5474197364935
 21
-25.53886420807506
 31
0.0
  0
LINE
  5
1ED
330
33
100
AcDbEntity
  8
$TD_AUDIT_GENERATED_(27)
100
AcDbLine
 10
-37.23603257590222
 20
-21.9
 30
0.0
 11
-34.16484542680412
 21
-25.07952682562345
 31
0.0
  0
LINE
  5
1EE
330
33
100
AcDbEntity
  8
$TD_AUDIT_GENERATED_(27)
100
AcDbLine
 10
-37.23603258633411
 20
-21.9
 30
0.0
 11
-36.06712186554513
 21
-23.11014539755379
 31
0.0
  0
LINE
  5
1EF
330
33
100
AcDbEntity
  8
$TD_AUDIT_GENERATED_(27)
100
AcDbLine
 10
-36.06712186554513
 20
-23.11014539755379
 30
0.0
 11
-34.16484542680412
 21
-25.07952682562345
 31
0.0
  0
LINE
  5
1F0
330
33
100
AcDbEntity
  8
$TD_AUDIT_GENERATED_(27)
100
AcDbLine
 10
-34.18258411952908
 20
-25.10480569445101
 30
0.0
 11
-34.18864924854184
 21
-25.10480569445101
 31
0.0
  0
LINE
  5
1F1
330
33
100
AcDbEntity
  8
$TD_AUDIT_GENERATED_(27)
100
AcDbLine
 10
-34.05856094108511
 20
-25.18956063022533
 30
0.0
 11
-34.18258411952908
 21
-25.10480569445101
 31
0.0
  0
LINE
  5
1F2
330
33
100
AcDbEntity
  8
$TD_AUDIT_GENERATED_(27)
100
AcDbLine
 10
-36.28535613284593
 20
-23.36874621856707
 30
0.0
 11
-36.35269197300599
 21
-23.36874621856707
 31
0.0
  0
LINE
  5
1F3
330
33
100
AcDbEntity
  8
$TD_AUDIT_GENERATED_(27)
100
AcDbLine
 10
-34.18864924854184
 20
-25.10480569445101
 30
0.0
 11
-34.18258411952908
 21
-25.10480569445101
 31
0.0
  0
LINE
  5
1F4
330
33
100
AcDbEntity
  8
$TD_AUDIT_GENERATED_(27)
100
AcDbLine
 10
-34.18258411952908
 20
-25.10480569445101
 30
0.0
 11
-36.28535613284593
 21
-23.36874621856707
 31
0.0
  0
LINE
  5
1F5
330
33
100
AcDbEntity
  8
$TD_AUDIT_GENERATED_(27)
100
AcDbLine
 10
-36.35269197300599
 20
-23.36874621856707
 30
0.0
 11
-36.28535613284593
 21
-23.36874621856707
 31
0.0
  0
LINE
  5
1F6
330
33
100
AcDbEntity
  8
$TD_AUDIT_GENERATED_(27)
100
AcDbLine
 10
-36.28535613284593
 20
-23.36874621856707
 30
0.0
 11
-37.7691999353044
 21
-21.9
 31
0.0
  0
LINE
  5
1F7
330
33
100
AcDbEntity
  8
$TD_AUDIT_GENERATED_(27)
100
AcDbLine
 10
-37.7691999353044
 20
-21.9
 30
0.0
 11
-36.28535613284593
 21
-23.36874621856707
 31
0.0
  0
LINE
  5
1F8
330
33
100
AcDbEntity
  8
$TD_AUDIT_GENERATED_(27)
100
AcDbLine
 10
-36.28535613284593
 20
-23.36874621856707
 30
0.0
 11
-34.18258411952908
 21
-25.10480569445101
 31
0.0
  0
LINE
  5
1F9
330
33
100
AcDbEntity
  8
$TD_AUDIT_GENERATED_(27)
100
AcDbLine
 10
-34.18258411952908
 20
-25.10480569445101
 30
0.0
 11
-34.05856094108511
 21
-25.18956063022533
 31
0.0
  0
LINE
  5
1FA
330
33
100
AcDbEntity
  8
$TD_AUDIT_GENERATED_(27)
100
AcDbLine
 10
-23.32621224195814
 20
-21.9
 30
0.0
 11
-18.28569269108497
 21
-21.9
 31
0.0
  0
LINE
  5
1FB
330
33
100
AcDbEntity
  8
$TD_AUDIT_GENERATED_(27)
100
AcDbLine
 10
-13.62321186402054
 20
-7.107389688491821
 30
0.0
 11
-14.71055418650279
 21
-0.0000010053619306
 31
0.0
  0
LINE
  5
1FC
330
33
100
AcDbEntity
  8
$TD_AUDIT_GENERATED_(27)
100
AcDbLine
 10
-18.33138708018896
 20
-0.349059056261812
 30
0.0
 11
-17.1556190309504
 21
-8.034440517425537
 31
0.0
  0
LINE
  5
1FD
330
33
100
AcDbEntity
  8
$TD_AUDIT_GENERATED_(27)
100
AcDbLine
 10
-18.20635993407462
 20
-0.0000011334963943
 30
0.0
 11
-18.33138708018897
 21
-0.3490590562618499
 31
0.0
  0
LINE
  5
1FE
330
33
100
AcDbEntity
  8
$TD_AUDIT_GENERATED_(27)
100
AcDbLine
 10
-17.1556190309504
 20
-8.034440517425537
 30
0.0
 11
-18.33138708018896
 21
-0.3490590562618126
 31
0.0
  0
LINE
  5
1FF
330
33
100
AcDbEntity
  8
$TD_AUDIT_GENERATED_(27)
100
AcDbLine
 10
-19.55658408727798
 20
-2.679108413444713
 30
0.0
 11
-19.78386212511948
 21
-2.650464011056006
 31
0.0
  0
LINE
  5
200
330
33
100
AcDbEntity
  8
$TD_AUDIT_GENERATED_(27)
100
AcDbLine
 10
-19.33439658680728
 20
-2.620053814895172
 30
0.0
 11
-19.55658408727798
 21
-2.679108413444713
 31
0.0
  0
LINE
  5
201
330
33
100
AcDbEntity
  8
$TD_AUDIT_GENERATED_(27)
100
AcDbLine
 10
-19.05961627526068
 20
-2.434931704727794
 30
0.0
 11
-19.33439658680728
 21
-2.620053814895171
 31
0.0
  0
LINE
  5
202
330
33
100
AcDbEntity
  8
$TD_AUDIT_GENERATED_(27)
100
AcDbLine
 10
-18.85374307921075
 20
-2.220364234600296
 30
0.0
 11
-19.05961627526068
 21
-2.434931704727794
 31
0.0
  0
LINE
  5
203
330
33
100
AcDbEntity
  8
$TD_AUDIT_GENERATED_(27)
100
AcDbLine
 10
-18.85374307921076
 20
-2.220364234600296
 30
0.0
 11
-18.61443293614672
 21
-1.662894971574587
 31
0.0
  0
LINE
  5
204
330
33
100
AcDbEntity
  8
$TD_AUDIT_GENERATED_(27)
100
AcDbLine
 10
-18.45122378478052
 20
-1.171959761975999
 30
0.0
 11
-18.61443293614672
 21
-1.662894971574586
 31
0.0
  0
LINE
  5
205
330
33
100
AcDbEntity
  8
$TD_AUDIT_GENERATED_(27)
100
AcDbLine
 10
-18.33138708018896
 20
-0.3490590562618276
 30
0.0
 11
-18.45122378478052
 21
-1.171959761975999
 31
0.0
  0
LINE
  5
206
330
33
100
AcDbEntity
  8
$TD_AUDIT_GENERATED_(27)
100
AcDbLine
 10
-20.22663642272857
 20
-6.767472176811282
 30
0.0
 11
-20.19186482989659
 21
-8.034440517425537
 31
0.0
  0
LINE
  5
207
330
33
100
AcDbEntity
  8
$TD_AUDIT_GENERATED_(27)
100
AcDbLine
 10
-20.76258587237347
 20
-2.357550201461639
 30
0.0
 11
-20.29386007872369
 21
-6.214339641583136
 31
0.0
  0
LINE
  5
208
330
33
100
AcDbEntity
  8
$TD_AUDIT_GENERATED_(27)
100
AcDbLine
 10
-20.29386007872369
 20
-6.214339641583136
 30
0.0
 11
-20.22663642272857
 21
-6.767472176811282
 31
0.0
  0
LINE
  5
209
330
33
100
AcDbEntity
  8
$TD_AUDIT_GENERATED_(27)
100
AcDbLine
 10
-20.61240372045695
 20
-2.402496925574928
 30
0.0
 11
-19.78386212511948
 21
-2.650464011056006
 31
0.0
  0
LINE
  5
20A
330
33
100
AcDbEntity
  8
$TD_AUDIT_GENERATED_(27)
100
AcDbLine
 10
-30.50816682944944
 20
-21.9
 30
0.0
 11
-23.32621224195814
 21
-21.9
 31
0.0
  0
LINE
  5
20B
330
33
100
AcDbEntity
  8
$TD_AUDIT_GENERATED_(27)
100
AcDbLine
 10
-14.71055418650279
 20
-0.0000010053619306
 30
0.0
 11
-13.62321186402054
 21
7.107390373945236
 31
0.0
  0
LINE
  5
20C
330
33
100
AcDbEntity
  8
$TD_AUDIT_GENERATED_(27)
100
AcDbLine
 10
-15.99594189253663
 20
2.0
 30
0.0
 11
-16.27589237499
 21
1.870888448732202
 31
0.0
  0
LINE
  5
20D
330
33
100
AcDbEntity
  8
$TD_AUDIT_GENERATED_(27)
100
AcDbLine
 10
-15.99594189253663
 20
2.0
 30
0.0
 11
-14.90419728294646
 21
7.508981597035056
 31
0.0
  0
LINE
  5
20E
330
33
100
AcDbEntity
  8
$TD_AUDIT_GENERATED_(27)
100
AcDbLine
 10
-16.12495387939469
 20
2.0
 30
0.0
 11
-15.99594189253663
 21
2.0
 31
0.0
  0
LINE
  5
20F
330
33
100
AcDbEntity
  8
$TD_AUDIT_GENERATED_(27)
100
AcDbLine
 10
-15.99594189253663
 20
2.0
 30
0.0
 11
-16.12495387939469
 21
2.0
 31
0.0
  0
LINE
  5
210
330
33
100
AcDbEntity
  8
$TD_AUDIT_GENERATED_(27)
100
AcDbLine
 10
-16.99999963050783
 20
1.251493040851352
 30
0.0
 11
-17.19828592607638
 21
1.154906790342214
 31
0.0
  0
LINE
  5
211
330
33
100
AcDbEntity
  8
$TD_AUDIT_GENERATED_(27)
100
AcDbLine
 10
-16.99999963050783
 20
1.251493040851352
 30
0.0
 11
-16.27589237499001
 21
1.870888448732187
 31
0.0
  0
LINE
  5
212
330
33
100
AcDbEntity
  8
$TD_AUDIT_GENERATED_(27)
100
AcDbLine
 10
-16.52166299940842
 20
2.0
 30
0.0
 11
-16.12495387939469
 21
2.0
 31
0.0
  0
LINE
  5
213
330
33
100
AcDbEntity
  8
$TD_AUDIT_GENERATED_(27)
100
AcDbLine
 10
-16.12495387939469
 20
2.0
 30
0.0
 11
-16.52166299940842
 21
2.0
 31
0.0
  0
LINE
  5
214
330
33
100
AcDbEntity
  8
$TD_AUDIT_GENERATED_(27)
100
AcDbLine
 10
-17.94127579473398
 20
0.403607680513919
 30
0.0
 11
-17.19828592607638
 21
1.154906790342215
 31
0.0
  0
LINE
  5
215
330
33
100
AcDbEntity
  8
$TD_AUDIT_GENERATED_(27)
100
AcDbLine
 10
-16.99999960659751
 20
2.0
 30
0.0
 11
-16.52166299940842
 21
2.0
 31
0.0
  0
LINE
  5
216
330
33
100
AcDbEntity
  8
$TD_AUDIT_GENERATED_(27)
100
AcDbLine
 10
-16.52166299940842
 20
2.0
 30
0.0
 11
-16.99999960659751
 21
2.0
 31
0.0
  0
LINE
  5
217
330
33
100
AcDbEntity
  8
$TD_AUDIT_GENERATED_(27)
100
AcDbLine
 10
-17.08834653352978
 20
2.0
 30
0.0
 11
-16.99999960659751
 21
2.0
 31
0.0
  0
LINE
  5
218
330
33
100
AcDbEntity
  8
$TD_AUDIT_GENERATED_(27)
100
AcDbLine
 10
-16.99999960659751
 20
2.0
 30
0.0
 11
-17.08834653352978
 21
2.0
 31
0.0
  0
LINE
  5
219
330
33
100
AcDbEntity
  8
$TD_AUDIT_GENERATED_(27)
100
AcDbLine
 10
-18.20635993407462
 20
-0.0000011334963909
 30
0.0
 11
-18.01959163433196
 21
0.2570271720063184
 31
0.0
  0
LINE
  5
21A
330
33
100
AcDbEntity
  8
$TD_AUDIT_GENERATED_(27)
100
AcDbLine
 10
-18.01959163433196
 20
0.2570271720063184
 30
0.0
 11
-17.94127579473398
 21
0.403607680513917
 31
0.0
  0
LINE
  5
21B
330
33
100
AcDbEntity
  8
$TD_AUDIT_GENERATED_(27)
100
AcDbLine
 10
-17.50020585206856
 20
2.0
 30
0.0
 11
-17.08834653352978
 21
2.0
 31
0.0
  0
LINE
  5
21C
330
33
100
AcDbEntity
  8
$TD_AUDIT_GENERATED_(27)
100
AcDbLine
 10
-17.08834653352978
 20
2.0
 30
0.0
 11
-17.50020585206856
 21
2.0
 31
0.0
  0
LINE
  5
21D
330
33
100
AcDbEntity
  8
$TD_AUDIT_GENERATED_(27)
100
AcDbLine
 10
-19.25817217195389
 20
2.0
 30
0.0
 11
-17.50020585206856
 21
2.0
 31
0.0
  0
LINE
  5
21E
330
33
100
AcDbEntity
  8
$TD_AUDIT_GENERATED_(27)
100
AcDbLine
 10
-17.50020585206856
 20
2.0
 30
0.0
 11
-19.25817217195389
 21
2.0
 31
0.0
  0
LINE
  5
21F
330
33
100
AcDbEntity
  8
$TD_AUDIT_GENERATED_(27)
100
AcDbLine
 10
-23.55106509600975
 20
-0.7807756359231026
 30
0.0
 11
-23.10809846885531
 21
-1.171959761975999
 31
0.0
  0
LINE
  5
220
330
33
100
AcDbEntity
  8
$TD_AUDIT_GENERATED_(27)
100
AcDbLine
 10
-23.10809846885531
 20
-1.171959761975999
 30
0.0
 11
-21.22097041813159
 21
-2.220364234600296
 31
0.0
  0
LINE
  5
221
330
33
100
AcDbEntity
  8
$TD_AUDIT_GENERATED_(27)
100
AcDbLine
 10
-21.22097041813159
 20
-2.220364234600296
 30
0.0
 11
-20.61240372045695
 21
-2.402496925574928
 31
0.0
  0
LINE
  5
222
330
33
100
AcDbEntity
  8
$TD_AUDIT_GENERATED_(27)
100
AcDbLine
 10
-41.00000000000002
 20
-21.9
 30
0.0
 11
-30.50816682944944
 21
-21.9
 31
0.0
  0
LINE
  5
223
330
33
100
AcDbEntity
  8
$TD_AUDIT_GENERATED_(27)
100
AcDbLine
 10
-43.02542051005797
 20
-25.0
 30
0.0
 11
-41.0
 21
-25.0
 31
0.0
  0
LINE
  5
224
330
33
100
AcDbEntity
  8
$TD_AUDIT_GENERATED_(27)
100
AcDbLine
 10
-41.0
 20
-25.0
 30
0.0
 11
-41.0
 21
-24.08734563505142
 31
0.0
  0
LINE
  5
225
330
33
100
AcDbEntity
  8
$TD_AUDIT_GENERATED_(27)
100
AcDbLine
 10
-13.62321186402054
 20
7.107390373945236
 30
0.0
 11
-10.46761966534402
 21
13.51906198263168
 31
0.0
  0
LINE
  5
226
330
33
100
AcDbEntity
  8
$TD_AUDIT_GENERATED_(27)
100
AcDbLine
 10
-14.90419728294648
 20
7.508981597034979
 30
0.0
 11
-14.21884751319885
 21
8.553667820024994
 31
0.0
  0
LINE
  5
227
330
33
100
AcDbEntity
  8
$TD_AUDIT_GENERATED_(27)
100
AcDbLine
 10
-12.89531845932946
 20
12.72396397385828
 30
0.0
 11
-14.21884751319885
 21
8.553667820024994
 31
0.0
  0
LINE
  5
228
330
33
100
AcDbEntity
  8
$TD_AUDIT_GENERATED_(27)
100
AcDbLine
 10
-12.89531845932943
 20
12.72396397385835
 30
0.0
 11
-12.1699596132781
 21
14.65502442026129
 31
0.0
  0
LINE
  5
229
330
33
100
AcDbEntity
  8
$TD_AUDIT_GENERATED_(27)
100
AcDbLine
 10
-19.52504210729221
 20
2.0
 30
0.0
 11
-19.25817217195389
 21
2.0
 31
0.0
  0
LINE
  5
22A
330
33
100
AcDbEntity
  8
$TD_AUDIT_GENERATED_(27)
100
AcDbLine
 10
-19.25817217195389
 20
2.0
 30
0.0
 11
-19.52504210729221
 21
2.0
 31
0.0
  0
LINE
  5
22B
330
33
100
AcDbEntity
  8
$TD_AUDIT_GENERATED_(27)
100
AcDbLine
 10
-19.78115275502205
 20
2.0
 30
0.0
 11
-19.52504210729221
 21
2.0
 31
0.0
  0
LINE
  5
22C
330
33
100
AcDbEntity
  8
$TD_AUDIT_GENERATED_(27)
100
AcDbLine
 10
-19.52504210729221
 20
2.0
 30
0.0
 11
-19.78115275502205
 21
2.0
 31
0.0
  0
LINE
  5
22D
330
33
100
AcDbEntity
  8
$TD_AUDIT_GENERATED_(27)
100
AcDbLine
 10
-19.79220347167625
 20
2.0
 30
0.0
 11
-19.78115275502205
 21
2.0
 31
0.0
  0
LINE
  5
22E
330
33
100
AcDbEntity
  8
$TD_AUDIT_GENERATED_(27)
100
AcDbLine
 10
-19.78115275502205
 20
2.0
 30
0.0
 11
-19.79220347167625
 21
2.0
 31
0.0
  0
LINE
  5
22F
330
33
100
AcDbEntity
  8
$TD_AUDIT_GENERATED_(27)
100
AcDbLine
 10
-22.29006773233414
 20
2.0
 30
0.0
 11
-19.79220347167625
 21
2.0
 31
0.0
  0
LINE
  5
230
330
33
100
AcDbEntity
  8
$TD_AUDIT_GENERATED_(27)
100
AcDbLine
 10
-19.79220347167625
 20
2.0
 30
0.0
 11
-22.29006773233414
 21
2.0
 31
0.0
  0
LINE
  5
231
330
33
100
AcDbEntity
  8
$TD_AUDIT_GENERATED_(27)
100
AcDbLine
 10
-24.28115302324295
 20
2.0
 30
0.0
 11
-22.29006773233414
 21
2.0
 31
0.0
  0
LINE
  5
232
330
33
100
AcDbEntity
  8
$TD_AUDIT_GENERATED_(27)
100
AcDbLine
 10
-22.29006773233414
 20
2.0
 30
0.0
 11
-24.28115302324295
 21
2.0
 31
0.0
  0
LINE
  5
233
330
33
100
AcDbEntity
  8
$TD_AUDIT_GENERATED_(27)
100
AcDbLine
 10
-25.55950886011124
 20
2.0
 30
0.0
 11
-24.28115302324295
 21
2.0
 31
0.0
  0
LINE
  5
234
330
33
100
AcDbEntity
  8
$TD_AUDIT_GENERATED_(27)
100
AcDbLine
 10
-24.28115302324295
 20
2.0
 30
0.0
 11
-25.55950886011124
 21
2.0
 31
0.0
  0
LINE
  5
235
330
33
100
AcDbEntity
  8
$TD_AUDIT_GENERATED_(27)
100
AcDbLine
 10
-26.0
 20
2.0
 30
0.0
 11
-25.55950886011124
 21
2.0
 31
0.0
  0
LINE
  5
236
330
33
100
AcDbEntity
  8
$TD_AUDIT_GENERATED_(27)
100
AcDbLine
 10
-26.0
 20
4.732326552201786
 30
0.0
 11
-26.0
 21
2.0
 31
0.0
  0
LINE
  5
237
330
33
100
AcDbEntity
  8
$TD_AUDIT_GENERATED_(27)
100
AcDbLine
 10
-25.55950886011124
 20
2.0
 30
0.0
 11
-26.0
 21
2.0
 31
0.0
  0
LINE
  5
238
330
33
100
AcDbEntity
  8
$TD_AUDIT_GENERATED_(27)
100
AcDbLine
 10
-26.0
 20
2.0
 30
0.0
 11
-24.72624573055764
 21
0.2570271720063184
 31
0.0
  0
LINE
  5
239
330
33
100
AcDbEntity
  8
$TD_AUDIT_GENERATED_(27)
100
AcDbLine
 10
-24.72624573055764
 20
0.2570271720063184
 30
0.0
 11
-23.55106509600975
 21
-0.7807756359231026
 31
0.0
  0
LINE
  5
23A
330
33
100
AcDbEntity
  8
$TD_AUDIT_GENERATED_(27)
100
AcDbLine
 10
-49.0
 20
-25.0
 30
0.0
 11
-43.02542051005797
 21
-25.0
 31
0.0
  0
LINE
  5
23B
330
33
100
AcDbEntity
  8
$TD_AUDIT_GENERATED_(27)
100
AcDbLine
 10
-41.00000000000001
 20
-24.08734563505142
 30
0.0
 11
-41.00000000000001
 21
-23.80321891056134
 31
0.0
  0
LINE
  5
23C
330
33
100
AcDbEntity
  8
$TD_AUDIT_GENERATED_(27)
100
AcDbLine
 10
-41.00000000000001
 20
-23.77641290737881
 30
0.0
 11
-41.00000000000001
 21
-20.30321891056129
 31
0.0
  0
LINE
  5
23D
330
33
100
AcDbEntity
  8
$TD_AUDIT_GENERATED_(27)
100
AcDbLine
 10
-41.00000000000001
 20
-23.80321891056134
 30
0.0
 11
-41.00000000000001
 21
-23.77641290737881
 31
0.0
  0
LINE
  5
23E
330
33
100
AcDbEntity
  8
$TD_AUDIT_GENERATED_(27)
100
AcDbLine
 10
-41.00000000000004
 20
-14.69463130731175
 30
0.0
 11
-41.00000000000004
 21
-9.240119729249528
 31
0.0
  0
LINE
  5
23F
330
33
100
AcDbEntity
  8
$TD_AUDIT_GENERATED_(27)
100
AcDbLine
 10
-41.00000000000002
 20
-20.22542485937363
 30
0.0
 11
-41.00000000000002
 21
-14.69463130731175
 31
0.0
  0
LINE
  5
240
330
33
100
AcDbEntity
  8
$TD_AUDIT_GENERATED_(27)
100
AcDbLine
 10
-41.00000000000002
 20
-20.30321891056129
 30
0.0
 11
-41.00000000000002
 21
-20.22542485937363
 31
0.0
  0
LINE
  5
241
330
33
100
AcDbEntity
  8
$TD_AUDIT_GENERATED_(27)
100
AcDbLine
 10
-60.49297287464086
 20
-26.00000303062617
 30
0.0
 11
-49.00000000000004
 21
-26.00000303062617
 31
0.0
  0
LINE
  5
242
330
33
100
AcDbEntity
  8
$TD_AUDIT_GENERATED_(27)
100
AcDbLine
 10
-49.00000000000004
 20
-26.00000303062619
 30
0.0
 11
-49.00000000000004
 21
-16.34185588465716
 31
0.0
  0
LINE
  5
243
330
33
100
AcDbEntity
  8
$TD_AUDIT_GENERATED_(27)
100
AcDbLine
 10
-10.46761966534402
 20
13.51906198263168
 30
0.0
 11
-5.552669756658799
 21
18.60739105939865
 31
0.0
  0
LINE
  5
244
330
33
100
AcDbEntity
  8
$TD_AUDIT_GENERATED_(27)
100
AcDbLine
 10
-11.70993334054947
 20
15.30998089263212
 30
0.0
 11
-12.1699596132781
 21
14.65502442026129
 31
0.0
  0
LINE
  5
245
330
33
100
AcDbEntity
  8
$TD_AUDIT_GENERATED_(27)
100
AcDbLine
 10
-11.1625029989352
 20
16.52113353116329
 30
0.0
 11
-11.70993334054947
 21
15.30998089263212
 31
0.0
  0
LINE
  5
246
330
33
100
AcDbEntity
  8
$TD_AUDIT_GENERATED_(27)
100
AcDbLine
 10
-9.979789191680888
 20
18.56485895663084
 30
0.0
 11
-11.16250299893526
 21
16.52113353116317
 31
0.0
  0
LINE
  5
247
330
33
100
AcDbEntity
  8
$TD_AUDIT_GENERATED_(27)
100
AcDbLine
 10
-8.032397518280616
 20
21.0344420671463
 30
0.0
 11
-9.265227707716043
 21
19.75812271167631
 31
0.0
  0
LINE
  5
248
330
33
100
AcDbEntity
  8
$TD_AUDIT_GENERATED_(27)
100
AcDbLine
 10
-9.718846440315247
 20
18.92526755877935
 30
0.0
 11
-9.97978919168089
 21
18.56485895663084
 31
0.0
  0
LINE
  5
249
330
33
100
AcDbEntity
  8
$TD_AUDIT_GENERATED_(27)
100
AcDbLine
 10
-9.26522770771598
 20
19.7581227116764
 30
0.0
 11
-9.718846440315247
 21
18.92526755877935
 31
0.0
  0
LINE
  5
24A
330
33
100
AcDbEntity
  8
$TD_AUDIT_GENERATED_(27)
100
AcDbLine
 10
-9.265227707716043
 20
19.75812271167631
 30
0.0
 11
-8.032397518280616
 21
21.0344420671463
 31
0.0
  0
LINE
  5
24B
330
33
100
AcDbEntity
  8
$TD_AUDIT_GENERATED_(27)
100
AcDbLine
 10
-8.484410128273574
 20
20.90895915340788
 30
0.0
 11
-9.265227707716015
 21
19.75812271167634
 31
0.0
  0
LINE
  5
24C
330
33
100
AcDbEntity
  8
$TD_AUDIT_GENERATED_(27)
100
AcDbLine
 10
-8.484410128273574
 20
20.90895915340788
 30
0.0
 11
-8.440491676330566
 21
20.97368996415186
 31
0.0
  0
LINE
  5
24D
330
33
100
AcDbEntity
  8
$TD_AUDIT_GENERATED_(27)
100
AcDbLine
 10
-8.417125871210427
 20
21.03444206714627
 30
0.0
 11
-8.440491676330566
 21
20.97368996415186
 31
0.0
  0
LINE
  5
24E
330
33
100
AcDbEntity
  8
$TD_AUDIT_GENERATED_(27)
100
AcDbLine
 10
-26.0
 20
12.72809569478378
 30
0.0
 11
-26.0
 21
4.732326552201786
 31
0.0
  0
LINE
  5
24F
330
33
100
AcDbEntity
  8
$TD_AUDIT_GENERATED_(27)
100
AcDbLine
 10
-83.0
 20
-21.20000152587891
 30
0.0
 11
-83.0
 21
-20.95690192241878
 31
0.0
  0
LINE
  5
250
330
33
100
AcDbEntity
  8
$TD_AUDIT_GENERATED_(27)
100
AcDbLine
 10
-99.7451190479588
 20
-20.26971713432564
 30
0.0
 11
-83.0
 21
-21.20000152587891
 31
0.0
  0
LINE
  5
251
330
33
100
AcDbEntity
  8
$TD_AUDIT_GENERATED_(27)
100
AcDbLine
 10
-83.0
 20
-20.95690192241878
 30
0.0
 11
-83.0
 21
-21.20000152587891
 31
0.0
  0
LINE
  5
252
330
33
100
AcDbEntity
  8
$TD_AUDIT_GENERATED_(27)
100
AcDbLine
 10
-83.0
 20
-21.20000152587891
 30
0.0
 11
-69.00000000000004
 21
-21.20000152587891
 31
0.0
  0
LINE
  5
253
330
33
100
AcDbEntity
  8
$TD_AUDIT_GENERATED_(27)
100
AcDbLine
 10
-83.0
 20
-20.16240005493164
 30
0.0
 11
-83.0
 21
-19.45690758795766
 31
0.0
  0
LINE
  5
254
330
33
100
AcDbEntity
  8
$TD_AUDIT_GENERATED_(27)
100
AcDbLine
 10
-83.0
 20
-19.45690758795766
 30
0.0
 11
-83.0
 21
-20.16240005493164
 31
0.0
  0
LINE
  5
255
330
33
100
AcDbEntity
  8
$TD_AUDIT_GENERATED_(27)
100
AcDbLine
 10
-83.0
 20
-20.95690192241878
 30
0.0
 11
-83.0
 21
-20.16240005493164
 31
0.0
  0
LINE
  5
256
330
33
100
AcDbEntity
  8
$TD_AUDIT_GENERATED_(27)
100
AcDbLine
 10
-83.0
 20
-20.16240005493164
 30
0.0
 11
-83.0
 21
-20.95690192241878
 31
0.0
  0
LINE
  5
257
330
33
100
AcDbEntity
  8
$TD_AUDIT_GENERATED_(27)
100
AcDbLine
 10
-69.00000000000004
 20
-26.00000303062617
 30
0.0
 11
-60.49297287464086
 21
-26.00000303062617
 31
0.0
  0
LINE
  5
258
330
33
100
AcDbEntity
  8
$TD_AUDIT_GENERATED_(27)
100
AcDbLine
 10
-69.00000000000004
 20
-21.03184088662763
 30
0.0
 11
-69.00000000000004
 21
-26.00000303062617
 31
0.0
  0
LINE
  5
259
330
33
100
AcDbEntity
  8
$TD_AUDIT_GENERATED_(27)
100
AcDbLine
 10
-41.00000000000004
 20
2.245237818271054
 30
0.0
 11
-41.00000000000004
 21
5.459673211512182
 31
0.0
  0
LINE
  5
25A
330
33
100
AcDbEntity
  8
$TD_AUDIT_GENERATED_(27)
100
AcDbLine
 10
-41.00000000000004
 20
0.0000000000000697
 30
0.0
 11
-41.00000000000004
 21
2.245237818271054
 31
0.0
  0
LINE
  5
25B
330
33
100
AcDbEntity
  8
$TD_AUDIT_GENERATED_(27)
100
AcDbLine
 10
-41.00000000000004
 20
-5.480184640735919
 30
0.0
 11
-41.00000000000004
 21
0.0000000000000697
 31
0.0
  0
LINE
  5
25C
330
33
100
AcDbEntity
  8
$TD_AUDIT_GENERATED_(27)
100
AcDbLine
 10
-49.00000000000004
 20
0.0000000000000697
 30
0.0
 11
-49.00000000000004
 21
-0.0000060612534547
 31
0.0
  0
LINE
  5
25D
330
33
100
AcDbEntity
  8
$TD_AUDIT_GENERATED_(27)
100
AcDbLine
 10
-49.00000000000004
 20
0.2599315320229484
 30
0.0
 11
-49.00000000000004
 21
0.8075047396911887
 31
0.0
  0
LINE
  5
25E
330
33
100
AcDbEntity
  8
$TD_AUDIT_GENERATED_(27)
100
AcDbLine
 10
-83.0
 20
-17.15116577148438
 30
0.0
 11
-83.0
 21
-14.07706881121048
 31
0.0
  0
LINE
  5
25F
330
33
100
AcDbEntity
  8
$TD_AUDIT_GENERATED_(27)
100
AcDbLine
 10
-83.0
 20
-14.07706881121048
 30
0.0
 11
-83.0
 21
-17.15116577148438
 31
0.0
  0
LINE
  5
260
330
33
100
AcDbEntity
  8
$TD_AUDIT_GENERATED_(27)
100
AcDbLine
 10
-41.00000000000004
 20
-7.72542485937361
 30
0.0
 11
-41.00000000000004
 21
-5.480184640735919
 31
0.0
  0
LINE
  5
261
330
33
100
AcDbEntity
  8
$TD_AUDIT_GENERATED_(27)
100
AcDbLine
 10
-41.00000000000004
 20
-9.240119729249528
 30
0.0
 11
-41.00000000000004
 21
-7.72542485937361
 31
0.0
  0
LINE
  5
262
330
33
100
AcDbEntity
  8
$TD_AUDIT_GENERATED_(27)
100
AcDbLine
 10
-49.00000000000004
 20
-7.72542485937361
 30
0.0
 11
-49.00000000000004
 21
-11.6222919375829
 31
0.0
  0
LINE
  5
263
330
33
100
AcDbEntity
  8
$TD_AUDIT_GENERATED_(27)
100
AcDbLine
 10
-50.5158133329281
 20
-0.0000060612534535
 30
0.0
 11
-49.00000000000004
 21
-0.0000060612534535
 31
0.0
  0
LINE
  5
264
330
33
100
AcDbEntity
  8
$TD_AUDIT_GENERATED_(27)
100
AcDbLine
 10
-49.00000000000004
 20
-0.0000060612534547
 30
0.0
 11
-49.00000000000004
 21
0.2599315320229484
 31
0.0
  0
LINE
  5
265
330
33
100
AcDbEntity
  8
$TD_AUDIT_GENERATED_(27)
100
AcDbLine
 10
-49.00000000000004
 20
-11.6222919375829
 30
0.0
 11
-49.00000000000004
 21
-0.0000060612534547
 31
0.0
  0
LINE
  5
266
330
33
100
AcDbEntity
  8
$TD_AUDIT_GENERATED_(27)
100
AcDbLine
 10
-49.00000000000004
 20
-0.0000060612534547
 30
0.0
 11
-50.5158133329281
 21
-0.0000060612534547
 31
0.0
  0
LINE
  5
267
330
33
100
AcDbEntity
  8
$TD_AUDIT_GENERATED_(27)
100
AcDbLine
 10
-69.00000000000004
 20
-8.45361415199957
 30
0.0
 11
-69.00000000000004
 21
-11.62229193758293
 31
0.0
  0
LINE
  5
268
330
33
100
AcDbEntity
  8
$TD_AUDIT_GENERATED_(27)
100
AcDbLine
 10
-83.0
 20
-19.45690758795766
 30
0.0
 11
-83.0
 21
-17.15116577148438
 31
0.0
  0
LINE
  5
269
330
33
100
AcDbEntity
  8
$TD_AUDIT_GENERATED_(27)
100
AcDbLine
 10
-83.0
 20
-17.15116577148438
 30
0.0
 11
-83.0
 21
-19.45690758795766
 31
0.0
  0
LINE
  5
26A
330
33
100
AcDbEntity
  8
$TD_AUDIT_GENERATED_(27)
100
AcDbLine
 10
-49.00000000000004
 20
-16.34185588465716
 30
0.0
 11
-49.00000000000004
 21
-11.6222919375829
 31
0.0
  0
LINE
  5
26B
330
33
100
AcDbEntity
  8
$TD_AUDIT_GENERATED_(27)
100
AcDbLine
 10
-69.00000000000004
 20
-11.62229193758293
 30
0.0
 11
-69.00000000000004
 21
-21.03184088662763
 31
0.0
  0
LINE
  5
26C
330
33
100
AcDbEntity
  8
$TD_AUDIT_GENERATED_(27)
100
AcDbLine
 10
-5.552669756658799
 20
18.60739105939865
 30
0.0
 11
0.6405276004688343
 21
21.87430042028427
 31
0.0
  0
LINE
  5
26D
330
33
100
AcDbEntity
  8
$TD_AUDIT_GENERATED_(27)
100
AcDbLine
 10
-1.031391810223292
 20
24.72747004032135
 30
0.0
 11
-8.032397518280616
 21
21.0344420671463
 31
0.0
  0
LINE
  5
26E
330
33
100
AcDbEntity
  8
$TD_AUDIT_GENERATED_(27)
100
AcDbLine
 10
-8.032397518280616
 20
21.0344420671463
 30
0.0
 11
-1.031391810223292
 21
24.72747004032135
 31
0.0
  0
LINE
  5
26F
330
33
100
AcDbEntity
  8
$TD_AUDIT_GENERATED_(27)
100
AcDbLine
 10
-8.41712587121041
 20
21.0344420671463
 30
0.0
 11
-8.0
 21
21.58704573547064
 31
0.0
  0
LINE
  5
270
330
33
100
AcDbEntity
  8
$TD_AUDIT_GENERATED_(27)
100
AcDbLine
 10
-28.29374812295266
 20
21.9
 30
0.0
 11
-26.0
 21
23.10995109960156
 31
0.0
  0
LINE
  5
271
330
33
100
AcDbEntity
  8
$TD_AUDIT_GENERATED_(27)
100
AcDbLine
 10
-28.29429229496169
 20
21.9
 30
0.0
 11
-26.49118372314688
 21
22.85112252305197
 31
0.0
  0
LINE
  5
272
330
33
100
AcDbEntity
  8
$TD_AUDIT_GENERATED_(27)
100
AcDbLine
 10
-26.0
 20
23.11021723833653
 30
0.0
 11
-26.49118372314687
 21
22.85112252305197
 31
0.0
  0
LINE
  5
273
330
33
100
AcDbEntity
  8
$TD_AUDIT_GENERATED_(27)
100
AcDbLine
 10
-38.8265378381854
 20
22.64671911486626
 30
0.0
 11
-39.58093265245942
 21
21.9
 31
0.0
  0
LINE
  5
274
330
33
100
AcDbEntity
  8
$TD_AUDIT_GENERATED_(27)
100
AcDbLine
 10
-37.76919993530439
 20
21.9
 30
0.0
 11
-37.01480512103038
 21
22.64671911486626
 31
0.0
  0
LINE
  5
275
330
33
100
AcDbEntity
  8
$TD_AUDIT_GENERATED_(27)
100
AcDbLine
 10
-37.01480512103038
 20
22.64671911486626
 30
0.0
 11
-37.76919993530439
 21
21.9
 31
0.0
  0
LINE
  5
276
330
33
100
AcDbEntity
  8
$TD_AUDIT_GENERATED_(27)
100
AcDbLine
 10
-36.86187793236319
 20
22.6717948231382
 30
0.0
 11
-37.70437731847286
 21
21.9
 31
0.0
  0
LINE
  5
277
330
33
100
AcDbEntity
  8
$TD_AUDIT_GENERATED_(27)
100
AcDbLine
 10
-31.03119473785845
 20
22.36049265782649
 30
0.0
 11
-29.07361868725291
 21
23.65181143740691
 31
0.0
  0
LINE
  5
278
330
33
100
AcDbEntity
  8
$TD_AUDIT_GENERATED_(27)
100
AcDbLine
 10
-36.66957246605369
 20
21.9
 30
0.0
 11
-35.8271118663902
 21
22.67175543086909
 31
0.0
  0
LINE
  5
279
330
33
100
AcDbEntity
  8
$TD_AUDIT_GENERATED_(27)
100
AcDbLine
 10
-31.5338759048912
 20
21.9
 30
0.0
 11
-31.03119473785845
 21
22.36049265782649
 31
0.0
  0
LINE
  5
27A
330
33
100
AcDbEntity
  8
$TD_AUDIT_GENERATED_(27)
100
AcDbLine
 10
-35.8271118663902
 20
22.67175543086909
 30
0.0
 11
-36.66957246605369
 21
21.9
 31
0.0
  0
LINE
  5
27B
330
33
100
AcDbEntity
  8
$TD_AUDIT_GENERATED_(27)
100
AcDbLine
 10
-31.03119473785845
 20
22.36049265782649
 30
0.0
 11
-31.5338759048912
 21
21.9
 31
0.0
  0
LINE
  5
27C
330
33
100
AcDbEntity
  8
$TD_AUDIT_GENERATED_(27)
100
AcDbLine
 10
-29.07361868725291
 20
23.65181143740691
 30
0.0
 11
-31.03119473785845
 21
22.36049265782649
 31
0.0
  0
LINE
  5
27D
330
33
100
AcDbEntity
  8
$TD_AUDIT_GENERATED_(27)
100
AcDbLine
 10
-26.0
 20
23.10995109960156
 30
0.0
 11
-28.29374812295266
 21
21.9
 31
0.0
  0
LINE
  5
27E
330
33
100
AcDbEntity
  8
$TD_AUDIT_GENERATED_(27)
100
AcDbLine
 10
-26.0
 20
21.9
 30
0.0
 11
-26.79957709128388
 21
21.9
 31
0.0
  0
LINE
  5
27F
330
33
100
AcDbEntity
  8
$TD_AUDIT_GENERATED_(27)
100
AcDbLine
 10
-8.0
 20
21.58704573547064
 30
0.0
 11
-8.0
 21
23.75127933505714
 31
0.0
  0
LINE
  5
280
330
33
100
AcDbEntity
  8
$TD_AUDIT_GENERATED_(27)
100
AcDbLine
 10
-26.0
 20
20.99750346000713
 30
0.0
 11
-26.0
 21
12.72809569478378
 31
0.0
  0
LINE
  5
281
330
33
100
AcDbEntity
  8
$TD_AUDIT_GENERATED_(27)
100
AcDbLine
 10
-101.0
 20
-20.20000152587891
 30
0.0
 11
-101.0
 21
-20.19403678260272
 31
0.0
  0
LINE
  5
282
330
33
100
AcDbEntity
  8
$TD_AUDIT_GENERATED_(27)
100
AcDbLine
 10
-101.0251533800062
 20
-20.17484814587271
 30
0.0
 11
-101.0
 21
-20.20000152587891
 31
0.0
  0
LINE
  5
283
330
33
100
AcDbEntity
  8
$TD_AUDIT_GENERATED_(27)
100
AcDbLine
 10
-101.0
 20
-20.19403678260272
 30
0.0
 11
-101.0
 21
-20.20000152587891
 31
0.0
  0
LINE
  5
284
330
33
100
AcDbEntity
  8
$TD_AUDIT_GENERATED_(27)
100
AcDbLine
 10
-101.0
 20
-20.20000152587891
 30
0.0
 11
-99.7451190479588
 21
-20.26971713432564
 31
0.0
  0
LINE
  5
285
330
33
100
AcDbEntity
  8
$TD_AUDIT_GENERATED_(27)
100
AcDbLine
 10
-101.0
 20
-19.21134351491928
 30
0.0
 11
-101.0
 21
-19.19404122132034
 31
0.0
  0
LINE
  5
286
330
33
100
AcDbEntity
  8
$TD_AUDIT_GENERATED_(27)
100
AcDbLine
 10
-101.0
 20
-19.19404122132034
 30
0.0
 11
-101.0
 21
-19.21134351491928
 31
0.0
  0
LINE
  5
287
330
33
100
AcDbEntity
  8
$TD_AUDIT_GENERATED_(27)
100
AcDbLine
 10
-101.0
 20
-20.19403678260272
 30
0.0
 11
-101.0
 21
-19.21134351491928
 31
0.0
  0
LINE
  5
288
330
33
100
AcDbEntity
  8
$TD_AUDIT_GENERATED_(27)
100
AcDbLine
 10
-102.0
 20
-18.70000235779839
 30
0.0
 11
-102.0
 21
-19.20000152587891
 31
0.0
  0
LINE
  5
289
330
33
100
AcDbEntity
  8
$TD_AUDIT_GENERATED_(27)
100
AcDbLine
 10
-102.0
 20
-19.20000152587891
 30
0.0
 11
-101.0251533800062
 21
-20.17484814587271
 31
0.0
  0
LINE
  5
28A
330
33
100
AcDbEntity
  8
$TD_AUDIT_GENERATED_(27)
100
AcDbLine
 10
-101.0
 20
-19.21134351491928
 30
0.0
 11
-101.0
 21
-20.19403678260272
 31
0.0
  0
LINE
  5
28B
330
33
100
AcDbEntity
  8
$TD_AUDIT_GENERATED_(27)
100
AcDbLine
 10
-83.0
 20
12.46104259490967
 30
0.0
 11
-83.0
 21
12.60485496188249
 31
0.0
  0
LINE
  5
28C
330
33
100
AcDbEntity
  8
$TD_AUDIT_GENERATED_(27)
100
AcDbLine
 10
-83.0
 20
12.60485496188249
 30
0.0
 11
-83.0
 21
12.46104259490967
 31
0.0
  0
LINE
  5
28D
330
33
100
AcDbEntity
  8
$TD_AUDIT_GENERATED_(27)
100
AcDbLine
 10
-101.0
 20
6.242144834995269
 30
0.0
 11
-101.0
 21
9.835791403444514
 31
0.0
  0
LINE
  5
28E
330
33
100
AcDbEntity
  8
$TD_AUDIT_GENERATED_(27)
100
AcDbLine
 10
-102.0
 20
9.725950573257029
 30
0.0
 11
-102.0
 21
5.933127713203429
 31
0.0
  0
LINE
  5
28F
330
33
100
AcDbEntity
  8
$TD_AUDIT_GENERATED_(27)
100
AcDbLine
 10
-83.0
 20
6.551161956787109
 30
0.0
 11
-83.0
 21
12.46104259490967
 31
0.0
  0
LINE
  5
290
330
33
100
AcDbEntity
  8
$TD_AUDIT_GENERATED_(27)
100
AcDbLine
 10
-101.0
 20
9.835791403444514
 30
0.0
 11
-101.0
 21
6.242144834995269
 31
0.0
  0
LINE
  5
291
330
33
100
AcDbEntity
  8
$TD_AUDIT_GENERATED_(27)
100
AcDbLine
 10
-83.0
 20
12.46104259490967
 30
0.0
 11
-83.0
 21
6.551161956787109
 31
0.0
  0
LINE
  5
292
330
33
100
AcDbEntity
  8
$TD_AUDIT_GENERATED_(27)
100
AcDbLine
 10
-41.00000000000003
 20
16.30204931138187
 30
0.0
 11
-41.00000000000003
 21
19.0781050101434
 31
0.0
  0
LINE
  5
293
330
33
100
AcDbEntity
  8
$TD_AUDIT_GENERATED_(27)
100
AcDbLine
 10
-101.0
 20
-0.0000007748643363
 30
0.0
 11
-101.0
 21
6.242144834995269
 31
0.0
  0
LINE
  5
294
330
33
100
AcDbEntity
  8
$TD_AUDIT_GENERATED_(27)
100
AcDbLine
 10
-102.0
 20
5.933127713203429
 30
0.0
 11
-102.0
 21
-0.0000007867892151
 31
0.0
  0
LINE
  5
295
330
33
100
AcDbEntity
  8
$TD_AUDIT_GENERATED_(27)
100
AcDbLine
 10
-83.0
 20
-0.0000007629394538
 30
0.0
 11
-83.0
 21
6.551161956787109
 31
0.0
  0
LINE
  5
296
330
33
100
AcDbEntity
  8
$TD_AUDIT_GENERATED_(27)
100
AcDbLine
 10
-101.0
 20
6.242144834995269
 30
0.0
 11
-101.0
 21
-0.0000007748643363
 31
0.0
  0
LINE
  5
297
330
33
100
AcDbEntity
  8
$TD_AUDIT_GENERATED_(27)
100
AcDbLine
 10
-83.0
 20
6.551161956787109
 30
0.0
 11
-83.0
 21
-0.0000007629394538
 31
0.0
  0
LINE
  5
298
330
33
100
AcDbEntity
  8
$TD_AUDIT_GENERATED_(27)
100
AcDbLine
 10
-41.00000000000004
 20
14.69463130731187
 30
0.0
 11
-41.00000000000004
 21
16.30204931138187
 31
0.0
  0
LINE
  5
299
330
33
100
AcDbEntity
  8
$TD_AUDIT_GENERATED_(27)
100
AcDbLine
 10
-41.00000000000004
 20
9.750882572438961
 30
0.0
 11
-41.00000000000004
 21
14.69463130731187
 31
0.0
  0
LINE
  5
29A
330
33
100
AcDbEntity
  8
$TD_AUDIT_GENERATED_(27)
100
AcDbLine
 10
-49.00000000000004
 20
14.69463130731187
 30
0.0
 11
-49.00000000000004
 21
11.99102155495824
 31
0.0
  0
LINE
  5
29B
330
33
100
AcDbEntity
  8
$TD_AUDIT_GENERATED_(27)
100
AcDbLine
 10
-49.00000000000002
 20
11.99102155495824
 30
0.0
 11
-49.00000000000002
 21
17.69162695355182
 31
0.0
  0
LINE
  5
29C
330
33
100
AcDbEntity
  8
$TD_AUDIT_GENERATED_(27)
100
AcDbLine
 10
-69.00000000000001
 20
14.55770473906625
 30
0.0
 11
-69.00000000000001
 21
11.99102155495822
 31
0.0
  0
LINE
  5
29D
330
33
100
AcDbEntity
  8
$TD_AUDIT_GENERATED_(27)
100
AcDbLine
 10
-101.0
 20
-6.242146390676499
 30
0.0
 11
-101.0
 21
-0.0000007748643363
 31
0.0
  0
LINE
  5
29E
330
33
100
AcDbEntity
  8
$TD_AUDIT_GENERATED_(27)
100
AcDbLine
 10
-102.0
 20
-0.0000007867892151
 30
0.0
 11
-102.0
 21
-5.933129298686982
 31
0.0
  0
LINE
  5
29F
330
33
100
AcDbEntity
  8
$TD_AUDIT_GENERATED_(27)
100
AcDbLine
 10
-83.0
 20
-6.551163482666016
 30
0.0
 11
-83.0
 21
-0.0000007629394538
 31
0.0
  0
LINE
  5
2A0
330
33
100
AcDbEntity
  8
$TD_AUDIT_GENERATED_(27)
100
AcDbLine
 10
-101.0
 20
-0.0000007748643363
 30
0.0
 11
-101.0
 21
-6.242146390676499
 31
0.0
  0
LINE
  5
2A1
330
33
100
AcDbEntity
  8
$TD_AUDIT_GENERATED_(27)
100
AcDbLine
 10
-83.0
 20
-0.0000007629394538
 30
0.0
 11
-83.0
 21
-6.551163482666016
 31
0.0
  0
LINE
  5
2A2
330
33
100
AcDbEntity
  8
$TD_AUDIT_GENERATED_(27)
100
AcDbLine
 10
-41.00000000000004
 20
7.725424859373751
 30
0.0
 11
-41.00000000000004
 21
9.750882572438961
 31
0.0
  0
LINE
  5
2A3
330
33
100
AcDbEntity
  8
$TD_AUDIT_GENERATED_(27)
100
AcDbLine
 10
-41.00000000000004
 20
5.459673211512182
 30
0.0
 11
-41.00000000000004
 21
7.725424859373751
 31
0.0
  0
LINE
  5
2A4
330
33
100
AcDbEntity
  8
$TD_AUDIT_GENERATED_(27)
100
AcDbLine
 10
-49.00000000000004
 20
7.725424859373751
 30
0.0
 11
-49.00000000000004
 21
6.000527826915858
 31
0.0
  0
LINE
  5
2A5
330
33
100
AcDbEntity
  8
$TD_AUDIT_GENERATED_(27)
100
AcDbLine
 10
-49.00000000000004
 20
6.000527826915858
 30
0.0
 11
-49.00000000000004
 21
11.99102155495824
 31
0.0
  0
LINE
  5
2A6
330
33
100
AcDbEntity
  8
$TD_AUDIT_GENERATED_(27)
100
AcDbLine
 10
-69.00000000000001
 20
11.99102155495822
 30
0.0
 11
-69.00000000000001
 21
6.000527826915841
 31
0.0
  0
LINE
  5
2A7
330
33
100
AcDbEntity
  8
$TD_AUDIT_GENERATED_(27)
100
AcDbLine
 10
-101.0
 20
-11.87326728105545
 30
0.0
 11
-101.0
 21
-6.242146390676499
 31
0.0
  0
LINE
  5
2A8
330
33
100
AcDbEntity
  8
$TD_AUDIT_GENERATED_(27)
100
AcDbLine
 10
-102.0
 20
-5.933129298686982
 30
0.0
 11
-102.0
 21
-11.28548185825348
 31
0.0
  0
LINE
  5
2A9
330
33
100
AcDbEntity
  8
$TD_AUDIT_GENERATED_(27)
100
AcDbLine
 10
-83.0
 20
-12.46105270385742
 30
0.0
 11
-83.0
 21
-6.551163482666016
 31
0.0
  0
LINE
  5
2AA
330
33
100
AcDbEntity
  8
$TD_AUDIT_GENERATED_(27)
100
AcDbLine
 10
-101.0
 20
-6.242146390676499
 30
0.0
 11
-101.0
 21
-11.87326728105545
 31
0.0
  0
LINE
  5
2AB
330
33
100
AcDbEntity
  8
$TD_AUDIT_GENERATED_(27)
100
AcDbLine
 10
-83.0
 20
-6.551163482666016
 30
0.0
 11
-83.0
 21
-12.46105270385742
 31
0.0
  0
LINE
  5
2AC
330
33
100
AcDbEntity
  8
$TD_AUDIT_GENERATED_(27)
100
AcDbLine
 10
-49.00000000000004
 20
0.8075047396911887
 30
0.0
 11
-49.00000000000004
 21
6.000527826915858
 31
0.0
  0
LINE
  5
2AD
330
33
100
AcDbEntity
  8
$TD_AUDIT_GENERATED_(27)
100
AcDbLine
 10
-69.00000000000003
 20
6.000527826915841
 30
0.0
 11
-69.00000000000003
 21
0.2599315320229358
 31
0.0
  0
LINE
  5
2AE
330
33
100
AcDbEntity
  8
$TD_AUDIT_GENERATED_(27)
100
AcDbLine
 10
-101.0
 20
-16.34214870929718
 30
0.0
 11
-101.0
 21
-11.87326728105545
 31
0.0
  0
LINE
  5
2AF
330
33
100
AcDbEntity
  8
$TD_AUDIT_GENERATED_(27)
100
AcDbLine
 10
-102.0
 20
-11.28548185825348
 30
0.0
 11
-102.0
 21
-15.53313164710999
 31
0.0
  0
LINE
  5
2B0
330
33
100
AcDbEntity
  8
$TD_AUDIT_GENERATED_(27)
100
AcDbLine
 10
-83.0
 20
-14.07706881121048
 30
0.0
 11
-83.0
 21
-12.46105270385742
 31
0.0
  0
LINE
  5
2B1
330
33
100
AcDbEntity
  8
$TD_AUDIT_GENERATED_(27)
100
AcDbLine
 10
-101.0
 20
-11.87326728105545
 30
0.0
 11
-101.0
 21
-16.34214870929718
 31
0.0
  0
LINE
  5
2B2
330
33
100
AcDbEntity
  8
$TD_AUDIT_GENERATED_(27)
100
AcDbLine
 10
-83.0
 20
-12.46105270385742
 30
0.0
 11
-83.0
 21
-14.07706881121048
 31
0.0
  0
LINE
  5
2B3
330
33
100
AcDbEntity
  8
$TD_AUDIT_GENERATED_(27)
100
AcDbLine
 10
-69.00000000000004
 20
-0.0000060612534387
 30
0.0
 11
-50.5158133329281
 21
-0.0000060612534387
 31
0.0
  0
LINE
  5
2B4
330
33
100
AcDbEntity
  8
$TD_AUDIT_GENERATED_(27)
100
AcDbLine
 10
-69.00000000000004
 20
0.2599315320229358
 30
0.0
 11
-69.00000000000004
 21
-0.0000060612534387
 31
0.0
  0
LINE
  5
2B5
330
33
100
AcDbEntity
  8
$TD_AUDIT_GENERATED_(27)
100
AcDbLine
 10
-50.5158133329281
 20
-0.0000060612534535
 30
0.0
 11
-69.00000000000004
 21
-0.0000060612534535
 31
0.0
  0
LINE
  5
2B6
330
33
100
AcDbEntity
  8
$TD_AUDIT_GENERATED_(27)
100
AcDbLine
 10
-69.00000000000004
 20
-0.0000060612534387
 30
0.0
 11
-69.00000000000004
 21
-8.45361415199957
 31
0.0
  0
LINE
  5
2B7
330
33
100
AcDbEntity
  8
$TD_AUDIT_GENERATED_(27)
100
AcDbLine
 10
-101.0
 20
-19.19404122132034
 30
0.0
 11
-101.0
 21
-16.34214870929718
 31
0.0
  0
LINE
  5
2B8
330
33
100
AcDbEntity
  8
$TD_AUDIT_GENERATED_(27)
100
AcDbLine
 10
-102.0
 20
-15.53313164710999
 30
0.0
 11
-102.0
 21
-18.26028697490692
 31
0.0
  0
LINE
  5
2B9
330
33
100
AcDbEntity
  8
$TD_AUDIT_GENERATED_(27)
100
AcDbLine
 10
-101.0
 20
-16.34214870929718
 30
0.0
 11
-101.0
 21
-19.19404122132034
 31
0.0
  0
LINE
  5
2BA
330
33
100
AcDbEntity
  8
$TD_AUDIT_GENERATED_(27)
100
AcDbLine
 10
-102.0
 20
-18.26028697490692
 30
0.0
 11
-102.0
 21
-18.70000235779839
 31
0.0
  0
LINE
  5
2BB
330
33
100
AcDbEntity
  8
$TD_AUDIT_GENERATED_(27)
100
AcDbLine
 10
7.505740345122905
 20
23.0
 30
0.0
 11
0.6405276004688343
 21
21.87430042028427
 31
0.0
  0
LINE
  5
2BC
330
33
100
AcDbEntity
  8
$TD_AUDIT_GENERATED_(27)
100
AcDbLine
 10
0.6405276004688343
 20
21.87430042028427
 30
0.0
 11
-5.552669756658799
 21
18.60739105939865
 31
0.0
  0
LINE
  5
2BD
330
33
100
AcDbEntity
  8
$TD_AUDIT_GENERATED_(27)
100
AcDbLine
 10
-5.552669756658799
 20
18.60739105939865
 30
0.0
 11
-10.46761966534402
 21
13.51906198263168
 31
0.0
  0
LINE
  5
2BE
330
33
100
AcDbEntity
  8
$TD_AUDIT_GENERATED_(27)
100
AcDbLine
 10
-10.46761966534402
 20
13.51906198263168
 30
0.0
 11
-13.62321186402054
 21
7.107390373945236
 31
0.0
  0
LINE
  5
2BF
330
33
100
AcDbEntity
  8
$TD_AUDIT_GENERATED_(27)
100
AcDbLine
 10
-13.62321186402054
 20
7.107390373945236
 30
0.0
 11
-14.71055418650279
 21
-0.0000010053619306
 31
0.0
  0
LINE
  5
2C0
330
33
100
AcDbEntity
  8
$TD_AUDIT_GENERATED_(27)
100
AcDbLine
 10
-14.71055418650279
 20
-0.0000010053619306
 30
0.0
 11
-13.62321186402054
 21
-7.107389688491821
 31
0.0
  0
LINE
  5
2C1
330
33
100
AcDbEntity
  8
$TD_AUDIT_GENERATED_(27)
100
AcDbLine
 10
-13.62321186402054
 20
-7.107389688491821
 30
0.0
 11
-10.46761966534402
 21
-13.51905924081802
 31
0.0
  0
LINE
  5
2C2
330
33
100
AcDbEntity
  8
$TD_AUDIT_GENERATED_(27)
100
AcDbLine
 10
-10.46761966534402
 20
-13.51905924081802
 30
0.0
 11
-5.552668432464456
 21
-18.60739243030548
 31
0.0
  0
LINE
  5
2C3
330
33
100
AcDbEntity
  8
$TD_AUDIT_GENERATED_(27)
100
AcDbLine
 10
-5.552668432464456
 20
-18.60739243030548
 30
0.0
 11
0.6405269383716625
 21
-21.87429904937744
 31
0.0
  0
LINE
  5
2C4
330
33
100
AcDbEntity
  8
$TD_AUDIT_GENERATED_(27)
100
AcDbLine
 10
0.6405269383716625
 20
-21.87429904937744
 30
0.0
 11
7.505742287333058
 21
-23.0
 31
0.0
  0
LINE
  5
2C5
330
33
100
AcDbEntity
  8
$TD_AUDIT_GENERATED_(27)
100
AcDbLine
 10
7.505742287333058
 20
-23.0
 30
0.0
 11
14.3709524276798
 21
-21.87430042028427
 31
0.0
  0
LINE
  5
2C6
330
33
100
AcDbEntity
  8
$TD_AUDIT_GENERATED_(27)
100
AcDbLine
 10
14.3709524276798
 20
-21.87430042028427
 30
0.0
 11
20.56414779851592
 21
-18.60739243030548
 31
0.0
  0
LINE
  5
2C7
330
33
100
AcDbEntity
  8
$TD_AUDIT_GENERATED_(27)
100
AcDbLine
 10
20.56414779851592
 20
-18.60739243030548
 30
0.0
 11
25.47909638300679
 21
-13.51906472444534
 31
0.0
  0
LINE
  5
2C8
330
33
100
AcDbEntity
  8
$TD_AUDIT_GENERATED_(27)
100
AcDbLine
 10
25.47909638300679
 20
-13.51906472444534
 30
0.0
 11
26.68650881057926
 21
-11.06579288283316
 31
0.0
  0
LINE
  5
2C9
330
33
100
AcDbEntity
  8
$TD_AUDIT_GENERATED_(27)
100
AcDbLine
 10
26.68651231209378
 20
11.06578925779866
 30
0.0
 11
25.47910300397851
 21
13.51905649900436
 31
0.0
  0
LINE
  5
2CA
330
33
100
AcDbEntity
  8
$TD_AUDIT_GENERATED_(27)
100
AcDbLine
 10
25.47910300397851
 20
13.51905649900436
 30
0.0
 11
20.56415177109896
 21
18.60738968849182
 31
0.0
  0
LINE
  5
2CB
330
33
100
AcDbEntity
  8
$TD_AUDIT_GENERATED_(27)
100
AcDbLine
 10
20.56415177109896
 20
18.60738968849182
 30
0.0
 11
14.37095176558263
 21
21.87430042028427
 31
0.0
  0
LINE
  5
2CC
330
33
100
AcDbEntity
  8
$TD_AUDIT_GENERATED_(27)
100
AcDbLine
 10
14.37095176558263
 20
21.87430042028427
 30
0.0
 11
7.505740345122905
 21
23.0
 31
0.0
  0
LINE
  5
2CD
330
33
100
AcDbEntity
  8
$TD_AUDIT_GENERATED_(27)
100
AcDbLine
 10
38.99999999999996
 20
14.0985794459318
 30
0.0
 11
38.99999999999996
 21
12.89388911934015
 31
0.0
  0
LINE
  5
2CE
330
33
100
AcDbEntity
  8
$TD_AUDIT_GENERATED_(27)
100
AcDbLine
 10
38.99999999999997
 20
-13.79952901512855
 30
0.0
 11
38.99999999999997
 21
-12.8938886304782
 31
0.0
  0
LINE
  5
2CF
330
33
100
AcDbEntity
  8
$TD_AUDIT_GENERATED_(27)
100
AcDbLine
 10
38.99999999999998
 20
-12.8938886304782
 30
0.0
 11
38.99999999999998
 21
-14.09858140285929
 31
0.0
  0
LINE
  5
2D0
330
33
100
AcDbEntity
  8
$TD_AUDIT_GENERATED_(27)
100
AcDbLine
 10
38.99999999999996
 20
-7.416407864998865
 30
0.0
 11
38.99999999999996
 21
-7.219640457476402
 31
0.0
  0
LINE
  5
2D1
330
33
100
AcDbEntity
  8
$TD_AUDIT_GENERATED_(27)
100
AcDbLine
 10
38.99999999999997
 20
-12.2186153534871
 30
0.0
 11
38.99999999999997
 21
-8.789595331000841
 31
0.0
  0
LINE
  5
2D2
330
33
100
AcDbEntity
  8
$TD_AUDIT_GENERATED_(27)
100
AcDbLine
 10
38.99999999999997
 20
-8.789595331000841
 30
0.0
 11
38.99999999999997
 21
-12.8938886304782
 31
0.0
  0
LINE
  5
2D3
330
33
100
AcDbEntity
  8
$TD_AUDIT_GENERATED_(27)
100
AcDbLine
 10
60.33458356155084
 20
-23.99999720249796
 30
0.0
 11
63.0
 21
-23.99999720249796
 31
0.0
  0
LINE
  5
2D4
330
33
100
AcDbEntity
  8
$TD_AUDIT_GENERATED_(27)
100
AcDbLine
 10
63.0
 20
-23.99999720249795
 30
0.0
 11
63.0
 21
-19.4173189214906
 31
0.0
  0
LINE
  5
2D5
330
33
100
AcDbEntity
  8
$TD_AUDIT_GENERATED_(27)
100
AcDbLine
 10
38.99999999999997
 20
-7.219640457476402
 30
0.0
 11
38.99999999999997
 21
-8.789595331000841
 31
0.0
  0
LINE
  5
2D6
330
33
100
AcDbEntity
  8
$TD_AUDIT_GENERATED_(27)
100
AcDbLine
 10
62.99999999999999
 20
-19.4173189214906
 30
0.0
 11
62.99999999999999
 21
-15.04130553114913
 31
0.0
  0
LINE
  5
2D7
330
33
100
AcDbEntity
  8
$TD_AUDIT_GENERATED_(27)
100
AcDbLine
 10
38.99999999999996
 20
-5.077991125472072
 30
0.0
 11
38.99999999999996
 21
-4.799240303017838
 31
0.0
  0
LINE
  5
2D8
330
33
100
AcDbEntity
  8
$TD_AUDIT_GENERATED_(27)
100
AcDbLine
 10
38.99999999999996
 20
0.0
 30
0.0
 11
38.99999999999996
 21
0.0000055950030546
 31
0.0
  0
LINE
  5
2D9
330
33
100
AcDbEntity
  8
$TD_AUDIT_GENERATED_(27)
100
AcDbLine
 10
38.99999999999996
 20
-4.799240303017838
 30
0.0
 11
38.99999999999996
 21
-7.219640457476402
 31
0.0
  0
LINE
  5
2DA
330
33
100
AcDbEntity
  8
$TD_AUDIT_GENERATED_(27)
100
AcDbLine
 10
62.99999999999999
 20
-15.04130553114913
 30
0.0
 11
62.99999999999999
 21
-12.62090537669065
 31
0.0
  0
LINE
  5
2DB
330
33
100
AcDbEntity
  8
$TD_AUDIT_GENERATED_(27)
100
AcDbLine
 10
38.99999999999996
 20
12.89388911934015
 30
0.0
 11
38.99999999999996
 21
8.571189994338223
 31
0.0
  0
LINE
  5
2DC
330
33
100
AcDbEntity
  8
$TD_AUDIT_GENERATED_(27)
100
AcDbLine
 10
62.99999999999996
 20
24.00000279750112
 30
0.0
 11
60.3346197282327
 21
24.00000279750112
 31
0.0
  0
LINE
  5
2DD
330
33
100
AcDbEntity
  8
$TD_AUDIT_GENERATED_(27)
100
AcDbLine
 10
62.99999999999996
 20
22.54024577535908
 30
0.0
 11
62.99999999999996
 21
24.00000279750112
 31
0.0
  0
LINE
  5
2DE
330
33
100
AcDbEntity
  8
$TD_AUDIT_GENERATED_(27)
100
AcDbLine
 10
0.6405276004688343
 20
21.87430042028427
 30
0.0
 11
7.505740345122905
 21
23.0
 31
0.0
  0
LINE
  5
2DF
330
33
100
AcDbEntity
  8
$TD_AUDIT_GENERATED_(27)
100
AcDbLine
 10
54.98622539202722
 20
0.0000055950030677
 30
0.0
 11
38.99999999999996
 21
0.0000055950030677
 31
0.0
  0
LINE
  5
2E0
330
33
100
AcDbEntity
  8
$TD_AUDIT_GENERATED_(27)
100
AcDbLine
 10
38.99999999999996
 20
0.0000055950030546
 30
0.0
 11
38.99999999999996
 21
-4.799240303017838
 31
0.0
  0
LINE
  5
2E1
330
33
100
AcDbEntity
  8
$TD_AUDIT_GENERATED_(27)
100
AcDbLine
 10
62.99999999999999
 20
-12.62090537669065
 30
0.0
 11
62.99999999999999
 21
-3.719200561010737
 31
0.0
  0
LINE
  5
2E2
330
33
100
AcDbEntity
  8
$TD_AUDIT_GENERATED_(27)
100
AcDbLine
 10
38.99999999999996
 20
8.571189994338223
 30
0.0
 11
38.99999999999996
 21
0.0000055950030546
 31
0.0
  0
LINE
  5
2E3
330
33
100
AcDbEntity
  8
$TD_AUDIT_GENERATED_(27)
100
AcDbLine
 10
38.99999999999996
 20
0.0000055950030546
 30
0.0
 11
54.98622539202722
 21
0.0000055950030546
 31
0.0
  0
LINE
  5
2E4
330
33
100
AcDbEntity
  8
$TD_AUDIT_GENERATED_(27)
100
AcDbLine
 10
62.99999999999996
 20
3.71920828285682
 30
0.0
 11
62.99999999999996
 21
18.95070011203828
 31
0.0
  0
LINE
  5
2E5
330
33
100
AcDbEntity
  8
$TD_AUDIT_GENERATED_(27)
100
AcDbLine
 10
62.99999999999996
 20
0.0000055950030742
 30
0.0
 11
54.98622539202722
 21
0.0000055950030742
 31
0.0
  0
LINE
  5
2E6
330
33
100
AcDbEntity
  8
$TD_AUDIT_GENERATED_(27)
100
AcDbLine
 10
62.99999999999997
 20
-3.719200561010737
 30
0.0
 11
62.99999999999997
 21
0.0000055950030742
 31
0.0
  0
LINE
  5
2E7
330
33
100
AcDbEntity
  8
$TD_AUDIT_GENERATED_(27)
100
AcDbLine
 10
54.98622539202722
 20
0.0000055950030677
 30
0.0
 11
62.99999999999996
 21
0.0000055950030677
 31
0.0
  0
LINE
  5
2E8
330
33
100
AcDbEntity
  8
$TD_AUDIT_GENERATED_(27)
100
AcDbLine
 10
62.99999999999996
 20
0.0000055950030742
 30
0.0
 11
62.99999999999996
 21
3.71920828285682
 31
0.0
  0
LINE
  5
2E9
330
33
100
AcDbEntity
  8
$TD_AUDIT_GENERATED_(27)
100
AcDbLine
 10
-4.843259117217908
 20
-6.627416997969462
 30
0.0
 11
-4.291914257443779
 21
-6.627416997969462
 31
0.0
  0
LINE
  5
2EA
330
33
100
AcDbEntity
  8
$TD_AUDIT_GENERATED_(27)
100
AcDbLine
 10
-4.843259117217895
 20
-2.446598036143185
 30
0.0
 11
-4.843259117217895
 21
-6.627416997969462
 31
0.0
  0
LINE
  5
2EB
330
33
100
AcDbEntity
  8
$TD_AUDIT_GENERATED_(27)
100
AcDbLine
 10
4.209961078226303
 20
-15.99999999999997
 30
0.0
 11
6.193078211634573
 21
-15.99999999999997
 31
0.0
  0
LINE
  5
2EC
330
33
100
AcDbEntity
  8
$TD_AUDIT_GENERATED_(27)
100
AcDbLine
 10
-4.291914257443779
 20
-6.627416997969462
 30
0.0
 11
-4.843259117217908
 21
-6.627416997969462
 31
0.0
  0
LINE
  5
2ED
330
33
100
AcDbEntity
  8
$TD_AUDIT_GENERATED_(27)
100
AcDbLine
 10
-4.843259117217908
 20
-6.627416997969462
 30
0.0
 11
4.209961078226303
 21
-15.99999999999997
 31
0.0
  0
LINE
  5
2EE
330
33
100
AcDbEntity
  8
$TD_AUDIT_GENERATED_(27)
100
AcDbLine
 10
62.99999999999996
 20
18.95070011203828
 30
0.0
 11
62.99999999999996
 21
22.54024577535908
 31
0.0
  0
LINE
  5
2EF
330
33
100
AcDbEntity
  8
$TD_AUDIT_GENERATED_(27)
100
AcDbLine
 10
-4.875949407892458
 20
-0.000000697242825
 30
0.0
 11
-4.843259117217888
 21
-0.213680048432117
 31
0.0
  0
LINE
  5
2F0
330
33
100
AcDbEntity
  8
$TD_AUDIT_GENERATED_(27)
100
AcDbLine
 10
-4.843259117217887
 20
0.2136787350054172
 30
0.0
 11
-4.875949407892458
 21
-0.000000697242825
 31
0.0
  0
LINE
  5
2F1
330
33
100
AcDbEntity
  8
$TD_AUDIT_GENERATED_(27)
100
AcDbLine
 10
-4.843259117217867
 20
6.627416997969566
 30
0.0
 11
-4.059338472877356
 21
6.627416997969566
 31
0.0
  0
LINE
  5
2F2
330
33
100
AcDbEntity
  8
$TD_AUDIT_GENERATED_(27)
100
AcDbLine
 10
-3.880988229257141
 20
7.623633103746817
 30
0.0
 11
-4.843259117217867
 21
6.627416997969566
 31
0.0
  0
LINE
  5
2F3
330
33
100
AcDbEntity
  8
$TD_AUDIT_GENERATED_(27)
100
AcDbLine
 10
-4.291914257443779
 20
-6.627416997969462
 30
0.0
 11
-1.219793682907872
 21
-6.627416997969462
 31
0.0
  0
LINE
  5
2F4
330
33
100
AcDbEntity
  8
$TD_AUDIT_GENERATED_(27)
100
AcDbLine
 10
-1.219793682907872
 20
-6.627416997969462
 30
0.0
 11
-1.219793682907872
 21
-4.343745216840696
 31
0.0
  0
LINE
  5
2F5
330
33
100
AcDbEntity
  8
$TD_AUDIT_GENERATED_(27)
100
AcDbLine
 10
-4.059338472877357
 20
6.627416997969566
 30
0.0
 11
-4.843259117217867
 21
6.627416997969566
 31
0.0
  0
LINE
  5
2F6
330
33
100
AcDbEntity
  8
$TD_AUDIT_GENERATED_(27)
100
AcDbLine
 10
-4.843259117217867
 20
6.627416997969566
 30
0.0
 11
-4.843259117217867
 21
-2.446598036143185
 31
0.0
  0
LINE
  5
2F7
330
33
100
AcDbEntity
  8
$TD_AUDIT_GENERATED_(27)
100
AcDbLine
 10
6.193078211634573
 20
-15.99999999999997
 30
0.0
 11
7.833426512536338
 21
-15.99999999999997
 31
0.0
  0
LINE
  5
2F8
330
33
100
AcDbEntity
  8
$TD_AUDIT_GENERATED_(27)
100
AcDbLine
 10
7.833426512536338
 20
-15.99999999999997
 30
0.0
 11
-1.219793682907872
 21
-6.627416997969462
 31
0.0
  0
LINE
  5
2F9
330
33
100
AcDbEntity
  8
$TD_AUDIT_GENERATED_(27)
100
AcDbLine
 10
-1.219793682907872
 20
-6.627416997969462
 30
0.0
 11
-4.291914257443779
 21
-6.627416997969462
 31
0.0
  0
LINE
  5
2FA
330
33
100
AcDbEntity
  8
$TD_AUDIT_GENERATED_(27)
100
AcDbLine
 10
-1.219793682907865
 20
-4.343745216840696
 30
0.0
 11
-1.219793682907865
 21
-6.627416997969462
 31
0.0
  0
LINE
  5
2FB
330
33
100
AcDbEntity
  8
$TD_AUDIT_GENERATED_(27)
100
AcDbLine
 10
-1.219793682907872
 20
-6.627416997969462
 30
0.0
 11
7.833426512536338
 21
-15.99999999999997
 31
0.0
  0
LINE
  5
2FC
330
33
100
AcDbEntity
  8
$TD_AUDIT_GENERATED_(27)
100
AcDbLine
 10
7.833426512536338
 20
-15.99999999999997
 30
0.0
 11
14.23501209999993
 21
-15.99999999999997
 31
0.0
  0
LINE
  5
2FD
330
33
100
AcDbEntity
  8
$TD_AUDIT_GENERATED_(27)
100
AcDbLine
 10
15.78792585756137
 20
-16.0
 30
0.0
 11
20.63661329608359
 21
-16.0
 31
0.0
  0
LINE
  5
2FE
330
33
100
AcDbEntity
  8
$TD_AUDIT_GENERATED_(27)
100
AcDbLine
 10
20.63661329608359
 20
-16.00000000000004
 30
0.0
 11
22.25453699658655
 21
-14.32500217087985
 31
0.0
  0
LINE
  5
2FF
330
33
100
AcDbEntity
  8
$TD_AUDIT_GENERATED_(27)
100
AcDbLine
 10
29.62481574427635
 20
-6.694728321406403
 30
0.0
 11
29.68983349152788
 21
-6.627416997969616
 31
0.0
  0
LINE
  5
300
330
33
100
AcDbEntity
  8
$TD_AUDIT_GENERATED_(27)
100
AcDbLine
 10
29.68983349152788
 20
-6.627416997969616
 30
0.0
 11
29.68983349152788
 21
-6.562622410889909
 31
0.0
  0
LINE
  5
301
330
33
100
AcDbEntity
  8
$TD_AUDIT_GENERATED_(27)
100
AcDbLine
 10
15.78792585756139
 20
-13.0
 30
0.0
 11
19.66826339278096
 21
-12.36373471183702
 31
0.0
  0
LINE
  5
302
330
33
100
AcDbEntity
  8
$TD_AUDIT_GENERATED_(27)
100
AcDbLine
 10
19.66826339278096
 20
-12.36373471183702
 30
0.0
 11
23.1687664541519
 21
-10.51722092687435
 31
0.0
  0
LINE
  5
303
330
33
100
AcDbEntity
  8
$TD_AUDIT_GENERATED_(27)
100
AcDbLine
 10
23.1687664541519
 20
-10.51722092687435
 30
0.0
 11
25.94678141258824
 21
-7.64120827980221
 31
0.0
  0
LINE
  5
304
330
33
100
AcDbEntity
  8
$TD_AUDIT_GENERATED_(27)
100
AcDbLine
 10
25.94678141258824
 20
-7.64120827980221
 30
0.0
 11
26.74842873336546
 21
-6.012386093535388
 31
0.0
  0
LINE
  5
305
330
33
100
AcDbEntity
  8
$TD_AUDIT_GENERATED_(27)
100
AcDbLine
 10
15.6585163777646
 20
-12.97878051607455
 30
0.0
 11
19.40944443318739
 21
-12.36373471183702
 31
0.0
  0
LINE
  5
306
330
33
100
AcDbEntity
  8
$TD_AUDIT_GENERATED_(27)
100
AcDbLine
 10
19.40944443318739
 20
-12.36373471183702
 30
0.0
 11
22.90994749455833
 21
-10.51722092687435
 31
0.0
  0
LINE
  5
307
330
33
100
AcDbEntity
  8
$TD_AUDIT_GENERATED_(27)
100
AcDbLine
 10
22.90994749455833
 20
-10.51722092687435
 30
0.0
 11
25.68796245299467
 21
-7.64120827980221
 31
0.0
  0
LINE
  5
308
330
33
100
AcDbEntity
  8
$TD_AUDIT_GENERATED_(27)
100
AcDbLine
 10
25.68796245299467
 20
-7.64120827980221
 30
0.0
 11
27.02497827581294
 21
-4.924600890052812
 31
0.0
  0
LINE
  5
309
330
33
100
AcDbEntity
  8
$TD_AUDIT_GENERATED_(27)
100
AcDbLine
 10
-0.5715244570300115
 20
-4.237447506620691
 30
0.0
 11
-0.4633890702504608
 21
-4.94427190999911
 31
0.0
  0
LINE
  5
30A
330
33
100
AcDbEntity
  8
$TD_AUDIT_GENERATED_(27)
100
AcDbLine
 10
-0.4633890702504608
 20
-4.94427190999911
 30
0.0
 11
1.731805263043857
 21
-9.404564036679522
 31
0.0
  0
LINE
  5
30B
330
33
100
AcDbEntity
  8
$TD_AUDIT_GENERATED_(27)
100
AcDbLine
 10
6.703814354065393
 20
-12.94427190999912
 30
0.0
 11
3.66429274957302
 21
-9.797527667668025
 31
0.0
  0
LINE
  5
30C
330
33
100
AcDbEntity
  8
$TD_AUDIT_GENERATED_(27)
100
AcDbLine
 10
1.731805263043857
 20
-9.404564036679522
 30
0.0
 11
5.15090059650395
 21
-12.94427190999912
 31
0.0
  0
LINE
  5
30D
330
33
100
AcDbEntity
  8
$TD_AUDIT_GENERATED_(27)
100
AcDbLine
 10
11.01212581421422
 20
-15.21690426072244
 30
0.0
 11
6.703814354065393
 21
-12.94427190999912
 31
0.0
  0
LINE
  5
30E
330
33
100
AcDbEntity
  8
$TD_AUDIT_GENERATED_(27)
100
AcDbLine
 10
5.15090059650395
 20
-12.94427190999912
 30
0.0
 11
9.459212056652778
 21
-15.21690426072244
 31
0.0
  0
LINE
  5
30F
330
33
100
AcDbEntity
  8
$TD_AUDIT_GENERATED_(27)
100
AcDbLine
 10
14.23501209999993
 20
-16.0
 30
0.0
 11
15.78792585756137
 21
-16.0
 31
0.0
  0
LINE
  5
310
330
33
100
AcDbEntity
  8
$TD_AUDIT_GENERATED_(27)
100
AcDbLine
 10
15.78792585756137
 20
-16.0
 30
0.0
 11
11.01212581421422
 21
-15.21690426072244
 31
0.0
  0
LINE
  5
311
330
33
100
AcDbEntity
  8
$TD_AUDIT_GENERATED_(27)
100
AcDbLine
 10
9.459212056652778
 20
-15.21690426072244
 30
0.0
 11
14.23501209999993
 21
-16.0
 31
0.0
  0
LINE
  5
312
330
33
100
AcDbEntity
  8
$TD_AUDIT_GENERATED_(27)
100
AcDbLine
 10
26.74842873336546
 20
-6.012386093535388
 30
0.0
 11
25.94678141258824
 21
-7.64120827980221
 31
0.0
  0
LINE
  5
313
330
33
100
AcDbEntity
  8
$TD_AUDIT_GENERATED_(27)
100
AcDbLine
 10
28.2911326945175
 20
-9.404564036679643
 30
0.0
 11
30.24262449973847
 21
-5.439437395228337
 31
0.0
  0
LINE
  5
314
330
33
100
AcDbEntity
  8
$TD_AUDIT_GENERATED_(27)
100
AcDbLine
 10
25.94678141258824
 20
-7.64120827980221
 30
0.0
 11
23.1687664541519
 21
-10.51722092687435
 31
0.0
  0
LINE
  5
315
330
33
100
AcDbEntity
  8
$TD_AUDIT_GENERATED_(27)
100
AcDbLine
 10
24.87203736105739
 20
-12.9442719099992
 30
0.0
 11
28.2911326945175
 21
-9.404564036679643
 31
0.0
  0
LINE
  5
316
330
33
100
AcDbEntity
  8
$TD_AUDIT_GENERATED_(27)
100
AcDbLine
 10
23.1687664541519
 20
-10.51722092687435
 30
0.0
 11
19.66826339278096
 21
-12.36373471183702
 31
0.0
  0
LINE
  5
317
330
33
100
AcDbEntity
  8
$TD_AUDIT_GENERATED_(27)
100
AcDbLine
 10
20.56372590090854
 20
-15.21690426072248
 30
0.0
 11
24.87203736105739
 21
-12.9442719099992
 31
0.0
  0
LINE
  5
318
330
33
100
AcDbEntity
  8
$TD_AUDIT_GENERATED_(27)
100
AcDbLine
 10
19.66826339278096
 20
-12.36373471183702
 30
0.0
 11
15.78792585756139
 21
-13.0
 31
0.0
  0
LINE
  5
319
330
33
100
AcDbEntity
  8
$TD_AUDIT_GENERATED_(27)
100
AcDbLine
 10
15.78792585756137
 20
-16.0
 30
0.0
 11
20.56372590090854
 21
-15.21690426072248
 31
0.0
  0
LINE
  5
31A
330
33
100
AcDbEntity
  8
$TD_AUDIT_GENERATED_(27)
100
AcDbLine
 10
15.78792585756139
 20
-13.0
 30
0.0
 11
11.90758832234182
 21
-12.36373471183698
 31
0.0
  0
LINE
  5
31B
330
33
100
AcDbEntity
  8
$TD_AUDIT_GENERATED_(27)
100
AcDbLine
 10
11.01212581421422
 20
-15.21690426072244
 30
0.0
 11
15.78792585756137
 21
-16.0
 31
0.0
  0
LINE
  5
31C
330
33
100
AcDbEntity
  8
$TD_AUDIT_GENERATED_(27)
100
AcDbLine
 10
11.90758832234182
 20
-12.36373471183698
 30
0.0
 11
8.407085260970902
 21
-10.51722092687429
 31
0.0
  0
LINE
  5
31D
330
33
100
AcDbEntity
  8
$TD_AUDIT_GENERATED_(27)
100
AcDbLine
 10
6.703814354065393
 20
-12.94427190999912
 30
0.0
 11
11.01212581421422
 21
-15.21690426072244
 31
0.0
  0
LINE
  5
31E
330
33
100
AcDbEntity
  8
$TD_AUDIT_GENERATED_(27)
100
AcDbLine
 10
8.407085260970902
 20
-10.51722092687429
 30
0.0
 11
7.15848891693629
 21
-9.224578903609986
 31
0.0
  0
LINE
  5
31F
330
33
100
AcDbEntity
  8
$TD_AUDIT_GENERATED_(27)
100
AcDbLine
 10
3.66429274957302
 20
-9.797527667668025
 30
0.0
 11
6.703814354065393
 21
-12.94427190999912
 31
0.0
  0
LINE
  5
320
330
33
100
AcDbEntity
  8
$TD_AUDIT_GENERATED_(27)
100
AcDbLine
 10
-1.367049112907079
 20
10.22625432817024
 30
0.0
 11
-3.880988229257141
 21
7.623633103746817
 31
0.0
  0
LINE
  5
321
330
33
100
AcDbEntity
  8
$TD_AUDIT_GENERATED_(27)
100
AcDbLine
 10
-4.059338472877356
 20
6.627416997969566
 30
0.0
 11
-1.219793682907834
 21
6.627416997969566
 31
0.0
  0
LINE
  5
322
330
33
100
AcDbEntity
  8
$TD_AUDIT_GENERATED_(27)
100
AcDbLine
 10
-1.219793682907834
 20
6.627416997969566
 30
0.0
 11
1.520601144421884
 21
9.464482420326972
 31
0.0
  0
LINE
  5
323
330
33
100
AcDbEntity
  8
$TD_AUDIT_GENERATED_(27)
100
AcDbLine
 10
5.039442019939067
 20
16.00000000000001
 30
0.0
 11
4.2099610782264
 21
16.00000000000001
 31
0.0
  0
LINE
  5
324
330
33
100
AcDbEntity
  8
$TD_AUDIT_GENERATED_(27)
100
AcDbLine
 10
4.2099610782264
 20
16.00000000000001
 30
0.0
 11
-1.367049112907079
 21
10.22625432817024
 31
0.0
  0
LINE
  5
325
330
33
100
AcDbEntity
  8
$TD_AUDIT_GENERATED_(27)
100
AcDbLine
 10
-1.219793682907865
 20
-4.343745216840696
 30
0.0
 11
-1.219793682907865
 21
-0.0000510126882585
 31
0.0
  0
LINE
  5
326
330
33
100
AcDbEntity
  8
$TD_AUDIT_GENERATED_(27)
100
AcDbLine
 10
-1.219793682907853
 20
0.0000510126883473
 30
0.0
 11
-1.219793682907853
 21
6.627416997969566
 31
0.0
  0
LINE
  5
327
330
33
100
AcDbEntity
  8
$TD_AUDIT_GENERATED_(27)
100
AcDbLine
 10
-1.219793682907834
 20
6.627416997969566
 30
0.0
 11
-4.059338472877357
 21
6.627416997969566
 31
0.0
  0
LINE
  5
328
330
33
100
AcDbEntity
  8
$TD_AUDIT_GENERATED_(27)
100
AcDbLine
 10
29.68983349152792
 20
6.627416997969514
 30
0.0
 11
29.6248157442764
 21
6.694728321406295
 31
0.0
  0
LINE
  5
329
330
33
100
AcDbEntity
  8
$TD_AUDIT_GENERATED_(27)
100
AcDbLine
 10
1.520601144421883
 20
9.46448242032697
 30
0.0
 11
-1.219793682907834
 21
6.627416997969566
 31
0.0
  0
LINE
  5
32A
330
33
100
AcDbEntity
  8
$TD_AUDIT_GENERATED_(27)
100
AcDbLine
 10
-1.219793682907834
 20
6.627416997969566
 30
0.0
 11
-1.219793682907834
 21
0.0000510126883455
 31
0.0
  0
LINE
  5
32B
330
33
100
AcDbEntity
  8
$TD_AUDIT_GENERATED_(27)
100
AcDbLine
 10
-1.219793682907853
 20
-0.000051012688258
 30
0.0
 11
-1.219793682907853
 21
-4.343745216840696
 31
0.0
  0
LINE
  5
32C
330
33
100
AcDbEntity
  8
$TD_AUDIT_GENERATED_(27)
100
AcDbLine
 10
29.68983349152792
 20
6.562622410889814
 30
0.0
 11
29.68983349152792
 21
6.627416997969514
 31
0.0
  0
LINE
  5
32D
330
33
100
AcDbEntity
  8
$TD_AUDIT_GENERATED_(27)
100
AcDbLine
 10
28.34496189717597
 20
0.0
 30
0.0
 11
27.73037680838993
 21
4.017220926874313
 31
0.0
  0
LINE
  5
32E
330
33
100
AcDbEntity
  8
$TD_AUDIT_GENERATED_(27)
100
AcDbLine
 10
27.73037680838993
 20
4.017220926874313
 30
0.0
 11
25.94678141258829
 21
7.641208279802144
 31
0.0
  0
LINE
  5
32F
330
33
100
AcDbEntity
  8
$TD_AUDIT_GENERATED_(27)
100
AcDbLine
 10
25.94678141258829
 20
7.641208279802144
 30
0.0
 11
23.84822711944181
 21
9.813791501259692
 31
0.0
  0
LINE
  5
330
330
33
100
AcDbEntity
  8
$TD_AUDIT_GENERATED_(27)
100
AcDbLine
 10
26.74842873336546
 20
-6.012386093535388
 30
0.0
 11
27.73037680838991
 21
-4.017220926874385
 31
0.0
  0
LINE
  5
331
330
33
100
AcDbEntity
  8
$TD_AUDIT_GENERATED_(27)
100
AcDbLine
 10
27.73037680838991
 20
-4.017220926874385
 30
0.0
 11
28.34496189717597
 21
0.0
 31
0.0
  0
LINE
  5
332
330
33
100
AcDbEntity
  8
$TD_AUDIT_GENERATED_(27)
100
AcDbLine
 10
28.0861429375824
 20
0.0
 30
0.0
 11
27.47155784879636
 21
4.017220926874313
 31
0.0
  0
LINE
  5
333
330
33
100
AcDbEntity
  8
$TD_AUDIT_GENERATED_(27)
100
AcDbLine
 10
27.47155784879636
 20
4.017220926874313
 30
0.0
 11
25.68796245299471
 21
7.641208279802144
 31
0.0
  0
LINE
  5
334
330
33
100
AcDbEntity
  8
$TD_AUDIT_GENERATED_(27)
100
AcDbLine
 10
25.68796245299471
 20
7.641208279802144
 30
0.0
 11
23.16453726228078
 21
10.25365021082715
 31
0.0
  0
LINE
  5
335
330
33
100
AcDbEntity
  8
$TD_AUDIT_GENERATED_(27)
100
AcDbLine
 10
27.02497827581294
 20
-4.924600890052812
 30
0.0
 11
27.47155784879634
 21
-4.017220926874385
 31
0.0
  0
LINE
  5
336
330
33
100
AcDbEntity
  8
$TD_AUDIT_GENERATED_(27)
100
AcDbLine
 10
27.47155784879634
 20
-4.017220926874385
 30
0.0
 11
28.0861429375824
 21
0.0
 31
0.0
  0
LINE
  5
337
330
33
100
AcDbEntity
  8
$TD_AUDIT_GENERATED_(27)
100
AcDbLine
 10
1.840320528454988
 20
9.516907303505748
 30
0.0
 11
1.731805263043912
 21
9.404564036679599
 31
0.0
  0
LINE
  5
338
330
33
100
AcDbEntity
  8
$TD_AUDIT_GENERATED_(27)
100
AcDbLine
 10
1.089524687311012
 20
4.944271909999201
 30
0.0
 11
1.698634772539637
 21
6.181888496476867
 31
0.0
  0
LINE
  5
339
330
33
100
AcDbEntity
  8
$TD_AUDIT_GENERATED_(27)
100
AcDbLine
 10
1.731805263043912
 20
9.404564036679599
 30
0.0
 11
-0.4633890702504324
 21
4.944271909999201
 31
0.0
  0
LINE
  5
33A
330
33
100
AcDbEntity
  8
$TD_AUDIT_GENERATED_(27)
100
AcDbLine
 10
0.3331122703435607
 20
0.0000000000000446
 30
0.0
 11
1.089524687311012
 21
4.944271909999201
 31
0.0
  0
LINE
  5
33B
330
33
100
AcDbEntity
  8
$TD_AUDIT_GENERATED_(27)
100
AcDbLine
 10
-0.4633890702504324
 20
4.944271909999201
 30
0.0
 11
-1.219801487217882
 21
0.0000000000000446
 31
0.0
  0
LINE
  5
33C
330
33
100
AcDbEntity
  8
$TD_AUDIT_GENERATED_(27)
100
AcDbLine
 10
1.089524687310984
 20
-4.94427190999911
 30
0.0
 11
0.3331122703435607
 21
0.0000000000000446
 31
0.0
  0
LINE
  5
33D
330
33
100
AcDbEntity
  8
$TD_AUDIT_GENERATED_(27)
100
AcDbLine
 10
-1.219801487217882
 20
0.0000000000000446
 30
0.0
 11
-0.5715244570300115
 21
-4.237447506620691
 31
0.0
  0
LINE
  5
33E
330
33
100
AcDbEntity
  8
$TD_AUDIT_GENERATED_(27)
100
AcDbLine
 10
3.2847190206053
 20
-9.404564036679522
 30
0.0
 11
1.089524687310984
 21
-4.94427190999911
 31
0.0
  0
LINE
  5
33F
330
33
100
AcDbEntity
  8
$TD_AUDIT_GENERATED_(27)
100
AcDbLine
 10
3.66429274957302
 20
-9.797527667668025
 30
0.0
 11
3.2847190206053
 21
-9.404564036679522
 31
0.0
  0
LINE
  5
340
330
33
100
AcDbEntity
  8
$TD_AUDIT_GENERATED_(27)
100
AcDbLine
 10
28.34496189717597
 20
0.0
 30
0.0
 11
27.73037680838991
 21
-4.017220926874385
 31
0.0
  0
LINE
  5
341
330
33
100
AcDbEntity
  8
$TD_AUDIT_GENERATED_(27)
100
AcDbLine
 10
30.48632702781186
 20
-4.944271909999244
 30
0.0
 11
31.24273944477932
 21
0.0
 31
0.0
  0
LINE
  5
342
330
33
100
AcDbEntity
  8
$TD_AUDIT_GENERATED_(27)
100
AcDbLine
 10
27.73037680838991
 20
-4.017220926874385
 30
0.0
 11
26.74842873336546
 21
-6.012386093535388
 31
0.0
  0
LINE
  5
343
330
33
100
AcDbEntity
  8
$TD_AUDIT_GENERATED_(27)
100
AcDbLine
 10
30.24262449973847
 20
-5.439437395228337
 30
0.0
 11
30.48632702781186
 21
-4.944271909999244
 31
0.0
  0
LINE
  5
344
330
33
100
AcDbEntity
  8
$TD_AUDIT_GENERATED_(27)
100
AcDbLine
 10
7.15848891693629
 20
-9.224578903609986
 30
0.0
 11
5.629070302534577
 21
-7.641208279802112
 31
0.0
  0
LINE
  5
345
330
33
100
AcDbEntity
  8
$TD_AUDIT_GENERATED_(27)
100
AcDbLine
 10
3.2847190206053
 20
-9.404564036679522
 30
0.0
 11
3.66429274957302
 21
-9.797527667668025
 31
0.0
  0
LINE
  5
346
330
33
100
AcDbEntity
  8
$TD_AUDIT_GENERATED_(27)
100
AcDbLine
 10
5.629070302534577
 20
-7.641208279802112
 30
0.0
 11
3.845474906732944
 21
-4.017220926874277
 31
0.0
  0
LINE
  5
347
330
33
100
AcDbEntity
  8
$TD_AUDIT_GENERATED_(27)
100
AcDbLine
 10
1.089524687310984
 20
-4.94427190999911
 30
0.0
 11
3.2847190206053
 21
-9.404564036679522
 31
0.0
  0
LINE
  5
348
330
33
100
AcDbEntity
  8
$TD_AUDIT_GENERATED_(27)
100
AcDbLine
 10
3.845474906732944
 20
-4.017220926874277
 30
0.0
 11
3.230889817946915
 21
0.0000000000000362
 31
0.0
  0
LINE
  5
349
330
33
100
AcDbEntity
  8
$TD_AUDIT_GENERATED_(27)
100
AcDbLine
 10
0.3331122703435607
 20
0.0000000000000446
 30
0.0
 11
1.089524687310984
 21
-4.94427190999911
 31
0.0
  0
LINE
  5
34A
330
33
100
AcDbEntity
  8
$TD_AUDIT_GENERATED_(27)
100
AcDbLine
 10
3.230889817946915
 20
0.0000000000000362
 30
0.0
 11
3.845474906732969
 21
4.017220926874351
 31
0.0
  0
LINE
  5
34B
330
33
100
AcDbEntity
  8
$TD_AUDIT_GENERATED_(27)
100
AcDbLine
 10
1.089524687311012
 20
4.944271909999201
 30
0.0
 11
0.3331122703435607
 21
0.0000000000000446
 31
0.0
  0
LINE
  5
34C
330
33
100
AcDbEntity
  8
$TD_AUDIT_GENERATED_(27)
100
AcDbLine
 10
3.845474906732969
 20
4.017220926874351
 30
0.0
 11
5.192830538912646
 21
6.754837194783926
 31
0.0
  0
LINE
  5
34D
330
33
100
AcDbEntity
  8
$TD_AUDIT_GENERATED_(27)
100
AcDbLine
 10
1.698634772539636
 20
6.181888496476866
 30
0.0
 11
1.089524687311012
 21
4.944271909999201
 31
0.0
  0
LINE
  5
34E
330
33
100
AcDbEntity
  8
$TD_AUDIT_GENERATED_(27)
100
AcDbLine
 10
23.84822711944181
 20
9.813791501259692
 30
0.0
 11
25.94678141258829
 21
7.641208279802144
 31
0.0
  0
LINE
  5
34F
330
33
100
AcDbEntity
  8
$TD_AUDIT_GENERATED_(27)
100
AcDbLine
 10
28.29113269451756
 20
9.404564036679561
 30
0.0
 11
27.34242328680507
 21
10.38674026531774
 31
0.0
  0
LINE
  5
350
330
33
100
AcDbEntity
  8
$TD_AUDIT_GENERATED_(27)
100
AcDbLine
 10
25.94678141258829
 20
7.641208279802144
 30
0.0
 11
27.73037680838993
 21
4.017220926874313
 31
0.0
  0
LINE
  5
351
330
33
100
AcDbEntity
  8
$TD_AUDIT_GENERATED_(27)
100
AcDbLine
 10
30.48632702781189
 20
4.944271909999155
 30
0.0
 11
28.29113269451756
 21
9.404564036679561
 31
0.0
  0
LINE
  5
352
330
33
100
AcDbEntity
  8
$TD_AUDIT_GENERATED_(27)
100
AcDbLine
 10
27.73037680838993
 20
4.017220926874313
 30
0.0
 11
28.34496189717597
 21
0.0
 31
0.0
  0
LINE
  5
353
330
33
100
AcDbEntity
  8
$TD_AUDIT_GENERATED_(27)
100
AcDbLine
 10
31.24273944477932
 20
0.0
 30
0.0
 11
30.48632702781189
 21
4.944271909999155
 31
0.0
  0
LINE
  5
354
330
33
100
AcDbEntity
  8
$TD_AUDIT_GENERATED_(27)
100
AcDbLine
 10
5.595619991994563
 20
16.00000000000001
 30
0.0
 11
5.039442019939067
 21
16.00000000000001
 31
0.0
  0
LINE
  5
355
330
33
100
AcDbEntity
  8
$TD_AUDIT_GENERATED_(27)
100
AcDbLine
 10
22.25453699658661
 20
14.32500217087982
 30
0.0
 11
20.63661329608368
 21
15.99999999999999
 31
0.0
  0
LINE
  5
356
330
33
100
AcDbEntity
  8
$TD_AUDIT_GENERATED_(27)
100
AcDbLine
 10
20.63661329608368
 20
15.99999999999999
 30
0.0
 11
17.10883255259274
 21
15.99999999999999
 31
0.0
  0
LINE
  5
357
330
33
100
AcDbEntity
  8
$TD_AUDIT_GENERATED_(27)
100
AcDbLine
 10
27.34242328680507
 20
10.38674026531774
 30
0.0
 11
25.09836427262239
 21
12.70996105502812
 31
0.0
  0
LINE
  5
358
330
33
100
AcDbEntity
  8
$TD_AUDIT_GENERATED_(27)
100
AcDbLine
 10
1.520601144421884
 20
9.464482420326972
 30
0.0
 11
7.833426512536435
 21
16.00000000000001
 31
0.0
  0
LINE
  5
359
330
33
100
AcDbEntity
  8
$TD_AUDIT_GENERATED_(27)
100
AcDbLine
 10
7.833426512536435
 20
16.00000000000001
 30
0.0
 11
5.595619991994563
 21
16.00000000000001
 31
0.0
  0
LINE
  5
35A
330
33
100
AcDbEntity
  8
$TD_AUDIT_GENERATED_(27)
100
AcDbLine
 10
17.10883255259274
 20
16.0
 30
0.0
 11
15.78792585756146
 21
16.0
 31
0.0
  0
LINE
  5
35B
330
33
100
AcDbEntity
  8
$TD_AUDIT_GENERATED_(27)
100
AcDbLine
 10
14.23501210000002
 20
16.0
 30
0.0
 11
7.833426512536435
 21
16.0
 31
0.0
  0
LINE
  5
35C
330
33
100
AcDbEntity
  8
$TD_AUDIT_GENERATED_(27)
100
AcDbLine
 10
7.833426512536435
 20
16.00000000000001
 30
0.0
 11
1.520601144421883
 21
9.46448242032697
 31
0.0
  0
LINE
  5
35D
330
33
100
AcDbEntity
  8
$TD_AUDIT_GENERATED_(27)
100
AcDbLine
 10
23.84822711944181
 20
9.813791501259692
 30
0.0
 11
23.16876645415196
 21
10.51722092687431
 31
0.0
  0
LINE
  5
35E
330
33
100
AcDbEntity
  8
$TD_AUDIT_GENERATED_(27)
100
AcDbLine
 10
23.16876645415196
 20
10.51722092687431
 30
0.0
 11
19.66826339278103
 21
12.36373471183699
 31
0.0
  0
LINE
  5
35F
330
33
100
AcDbEntity
  8
$TD_AUDIT_GENERATED_(27)
100
AcDbLine
 10
19.66826339278103
 20
12.36373471183699
 30
0.0
 11
15.78792585756146
 21
13.0
 31
0.0
  0
LINE
  5
360
330
33
100
AcDbEntity
  8
$TD_AUDIT_GENERATED_(27)
100
AcDbLine
 10
23.16453726228078
 20
10.25365021082715
 30
0.0
 11
22.90994749455838
 21
10.51722092687431
 31
0.0
  0
LINE
  5
361
330
33
100
AcDbEntity
  8
$TD_AUDIT_GENERATED_(27)
100
AcDbLine
 10
22.90994749455838
 20
10.51722092687431
 30
0.0
 11
19.40944443318746
 21
12.36373471183699
 31
0.0
  0
LINE
  5
362
330
33
100
AcDbEntity
  8
$TD_AUDIT_GENERATED_(27)
100
AcDbLine
 10
19.40944443318746
 20
12.36373471183699
 30
0.0
 11
15.65851637776467
 21
12.97878051607455
 31
0.0
  0
LINE
  5
363
330
33
100
AcDbEntity
  8
$TD_AUDIT_GENERATED_(27)
100
AcDbLine
 10
11.0121258142143
 20
15.21690426072247
 30
0.0
 11
15.78792585756146
 21
16.0
 31
0.0
  0
LINE
  5
364
330
33
100
AcDbEntity
  8
$TD_AUDIT_GENERATED_(27)
100
AcDbLine
 10
15.78792585756146
 20
16.0
 30
0.0
 11
14.23501210000002
 21
16.0
 31
0.0
  0
LINE
  5
365
330
33
100
AcDbEntity
  8
$TD_AUDIT_GENERATED_(27)
100
AcDbLine
 10
14.23501210000002
 20
16.0
 30
0.0
 11
9.45921205665286
 21
15.21690426072247
 31
0.0
  0
LINE
  5
366
330
33
100
AcDbEntity
  8
$TD_AUDIT_GENERATED_(27)
100
AcDbLine
 10
6.703814354065463
 20
12.94427190999918
 30
0.0
 11
11.0121258142143
 21
15.21690426072247
 31
0.0
  0
LINE
  5
367
330
33
100
AcDbEntity
  8
$TD_AUDIT_GENERATED_(27)
100
AcDbLine
 10
9.45921205665286
 20
15.21690426072247
 30
0.0
 11
5.15090059650402
 21
12.94427190999918
 31
0.0
  0
LINE
  5
368
330
33
100
AcDbEntity
  8
$TD_AUDIT_GENERATED_(27)
100
AcDbLine
 10
3.284719020605355
 20
9.404564036679599
 30
0.0
 11
6.703814354065463
 21
12.94427190999918
 31
0.0
  0
LINE
  5
369
330
33
100
AcDbEntity
  8
$TD_AUDIT_GENERATED_(27)
100
AcDbLine
 10
5.15090059650402
 20
12.94427190999918
 30
0.0
 11
1.840320528454988
 21
9.516907303505748
 31
0.0
  0
LINE
  5
36A
330
33
100
AcDbEntity
  8
$TD_AUDIT_GENERATED_(27)
100
AcDbLine
 10
1.698634772539637
 20
6.181888496476867
 30
0.0
 11
3.284719020605355
 21
9.404564036679599
 31
0.0
  0
LINE
  5
36B
330
33
100
AcDbEntity
  8
$TD_AUDIT_GENERATED_(27)
100
AcDbLine
 10
5.192830538912646
 20
6.754837194783926
 30
0.0
 11
5.629070302534622
 21
7.641208279802174
 31
0.0
  0
LINE
  5
36C
330
33
100
AcDbEntity
  8
$TD_AUDIT_GENERATED_(27)
100
AcDbLine
 10
3.284719020605355
 20
9.404564036679599
 30
0.0
 11
1.698634772539636
 21
6.181888496476866
 31
0.0
  0
LINE
  5
36D
330
33
100
AcDbEntity
  8
$TD_AUDIT_GENERATED_(27)
100
AcDbLine
 10
5.629070302534622
 20
7.641208279802174
 30
0.0
 11
8.407085260970959
 21
10.51722092687433
 31
0.0
  0
LINE
  5
36E
330
33
100
AcDbEntity
  8
$TD_AUDIT_GENERATED_(27)
100
AcDbLine
 10
6.703814354065463
 20
12.94427190999918
 30
0.0
 11
3.284719020605355
 21
9.404564036679599
 31
0.0
  0
LINE
  5
36F
330
33
100
AcDbEntity
  8
$TD_AUDIT_GENERATED_(27)
100
AcDbLine
 10
8.407085260970959
 20
10.51722092687433
 30
0.0
 11
11.90758832234189
 21
12.363734711837
 31
0.0
  0
LINE
  5
370
330
33
100
AcDbEntity
  8
$TD_AUDIT_GENERATED_(27)
100
AcDbLine
 10
11.0121258142143
 20
15.21690426072247
 30
0.0
 11
6.703814354065463
 21
12.94427190999918
 31
0.0
  0
LINE
  5
371
330
33
100
AcDbEntity
  8
$TD_AUDIT_GENERATED_(27)
100
AcDbLine
 10
11.90758832234189
 20
12.363734711837
 30
0.0
 11
15.78792585756146
 21
13.0
 31
0.0
  0
LINE
  5
372
330
33
100
AcDbEntity
  8
$TD_AUDIT_GENERATED_(27)
100
AcDbLine
 10
15.78792585756146
 20
16.0
 30
0.0
 11
11.0121258142143
 21
15.21690426072247
 31
0.0
  0
LINE
  5
373
330
33
100
AcDbEntity
  8
$TD_AUDIT_GENERATED_(27)
100
AcDbLine
 10
15.78792585756146
 20
13.0
 30
0.0
 11
19.66826339278103
 21
12.36373471183699
 31
0.0
  0
LINE
  5
374
330
33
100
AcDbEntity
  8
$TD_AUDIT_GENERATED_(27)
100
AcDbLine
 10
20.56372590090863
 20
15.21690426072245
 30
0.0
 11
15.78792585756146
 21
16.0
 31
0.0
  0
LINE
  5
375
330
33
100
AcDbEntity
  8
$TD_AUDIT_GENERATED_(27)
100
AcDbLine
 10
19.66826339278103
 20
12.36373471183699
 30
0.0
 11
23.16876645415196
 21
10.51722092687431
 31
0.0
  0
LINE
  5
376
330
33
100
AcDbEntity
  8
$TD_AUDIT_GENERATED_(27)
100
AcDbLine
 10
24.87203736105746
 20
12.94427190999915
 30
0.0
 11
20.56372590090863
 21
15.21690426072245
 31
0.0
  0
LINE
  5
377
330
33
100
AcDbEntity
  8
$TD_AUDIT_GENERATED_(27)
100
AcDbLine
 10
23.16876645415196
 20
10.51722092687431
 30
0.0
 11
23.84822711944181
 21
9.813791501259692
 31
0.0
  0
LINE
  5
378
330
33
100
AcDbEntity
  8
$TD_AUDIT_GENERATED_(27)
100
AcDbLine
 10
25.09836427262239
 20
12.70996105502812
 30
0.0
 11
24.87203736105746
 21
12.94427190999915
 31
0.0
  0
LINE
  5
379
330
33
100
AcDbEntity
  8
$TD_AUDIT_GENERATED_(27)
100
AcDbLine
 10
6.729283466342179
 20
26.0
 30
0.0
 11
-1.031391810223292
 21
24.72747004032135
 31
0.0
  0
LINE
  5
37A
330
33
100
AcDbEntity
  8
$TD_AUDIT_GENERATED_(27)
100
AcDbLine
 10
-1.031391810223292
 20
24.72747004032135
 30
0.0
 11
6.729283466342179
 21
26.0
 31
0.0
  0
LINE
  5
37B
330
33
100
AcDbEntity
  8
$TD_AUDIT_GENERATED_(27)
100
AcDbLine
 10
6.729283466342179
 20
26.0
 30
0.0
 11
-8.0
 21
26.0
 31
0.0
  0
LINE
  5
37C
330
33
100
AcDbEntity
  8
$TD_AUDIT_GENERATED_(27)
100
AcDbLine
 10
-4.468779746552932
 20
27.98334136484954
 30
0.0
 11
-6.857532724574716
 21
29.24340748262074
 31
0.0
  0
LINE
  5
37D
330
33
100
AcDbEntity
  8
$TD_AUDIT_GENERATED_(27)
100
AcDbLine
 10
-6.106696158242516
 20
28.84734153956235
 30
0.0
 11
-4.468779737028976
 21
27.98334136662634
 31
0.0
  0
LINE
  5
37E
330
33
100
AcDbEntity
  8
$TD_AUDIT_GENERATED_(27)
100
AcDbLine
 10
-3.846598345800266
 20
28.0853614141709
 30
0.0
 11
-6.032309842966935
 21
29.05253495934206
 31
0.0
  0
LINE
  5
37F
330
33
100
AcDbEntity
  8
$TD_AUDIT_GENERATED_(27)
100
AcDbLine
 10
-6.032309842966935
 20
29.05253495934206
 30
0.0
 11
-6.857532724574716
 21
29.3301247642305
 31
0.0
  0
LINE
  5
380
330
33
100
AcDbEntity
  8
$TD_AUDIT_GENERATED_(27)
100
AcDbLine
 10
-18.7120373379342
 20
32.63572476748892
 30
0.0
 11
-18.72993601811762
 21
32.49999999999999
 31
0.0
  0
LINE
  5
381
330
33
100
AcDbEntity
  8
$TD_AUDIT_GENERATED_(27)
100
AcDbLine
 10
-18.65010835221662
 20
32.87500000887701
 30
0.0
 11
-18.7120373379342
 21
32.63572476748892
 31
0.0
  0
LINE
  5
382
330
33
100
AcDbEntity
  8
$TD_AUDIT_GENERATED_(27)
100
AcDbLine
 10
-18.16990959850331
 20
33.9565595291045
 30
0.0
 11
-18.31834111073467
 21
33.66434892040159
 31
0.0
  0
LINE
  5
383
330
33
100
AcDbEntity
  8
$TD_AUDIT_GENERATED_(27)
100
AcDbLine
 10
-18.31834111073467
 20
33.66434892040159
 30
0.0
 11
-18.65010835221662
 21
32.87500000887701
 31
0.0
  0
LINE
  5
384
330
33
100
AcDbEntity
  8
$TD_AUDIT_GENERATED_(27)
100
AcDbLine
 10
-18.57454214969355
 20
32.49999999999999
 30
0.0
 11
-18.48557074599228
 21
33.08155948031231
 31
0.0
  0
LINE
  5
385
330
33
100
AcDbEntity
  8
$TD_AUDIT_GENERATED_(27)
100
AcDbLine
 10
-18.48557074599228
 20
33.08155948031231
 30
0.0
 11
-18.00537198558415
 21
34.05724838302365
 31
0.0
  0
LINE
  5
386
330
33
100
AcDbEntity
  8
$TD_AUDIT_GENERATED_(27)
100
AcDbLine
 10
-17.25744689233446
 20
34.83155824971395
 30
0.0
 11
-17.48391147704916
 21
34.69297316218503
 31
0.0
  0
LINE
  5
387
330
33
100
AcDbEntity
  8
$TD_AUDIT_GENERATED_(27)
100
AcDbLine
 10
-17.48391147704916
 20
34.69297316218503
 30
0.0
 11
-18.16990959850331
 21
33.9565595291045
 31
0.0
  0
LINE
  5
388
330
33
100
AcDbEntity
  8
$TD_AUDIT_GENERATED_(27)
100
AcDbLine
 10
-18.00537198558415
 20
34.05724838302365
 30
0.0
 11
-17.25744488138975
 21
34.83155948031231
 31
0.0
  0
LINE
  5
389
330
33
100
AcDbEntity
  8
$TD_AUDIT_GENERATED_(27)
100
AcDbLine
 10
-15.27029549
 20
35.5
 30
0.0
 11
-16.31500174948219
 21
35.32869780703304
 31
0.0
  0
LINE
  5
38A
330
33
100
AcDbEntity
  8
$TD_AUDIT_GENERATED_(27)
100
AcDbLine
 10
-16.31500174948219
 20
35.32869780703304
 30
0.0
 11
-17.25744488138975
 21
34.83155948031231
 31
0.0
  0
LINE
  5
38B
330
33
100
AcDbEntity
  8
$TD_AUDIT_GENERATED_(27)
100
AcDbLine
 10
-17.25744488138975
 20
34.83155948031231
 30
0.0
 11
-18.00537198558415
 21
34.05724838302365
 31
0.0
  0
LINE
  5
38C
330
33
100
AcDbEntity
  8
$TD_AUDIT_GENERATED_(27)
100
AcDbLine
 10
-18.00537198558415
 20
34.05724838302365
 30
0.0
 11
-18.48557074599228
 21
33.08155948031231
 31
0.0
  0
LINE
  5
38D
330
33
100
AcDbEntity
  8
$TD_AUDIT_GENERATED_(27)
100
AcDbLine
 10
-18.48557074599228
 20
33.08155948031231
 30
0.0
 11
-18.57454214969355
 21
32.49999999999999
 31
0.0
  0
LINE
  5
38E
330
33
100
AcDbEntity
  8
$TD_AUDIT_GENERATED_(27)
100
AcDbLine
 10
-18.48557156827022
 20
33.08155948031231
 30
0.0
 11
-18.57454297197149
 21
32.49999999999999
 31
0.0
  0
LINE
  5
38F
330
33
100
AcDbEntity
  8
$TD_AUDIT_GENERATED_(27)
100
AcDbLine
 10
-13.65698273969355
 20
32.49999999999999
 30
0.0
 11
-13.56801133599228
 21
33.08155948031231
 31
0.0
  0
LINE
  5
390
330
33
100
AcDbEntity
  8
$TD_AUDIT_GENERATED_(27)
100
AcDbLine
 10
-18.00537280786208
 20
34.05724838302365
 30
0.0
 11
-18.48557156827022
 21
33.08155948031231
 31
0.0
  0
LINE
  5
391
330
33
100
AcDbEntity
  8
$TD_AUDIT_GENERATED_(27)
100
AcDbLine
 10
-13.56801133599228
 20
33.08155948031231
 30
0.0
 11
-13.08781257558415
 21
34.05724838302365
 31
0.0
  0
LINE
  5
392
330
33
100
AcDbEntity
  8
$TD_AUDIT_GENERATED_(27)
100
AcDbLine
 10
-17.25744570366768
 20
34.83155948031231
 30
0.0
 11
-18.00537280786208
 21
34.05724838302365
 31
0.0
  0
LINE
  5
393
330
33
100
AcDbEntity
  8
$TD_AUDIT_GENERATED_(27)
100
AcDbLine
 10
-13.08781257558415
 20
34.05724838302365
 30
0.0
 11
-12.33988547138975
 21
34.83155948031231
 31
0.0
  0
LINE
  5
394
330
33
100
AcDbEntity
  8
$TD_AUDIT_GENERATED_(27)
100
AcDbLine
 10
-16.31500257176013
 20
35.32869780703304
 30
0.0
 11
-17.25744570366768
 21
34.83155948031231
 31
0.0
  0
LINE
  5
395
330
33
100
AcDbEntity
  8
$TD_AUDIT_GENERATED_(27)
100
AcDbLine
 10
-12.33988547138975
 20
34.83155948031231
 30
0.0
 11
-11.39744233948219
 21
35.32869780703304
 31
0.0
  0
LINE
  5
396
330
33
100
AcDbEntity
  8
$TD_AUDIT_GENERATED_(27)
100
AcDbLine
 10
-10.35273608
 20
35.5
 30
0.0
 11
-15.27029631227793
 21
35.5
 31
0.0
  0
LINE
  5
397
330
33
100
AcDbEntity
  8
$TD_AUDIT_GENERATED_(27)
100
AcDbLine
 10
-15.27029631227793
 20
35.5
 30
0.0
 11
-16.31500257176013
 21
35.32869780703304
 31
0.0
  0
LINE
  5
398
330
33
100
AcDbEntity
  8
$TD_AUDIT_GENERATED_(27)
100
AcDbLine
 10
-11.39744233948219
 20
35.32869780703304
 30
0.0
 11
-10.35273608
 21
35.5
 31
0.0
  0
LINE
  5
399
330
33
100
AcDbEntity
  8
$TD_AUDIT_GENERATED_(27)
100
AcDbLine
 10
-9.308029820517808
 20
35.32869780703304
 30
0.0
 11
-10.35273608
 21
35.5
 31
0.0
  0
LINE
  5
39A
330
33
100
AcDbEntity
  8
$TD_AUDIT_GENERATED_(27)
100
AcDbLine
 10
-10.35273608
 20
35.5
 30
0.0
 11
-11.39744233948219
 21
35.32869780703304
 31
0.0
  0
LINE
  5
39B
330
33
100
AcDbEntity
  8
$TD_AUDIT_GENERATED_(27)
100
AcDbLine
 10
-8.36558668861025
 20
34.83155948031231
 30
0.0
 11
-9.308029820517808
 21
35.32869780703304
 31
0.0
  0
LINE
  5
39C
330
33
100
AcDbEntity
  8
$TD_AUDIT_GENERATED_(27)
100
AcDbLine
 10
-11.39744233948219
 20
35.32869780703304
 30
0.0
 11
-12.33988547138975
 21
34.83155948031231
 31
0.0
  0
LINE
  5
39D
330
33
100
AcDbEntity
  8
$TD_AUDIT_GENERATED_(27)
100
AcDbLine
 10
-12.33988547138975
 20
34.83155948031231
 30
0.0
 11
-13.08781257558415
 21
34.05724838302365
 31
0.0
  0
LINE
  5
39E
330
33
100
AcDbEntity
  8
$TD_AUDIT_GENERATED_(27)
100
AcDbLine
 10
-13.08781257558415
 20
34.05724838302365
 30
0.0
 11
-13.56801133599228
 21
33.08155948031231
 31
0.0
  0
LINE
  5
39F
330
33
100
AcDbEntity
  8
$TD_AUDIT_GENERATED_(27)
100
AcDbLine
 10
-13.56801133599228
 20
33.08155948031231
 30
0.0
 11
-13.65698273969355
 21
32.49999999999999
 31
0.0
  0
LINE
  5
3A0
330
33
100
AcDbEntity
  8
$TD_AUDIT_GENERATED_(27)
100
AcDbLine
 10
-13.56801134822833
 20
33.08155948031231
 30
0.0
 11
-13.65698274535022
 21
32.49999999999999
 31
0.0
  0
LINE
  5
3A1
330
33
100
AcDbEntity
  8
$TD_AUDIT_GENERATED_(27)
100
AcDbLine
 10
-13.08781259885849
 20
34.05724838302365
 30
0.0
 11
-13.56801134822833
 21
33.08155948031231
 31
0.0
  0
LINE
  5
3A2
330
33
100
AcDbEntity
  8
$TD_AUDIT_GENERATED_(27)
100
AcDbLine
 10
-12.33988550342413
 20
34.83155948031231
 30
0.0
 11
-13.08781259885849
 21
34.05724838302365
 31
0.0
  0
LINE
  5
3A3
330
33
100
AcDbEntity
  8
$TD_AUDIT_GENERATED_(27)
100
AcDbLine
 10
-11.39744237714087
 20
35.32869780703304
 30
0.0
 11
-12.33988550342413
 21
34.83155948031231
 31
0.0
  0
LINE
  5
3A4
330
33
100
AcDbEntity
  8
$TD_AUDIT_GENERATED_(27)
100
AcDbLine
 10
-10.35273611959668
 20
35.5
 30
0.0
 11
-11.39744237714087
 21
35.32869780703304
 31
0.0
  0
LINE
  5
3A5
330
33
100
AcDbEntity
  8
$TD_AUDIT_GENERATED_(27)
100
AcDbLine
 10
-9.308029858176484
 20
35.32869780703304
 30
0.0
 11
-10.35273611959668
 21
35.5
 31
0.0
  0
LINE
  5
3A6
330
33
100
AcDbEntity
  8
$TD_AUDIT_GENERATED_(27)
100
AcDbLine
 10
-8.139120114791806
 20
34.69297316218503
 30
0.0
 11
-8.365586720644634
 21
34.83155948031231
 31
0.0
  0
LINE
  5
3A7
330
33
100
AcDbEntity
  8
$TD_AUDIT_GENERATED_(27)
100
AcDbLine
 10
-8.365586720644634
 20
34.83155948031231
 30
0.0
 11
-9.308029858176484
 21
35.32869780703304
 31
0.0
  0
LINE
  5
3A8
330
33
100
AcDbEntity
  8
$TD_AUDIT_GENERATED_(27)
100
AcDbLine
 10
-7.30469042752855
 20
33.66434892040159
 30
0.0
 11
-7.453121987365087
 21
33.9565595291045
 31
0.0
  0
LINE
  5
3A9
330
33
100
AcDbEntity
  8
$TD_AUDIT_GENERATED_(27)
100
AcDbLine
 10
-7.453121987365087
 20
33.9565595291045
 30
0.0
 11
-8.139120114791806
 21
34.69297316218503
 31
0.0
  0
LINE
  5
3AA
330
33
100
AcDbEntity
  8
$TD_AUDIT_GENERATED_(27)
100
AcDbLine
 10
-6.9109942320658
 20
32.63572470302295
 30
0.0
 11
-6.972923201098368
 21
32.87500000887701
 31
0.0
  0
LINE
  5
3AB
330
33
100
AcDbEntity
  8
$TD_AUDIT_GENERATED_(27)
100
AcDbLine
 10
-6.972923201098368
 20
32.87500000887701
 30
0.0
 11
-7.30469042752855
 21
33.66434892040159
 31
0.0
  0
LINE
  5
3AC
330
33
100
AcDbEntity
  8
$TD_AUDIT_GENERATED_(27)
100
AcDbLine
 10
-6.87123337430873
 20
32.33422026872086
 30
0.0
 11
-6.9109942320658
 21
32.63572470302295
 31
0.0
  0
LINE
  5
3AD
330
33
100
AcDbEntity
  8
$TD_AUDIT_GENERATED_(27)
100
AcDbLine
 10
-9.947086082960004
 20
32.0
 30
0.0
 11
-9.446869721422486
 21
32.0
 31
0.0
  0
LINE
  5
3AE
330
33
100
AcDbEntity
  8
$TD_AUDIT_GENERATED_(27)
100
AcDbLine
 10
-9.446869721422486
 20
32.0
 30
0.0
 11
-8.4464997173001
 21
32.0
 31
0.0
  0
LINE
  5
3AF
330
33
100
AcDbEntity
  8
$TD_AUDIT_GENERATED_(27)
100
AcDbLine
 10
-8.4464997173001
 20
32.0
 30
0.0
 11
-7.632725409888492
 21
32.0
 31
0.0
  0
LINE
  5
3B0
330
33
100
AcDbEntity
  8
$TD_AUDIT_GENERATED_(27)
100
AcDbLine
 10
-7.632725409888492
 20
32.0
 30
0.0
 11
-7.085204698296105
 21
32.0
 31
0.0
  0
LINE
  5
3B1
330
33
100
AcDbEntity
  8
$TD_AUDIT_GENERATED_(27)
100
AcDbLine
 10
-6.857532724574716
 20
32.0
 30
0.0
 11
-6.87123337430873
 21
32.33422026872086
 31
0.0
  0
LINE
  5
3B2
330
33
100
AcDbEntity
  8
$TD_AUDIT_GENERATED_(27)
100
AcDbLine
 10
-7.085204698296105
 20
32.0
 30
0.0
 11
-6.857532724574716
 21
32.0
 31
0.0
  0
LINE
  5
3B3
330
33
100
AcDbEntity
  8
$TD_AUDIT_GENERATED_(27)
100
AcDbLine
 10
-9.446869721422486
 20
32.0
 30
0.0
 11
-9.947086082960004
 21
32.0
 31
0.0
  0
LINE
  5
3B4
330
33
100
AcDbEntity
  8
$TD_AUDIT_GENERATED_(27)
100
AcDbLine
 10
-8.4464997173001
 20
32.0
 30
0.0
 11
-9.446869721422486
 21
32.0
 31
0.0
  0
LINE
  5
3B5
330
33
100
AcDbEntity
  8
$TD_AUDIT_GENERATED_(27)
100
AcDbLine
 10
-7.632725409888492
 20
32.0
 30
0.0
 11
-8.4464997173001
 21
32.0
 31
0.0
  0
LINE
  5
3B6
330
33
100
AcDbEntity
  8
$TD_AUDIT_GENERATED_(27)
100
AcDbLine
 10
-7.085204698296105
 20
32.0
 30
0.0
 11
-7.632725409888492
 21
32.0
 31
0.0
  0
LINE
  5
3B7
330
33
100
AcDbEntity
  8
$TD_AUDIT_GENERATED_(27)
100
AcDbLine
 10
-6.857532724574716
 20
26.52721888176031
 30
0.0
 11
-6.857532724574716
 21
32.0
 31
0.0
  0
LINE
  5
3B8
330
33
100
AcDbEntity
  8
$TD_AUDIT_GENERATED_(27)
100
AcDbLine
 10
-6.857532724574716
 20
32.0
 30
0.0
 11
-7.085204698296105
 21
32.0
 31
0.0
  0
LINE
  5
3B9
330
33
100
AcDbEntity
  8
$TD_AUDIT_GENERATED_(27)
100
AcDbLine
 10
-24.25273820212838
 20
28.00893887938057
 30
0.0
 11
-24.23948890764714
 21
27.9577648933848
 31
0.0
  0
LINE
  5
3BA
330
33
100
AcDbEntity
  8
$TD_AUDIT_GENERATED_(27)
100
AcDbLine
 10
-24.23948890764714
 20
27.9577648933848
 30
0.0
 11
-24.05291391703998
 21
28.00955258958073
 31
0.0
  0
LINE
  5
3BB
330
33
100
AcDbEntity
  8
$TD_AUDIT_GENERATED_(27)
100
AcDbLine
 10
-24.23948890764714
 20
27.9577648933848
 30
0.0
 11
-24.25273820212838
 21
28.00893887938057
 31
0.0
  0
LINE
  5
3BC
330
33
100
AcDbEntity
  8
$TD_AUDIT_GENERATED_(27)
100
AcDbLine
 10
-26.32460232846127
 20
28.01129785801196
 30
0.0
 11
-26.31116895676666
 21
27.95941289342388
 31
0.0
  0
LINE
  5
3BD
330
33
100
AcDbEntity
  8
$TD_AUDIT_GENERATED_(27)
100
AcDbLine
 10
-26.31116895676666
 20
27.95941289342388
 30
0.0
 11
-24.23948890764714
 21
27.9577648933848
 31
0.0
  0
LINE
  5
3BE
330
33
100
AcDbEntity
  8
$TD_AUDIT_GENERATED_(27)
100
AcDbLine
 10
-36.35269197300616
 20
23.36874621856692
 30
0.0
 11
-38.09708885000111
 21
23.36874621856692
 31
0.0
  0
LINE
  5
3BF
330
33
100
AcDbEntity
  8
$TD_AUDIT_GENERATED_(27)
100
AcDbLine
 10
-38.09708885000111
 20
23.36874621856692
 30
0.0
 11
-38.8265378381854
 21
22.64671911486626
 31
0.0
  0
LINE
  5
3C0
330
33
100
AcDbEntity
  8
$TD_AUDIT_GENERATED_(27)
100
AcDbLine
 10
-34.18864933455307
 20
25.10480569445089
 30
0.0
 11
-35.99431683668426
 21
25.10480569445089
 31
0.0
  0
LINE
  5
3C1
330
33
100
AcDbEntity
  8
$TD_AUDIT_GENERATED_(27)
100
AcDbLine
 10
-35.99431683668426
 20
25.10480569445089
 30
0.0
 11
-38.09708885000111
 21
23.36874621856692
 31
0.0
  0
LINE
  5
3C2
330
33
100
AcDbEntity
  8
$TD_AUDIT_GENERATED_(27)
100
AcDbLine
 10
-38.09708885000111
 20
23.36874621856692
 30
0.0
 11
-36.35269197300616
 21
23.36874621856692
 31
0.0
  0
LINE
  5
3C3
330
33
100
AcDbEntity
  8
$TD_AUDIT_GENERATED_(27)
100
AcDbLine
 10
-32.00529659379212
 20
26.63873603626984
 30
0.0
 11
-33.74969338477601
 21
26.63873603626984
 31
0.0
  0
LINE
  5
3C4
330
33
100
AcDbEntity
  8
$TD_AUDIT_GENERATED_(27)
100
AcDbLine
 10
-33.74969338477601
 20
26.63873603626984
 30
0.0
 11
-35.99431683668426
 21
25.10480569445089
 31
0.0
  0
LINE
  5
3C5
330
33
100
AcDbEntity
  8
$TD_AUDIT_GENERATED_(27)
100
AcDbLine
 10
-35.99431683668426
 20
25.10480569445089
 30
0.0
 11
-34.18864933455307
 21
25.10480569445089
 31
0.0
  0
LINE
  5
3C6
330
33
100
AcDbEntity
  8
$TD_AUDIT_GENERATED_(27)
100
AcDbLine
 10
-32.81264911760775
 20
27.16076888452067
 30
0.0
 11
-33.74969338477601
 21
26.63873603626984
 31
0.0
  0
LINE
  5
3C7
330
33
100
AcDbEntity
  8
$TD_AUDIT_GENERATED_(27)
100
AcDbLine
 10
-33.74969338477601
 20
26.63873603626984
 30
0.0
 11
-32.00529659379212
 21
26.63873603626984
 31
0.0
  0
LINE
  5
3C8
330
33
100
AcDbEntity
  8
$TD_AUDIT_GENERATED_(27)
100
AcDbLine
 10
-34.16484542680426
 20
25.07952682562335
 30
0.0
 11
-34.28513141747011
 21
24.95499760760384
 31
0.0
  0
LINE
  5
3C9
330
33
100
AcDbEntity
  8
$TD_AUDIT_GENERATED_(27)
100
AcDbLine
 10
-34.13576156788664
 20
25.04864321107478
 30
0.0
 11
-34.2851314174701
 21
24.95499760760384
 31
0.0
  0
LINE
  5
3CA
330
33
100
AcDbEntity
  8
$TD_AUDIT_GENERATED_(27)
100
AcDbLine
 10
-36.28535613284609
 20
23.36874621856692
 30
0.0
 11
-36.35269197300616
 21
23.36874621856692
 31
0.0
  0
LINE
  5
3CB
330
33
100
AcDbEntity
  8
$TD_AUDIT_GENERATED_(27)
100
AcDbLine
 10
-37.01480512103038
 20
22.64671911486626
 30
0.0
 11
-36.28535613284609
 21
23.36874621856692
 31
0.0
  0
LINE
  5
3CC
330
33
100
AcDbEntity
  8
$TD_AUDIT_GENERATED_(27)
100
AcDbLine
 10
-36.35269197300616
 20
23.36874621856692
 30
0.0
 11
-36.28535613284609
 21
23.36874621856692
 31
0.0
  0
LINE
  5
3CD
330
33
100
AcDbEntity
  8
$TD_AUDIT_GENERATED_(27)
100
AcDbLine
 10
-36.28535613284609
 20
23.36874621856692
 30
0.0
 11
-34.29877116496633
 21
25.00888106737358
 31
0.0
  0
LINE
  5
3CE
330
33
100
AcDbEntity
  8
$TD_AUDIT_GENERATED_(27)
100
AcDbLine
 10
-34.29877116496633
 20
25.00888106737358
 30
0.0
 11
-36.28535613284609
 21
23.36874621856692
 31
0.0
  0
LINE
  5
3CF
330
33
100
AcDbEntity
  8
$TD_AUDIT_GENERATED_(27)
100
AcDbLine
 10
-36.28535613284609
 20
23.36874621856692
 30
0.0
 11
-37.01480512103038
 21
22.64671911486626
 31
0.0
  0
LINE
  5
3D0
330
33
100
AcDbEntity
  8
$TD_AUDIT_GENERATED_(27)
100
AcDbLine
 10
-34.58657625398641
 20
24.75614774422184
 30
0.0
 11
-36.20500918068274
 21
23.27353757854744
 31
0.0
  0
LINE
  5
3D1
330
33
100
AcDbEntity
  8
$TD_AUDIT_GENERATED_(27)
100
AcDbLine
 10
-36.20500918068274
 20
23.27353757854744
 30
0.0
 11
-36.86187793236321
 21
22.6717948231382
 31
0.0
  0
LINE
  5
3D2
330
33
100
AcDbEntity
  8
$TD_AUDIT_GENERATED_(27)
100
AcDbLine
 10
-34.58657625398641
 20
24.75614774422184
 30
0.0
 11
-34.28513144391843
 21
24.95499759102238
 31
0.0
  0
LINE
  5
3D3
330
33
100
AcDbEntity
  8
$TD_AUDIT_GENERATED_(27)
100
AcDbLine
 10
-33.82296360033809
 20
25.25986933477995
 30
0.0
 11
-34.16484542680426
 21
25.07952682562335
 31
0.0
  0
LINE
  5
3D4
330
33
100
AcDbEntity
  8
$TD_AUDIT_GENERATED_(27)
100
AcDbLine
 10
-33.82296353840442
 20
25.25986937563487
 30
0.0
 11
-34.1648442130789
 21
25.07952747404786
 31
0.0
  0
LINE
  5
3D5
330
33
100
AcDbEntity
  8
$TD_AUDIT_GENERATED_(27)
100
AcDbLine
 10
-34.1648442130789
 20
25.07952747404786
 30
0.0
 11
-34.16484542680426
 21
25.07952747404786
 31
0.0
  0
LINE
  5
3D6
330
33
100
AcDbEntity
  8
$TD_AUDIT_GENERATED_(27)
100
AcDbLine
 10
-33.82296359379018
 20
25.25986933823398
 30
0.0
 11
-34.13576156788664
 21
25.04864321107478
 31
0.0
  0
LINE
  5
3D7
330
33
100
AcDbEntity
  8
$TD_AUDIT_GENERATED_(27)
100
AcDbLine
 10
-34.18258411952924
 20
25.10480569445089
 30
0.0
 11
-34.18864933455307
 21
25.10480569445089
 31
0.0
  0
LINE
  5
3D8
330
33
100
AcDbEntity
  8
$TD_AUDIT_GENERATED_(27)
100
AcDbLine
 10
-34.29877116496633
 20
25.00888106737358
 30
0.0
 11
-34.18258411952924
 21
25.10480569445089
 31
0.0
  0
LINE
  5
3D9
330
33
100
AcDbEntity
  8
$TD_AUDIT_GENERATED_(27)
100
AcDbLine
 10
-31.93796066762099
 20
26.63873603626984
 30
0.0
 11
-32.00529659379212
 21
26.63873603626984
 31
0.0
  0
LINE
  5
3DA
330
33
100
AcDbEntity
  8
$TD_AUDIT_GENERATED_(27)
100
AcDbLine
 10
-34.18864933455307
 20
25.10480569445089
 30
0.0
 11
-34.18258411952924
 21
25.10480569445089
 31
0.0
  0
LINE
  5
3DB
330
33
100
AcDbEntity
  8
$TD_AUDIT_GENERATED_(27)
100
AcDbLine
 10
-34.18258411952924
 20
25.10480569445089
 30
0.0
 11
-31.93796066762099
 21
26.63873603626984
 31
0.0
  0
LINE
  5
3DC
330
33
100
AcDbEntity
  8
$TD_AUDIT_GENERATED_(27)
100
AcDbLine
 10
-32.00529659379212
 20
26.63873603626984
 30
0.0
 11
-31.93796066762099
 21
26.63873603626984
 31
0.0
  0
LINE
  5
3DD
330
33
100
AcDbEntity
  8
$TD_AUDIT_GENERATED_(27)
100
AcDbLine
 10
-31.93796066762099
 20
26.63873603626984
 30
0.0
 11
-31.00895591751893
 21
27.15629002248643
 31
0.0
  0
LINE
  5
3DE
330
33
100
AcDbEntity
  8
$TD_AUDIT_GENERATED_(27)
100
AcDbLine
 10
-31.00895591751893
 20
27.15629002248643
 30
0.0
 11
-31.93796066762099
 21
26.63873603626984
 31
0.0
  0
LINE
  5
3DF
330
33
100
AcDbEntity
  8
$TD_AUDIT_GENERATED_(27)
100
AcDbLine
 10
-31.93796066762099
 20
26.63873603626984
 30
0.0
 11
-34.18258411952924
 21
25.10480569445089
 31
0.0
  0
LINE
  5
3E0
330
33
100
AcDbEntity
  8
$TD_AUDIT_GENERATED_(27)
100
AcDbLine
 10
-34.18258411952924
 20
25.10480569445089
 30
0.0
 11
-34.29877116496633
 21
25.00888106737358
 31
0.0
  0
LINE
  5
3E1
330
33
100
AcDbEntity
  8
$TD_AUDIT_GENERATED_(27)
100
AcDbLine
 10
-30.90779692256932
 20
27.18287622662745
 30
0.0
 11
-31.88135956574758
 21
26.54065988724818
 31
0.0
  0
LINE
  5
3E2
330
33
100
AcDbEntity
  8
$TD_AUDIT_GENERATED_(27)
100
AcDbLine
 10
-31.88135956574758
 20
26.54065988724818
 30
0.0
 11
-33.82296353840435
 21
25.2598693756349
 31
0.0
  0
LINE
  5
3E3
330
33
100
AcDbEntity
  8
$TD_AUDIT_GENERATED_(27)
100
AcDbLine
 10
-27.45199804833166
 20
24.72151658819605
 30
0.0
 11
-26.0
 21
25.37526845046914
 31
0.0
  0
LINE
  5
3E4
330
33
100
AcDbEntity
  8
$TD_AUDIT_GENERATED_(27)
100
AcDbLine
 10
-33.55168595805681
 20
24.7562117282888
 30
0.0
 11
-29.87653607768775
 21
27.18053136421062
 31
0.0
  0
LINE
  5
3E5
330
33
100
AcDbEntity
  8
$TD_AUDIT_GENERATED_(27)
100
AcDbLine
 10
-29.07361868725291
 20
23.65181143740691
 30
0.0
 11
-27.45199804833166
 21
24.72151658819605
 31
0.0
  0
LINE
  5
3E6
330
33
100
AcDbEntity
  8
$TD_AUDIT_GENERATED_(27)
100
AcDbLine
 10
-29.87653607768775
 20
27.18053136421062
 30
0.0
 11
-33.55168595805681
 21
24.7562117282888
 31
0.0
  0
LINE
  5
3E7
330
33
100
AcDbEntity
  8
$TD_AUDIT_GENERATED_(27)
100
AcDbLine
 10
-27.45199804833166
 20
24.72151658819605
 30
0.0
 11
-29.07361868725291
 21
23.65181143740691
 31
0.0
  0
LINE
  5
3E8
330
33
100
AcDbEntity
  8
$TD_AUDIT_GENERATED_(27)
100
AcDbLine
 10
-26.0
 20
25.37526845046914
 30
0.0
 11
-27.45199804833166
 21
24.72151658819605
 31
0.0
  0
LINE
  5
3E9
330
33
100
AcDbEntity
  8
$TD_AUDIT_GENERATED_(27)
100
AcDbLine
 10
-35.8271118663902
 20
22.67175543086909
 30
0.0
 11
-33.55168595805681
 21
24.7562117282888
 31
0.0
  0
LINE
  5
3EA
330
33
100
AcDbEntity
  8
$TD_AUDIT_GENERATED_(27)
100
AcDbLine
 10
-33.55168595805681
 20
24.7562117282888
 30
0.0
 11
-35.8271118663902
 21
22.67175543086909
 31
0.0
  0
LINE
  5
3EB
330
33
100
AcDbEntity
  8
$TD_AUDIT_GENERATED_(27)
100
AcDbLine
 10
-26.79957709128388
 20
21.9
 30
0.0
 11
-29.95960898418248
 21
21.9
 31
0.0
  0
LINE
  5
3EC
330
33
100
AcDbEntity
  8
$TD_AUDIT_GENERATED_(27)
100
AcDbLine
 10
-9.3
 20
26.0
 30
0.0
 11
-9.3
 21
27.00050822788448
 31
0.0
  0
LINE
  5
3ED
330
33
100
AcDbEntity
  8
$TD_AUDIT_GENERATED_(27)
100
AcDbLine
 10
-27.13924853067446
 20
29.05253495934203
 30
0.0
 11
-28.90817831418818
 21
29.05253495934203
 31
0.0
  0
LINE
  5
3EE
330
33
100
AcDbEntity
  8
$TD_AUDIT_GENERATED_(27)
100
AcDbLine
 10
-28.90817831418818
 20
29.05253495934203
 30
0.0
 11
-29.73621478187107
 21
28.68613025907942
 31
0.0
  0
LINE
  5
3EF
330
33
100
AcDbEntity
  8
$TD_AUDIT_GENERATED_(27)
100
AcDbLine
 10
-24.86791674118532
 20
29.91296905095747
 30
0.0
 11
-26.35026772809222
 21
29.91296905095747
 31
0.0
  0
LINE
  5
3F0
330
33
100
AcDbEntity
  8
$TD_AUDIT_GENERATED_(27)
100
AcDbLine
 10
-26.35026772809222
 20
29.91296905095747
 30
0.0
 11
-28.90817831418818
 21
29.05253495934203
 31
0.0
  0
LINE
  5
3F1
330
33
100
AcDbEntity
  8
$TD_AUDIT_GENERATED_(27)
100
AcDbLine
 10
-28.90817831418818
 20
29.05253495934203
 30
0.0
 11
-27.13924853067446
 21
29.05253495934203
 31
0.0
  0
LINE
  5
3F2
330
33
100
AcDbEntity
  8
$TD_AUDIT_GENERATED_(27)
100
AcDbLine
 10
-24.05291391703998
 20
30.45582233122913
 30
0.0
 11
-26.35026772809222
 21
29.91296905095747
 31
0.0
  0
LINE
  5
3F3
330
33
100
AcDbEntity
  8
$TD_AUDIT_GENERATED_(27)
100
AcDbLine
 10
-26.35026772809222
 20
29.91296905095747
 30
0.0
 11
-24.86791674118532
 21
29.91296905095747
 31
0.0
  0
LINE
  5
3F4
330
33
100
AcDbEntity
  8
$TD_AUDIT_GENERATED_(27)
100
AcDbLine
 10
-27.09644559703316
 20
29.05253495934203
 30
0.0
 11
-27.13924853067446
 21
29.05253495934203
 31
0.0
  0
LINE
  5
3F5
330
33
100
AcDbEntity
  8
$TD_AUDIT_GENERATED_(27)
100
AcDbLine
 10
-27.92393123790618
 20
28.68637399898707
 30
0.0
 11
-27.09644559703316
 21
29.05253495934203
 31
0.0
  0
LINE
  5
3F6
330
33
100
AcDbEntity
  8
$TD_AUDIT_GENERATED_(27)
100
AcDbLine
 10
-27.13924853067446
 20
29.05253495934203
 30
0.0
 11
-27.09644559703316
 21
29.05253495934203
 31
0.0
  0
LINE
  5
3F7
330
33
100
AcDbEntity
  8
$TD_AUDIT_GENERATED_(27)
100
AcDbLine
 10
-27.09644559703316
 20
29.05253495934203
 30
0.0
 11
-26.63442388784931
 21
29.20795056761587
 31
0.0
  0
LINE
  5
3F8
330
33
100
AcDbEntity
  8
$TD_AUDIT_GENERATED_(27)
100
AcDbLine
 10
-26.63442388784931
 20
29.20795056761587
 30
0.0
 11
-27.09644559703316
 21
29.05253495934203
 31
0.0
  0
LINE
  5
3F9
330
33
100
AcDbEntity
  8
$TD_AUDIT_GENERATED_(27)
100
AcDbLine
 10
-27.09644559703316
 20
29.05253495934203
 30
0.0
 11
-27.92393123790618
 21
28.68637399898707
 31
0.0
  0
LINE
  5
3FA
330
33
100
AcDbEntity
  8
$TD_AUDIT_GENERATED_(27)
100
AcDbLine
 10
-26.62478755147141
 20
29.17073124672662
 30
0.0
 11
-27.06709881655839
 21
28.97158235101838
 31
0.0
  0
LINE
  5
3FB
330
33
100
AcDbEntity
  8
$TD_AUDIT_GENERATED_(27)
100
AcDbLine
 10
-27.06709881655839
 20
28.97158235101838
 30
0.0
 11
-27.90060464572698
 21
28.59629965182539
 31
0.0
  0
LINE
  5
3FC
330
33
100
AcDbEntity
  8
$TD_AUDIT_GENERATED_(27)
100
AcDbLine
 10
-26.86525821551869
 20
28.59654976237263
 30
0.0
 11
-26.51675356865992
 21
28.75346151728617
 31
0.0
  0
LINE
  5
3FD
330
33
100
AcDbEntity
  8
$TD_AUDIT_GENERATED_(27)
100
AcDbLine
 10
-26.51675356865992
 20
28.75346151728617
 30
0.0
 11
-26.86525821551869
 21
28.59654976237263
 31
0.0
  0
LINE
  5
3FE
330
33
100
AcDbEntity
  8
$TD_AUDIT_GENERATED_(27)
100
AcDbLine
 10
-24.05291391703998
 20
29.56250464132609
 30
0.0
 11
-24.61460138885813
 21
29.40659682081426
 31
0.0
  0
LINE
  5
3FF
330
33
100
AcDbEntity
  8
$TD_AUDIT_GENERATED_(27)
100
AcDbLine
 10
-24.61460138885813
 20
29.40659682081426
 30
0.0
 11
-24.25273820212838
 21
28.00893887938057
 31
0.0
  0
LINE
  5
400
330
33
100
AcDbEntity
  8
$TD_AUDIT_GENERATED_(27)
100
AcDbLine
 10
-24.25273820212838
 20
28.00893887938057
 30
0.0
 11
-24.61460138885813
 21
29.40659682081426
 31
0.0
  0
LINE
  5
401
330
33
100
AcDbEntity
  8
$TD_AUDIT_GENERATED_(27)
100
AcDbLine
 10
-24.61460138885813
 20
29.40659682081426
 30
0.0
 11
-26.68628143797765
 21
29.40824482085334
 31
0.0
  0
LINE
  5
402
330
33
100
AcDbEntity
  8
$TD_AUDIT_GENERATED_(27)
100
AcDbLine
 10
-26.68628143797765
 20
29.40824482085334
 30
0.0
 11
-26.32460232846127
 21
28.01129785801196
 31
0.0
  0
LINE
  5
403
330
33
100
AcDbEntity
  8
$TD_AUDIT_GENERATED_(27)
100
AcDbLine
 10
-29.64917295177014
 20
27.95818693884788
 30
0.0
 11
-31.38129088249389
 21
27.95818693884788
 31
0.0
  0
LINE
  5
404
330
33
100
AcDbEntity
  8
$TD_AUDIT_GENERATED_(27)
100
AcDbLine
 10
-31.38129088249389
 20
27.95818693884788
 30
0.0
 11
-32.81264911760775
 21
27.16076888452067
 31
0.0
  0
LINE
  5
405
330
33
100
AcDbEntity
  8
$TD_AUDIT_GENERATED_(27)
100
AcDbLine
 10
-29.73621478187107
 20
28.68613025907942
 30
0.0
 11
-31.38129088249389
 21
27.95818693884788
 31
0.0
  0
LINE
  5
406
330
33
100
AcDbEntity
  8
$TD_AUDIT_GENERATED_(27)
100
AcDbLine
 10
-31.38129088249389
 20
27.95818693884788
 30
0.0
 11
-29.64917295177014
 21
27.95818693884788
 31
0.0
  0
LINE
  5
407
330
33
100
AcDbEntity
  8
$TD_AUDIT_GENERATED_(27)
100
AcDbLine
 10
-29.56955816533887
 20
27.95818693884788
 30
0.0
 11
-29.64917295177014
 21
27.95818693884788
 31
0.0
  0
LINE
  5
408
330
33
100
AcDbEntity
  8
$TD_AUDIT_GENERATED_(27)
100
AcDbLine
 10
-31.00895591751893
 20
27.15629002248643
 30
0.0
 11
-29.56955816533887
 21
27.95818693884788
 31
0.0
  0
LINE
  5
409
330
33
100
AcDbEntity
  8
$TD_AUDIT_GENERATED_(27)
100
AcDbLine
 10
-29.64917295177014
 20
27.95818693884788
 30
0.0
 11
-29.56955816533887
 21
27.95818693884788
 31
0.0
  0
LINE
  5
40A
330
33
100
AcDbEntity
  8
$TD_AUDIT_GENERATED_(27)
100
AcDbLine
 10
-29.56955816533887
 20
27.95818693884788
 30
0.0
 11
-27.92393123790618
 21
28.68637399898707
 31
0.0
  0
LINE
  5
40B
330
33
100
AcDbEntity
  8
$TD_AUDIT_GENERATED_(27)
100
AcDbLine
 10
-27.92393123790618
 20
28.68637399898707
 30
0.0
 11
-29.56955816533887
 21
27.95818693884788
 31
0.0
  0
LINE
  5
40C
330
33
100
AcDbEntity
  8
$TD_AUDIT_GENERATED_(27)
100
AcDbLine
 10
-29.56955816533887
 20
27.95818693884788
 30
0.0
 11
-31.00895591751893
 21
27.15629002248643
 31
0.0
  0
LINE
  5
40D
330
33
100
AcDbEntity
  8
$TD_AUDIT_GENERATED_(27)
100
AcDbLine
 10
-30.62391816576562
 20
27.37013852279243
 30
0.0
 11
-30.90779692256932
 21
27.18287622662744
 31
0.0
  0
LINE
  5
40E
330
33
100
AcDbEntity
  8
$TD_AUDIT_GENERATED_(27)
100
AcDbLine
 10
-29.52597117804348
 20
27.86448480653011
 30
0.0
 11
-27.90060464572697
 21
28.59629965182537
 31
0.0
  0
LINE
  5
40F
330
33
100
AcDbEntity
  8
$TD_AUDIT_GENERATED_(27)
100
AcDbLine
 10
-29.52597117804348
 20
27.86448480653011
 30
0.0
 11
-30.62391816576562
 21
27.37013852279243
 31
0.0
  0
LINE
  5
410
330
33
100
AcDbEntity
  8
$TD_AUDIT_GENERATED_(27)
100
AcDbLine
 10
-29.58900390893786
 20
27.37020250834081
 30
0.0
 11
-26.86525821551869
 21
28.59654976237263
 31
0.0
  0
LINE
  5
411
330
33
100
AcDbEntity
  8
$TD_AUDIT_GENERATED_(27)
100
AcDbLine
 10
-26.86525821551869
 20
28.59654976237263
 30
0.0
 11
-29.58900390893786
 21
27.37020250834081
 31
0.0
  0
LINE
  5
412
330
33
100
AcDbEntity
  8
$TD_AUDIT_GENERATED_(27)
100
AcDbLine
 10
-29.87653607768775
 20
27.18053136421062
 30
0.0
 11
-29.58900390893786
 21
27.37020250834081
 31
0.0
  0
LINE
  5
413
330
33
100
AcDbEntity
  8
$TD_AUDIT_GENERATED_(27)
100
AcDbLine
 10
-29.58900390893786
 20
27.37020250834081
 30
0.0
 11
-29.87653607768775
 21
27.18053136421062
 31
0.0
  0
LINE
  5
414
330
33
100
AcDbEntity
  8
$TD_AUDIT_GENERATED_(27)
100
AcDbLine
 10
-11.25041372470203
 20
27.49999999999999
 30
0.0
 11
-11.25041372470203
 21
27.60922796924851
 31
0.0
  0
LINE
  5
415
330
33
100
AcDbEntity
  8
$TD_AUDIT_GENERATED_(27)
100
AcDbLine
 10
-11.28922813538885
 20
27.49999999999999
 30
0.0
 11
-11.54445755736598
 21
27.49999999999999
 31
0.0
  0
LINE
  5
416
330
33
100
AcDbEntity
  8
$TD_AUDIT_GENERATED_(27)
100
AcDbLine
 10
-9.947086082960006
 20
27.5
 30
0.0
 11
-9.947086082960006
 21
28.46132346978105
 31
0.0
  0
LINE
  5
417
330
33
100
AcDbEntity
  8
$TD_AUDIT_GENERATED_(27)
100
AcDbLine
 10
-11.25041372470203
 20
27.60922796924851
 30
0.0
 11
-11.25041372470203
 21
27.49999999999999
 31
0.0
  0
LINE
  5
418
330
33
100
AcDbEntity
  8
$TD_AUDIT_GENERATED_(27)
100
AcDbLine
 10
-11.25041372470203
 20
27.49999999999999
 30
0.0
 11
-10.77056914331292
 21
27.49999999999999
 31
0.0
  0
LINE
  5
419
330
33
100
AcDbEntity
  8
$TD_AUDIT_GENERATED_(27)
100
AcDbLine
 10
-10.77056914331292
 20
27.49999999999999
 30
0.0
 11
-11.28922813538885
 21
27.49999999999999
 31
0.0
  0
LINE
  5
41A
330
33
100
AcDbEntity
  8
$TD_AUDIT_GENERATED_(27)
100
AcDbLine
 10
-9.676864824527328
 20
27.5
 30
0.0
 11
-10.77056914331292
 21
27.5
 31
0.0
  0
LINE
  5
41B
330
33
100
AcDbEntity
  8
$TD_AUDIT_GENERATED_(27)
100
AcDbLine
 10
-9.3
 20
27.00050822788448
 30
0.0
 11
-9.3
 21
27.5
 31
0.0
  0
LINE
  5
41C
330
33
100
AcDbEntity
  8
$TD_AUDIT_GENERATED_(27)
100
AcDbLine
 10
-9.3
 20
27.5
 30
0.0
 11
-9.676864824527328
 21
27.5
 31
0.0
  0
LINE
  5
41D
330
33
100
AcDbEntity
  8
$TD_AUDIT_GENERATED_(27)
100
AcDbLine
 10
-24.61460138885813
 20
29.40659682081426
 30
0.0
 11
-24.05291391703998
 21
29.5625046413261
 31
0.0
  0
LINE
  5
41E
330
33
100
AcDbEntity
  8
$TD_AUDIT_GENERATED_(27)
100
AcDbLine
 10
-24.05291391703998
 20
30.13918971707306
 30
0.0
 11
-26.68628143797765
 21
29.40824482085334
 31
0.0
  0
LINE
  5
41F
330
33
100
AcDbEntity
  8
$TD_AUDIT_GENERATED_(27)
100
AcDbLine
 10
-26.68628143797765
 20
29.40824482085334
 30
0.0
 11
-24.61460138885813
 21
29.40659682081426
 31
0.0
  0
LINE
  5
420
330
33
100
AcDbEntity
  8
$TD_AUDIT_GENERATED_(27)
100
AcDbLine
 10
-24.33028173415781
 20
27.5
 30
0.0
 11
-24.7
 21
27.5
 31
0.0
  0
LINE
  5
421
330
33
100
AcDbEntity
  8
$TD_AUDIT_GENERATED_(27)
100
AcDbLine
 10
-24.7
 20
27.5
 30
0.0
 11
-24.7
 21
26.0
 31
0.0
  0
LINE
  5
422
330
33
100
AcDbEntity
  8
$TD_AUDIT_GENERATED_(27)
100
AcDbLine
 10
-18.30332764174202
 20
27.49999999999999
 30
0.0
 11
-18.30332764174202
 21
32.49999999999999
 31
0.0
  0
LINE
  5
423
330
33
100
AcDbEntity
  8
$TD_AUDIT_GENERATED_(27)
100
AcDbLine
 10
-18.30332764174201
 20
32.49999999999999
 30
0.0
 11
-24.05291391703998
 21
32.49999999999999
 31
0.0
  0
LINE
  5
424
330
33
100
AcDbEntity
  8
$TD_AUDIT_GENERATED_(27)
100
AcDbLine
 10
-24.05291391703998
 20
32.5
 30
0.0
 11
-24.05291391703998
 21
27.5
 31
0.0
  0
LINE
  5
425
330
33
100
AcDbEntity
  8
$TD_AUDIT_GENERATED_(27)
100
AcDbLine
 10
-24.05291391703998
 20
27.5
 30
0.0
 11
-23.2294308566871
 21
27.5
 31
0.0
  0
LINE
  5
426
330
33
100
AcDbEntity
  8
$TD_AUDIT_GENERATED_(27)
100
AcDbLine
 10
-24.32313517547269
 20
27.5
 30
0.0
 11
-24.33028173415781
 21
27.5
 31
0.0
  0
LINE
  5
427
330
33
100
AcDbEntity
  8
$TD_AUDIT_GENERATED_(27)
100
AcDbLine
 10
-23.2294308566871
 20
27.49999999999999
 30
0.0
 11
-24.32313517547269
 21
27.49999999999999
 31
0.0
  0
LINE
  5
428
330
33
100
AcDbEntity
  8
$TD_AUDIT_GENERATED_(27)
100
AcDbLine
 10
-21.52594644265206
 20
27.49999999999999
 30
0.0
 11
-23.2294308566871
 21
27.49999999999999
 31
0.0
  0
LINE
  5
429
330
33
100
AcDbEntity
  8
$TD_AUDIT_GENERATED_(27)
100
AcDbLine
 10
-19.37943085668712
 20
27.49999999999999
 30
0.0
 11
-21.52594644265206
 21
27.49999999999999
 31
0.0
  0
LINE
  5
42A
330
33
100
AcDbEntity
  8
$TD_AUDIT_GENERATED_(27)
100
AcDbLine
 10
-18.49868591460084
 20
27.49999999999999
 30
0.0
 11
-19.37943085668712
 21
27.49999999999999
 31
0.0
  0
LINE
  5
42B
330
33
100
AcDbEntity
  8
$TD_AUDIT_GENERATED_(27)
100
AcDbLine
 10
-11.25041372470203
 20
27.60922796924851
 30
0.0
 11
-11.25041372470203
 21
32.49999999999999
 31
0.0
  0
LINE
  5
42C
330
33
100
AcDbEntity
  8
$TD_AUDIT_GENERATED_(27)
100
AcDbLine
 10
-11.25041372470203
 20
32.49999999999999
 30
0.0
 11
-18.30332764174201
 21
32.49999999999999
 31
0.0
  0
LINE
  5
42D
330
33
100
AcDbEntity
  8
$TD_AUDIT_GENERATED_(27)
100
AcDbLine
 10
-18.30332764174201
 20
32.49999999999999
 30
0.0
 11
-18.30332764174201
 21
27.49999999999999
 31
0.0
  0
LINE
  5
42E
330
33
100
AcDbEntity
  8
$TD_AUDIT_GENERATED_(27)
100
AcDbLine
 10
-18.30332764174202
 20
27.49999999999999
 30
0.0
 11
-17.00000000000002
 21
27.49999999999999
 31
0.0
  0
LINE
  5
42F
330
33
100
AcDbEntity
  8
$TD_AUDIT_GENERATED_(27)
100
AcDbLine
 10
-17.00000000000002
 20
27.49999999999999
 30
0.0
 11
-18.49868591460084
 21
27.49999999999999
 31
0.0
  0
LINE
  5
430
330
33
100
AcDbEntity
  8
$TD_AUDIT_GENERATED_(27)
100
AcDbLine
 10
-14.62056914331293
 20
27.49999999999999
 30
0.0
 11
-17.00000000000002
 21
27.49999999999999
 31
0.0
  0
LINE
  5
431
330
33
100
AcDbEntity
  8
$TD_AUDIT_GENERATED_(27)
100
AcDbLine
 10
-12.47405355734798
 20
27.49999999999999
 30
0.0
 11
-14.62056914331293
 21
27.49999999999999
 31
0.0
  0
LINE
  5
432
330
33
100
AcDbEntity
  8
$TD_AUDIT_GENERATED_(27)
100
AcDbLine
 10
-11.54445755736598
 20
27.49999999999999
 30
0.0
 11
-12.47405355734798
 21
27.49999999999999
 31
0.0
  0
LINE
  5
433
330
33
100
AcDbEntity
  8
$TD_AUDIT_GENERATED_(27)
100
AcDbLine
 10
-9.947086082960006
 20
28.46132346978105
 30
0.0
 11
-9.947086082960006
 21
32.5
 31
0.0
  0
LINE
  5
434
330
33
100
AcDbEntity
  8
$TD_AUDIT_GENERATED_(27)
100
AcDbLine
 10
-9.947086082960004
 20
32.5
 30
0.0
 11
-11.25041372470203
 21
32.5
 31
0.0
  0
LINE
  5
435
330
33
100
AcDbEntity
  8
$TD_AUDIT_GENERATED_(27)
100
AcDbLine
 10
-11.25041372470203
 20
32.49999999999999
 30
0.0
 11
-11.25041372470203
 21
27.60922796924851
 31
0.0
  0
LINE
  5
436
330
33
100
AcDbEntity
  8
$TD_AUDIT_GENERATED_(27)
100
AcDbLine
 10
-8.0
 20
23.75127933505714
 30
0.0
 11
-8.0
 21
26.0
 31
0.0
  0
LINE
  5
437
330
33
100
AcDbEntity
  8
$TD_AUDIT_GENERATED_(27)
100
AcDbLine
 10
-8.0
 20
26.0
 30
0.0
 11
-8.440491676330566
 21
26.0
 31
0.0
  0
LINE
  5
438
330
33
100
AcDbEntity
  8
$TD_AUDIT_GENERATED_(27)
100
AcDbLine
 10
-8.440491676330566
 20
26.0
 30
0.0
 11
-9.718846440315247
 21
26.0
 31
0.0
  0
LINE
  5
439
330
33
100
AcDbEntity
  8
$TD_AUDIT_GENERATED_(27)
100
AcDbLine
 10
-9.718846440315247
 20
26.0
 30
0.0
 11
-11.70993334054947
 21
26.0
 31
0.0
  0
LINE
  5
43A
330
33
100
AcDbEntity
  8
$TD_AUDIT_GENERATED_(27)
100
AcDbLine
 10
24.69667235825798
 20
29.4752849334307
 30
0.0
 11
24.69667235825798
 21
32.49999999999999
 31
0.0
  0
LINE
  5
43B
330
33
100
AcDbEntity
  8
$TD_AUDIT_GENERATED_(27)
100
AcDbLine
 10
24.69667235825799
 20
32.49999999999999
 30
0.0
 11
18.94708608296002
 21
32.49999999999999
 31
0.0
  0
LINE
  5
43C
330
33
100
AcDbEntity
  8
$TD_AUDIT_GENERATED_(27)
100
AcDbLine
 10
18.94708608296002
 20
32.5
 30
0.0
 11
18.94708608296002
 21
28.79343907088953
 31
0.0
  0
LINE
  5
43D
330
33
100
AcDbEntity
  8
$TD_AUDIT_GENERATED_(27)
100
AcDbLine
 10
31.74958627529797
 20
30.65952363497755
 30
0.0
 11
31.74958627529797
 21
32.49999999999999
 31
0.0
  0
LINE
  5
43E
330
33
100
AcDbEntity
  8
$TD_AUDIT_GENERATED_(27)
100
AcDbLine
 10
31.74958627529797
 20
32.49999999999999
 30
0.0
 11
24.69667235825799
 21
32.49999999999999
 31
0.0
  0
LINE
  5
43F
330
33
100
AcDbEntity
  8
$TD_AUDIT_GENERATED_(27)
100
AcDbLine
 10
24.69667235825799
 20
32.49999999999999
 30
0.0
 11
24.69667235825799
 21
29.4752849334307
 31
0.0
  0
LINE
  5
440
330
33
100
AcDbEntity
  8
$TD_AUDIT_GENERATED_(27)
100
AcDbLine
 10
33.05291391703999
 20
31.16191647398322
 30
0.0
 11
33.05291391703999
 21
32.5
 31
0.0
  0
LINE
  5
441
330
33
100
AcDbEntity
  8
$TD_AUDIT_GENERATED_(27)
100
AcDbLine
 10
33.05291391703999
 20
32.5
 30
0.0
 11
31.74958627529797
 21
32.5
 31
0.0
  0
LINE
  5
442
330
33
100
AcDbEntity
  8
$TD_AUDIT_GENERATED_(27)
100
AcDbLine
 10
31.74958627529797
 20
32.49999999999999
 30
0.0
 11
31.74958627529797
 21
30.65952363497755
 31
0.0
  0
LINE
  5
443
330
33
100
AcDbEntity
  8
$TD_AUDIT_GENERATED_(27)
100
AcDbLine
 10
-11.70993334054947
 20
26.0
 30
0.0
 11
-14.21884751319885
 21
26.0
 31
0.0
  0
LINE
  5
444
330
33
100
AcDbEntity
  8
$TD_AUDIT_GENERATED_(27)
100
AcDbLine
 10
-14.21884751319885
 20
26.0
 30
0.0
 11
-16.99999960659751
 21
26.0
 31
0.0
  0
LINE
  5
445
330
33
100
AcDbEntity
  8
$TD_AUDIT_GENERATED_(27)
100
AcDbLine
 10
-16.99999960659751
 20
26.0
 30
0.0
 11
-19.78115275502205
 21
26.0
 31
0.0
  0
LINE
  5
446
330
33
100
AcDbEntity
  8
$TD_AUDIT_GENERATED_(27)
100
AcDbLine
 10
-19.78115275502205
 20
26.0
 30
0.0
 11
-22.29006773233414
 21
26.0
 31
0.0
  0
LINE
  5
447
330
33
100
AcDbEntity
  8
$TD_AUDIT_GENERATED_(27)
100
AcDbLine
 10
-22.29006773233414
 20
26.0
 30
0.0
 11
-24.28115302324295
 21
26.0
 31
0.0
  0
LINE
  5
448
330
33
100
AcDbEntity
  8
$TD_AUDIT_GENERATED_(27)
100
AcDbLine
 10
-24.28115302324295
 20
26.0
 30
0.0
 11
-25.55950886011124
 21
26.0
 31
0.0
  0
LINE
  5
449
330
33
100
AcDbEntity
  8
$TD_AUDIT_GENERATED_(27)
100
AcDbLine
 10
-25.55950886011124
 20
26.0
 30
0.0
 11
-26.0
 21
26.0
 31
0.0
  0
LINE
  5
44A
330
33
100
AcDbEntity
  8
$TD_AUDIT_GENERATED_(27)
100
AcDbLine
 10
-26.0
 20
26.0
 30
0.0
 11
-26.0
 21
20.99750346000713
 31
0.0
  0
LINE
  5
44B
330
33
100
AcDbEntity
  8
$TD_AUDIT_GENERATED_(27)
100
AcDbLine
 10
-101.0
 20
19.21134198904037
 30
0.0
 11
-101.0
 21
20.2
 31
0.0
  0
LINE
  5
44C
330
33
100
AcDbEntity
  8
$TD_AUDIT_GENERATED_(27)
100
AcDbLine
 10
-101.0
 20
20.2
 30
0.0
 11
-102.0
 21
19.2
 31
0.0
  0
LINE
  5
44D
330
33
100
AcDbEntity
  8
$TD_AUDIT_GENERATED_(27)
100
AcDbLine
 10
-102.0
 20
19.2
 30
0.0
 11
-102.0
 21
18.69999994566114
 31
0.0
  0
LINE
  5
44E
330
33
100
AcDbEntity
  8
$TD_AUDIT_GENERATED_(27)
100
AcDbLine
 10
-83.0
 20
20.16239852905273
 30
0.0
 11
-83.0
 21
21.2
 31
0.0
  0
LINE
  5
44F
330
33
100
AcDbEntity
  8
$TD_AUDIT_GENERATED_(27)
100
AcDbLine
 10
-83.0
 20
21.2
 30
0.0
 11
-101.0
 21
20.2
 31
0.0
  0
LINE
  5
450
330
33
100
AcDbEntity
  8
$TD_AUDIT_GENERATED_(27)
100
AcDbLine
 10
-101.0
 20
20.2
 30
0.0
 11
-101.0
 21
19.21134198904037
 31
0.0
  0
LINE
  5
451
330
33
100
AcDbEntity
  8
$TD_AUDIT_GENERATED_(27)
100
AcDbLine
 10
-69.0
 20
21.2
 30
0.0
 11
-83.0
 21
21.2
 31
0.0
  0
LINE
  5
452
330
33
100
AcDbEntity
  8
$TD_AUDIT_GENERATED_(27)
100
AcDbLine
 10
-83.0
 20
21.2
 30
0.0
 11
-83.0
 21
20.16239852905273
 31
0.0
  0
LINE
  5
453
330
33
100
AcDbEntity
  8
$TD_AUDIT_GENERATED_(27)
100
AcDbLine
 10
-29.95960898418248
 20
21.9
 30
0.0
 11
-41.00000000000002
 21
21.9
 31
0.0
  0
LINE
  5
454
330
33
100
AcDbEntity
  8
$TD_AUDIT_GENERATED_(27)
100
AcDbLine
 10
-101.0
 20
19.19403700017023
 30
0.0
 11
-101.0
 21
19.21134198904037
 31
0.0
  0
LINE
  5
455
330
33
100
AcDbEntity
  8
$TD_AUDIT_GENERATED_(27)
100
AcDbLine
 10
-83.0
 20
19.45690242385936
 30
0.0
 11
-83.0
 21
20.16239852905273
 31
0.0
  0
LINE
  5
456
330
33
100
AcDbEntity
  8
$TD_AUDIT_GENERATED_(27)
100
AcDbLine
 10
-101.0
 20
19.21134198904037
 30
0.0
 11
-101.0
 21
19.19403700017023
 31
0.0
  0
LINE
  5
457
330
33
100
AcDbEntity
  8
$TD_AUDIT_GENERATED_(27)
100
AcDbLine
 10
-83.0
 20
20.16239852905273
 30
0.0
 11
-83.0
 21
19.45690242385936
 31
0.0
  0
LINE
  5
458
330
33
100
AcDbEntity
  8
$TD_AUDIT_GENERATED_(27)
100
AcDbLine
 10
-41.00000000000001
 20
23.77641290737886
 30
0.0
 11
-41.00000000000001
 21
25.0
 31
0.0
  0
LINE
  5
459
330
33
100
AcDbEntity
  8
$TD_AUDIT_GENERATED_(27)
100
AcDbLine
 10
-41.0
 20
25.0
 30
0.0
 11
-49.0
 21
25.0
 31
0.0
  0
LINE
  5
45A
330
33
100
AcDbEntity
  8
$TD_AUDIT_GENERATED_(27)
100
AcDbLine
 10
-41.00000000000002
 20
20.45579126303446
 30
0.0
 11
-41.00000000000002
 21
23.77641290737886
 31
0.0
  0
LINE
  5
45B
330
33
100
AcDbEntity
  8
$TD_AUDIT_GENERATED_(27)
100
AcDbLine
 10
-49.00000000000001
 20
23.77641290737886
 30
0.0
 11
-49.00000000000001
 21
21.03183066940498
 31
0.0
  0
LINE
  5
45C
330
33
100
AcDbEntity
  8
$TD_AUDIT_GENERATED_(27)
100
AcDbLine
 10
-49.00000000000001
 20
21.03183066940498
 30
0.0
 11
-49.00000000000001
 21
25.99999696937271
 31
0.0
  0
LINE
  5
45D
330
33
100
AcDbEntity
  8
$TD_AUDIT_GENERATED_(27)
100
AcDbLine
 10
-49.0
 20
25.99999696937271
 30
0.0
 11
-69.0
 21
25.99999696937271
 31
0.0
  0
LINE
  5
45E
330
33
100
AcDbEntity
  8
$TD_AUDIT_GENERATED_(27)
100
AcDbLine
 10
-69.0
 20
25.99999696937273
 30
0.0
 11
-69.0
 21
21.03183066940497
 31
0.0
  0
LINE
  5
45F
330
33
100
AcDbEntity
  8
$TD_AUDIT_GENERATED_(27)
100
AcDbLine
 10
-102.0
 20
18.69999994566114
 30
0.0
 11
-102.0
 21
18.26028544902801
 31
0.0
  0
LINE
  5
460
330
33
100
AcDbEntity
  8
$TD_AUDIT_GENERATED_(27)
100
AcDbLine
 10
-101.0
 20
16.34214158058166
 30
0.0
 11
-101.0
 21
19.19403700017023
 31
0.0
  0
LINE
  5
461
330
33
100
AcDbEntity
  8
$TD_AUDIT_GENERATED_(27)
100
AcDbLine
 10
-102.0
 20
18.26028544902801
 30
0.0
 11
-102.0
 21
15.53312463760376
 31
0.0
  0
LINE
  5
462
330
33
100
AcDbEntity
  8
$TD_AUDIT_GENERATED_(27)
100
AcDbLine
 10
-83.0
 20
17.15115852355957
 30
0.0
 11
-83.0
 21
19.45690242385936
 31
0.0
  0
LINE
  5
463
330
33
100
AcDbEntity
  8
$TD_AUDIT_GENERATED_(27)
100
AcDbLine
 10
-101.0
 20
19.19403700017023
 30
0.0
 11
-101.0
 21
16.34214158058166
 31
0.0
  0
LINE
  5
464
330
33
100
AcDbEntity
  8
$TD_AUDIT_GENERATED_(27)
100
AcDbLine
 10
-83.0
 20
19.45690242385936
 30
0.0
 11
-83.0
 21
17.15115852355957
 31
0.0
  0
LINE
  5
465
330
33
100
AcDbEntity
  8
$TD_AUDIT_GENERATED_(27)
100
AcDbLine
 10
-101.0
 20
11.87325752973556
 30
0.0
 11
-101.0
 21
16.34214158058166
 31
0.0
  0
LINE
  5
466
330
33
100
AcDbEntity
  8
$TD_AUDIT_GENERATED_(27)
100
AcDbLine
 10
-102.0
 20
15.53312463760376
 30
0.0
 11
-102.0
 21
11.28547246456146
 31
0.0
  0
LINE
  5
467
330
33
100
AcDbEntity
  8
$TD_AUDIT_GENERATED_(27)
100
AcDbLine
 10
-83.0
 20
12.60485496188249
 30
0.0
 11
-83.0
 21
17.15115852355957
 31
0.0
  0
LINE
  5
468
330
33
100
AcDbEntity
  8
$TD_AUDIT_GENERATED_(27)
100
AcDbLine
 10
-101.0
 20
16.34214158058166
 30
0.0
 11
-101.0
 21
11.87325752973556
 31
0.0
  0
LINE
  5
469
330
33
100
AcDbEntity
  8
$TD_AUDIT_GENERATED_(27)
100
AcDbLine
 10
-83.0
 20
17.15115852355957
 30
0.0
 11
-83.0
 21
12.60485496188249
 31
0.0
  0
LINE
  5
46A
330
33
100
AcDbEntity
  8
$TD_AUDIT_GENERATED_(27)
100
AcDbLine
 10
-41.00000000000002
 20
20.22542485937371
 30
0.0
 11
-41.00000000000002
 21
20.45579126303446
 31
0.0
  0
LINE
  5
46B
330
33
100
AcDbEntity
  8
$TD_AUDIT_GENERATED_(27)
100
AcDbLine
 10
-41.00000000000002
 20
19.0781050101434
 30
0.0
 11
-41.00000000000002
 21
20.22542485937371
 31
0.0
  0
LINE
  5
46C
330
33
100
AcDbEntity
  8
$TD_AUDIT_GENERATED_(27)
100
AcDbLine
 10
-101.0
 20
9.835791403444514
 30
0.0
 11
-101.0
 21
11.87325752973556
 31
0.0
  0
LINE
  5
46D
330
33
100
AcDbEntity
  8
$TD_AUDIT_GENERATED_(27)
100
AcDbLine
 10
-102.0
 20
11.28547246456146
 30
0.0
 11
-102.0
 21
9.725950573257029
 31
0.0
  0
LINE
  5
46E
330
33
100
AcDbEntity
  8
$TD_AUDIT_GENERATED_(27)
100
AcDbLine
 10
-101.0
 20
11.87325752973556
 30
0.0
 11
-101.0
 21
9.835791403444514
 31
0.0
  0
LINE
  5
46F
330
33
100
AcDbEntity
  8
$TD_AUDIT_GENERATED_(27)
100
AcDbLine
 10
-49.00000000000001
 20
17.69162695355182
 30
0.0
 11
-49.00000000000001
 21
21.03183066940498
 31
0.0
  0
LINE
  5
470
330
33
100
AcDbEntity
  8
$TD_AUDIT_GENERATED_(27)
100
AcDbLine
 10
-69.0
 20
21.03183066940497
 30
0.0
 11
-69.0
 21
14.55770473906625
 31
0.0
  0
ENDBLK
  5
35
330
33
100
AcDbEntity
  8
$TD_AUDIT_GENERATED_(27)
100
AcDbBlockEnd
  0
ENDSEC
  0
SECTION
  2
ENTITIES
  0
INSERT
  5
32
330
1F
100
AcDbEntity
  8
$TD_AUDIT_GENERATED_(27)
  6
ByBlock
100
AcDbBlockReference
  2
(null)_Text26678
 10
-102.0
 20
-31.03124640026514
 30
0.0
  0
INSERT
  5
471
330
1F
100
AcDbEntity
  8
$TD_AUDIT_GENERATED_(27)
  6
ByBlock
100
AcDbBlockReference
  2
Block_Picture__26678
 10
0.0
 20
0.0
 30
0.0
  0
ENDSEC
  0
SECTION
  2
OBJECTS
  0
DICTIONARY
  5
1
330
0
100
AcDbDictionary
281
     1
  3
ACAD_GROUP
350
6
  3
ACAD_LAYOUT
350
B
  3
ACAD_MATERIAL
350
48C
  3
ACAD_MLEADERSTYLE
350
7
  3
ACAD_MLINESTYLE
350
9
  3
ACAD_PLOTSETTINGS
350
48B
  3
ACAD_PLOTSTYLENAME
350
2
  3
ACAD_SCALELIST
350
4
  3
ACAD_TABLESTYLE
350
8
  3
ACAD_VISUALSTYLE
350
472
  3
AcDbVariableDictionary
350
25
  3
DWGPROPS
350
49A
  0
DICTIONARY
  5
49B
330
E
100
AcDbDictionary
280
     1
281
     1
  3
ACAD_XREC_ROUNDTRIP
360
49C
  0
DICTIONARY
  5
6
102
{ACAD_REACTORS
330
1
102
}
330
1
100
AcDbDictionary
281
     1
  0
DICTIONARY
  5
B
102
{ACAD_REACTORS
330
1
102
}
330
1
100
AcDbDictionary
281
     1
  3
Layout1
350
D
  3
Model
350
C
  0
DICTIONARY
  5
48C
102
{ACAD_REACTORS
330
1
102
}
330
1
100
AcDbDictionary
281
     1
  3
ByBlock
350
48E
  3
ByLayer
350
48D
  3
Global
350
48F
  0
DICTIONARY
  5
7
102
{ACAD_REACTORS
330
1
102
}
330
1
100
AcDbDictionary
281
     1
  3
Standard
350
490
  0
DICTIONARY
  5
9
102
{ACAD_REACTORS
330
1
102
}
330
1
100
AcDbDictionary
281
     1
  3
Standard
350
A
  0
DICTIONARY
  5
48B
102
{ACAD_REACTORS
330
1
102
}
330
1
100
AcDbDictionary
281
     1
  0
ACDBDICTIONARYWDFLT
  5
2
102
{ACAD_REACTORS
330
1
102
}
330
1
100
AcDbDictionary
281
     1
  3
Normal
350
3
100
AcDbDictionaryWithDefault
340
3
  0
DICTIONARY
  5
4
102
{ACAD_REACTORS
330
1
102
}
330
1
100
AcDbDictionary
281
     1
  3
A0
350
5
  0
DICTIONARY
  5
8
102
{ACAD_REACTORS
330
1
102
}
330
1
100
AcDbDictionary
281
     1
  3
Standard
350
491
  0
DICTIONARY
  5
472
102
{ACAD_REACTORS
330
1
102
}
330
1
100
AcDbDictionary
281
     1
  3
2dWireframe
350
477
  3
Basic
350
47A
  3
Brighten
350
47E
  3
ColorChange
350
482
  3
Conceptual
350
47C
  3
Dim
350
47D
  3
EdgeColorOff
350
485
  3
Facepattern
350
481
  3
Flat
350
473
  3
FlatWithEdges
350
474
  3
Gouraud
350
475
  3
GouraudWithEdges
350
476
  3
Hidden
350
479
  3
JitterOff
350
483
  3
Linepattern
350
480
  3
OverhangOff
350
484
  3
Realistic
350
47B
  3
Shaded
350
48A
  3
Shaded with edges
350
489
  3
Shades of Gray
350
486
  3
Sketchy
350
487
  3
Thicken
350
47F
  3
Wireframe
350
478
  3
X-Ray
350
488
  0
DICTIONARY
  5
25
102
{ACAD_REACTORS
330
1
102
}
330
1
100
AcDbDictionary
281
     1
  3
CANNOSCALE
350
26
  3
CMLEADERSTYLE
350
493
  3
CTABLESTYLE
350
492
  3
DIMASSOC
350
498
  3
HIDETEXT
350
499
  3
MSLTSCALE
350
494
  3
XCLIPFRAME
350
495
  0
XRECORD
  5
49A
102
{ACAD_REACTORS
330
1
102
}
330
1
100
AcDbXrecord
280
     1
  1
DWGPROPS COOKIE
  2

  3

  4

  6

  7

  8
acae2
  9

300
=
301
=
302
=
303
=
304
=
305
=
306
=
307
=
308
=
309
=
 40
0.0
 41
2459772.000005301
 42
2460419.549009583
  1

 90
        0
  0
XRECORD
  5
49C
102
{ACAD_REACTORS
330
49B
102
}
330
49B
100
AcDbXrecord
280
     1
102
VTR_0.000_0.000_1.000_1.000_VISUALSTYLE
340
477
102
VTR_0.000_0.000_1.000_1.000_GRIDDISPLAY
 70
     3
102
VTR_0.000_0.000_1.000_1.000_GRIDMAJOR
 70
     5
102
VTR_0.000_0.000_1.000_1.000_DEFAULTLIGHTING
280
     1
102
VTR_0.000_0.000_1.000_1.000_DEFAULTLIGHTINGTYPE
 70
     1
102
VTR_0.000_0.000_1.000_1.000_BRIGHTNESS
141
0.0
102
VTR_0.000_0.000_1.000_1.000_CONTRAST
142
0.0
  0
LAYOUT
  5
D
102
{ACAD_REACTORS
330
B
102
}
330
B
100
AcDbPlotSettings
  1

  2
none_device
  4

  6

 40
0.0
 41
0.0
 42
0.0
 43
0.0
 44
0.0
 45
0.0
 46
0.0
 47
0.0
 48
0.0
 49
0.0
140
0.0
141
0.0
142
1.0
143
1.0
 70
   688
 72
     0
 73
     0
 74
     5
  7

 75
    16
147
1.0
148
0.0
149
0.0
100
AcDbLayout
  1
Layout1
 70
     1
 71
     1
 10
0.0
 20
0.0
 11
0.0
 21
0.0
 12
0.0
 22
0.0
 32
0.0
 14
0.0
 24
0.0
 34
0.0
 15
0.0
 25
0.0
 35
0.0
146
0.0
 13
0.0
 23
0.0
 33
0.0
 16
1.0
 26
0.0
 36
0.0
 17
0.0
 27
1.0
 37
0.0
 76
     0
330
22
  0
LAYOUT
  5
C
102
{ACAD_REACTORS
330
B
102
}
330
B
100
AcDbPlotSettings
  1

  2
none_device
  4

  6

 40
0.0
 41
0.0
 42
0.0
 43
0.0
 44
0.0
 45
0.0
 46
0.0
 47
0.0
 48
0.0
 49
0.0
140
0.0
141
0.0
142
1.0
143
1.0
 70
  1712
 72
     0
 73
     0
 74
     5
  7

 75
    16
147
1.0
148
0.0
149
0.0
100
AcDbLayout
  1
Model
 70
     1
 71
     0
 10
0.0
 20
0.0
 11
0.0
 21
0.0
 12
0.0
 22
0.0
 32
0.0
 14
0.0
 24
0.0
 34
0.0
 15
0.0
 25
0.0
 35
0.0
146
0.0
 13
0.0
 23
0.0
 33
0.0
 16
1.0
 26
0.0
 36
0.0
 17
0.0
 27
1.0
 37
0.0
 76
     0
330
1F
331
F
  0
MATERIAL
  5
48E
102
{ACAD_REACTORS
330
48C
102
}
102
{ACAD_XDICTIONARY
360
4D2
102
}
330
48C
100
AcDbMaterial
  1
ByBlock
  0
MATERIAL
  5
48D
102
{ACAD_REACTORS
330
48C
102
}
102
{ACAD_XDICTIONARY
360
4D0
102
}
330
48C
100
AcDbMaterial
  1
ByLayer
  0
MATERIAL
  5
48F
102
{ACAD_REACTORS
330
48C
102
}
102
{ACAD_XDICTIONARY
360
4D4
102
}
330
48C
100
AcDbMaterial
  1
Global
  0
MLEADERSTYLE
  5
490
102
{ACAD_REACTORS
330
7
102
}
102
{ACAD_XDICTIONARY
360
49E
102
}
330
7
100
AcDbMLeaderStyle
170
     2
171
     1
172
     0
 90
        2
 40
0.0
 41
0.0
173
     1
 91
-1056964608
340
19
 92
       -2
290
     1
 42
0.09
291
     1
 43
0.36
  3
Standard
341
0
 44
0.18
300

342
15
174
     1
178
     6
175
     1
176
     0
 93
-1056964608
 45
0.18
292
     0
297
     0
 46
0.18
343
0
 94
-1056964608
 47
1.0
 49
1.0
140
1.0
293
     1
141
0.0
294
     1
177
     0
142
1.0
295
     0
296
     0
143
0.125
1001
ACAD_MLEADERVER
1070
     2
  0
MLINESTYLE
  5
A
102
{ACAD_REACTORS
330
9
102
}
330
9
100
AcDbMlineStyle
  2
Standard
 70
     0
  3

 62
   256
 51
90.0
 52
90.0
 71
     2
 49
0.5
 62
   256
  6
BYLAYER
 49
-0.5
 62
   256
  6
BYLAYER
  0
ACDBPLACEHOLDER
  5
3
102
{ACAD_REACTORS
330
2
102
}
330
2
  0
SCALE
  5
5
102
{ACAD_REACTORS
330
4
102
}
330
4
100
AcDbScale
 70
     0
300
1:1
140
1.0
141
1.0
290
     0
  0
TABLESTYLE
  5
491
102
{ACAD_REACTORS
330
8
102
}
330
8
100
AcDbTableStyle
  3
Standard
 70
     0
 71
     0
 40
0.06
 41
0.06
280
     0
281
     0
  7
Standard
140
0.18
170
     2
 62
     0
 63
   257
283
     0
274
    -2
284
     1
 64
     0
275
    -2
285
     1
 65
     0
276
    -2
286
     1
 66
     0
277
    -2
287
     1
 67
     0
278
    -2
288
     1
 68
     0
279
    -2
289
     1
 69
     0
  7
Standard
140
0.25
170
     5
 62
     0
 63
   257
283
     0
274
    -2
284
     1
 64
     0
275
    -2
285
     1
 65
     0
276
    -2
286
     1
 66
     0
277
    -2
287
     1
 67
     0
278
    -2
288
     1
 68
     0
279
    -2
289
     1
 69
     0
  7
Standard
140
0.18
170
     5
 62
     0
 63
   257
283
     0
274
    -2
284
     1
 64
     0
275
    -2
285
     1
 65
     0
276
    -2
286
     1
 66
     0
277
    -2
287
     1
 67
     0
278
    -2
288
     1
 68
     0
279
    -2
289
     1
 69
     0
  0
VISUALSTYLE
  5
477
102
{ACAD_REACTORS
330
472
102
}
102
{ACAD_XDICTIONARY
360
4A8
102
}
330
472
100
AcDbVisualStyle
  2
2dWireframe
 70
     4
 71
     0
 72
     2
 73
     0
 90
        0
 40
0.6
 41
30.0
 62
     5
 63
     7
 74
     1
 91
        4
 64
     7
 65
   257
 75
     1
175
     1
 42
1.0
 92
        0
 66
   257
 43
1.0
 76
     1
 77
     6
 78
     2
 67
     7
 79
     5
170
     0
171
     0
290
     0
174
     0
 93
        1
 44
0.0
173
     0
291
     0
 45
0.0
1001
ACAD
1000
AcDbSavedByObjectVersion
1070
     0
  0
VISUALSTYLE
  5
47A
102
{ACAD_REACTORS
330
472
102
}
102
{ACAD_XDICTIONARY
360
4AE
102
}
330
472
100
AcDbVisualStyle
  2
Basic
 70
     7
 71
     1
 72
     0
 73
     1
 90
        0
 40
0.6
 41
30.0
 62
     5
 63
     7
 74
     0
 91
        4
 64
     7
 65
   257
 75
     1
175
     1
 42
1.0
 92
        8
 66
     7
 43
1.0
 76
     1
 77
     6
 78
     2
 67
     7
 79
     5
170
     0
171
     0
290
     0
174
     0
 93
        1
 44
0.0
173
     0
291
     1
 45
0.0
1001
ACAD
1000
AcDbSavedByObjectVersion
1070
     0
  0
VISUALSTYLE
  5
47E
102
{ACAD_REACTORS
330
472
102
}
102
{ACAD_XDICTIONARY
360
4B6
102
}
330
472
100
AcDbVisualStyle
  2
Brighten
 70
    12
 71
     2
 72
     2
 73
     0
 90
        0
 40
0.6
 41
30.0
 62
     5
 63
     7
 74
     1
 91
        4
 64
     7
 65
   257
 75
     1
175
     1
 42
1.0
 92
        8
 66
     7
 43
1.0
 76
     1
 77
     6
 78
     2
 67
     7
 79
     5
170
     0
171
     0
290
     0
174
     0
 93
        1
 44
50.0
173
     0
291
     1
 45
0.0
1001
ACAD
1000
AcDbSavedByObjectVersion
1070
     0
  0
VISUALSTYLE
  5
482
102
{ACAD_REACTORS
330
472
102
}
102
{ACAD_XDICTIONARY
360
4BE
102
}
330
472
100
AcDbVisualStyle
  2
ColorChange
 70
    16
 71
     2
 72
     2
 73
     3
 90
        0
 40
0.6
 41
30.0
 62
     5
 63
     8
 74
     1
 91
        4
 64
     7
 65
   257
 75
     1
175
     1
 42
1.0
 92
        8
 66
     8
 43
1.0
 76
     1
 77
     6
 78
     2
 67
     7
 79
     5
170
     0
171
     0
290
     0
174
     0
 93
        1
 44
0.0
173
     0
291
     1
 45
0.0
1001
ACAD
1000
AcDbSavedByObjectVersion
1070
     0
  0
VISUALSTYLE
  5
47C
102
{ACAD_REACTORS
330
472
102
}
102
{ACAD_XDICTIONARY
360
4B2
102
}
330
472
100
AcDbVisualStyle
  2
Conceptual
 70
     9
 71
     3
 72
     2
 73
     0
 90
        0
 40
0.6
 41
30.0
 62
     5
 63
     7
 74
     2
 91
        2
 64
     7
 65
   257
 75
     1
175
     1
 42
179.0
 92
        8
 66
     7
 43
1.0
 76
     1
 77
     6
 78
     2
 67
     7
 79
     3
170
     0
171
     0
290
     0
174
     0
 93
        1
 44
0.0
173
     0
291
     0
 45
0.0
1001
ACAD
1000
AcDbSavedByObjectVersion
1070
     0
  0
VISUALSTYLE
  5
47D
102
{ACAD_REACTORS
330
472
102
}
102
{ACAD_XDICTIONARY
360
4B4
102
}
330
472
100
AcDbVisualStyle
  2
Dim
 70
    11
 71
     2
 72
     2
 73
     0
 90
        0
 40
0.6
 41
30.0
 62
     5
 63
     7
 74
     1
 91
        4
 64
     7
 65
   257
 75
     1
175
     1
 42
1.0
 92
        8
 66
     7
 43
1.0
 76
     1
 77
     6
 78
     2
 67
     7
 79
     5
170
     0
171
     0
290
     0
174
     0
 93
        1
 44
-50.0
173
     0
291
     1
 45
0.0
1001
ACAD
1000
AcDbSavedByObjectVersion
1070
     0
  0
VISUALSTYLE
  5
485
102
{ACAD_REACTORS
330
472
102
}
102
{ACAD_XDICTIONARY
360
4C4
102
}
330
472
100
AcDbVisualStyle
  2
EdgeColorOff
 70
    22
 71
     2
 72
     2
 73
     0
 90
        0
 40
0.6
 41
30.0
 62
     5
 63
     7
 74
     1
 91
        4
 64
     7
 65
   257
 75
     1
175
     1
 42
1.0
 92
        8
 66
     7
 43
1.0
 76
     1
 77
     6
 78
     2
 67
     7
 79
     5
170
     0
171
     0
290
     0
174
     0
 93
        1
 44
0.0
173
     0
291
     1
 45
0.0
1001
ACAD
1000
AcDbSavedByObjectVersion
1070
     0
  0
VISUALSTYLE
  5
481
102
{ACAD_REACTORS
330
472
102
}
102
{ACAD_XDICTIONARY
360
4BC
102
}
330
472
100
AcDbVisualStyle
  2
Facepattern
 70
    15
 71
     2
 72
     2
 73
     0
 90
        0
 40
0.6
 41
30.0
 62
     5
 63
     7
 74
     1
 91
        4
 64
     7
 65
   257
 75
     1
175
     1
 42
1.0
 92
        8
 66
     7
 43
1.0
 76
     1
 77
     6
 78
     2
 67
     7
 79
     5
170
     0
171
     0
290
     0
174
     0
 93
        1
 44
0.0
173
     0
291
     1
 45
0.0
1001
ACAD
1000
AcDbSavedByObjectVersion
1070
     0
  0
VISUALSTYLE
  5
473
102
{ACAD_REACTORS
330
472
102
}
102
{ACAD_XDICTIONARY
360
4A0
102
}
330
472
100
AcDbVisualStyle
  2
Flat
 70
     0
 71
     2
 72
     1
 73
     1
 90
        2
 40
0.6
 41
30.0
 62
     5
 63
     7
 74
     0
 91
        0
 64
     7
 65
   257
 75
     1
175
     1
 42
1.0
 92
        8
 66
     7
 43
1.0
 76
     1
 77
     6
 78
     2
 67
     7
 79
     5
170
     0
171
     0
290
     0
174
     0
 93
       13
 44
0.0
173
     0
291
     1
 45
0.0
1001
ACAD
1000
AcDbSavedByObjectVersion
1070
     0
  0
VISUALSTYLE
  5
474
102
{ACAD_REACTORS
330
472
102
}
102
{ACAD_XDICTIONARY
360
4A2
102
}
330
472
100
AcDbVisualStyle
  2
FlatWithEdges
 70
     1
 71
     2
 72
     1
 73
     1
 90
        2
 40
0.6
 41
30.0
 62
     5
 63
     7
 74
     1
 91
        0
 64
     7
 65
   257
 75
     1
175
     1
 42
1.0
 92
        0
 66
   257
 43
1.0
 76
     1
 77
     6
 78
     2
 67
     7
 79
     5
170
     0
171
     0
290
     0
174
     0
 93
       13
 44
0.0
173
     0
291
     1
 45
0.0
1001
ACAD
1000
AcDbSavedByObjectVersion
1070
     0
  0
VISUALSTYLE
  5
475
102
{ACAD_REACTORS
330
472
102
}
102
{ACAD_XDICTIONARY
360
4A4
102
}
330
472
100
AcDbVisualStyle
  2
Gouraud
 70
     2
 71
     2
 72
     2
 73
     1
 90
        2
 40
0.6
 41
30.0
 62
     5
 63
     7
 74
     0
 91
        0
 64
     7
 65
   257
 75
     1
175
     1
 42
1.0
 92
        0
 66
     7
 43
1.0
 76
     1
 77
     6
 78
     2
 67
     7
 79
     5
170
     0
171
     0
290
     0
174
     0
 93
       13
 44
0.0
173
     0
291
     1
 45
0.0
1001
ACAD
1000
AcDbSavedByObjectVersion
1070
     0
  0
VISUALSTYLE
  5
476
102
{ACAD_REACTORS
330
472
102
}
102
{ACAD_XDICTIONARY
360
4A6
102
}
330
472
100
AcDbVisualStyle
  2
GouraudWithEdges
 70
     3
 71
     2
 72
     2
 73
     1
 90
        2
 40
0.6
 41
30.0
 62
     5
 63
     7
 74
     1
 91
        0
 64
     7
 65
   257
 75
     1
175
     1
 42
1.0
 92
        0
 66
   257
 43
1.0
 76
     1
 77
     6
 78
     2
 67
     7
 79
     5
170
     0
171
     0
290
     0
174
     0
 93
       13
 44
0.0
173
     0
291
     1
 45
0.0
1001
ACAD
1000
AcDbSavedByObjectVersion
1070
     0
  0
VISUALSTYLE
  5
479
102
{ACAD_REACTORS
330
472
102
}
102
{ACAD_XDICTIONARY
360
4AC
102
}
330
472
100
AcDbVisualStyle
  2
Hidden
 70
     6
 71
     1
 72
     2
 73
     2
 90
        0
 40
0.6
 41
30.0
 62
     5
 63
     7
 74
     2
 91
        2
 64
     7
 65
   257
 75
     2
175
     1
 42
40.0
 92
        0
 66
   257
 43
1.0
 76
     1
 77
     6
 78
     2
 67
     7
 79
     3
170
     0
171
     0
290
     0
174
     0
 93
        1
 44
0.0
173
     0
291
     0
 45
0.0
1001
ACAD
1000
AcDbSavedByObjectVersion
1070
     0
  0
VISUALSTYLE
  5
483
102
{ACAD_REACTORS
330
472
102
}
102
{ACAD_XDICTIONARY
360
4C0
102
}
330
472
100
AcDbVisualStyle
  2
JitterOff
 70
    20
 71
     2
 72
     2
 73
     0
 90
        0
 40
0.6
 41
30.0
 62
     5
 63
     7
 74
     1
 91
        4
 64
     7
 65
   257
 75
     1
175
     1
 42
1.0
 92
       10
 66
     7
 43
1.0
 76
     1
 77
     6
 78
     2
 67
     7
 79
     5
170
     0
171
     0
290
     0
174
     0
 93
        1
 44
0.0
173
     0
291
     1
 45
0.0
1001
ACAD
1000
AcDbSavedByObjectVersion
1070
     0
  0
VISUALSTYLE
  5
480
102
{ACAD_REACTORS
330
472
102
}
102
{ACAD_XDICTIONARY
360
4BA
102
}
330
472
100
AcDbVisualStyle
  2
Linepattern
 70
    14
 71
     2
 72
     2
 73
     0
 90
        0
 40
0.6
 41
30.0
 62
     5
 63
     7
 74
     1
 91
        4
 64
     7
 65
   257
 75
     7
175
     7
 42
1.0
 92
        8
 66
     7
 43
1.0
 76
     1
 77
     6
 78
     2
 67
     7
 79
     5
170
     0
171
     0
290
     0
174
     0
 93
        1
 44
0.0
173
     0
291
     1
 45
0.0
1001
ACAD
1000
AcDbSavedByObjectVersion
1070
     0
  0
VISUALSTYLE
  5
484
102
{ACAD_REACTORS
330
472
102
}
102
{ACAD_XDICTIONARY
360
4C2
102
}
330
472
100
AcDbVisualStyle
  2
OverhangOff
 70
    21
 71
     2
 72
     2
 73
     0
 90
        0
 40
0.6
 41
30.0
 62
     5
 63
     7
 74
     1
 91
        4
 64
     7
 65
   257
 75
     1
175
     1
 42
1.0
 92
        9
 66
     7
 43
1.0
 76
     1
 77
     6
 78
     2
 67
     7
 79
     5
170
     0
171
     0
290
     0
174
     0
 93
        1
 44
0.0
173
     0
291
     1
 45
0.0
1001
ACAD
1000
AcDbSavedByObjectVersion
1070
     0
  0
VISUALSTYLE
  5
47B
102
{ACAD_REACTORS
330
472
102
}
102
{ACAD_XDICTIONARY
360
4B0
102
}
330
472
100
AcDbVisualStyle
  2
Realistic
 70
     8
 71
     2
 72
     3
 73
     0
 90
        2
 40
0.6
 41
30.0
 62
     5
 63
     7
 74
     0
 91
        0
 64
     7
 65
   257
 75
     1
175
     1
 42
1.0
 92
        8
 66
   257
 43
1.0
 76
     1
 77
     6
 78
     2
 67
     7
 79
     3
170
     0
171
     0
290
     0
174
     0
 93
       13
 44
0.0
173
     0
291
     0
 45
0.0
1001
ACAD
1000
AcDbSavedByObjectVersion
1070
     0
  0
VISUALSTYLE
  5
48A
102
{ACAD_REACTORS
330
472
102
}
102
{ACAD_XDICTIONARY
360
4CE
102
}
330
472
100
AcDbVisualStyle
  2
Shaded
 70
    27
 71
     2
 72
     2
 73
     1
 90
        2
 40
0.6
 41
30.0
 62
     5
 63
     7
 74
     0
 91
        4
 64
     7
 65
   257
 75
     1
175
     1
 42
1.0
 92
        8
 66
   257
 43
1.0
 76
     1
 77
     6
 78
     2
 67
     8
 79
     3
170
     0
171
     0
290
     0
174
     0
 93
        5
 44
0.0
173
     0
291
     0
 45
0.0
1001
ACAD
1000
AcDbSavedByObjectVersion
1070
     0
  0
VISUALSTYLE
  5
489
102
{ACAD_REACTORS
330
472
102
}
102
{ACAD_XDICTIONARY
360
4CC
102
}
330
472
100
AcDbVisualStyle
  2
Shaded with edges
 70
    26
 71
     2
 72
     2
 73
     1
 90
        2
 40
0.6
 41
30.0
 62
     5
 63
     7
 74
     1
 91
       10
 64
     7
 65
   257
 75
     2
175
     1
 42
1.0
 92
        8
 66
   257
 43
1.0
 76
     1
 77
     6
 78
     2
 67
     7
 79
     3
170
     0
171
     0
290
     0
174
     0
 93
        5
 44
0.0
173
     0
291
     0
 45
0.0
1001
ACAD
1000
AcDbSavedByObjectVersion
1070
     0
  0
VISUALSTYLE
  5
486
102
{ACAD_REACTORS
330
472
102
}
102
{ACAD_XDICTIONARY
360
4C6
102
}
330
472
100
AcDbVisualStyle
  2
Shades of Gray
 70
    23
 71
     2
 72
     2
 73
     3
 90
        0
 40
0.6
 41
30.0
 62
     5
 63
     7
 74
     2
 91
        2
 64
     7
 65
     7
 75
     1
175
     1
 42
40.0
 92
        8
 66
     7
 43
1.0
 76
     1
 77
     6
 78
     2
 67
     7
 79
     3
170
     0
171
     0
290
     0
174
     0
 93
        1
 44
0.0
173
     0
291
     0
 45
0.0
1001
ACAD
1000
AcDbSavedByObjectVersion
1070
     0
  0
VISUALSTYLE
  5
487
102
{ACAD_REACTORS
330
472
102
}
102
{ACAD_XDICTIONARY
360
4C8
102
}
330
472
100
AcDbVisualStyle
  2
Sketchy
 70
    24
 71
     1
 72
     2
 73
     2
 90
        0
 40
0.6
 41
30.0
 62
     5
 63
     7
 74
     2
 91
        2
 64
     7
 65
     7
 75
     1
175
     1
 42
40.0
 92
       11
 66
     7
 43
1.0
 76
     1
 77
     6
 78
     2
 67
     7
 79
     6
170
     0
171
     0
290
     0
174
     0
 93
        1
 44
0.0
173
     0
291
     0
 45
0.0
1001
ACAD
1000
AcDbSavedByObjectVersion
1070
     0
  0
VISUALSTYLE
  5
47F
102
{ACAD_REACTORS
330
472
102
}
102
{ACAD_XDICTIONARY
360
4B8
102
}
330
472
100
AcDbVisualStyle
  2
Thicken
 70
    13
 71
     2
 72
     2
 73
     0
 90
        0
 40
0.6
 41
30.0
 62
     5
 63
     7
 74
     1
 91
        4
 64
     7
 65
   257
 75
     1
175
     1
 42
1.0
 92
       12
 66
     7
 43
1.0
 76
     1
 77
     6
 78
     2
 67
     7
 79
     5
170
     0
171
     0
290
     0
174
     0
 93
        1
 44
0.0
173
     0
291
     1
 45
0.0
1001
ACAD
1000
AcDbSavedByObjectVersion
1070
     0
  0
VISUALSTYLE
  5
478
102
{ACAD_REACTORS
330
472
102
}
102
{ACAD_XDICTIONARY
360
4AA
102
}
330
472
100
AcDbVisualStyle
  2
Wireframe
 70
     5
 71
     0
 72
     2
 73
     0
 90
        0
 40
0.6
 41
30.0
 62
     5
 63
     7
 74
     1
 91
        4
 64
     7
 65
   257
 75
     1
175
     1
 42
1.0
 92
        0
 66
   257
 43
1.0
 76
     1
 77
     6
 78
     2
 67
     7
 79
     3
170
     0
171
     0
290
     0
174
     0
 93
        1
 44
0.0
173
     0
291
     0
 45
0.0
1001
ACAD
1000
AcDbSavedByObjectVersion
1070
     0
  0
VISUALSTYLE
  5
488
102
{ACAD_REACTORS
330
472
102
}
102
{ACAD_XDICTIONARY
360
4CA
102
}
330
472
100
AcDbVisualStyle
  2
X-Ray
 70
    25
 71
     2
 72
     2
 73
     1
 90
        1
 40
0.5
 41
30.0
 62
     5
 63
     7
 74
     1
 91
        0
 64
     7
 65
   257
 75
     1
175
     1
 42
1.0
 92
        8
 66
     7
 43
1.0
 76
     1
 77
     6
 78
     2
 67
     7
 79
     3
170
     0
171
     0
290
     0
174
     0
 93
       13
 44
0.0
173
     0
291
     0
 45
0.0
1001
ACAD
1000
AcDbSavedByObjectVersion
1070
     0
  0
DICTIONARYVAR
  5
26
102
{ACAD_REACTORS
330
25
102
}
330
25
100
DictionaryVariables
280
     0
  1
1:1
  0
DICTIONARYVAR
  5
493
102
{ACAD_REACTORS
330
25
102
}
330
25
100
DictionaryVariables
280
     0
  1
Standard
  0
DICTIONARYVAR
  5
492
102
{ACAD_REACTORS
330
25
102
}
330
25
100
DictionaryVariables
280
     0
  1
Standard
  0
DICTIONARYVAR
  5
498
102
{ACAD_REACTORS
330
25
102
}
330
25
100
DictionaryVariables
280
     0
  1
2
  0
DICTIONARYVAR
  5
499
102
{ACAD_REACTORS
330
25
102
}
330
25
100
DictionaryVariables
280
     0
  1
1
  0
DICTIONARYVAR
  5
494
102
{ACAD_REACTORS
330
25
102
}
330
25
100
DictionaryVariables
280
     0
  1
0
  0
DICTIONARYVAR
  5
495
102
{ACAD_REACTORS
330
25
102
}
330
25
100
DictionaryVariables
280
     0
  1
0
  0
DICTIONARY
  5
4D2
330
48E
100
AcDbDictionary
280
     1
281
     1
  3
ACAD_XREC_ROUNDTRIP
360
4D3
  0
DICTIONARY
  5
4D0
330
48D
100
AcDbDictionary
280
     1
281
     1
  3
ACAD_XREC_ROUNDTRIP
360
4D1
  0
DICTIONARY
  5
4D4
330
48F
100
AcDbDictionary
280
     1
281
     1
  3
ACAD_XREC_ROUNDTRIP
360
4D5
  0
DICTIONARY
  5
49E
330
490
100
AcDbDictionary
280
     1
281
     1
  3
ACAD_XREC_ROUNDTRIP
360
49F
  0
DICTIONARY
  5
4A8
330
477
100
AcDbDictionary
280
     1
281
     1
  3
ACAD_XREC_ROUNDTRIP
360
4A9
  0
DICTIONARY
  5
4AE
330
47A
100
AcDbDictionary
280
     1
281
     1
  3
ACAD_XREC_ROUNDTRIP
360
4AF
  0
DICTIONARY
  5
4B6
330
47E
100
AcDbDictionary
280
     1
281
     1
  3
ACAD_XREC_ROUNDTRIP
360
4B7
  0
DICTIONARY
  5
4BE
330
482
100
AcDbDictionary
280
     1
281
     1
  3
ACAD_XREC_ROUNDTRIP
360
4BF
  0
DICTIONARY
  5
4B2
330
47C
100
AcDbDictionary
280
     1
281
     1
  3
ACAD_XREC_ROUNDTRIP
360
4B3
  0
DICTIONARY
  5
4B4
330
47D
100
AcDbDictionary
280
     1
281
     1
  3
ACAD_XREC_ROUNDTRIP
360
4B5
  0
DICTIONARY
  5
4C4
330
485
100
AcDbDictionary
280
     1
281
     1
  3
ACAD_XREC_ROUNDTRIP
360
4C5
  0
DICTIONARY
  5
4BC
330
481
100
AcDbDictionary
280
     1
281
     1
  3
ACAD_XREC_ROUNDTRIP
360
4BD
  0
DICTIONARY
  5
4A0
330
473
100
AcDbDictionary
280
     1
281
     1
  3
ACAD_XREC_ROUNDTRIP
360
4A1
  0
DICTIONARY
  5
4A2
330
474
100
AcDbDictionary
280
     1
281
     1
  3
ACAD_XREC_ROUNDTRIP
360
4A3
  0
DICTIONARY
  5
4A4
330
475
100
AcDbDictionary
280
     1
281
     1
  3
ACAD_XREC_ROUNDTRIP
360
4A5
  0
DICTIONARY
  5
4A6
330
476
100
AcDbDictionary
280
     1
281
     1
  3
ACAD_XREC_ROUNDTRIP
360
4A7
  0
DICTIONARY
  5
4AC
330
479
100
AcDbDictionary
280
     1
281
     1
  3
ACAD_XREC_ROUNDTRIP
360
4AD
  0
DICTIONARY
  5
4C0
330
483
100
AcDbDictionary
280
     1
281
     1
  3
ACAD_XREC_ROUNDTRIP
360
4C1
  0
DICTIONARY
  5
4BA
330
480
100
AcDbDictionary
280
     1
281
     1
  3
ACAD_XREC_ROUNDTRIP
360
4BB
  0
DICTIONARY
  5
4C2
330
484
100
AcDbDictionary
280
     1
281
     1
  3
ACAD_XREC_ROUNDTRIP
360
4C3
  0
DICTIONARY
  5
4B0
330
47B
100
AcDbDictionary
280
     1
281
     1
  3
ACAD_XREC_ROUNDTRIP
360
4B1
  0
DICTIONARY
  5
4CE
330
48A
100
AcDbDictionary
280
     1
281
     1
  3
ACAD_XREC_ROUNDTRIP
360
4CF
  0
DICTIONARY
  5
4CC
330
489
100
AcDbDictionary
280
     1
281
     1
  3
ACAD_XREC_ROUNDTRIP
360
4CD
  0
DICTIONARY
  5
4C6
330
486
100
AcDbDictionary
280
     1
281
     1
  3
ACAD_XREC_ROUNDTRIP
360
4C7
  0
DICTIONARY
  5
4C8
330
487
100
AcDbDictionary
280
     1
281
     1
  3
ACAD_XREC_ROUNDTRIP
360
4C9
  0
DICTIONARY
  5
4B8
330
47F
100
AcDbDictionary
280
     1
281
     1
  3
ACAD_XREC_ROUNDTRIP
360
4B9
  0
DICTIONARY
  5
4AA
330
478
100
AcDbDictionary
280
     1
281
     1
  3
ACAD_XREC_ROUNDTRIP
360
4AB
  0
DICTIONARY
  5
4CA
330
488
100
AcDbDictionary
280
     1
281
     1
  3
ACAD_XREC_ROUNDTRIP
360
4CB
  0
XRECORD
  5
4D3
102
{ACAD_REACTORS
330
4D2
102
}
330
4D2
100
AcDbXrecord
280
     1
102
MATERIAL
148
0.0
149
0.0
149
0.0
 93
        0
 94
      127
282
     0
 72
     1
 77
     1
171
     1
175
     1
179
     1
273
     0
  0
XRECORD
  5
4D1
102
{ACAD_REACTORS
330
4D0
102
}
330
4D0
100
AcDbXrecord
280
     1
102
MATERIAL
148
0.0
149
0.0
149
0.0
 93
        0
 94
      127
282
     0
 72
     1
 77
     1
171
     1
175
     1
179
     1
273
     0
  0
XRECORD
  5
4D5
102
{ACAD_REACTORS
330
4D4
102
}
330
4D4
100
AcDbXrecord
280
     1
102
MATERIAL
148
0.0
149
0.0
149
0.0
 93
        0
 94
      127
282
     0
 72
     1
 77
     1
171
     1
175
     1
179
     1
273
     0
  0
XRECORD
  5
49F
102
{ACAD_REACTORS
330
49E
102
}
330
49E
100
AcDbXrecord
280
     1
102
ACAD_ROUNDTRIP_2010_MLEADER_STYLE
  0
XRECORD
  5
4A9
102
{ACAD_REACTORS
330
4A8
102
}
330
4A8
100
AcDbXrecord
280
     1
102
RTVSPropertyOp0
 70
     1
102
RTVSPropertyOp1
 70
     1
102
RTVSPropertyOp2
 70
     1
102
RTVSPropertyOp3
 70
     1
102
RTVSPropertyOp4
 70
     1
102
RTVSPropertyOp5
 70
     1
102
RTVSPropertyOp6
 70
     1
102
RTVSPropertyOp7
 70
     1
102
RTVSPropertyOp8
 70
     1
102
RTVSPropertyOp9
 70
     1
102
RTVSPropertyOp10
 70
     1
102
RTVSPropertyOp11
 70
     1
102
RTVSPropertyOp12
 70
     1
102
RTVSPropertyOp13
 70
     1
102
RTVSPropertyOp14
 70
     1
102
RTVSPropertyOp15
 70
     1
102
RTVSPropertyOp16
 70
     1
102
RTVSPropertyOp17
 70
     1
102
RTVSPropertyOp18
 70
     1
102
RTVSPropertyOp19
 70
     1
102
RTVSPropertyOp20
 70
     1
102
RTVSPropertyOp21
 70
     1
102
RTVSPropertyOp22
 70
     1
102
RTVSPropertyOp23
 70
     1
102
RTVSPropertyOp24
 70
     1
102
RTVSPropertyOp25
 70
     1
102
RTVSPropertyOp26
 70
     1
102
RTVSPropertyOp27
 70
     1
102
RTVSPropertyOp28
 70
     1
102
RTVSPropertyOp29
 70
     1
102
RTVSPropertyOp30
 70
     1
102
RTVSPropertyOp31
 70
     1
102
RTVSPropertyOp32
 70
     1
102
RTVSPropertyOp33
 70
     1
102
RTVSPropertyOp34
 70
     1
102
RTVSPropertyOp35
 70
     1
102
RTVSPropertyOp36
 70
     1
102
RTVSPropertyOp37
 70
     1
102
RTVSPropertyOp38
 70
     1
102
RTVSPropertyOp39
 70
     1
102
RTVSPropertyOp40
 70
     1
102
RTVSPropertyOp41
 70
     1
102
RTVSPropertyOp42
 70
     1
102
RTVSPropertyOp43
 70
     1
102
RTVSPropertyOp44
 70
     1
102
RTVSPropertyOp45
 70
     1
102
RTVSPropertyOp46
 70
     1
102
RTVSPropertyOp47
 70
     1
102
RTVSPropertyOp48
 70
     1
102
RTVSPropertyOp49
 70
     1
102
RTVSPropertyOp50
 70
     1
102
RTVSPropertyOp51
 70
     0
102
RTVSPropertyOp52
 70
     0
102
RTVSPropertyOp53
 70
     1
102
RTVSPropertyOp54
 70
     1
102
RTVSPropertyOp55
 70
     1
102
RTVSPropertyOp56
 70
     1
102
RTVSPropertyOp57
 70
     1
102
RTVSPost2010Prop28
280
     1
102
RTVSPost2010PropOp28
 70
     1
102
RTVSPost2010Prop29
280
     1
102
RTVSPost2010PropOp29
 70
     1
102
RTVSPost2010Prop30
280
     0
102
RTVSPost2010PropOp30
 70
     1
102
RTVSPost2010Prop31
280
     0
102
RTVSPost2010PropOp31
 70
     1
102
RTVSPost2010Prop32
280
     0
102
RTVSPost2010PropOp32
 70
     1
102
RTVSPost2010Prop33
280
     0
102
RTVSPost2010PropOp33
 70
     1
102
RTVSPost2010Prop34
280
     0
102
RTVSPost2010PropOp34
 70
     1
102
RTVSPost2010Prop35
280
     0
102
RTVSPost2010PropOp35
 70
     1
102
RTVSPost2010Prop36
280
     0
102
RTVSPost2010PropOp36
 70
     1
102
RTVSPost2010Prop37
 90
       50
102
RTVSPost2010PropOp37
 70
     1
102
RTVSPost2010Prop38
140
0.0
102
RTVSPost2010PropOp38
 70
     1
102
RTVSPost2010Prop39
140
1.0
102
RTVSPost2010PropOp39
 70
     1
102
RTVSPost2010Prop40
 90
        0
102
RTVSPost2010PropOp40
 70
     1
102
RTVSPost2010Prop41ColorIndex
 90
       18
102
RTVSPost2010Prop41ColorRGB
 90
        0
102
RTVSPost2010PropOp41
 70
     1
102
RTVSPost2010Prop42
 90
       50
102
RTVSPost2010PropOp42
 70
     1
102
RTVSPost2010Prop43
 90
        3
102
RTVSPost2010PropOp43
 70
     1
102
RTVSPost2010Prop44ColorIndex
 90
        5
102
RTVSPost2010Prop44ColorRGB
 90
      255
102
RTVSPost2010PropOp44
 70
     1
102
RTVSPost2010Prop45
280
     0
102
RTVSPost2010PropOp45
 70
     1
102
RTVSPost2010Prop46
 90
       50
102
RTVSPost2010PropOp46
 70
     1
102
RTVSPost2010Prop47
 90
       50
102
RTVSPost2010PropOp47
 70
     1
102
RTVSPost2010Prop48
 90
       50
102
RTVSPost2010PropOp48
 70
     1
102
RTVSPost2010Prop49
280
     0
102
RTVSPost2010PropOp49
 70
     1
102
RTVSPost2010Prop50
 90
       50
102
RTVSPost2010PropOp50
 70
     1
102
RTVSPost2010Prop51ColorIndex
 90
      256
102
RTVSPost2010Prop51ColorRGB
 90
-16777216
102
RTVSPost2010PropOp51
 70
     0
102
RTVSPost2010Prop52
140
1.0
102
RTVSPost2010PropOp52
 70
     0
102
RTVSPost2010Prop53
 90
        2
102
RTVSPost2010PropOp53
 70
     1
102
RTVSPost2010Prop54
  1
strokes_ogs.tif
102
RTVSPost2010PropOp54
 70
     1
102
RTVSPost2010Prop55
280
     0
102
RTVSPost2010PropOp55
 70
     1
102
RTVSPost2010Prop56
140
1.0
102
RTVSPost2010PropOp56
 70
     1
102
RTVSPost2010Prop57
140
1.0
102
RTVSPost2010PropOp57
 70
     1
  0
XRECORD
  5
4AF
102
{ACAD_REACTORS
330
4AE
102
}
330
4AE
100
AcDbXrecord
280
     1
102
RTVSPropertyOp0
 70
     1
102
RTVSPropertyOp1
 70
     1
102
RTVSPropertyOp2
 70
     1
102
RTVSPropertyOp3
 70
     1
102
RTVSPropertyOp4
 70
     1
102
RTVSPropertyOp5
 70
     1
102
RTVSPropertyOp6
 70
     1
102
RTVSPropertyOp7
 70
     1
102
RTVSPropertyOp8
 70
     1
102
RTVSPropertyOp9
 70
     1
102
RTVSPropertyOp10
 70
     1
102
RTVSPropertyOp11
 70
     1
102
RTVSPropertyOp12
 70
     1
102
RTVSPropertyOp13
 70
     1
102
RTVSPropertyOp14
 70
     1
102
RTVSPropertyOp15
 70
     1
102
RTVSPropertyOp16
 70
     1
102
RTVSPropertyOp17
 70
     1
102
RTVSPropertyOp18
 70
     1
102
RTVSPropertyOp19
 70
     1
102
RTVSPropertyOp20
 70
     1
102
RTVSPropertyOp21
 70
     1
102
RTVSPropertyOp22
 70
     1
102
RTVSPropertyOp23
 70
     1
102
RTVSPropertyOp24
 70
     1
102
RTVSPropertyOp25
 70
     1
102
RTVSPropertyOp26
 70
     1
102
RTVSPropertyOp27
 70
     1
102
RTVSPropertyOp28
 70
     1
102
RTVSPropertyOp29
 70
     1
102
RTVSPropertyOp30
 70
     1
102
RTVSPropertyOp31
 70
     1
102
RTVSPropertyOp32
 70
     1
102
RTVSPropertyOp33
 70
     1
102
RTVSPropertyOp34
 70
     1
102
RTVSPropertyOp35
 70
     1
102
RTVSPropertyOp36
 70
     1
102
RTVSPropertyOp37
 70
     1
102
RTVSPropertyOp38
 70
     1
102
RTVSPropertyOp39
 70
     1
102
RTVSPropertyOp40
 70
     1
102
RTVSPropertyOp41
 70
     1
102
RTVSPropertyOp42
 70
     1
102
RTVSPropertyOp43
 70
     1
102
RTVSPropertyOp44
 70
     1
102
RTVSPropertyOp45
 70
     1
102
RTVSPropertyOp46
 70
     1
102
RTVSPropertyOp47
 70
     1
102
RTVSPropertyOp48
 70
     1
102
RTVSPropertyOp49
 70
     1
102
RTVSPropertyOp50
 70
     1
102
RTVSPropertyOp51
 70
     0
102
RTVSPropertyOp52
 70
     0
102
RTVSPropertyOp53
 70
     1
102
RTVSPropertyOp54
 70
     1
102
RTVSPropertyOp55
 70
     1
102
RTVSPropertyOp56
 70
     1
102
RTVSPropertyOp57
 70
     1
102
RTVSPost2010Prop28
280
     0
102
RTVSPost2010PropOp28
 70
     1
102
RTVSPost2010Prop29
280
     1
102
RTVSPost2010PropOp29
 70
     1
102
RTVSPost2010Prop30
280
     1
102
RTVSPost2010PropOp30
 70
     1
102
RTVSPost2010Prop31
280
     0
102
RTVSPost2010PropOp31
 70
     1
102
RTVSPost2010Prop32
280
     0
102
RTVSPost2010PropOp32
 70
     1
102
RTVSPost2010Prop33
280
     0
102
RTVSPost2010PropOp33
 70
     1
102
RTVSPost2010Prop34
280
     0
102
RTVSPost2010PropOp34
 70
     1
102
RTVSPost2010Prop35
280
     0
102
RTVSPost2010PropOp35
 70
     1
102
RTVSPost2010Prop36
280
     0
102
RTVSPost2010PropOp36
 70
     1
102
RTVSPost2010Prop37
 90
       50
102
RTVSPost2010PropOp37
 70
     1
102
RTVSPost2010Prop38
140
0.0
102
RTVSPost2010PropOp38
 70
     1
102
RTVSPost2010Prop39
140
1.0
102
RTVSPost2010PropOp39
 70
     1
102
RTVSPost2010Prop40
 90
        0
102
RTVSPost2010PropOp40
 70
     1
102
RTVSPost2010Prop41ColorIndex
 90
       18
102
RTVSPost2010Prop41ColorRGB
 90
        0
102
RTVSPost2010PropOp41
 70
     1
102
RTVSPost2010Prop42
 90
       50
102
RTVSPost2010PropOp42
 70
     1
102
RTVSPost2010Prop43
 90
        3
102
RTVSPost2010PropOp43
 70
     1
102
RTVSPost2010Prop44ColorIndex
 90
        5
102
RTVSPost2010Prop44ColorRGB
 90
      255
102
RTVSPost2010PropOp44
 70
     1
102
RTVSPost2010Prop45
280
     0
102
RTVSPost2010PropOp45
 70
     1
102
RTVSPost2010Prop46
 90
       50
102
RTVSPost2010PropOp46
 70
     1
102
RTVSPost2010Prop47
 90
       50
102
RTVSPost2010PropOp47
 70
     1
102
RTVSPost2010Prop48
 90
       50
102
RTVSPost2010PropOp48
 70
     1
102
RTVSPost2010Prop49
280
     0
102
RTVSPost2010PropOp49
 70
     1
102
RTVSPost2010Prop50
 90
       50
102
RTVSPost2010PropOp50
 70
     1
102
RTVSPost2010Prop51ColorIndex
 90
      256
102
RTVSPost2010Prop51ColorRGB
 90
-16777216
102
RTVSPost2010PropOp51
 70
     0
102
RTVSPost2010Prop52
140
1.0
102
RTVSPost2010PropOp52
 70
     0
102
RTVSPost2010Prop53
 90
        2
102
RTVSPost2010PropOp53
 70
     1
102
RTVSPost2010Prop54
  1
strokes_ogs.tif
102
RTVSPost2010PropOp54
 70
     1
102
RTVSPost2010Prop55
280
     0
102
RTVSPost2010PropOp55
 70
     1
102
RTVSPost2010Prop56
140
1.0
102
RTVSPost2010PropOp56
 70
     1
102
RTVSPost2010Prop57
140
1.0
102
RTVSPost2010PropOp57
 70
     1
  0
XRECORD
  5
4B7
102
{ACAD_REACTORS
330
4B6
102
}
330
4B6
100
AcDbXrecord
280
     1
102
RTVSPropertyOp0
 70
     1
102
RTVSPropertyOp1
 70
     1
102
RTVSPropertyOp2
 70
     1
102
RTVSPropertyOp3
 70
     1
102
RTVSPropertyOp4
 70
     1
102
RTVSPropertyOp5
 70
     1
102
RTVSPropertyOp6
 70
     1
102
RTVSPropertyOp7
 70
     1
102
RTVSPropertyOp8
 70
     1
102
RTVSPropertyOp9
 70
     1
102
RTVSPropertyOp10
 70
     1
102
RTVSPropertyOp11
 70
     1
102
RTVSPropertyOp12
 70
     1
102
RTVSPropertyOp13
 70
     1
102
RTVSPropertyOp14
 70
     1
102
RTVSPropertyOp15
 70
     1
102
RTVSPropertyOp16
 70
     1
102
RTVSPropertyOp17
 70
     1
102
RTVSPropertyOp18
 70
     1
102
RTVSPropertyOp19
 70
     1
102
RTVSPropertyOp20
 70
     1
102
RTVSPropertyOp21
 70
     1
102
RTVSPropertyOp22
 70
     1
102
RTVSPropertyOp23
 70
     1
102
RTVSPropertyOp24
 70
     1
102
RTVSPropertyOp25
 70
     1
102
RTVSPropertyOp26
 70
     1
102
RTVSPropertyOp27
 70
     1
102
RTVSPropertyOp28
 70
     1
102
RTVSPropertyOp29
 70
     1
102
RTVSPropertyOp30
 70
     1
102
RTVSPropertyOp31
 70
     1
102
RTVSPropertyOp32
 70
     1
102
RTVSPropertyOp33
 70
     1
102
RTVSPropertyOp34
 70
     1
102
RTVSPropertyOp35
 70
     1
102
RTVSPropertyOp36
 70
     1
102
RTVSPropertyOp37
 70
     1
102
RTVSPropertyOp38
 70
     1
102
RTVSPropertyOp39
 70
     1
102
RTVSPropertyOp40
 70
     1
102
RTVSPropertyOp41
 70
     1
102
RTVSPropertyOp42
 70
     1
102
RTVSPropertyOp43
 70
     1
102
RTVSPropertyOp44
 70
     1
102
RTVSPropertyOp45
 70
     1
102
RTVSPropertyOp46
 70
     1
102
RTVSPropertyOp47
 70
     1
102
RTVSPropertyOp48
 70
     1
102
RTVSPropertyOp49
 70
     1
102
RTVSPropertyOp50
 70
     1
102
RTVSPropertyOp51
 70
     0
102
RTVSPropertyOp52
 70
     0
102
RTVSPropertyOp53
 70
     1
102
RTVSPropertyOp54
 70
     1
102
RTVSPropertyOp55
 70
     1
102
RTVSPropertyOp56
 70
     1
102
RTVSPropertyOp57
 70
     1
102
RTVSPost2010Prop28
280
     0
102
RTVSPost2010PropOp28
 70
     1
102
RTVSPost2010Prop29
280
     1
102
RTVSPost2010PropOp29
 70
     1
102
RTVSPost2010Prop30
280
     1
102
RTVSPost2010PropOp30
 70
     1
102
RTVSPost2010Prop31
280
     0
102
RTVSPost2010PropOp31
 70
     1
102
RTVSPost2010Prop32
280
     0
102
RTVSPost2010PropOp32
 70
     1
102
RTVSPost2010Prop33
280
     0
102
RTVSPost2010PropOp33
 70
     1
102
RTVSPost2010Prop34
280
     0
102
RTVSPost2010PropOp34
 70
     1
102
RTVSPost2010Prop35
280
     0
102
RTVSPost2010PropOp35
 70
     1
102
RTVSPost2010Prop36
280
     0
102
RTVSPost2010PropOp36
 70
     1
102
RTVSPost2010Prop37
 90
       50
102
RTVSPost2010PropOp37
 70
     1
102
RTVSPost2010Prop38
140
0.0
102
RTVSPost2010PropOp38
 70
     1
102
RTVSPost2010Prop39
140
1.0
102
RTVSPost2010PropOp39
 70
     1
102
RTVSPost2010Prop40
 90
        0
102
RTVSPost2010PropOp40
 70
     1
102
RTVSPost2010Prop41ColorIndex
 90
       18
102
RTVSPost2010Prop41ColorRGB
 90
        0
102
RTVSPost2010PropOp41
 70
     1
102
RTVSPost2010Prop42
 90
       50
102
RTVSPost2010PropOp42
 70
     1
102
RTVSPost2010Prop43
 90
        3
102
RTVSPost2010PropOp43
 70
     1
102
RTVSPost2010Prop44ColorIndex
 90
        5
102
RTVSPost2010Prop44ColorRGB
 90
      255
102
RTVSPost2010PropOp44
 70
     1
102
RTVSPost2010Prop45
280
     0
102
RTVSPost2010PropOp45
 70
     1
102
RTVSPost2010Prop46
 90
       50
102
RTVSPost2010PropOp46
 70
     1
102
RTVSPost2010Prop47
 90
       50
102
RTVSPost2010PropOp47
 70
     1
102
RTVSPost2010Prop48
 90
       50
102
RTVSPost2010PropOp48
 70
     1
102
RTVSPost2010Prop49
280
     0
102
RTVSPost2010PropOp49
 70
     1
102
RTVSPost2010Prop50
 90
       50
102
RTVSPost2010PropOp50
 70
     1
102
RTVSPost2010Prop51ColorIndex
 90
      256
102
RTVSPost2010Prop51ColorRGB
 90
-16777216
102
RTVSPost2010PropOp51
 70
     0
102
RTVSPost2010Prop52
140
1.0
102
RTVSPost2010PropOp52
 70
     0
102
RTVSPost2010Prop53
 90
        2
102
RTVSPost2010PropOp53
 70
     1
102
RTVSPost2010Prop54
  1
strokes_ogs.tif
102
RTVSPost2010PropOp54
 70
     1
102
RTVSPost2010Prop55
280
     0
102
RTVSPost2010PropOp55
 70
     1
102
RTVSPost2010Prop56
140
1.0
102
RTVSPost2010PropOp56
 70
     1
102
RTVSPost2010Prop57
140
1.0
102
RTVSPost2010PropOp57
 70
     1
  0
XRECORD
  5
4BF
102
{ACAD_REACTORS
330
4BE
102
}
330
4BE
100
AcDbXrecord
280
     1
102
RTVSPropertyOp0
 70
     1
102
RTVSPropertyOp1
 70
     1
102
RTVSPropertyOp2
 70
     1
102
RTVSPropertyOp3
 70
     1
102
RTVSPropertyOp4
 70
     1
102
RTVSPropertyOp5
 70
     1
102
RTVSPropertyOp6
 70
     1
102
RTVSPropertyOp7
 70
     1
102
RTVSPropertyOp8
 70
     1
102
RTVSPropertyOp9
 70
     1
102
RTVSPropertyOp10
 70
     1
102
RTVSPropertyOp11
 70
     1
102
RTVSPropertyOp12
 70
     1
102
RTVSPropertyOp13
 70
     1
102
RTVSPropertyOp14
 70
     1
102
RTVSPropertyOp15
 70
     1
102
RTVSPropertyOp16
 70
     1
102
RTVSPropertyOp17
 70
     1
102
RTVSPropertyOp18
 70
     1
102
RTVSPropertyOp19
 70
     1
102
RTVSPropertyOp20
 70
     1
102
RTVSPropertyOp21
 70
     1
102
RTVSPropertyOp22
 70
     1
102
RTVSPropertyOp23
 70
     1
102
RTVSPropertyOp24
 70
     1
102
RTVSPropertyOp25
 70
     1
102
RTVSPropertyOp26
 70
     1
102
RTVSPropertyOp27
 70
     1
102
RTVSPropertyOp28
 70
     1
102
RTVSPropertyOp29
 70
     1
102
RTVSPropertyOp30
 70
     1
102
RTVSPropertyOp31
 70
     1
102
RTVSPropertyOp32
 70
     1
102
RTVSPropertyOp33
 70
     1
102
RTVSPropertyOp34
 70
     1
102
RTVSPropertyOp35
 70
     1
102
RTVSPropertyOp36
 70
     1
102
RTVSPropertyOp37
 70
     1
102
RTVSPropertyOp38
 70
     1
102
RTVSPropertyOp39
 70
     1
102
RTVSPropertyOp40
 70
     1
102
RTVSPropertyOp41
 70
     1
102
RTVSPropertyOp42
 70
     1
102
RTVSPropertyOp43
 70
     1
102
RTVSPropertyOp44
 70
     1
102
RTVSPropertyOp45
 70
     1
102
RTVSPropertyOp46
 70
     1
102
RTVSPropertyOp47
 70
     1
102
RTVSPropertyOp48
 70
     1
102
RTVSPropertyOp49
 70
     1
102
RTVSPropertyOp50
 70
     1
102
RTVSPropertyOp51
 70
     0
102
RTVSPropertyOp52
 70
     0
102
RTVSPropertyOp53
 70
     1
102
RTVSPropertyOp54
 70
     1
102
RTVSPropertyOp55
 70
     1
102
RTVSPropertyOp56
 70
     1
102
RTVSPropertyOp57
 70
     1
102
RTVSPost2010Prop28
280
     0
102
RTVSPost2010PropOp28
 70
     1
102
RTVSPost2010Prop29
280
     1
102
RTVSPost2010PropOp29
 70
     1
102
RTVSPost2010Prop30
280
     1
102
RTVSPost2010PropOp30
 70
     1
102
RTVSPost2010Prop31
280
     0
102
RTVSPost2010PropOp31
 70
     1
102
RTVSPost2010Prop32
280
     0
102
RTVSPost2010PropOp32
 70
     1
102
RTVSPost2010Prop33
280
     0
102
RTVSPost2010PropOp33
 70
     1
102
RTVSPost2010Prop34
280
     0
102
RTVSPost2010PropOp34
 70
     1
102
RTVSPost2010Prop35
280
     0
102
RTVSPost2010PropOp35
 70
     1
102
RTVSPost2010Prop36
280
     0
102
RTVSPost2010PropOp36
 70
     1
102
RTVSPost2010Prop37
 90
       50
102
RTVSPost2010PropOp37
 70
     1
102
RTVSPost2010Prop38
140
0.0
102
RTVSPost2010PropOp38
 70
     1
102
RTVSPost2010Prop39
140
1.0
102
RTVSPost2010PropOp39
 70
     1
102
RTVSPost2010Prop40
 90
        0
102
RTVSPost2010PropOp40
 70
     1
102
RTVSPost2010Prop41ColorIndex
 90
       18
102
RTVSPost2010Prop41ColorRGB
 90
        0
102
RTVSPost2010PropOp41
 70
     1
102
RTVSPost2010Prop42
 90
       50
102
RTVSPost2010PropOp42
 70
     1
102
RTVSPost2010Prop43
 90
        3
102
RTVSPost2010PropOp43
 70
     1
102
RTVSPost2010Prop44ColorIndex
 90
        5
102
RTVSPost2010Prop44ColorRGB
 90
      255
102
RTVSPost2010PropOp44
 70
     1
102
RTVSPost2010Prop45
280
     0
102
RTVSPost2010PropOp45
 70
     1
102
RTVSPost2010Prop46
 90
       50
102
RTVSPost2010PropOp46
 70
     1
102
RTVSPost2010Prop47
 90
       50
102
RTVSPost2010PropOp47
 70
     1
102
RTVSPost2010Prop48
 90
       50
102
RTVSPost2010PropOp48
 70
     1
102
RTVSPost2010Prop49
280
     0
102
RTVSPost2010PropOp49
 70
     1
102
RTVSPost2010Prop50
 90
       50
102
RTVSPost2010PropOp50
 70
     1
102
RTVSPost2010Prop51ColorIndex
 90
      256
102
RTVSPost2010Prop51ColorRGB
 90
-16777216
102
RTVSPost2010PropOp51
 70
     0
102
RTVSPost2010Prop52
140
1.0
102
RTVSPost2010PropOp52
 70
     0
102
RTVSPost2010Prop53
 90
        2
102
RTVSPost2010PropOp53
 70
     1
102
RTVSPost2010Prop54
  1
strokes_ogs.tif
102
RTVSPost2010PropOp54
 70
     1
102
RTVSPost2010Prop55
280
     0
102
RTVSPost2010PropOp55
 70
     1
102
RTVSPost2010Prop56
140
1.0
102
RTVSPost2010PropOp56
 70
     1
102
RTVSPost2010Prop57
140
1.0
102
RTVSPost2010PropOp57
 70
     1
  0
XRECORD
  5
4B3
102
{ACAD_REACTORS
330
4B2
102
}
330
4B2
100
AcDbXrecord
280
     1
102
RTVSPropertyOp0
 70
     1
102
RTVSPropertyOp1
 70
     1
102
RTVSPropertyOp2
 70
     1
102
RTVSPropertyOp3
 70
     1
102
RTVSPropertyOp4
 70
     1
102
RTVSPropertyOp5
 70
     1
102
RTVSPropertyOp6
 70
     1
102
RTVSPropertyOp7
 70
     1
102
RTVSPropertyOp8
 70
     1
102
RTVSPropertyOp9
 70
     1
102
RTVSPropertyOp10
 70
     1
102
RTVSPropertyOp11
 70
     1
102
RTVSPropertyOp12
 70
     1
102
RTVSPropertyOp13
 70
     1
102
RTVSPropertyOp14
 70
     1
102
RTVSPropertyOp15
 70
     1
102
RTVSPropertyOp16
 70
     1
102
RTVSPropertyOp17
 70
     1
102
RTVSPropertyOp18
 70
     1
102
RTVSPropertyOp19
 70
     1
102
RTVSPropertyOp20
 70
     1
102
RTVSPropertyOp21
 70
     1
102
RTVSPropertyOp22
 70
     1
102
RTVSPropertyOp23
 70
     1
102
RTVSPropertyOp24
 70
     1
102
RTVSPropertyOp25
 70
     1
102
RTVSPropertyOp26
 70
     1
102
RTVSPropertyOp27
 70
     1
102
RTVSPropertyOp28
 70
     1
102
RTVSPropertyOp29
 70
     1
102
RTVSPropertyOp30
 70
     1
102
RTVSPropertyOp31
 70
     1
102
RTVSPropertyOp32
 70
     1
102
RTVSPropertyOp33
 70
     1
102
RTVSPropertyOp34
 70
     1
102
RTVSPropertyOp35
 70
     1
102
RTVSPropertyOp36
 70
     1
102
RTVSPropertyOp37
 70
     1
102
RTVSPropertyOp38
 70
     1
102
RTVSPropertyOp39
 70
     1
102
RTVSPropertyOp40
 70
     1
102
RTVSPropertyOp41
 70
     1
102
RTVSPropertyOp42
 70
     1
102
RTVSPropertyOp43
 70
     1
102
RTVSPropertyOp44
 70
     1
102
RTVSPropertyOp45
 70
     1
102
RTVSPropertyOp46
 70
     1
102
RTVSPropertyOp47
 70
     1
102
RTVSPropertyOp48
 70
     1
102
RTVSPropertyOp49
 70
     1
102
RTVSPropertyOp50
 70
     1
102
RTVSPropertyOp51
 70
     0
102
RTVSPropertyOp52
 70
     0
102
RTVSPropertyOp53
 70
     1
102
RTVSPropertyOp54
 70
     1
102
RTVSPropertyOp55
 70
     1
102
RTVSPropertyOp56
 70
     1
102
RTVSPropertyOp57
 70
     1
102
RTVSPost2010Prop28
280
     0
102
RTVSPost2010PropOp28
 70
     1
102
RTVSPost2010Prop29
280
     1
102
RTVSPost2010PropOp29
 70
     1
102
RTVSPost2010Prop30
280
     1
102
RTVSPost2010PropOp30
 70
     1
102
RTVSPost2010Prop31
280
     0
102
RTVSPost2010PropOp31
 70
     1
102
RTVSPost2010Prop32
280
     0
102
RTVSPost2010PropOp32
 70
     1
102
RTVSPost2010Prop33
280
     0
102
RTVSPost2010PropOp33
 70
     1
102
RTVSPost2010Prop34
280
     0
102
RTVSPost2010PropOp34
 70
     1
102
RTVSPost2010Prop35
280
     0
102
RTVSPost2010PropOp35
 70
     1
102
RTVSPost2010Prop36
280
     0
102
RTVSPost2010PropOp36
 70
     1
102
RTVSPost2010Prop37
 90
       50
102
RTVSPost2010PropOp37
 70
     1
102
RTVSPost2010Prop38
140
0.0
102
RTVSPost2010PropOp38
 70
     1
102
RTVSPost2010Prop39
140
1.0
102
RTVSPost2010PropOp39
 70
     1
102
RTVSPost2010Prop40
 90
        0
102
RTVSPost2010PropOp40
 70
     1
102
RTVSPost2010Prop41ColorIndex
 90
       18
102
RTVSPost2010Prop41ColorRGB
 90
        0
102
RTVSPost2010PropOp41
 70
     1
102
RTVSPost2010Prop42
 90
       50
102
RTVSPost2010PropOp42
 70
     1
102
RTVSPost2010Prop43
 90
        3
102
RTVSPost2010PropOp43
 70
     1
102
RTVSPost2010Prop44ColorIndex
 90
        5
102
RTVSPost2010Prop44ColorRGB
 90
      255
102
RTVSPost2010PropOp44
 70
     1
102
RTVSPost2010Prop45
280
     0
102
RTVSPost2010PropOp45
 70
     1
102
RTVSPost2010Prop46
 90
       50
102
RTVSPost2010PropOp46
 70
     1
102
RTVSPost2010Prop47
 90
       50
102
RTVSPost2010PropOp47
 70
     1
102
RTVSPost2010Prop48
 90
       50
102
RTVSPost2010PropOp48
 70
     1
102
RTVSPost2010Prop49
280
     0
102
RTVSPost2010PropOp49
 70
     1
102
RTVSPost2010Prop50
 90
       50
102
RTVSPost2010PropOp50
 70
     1
102
RTVSPost2010Prop51ColorIndex
 90
      256
102
RTVSPost2010Prop51ColorRGB
 90
-16777216
102
RTVSPost2010PropOp51
 70
     0
102
RTVSPost2010Prop52
140
1.0
102
RTVSPost2010PropOp52
 70
     0
102
RTVSPost2010Prop53
 90
        2
102
RTVSPost2010PropOp53
 70
     1
102
RTVSPost2010Prop54
  1
strokes_ogs.tif
102
RTVSPost2010PropOp54
 70
     1
102
RTVSPost2010Prop55
280
     0
102
RTVSPost2010PropOp55
 70
     1
102
RTVSPost2010Prop56
140
1.0
102
RTVSPost2010PropOp56
 70
     1
102
RTVSPost2010Prop57
140
1.0
102
RTVSPost2010PropOp57
 70
     1
  0
XRECORD
  5
4B5
102
{ACAD_REACTORS
330
4B4
102
}
330
4B4
100
AcDbXrecord
280
     1
102
RTVSPropertyOp0
 70
     1
102
RTVSPropertyOp1
 70
     1
102
RTVSPropertyOp2
 70
     1
102
RTVSPropertyOp3
 70
     1
102
RTVSPropertyOp4
 70
     1
102
RTVSPropertyOp5
 70
     1
102
RTVSPropertyOp6
 70
     1
102
RTVSPropertyOp7
 70
     1
102
RTVSPropertyOp8
 70
     1
102
RTVSPropertyOp9
 70
     1
102
RTVSPropertyOp10
 70
     1
102
RTVSPropertyOp11
 70
     1
102
RTVSPropertyOp12
 70
     1
102
RTVSPropertyOp13
 70
     1
102
RTVSPropertyOp14
 70
     1
102
RTVSPropertyOp15
 70
     1
102
RTVSPropertyOp16
 70
     1
102
RTVSPropertyOp17
 70
     1
102
RTVSPropertyOp18
 70
     1
102
RTVSPropertyOp19
 70
     1
102
RTVSPropertyOp20
 70
     1
102
RTVSPropertyOp21
 70
     1
102
RTVSPropertyOp22
 70
     1
102
RTVSPropertyOp23
 70
     1
102
RTVSPropertyOp24
 70
     1
102
RTVSPropertyOp25
 70
     1
102
RTVSPropertyOp26
 70
     1
102
RTVSPropertyOp27
 70
     1
102
RTVSPropertyOp28
 70
     1
102
RTVSPropertyOp29
 70
     1
102
RTVSPropertyOp30
 70
     1
102
RTVSPropertyOp31
 70
     1
102
RTVSPropertyOp32
 70
     1
102
RTVSPropertyOp33
 70
     1
102
RTVSPropertyOp34
 70
     1
102
RTVSPropertyOp35
 70
     1
102
RTVSPropertyOp36
 70
     1
102
RTVSPropertyOp37
 70
     1
102
RTVSPropertyOp38
 70
     1
102
RTVSPropertyOp39
 70
     1
102
RTVSPropertyOp40
 70
     1
102
RTVSPropertyOp41
 70
     1
102
RTVSPropertyOp42
 70
     1
102
RTVSPropertyOp43
 70
     1
102
RTVSPropertyOp44
 70
     1
102
RTVSPropertyOp45
 70
     1
102
RTVSPropertyOp46
 70
     1
102
RTVSPropertyOp47
 70
     1
102
RTVSPropertyOp48
 70
     1
102
RTVSPropertyOp49
 70
     1
102
RTVSPropertyOp50
 70
     1
102
RTVSPropertyOp51
 70
     0
102
RTVSPropertyOp52
 70
     0
102
RTVSPropertyOp53
 70
     1
102
RTVSPropertyOp54
 70
     1
102
RTVSPropertyOp55
 70
     1
102
RTVSPropertyOp56
 70
     1
102
RTVSPropertyOp57
 70
     1
102
RTVSPost2010Prop28
280
     0
102
RTVSPost2010PropOp28
 70
     1
102
RTVSPost2010Prop29
280
     1
102
RTVSPost2010PropOp29
 70
     1
102
RTVSPost2010Prop30
280
     1
102
RTVSPost2010PropOp30
 70
     1
102
RTVSPost2010Prop31
280
     0
102
RTVSPost2010PropOp31
 70
     1
102
RTVSPost2010Prop32
280
     0
102
RTVSPost2010PropOp32
 70
     1
102
RTVSPost2010Prop33
280
     0
102
RTVSPost2010PropOp33
 70
     1
102
RTVSPost2010Prop34
280
     0
102
RTVSPost2010PropOp34
 70
     1
102
RTVSPost2010Prop35
280
     0
102
RTVSPost2010PropOp35
 70
     1
102
RTVSPost2010Prop36
280
     0
102
RTVSPost2010PropOp36
 70
     1
102
RTVSPost2010Prop37
 90
       50
102
RTVSPost2010PropOp37
 70
     1
102
RTVSPost2010Prop38
140
0.0
102
RTVSPost2010PropOp38
 70
     1
102
RTVSPost2010Prop39
140
1.0
102
RTVSPost2010PropOp39
 70
     1
102
RTVSPost2010Prop40
 90
        0
102
RTVSPost2010PropOp40
 70
     1
102
RTVSPost2010Prop41ColorIndex
 90
       18
102
RTVSPost2010Prop41ColorRGB
 90
        0
102
RTVSPost2010PropOp41
 70
     1
102
RTVSPost2010Prop42
 90
       50
102
RTVSPost2010PropOp42
 70
     1
102
RTVSPost2010Prop43
 90
        3
102
RTVSPost2010PropOp43
 70
     1
102
RTVSPost2010Prop44ColorIndex
 90
        5
102
RTVSPost2010Prop44ColorRGB
 90
      255
102
RTVSPost2010PropOp44
 70
     1
102
RTVSPost2010Prop45
280
     0
102
RTVSPost2010PropOp45
 70
     1
102
RTVSPost2010Prop46
 90
       50
102
RTVSPost2010PropOp46
 70
     1
102
RTVSPost2010Prop47
 90
       50
102
RTVSPost2010PropOp47
 70
     1
102
RTVSPost2010Prop48
 90
       50
102
RTVSPost2010PropOp48
 70
     1
102
RTVSPost2010Prop49
280
     0
102
RTVSPost2010PropOp49
 70
     1
102
RTVSPost2010Prop50
 90
       50
102
RTVSPost2010PropOp50
 70
     1
102
RTVSPost2010Prop51ColorIndex
 90
      256
102
RTVSPost2010Prop51ColorRGB
 90
-16777216
102
RTVSPost2010PropOp51
 70
     0
102
RTVSPost2010Prop52
140
1.0
102
RTVSPost2010PropOp52
 70
     0
102
RTVSPost2010Prop53
 90
        2
102
RTVSPost2010PropOp53
 70
     1
102
RTVSPost2010Prop54
  1
strokes_ogs.tif
102
RTVSPost2010PropOp54
 70
     1
102
RTVSPost2010Prop55
280
     0
102
RTVSPost2010PropOp55
 70
     1
102
RTVSPost2010Prop56
140
1.0
102
RTVSPost2010PropOp56
 70
     1
102
RTVSPost2010Prop57
140
1.0
102
RTVSPost2010PropOp57
 70
     1
  0
XRECORD
  5
4C5
102
{ACAD_REACTORS
330
4C4
102
}
330
4C4
100
AcDbXrecord
280
     1
102
RTVSPropertyOp0
 70
     0
102
RTVSPropertyOp1
 70
     0
102
RTVSPropertyOp2
 70
     0
102
RTVSPropertyOp3
 70
     0
102
RTVSPropertyOp4
 70
     0
102
RTVSPropertyOp5
 70
     0
102
RTVSPropertyOp6
 70
     0
102
RTVSPropertyOp7
 70
     0
102
RTVSPropertyOp8
 70
     0
102
RTVSPropertyOp9
 70
     0
102
RTVSPropertyOp10
 70
     0
102
RTVSPropertyOp11
 70
     0
102
RTVSPropertyOp12
 70
     0
102
RTVSPropertyOp13
 70
     0
102
RTVSPropertyOp14
 70
     2
102
RTVSPropertyOp15
 70
     0
102
RTVSPropertyOp16
 70
     0
102
RTVSPropertyOp17
 70
     0
102
RTVSPropertyOp18
 70
     0
102
RTVSPropertyOp19
 70
     0
102
RTVSPropertyOp20
 70
     0
102
RTVSPropertyOp21
 70
     0
102
RTVSPropertyOp22
 70
     0
102
RTVSPropertyOp23
 70
     0
102
RTVSPropertyOp24
 70
     0
102
RTVSPropertyOp25
 70
     0
102
RTVSPropertyOp26
 70
     0
102
RTVSPropertyOp27
 70
     0
102
RTVSPropertyOp28
 70
     0
102
RTVSPropertyOp29
 70
     0
102
RTVSPropertyOp30
 70
     0
102
RTVSPropertyOp31
 70
     0
102
RTVSPropertyOp32
 70
     0
102
RTVSPropertyOp33
 70
     0
102
RTVSPropertyOp34
 70
     0
102
RTVSPropertyOp35
 70
     0
102
RTVSPropertyOp36
 70
     0
102
RTVSPropertyOp37
 70
     0
102
RTVSPropertyOp38
 70
     0
102
RTVSPropertyOp39
 70
     0
102
RTVSPropertyOp40
 70
     0
102
RTVSPropertyOp41
 70
     0
102
RTVSPropertyOp42
 70
     0
102
RTVSPropertyOp43
 70
     0
102
RTVSPropertyOp44
 70
     0
102
RTVSPropertyOp45
 70
     0
102
RTVSPropertyOp46
 70
     0
102
RTVSPropertyOp47
 70
     0
102
RTVSPropertyOp48
 70
     0
102
RTVSPropertyOp49
 70
     0
102
RTVSPropertyOp50
 70
     0
102
RTVSPropertyOp51
 70
     0
102
RTVSPropertyOp52
 70
     0
102
RTVSPropertyOp53
 70
     0
102
RTVSPropertyOp54
 70
     0
102
RTVSPropertyOp55
 70
     0
102
RTVSPropertyOp56
 70
     0
102
RTVSPropertyOp57
 70
     0
102
RTVSPost2010Prop28
280
     0
102
RTVSPost2010PropOp28
 70
     0
102
RTVSPost2010Prop29
280
     1
102
RTVSPost2010PropOp29
 70
     0
102
RTVSPost2010Prop30
280
     1
102
RTVSPost2010PropOp30
 70
     0
102
RTVSPost2010Prop31
280
     0
102
RTVSPost2010PropOp31
 70
     0
102
RTVSPost2010Prop32
280
     0
102
RTVSPost2010PropOp32
 70
     0
102
RTVSPost2010Prop33
280
     0
102
RTVSPost2010PropOp33
 70
     0
102
RTVSPost2010Prop34
280
     0
102
RTVSPost2010PropOp34
 70
     0
102
RTVSPost2010Prop35
280
     0
102
RTVSPost2010PropOp35
 70
     0
102
RTVSPost2010Prop36
280
     0
102
RTVSPost2010PropOp36
 70
     0
102
RTVSPost2010Prop37
 90
       50
102
RTVSPost2010PropOp37
 70
     0
102
RTVSPost2010Prop38
140
0.0
102
RTVSPost2010PropOp38
 70
     0
102
RTVSPost2010Prop39
140
1.0
102
RTVSPost2010PropOp39
 70
     0
102
RTVSPost2010Prop40
 90
        0
102
RTVSPost2010PropOp40
 70
     0
102
RTVSPost2010Prop41ColorIndex
 90
       18
102
RTVSPost2010Prop41ColorRGB
 90
        0
102
RTVSPost2010PropOp41
 70
     0
102
RTVSPost2010Prop42
 90
       50
102
RTVSPost2010PropOp42
 70
     0
102
RTVSPost2010Prop43
 90
        3
102
RTVSPost2010PropOp43
 70
     0
102
RTVSPost2010Prop44ColorIndex
 90
        5
102
RTVSPost2010Prop44ColorRGB
 90
      255
102
RTVSPost2010PropOp44
 70
     0
102
RTVSPost2010Prop45
280
     0
102
RTVSPost2010PropOp45
 70
     0
102
RTVSPost2010Prop46
 90
       50
102
RTVSPost2010PropOp46
 70
     0
102
RTVSPost2010Prop47
 90
       50
102
RTVSPost2010PropOp47
 70
     0
102
RTVSPost2010Prop48
 90
       50
102
RTVSPost2010PropOp48
 70
     0
102
RTVSPost2010Prop49
280
     0
102
RTVSPost2010PropOp49
 70
     0
102
RTVSPost2010Prop50
 90
       50
102
RTVSPost2010PropOp50
 70
     0
102
RTVSPost2010Prop51ColorIndex
 90
      256
102
RTVSPost2010Prop51ColorRGB
 90
-16777216
102
RTVSPost2010PropOp51
 70
     0
102
RTVSPost2010Prop52
140
1.0
102
RTVSPost2010PropOp52
 70
     0
102
RTVSPost2010Prop53
 90
        2
102
RTVSPost2010PropOp53
 70
     0
102
RTVSPost2010Prop54
  1
strokes_ogs.tif
102
RTVSPost2010PropOp54
 70
     0
102
RTVSPost2010Prop55
280
     0
102
RTVSPost2010PropOp55
 70
     0
102
RTVSPost2010Prop56
140
1.0
102
RTVSPost2010PropOp56
 70
     0
102
RTVSPost2010Prop57
140
1.0
102
RTVSPost2010PropOp57
 70
     0
  0
XRECORD
  5
4BD
102
{ACAD_REACTORS
330
4BC
102
}
330
4BC
100
AcDbXrecord
280
     1
102
RTVSPropertyOp0
 70
     1
102
RTVSPropertyOp1
 70
     1
102
RTVSPropertyOp2
 70
     1
102
RTVSPropertyOp3
 70
     1
102
RTVSPropertyOp4
 70
     1
102
RTVSPropertyOp5
 70
     1
102
RTVSPropertyOp6
 70
     1
102
RTVSPropertyOp7
 70
     1
102
RTVSPropertyOp8
 70
     1
102
RTVSPropertyOp9
 70
     1
102
RTVSPropertyOp10
 70
     1
102
RTVSPropertyOp11
 70
     1
102
RTVSPropertyOp12
 70
     1
102
RTVSPropertyOp13
 70
     1
102
RTVSPropertyOp14
 70
     1
102
RTVSPropertyOp15
 70
     1
102
RTVSPropertyOp16
 70
     1
102
RTVSPropertyOp17
 70
     1
102
RTVSPropertyOp18
 70
     1
102
RTVSPropertyOp19
 70
     1
102
RTVSPropertyOp20
 70
     1
102
RTVSPropertyOp21
 70
     1
102
RTVSPropertyOp22
 70
     1
102
RTVSPropertyOp23
 70
     1
102
RTVSPropertyOp24
 70
     1
102
RTVSPropertyOp25
 70
     1
102
RTVSPropertyOp26
 70
     1
102
RTVSPropertyOp27
 70
     1
102
RTVSPropertyOp28
 70
     1
102
RTVSPropertyOp29
 70
     1
102
RTVSPropertyOp30
 70
     1
102
RTVSPropertyOp31
 70
     1
102
RTVSPropertyOp32
 70
     1
102
RTVSPropertyOp33
 70
     1
102
RTVSPropertyOp34
 70
     1
102
RTVSPropertyOp35
 70
     1
102
RTVSPropertyOp36
 70
     1
102
RTVSPropertyOp37
 70
     1
102
RTVSPropertyOp38
 70
     1
102
RTVSPropertyOp39
 70
     1
102
RTVSPropertyOp40
 70
     1
102
RTVSPropertyOp41
 70
     1
102
RTVSPropertyOp42
 70
     1
102
RTVSPropertyOp43
 70
     1
102
RTVSPropertyOp44
 70
     1
102
RTVSPropertyOp45
 70
     1
102
RTVSPropertyOp46
 70
     1
102
RTVSPropertyOp47
 70
     1
102
RTVSPropertyOp48
 70
     1
102
RTVSPropertyOp49
 70
     1
102
RTVSPropertyOp50
 70
     1
102
RTVSPropertyOp51
 70
     0
102
RTVSPropertyOp52
 70
     0
102
RTVSPropertyOp53
 70
     1
102
RTVSPropertyOp54
 70
     1
102
RTVSPropertyOp55
 70
     1
102
RTVSPropertyOp56
 70
     1
102
RTVSPropertyOp57
 70
     1
102
RTVSPost2010Prop28
280
     0
102
RTVSPost2010PropOp28
 70
     1
102
RTVSPost2010Prop29
280
     1
102
RTVSPost2010PropOp29
 70
     1
102
RTVSPost2010Prop30
280
     1
102
RTVSPost2010PropOp30
 70
     1
102
RTVSPost2010Prop31
280
     0
102
RTVSPost2010PropOp31
 70
     1
102
RTVSPost2010Prop32
280
     0
102
RTVSPost2010PropOp32
 70
     1
102
RTVSPost2010Prop33
280
     0
102
RTVSPost2010PropOp33
 70
     1
102
RTVSPost2010Prop34
280
     0
102
RTVSPost2010PropOp34
 70
     1
102
RTVSPost2010Prop35
280
     0
102
RTVSPost2010PropOp35
 70
     1
102
RTVSPost2010Prop36
280
     0
102
RTVSPost2010PropOp36
 70
     1
102
RTVSPost2010Prop37
 90
       50
102
RTVSPost2010PropOp37
 70
     1
102
RTVSPost2010Prop38
140
0.0
102
RTVSPost2010PropOp38
 70
     1
102
RTVSPost2010Prop39
140
1.0
102
RTVSPost2010PropOp39
 70
     1
102
RTVSPost2010Prop40
 90
        0
102
RTVSPost2010PropOp40
 70
     1
102
RTVSPost2010Prop41ColorIndex
 90
       18
102
RTVSPost2010Prop41ColorRGB
 90
        0
102
RTVSPost2010PropOp41
 70
     1
102
RTVSPost2010Prop42
 90
       50
102
RTVSPost2010PropOp42
 70
     1
102
RTVSPost2010Prop43
 90
        3
102
RTVSPost2010PropOp43
 70
     1
102
RTVSPost2010Prop44ColorIndex
 90
        5
102
RTVSPost2010Prop44ColorRGB
 90
      255
102
RTVSPost2010PropOp44
 70
     1
102
RTVSPost2010Prop45
280
     0
102
RTVSPost2010PropOp45
 70
     1
102
RTVSPost2010Prop46
 90
       50
102
RTVSPost2010PropOp46
 70
     1
102
RTVSPost2010Prop47
 90
       50
102
RTVSPost2010PropOp47
 70
     1
102
RTVSPost2010Prop48
 90
       50
102
RTVSPost2010PropOp48
 70
     1
102
RTVSPost2010Prop49
280
     0
102
RTVSPost2010PropOp49
 70
     1
102
RTVSPost2010Prop50
 90
       50
102
RTVSPost2010PropOp50
 70
     1
102
RTVSPost2010Prop51ColorIndex
 90
      256
102
RTVSPost2010Prop51ColorRGB
 90
-16777216
102
RTVSPost2010PropOp51
 70
     0
102
RTVSPost2010Prop52
140
1.0
102
RTVSPost2010PropOp52
 70
     0
102
RTVSPost2010Prop53
 90
        2
102
RTVSPost2010PropOp53
 70
     1
102
RTVSPost2010Prop54
  1
strokes_ogs.tif
102
RTVSPost2010PropOp54
 70
     1
102
RTVSPost2010Prop55
280
     0
102
RTVSPost2010PropOp55
 70
     1
102
RTVSPost2010Prop56
140
1.0
102
RTVSPost2010PropOp56
 70
     1
102
RTVSPost2010Prop57
140
1.0
102
RTVSPost2010PropOp57
 70
     1
  0
XRECORD
  5
4A1
102
{ACAD_REACTORS
330
4A0
102
}
330
4A0
100
AcDbXrecord
280
     1
102
RTVSPropertyOp0
 70
     1
102
RTVSPropertyOp1
 70
     1
102
RTVSPropertyOp2
 70
     1
102
RTVSPropertyOp3
 70
     1
102
RTVSPropertyOp4
 70
     1
102
RTVSPropertyOp5
 70
     1
102
RTVSPropertyOp6
 70
     1
102
RTVSPropertyOp7
 70
     1
102
RTVSPropertyOp8
 70
     1
102
RTVSPropertyOp9
 70
     1
102
RTVSPropertyOp10
 70
     1
102
RTVSPropertyOp11
 70
     1
102
RTVSPropertyOp12
 70
     1
102
RTVSPropertyOp13
 70
     1
102
RTVSPropertyOp14
 70
     1
102
RTVSPropertyOp15
 70
     1
102
RTVSPropertyOp16
 70
     1
102
RTVSPropertyOp17
 70
     1
102
RTVSPropertyOp18
 70
     1
102
RTVSPropertyOp19
 70
     1
102
RTVSPropertyOp20
 70
     1
102
RTVSPropertyOp21
 70
     1
102
RTVSPropertyOp22
 70
     1
102
RTVSPropertyOp23
 70
     1
102
RTVSPropertyOp24
 70
     1
102
RTVSPropertyOp25
 70
     1
102
RTVSPropertyOp26
 70
     1
102
RTVSPropertyOp27
 70
     1
102
RTVSPropertyOp28
 70
     1
102
RTVSPropertyOp29
 70
     1
102
RTVSPropertyOp30
 70
     1
102
RTVSPropertyOp31
 70
     1
102
RTVSPropertyOp32
 70
     1
102
RTVSPropertyOp33
 70
     1
102
RTVSPropertyOp34
 70
     1
102
RTVSPropertyOp35
 70
     1
102
RTVSPropertyOp36
 70
     1
102
RTVSPropertyOp37
 70
     1
102
RTVSPropertyOp38
 70
     1
102
RTVSPropertyOp39
 70
     1
102
RTVSPropertyOp40
 70
     1
102
RTVSPropertyOp41
 70
     1
102
RTVSPropertyOp42
 70
     1
102
RTVSPropertyOp43
 70
     1
102
RTVSPropertyOp44
 70
     1
102
RTVSPropertyOp45
 70
     1
102
RTVSPropertyOp46
 70
     1
102
RTVSPropertyOp47
 70
     1
102
RTVSPropertyOp48
 70
     1
102
RTVSPropertyOp49
 70
     1
102
RTVSPropertyOp50
 70
     1
102
RTVSPropertyOp51
 70
     0
102
RTVSPropertyOp52
 70
     0
102
RTVSPropertyOp53
 70
     1
102
RTVSPropertyOp54
 70
     1
102
RTVSPropertyOp55
 70
     1
102
RTVSPropertyOp56
 70
     1
102
RTVSPropertyOp57
 70
     1
102
RTVSPost2010Prop28
280
     0
102
RTVSPost2010PropOp28
 70
     1
102
RTVSPost2010Prop29
280
     1
102
RTVSPost2010PropOp29
 70
     1
102
RTVSPost2010Prop30
280
     1
102
RTVSPost2010PropOp30
 70
     1
102
RTVSPost2010Prop31
280
     0
102
RTVSPost2010PropOp31
 70
     1
102
RTVSPost2010Prop32
280
     0
102
RTVSPost2010PropOp32
 70
     1
102
RTVSPost2010Prop33
280
     0
102
RTVSPost2010PropOp33
 70
     1
102
RTVSPost2010Prop34
280
     0
102
RTVSPost2010PropOp34
 70
     1
102
RTVSPost2010Prop35
280
     0
102
RTVSPost2010PropOp35
 70
     1
102
RTVSPost2010Prop36
280
     0
102
RTVSPost2010PropOp36
 70
     1
102
RTVSPost2010Prop37
 90
       50
102
RTVSPost2010PropOp37
 70
     1
102
RTVSPost2010Prop38
140
0.0
102
RTVSPost2010PropOp38
 70
     1
102
RTVSPost2010Prop39
140
1.0
102
RTVSPost2010PropOp39
 70
     1
102
RTVSPost2010Prop40
 90
        0
102
RTVSPost2010PropOp40
 70
     1
102
RTVSPost2010Prop41ColorIndex
 90
       18
102
RTVSPost2010Prop41ColorRGB
 90
        0
102
RTVSPost2010PropOp41
 70
     1
102
RTVSPost2010Prop42
 90
       50
102
RTVSPost2010PropOp42
 70
     1
102
RTVSPost2010Prop43
 90
        3
102
RTVSPost2010PropOp43
 70
     1
102
RTVSPost2010Prop44ColorIndex
 90
        5
102
RTVSPost2010Prop44ColorRGB
 90
      255
102
RTVSPost2010PropOp44
 70
     1
102
RTVSPost2010Prop45
280
     0
102
RTVSPost2010PropOp45
 70
     1
102
RTVSPost2010Prop46
 90
       50
102
RTVSPost2010PropOp46
 70
     1
102
RTVSPost2010Prop47
 90
       50
102
RTVSPost2010PropOp47
 70
     1
102
RTVSPost2010Prop48
 90
       50
102
RTVSPost2010PropOp48
 70
     1
102
RTVSPost2010Prop49
280
     0
102
RTVSPost2010PropOp49
 70
     1
102
RTVSPost2010Prop50
 90
       50
102
RTVSPost2010PropOp50
 70
     1
102
RTVSPost2010Prop51ColorIndex
 90
      256
102
RTVSPost2010Prop51ColorRGB
 90
-16777216
102
RTVSPost2010PropOp51
 70
     0
102
RTVSPost2010Prop52
140
1.0
102
RTVSPost2010PropOp52
 70
     0
102
RTVSPost2010Prop53
 90
        2
102
RTVSPost2010PropOp53
 70
     1
102
RTVSPost2010Prop54
  1
strokes_ogs.tif
102
RTVSPost2010PropOp54
 70
     1
102
RTVSPost2010Prop55
280
     0
102
RTVSPost2010PropOp55
 70
     1
102
RTVSPost2010Prop56
140
1.0
102
RTVSPost2010PropOp56
 70
     1
102
RTVSPost2010Prop57
140
1.0
102
RTVSPost2010PropOp57
 70
     1
  0
XRECORD
  5
4A3
102
{ACAD_REACTORS
330
4A2
102
}
330
4A2
100
AcDbXrecord
280
     1
102
RTVSPropertyOp0
 70
     1
102
RTVSPropertyOp1
 70
     1
102
RTVSPropertyOp2
 70
     1
102
RTVSPropertyOp3
 70
     1
102
RTVSPropertyOp4
 70
     1
102
RTVSPropertyOp5
 70
     1
102
RTVSPropertyOp6
 70
     1
102
RTVSPropertyOp7
 70
     1
102
RTVSPropertyOp8
 70
     1
102
RTVSPropertyOp9
 70
     1
102
RTVSPropertyOp10
 70
     1
102
RTVSPropertyOp11
 70
     1
102
RTVSPropertyOp12
 70
     1
102
RTVSPropertyOp13
 70
     1
102
RTVSPropertyOp14
 70
     1
102
RTVSPropertyOp15
 70
     1
102
RTVSPropertyOp16
 70
     1
102
RTVSPropertyOp17
 70
     1
102
RTVSPropertyOp18
 70
     1
102
RTVSPropertyOp19
 70
     1
102
RTVSPropertyOp20
 70
     1
102
RTVSPropertyOp21
 70
     1
102
RTVSPropertyOp22
 70
     1
102
RTVSPropertyOp23
 70
     1
102
RTVSPropertyOp24
 70
     1
102
RTVSPropertyOp25
 70
     1
102
RTVSPropertyOp26
 70
     1
102
RTVSPropertyOp27
 70
     1
102
RTVSPropertyOp28
 70
     1
102
RTVSPropertyOp29
 70
     1
102
RTVSPropertyOp30
 70
     1
102
RTVSPropertyOp31
 70
     1
102
RTVSPropertyOp32
 70
     1
102
RTVSPropertyOp33
 70
     1
102
RTVSPropertyOp34
 70
     1
102
RTVSPropertyOp35
 70
     1
102
RTVSPropertyOp36
 70
     1
102
RTVSPropertyOp37
 70
     1
102
RTVSPropertyOp38
 70
     1
102
RTVSPropertyOp39
 70
     1
102
RTVSPropertyOp40
 70
     1
102
RTVSPropertyOp41
 70
     1
102
RTVSPropertyOp42
 70
     1
102
RTVSPropertyOp43
 70
     1
102
RTVSPropertyOp44
 70
     1
102
RTVSPropertyOp45
 70
     1
102
RTVSPropertyOp46
 70
     1
102
RTVSPropertyOp47
 70
     1
102
RTVSPropertyOp48
 70
     1
102
RTVSPropertyOp49
 70
     1
102
RTVSPropertyOp50
 70
     1
102
RTVSPropertyOp51
 70
     0
102
RTVSPropertyOp52
 70
     0
102
RTVSPropertyOp53
 70
     1
102
RTVSPropertyOp54
 70
     1
102
RTVSPropertyOp55
 70
     1
102
RTVSPropertyOp56
 70
     1
102
RTVSPropertyOp57
 70
     1
102
RTVSPost2010Prop28
280
     0
102
RTVSPost2010PropOp28
 70
     1
102
RTVSPost2010Prop29
280
     1
102
RTVSPost2010PropOp29
 70
     1
102
RTVSPost2010Prop30
280
     1
102
RTVSPost2010PropOp30
 70
     1
102
RTVSPost2010Prop31
280
     0
102
RTVSPost2010PropOp31
 70
     1
102
RTVSPost2010Prop32
280
     0
102
RTVSPost2010PropOp32
 70
     1
102
RTVSPost2010Prop33
280
     0
102
RTVSPost2010PropOp33
 70
     1
102
RTVSPost2010Prop34
280
     0
102
RTVSPost2010PropOp34
 70
     1
102
RTVSPost2010Prop35
280
     0
102
RTVSPost2010PropOp35
 70
     1
102
RTVSPost2010Prop36
280
     0
102
RTVSPost2010PropOp36
 70
     1
102
RTVSPost2010Prop37
 90
       50
102
RTVSPost2010PropOp37
 70
     1
102
RTVSPost2010Prop38
140
0.0
102
RTVSPost2010PropOp38
 70
     1
102
RTVSPost2010Prop39
140
1.0
102
RTVSPost2010PropOp39
 70
     1
102
RTVSPost2010Prop40
 90
        0
102
RTVSPost2010PropOp40
 70
     1
102
RTVSPost2010Prop41ColorIndex
 90
       18
102
RTVSPost2010Prop41ColorRGB
 90
        0
102
RTVSPost2010PropOp41
 70
     1
102
RTVSPost2010Prop42
 90
       50
102
RTVSPost2010PropOp42
 70
     1
102
RTVSPost2010Prop43
 90
        3
102
RTVSPost2010PropOp43
 70
     1
102
RTVSPost2010Prop44ColorIndex
 90
        5
102
RTVSPost2010Prop44ColorRGB
 90
      255
102
RTVSPost2010PropOp44
 70
     1
102
RTVSPost2010Prop45
280
     0
102
RTVSPost2010PropOp45
 70
     1
102
RTVSPost2010Prop46
 90
       50
102
RTVSPost2010PropOp46
 70
     1
102
RTVSPost2010Prop47
 90
       50
102
RTVSPost2010PropOp47
 70
     1
102
RTVSPost2010Prop48
 90
       50
102
RTVSPost2010PropOp48
 70
     1
102
RTVSPost2010Prop49
280
     0
102
RTVSPost2010PropOp49
 70
     1
102
RTVSPost2010Prop50
 90
       50
102
RTVSPost2010PropOp50
 70
     1
102
RTVSPost2010Prop51ColorIndex
 90
      256
102
RTVSPost2010Prop51ColorRGB
 90
-16777216
102
RTVSPost2010PropOp51
 70
     0
102
RTVSPost2010Prop52
140
1.0
102
RTVSPost2010PropOp52
 70
     0
102
RTVSPost2010Prop53
 90
        2
102
RTVSPost2010PropOp53
 70
     1
102
RTVSPost2010Prop54
  1
strokes_ogs.tif
102
RTVSPost2010PropOp54
 70
     1
102
RTVSPost2010Prop55
280
     0
102
RTVSPost2010PropOp55
 70
     1
102
RTVSPost2010Prop56
140
1.0
102
RTVSPost2010PropOp56
 70
     1
102
RTVSPost2010Prop57
140
1.0
102
RTVSPost2010PropOp57
 70
     1
  0
XRECORD
  5
4A5
102
{ACAD_REACTORS
330
4A4
102
}
330
4A4
100
AcDbXrecord
280
     1
102
RTVSPropertyOp0
 70
     1
102
RTVSPropertyOp1
 70
     1
102
RTVSPropertyOp2
 70
     1
102
RTVSPropertyOp3
 70
     1
102
RTVSPropertyOp4
 70
     1
102
RTVSPropertyOp5
 70
     1
102
RTVSPropertyOp6
 70
     1
102
RTVSPropertyOp7
 70
     1
102
RTVSPropertyOp8
 70
     1
102
RTVSPropertyOp9
 70
     1
102
RTVSPropertyOp10
 70
     1
102
RTVSPropertyOp11
 70
     1
102
RTVSPropertyOp12
 70
     1
102
RTVSPropertyOp13
 70
     1
102
RTVSPropertyOp14
 70
     1
102
RTVSPropertyOp15
 70
     1
102
RTVSPropertyOp16
 70
     1
102
RTVSPropertyOp17
 70
     1
102
RTVSPropertyOp18
 70
     1
102
RTVSPropertyOp19
 70
     1
102
RTVSPropertyOp20
 70
     1
102
RTVSPropertyOp21
 70
     1
102
RTVSPropertyOp22
 70
     1
102
RTVSPropertyOp23
 70
     1
102
RTVSPropertyOp24
 70
     1
102
RTVSPropertyOp25
 70
     1
102
RTVSPropertyOp26
 70
     1
102
RTVSPropertyOp27
 70
     1
102
RTVSPropertyOp28
 70
     1
102
RTVSPropertyOp29
 70
     1
102
RTVSPropertyOp30
 70
     1
102
RTVSPropertyOp31
 70
     1
102
RTVSPropertyOp32
 70
     1
102
RTVSPropertyOp33
 70
     1
102
RTVSPropertyOp34
 70
     1
102
RTVSPropertyOp35
 70
     1
102
RTVSPropertyOp36
 70
     1
102
RTVSPropertyOp37
 70
     1
102
RTVSPropertyOp38
 70
     1
102
RTVSPropertyOp39
 70
     1
102
RTVSPropertyOp40
 70
     1
102
RTVSPropertyOp41
 70
     1
102
RTVSPropertyOp42
 70
     1
102
RTVSPropertyOp43
 70
     1
102
RTVSPropertyOp44
 70
     1
102
RTVSPropertyOp45
 70
     1
102
RTVSPropertyOp46
 70
     1
102
RTVSPropertyOp47
 70
     1
102
RTVSPropertyOp48
 70
     1
102
RTVSPropertyOp49
 70
     1
102
RTVSPropertyOp50
 70
     1
102
RTVSPropertyOp51
 70
     0
102
RTVSPropertyOp52
 70
     0
102
RTVSPropertyOp53
 70
     1
102
RTVSPropertyOp54
 70
     1
102
RTVSPropertyOp55
 70
     1
102
RTVSPropertyOp56
 70
     1
102
RTVSPropertyOp57
 70
     1
102
RTVSPost2010Prop28
280
     0
102
RTVSPost2010PropOp28
 70
     1
102
RTVSPost2010Prop29
280
     1
102
RTVSPost2010PropOp29
 70
     1
102
RTVSPost2010Prop30
280
     1
102
RTVSPost2010PropOp30
 70
     1
102
RTVSPost2010Prop31
280
     0
102
RTVSPost2010PropOp31
 70
     1
102
RTVSPost2010Prop32
280
     0
102
RTVSPost2010PropOp32
 70
     1
102
RTVSPost2010Prop33
280
     0
102
RTVSPost2010PropOp33
 70
     1
102
RTVSPost2010Prop34
280
     0
102
RTVSPost2010PropOp34
 70
     1
102
RTVSPost2010Prop35
280
     0
102
RTVSPost2010PropOp35
 70
     1
102
RTVSPost2010Prop36
280
     0
102
RTVSPost2010PropOp36
 70
     1
102
RTVSPost2010Prop37
 90
       50
102
RTVSPost2010PropOp37
 70
     1
102
RTVSPost2010Prop38
140
0.0
102
RTVSPost2010PropOp38
 70
     1
102
RTVSPost2010Prop39
140
1.0
102
RTVSPost2010PropOp39
 70
     1
102
RTVSPost2010Prop40
 90
        0
102
RTVSPost2010PropOp40
 70
     1
102
RTVSPost2010Prop41ColorIndex
 90
       18
102
RTVSPost2010Prop41ColorRGB
 90
        0
102
RTVSPost2010PropOp41
 70
     1
102
RTVSPost2010Prop42
 90
       50
102
RTVSPost2010PropOp42
 70
     1
102
RTVSPost2010Prop43
 90
        3
102
RTVSPost2010PropOp43
 70
     1
102
RTVSPost2010Prop44ColorIndex
 90
        5
102
RTVSPost2010Prop44ColorRGB
 90
      255
102
RTVSPost2010PropOp44
 70
     1
102
RTVSPost2010Prop45
280
     0
102
RTVSPost2010PropOp45
 70
     1
102
RTVSPost2010Prop46
 90
       50
102
RTVSPost2010PropOp46
 70
     1
102
RTVSPost2010Prop47
 90
       50
102
RTVSPost2010PropOp47
 70
     1
102
RTVSPost2010Prop48
 90
       50
102
RTVSPost2010PropOp48
 70
     1
102
RTVSPost2010Prop49
280
     0
102
RTVSPost2010PropOp49
 70
     1
102
RTVSPost2010Prop50
 90
       50
102
RTVSPost2010PropOp50
 70
     1
102
RTVSPost2010Prop51ColorIndex
 90
      256
102
RTVSPost2010Prop51ColorRGB
 90
-16777216
102
RTVSPost2010PropOp51
 70
     0
102
RTVSPost2010Prop52
140
1.0
102
RTVSPost2010PropOp52
 70
     0
102
RTVSPost2010Prop53
 90
        2
102
RTVSPost2010PropOp53
 70
     1
102
RTVSPost2010Prop54
  1
strokes_ogs.tif
102
RTVSPost2010PropOp54
 70
     1
102
RTVSPost2010Prop55
280
     0
102
RTVSPost2010PropOp55
 70
     1
102
RTVSPost2010Prop56
140
1.0
102
RTVSPost2010PropOp56
 70
     1
102
RTVSPost2010Prop57
140
1.0
102
RTVSPost2010PropOp57
 70
     1
  0
XRECORD
  5
4A7
102
{ACAD_REACTORS
330
4A6
102
}
330
4A6
100
AcDbXrecord
280
     1
102
RTVSPropertyOp0
 70
     1
102
RTVSPropertyOp1
 70
     1
102
RTVSPropertyOp2
 70
     1
102
RTVSPropertyOp3
 70
     1
102
RTVSPropertyOp4
 70
     1
102
RTVSPropertyOp5
 70
     1
102
RTVSPropertyOp6
 70
     1
102
RTVSPropertyOp7
 70
     1
102
RTVSPropertyOp8
 70
     1
102
RTVSPropertyOp9
 70
     1
102
RTVSPropertyOp10
 70
     1
102
RTVSPropertyOp11
 70
     1
102
RTVSPropertyOp12
 70
     1
102
RTVSPropertyOp13
 70
     1
102
RTVSPropertyOp14
 70
     1
102
RTVSPropertyOp15
 70
     1
102
RTVSPropertyOp16
 70
     1
102
RTVSPropertyOp17
 70
     1
102
RTVSPropertyOp18
 70
     1
102
RTVSPropertyOp19
 70
     1
102
RTVSPropertyOp20
 70
     1
102
RTVSPropertyOp21
 70
     1
102
RTVSPropertyOp22
 70
     1
102
RTVSPropertyOp23
 70
     1
102
RTVSPropertyOp24
 70
     1
102
RTVSPropertyOp25
 70
     1
102
RTVSPropertyOp26
 70
     1
102
RTVSPropertyOp27
 70
     1
102
RTVSPropertyOp28
 70
     1
102
RTVSPropertyOp29
 70
     1
102
RTVSPropertyOp30
 70
     1
102
RTVSPropertyOp31
 70
     1
102
RTVSPropertyOp32
 70
     1
102
RTVSPropertyOp33
 70
     1
102
RTVSPropertyOp34
 70
     1
102
RTVSPropertyOp35
 70
     1
102
RTVSPropertyOp36
 70
     1
102
RTVSPropertyOp37
 70
     1
102
RTVSPropertyOp38
 70
     1
102
RTVSPropertyOp39
 70
     1
102
RTVSPropertyOp40
 70
     1
102
RTVSPropertyOp41
 70
     1
102
RTVSPropertyOp42
 70
     1
102
RTVSPropertyOp43
 70
     1
102
RTVSPropertyOp44
 70
     1
102
RTVSPropertyOp45
 70
     1
102
RTVSPropertyOp46
 70
     1
102
RTVSPropertyOp47
 70
     1
102
RTVSPropertyOp48
 70
     1
102
RTVSPropertyOp49
 70
     1
102
RTVSPropertyOp50
 70
     1
102
RTVSPropertyOp51
 70
     0
102
RTVSPropertyOp52
 70
     0
102
RTVSPropertyOp53
 70
     1
102
RTVSPropertyOp54
 70
     1
102
RTVSPropertyOp55
 70
     1
102
RTVSPropertyOp56
 70
     1
102
RTVSPropertyOp57
 70
     1
102
RTVSPost2010Prop28
280
     0
102
RTVSPost2010PropOp28
 70
     1
102
RTVSPost2010Prop29
280
     1
102
RTVSPost2010PropOp29
 70
     1
102
RTVSPost2010Prop30
280
     1
102
RTVSPost2010PropOp30
 70
     1
102
RTVSPost2010Prop31
280
     0
102
RTVSPost2010PropOp31
 70
     1
102
RTVSPost2010Prop32
280
     0
102
RTVSPost2010PropOp32
 70
     1
102
RTVSPost2010Prop33
280
     0
102
RTVSPost2010PropOp33
 70
     1
102
RTVSPost2010Prop34
280
     0
102
RTVSPost2010PropOp34
 70
     1
102
RTVSPost2010Prop35
280
     0
102
RTVSPost2010PropOp35
 70
     1
102
RTVSPost2010Prop36
280
     0
102
RTVSPost2010PropOp36
 70
     1
102
RTVSPost2010Prop37
 90
       50
102
RTVSPost2010PropOp37
 70
     1
102
RTVSPost2010Prop38
140
0.0
102
RTVSPost2010PropOp38
 70
     1
102
RTVSPost2010Prop39
140
1.0
102
RTVSPost2010PropOp39
 70
     1
102
RTVSPost2010Prop40
 90
        0
102
RTVSPost2010PropOp40
 70
     1
102
RTVSPost2010Prop41ColorIndex
 90
       18
102
RTVSPost2010Prop41ColorRGB
 90
        0
102
RTVSPost2010PropOp41
 70
     1
102
RTVSPost2010Prop42
 90
       50
102
RTVSPost2010PropOp42
 70
     1
102
RTVSPost2010Prop43
 90
        3
102
RTVSPost2010PropOp43
 70
     1
102
RTVSPost2010Prop44ColorIndex
 90
        5
102
RTVSPost2010Prop44ColorRGB
 90
      255
102
RTVSPost2010PropOp44
 70
     1
102
RTVSPost2010Prop45
280
     0
102
RTVSPost2010PropOp45
 70
     1
102
RTVSPost2010Prop46
 90
       50
102
RTVSPost2010PropOp46
 70
     1
102
RTVSPost2010Prop47
 90
       50
102
RTVSPost2010PropOp47
 70
     1
102
RTVSPost2010Prop48
 90
       50
102
RTVSPost2010PropOp48
 70
     1
102
RTVSPost2010Prop49
280
     0
102
RTVSPost2010PropOp49
 70
     1
102
RTVSPost2010Prop50
 90
       50
102
RTVSPost2010PropOp50
 70
     1
102
RTVSPost2010Prop51ColorIndex
 90
      256
102
RTVSPost2010Prop51ColorRGB
 90
-16777216
102
RTVSPost2010PropOp51
 70
     0
102
RTVSPost2010Prop52
140
1.0
102
RTVSPost2010PropOp52
 70
     0
102
RTVSPost2010Prop53
 90
        2
102
RTVSPost2010PropOp53
 70
     1
102
RTVSPost2010Prop54
  1
strokes_ogs.tif
102
RTVSPost2010PropOp54
 70
     1
102
RTVSPost2010Prop55
280
     0
102
RTVSPost2010PropOp55
 70
     1
102
RTVSPost2010Prop56
140
1.0
102
RTVSPost2010PropOp56
 70
     1
102
RTVSPost2010Prop57
140
1.0
102
RTVSPost2010PropOp57
 70
     1
  0
XRECORD
  5
4AD
102
{ACAD_REACTORS
330
4AC
102
}
330
4AC
100
AcDbXrecord
280
     1
102
RTVSPropertyOp0
 70
     1
102
RTVSPropertyOp1
 70
     1
102
RTVSPropertyOp2
 70
     1
102
RTVSPropertyOp3
 70
     1
102
RTVSPropertyOp4
 70
     1
102
RTVSPropertyOp5
 70
     1
102
RTVSPropertyOp6
 70
     1
102
RTVSPropertyOp7
 70
     1
102
RTVSPropertyOp8
 70
     1
102
RTVSPropertyOp9
 70
     1
102
RTVSPropertyOp10
 70
     1
102
RTVSPropertyOp11
 70
     1
102
RTVSPropertyOp12
 70
     1
102
RTVSPropertyOp13
 70
     1
102
RTVSPropertyOp14
 70
     1
102
RTVSPropertyOp15
 70
     1
102
RTVSPropertyOp16
 70
     1
102
RTVSPropertyOp17
 70
     1
102
RTVSPropertyOp18
 70
     1
102
RTVSPropertyOp19
 70
     1
102
RTVSPropertyOp20
 70
     1
102
RTVSPropertyOp21
 70
     1
102
RTVSPropertyOp22
 70
     1
102
RTVSPropertyOp23
 70
     1
102
RTVSPropertyOp24
 70
     1
102
RTVSPropertyOp25
 70
     1
102
RTVSPropertyOp26
 70
     1
102
RTVSPropertyOp27
 70
     1
102
RTVSPropertyOp28
 70
     1
102
RTVSPropertyOp29
 70
     1
102
RTVSPropertyOp30
 70
     1
102
RTVSPropertyOp31
 70
     1
102
RTVSPropertyOp32
 70
     1
102
RTVSPropertyOp33
 70
     1
102
RTVSPropertyOp34
 70
     1
102
RTVSPropertyOp35
 70
     1
102
RTVSPropertyOp36
 70
     1
102
RTVSPropertyOp37
 70
     1
102
RTVSPropertyOp38
 70
     1
102
RTVSPropertyOp39
 70
     1
102
RTVSPropertyOp40
 70
     1
102
RTVSPropertyOp41
 70
     1
102
RTVSPropertyOp42
 70
     1
102
RTVSPropertyOp43
 70
     1
102
RTVSPropertyOp44
 70
     1
102
RTVSPropertyOp45
 70
     1
102
RTVSPropertyOp46
 70
     1
102
RTVSPropertyOp47
 70
     1
102
RTVSPropertyOp48
 70
     1
102
RTVSPropertyOp49
 70
     1
102
RTVSPropertyOp50
 70
     1
102
RTVSPropertyOp51
 70
     0
102
RTVSPropertyOp52
 70
     0
102
RTVSPropertyOp53
 70
     1
102
RTVSPropertyOp54
 70
     1
102
RTVSPropertyOp55
 70
     1
102
RTVSPropertyOp56
 70
     1
102
RTVSPropertyOp57
 70
     1
102
RTVSPost2010Prop28
280
     0
102
RTVSPost2010PropOp28
 70
     1
102
RTVSPost2010Prop29
280
     1
102
RTVSPost2010PropOp29
 70
     1
102
RTVSPost2010Prop30
280
     1
102
RTVSPost2010PropOp30
 70
     1
102
RTVSPost2010Prop31
280
     0
102
RTVSPost2010PropOp31
 70
     1
102
RTVSPost2010Prop32
280
     0
102
RTVSPost2010PropOp32
 70
     1
102
RTVSPost2010Prop33
280
     0
102
RTVSPost2010PropOp33
 70
     1
102
RTVSPost2010Prop34
280
     0
102
RTVSPost2010PropOp34
 70
     1
102
RTVSPost2010Prop35
280
     0
102
RTVSPost2010PropOp35
 70
     1
102
RTVSPost2010Prop36
280
     0
102
RTVSPost2010PropOp36
 70
     1
102
RTVSPost2010Prop37
 90
       50
102
RTVSPost2010PropOp37
 70
     1
102
RTVSPost2010Prop38
140
0.0
102
RTVSPost2010PropOp38
 70
     1
102
RTVSPost2010Prop39
140
1.0
102
RTVSPost2010PropOp39
 70
     1
102
RTVSPost2010Prop40
 90
        0
102
RTVSPost2010PropOp40
 70
     1
102
RTVSPost2010Prop41ColorIndex
 90
       18
102
RTVSPost2010Prop41ColorRGB
 90
        0
102
RTVSPost2010PropOp41
 70
     1
102
RTVSPost2010Prop42
 90
       50
102
RTVSPost2010PropOp42
 70
     1
102
RTVSPost2010Prop43
 90
        3
102
RTVSPost2010PropOp43
 70
     1
102
RTVSPost2010Prop44ColorIndex
 90
        5
102
RTVSPost2010Prop44ColorRGB
 90
      255
102
RTVSPost2010PropOp44
 70
     1
102
RTVSPost2010Prop45
280
     0
102
RTVSPost2010PropOp45
 70
     1
102
RTVSPost2010Prop46
 90
       50
102
RTVSPost2010PropOp46
 70
     1
102
RTVSPost2010Prop47
 90
       50
102
RTVSPost2010PropOp47
 70
     1
102
RTVSPost2010Prop48
 90
       50
102
RTVSPost2010PropOp48
 70
     1
102
RTVSPost2010Prop49
280
     0
102
RTVSPost2010PropOp49
 70
     1
102
RTVSPost2010Prop50
 90
       50
102
RTVSPost2010PropOp50
 70
     1
102
RTVSPost2010Prop51ColorIndex
 90
      256
102
RTVSPost2010Prop51ColorRGB
 90
-16777216
102
RTVSPost2010PropOp51
 70
     0
102
RTVSPost2010Prop52
140
1.0
102
RTVSPost2010PropOp52
 70
     0
102
RTVSPost2010Prop53
 90
        2
102
RTVSPost2010PropOp53
 70
     1
102
RTVSPost2010Prop54
  1
strokes_ogs.tif
102
RTVSPost2010PropOp54
 70
     1
102
RTVSPost2010Prop55
280
     0
102
RTVSPost2010PropOp55
 70
     1
102
RTVSPost2010Prop56
140
1.0
102
RTVSPost2010PropOp56
 70
     1
102
RTVSPost2010Prop57
140
1.0
102
RTVSPost2010PropOp57
 70
     1
  0
XRECORD
  5
4C1
102
{ACAD_REACTORS
330
4C0
102
}
330
4C0
100
AcDbXrecord
280
     1
102
RTVSPropertyOp0
 70
     0
102
RTVSPropertyOp1
 70
     0
102
RTVSPropertyOp2
 70
     0
102
RTVSPropertyOp3
 70
     0
102
RTVSPropertyOp4
 70
     0
102
RTVSPropertyOp5
 70
     0
102
RTVSPropertyOp6
 70
     0
102
RTVSPropertyOp7
 70
     0
102
RTVSPropertyOp8
 70
     0
102
RTVSPropertyOp9
 70
     0
102
RTVSPropertyOp10
 70
     0
102
RTVSPropertyOp11
 70
     0
102
RTVSPropertyOp12
 70
     0
102
RTVSPropertyOp13
 70
     0
102
RTVSPropertyOp14
 70
     2
102
RTVSPropertyOp15
 70
     0
102
RTVSPropertyOp16
 70
     0
102
RTVSPropertyOp17
 70
     0
102
RTVSPropertyOp18
 70
     0
102
RTVSPropertyOp19
 70
     0
102
RTVSPropertyOp20
 70
     0
102
RTVSPropertyOp21
 70
     0
102
RTVSPropertyOp22
 70
     0
102
RTVSPropertyOp23
 70
     0
102
RTVSPropertyOp24
 70
     0
102
RTVSPropertyOp25
 70
     0
102
RTVSPropertyOp26
 70
     0
102
RTVSPropertyOp27
 70
     0
102
RTVSPropertyOp28
 70
     0
102
RTVSPropertyOp29
 70
     0
102
RTVSPropertyOp30
 70
     0
102
RTVSPropertyOp31
 70
     0
102
RTVSPropertyOp32
 70
     0
102
RTVSPropertyOp33
 70
     0
102
RTVSPropertyOp34
 70
     0
102
RTVSPropertyOp35
 70
     0
102
RTVSPropertyOp36
 70
     0
102
RTVSPropertyOp37
 70
     0
102
RTVSPropertyOp38
 70
     0
102
RTVSPropertyOp39
 70
     0
102
RTVSPropertyOp40
 70
     0
102
RTVSPropertyOp41
 70
     0
102
RTVSPropertyOp42
 70
     0
102
RTVSPropertyOp43
 70
     0
102
RTVSPropertyOp44
 70
     0
102
RTVSPropertyOp45
 70
     0
102
RTVSPropertyOp46
 70
     0
102
RTVSPropertyOp47
 70
     0
102
RTVSPropertyOp48
 70
     0
102
RTVSPropertyOp49
 70
     0
102
RTVSPropertyOp50
 70
     0
102
RTVSPropertyOp51
 70
     0
102
RTVSPropertyOp52
 70
     0
102
RTVSPropertyOp53
 70
     0
102
RTVSPropertyOp54
 70
     0
102
RTVSPropertyOp55
 70
     0
102
RTVSPropertyOp56
 70
     0
102
RTVSPropertyOp57
 70
     0
102
RTVSPost2010Prop28
280
     0
102
RTVSPost2010PropOp28
 70
     0
102
RTVSPost2010Prop29
280
     1
102
RTVSPost2010PropOp29
 70
     0
102
RTVSPost2010Prop30
280
     1
102
RTVSPost2010PropOp30
 70
     0
102
RTVSPost2010Prop31
280
     0
102
RTVSPost2010PropOp31
 70
     0
102
RTVSPost2010Prop32
280
     0
102
RTVSPost2010PropOp32
 70
     0
102
RTVSPost2010Prop33
280
     0
102
RTVSPost2010PropOp33
 70
     0
102
RTVSPost2010Prop34
280
     0
102
RTVSPost2010PropOp34
 70
     0
102
RTVSPost2010Prop35
280
     0
102
RTVSPost2010PropOp35
 70
     0
102
RTVSPost2010Prop36
280
     0
102
RTVSPost2010PropOp36
 70
     0
102
RTVSPost2010Prop37
 90
       50
102
RTVSPost2010PropOp37
 70
     0
102
RTVSPost2010Prop38
140
0.0
102
RTVSPost2010PropOp38
 70
     0
102
RTVSPost2010Prop39
140
1.0
102
RTVSPost2010PropOp39
 70
     0
102
RTVSPost2010Prop40
 90
        0
102
RTVSPost2010PropOp40
 70
     0
102
RTVSPost2010Prop41ColorIndex
 90
       18
102
RTVSPost2010Prop41ColorRGB
 90
        0
102
RTVSPost2010PropOp41
 70
     0
102
RTVSPost2010Prop42
 90
       50
102
RTVSPost2010PropOp42
 70
     0
102
RTVSPost2010Prop43
 90
        3
102
RTVSPost2010PropOp43
 70
     0
102
RTVSPost2010Prop44ColorIndex
 90
        5
102
RTVSPost2010Prop44ColorRGB
 90
      255
102
RTVSPost2010PropOp44
 70
     0
102
RTVSPost2010Prop45
280
     0
102
RTVSPost2010PropOp45
 70
     0
102
RTVSPost2010Prop46
 90
       50
102
RTVSPost2010PropOp46
 70
     0
102
RTVSPost2010Prop47
 90
       50
102
RTVSPost2010PropOp47
 70
     0
102
RTVSPost2010Prop48
 90
       50
102
RTVSPost2010PropOp48
 70
     0
102
RTVSPost2010Prop49
280
     0
102
RTVSPost2010PropOp49
 70
     0
102
RTVSPost2010Prop50
 90
       50
102
RTVSPost2010PropOp50
 70
     0
102
RTVSPost2010Prop51ColorIndex
 90
      256
102
RTVSPost2010Prop51ColorRGB
 90
-16777216
102
RTVSPost2010PropOp51
 70
     0
102
RTVSPost2010Prop52
140
1.0
102
RTVSPost2010PropOp52
 70
     0
102
RTVSPost2010Prop53
 90
        2
102
RTVSPost2010PropOp53
 70
     0
102
RTVSPost2010Prop54
  1
strokes_ogs.tif
102
RTVSPost2010PropOp54
 70
     0
102
RTVSPost2010Prop55
280
     0
102
RTVSPost2010PropOp55
 70
     0
102
RTVSPost2010Prop56
140
1.0
102
RTVSPost2010PropOp56
 70
     0
102
RTVSPost2010Prop57
140
1.0
102
RTVSPost2010PropOp57
 70
     0
  0
XRECORD
  5
4BB
102
{ACAD_REACTORS
330
4BA
102
}
330
4BA
100
AcDbXrecord
280
     1
102
RTVSPropertyOp0
 70
     1
102
RTVSPropertyOp1
 70
     1
102
RTVSPropertyOp2
 70
     1
102
RTVSPropertyOp3
 70
     1
102
RTVSPropertyOp4
 70
     1
102
RTVSPropertyOp5
 70
     1
102
RTVSPropertyOp6
 70
     1
102
RTVSPropertyOp7
 70
     1
102
RTVSPropertyOp8
 70
     1
102
RTVSPropertyOp9
 70
     1
102
RTVSPropertyOp10
 70
     1
102
RTVSPropertyOp11
 70
     1
102
RTVSPropertyOp12
 70
     1
102
RTVSPropertyOp13
 70
     1
102
RTVSPropertyOp14
 70
     1
102
RTVSPropertyOp15
 70
     1
102
RTVSPropertyOp16
 70
     1
102
RTVSPropertyOp17
 70
     1
102
RTVSPropertyOp18
 70
     1
102
RTVSPropertyOp19
 70
     1
102
RTVSPropertyOp20
 70
     1
102
RTVSPropertyOp21
 70
     1
102
RTVSPropertyOp22
 70
     1
102
RTVSPropertyOp23
 70
     1
102
RTVSPropertyOp24
 70
     1
102
RTVSPropertyOp25
 70
     1
102
RTVSPropertyOp26
 70
     1
102
RTVSPropertyOp27
 70
     1
102
RTVSPropertyOp28
 70
     1
102
RTVSPropertyOp29
 70
     1
102
RTVSPropertyOp30
 70
     1
102
RTVSPropertyOp31
 70
     1
102
RTVSPropertyOp32
 70
     1
102
RTVSPropertyOp33
 70
     1
102
RTVSPropertyOp34
 70
     1
102
RTVSPropertyOp35
 70
     1
102
RTVSPropertyOp36
 70
     1
102
RTVSPropertyOp37
 70
     1
102
RTVSPropertyOp38
 70
     1
102
RTVSPropertyOp39
 70
     1
102
RTVSPropertyOp40
 70
     1
102
RTVSPropertyOp41
 70
     1
102
RTVSPropertyOp42
 70
     1
102
RTVSPropertyOp43
 70
     1
102
RTVSPropertyOp44
 70
     1
102
RTVSPropertyOp45
 70
     1
102
RTVSPropertyOp46
 70
     1
102
RTVSPropertyOp47
 70
     1
102
RTVSPropertyOp48
 70
     1
102
RTVSPropertyOp49
 70
     1
102
RTVSPropertyOp50
 70
     1
102
RTVSPropertyOp51
 70
     0
102
RTVSPropertyOp52
 70
     0
102
RTVSPropertyOp53
 70
     1
102
RTVSPropertyOp54
 70
     1
102
RTVSPropertyOp55
 70
     1
102
RTVSPropertyOp56
 70
     1
102
RTVSPropertyOp57
 70
     1
102
RTVSPost2010Prop28
280
     0
102
RTVSPost2010PropOp28
 70
     1
102
RTVSPost2010Prop29
280
     1
102
RTVSPost2010PropOp29
 70
     1
102
RTVSPost2010Prop30
280
     1
102
RTVSPost2010PropOp30
 70
     1
102
RTVSPost2010Prop31
280
     0
102
RTVSPost2010PropOp31
 70
     1
102
RTVSPost2010Prop32
280
     0
102
RTVSPost2010PropOp32
 70
     1
102
RTVSPost2010Prop33
280
     0
102
RTVSPost2010PropOp33
 70
     1
102
RTVSPost2010Prop34
280
     0
102
RTVSPost2010PropOp34
 70
     1
102
RTVSPost2010Prop35
280
     0
102
RTVSPost2010PropOp35
 70
     1
102
RTVSPost2010Prop36
280
     0
102
RTVSPost2010PropOp36
 70
     1
102
RTVSPost2010Prop37
 90
       50
102
RTVSPost2010PropOp37
 70
     1
102
RTVSPost2010Prop38
140
0.0
102
RTVSPost2010PropOp38
 70
     1
102
RTVSPost2010Prop39
140
1.0
102
RTVSPost2010PropOp39
 70
     1
102
RTVSPost2010Prop40
 90
        0
102
RTVSPost2010PropOp40
 70
     1
102
RTVSPost2010Prop41ColorIndex
 90
       18
102
RTVSPost2010Prop41ColorRGB
 90
        0
102
RTVSPost2010PropOp41
 70
     1
102
RTVSPost2010Prop42
 90
       50
102
RTVSPost2010PropOp42
 70
     1
102
RTVSPost2010Prop43
 90
        3
102
RTVSPost2010PropOp43
 70
     1
102
RTVSPost2010Prop44ColorIndex
 90
        5
102
RTVSPost2010Prop44ColorRGB
 90
      255
102
RTVSPost2010PropOp44
 70
     1
102
RTVSPost2010Prop45
280
     0
102
RTVSPost2010PropOp45
 70
     1
102
RTVSPost2010Prop46
 90
       50
102
RTVSPost2010PropOp46
 70
     1
102
RTVSPost2010Prop47
 90
       50
102
RTVSPost2010PropOp47
 70
     1
102
RTVSPost2010Prop48
 90
       50
102
RTVSPost2010PropOp48
 70
     1
102
RTVSPost2010Prop49
280
     0
102
RTVSPost2010PropOp49
 70
     1
102
RTVSPost2010Prop50
 90
       50
102
RTVSPost2010PropOp50
 70
     1
102
RTVSPost2010Prop51ColorIndex
 90
      256
102
RTVSPost2010Prop51ColorRGB
 90
-16777216
102
RTVSPost2010PropOp51
 70
     0
102
RTVSPost2010Prop52
140
1.0
102
RTVSPost2010PropOp52
 70
     0
102
RTVSPost2010Prop53
 90
        2
102
RTVSPost2010PropOp53
 70
     1
102
RTVSPost2010Prop54
  1
strokes_ogs.tif
102
RTVSPost2010PropOp54
 70
     1
102
RTVSPost2010Prop55
280
     0
102
RTVSPost2010PropOp55
 70
     1
102
RTVSPost2010Prop56
140
1.0
102
RTVSPost2010PropOp56
 70
     1
102
RTVSPost2010Prop57
140
1.0
102
RTVSPost2010PropOp57
 70
     1
  0
XRECORD
  5
4C3
102
{ACAD_REACTORS
330
4C2
102
}
330
4C2
100
AcDbXrecord
280
     1
102
RTVSPropertyOp0
 70
     0
102
RTVSPropertyOp1
 70
     0
102
RTVSPropertyOp2
 70
     0
102
RTVSPropertyOp3
 70
     0
102
RTVSPropertyOp4
 70
     0
102
RTVSPropertyOp5
 70
     0
102
RTVSPropertyOp6
 70
     0
102
RTVSPropertyOp7
 70
     0
102
RTVSPropertyOp8
 70
     0
102
RTVSPropertyOp9
 70
     0
102
RTVSPropertyOp10
 70
     0
102
RTVSPropertyOp11
 70
     0
102
RTVSPropertyOp12
 70
     0
102
RTVSPropertyOp13
 70
     0
102
RTVSPropertyOp14
 70
     2
102
RTVSPropertyOp15
 70
     0
102
RTVSPropertyOp16
 70
     0
102
RTVSPropertyOp17
 70
     0
102
RTVSPropertyOp18
 70
     0
102
RTVSPropertyOp19
 70
     0
102
RTVSPropertyOp20
 70
     0
102
RTVSPropertyOp21
 70
     0
102
RTVSPropertyOp22
 70
     0
102
RTVSPropertyOp23
 70
     0
102
RTVSPropertyOp24
 70
     0
102
RTVSPropertyOp25
 70
     0
102
RTVSPropertyOp26
 70
     0
102
RTVSPropertyOp27
 70
     0
102
RTVSPropertyOp28
 70
     0
102
RTVSPropertyOp29
 70
     0
102
RTVSPropertyOp30
 70
     0
102
RTVSPropertyOp31
 70
     0
102
RTVSPropertyOp32
 70
     0
102
RTVSPropertyOp33
 70
     0
102
RTVSPropertyOp34
 70
     0
102
RTVSPropertyOp35
 70
     0
102
RTVSPropertyOp36
 70
     0
102
RTVSPropertyOp37
 70
     0
102
RTVSPropertyOp38
 70
     0
102
RTVSPropertyOp39
 70
     0
102
RTVSPropertyOp40
 70
     0
102
RTVSPropertyOp41
 70
     0
102
RTVSPropertyOp42
 70
     0
102
RTVSPropertyOp43
 70
     0
102
RTVSPropertyOp44
 70
     0
102
RTVSPropertyOp45
 70
     0
102
RTVSPropertyOp46
 70
     0
102
RTVSPropertyOp47
 70
     0
102
RTVSPropertyOp48
 70
     0
102
RTVSPropertyOp49
 70
     0
102
RTVSPropertyOp50
 70
     0
102
RTVSPropertyOp51
 70
     0
102
RTVSPropertyOp52
 70
     0
102
RTVSPropertyOp53
 70
     0
102
RTVSPropertyOp54
 70
     0
102
RTVSPropertyOp55
 70
     0
102
RTVSPropertyOp56
 70
     0
102
RTVSPropertyOp57
 70
     0
102
RTVSPost2010Prop28
280
     0
102
RTVSPost2010PropOp28
 70
     0
102
RTVSPost2010Prop29
280
     1
102
RTVSPost2010PropOp29
 70
     0
102
RTVSPost2010Prop30
280
     1
102
RTVSPost2010PropOp30
 70
     0
102
RTVSPost2010Prop31
280
     0
102
RTVSPost2010PropOp31
 70
     0
102
RTVSPost2010Prop32
280
     0
102
RTVSPost2010PropOp32
 70
     0
102
RTVSPost2010Prop33
280
     0
102
RTVSPost2010PropOp33
 70
     0
102
RTVSPost2010Prop34
280
     0
102
RTVSPost2010PropOp34
 70
     0
102
RTVSPost2010Prop35
280
     0
102
RTVSPost2010PropOp35
 70
     0
102
RTVSPost2010Prop36
280
     0
102
RTVSPost2010PropOp36
 70
     0
102
RTVSPost2010Prop37
 90
       50
102
RTVSPost2010PropOp37
 70
     0
102
RTVSPost2010Prop38
140
0.0
102
RTVSPost2010PropOp38
 70
     0
102
RTVSPost2010Prop39
140
1.0
102
RTVSPost2010PropOp39
 70
     0
102
RTVSPost2010Prop40
 90
        0
102
RTVSPost2010PropOp40
 70
     0
102
RTVSPost2010Prop41ColorIndex
 90
       18
102
RTVSPost2010Prop41ColorRGB
 90
        0
102
RTVSPost2010PropOp41
 70
     0
102
RTVSPost2010Prop42
 90
       50
102
RTVSPost2010PropOp42
 70
     0
102
RTVSPost2010Prop43
 90
        3
102
RTVSPost2010PropOp43
 70
     0
102
RTVSPost2010Prop44ColorIndex
 90
        5
102
RTVSPost2010Prop44ColorRGB
 90
      255
102
RTVSPost2010PropOp44
 70
     0
102
RTVSPost2010Prop45
280
     0
102
RTVSPost2010PropOp45
 70
     0
102
RTVSPost2010Prop46
 90
       50
102
RTVSPost2010PropOp46
 70
     0
102
RTVSPost2010Prop47
 90
       50
102
RTVSPost2010PropOp47
 70
     0
102
RTVSPost2010Prop48
 90
       50
102
RTVSPost2010PropOp48
 70
     0
102
RTVSPost2010Prop49
280
     0
102
RTVSPost2010PropOp49
 70
     0
102
RTVSPost2010Prop50
 90
       50
102
RTVSPost2010PropOp50
 70
     0
102
RTVSPost2010Prop51ColorIndex
 90
      256
102
RTVSPost2010Prop51ColorRGB
 90
-16777216
102
RTVSPost2010PropOp51
 70
     0
102
RTVSPost2010Prop52
140
1.0
102
RTVSPost2010PropOp52
 70
     0
102
RTVSPost2010Prop53
 90
        2
102
RTVSPost2010PropOp53
 70
     0
102
RTVSPost2010Prop54
  1
strokes_ogs.tif
102
RTVSPost2010PropOp54
 70
     0
102
RTVSPost2010Prop55
280
     0
102
RTVSPost2010PropOp55
 70
     0
102
RTVSPost2010Prop56
140
1.0
102
RTVSPost2010PropOp56
 70
     0
102
RTVSPost2010Prop57
140
1.0
102
RTVSPost2010PropOp57
 70
     0
  0
XRECORD
  5
4B1
102
{ACAD_REACTORS
330
4B0
102
}
330
4B0
100
AcDbXrecord
280
     1
102
RTVSPropertyOp0
 70
     1
102
RTVSPropertyOp1
 70
     1
102
RTVSPropertyOp2
 70
     1
102
RTVSPropertyOp3
 70
     1
102
RTVSPropertyOp4
 70
     1
102
RTVSPropertyOp5
 70
     1
102
RTVSPropertyOp6
 70
     1
102
RTVSPropertyOp7
 70
     1
102
RTVSPropertyOp8
 70
     1
102
RTVSPropertyOp9
 70
     1
102
RTVSPropertyOp10
 70
     1
102
RTVSPropertyOp11
 70
     1
102
RTVSPropertyOp12
 70
     1
102
RTVSPropertyOp13
 70
     1
102
RTVSPropertyOp14
 70
     1
102
RTVSPropertyOp15
 70
     1
102
RTVSPropertyOp16
 70
     1
102
RTVSPropertyOp17
 70
     1
102
RTVSPropertyOp18
 70
     1
102
RTVSPropertyOp19
 70
     1
102
RTVSPropertyOp20
 70
     1
102
RTVSPropertyOp21
 70
     1
102
RTVSPropertyOp22
 70
     1
102
RTVSPropertyOp23
 70
     1
102
RTVSPropertyOp24
 70
     1
102
RTVSPropertyOp25
 70
     1
102
RTVSPropertyOp26
 70
     1
102
RTVSPropertyOp27
 70
     1
102
RTVSPropertyOp28
 70
     1
102
RTVSPropertyOp29
 70
     1
102
RTVSPropertyOp30
 70
     1
102
RTVSPropertyOp31
 70
     1
102
RTVSPropertyOp32
 70
     1
102
RTVSPropertyOp33
 70
     1
102
RTVSPropertyOp34
 70
     1
102
RTVSPropertyOp35
 70
     1
102
RTVSPropertyOp36
 70
     1
102
RTVSPropertyOp37
 70
     1
102
RTVSPropertyOp38
 70
     1
102
RTVSPropertyOp39
 70
     1
102
RTVSPropertyOp40
 70
     1
102
RTVSPropertyOp41
 70
     1
102
RTVSPropertyOp42
 70
     1
102
RTVSPropertyOp43
 70
     1
102
RTVSPropertyOp44
 70
     1
102
RTVSPropertyOp45
 70
     1
102
RTVSPropertyOp46
 70
     1
102
RTVSPropertyOp47
 70
     1
102
RTVSPropertyOp48
 70
     1
102
RTVSPropertyOp49
 70
     1
102
RTVSPropertyOp50
 70
     1
102
RTVSPropertyOp51
 70
     0
102
RTVSPropertyOp52
 70
     0
102
RTVSPropertyOp53
 70
     1
102
RTVSPropertyOp54
 70
     1
102
RTVSPropertyOp55
 70
     1
102
RTVSPropertyOp56
 70
     1
102
RTVSPropertyOp57
 70
     1
102
RTVSPost2010Prop28
280
     0
102
RTVSPost2010PropOp28
 70
     1
102
RTVSPost2010Prop29
280
     1
102
RTVSPost2010PropOp29
 70
     1
102
RTVSPost2010Prop30
280
     1
102
RTVSPost2010PropOp30
 70
     1
102
RTVSPost2010Prop31
280
     0
102
RTVSPost2010PropOp31
 70
     1
102
RTVSPost2010Prop32
280
     0
102
RTVSPost2010PropOp32
 70
     1
102
RTVSPost2010Prop33
280
     0
102
RTVSPost2010PropOp33
 70
     1
102
RTVSPost2010Prop34
280
     0
102
RTVSPost2010PropOp34
 70
     1
102
RTVSPost2010Prop35
280
     0
102
RTVSPost2010PropOp35
 70
     1
102
RTVSPost2010Prop36
280
     0
102
RTVSPost2010PropOp36
 70
     1
102
RTVSPost2010Prop37
 90
       50
102
RTVSPost2010PropOp37
 70
     1
102
RTVSPost2010Prop38
140
0.0
102
RTVSPost2010PropOp38
 70
     1
102
RTVSPost2010Prop39
140
1.0
102
RTVSPost2010PropOp39
 70
     1
102
RTVSPost2010Prop40
 90
        0
102
RTVSPost2010PropOp40
 70
     1
102
RTVSPost2010Prop41ColorIndex
 90
       18
102
RTVSPost2010Prop41ColorRGB
 90
        0
102
RTVSPost2010PropOp41
 70
     1
102
RTVSPost2010Prop42
 90
       50
102
RTVSPost2010PropOp42
 70
     1
102
RTVSPost2010Prop43
 90
        3
102
RTVSPost2010PropOp43
 70
     1
102
RTVSPost2010Prop44ColorIndex
 90
        5
102
RTVSPost2010Prop44ColorRGB
 90
      255
102
RTVSPost2010PropOp44
 70
     1
102
RTVSPost2010Prop45
280
     0
102
RTVSPost2010PropOp45
 70
     1
102
RTVSPost2010Prop46
 90
       50
102
RTVSPost2010PropOp46
 70
     1
102
RTVSPost2010Prop47
 90
       50
102
RTVSPost2010PropOp47
 70
     1
102
RTVSPost2010Prop48
 90
       50
102
RTVSPost2010PropOp48
 70
     1
102
RTVSPost2010Prop49
280
     0
102
RTVSPost2010PropOp49
 70
     1
102
RTVSPost2010Prop50
 90
       50
102
RTVSPost2010PropOp50
 70
     1
102
RTVSPost2010Prop51ColorIndex
 90
      256
102
RTVSPost2010Prop51ColorRGB
 90
-16777216
102
RTVSPost2010PropOp51
 70
     0
102
RTVSPost2010Prop52
140
1.0
102
RTVSPost2010PropOp52
 70
     0
102
RTVSPost2010Prop53
 90
        2
102
RTVSPost2010PropOp53
 70
     1
102
RTVSPost2010Prop54
  1
strokes_ogs.tif
102
RTVSPost2010PropOp54
 70
     1
102
RTVSPost2010Prop55
280
     0
102
RTVSPost2010PropOp55
 70
     1
102
RTVSPost2010Prop56
140
1.0
102
RTVSPost2010PropOp56
 70
     1
102
RTVSPost2010Prop57
140
1.0
102
RTVSPost2010PropOp57
 70
     1
  0
XRECORD
  5
4CF
102
{ACAD_REACTORS
330
4CE
102
}
330
4CE
100
AcDbXrecord
280
     1
102
RTVSPropertyOp0
 70
     1
102
RTVSPropertyOp1
 70
     1
102
RTVSPropertyOp2
 70
     1
102
RTVSPropertyOp3
 70
     1
102
RTVSPropertyOp4
 70
     1
102
RTVSPropertyOp5
 70
     1
102
RTVSPropertyOp6
 70
     1
102
RTVSPropertyOp7
 70
     1
102
RTVSPropertyOp8
 70
     1
102
RTVSPropertyOp9
 70
     1
102
RTVSPropertyOp10
 70
     1
102
RTVSPropertyOp11
 70
     1
102
RTVSPropertyOp12
 70
     1
102
RTVSPropertyOp13
 70
     1
102
RTVSPropertyOp14
 70
     1
102
RTVSPropertyOp15
 70
     1
102
RTVSPropertyOp16
 70
     1
102
RTVSPropertyOp17
 70
     1
102
RTVSPropertyOp18
 70
     1
102
RTVSPropertyOp19
 70
     1
102
RTVSPropertyOp20
 70
     1
102
RTVSPropertyOp21
 70
     1
102
RTVSPropertyOp22
 70
     1
102
RTVSPropertyOp23
 70
     1
102
RTVSPropertyOp24
 70
     1
102
RTVSPropertyOp25
 70
     1
102
RTVSPropertyOp26
 70
     1
102
RTVSPropertyOp27
 70
     1
102
RTVSPropertyOp28
 70
     1
102
RTVSPropertyOp29
 70
     1
102
RTVSPropertyOp30
 70
     1
102
RTVSPropertyOp31
 70
     1
102
RTVSPropertyOp32
 70
     1
102
RTVSPropertyOp33
 70
     1
102
RTVSPropertyOp34
 70
     1
102
RTVSPropertyOp35
 70
     1
102
RTVSPropertyOp36
 70
     1
102
RTVSPropertyOp37
 70
     1
102
RTVSPropertyOp38
 70
     1
102
RTVSPropertyOp39
 70
     1
102
RTVSPropertyOp40
 70
     1
102
RTVSPropertyOp41
 70
     1
102
RTVSPropertyOp42
 70
     1
102
RTVSPropertyOp43
 70
     1
102
RTVSPropertyOp44
 70
     1
102
RTVSPropertyOp45
 70
     1
102
RTVSPropertyOp46
 70
     1
102
RTVSPropertyOp47
 70
     1
102
RTVSPropertyOp48
 70
     1
102
RTVSPropertyOp49
 70
     1
102
RTVSPropertyOp50
 70
     1
102
RTVSPropertyOp51
 70
     0
102
RTVSPropertyOp52
 70
     0
102
RTVSPropertyOp53
 70
     1
102
RTVSPropertyOp54
 70
     1
102
RTVSPropertyOp55
 70
     1
102
RTVSPropertyOp56
 70
     1
102
RTVSPropertyOp57
 70
     1
102
RTVSPost2010Prop28
280
     0
102
RTVSPost2010PropOp28
 70
     1
102
RTVSPost2010Prop29
280
     1
102
RTVSPost2010PropOp29
 70
     1
102
RTVSPost2010Prop30
280
     1
102
RTVSPost2010PropOp30
 70
     1
102
RTVSPost2010Prop31
280
     0
102
RTVSPost2010PropOp31
 70
     1
102
RTVSPost2010Prop32
280
     0
102
RTVSPost2010PropOp32
 70
     1
102
RTVSPost2010Prop33
280
     0
102
RTVSPost2010PropOp33
 70
     1
102
RTVSPost2010Prop34
280
     0
102
RTVSPost2010PropOp34
 70
     1
102
RTVSPost2010Prop35
280
     0
102
RTVSPost2010PropOp35
 70
     1
102
RTVSPost2010Prop36
280
     0
102
RTVSPost2010PropOp36
 70
     1
102
RTVSPost2010Prop37
 90
       50
102
RTVSPost2010PropOp37
 70
     1
102
RTVSPost2010Prop38
140
0.0
102
RTVSPost2010PropOp38
 70
     1
102
RTVSPost2010Prop39
140
1.0
102
RTVSPost2010PropOp39
 70
     1
102
RTVSPost2010Prop40
 90
        0
102
RTVSPost2010PropOp40
 70
     1
102
RTVSPost2010Prop41ColorIndex
 90
       18
102
RTVSPost2010Prop41ColorRGB
 90
        0
102
RTVSPost2010PropOp41
 70
     1
102
RTVSPost2010Prop42
 90
       50
102
RTVSPost2010PropOp42
 70
     1
102
RTVSPost2010Prop43
 90
        3
102
RTVSPost2010PropOp43
 70
     1
102
RTVSPost2010Prop44ColorIndex
 90
        5
102
RTVSPost2010Prop44ColorRGB
 90
      255
102
RTVSPost2010PropOp44
 70
     1
102
RTVSPost2010Prop45
280
     0
102
RTVSPost2010PropOp45
 70
     1
102
RTVSPost2010Prop46
 90
       50
102
RTVSPost2010PropOp46
 70
     1
102
RTVSPost2010Prop47
 90
       50
102
RTVSPost2010PropOp47
 70
     1
102
RTVSPost2010Prop48
 90
       50
102
RTVSPost2010PropOp48
 70
     1
102
RTVSPost2010Prop49
280
     0
102
RTVSPost2010PropOp49
 70
     1
102
RTVSPost2010Prop50
 90
       50
102
RTVSPost2010PropOp50
 70
     1
102
RTVSPost2010Prop51ColorIndex
 90
      256
102
RTVSPost2010Prop51ColorRGB
 90
-16777216
102
RTVSPost2010PropOp51
 70
     0
102
RTVSPost2010Prop52
140
1.0
102
RTVSPost2010PropOp52
 70
     0
102
RTVSPost2010Prop53
 90
        2
102
RTVSPost2010PropOp53
 70
     1
102
RTVSPost2010Prop54
  1
strokes_ogs.tif
102
RTVSPost2010PropOp54
 70
     1
102
RTVSPost2010Prop55
280
     0
102
RTVSPost2010PropOp55
 70
     1
102
RTVSPost2010Prop56
140
1.0
102
RTVSPost2010PropOp56
 70
     1
102
RTVSPost2010Prop57
140
1.0
102
RTVSPost2010PropOp57
 70
     1
  0
XRECORD
  5
4CD
102
{ACAD_REACTORS
330
4CC
102
}
330
4CC
100
AcDbXrecord
280
     1
102
RTVSPropertyOp0
 70
     1
102
RTVSPropertyOp1
 70
     1
102
RTVSPropertyOp2
 70
     1
102
RTVSPropertyOp3
 70
     1
102
RTVSPropertyOp4
 70
     1
102
RTVSPropertyOp5
 70
     1
102
RTVSPropertyOp6
 70
     1
102
RTVSPropertyOp7
 70
     1
102
RTVSPropertyOp8
 70
     1
102
RTVSPropertyOp9
 70
     1
102
RTVSPropertyOp10
 70
     1
102
RTVSPropertyOp11
 70
     1
102
RTVSPropertyOp12
 70
     1
102
RTVSPropertyOp13
 70
     1
102
RTVSPropertyOp14
 70
     1
102
RTVSPropertyOp15
 70
     1
102
RTVSPropertyOp16
 70
     1
102
RTVSPropertyOp17
 70
     1
102
RTVSPropertyOp18
 70
     1
102
RTVSPropertyOp19
 70
     1
102
RTVSPropertyOp20
 70
     1
102
RTVSPropertyOp21
 70
     1
102
RTVSPropertyOp22
 70
     1
102
RTVSPropertyOp23
 70
     1
102
RTVSPropertyOp24
 70
     1
102
RTVSPropertyOp25
 70
     1
102
RTVSPropertyOp26
 70
     1
102
RTVSPropertyOp27
 70
     1
102
RTVSPropertyOp28
 70
     1
102
RTVSPropertyOp29
 70
     1
102
RTVSPropertyOp30
 70
     1
102
RTVSPropertyOp31
 70
     1
102
RTVSPropertyOp32
 70
     1
102
RTVSPropertyOp33
 70
     1
102
RTVSPropertyOp34
 70
     1
102
RTVSPropertyOp35
 70
     1
102
RTVSPropertyOp36
 70
     1
102
RTVSPropertyOp37
 70
     1
102
RTVSPropertyOp38
 70
     1
102
RTVSPropertyOp39
 70
     1
102
RTVSPropertyOp40
 70
     1
102
RTVSPropertyOp41
 70
     1
102
RTVSPropertyOp42
 70
     1
102
RTVSPropertyOp43
 70
     1
102
RTVSPropertyOp44
 70
     1
102
RTVSPropertyOp45
 70
     1
102
RTVSPropertyOp46
 70
     1
102
RTVSPropertyOp47
 70
     1
102
RTVSPropertyOp48
 70
     1
102
RTVSPropertyOp49
 70
     1
102
RTVSPropertyOp50
 70
     1
102
RTVSPropertyOp51
 70
     0
102
RTVSPropertyOp52
 70
     0
102
RTVSPropertyOp53
 70
     1
102
RTVSPropertyOp54
 70
     1
102
RTVSPropertyOp55
 70
     1
102
RTVSPropertyOp56
 70
     1
102
RTVSPropertyOp57
 70
     1
102
RTVSPost2010Prop28
280
     0
102
RTVSPost2010PropOp28
 70
     1
102
RTVSPost2010Prop29
280
     1
102
RTVSPost2010PropOp29
 70
     1
102
RTVSPost2010Prop30
280
     1
102
RTVSPost2010PropOp30
 70
     1
102
RTVSPost2010Prop31
280
     0
102
RTVSPost2010PropOp31
 70
     1
102
RTVSPost2010Prop32
280
     0
102
RTVSPost2010PropOp32
 70
     1
102
RTVSPost2010Prop33
280
     0
102
RTVSPost2010PropOp33
 70
     1
102
RTVSPost2010Prop34
280
     0
102
RTVSPost2010PropOp34
 70
     1
102
RTVSPost2010Prop35
280
     0
102
RTVSPost2010PropOp35
 70
     1
102
RTVSPost2010Prop36
280
     0
102
RTVSPost2010PropOp36
 70
     1
102
RTVSPost2010Prop37
 90
       50
102
RTVSPost2010PropOp37
 70
     1
102
RTVSPost2010Prop38
140
0.0
102
RTVSPost2010PropOp38
 70
     1
102
RTVSPost2010Prop39
140
1.0
102
RTVSPost2010PropOp39
 70
     1
102
RTVSPost2010Prop40
 90
        0
102
RTVSPost2010PropOp40
 70
     1
102
RTVSPost2010Prop41ColorIndex
 90
       18
102
RTVSPost2010Prop41ColorRGB
 90
        0
102
RTVSPost2010PropOp41
 70
     1
102
RTVSPost2010Prop42
 90
       50
102
RTVSPost2010PropOp42
 70
     1
102
RTVSPost2010Prop43
 90
        3
102
RTVSPost2010PropOp43
 70
     1
102
RTVSPost2010Prop44ColorIndex
 90
        5
102
RTVSPost2010Prop44ColorRGB
 90
      255
102
RTVSPost2010PropOp44
 70
     1
102
RTVSPost2010Prop45
280
     0
102
RTVSPost2010PropOp45
 70
     1
102
RTVSPost2010Prop46
 90
       50
102
RTVSPost2010PropOp46
 70
     1
102
RTVSPost2010Prop47
 90
       50
102
RTVSPost2010PropOp47
 70
     1
102
RTVSPost2010Prop48
 90
       50
102
RTVSPost2010PropOp48
 70
     1
102
RTVSPost2010Prop49
280
     0
102
RTVSPost2010PropOp49
 70
     1
102
RTVSPost2010Prop50
 90
       50
102
RTVSPost2010PropOp50
 70
     1
102
RTVSPost2010Prop51ColorIndex
 90
      256
102
RTVSPost2010Prop51ColorRGB
 90
-16777216
102
RTVSPost2010PropOp51
 70
     0
102
RTVSPost2010Prop52
140
1.0
102
RTVSPost2010PropOp52
 70
     0
102
RTVSPost2010Prop53
 90
        2
102
RTVSPost2010PropOp53
 70
     1
102
RTVSPost2010Prop54
  1
strokes_ogs.tif
102
RTVSPost2010PropOp54
 70
     1
102
RTVSPost2010Prop55
280
     0
102
RTVSPost2010PropOp55
 70
     1
102
RTVSPost2010Prop56
140
1.0
102
RTVSPost2010PropOp56
 70
     1
102
RTVSPost2010Prop57
140
1.0
102
RTVSPost2010PropOp57
 70
     1
  0
XRECORD
  5
4C7
102
{ACAD_REACTORS
330
4C6
102
}
330
4C6
100
AcDbXrecord
280
     1
102
RTVSPropertyOp0
 70
     1
102
RTVSPropertyOp1
 70
     1
102
RTVSPropertyOp2
 70
     1
102
RTVSPropertyOp3
 70
     1
102
RTVSPropertyOp4
 70
     1
102
RTVSPropertyOp5
 70
     1
102
RTVSPropertyOp6
 70
     1
102
RTVSPropertyOp7
 70
     1
102
RTVSPropertyOp8
 70
     1
102
RTVSPropertyOp9
 70
     1
102
RTVSPropertyOp10
 70
     1
102
RTVSPropertyOp11
 70
     1
102
RTVSPropertyOp12
 70
     1
102
RTVSPropertyOp13
 70
     1
102
RTVSPropertyOp14
 70
     1
102
RTVSPropertyOp15
 70
     1
102
RTVSPropertyOp16
 70
     1
102
RTVSPropertyOp17
 70
     1
102
RTVSPropertyOp18
 70
     1
102
RTVSPropertyOp19
 70
     1
102
RTVSPropertyOp20
 70
     1
102
RTVSPropertyOp21
 70
     1
102
RTVSPropertyOp22
 70
     1
102
RTVSPropertyOp23
 70
     1
102
RTVSPropertyOp24
 70
     1
102
RTVSPropertyOp25
 70
     1
102
RTVSPropertyOp26
 70
     1
102
RTVSPropertyOp27
 70
     1
102
RTVSPropertyOp28
 70
     1
102
RTVSPropertyOp29
 70
     1
102
RTVSPropertyOp30
 70
     1
102
RTVSPropertyOp31
 70
     1
102
RTVSPropertyOp32
 70
     1
102
RTVSPropertyOp33
 70
     1
102
RTVSPropertyOp34
 70
     1
102
RTVSPropertyOp35
 70
     1
102
RTVSPropertyOp36
 70
     1
102
RTVSPropertyOp37
 70
     1
102
RTVSPropertyOp38
 70
     1
102
RTVSPropertyOp39
 70
     1
102
RTVSPropertyOp40
 70
     1
102
RTVSPropertyOp41
 70
     1
102
RTVSPropertyOp42
 70
     1
102
RTVSPropertyOp43
 70
     1
102
RTVSPropertyOp44
 70
     1
102
RTVSPropertyOp45
 70
     1
102
RTVSPropertyOp46
 70
     1
102
RTVSPropertyOp47
 70
     1
102
RTVSPropertyOp48
 70
     1
102
RTVSPropertyOp49
 70
     1
102
RTVSPropertyOp50
 70
     1
102
RTVSPropertyOp51
 70
     0
102
RTVSPropertyOp52
 70
     0
102
RTVSPropertyOp53
 70
     1
102
RTVSPropertyOp54
 70
     1
102
RTVSPropertyOp55
 70
     1
102
RTVSPropertyOp56
 70
     1
102
RTVSPropertyOp57
 70
     1
102
RTVSPost2010Prop28
280
     0
102
RTVSPost2010PropOp28
 70
     1
102
RTVSPost2010Prop29
280
     1
102
RTVSPost2010PropOp29
 70
     1
102
RTVSPost2010Prop30
280
     1
102
RTVSPost2010PropOp30
 70
     1
102
RTVSPost2010Prop31
280
     0
102
RTVSPost2010PropOp31
 70
     1
102
RTVSPost2010Prop32
280
     0
102
RTVSPost2010PropOp32
 70
     1
102
RTVSPost2010Prop33
280
     0
102
RTVSPost2010PropOp33
 70
     1
102
RTVSPost2010Prop34
280
     0
102
RTVSPost2010PropOp34
 70
     1
102
RTVSPost2010Prop35
280
     0
102
RTVSPost2010PropOp35
 70
     1
102
RTVSPost2010Prop36
280
     0
102
RTVSPost2010PropOp36
 70
     1
102
RTVSPost2010Prop37
 90
       50
102
RTVSPost2010PropOp37
 70
     1
102
RTVSPost2010Prop38
140
0.0
102
RTVSPost2010PropOp38
 70
     1
102
RTVSPost2010Prop39
140
1.0
102
RTVSPost2010PropOp39
 70
     1
102
RTVSPost2010Prop40
 90
        0
102
RTVSPost2010PropOp40
 70
     1
102
RTVSPost2010Prop41ColorIndex
 90
       18
102
RTVSPost2010Prop41ColorRGB
 90
        0
102
RTVSPost2010PropOp41
 70
     1
102
RTVSPost2010Prop42
 90
       50
102
RTVSPost2010PropOp42
 70
     1
102
RTVSPost2010Prop43
 90
        3
102
RTVSPost2010PropOp43
 70
     1
102
RTVSPost2010Prop44ColorIndex
 90
        5
102
RTVSPost2010Prop44ColorRGB
 90
      255
102
RTVSPost2010PropOp44
 70
     1
102
RTVSPost2010Prop45
280
     0
102
RTVSPost2010PropOp45
 70
     1
102
RTVSPost2010Prop46
 90
       50
102
RTVSPost2010PropOp46
 70
     1
102
RTVSPost2010Prop47
 90
       50
102
RTVSPost2010PropOp47
 70
     1
102
RTVSPost2010Prop48
 90
       50
102
RTVSPost2010PropOp48
 70
     1
102
RTVSPost2010Prop49
280
     0
102
RTVSPost2010PropOp49
 70
     1
102
RTVSPost2010Prop50
 90
       50
102
RTVSPost2010PropOp50
 70
     1
102
RTVSPost2010Prop51ColorIndex
 90
      256
102
RTVSPost2010Prop51ColorRGB
 90
-16777216
102
RTVSPost2010PropOp51
 70
     0
102
RTVSPost2010Prop52
140
1.0
102
RTVSPost2010PropOp52
 70
     0
102
RTVSPost2010Prop53
 90
        2
102
RTVSPost2010PropOp53
 70
     1
102
RTVSPost2010Prop54
  1
strokes_ogs.tif
102
RTVSPost2010PropOp54
 70
     1
102
RTVSPost2010Prop55
280
     0
102
RTVSPost2010PropOp55
 70
     1
102
RTVSPost2010Prop56
140
1.0
102
RTVSPost2010PropOp56
 70
     1
102
RTVSPost2010Prop57
140
1.0
102
RTVSPost2010PropOp57
 70
     1
  0
XRECORD
  5
4C9
102
{ACAD_REACTORS
330
4C8
102
}
330
4C8
100
AcDbXrecord
280
     1
102
RTVSPropertyOp0
 70
     1
102
RTVSPropertyOp1
 70
     1
102
RTVSPropertyOp2
 70
     1
102
RTVSPropertyOp3
 70
     1
102
RTVSPropertyOp4
 70
     1
102
RTVSPropertyOp5
 70
     1
102
RTVSPropertyOp6
 70
     1
102
RTVSPropertyOp7
 70
     1
102
RTVSPropertyOp8
 70
     1
102
RTVSPropertyOp9
 70
     1
102
RTVSPropertyOp10
 70
     1
102
RTVSPropertyOp11
 70
     1
102
RTVSPropertyOp12
 70
     1
102
RTVSPropertyOp13
 70
     1
102
RTVSPropertyOp14
 70
     1
102
RTVSPropertyOp15
 70
     1
102
RTVSPropertyOp16
 70
     1
102
RTVSPropertyOp17
 70
     1
102
RTVSPropertyOp18
 70
     1
102
RTVSPropertyOp19
 70
     1
102
RTVSPropertyOp20
 70
     1
102
RTVSPropertyOp21
 70
     1
102
RTVSPropertyOp22
 70
     1
102
RTVSPropertyOp23
 70
     1
102
RTVSPropertyOp24
 70
     1
102
RTVSPropertyOp25
 70
     1
102
RTVSPropertyOp26
 70
     1
102
RTVSPropertyOp27
 70
     1
102
RTVSPropertyOp28
 70
     1
102
RTVSPropertyOp29
 70
     1
102
RTVSPropertyOp30
 70
     1
102
RTVSPropertyOp31
 70
     1
102
RTVSPropertyOp32
 70
     1
102
RTVSPropertyOp33
 70
     1
102
RTVSPropertyOp34
 70
     1
102
RTVSPropertyOp35
 70
     1
102
RTVSPropertyOp36
 70
     1
102
RTVSPropertyOp37
 70
     1
102
RTVSPropertyOp38
 70
     1
102
RTVSPropertyOp39
 70
     1
102
RTVSPropertyOp40
 70
     1
102
RTVSPropertyOp41
 70
     1
102
RTVSPropertyOp42
 70
     1
102
RTVSPropertyOp43
 70
     1
102
RTVSPropertyOp44
 70
     1
102
RTVSPropertyOp45
 70
     1
102
RTVSPropertyOp46
 70
     1
102
RTVSPropertyOp47
 70
     1
102
RTVSPropertyOp48
 70
     1
102
RTVSPropertyOp49
 70
     1
102
RTVSPropertyOp50
 70
     1
102
RTVSPropertyOp51
 70
     0
102
RTVSPropertyOp52
 70
     0
102
RTVSPropertyOp53
 70
     1
102
RTVSPropertyOp54
 70
     1
102
RTVSPropertyOp55
 70
     1
102
RTVSPropertyOp56
 70
     1
102
RTVSPropertyOp57
 70
     1
102
RTVSPost2010Prop28
280
     0
102
RTVSPost2010PropOp28
 70
     1
102
RTVSPost2010Prop29
280
     1
102
RTVSPost2010PropOp29
 70
     1
102
RTVSPost2010Prop30
280
     1
102
RTVSPost2010PropOp30
 70
     1
102
RTVSPost2010Prop31
280
     0
102
RTVSPost2010PropOp31
 70
     1
102
RTVSPost2010Prop32
280
     0
102
RTVSPost2010PropOp32
 70
     1
102
RTVSPost2010Prop33
280
     0
102
RTVSPost2010PropOp33
 70
     1
102
RTVSPost2010Prop34
280
     0
102
RTVSPost2010PropOp34
 70
     1
102
RTVSPost2010Prop35
280
     0
102
RTVSPost2010PropOp35
 70
     1
102
RTVSPost2010Prop36
280
     0
102
RTVSPost2010PropOp36
 70
     1
102
RTVSPost2010Prop37
 90
       50
102
RTVSPost2010PropOp37
 70
     1
102
RTVSPost2010Prop38
140
0.0
102
RTVSPost2010PropOp38
 70
     1
102
RTVSPost2010Prop39
140
1.0
102
RTVSPost2010PropOp39
 70
     1
102
RTVSPost2010Prop40
 90
        0
102
RTVSPost2010PropOp40
 70
     1
102
RTVSPost2010Prop41ColorIndex
 90
       18
102
RTVSPost2010Prop41ColorRGB
 90
        0
102
RTVSPost2010PropOp41
 70
     1
102
RTVSPost2010Prop42
 90
       50
102
RTVSPost2010PropOp42
 70
     1
102
RTVSPost2010Prop43
 90
        3
102
RTVSPost2010PropOp43
 70
     1
102
RTVSPost2010Prop44ColorIndex
 90
        5
102
RTVSPost2010Prop44ColorRGB
 90
      255
102
RTVSPost2010PropOp44
 70
     1
102
RTVSPost2010Prop45
280
     0
102
RTVSPost2010PropOp45
 70
     1
102
RTVSPost2010Prop46
 90
       50
102
RTVSPost2010PropOp46
 70
     1
102
RTVSPost2010Prop47
 90
       50
102
RTVSPost2010PropOp47
 70
     1
102
RTVSPost2010Prop48
 90
       50
102
RTVSPost2010PropOp48
 70
     1
102
RTVSPost2010Prop49
280
     0
102
RTVSPost2010PropOp49
 70
     1
102
RTVSPost2010Prop50
 90
       50
102
RTVSPost2010PropOp50
 70
     1
102
RTVSPost2010Prop51ColorIndex
 90
      256
102
RTVSPost2010Prop51ColorRGB
 90
-16777216
102
RTVSPost2010PropOp51
 70
     0
102
RTVSPost2010Prop52
140
1.0
102
RTVSPost2010PropOp52
 70
     0
102
RTVSPost2010Prop53
 90
        2
102
RTVSPost2010PropOp53
 70
     1
102
RTVSPost2010Prop54
  1
strokes_ogs.tif
102
RTVSPost2010PropOp54
 70
     1
102
RTVSPost2010Prop55
280
     0
102
RTVSPost2010PropOp55
 70
     1
102
RTVSPost2010Prop56
140
1.0
102
RTVSPost2010PropOp56
 70
     1
102
RTVSPost2010Prop57
140
1.0
102
RTVSPost2010PropOp57
 70
     1
  0
XRECORD
  5
4B9
102
{ACAD_REACTORS
330
4B8
102
}
330
4B8
100
AcDbXrecord
280
     1
102
RTVSPropertyOp0
 70
     1
102
RTVSPropertyOp1
 70
     1
102
RTVSPropertyOp2
 70
     1
102
RTVSPropertyOp3
 70
     1
102
RTVSPropertyOp4
 70
     1
102
RTVSPropertyOp5
 70
     1
102
RTVSPropertyOp6
 70
     1
102
RTVSPropertyOp7
 70
     1
102
RTVSPropertyOp8
 70
     1
102
RTVSPropertyOp9
 70
     1
102
RTVSPropertyOp10
 70
     1
102
RTVSPropertyOp11
 70
     1
102
RTVSPropertyOp12
 70
     1
102
RTVSPropertyOp13
 70
     1
102
RTVSPropertyOp14
 70
     1
102
RTVSPropertyOp15
 70
     1
102
RTVSPropertyOp16
 70
     1
102
RTVSPropertyOp17
 70
     1
102
RTVSPropertyOp18
 70
     1
102
RTVSPropertyOp19
 70
     1
102
RTVSPropertyOp20
 70
     1
102
RTVSPropertyOp21
 70
     1
102
RTVSPropertyOp22
 70
     1
102
RTVSPropertyOp23
 70
     1
102
RTVSPropertyOp24
 70
     1
102
RTVSPropertyOp25
 70
     1
102
RTVSPropertyOp26
 70
     1
102
RTVSPropertyOp27
 70
     1
102
RTVSPropertyOp28
 70
     1
102
RTVSPropertyOp29
 70
     1
102
RTVSPropertyOp30
 70
     1
102
RTVSPropertyOp31
 70
     1
102
RTVSPropertyOp32
 70
     1
102
RTVSPropertyOp33
 70
     1
102
RTVSPropertyOp34
 70
     1
102
RTVSPropertyOp35
 70
     1
102
RTVSPropertyOp36
 70
     1
102
RTVSPropertyOp37
 70
     1
102
RTVSPropertyOp38
 70
     1
102
RTVSPropertyOp39
 70
     1
102
RTVSPropertyOp40
 70
     1
102
RTVSPropertyOp41
 70
     1
102
RTVSPropertyOp42
 70
     1
102
RTVSPropertyOp43
 70
     1
102
RTVSPropertyOp44
 70
     1
102
RTVSPropertyOp45
 70
     1
102
RTVSPropertyOp46
 70
     1
102
RTVSPropertyOp47
 70
     1
102
RTVSPropertyOp48
 70
     1
102
RTVSPropertyOp49
 70
     1
102
RTVSPropertyOp50
 70
     1
102
RTVSPropertyOp51
 70
     0
102
RTVSPropertyOp52
 70
     0
102
RTVSPropertyOp53
 70
     1
102
RTVSPropertyOp54
 70
     1
102
RTVSPropertyOp55
 70
     1
102
RTVSPropertyOp56
 70
     1
102
RTVSPropertyOp57
 70
     1
102
RTVSPost2010Prop28
280
     0
102
RTVSPost2010PropOp28
 70
     1
102
RTVSPost2010Prop29
280
     1
102
RTVSPost2010PropOp29
 70
     1
102
RTVSPost2010Prop30
280
     1
102
RTVSPost2010PropOp30
 70
     1
102
RTVSPost2010Prop31
280
     0
102
RTVSPost2010PropOp31
 70
     1
102
RTVSPost2010Prop32
280
     0
102
RTVSPost2010PropOp32
 70
     1
102
RTVSPost2010Prop33
280
     0
102
RTVSPost2010PropOp33
 70
     1
102
RTVSPost2010Prop34
280
     0
102
RTVSPost2010PropOp34
 70
     1
102
RTVSPost2010Prop35
280
     0
102
RTVSPost2010PropOp35
 70
     1
102
RTVSPost2010Prop36
280
     0
102
RTVSPost2010PropOp36
 70
     1
102
RTVSPost2010Prop37
 90
       50
102
RTVSPost2010PropOp37
 70
     1
102
RTVSPost2010Prop38
140
0.0
102
RTVSPost2010PropOp38
 70
     1
102
RTVSPost2010Prop39
140
1.0
102
RTVSPost2010PropOp39
 70
     1
102
RTVSPost2010Prop40
 90
        0
102
RTVSPost2010PropOp40
 70
     1
102
RTVSPost2010Prop41ColorIndex
 90
       18
102
RTVSPost2010Prop41ColorRGB
 90
        0
102
RTVSPost2010PropOp41
 70
     1
102
RTVSPost2010Prop42
 90
       50
102
RTVSPost2010PropOp42
 70
     1
102
RTVSPost2010Prop43
 90
        3
102
RTVSPost2010PropOp43
 70
     1
102
RTVSPost2010Prop44ColorIndex
 90
        5
102
RTVSPost2010Prop44ColorRGB
 90
      255
102
RTVSPost2010PropOp44
 70
     1
102
RTVSPost2010Prop45
280
     0
102
RTVSPost2010PropOp45
 70
     1
102
RTVSPost2010Prop46
 90
       50
102
RTVSPost2010PropOp46
 70
     1
102
RTVSPost2010Prop47
 90
       50
102
RTVSPost2010PropOp47
 70
     1
102
RTVSPost2010Prop48
 90
       50
102
RTVSPost2010PropOp48
 70
     1
102
RTVSPost2010Prop49
280
     0
102
RTVSPost2010PropOp49
 70
     1
102
RTVSPost2010Prop50
 90
       50
102
RTVSPost2010PropOp50
 70
     1
102
RTVSPost2010Prop51ColorIndex
 90
      256
102
RTVSPost2010Prop51ColorRGB
 90
-16777216
102
RTVSPost2010PropOp51
 70
     0
102
RTVSPost2010Prop52
140
1.0
102
RTVSPost2010PropOp52
 70
     0
102
RTVSPost2010Prop53
 90
        2
102
RTVSPost2010PropOp53
 70
     1
102
RTVSPost2010Prop54
  1
strokes_ogs.tif
102
RTVSPost2010PropOp54
 70
     1
102
RTVSPost2010Prop55
280
     0
102
RTVSPost2010PropOp55
 70
     1
102
RTVSPost2010Prop56
140
1.0
102
RTVSPost2010PropOp56
 70
     1
102
RTVSPost2010Prop57
140
1.0
102
RTVSPost2010PropOp57
 70
     1
  0
XRECORD
  5
4AB
102
{ACAD_REACTORS
330
4AA
102
}
330
4AA
100
AcDbXrecord
280
     1
102
RTVSPropertyOp0
 70
     1
102
RTVSPropertyOp1
 70
     1
102
RTVSPropertyOp2
 70
     1
102
RTVSPropertyOp3
 70
     1
102
RTVSPropertyOp4
 70
     1
102
RTVSPropertyOp5
 70
     1
102
RTVSPropertyOp6
 70
     1
102
RTVSPropertyOp7
 70
     1
102
RTVSPropertyOp8
 70
     1
102
RTVSPropertyOp9
 70
     1
102
RTVSPropertyOp10
 70
     1
102
RTVSPropertyOp11
 70
     1
102
RTVSPropertyOp12
 70
     1
102
RTVSPropertyOp13
 70
     1
102
RTVSPropertyOp14
 70
     1
102
RTVSPropertyOp15
 70
     1
102
RTVSPropertyOp16
 70
     1
102
RTVSPropertyOp17
 70
     1
102
RTVSPropertyOp18
 70
     1
102
RTVSPropertyOp19
 70
     1
102
RTVSPropertyOp20
 70
     1
102
RTVSPropertyOp21
 70
     1
102
RTVSPropertyOp22
 70
     1
102
RTVSPropertyOp23
 70
     1
102
RTVSPropertyOp24
 70
     1
102
RTVSPropertyOp25
 70
     1
102
RTVSPropertyOp26
 70
     1
102
RTVSPropertyOp27
 70
     1
102
RTVSPropertyOp28
 70
     1
102
RTVSPropertyOp29
 70
     1
102
RTVSPropertyOp30
 70
     1
102
RTVSPropertyOp31
 70
     1
102
RTVSPropertyOp32
 70
     1
102
RTVSPropertyOp33
 70
     1
102
RTVSPropertyOp34
 70
     1
102
RTVSPropertyOp35
 70
     1
102
RTVSPropertyOp36
 70
     1
102
RTVSPropertyOp37
 70
     1
102
RTVSPropertyOp38
 70
     1
102
RTVSPropertyOp39
 70
     1
102
RTVSPropertyOp40
 70
     1
102
RTVSPropertyOp41
 70
     1
102
RTVSPropertyOp42
 70
     1
102
RTVSPropertyOp43
 70
     1
102
RTVSPropertyOp44
 70
     1
102
RTVSPropertyOp45
 70
     1
102
RTVSPropertyOp46
 70
     1
102
RTVSPropertyOp47
 70
     1
102
RTVSPropertyOp48
 70
     1
102
RTVSPropertyOp49
 70
     1
102
RTVSPropertyOp50
 70
     1
102
RTVSPropertyOp51
 70
     0
102
RTVSPropertyOp52
 70
     0
102
RTVSPropertyOp53
 70
     1
102
RTVSPropertyOp54
 70
     1
102
RTVSPropertyOp55
 70
     1
102
RTVSPropertyOp56
 70
     1
102
RTVSPropertyOp57
 70
     1
102
RTVSPost2010Prop28
280
     0
102
RTVSPost2010PropOp28
 70
     1
102
RTVSPost2010Prop29
280
     1
102
RTVSPost2010PropOp29
 70
     1
102
RTVSPost2010Prop30
280
     1
102
RTVSPost2010PropOp30
 70
     1
102
RTVSPost2010Prop31
280
     0
102
RTVSPost2010PropOp31
 70
     1
102
RTVSPost2010Prop32
280
     0
102
RTVSPost2010PropOp32
 70
     1
102
RTVSPost2010Prop33
280
     0
102
RTVSPost2010PropOp33
 70
     1
102
RTVSPost2010Prop34
280
     0
102
RTVSPost2010PropOp34
 70
     1
102
RTVSPost2010Prop35
280
     0
102
RTVSPost2010PropOp35
 70
     1
102
RTVSPost2010Prop36
280
     0
102
RTVSPost2010PropOp36
 70
     1
102
RTVSPost2010Prop37
 90
       50
102
RTVSPost2010PropOp37
 70
     1
102
RTVSPost2010Prop38
140
0.0
102
RTVSPost2010PropOp38
 70
     1
102
RTVSPost2010Prop39
140
1.0
102
RTVSPost2010PropOp39
 70
     1
102
RTVSPost2010Prop40
 90
        0
102
RTVSPost2010PropOp40
 70
     1
102
RTVSPost2010Prop41ColorIndex
 90
       18
102
RTVSPost2010Prop41ColorRGB
 90
        0
102
RTVSPost2010PropOp41
 70
     1
102
RTVSPost2010Prop42
 90
       50
102
RTVSPost2010PropOp42
 70
     1
102
RTVSPost2010Prop43
 90
        3
102
RTVSPost2010PropOp43
 70
     1
102
RTVSPost2010Prop44ColorIndex
 90
        5
102
RTVSPost2010Prop44ColorRGB
 90
      255
102
RTVSPost2010PropOp44
 70
     1
102
RTVSPost2010Prop45
280
     0
102
RTVSPost2010PropOp45
 70
     1
102
RTVSPost2010Prop46
 90
       50
102
RTVSPost2010PropOp46
 70
     1
102
RTVSPost2010Prop47
 90
       50
102
RTVSPost2010PropOp47
 70
     1
102
RTVSPost2010Prop48
 90
       50
102
RTVSPost2010PropOp48
 70
     1
102
RTVSPost2010Prop49
280
     0
102
RTVSPost2010PropOp49
 70
     1
102
RTVSPost2010Prop50
 90
       50
102
RTVSPost2010PropOp50
 70
     1
102
RTVSPost2010Prop51ColorIndex
 90
      256
102
RTVSPost2010Prop51ColorRGB
 90
-16777216
102
RTVSPost2010PropOp51
 70
     0
102
RTVSPost2010Prop52
140
1.0
102
RTVSPost2010PropOp52
 70
     0
102
RTVSPost2010Prop53
 90
        2
102
RTVSPost2010PropOp53
 70
     1
102
RTVSPost2010Prop54
  1
strokes_ogs.tif
102
RTVSPost2010PropOp54
 70
     1
102
RTVSPost2010Prop55
280
     0
102
RTVSPost2010PropOp55
 70
     1
102
RTVSPost2010Prop56
140
1.0
102
RTVSPost2010PropOp56
 70
     1
102
RTVSPost2010Prop57
140
1.0
102
RTVSPost2010PropOp57
 70
     1
  0
XRECORD
  5
4CB
102
{ACAD_REACTORS
330
4CA
102
}
330
4CA
100
AcDbXrecord
280
     1
102
RTVSPropertyOp0
 70
     1
102
RTVSPropertyOp1
 70
     1
102
RTVSPropertyOp2
 70
     1
102
RTVSPropertyOp3
 70
     1
102
RTVSPropertyOp4
 70
     1
102
RTVSPropertyOp5
 70
     1
102
RTVSPropertyOp6
 70
     1
102
RTVSPropertyOp7
 70
     1
102
RTVSPropertyOp8
 70
     1
102
RTVSPropertyOp9
 70
     1
102
RTVSPropertyOp10
 70
     1
102
RTVSPropertyOp11
 70
     1
102
RTVSPropertyOp12
 70
     1
102
RTVSPropertyOp13
 70
     1
102
RTVSPropertyOp14
 70
     1
102
RTVSPropertyOp15
 70
     1
102
RTVSPropertyOp16
 70
     1
102
RTVSPropertyOp17
 70
     1
102
RTVSPropertyOp18
 70
     1
102
RTVSPropertyOp19
 70
     1
102
RTVSPropertyOp20
 70
     1
102
RTVSPropertyOp21
 70
     1
102
RTVSPropertyOp22
 70
     1
102
RTVSPropertyOp23
 70
     1
102
RTVSPropertyOp24
 70
     1
102
RTVSPropertyOp25
 70
     1
102
RTVSPropertyOp26
 70
     1
102
RTVSPropertyOp27
 70
     1
102
RTVSPropertyOp28
 70
     1
102
RTVSPropertyOp29
 70
     1
102
RTVSPropertyOp30
 70
     1
102
RTVSPropertyOp31
 70
     1
102
RTVSPropertyOp32
 70
     1
102
RTVSPropertyOp33
 70
     1
102
RTVSPropertyOp34
 70
     1
102
RTVSPropertyOp35
 70
     1
102
RTVSPropertyOp36
 70
     1
102
RTVSPropertyOp37
 70
     1
102
RTVSPropertyOp38
 70
     1
102
RTVSPropertyOp39
 70
     1
102
RTVSPropertyOp40
 70
     1
102
RTVSPropertyOp41
 70
     1
102
RTVSPropertyOp42
 70
     1
102
RTVSPropertyOp43
 70
     1
102
RTVSPropertyOp44
 70
     1
102
RTVSPropertyOp45
 70
     1
102
RTVSPropertyOp46
 70
     1
102
RTVSPropertyOp47
 70
     1
102
RTVSPropertyOp48
 70
     1
102
RTVSPropertyOp49
 70
     1
102
RTVSPropertyOp50
 70
     1
102
RTVSPropertyOp51
 70
     0
102
RTVSPropertyOp52
 70
     0
102
RTVSPropertyOp53
 70
     1
102
RTVSPropertyOp54
 70
     1
102
RTVSPropertyOp55
 70
     1
102
RTVSPropertyOp56
 70
     1
102
RTVSPropertyOp57
 70
     1
102
RTVSPost2010Prop28
280
     0
102
RTVSPost2010PropOp28
 70
     1
102
RTVSPost2010Prop29
280
     1
102
RTVSPost2010PropOp29
 70
     1
102
RTVSPost2010Prop30
280
     1
102
RTVSPost2010PropOp30
 70
     1
102
RTVSPost2010Prop31
280
     0
102
RTVSPost2010PropOp31
 70
     1
102
RTVSPost2010Prop32
280
     0
102
RTVSPost2010PropOp32
 70
     1
102
RTVSPost2010Prop33
280
     0
102
RTVSPost2010PropOp33
 70
     1
102
RTVSPost2010Prop34
280
     0
102
RTVSPost2010PropOp34
 70
     1
102
RTVSPost2010Prop35
280
     0
102
RTVSPost2010PropOp35
 70
     1
102
RTVSPost2010Prop36
280
     0
102
RTVSPost2010PropOp36
 70
     1
102
RTVSPost2010Prop37
 90
       50
102
RTVSPost2010PropOp37
 70
     1
102
RTVSPost2010Prop38
140
0.0
102
RTVSPost2010PropOp38
 70
     1
102
RTVSPost2010Prop39
140
1.0
102
RTVSPost2010PropOp39
 70
     1
102
RTVSPost2010Prop40
 90
        0
102
RTVSPost2010PropOp40
 70
     1
102
RTVSPost2010Prop41ColorIndex
 90
       18
102
RTVSPost2010Prop41ColorRGB
 90
        0
102
RTVSPost2010PropOp41
 70
     1
102
RTVSPost2010Prop42
 90
       50
102
RTVSPost2010PropOp42
 70
     1
102
RTVSPost2010Prop43
 90
        3
102
RTVSPost2010PropOp43
 70
     1
102
RTVSPost2010Prop44ColorIndex
 90
        5
102
RTVSPost2010Prop44ColorRGB
 90
      255
102
RTVSPost2010PropOp44
 70
     1
102
RTVSPost2010Prop45
280
     0
102
RTVSPost2010PropOp45
 70
     1
102
RTVSPost2010Prop46
 90
       50
102
RTVSPost2010PropOp46
 70
     1
102
RTVSPost2010Prop47
 90
       50
102
RTVSPost2010PropOp47
 70
     1
102
RTVSPost2010Prop48
 90
       50
102
RTVSPost2010PropOp48
 70
     1
102
RTVSPost2010Prop49
280
     0
102
RTVSPost2010PropOp49
 70
     1
102
RTVSPost2010Prop50
 90
       50
102
RTVSPost2010PropOp50
 70
     1
102
RTVSPost2010Prop51ColorIndex
 90
      256
102
RTVSPost2010Prop51ColorRGB
 90
-16777216
102
RTVSPost2010PropOp51
 70
     0
102
RTVSPost2010Prop52
140
1.0
102
RTVSPost2010PropOp52
 70
     0
102
RTVSPost2010Prop53
 90
        2
102
RTVSPost2010PropOp53
 70
     1
102
RTVSPost2010Prop54
  1
strokes_ogs.tif
102
RTVSPost2010PropOp54
 70
     1
102
RTVSPost2010Prop55
280
     0
102
RTVSPost2010PropOp55
 70
     1
102
RTVSPost2010Prop56
140
1.0
102
RTVSPost2010PropOp56
 70
     1
102
RTVSPost2010Prop57
140
1.0
102
RTVSPost2010PropOp57
 70
     1
  0
ENDSEC
  0
EOF
