  0
SECTION
  2
HEADER
  9
$ACADVER
  1
AC1015
  9
$ACADMAINTVER
 70
     6
  9
$DWGCODEPAGE
  3
ANSI_1252
  9
$INSBASE
 10
0.0
 20
0.0
 30
0.0
  9
$EXTMIN
 10
-60.33664591884349
 20
-603.3550221117755
 30
0.0
  9
$EXTMAX
 10
953.0799066888227
 20
-183.5799792914013
 30
0.0
  9
$LIMMIN
 10
0.0
 20
0.0
  9
$LIMMAX
 10
12.0
 20
9.0
  9
$ORTHOMODE
 70
     1
  9
$REGENMODE
 70
     1
  9
$FILLMODE
 70
     1
  9
$QTEXTMODE
 70
     0
  9
$MIRRTEXT
 70
     1
  9
$LTSCALE
 40
1.0
  9
$ATTMODE
 70
     1
  9
$TEXTSIZE
 40
0.2
  9
$TRACEWID
 40
0.05
  9
$TEXTSTYLE
  7
STANDARD
  9
$CLAYER
  8
0
  9
$CELTYPE
  6
BYLAYER
  9
$CECOLOR
 62
     7
  9
$CELTSCALE
 40
1.0
  9
$DISPSILH
 70
     0
  9
$DIMSCALE
 40
1.0
  9
$DIMASZ
 40
2.0
  9
$DIMEXO
 40
0.0625
  9
$DIMDLI
 40
0.38
  9
$DIMRND
 40
0.0
  9
$DIMDLE
 40
0.0
  9
$DIMEXE
 40
2.0
  9
$DIMTP
 40
0.0
  9
$DIMTM
 40
0.0
  9
$DIMTXT
 40
5.0
  9
$DIMCEN
 40
0.09
  9
$DIMTSZ
 40
0.0
  9
$DIMTOL
 70
     0
  9
$DIMLIM
 70
     0
  9
$DIMTIH
 70
     0
  9
$DIMTOH
 70
     0
  9
$DIMSE1
 70
     0
  9
$DIMSE2
 70
     0
  9
$DIMTAD
 70
     1
  9
$DIMZIN
 70
    12
  9
$DIMBLK
  1

  9
$DIMASO
 70
     1
  9
$DIMSHO
 70
     1
  9
$DIMPOST
  1

  9
$DIMAPOST
  1

  9
$DIMALT
 70
     0
  9
$DIMALTD
 70
     2
  9
$DIMALTF
 40
25.4
  9
$DIMLFAC
 40
1.0
  9
$DIMTOFL
 70
     0
  9
$DIMTVP
 40
0.0
  9
$DIMTIX
 70
     0
  9
$DIMSOXD
 70
     0
  9
$DIMSAH
 70
     0
  9
$DIMBLK1
  1

  9
$DIMBLK2
  1

  9
$DIMSTYLE
  2
STANDARD
  9
$DIMCLRD
 70
     0
  9
$DIMCLRE
 70
     0
  9
$DIMCLRT
 70
     0
  9
$DIMTFAC
 40
1.0
  9
$DIMGAP
 40
1.5
  9
$DIMJUST
 70
     0
  9
$DIMSD1
 70
     0
  9
$DIMSD2
 70
     0
  9
$DIMTOLJ
 70
     1
  9
$DIMTZIN
 70
     0
  9
$DIMALTZ
 70
     0
  9
$DIMALTTZ
 70
     0
  9
$DIMUPT
 70
     0
  9
$DIMDEC
 70
     2
  9
$DIMTDEC
 70
     4
  9
$DIMALTU
 70
     2
  9
$DIMALTTD
 70
     2
  9
$DIMTXSTY
  7
STANDARD
  9
$DIMAUNIT
 70
     0
  9
$DIMADEC
 70
     0
  9
$DIMALTRND
 40
0.0
  9
$DIMAZIN
 70
     0
  9
$DIMDSEP
 70
    46
  9
$DIMATFIT
 70
     3
  9
$DIMFRAC
 70
     0
  9
$DIMLDRBLK
  1

  9
$DIMLUNIT
 70
     2
  9
$DIMLWD
 70
    -2
  9
$DIMLWE
 70
    -2
  9
$DIMTMOVE
 70
     0
  9
$LUNITS
 70
     2
  9
$LUPREC
 70
     4
  9
$SKETCHINC
 40
0.1
  9
$FILLETRAD
 40
0.0
  9
$AUNITS
 70
     0
  9
$AUPREC
 70
     0
  9
$MENU
  1
acad
  9
$ELEVATION
 40
0.0
  9
$PELEVATION
 40
0.0
  9
$THICKNESS
 40
0.0
  9
$LIMCHECK
 70
     0
  9
$CHAMFERA
 40
0.5
  9
$CHAMFERB
 40
0.5
  9
$CHAMFERC
 40
1.0
  9
$CHAMFERD
 40
0.0
  9
$SKPOLY
 70
     0
  9
$TDCREATE
 40
2452955.903937164
  9
$TDUCREATE
 40
2452955.862270498
  9
$TDUPDATE
 40
2460298.632403356
  9
$TDUUPDATE
 40
2460298.59073669
  9
$TDINDWG
 40
0.2653166204
  9
$TDUSRTIMER
 40
0.2653166204
  9
$USRTIMER
 70
     1
  9
$ANGBASE
 50
0.0
  9
$ANGDIR
 70
     0
  9
$PDMODE
 70
     0
  9
$PDSIZE
 40
0.0
  9
$PLINEWID
 40
0.0
  9
$SPLFRAME
 70
     0
  9
$SPLINETYPE
 70
     6
  9
$SPLINESEGS
 70
     8
  9
$HANDSEED
  5
11CF
  9
$SURFTAB1
 70
     6
  9
$SURFTAB2
 70
     6
  9
$SURFTYPE
 70
     6
  9
$SURFU
 70
     6
  9
$SURFV
 70
     6
  9
$UCSBASE
  2

  9
$UCSNAME
  2

  9
$UCSORG
 10
0.0
 20
0.0
 30
0.0
  9
$UCSXDIR
 10
1.0
 20
0.0
 30
0.0
  9
$UCSYDIR
 10
0.0
 20
1.0
 30
0.0
  9
$UCSORTHOREF
  2

  9
$UCSORTHOVIEW
 70
     0
  9
$UCSORGTOP
 10
0.0
 20
0.0
 30
0.0
  9
$UCSORGBOTTOM
 10
0.0
 20
0.0
 30
0.0
  9
$UCSORGLEFT
 10
0.0
 20
0.0
 30
0.0
  9
$UCSORGRIGHT
 10
0.0
 20
0.0
 30
0.0
  9
$UCSORGFRONT
 10
0.0
 20
0.0
 30
0.0
  9
$UCSORGBACK
 10
0.0
 20
0.0
 30
0.0
  9
$PUCSBASE
  2

  9
$PUCSNAME
  2

  9
$PUCSORG
 10
0.0
 20
0.0
 30
0.0
  9
$PUCSXDIR
 10
1.0
 20
0.0
 30
0.0
  9
$PUCSYDIR
 10
0.0
 20
1.0
 30
0.0
  9
$PUCSORTHOREF
  2

  9
$PUCSORTHOVIEW
 70
     0
  9
$PUCSORGTOP
 10
0.0
 20
0.0
 30
0.0
  9
$PUCSORGBOTTOM
 10
0.0
 20
0.0
 30
0.0
  9
$PUCSORGLEFT
 10
0.0
 20
0.0
 30
0.0
  9
$PUCSORGRIGHT
 10
0.0
 20
0.0
 30
0.0
  9
$PUCSORGFRONT
 10
0.0
 20
0.0
 30
0.0
  9
$PUCSORGBACK
 10
0.0
 20
0.0
 30
0.0
  9
$USERI1
 70
     0
  9
$USERI2
 70
     0
  9
$USERI3
 70
     0
  9
$USERI4
 70
     0
  9
$USERI5
 70
     0
  9
$USERR1
 40
0.0
  9
$USERR2
 40
0.0
  9
$USERR3
 40
0.0
  9
$USERR4
 40
0.0
  9
$USERR5
 40
0.0
  9
$WORLDVIEW
 70
     1
  9
$SHADEDGE
 70
     3
  9
$SHADEDIF
 70
    70
  9
$TILEMODE
 70
     1
  9
$MAXACTVP
 70
    48
  9
$PINSBASE
 10
0.0
 20
0.0
 30
0.0
  9
$PLIMCHECK
 70
     0
  9
$PEXTMIN
 10
1.000000000000000E+20
 20
1.000000000000000E+20
 30
1.000000000000000E+20
  9
$PEXTMAX
 10
-1.000000000000000E+20
 20
-1.000000000000000E+20
 30
-1.000000000000000E+20
  9
$PLIMMIN
 10
0.0
 20
0.0
  9
$PLIMMAX
 10
12.0
 20
9.0
  9
$UNITMODE
 70
     0
  9
$VISRETAIN
 70
     1
  9
$PLINEGEN
 70
     0
  9
$PSLTSCALE
 70
     1
  9
$TREEDEPTH
 70
  3020
  9
$CMLSTYLE
  2
STANDARD
  9
$CMLJUST
 70
     0
  9
$CMLSCALE
 40
1.0
  9
$PROXYGRAPHICS
 70
     1
  9
$MEASUREMENT
 70
     0
  9
$CELWEIGHT
370
    -1
  9
$ENDCAPS
280
     0
  9
$JOINSTYLE
280
     0
  9
$LWDISPLAY
290
     0
  9
$INSUNITS
 70
     0
  9
$HYPERLINKBASE
  1

  9
$STYLESHEET
  1

  9
$XEDIT
290
     1
  9
$CEPSNTYPE
380
     0
  9
$PSTYLEMODE
290
     1
  9
$FINGERPRINTGUID
  2
{41A317B9-35C9-479F-81EC-A513BEBE2D34}
  9
$VERSIONGUID
  2
{0E2A9566-DE84-4105-A1D3-9F7FFBB34AA0}
  9
$EXTNAMES
290
     1
  9
$PSVPSCALE
 40
0.0
  9
$OLESTARTUP
290
     0
  0
ENDSEC
  0
SECTION
  2
CLASSES
  0
CLASS
  1
LWPOLYLINE
  2
AcDbPolyline
  3
ObjectDBX Classes
 90
        0
280
     0
281
     1
  0
CLASS
  1
DICTIONARYVAR
  2
AcDbDictionaryVar
  3
ObjectDBX Classes
 90
        0
280
     0
281
     0
  0
CLASS
  1
HATCH
  2
AcDbHatch
  3
ObjectDBX Classes
 90
        0
280
     0
281
     1
  0
CLASS
  1
ACDBDICTIONARYWDFLT
  2
AcDbDictionaryWithDefault
  3
ObjectDBX Classes
 90
        0
280
     0
281
     0
  0
CLASS
  1
VISUALSTYLE
  2
AcDbVisualStyle
  3
ObjectDBX Classes
 90
     4095
280
     0
281
     0
  0
CLASS
  1
SCALE
  2
AcDbScale
  3
ObjectDBX Classes
 90
     1153
280
     0
281
     0
  0
CLASS
  1
MATERIAL
  2
AcDbMaterial
  3
ObjectDBX Classes
 90
     1153
280
     0
281
     0
  0
CLASS
  1
MLEADERSTYLE
  2
AcDbMLeaderStyle
  3
ACDB_MLEADERSTYLE_CLASS
 90
     4095
280
     0
281
     0
  0
CLASS
  1
TABLESTYLE
  2
AcDbTableStyle
  3
ObjectDBX Classes
 90
     4095
280
     0
281
     0
  0
CLASS
  1
ACDBPLACEHOLDER
  2
AcDbPlaceHolder
  3
ObjectDBX Classes
 90
        0
280
     0
281
     0
  0
CLASS
  1
LAYOUT
  2
AcDbLayout
  3
ObjectDBX Classes
 90
        0
280
     0
281
     0
  0
ENDSEC
  0
SECTION
  2
TABLES
  0
TABLE
  2
VPORT
  5
8
102
{ACAD_XDICTIONARY
360
1193
102
}
330
0
100
AcDbSymbolTable
 70
     1
  0
VPORT
  5
1154
330
8
100
AcDbSymbolTableRecord
100
AcDbViewportTableRecord
  2
*Active
 70
     0
 10
0.0
 20
0.0
 11
1.0
 21
1.0
 12
446.3716327445341
 22
-371.3594531139673
 13
0.0
 23
0.0
 14
0.5
 24
0.5
 15
0.5
 25
0.5
 16
0.0
 26
0.0
 36
1.0
 17
0.0
 27
0.0
 37
0.0
 40
651.382877035869
 41
1.565972222222222
 42
50.0
 43
0.0
 44
0.0
 50
0.0
 51
0.0
 71
     0
 72
   100
 73
     1
 74
     1
 75
     0
 76
     0
 77
     0
 78
     0
281
     0
 65
     1
110
0.0
120
0.0
130
0.0
111
1.0
121
0.0
131
0.0
112
0.0
122
1.0
132
0.0
 79
     0
146
0.0
  0
ENDTAB
  0
TABLE
  2
LTYPE
  5
5
330
0
100
AcDbSymbolTable
 70
     3
  0
LTYPE
  5
12
330
5
100
AcDbSymbolTableRecord
100
AcDbLinetypeTableRecord
  2
BYBLOCK
 70
     0
  3

 72
    65
 73
     0
 40
0.0
  0
LTYPE
  5
13
330
5
100
AcDbSymbolTableRecord
100
AcDbLinetypeTableRecord
  2
BYLAYER
 70
     0
  3

 72
    65
 73
     0
 40
0.0
  0
LTYPE
  5
14
330
5
100
AcDbSymbolTableRecord
100
AcDbLinetypeTableRecord
  2
CONTINUOUS
 70
     0
  3
Solid line
 72
    65
 73
     0
 40
0.0
  0
LTYPE
  5
A2
330
5
100
AcDbSymbolTableRecord
100
AcDbLinetypeTableRecord
  2
ACAD_ISO10W100
 70
     0
  3
 ISO trazo, punto __ . __ . __ . __ . __ . __ .
 72
    65
 73
     4
 40
18.5
 49
12.0
 74
     0
 49
-3.0
 74
     0
 49
0.5
 74
     0
 49
-3.0
 74
     0
  0
LTYPE
  5
B7E
330
5
100
AcDbSymbolTableRecord
100
AcDbLinetypeTableRecord
  2
LÍNEAS_OCULTAS
 70
     0
  3
trazos medios __ __ __ __ __ __ __ __ __ __ __ 
 72
    65
 73
     2
 40
0.375
 49
0.25
 74
     0
 49
-0.125
 74
     0
  0
ENDTAB
  0
TABLE
  2
LAYER
  5
2
330
0
100
AcDbSymbolTable
 70
     2
  0
LAYER
  5
E
330
2
100
AcDbSymbolTableRecord
100
AcDbLayerTableRecord
  2
0
 70
     0
 62
     7
  6
CONTINUOUS
370
    -3
390
114A
  0
LAYER
  5
14B
330
2
100
AcDbSymbolTableRecord
100
AcDbLayerTableRecord
  2
DEFPOINTS
 70
     0
 62
     7
  6
CONTINUOUS
290
     0
370
    -3
390
114A
  0
ENDTAB
  0
TABLE
  2
STYLE
  5
3
330
0
100
AcDbSymbolTable
 70
     2
  0
STYLE
  5
F
330
3
100
AcDbSymbolTableRecord
100
AcDbTextStyleTableRecord
  2
STANDARD
 70
     0
 40
4.0
 41
1.0
 50
0.0
 71
     0
 42
0.2
  3
ARIAL.TTF
  4

1001
ACAD
1000
Arial
1071
       34
  0
STYLE
  5
A1
330
3
100
AcDbSymbolTableRecord
100
AcDbTextStyleTableRecord
  2

 70
     1
 40
0.0
 41
1.0
 50
0.0
 71
     0
 42
0.2
  3
ltypeshp.shx
  4

  0
ENDTAB
  0
TABLE
  2
VIEW
  5
6
330
0
100
AcDbSymbolTable
 70
     0
  0
ENDTAB
  0
TABLE
  2
UCS
  5
7
330
0
100
AcDbSymbolTable
 70
     0
  0
ENDTAB
  0
TABLE
  2
APPID
  5
9
330
0
100
AcDbSymbolTable
 70
     4
  0
APPID
  5
10
330
9
100
AcDbSymbolTableRecord
100
AcDbRegAppTableRecord
  2
ACAD
 70
     0
  0
APPID
  5
24
330
9
100
AcDbSymbolTableRecord
100
AcDbRegAppTableRecord
  2
CONTENTTABDATA
 70
     0
  0
APPID
  5
25
330
9
100
AcDbSymbolTableRecord
100
AcDbRegAppTableRecord
  2
CONTENTCURRENTTAB
 70
     0
  0
APPID
  5
11CC
330
9
100
AcDbSymbolTableRecord
100
AcDbRegAppTableRecord
  2
ACAD_MLEADERVER
 70
     0
  0
ENDTAB
  0
TABLE
  2
DIMSTYLE
  5
A
330
0
100
AcDbSymbolTable
 70
     1
100
AcDbDimStyleTable
  0
DIMSTYLE
105
1D
330
A
100
AcDbSymbolTableRecord
100
AcDbDimStyleTableRecord
  2
STANDARD
 70
     0
 41
2.0
 44
2.0
 73
     0
 74
     0
 77
     1
 78
    12
140
5.0
178
     0
271
     2
340
F
  0
ENDTAB
  0
TABLE
  2
BLOCK_RECORD
  5
1
330
0
100
AcDbSymbolTable
 70
     1
  0
BLOCK_RECORD
  5
18
330
1
100
AcDbSymbolTableRecord
100
AcDbBlockTableRecord
  2
*MODEL_SPACE
340
114F
  0
BLOCK_RECORD
  5
15
330
1
100
AcDbSymbolTableRecord
100
AcDbBlockTableRecord
  2
*PAPER_SPACE
340
1150
  0
BLOCK_RECORD
  5
1051
330
1
100
AcDbSymbolTableRecord
100
AcDbBlockTableRecord
  2
A$C6EEE266F
340
0
  0
ENDTAB
  0
ENDSEC
  0
SECTION
  2
BLOCKS
  0
BLOCK
  5
19
330
18
100
AcDbEntity
  8
0
370
    -1
100
AcDbBlockBegin
  2
*MODEL_SPACE
 70
     0
 10
0.0
 20
0.0
 30
0.0
  3
*MODEL_SPACE
  1

  0
ENDBLK
  5
1A
330
18
100
AcDbEntity
  8
0
370
    -1
100
AcDbBlockEnd
  0
BLOCK
  5
16
330
15
100
AcDbEntity
 67
     1
  8
0
370
    -1
100
AcDbBlockBegin
  2
*PAPER_SPACE
 70
     0
 10
0.0
 20
0.0
 30
0.0
  3
*PAPER_SPACE
  1

  0
ENDBLK
  5
17
330
15
100
AcDbEntity
 67
     1
  8
0
370
    -1
100
AcDbBlockEnd
  0
BLOCK
  5
108F
330
1051
100
AcDbEntity
  8
0
 62
     7
370
    -1
100
AcDbBlockBegin
  2
A$C6EEE266F
 70
     0
 10
0.0
 20
0.0
 30
0.0
  3
A$C6EEE266F
  1

  0
LINE
  5
1052
330
1051
100
AcDbEntity
  8
0
  6
ACAD_ISO10W100
 62
     9
370
    -1
100
AcDbLine
 10
0.0000001244548855
 20
57.32141664659184
 30
0.0
 11
195.1362068929606
 21
1.367009761245569
 31
0.0
  0
LINE
  5
1053
330
1051
100
AcDbEntity
  8
0
 62
     7
370
    -1
100
AcDbLine
 10
121.7872942313495
 20
26.24802566016486
 30
0.0
 11
130.269554751195
 21
27.55738074496814
 31
0.0
  0
LINE
  5
1054
330
1051
100
AcDbEntity
  8
0
 62
     7
370
    -1
100
AcDbLine
 10
122.2640098149989
 20
33.40452115527913
 30
0.0
 11
130.3088622518764
 21
34.64635620857337
 31
0.0
  0
LINE
  5
1055
330
1051
100
AcDbEntity
  8
0
 62
     7
370
    -1
100
AcDbLine
 10
121.5944949414295
 20
25.5756546317355
 30
0.0
 11
190.6788609048598
 21
5.766031463648787
 31
0.0
  0
LINE
  5
1056
330
1051
100
AcDbEntity
  8
0
 62
     7
370
    -1
100
AcDbLine
 10
119.9406708065275
 20
19.80808445610559
 30
0.0
 11
189.0196700643219
 21
0.0000001660966831
 31
0.0
  0
ARC
  5
1057
330
1051
100
AcDbEntity
  8
0
 62
     7
370
    -1
100
AcDbCircle
 10
118.2826589285963
 20
14.28084118420004
 30
0.0
 40
8.0
100
AcDbArc
 50
302.0179129726656
 51
354.6174766750819
  0
ARC
  5
1058
330
1051
100
AcDbEntity
  8
0
 62
     7
370
    -1
100
AcDbCircle
 10
105.3873957389655
 20
27.10206723699254
 30
0.0
 40
11.0
100
AcDbArc
 50
259.3835301591629
 51
73.99999999999983
  0
LINE
  5
1059
330
1051
100
AcDbEntity
  8
0
 62
     7
370
    -1
100
AcDbLine
 10
119.7781484556483
 20
19.24130166220247
 30
0.0
 11
121.7872942313495
 21
26.24802566016486
 31
0.0
  0
LINE
  5
105A
330
1051
100
AcDbEntity
  8
0
 62
     7
370
    -1
100
AcDbLine
 10
114.5107668466201
 20
19.01153535037231
 30
0.0
 11
117.4117819419536
 21
29.12857729563873
 31
0.0
  0
ARC
  5
105B
330
1051
100
AcDbEntity
  8
0
 62
     7
370
    -1
100
AcDbCircle
 10
120.2783370222501
 20
17.35771121547029
 30
0.0
 40
6.0
100
AcDbArc
 50
163.9999999999997
 51
229.2248594311675
  0
LINE
  5
105C
330
1051
100
AcDbEntity
  8
0
 62
     7
370
    -1
100
AcDbLine
 10
119.7478715166075
 20
19.13571342767621
 30
0.0
 11
126.2473839184062
 21
13.53040408710517
 31
0.0
  0
LINE
  5
105D
330
1051
100
AcDbEntity
  8
0
 62
     7
370
    -1
100
AcDbLine
 10
116.3597844324702
 20
12.81404027655655
 30
0.0
 11
122.5241339076829
 21
7.497782139655172
 31
0.0
  0
LINE
  5
105E
330
1051
100
AcDbEntity
  8
0
 62
     7
370
    -1
100
AcDbLine
 10
119.7478715166074
 20
19.13571342767624
 30
0.0
 11
114.5107668466202
 21
19.01153535037231
 31
0.0
  0
ARC
  5
105F
330
1051
100
AcDbEntity
  8
0
 62
     7
370
    -1
100
AcDbCircle
 10
123.1793521175835
 20
27.47475316073675
 30
0.0
 40
6.0
100
AcDbArc
 50
98.77514056883214
 51
164.0
  0
LINE
  5
1060
330
1051
100
AcDbEntity
  8
0
 62
     7
370
    -1
100
AcDbLine
 10
121.7872942313495
 20
26.24802566016486
 30
0.0
 11
117.4117819419536
 21
29.12857729563873
 31
0.0
  0
LINE
  5
1061
330
1051
100
AcDbEntity
  8
0
 62
     7
370
    -1
100
AcDbLine
 10
190.6788609048598
 20
5.766031463648787
 30
0.0
 11
189.0196700643219
 21
0.0000001660966831
 31
0.0
  0
LINE
  5
1062
330
1051
100
AcDbEntity
  8
0
 62
     7
370
    -1
100
AcDbLine
 10
191.0212259093078
 20
5.14771038562624
 30
0.0
 11
189.6385667558122
 21
0.3426838883022612
 31
0.0
  0
LINE
  5
1063
330
1051
100
AcDbEntity
  8
0
 62
     7
370
    -1
100
AcDbLine
 10
189.0196700643219
 20
0.0000001660966831
 30
0.0
 11
189.6385667558122
 21
0.3426838883022612
 31
0.0
  0
LINE
  5
1064
330
1051
100
AcDbEntity
  8
0
 62
     7
370
    -1
100
AcDbLine
 10
191.0212259093078
 20
5.14771038562624
 30
0.0
 11
190.6788609048598
 21
5.766031463648787
 31
0.0
  0
ARC
  5
1065
330
1051
100
AcDbEntity
  8
0
 62
     7
370
    -1
100
AcDbCircle
 10
123.1174138128313
 20
31.1416351999116
 30
0.0
 40
8.0
100
AcDbArc
 50
333.3825233249177
 51
25.98208702733406
  0
LINE
  5
1066
330
1051
100
AcDbEntity
  8
0
  6
LÍNEAS_OCULTAS
 62
     9
 48
7.0
370
    -1
100
AcDbLine
 10
68.9179009547421
 20
41.40808023010004
 30
0.0
 11
62.4183885529433
 21
47.01338957067111
 31
0.0
  0
ARC
  5
1067
330
1051
100
AcDbEntity
  8
0
  6
LÍNEAS_OCULTAS
 62
     9
 48
7.0
370
    -1
100
AcDbCircle
 10
68.38743544909948
 20
43.18608244230595
 30
0.0
 40
6.0
100
AcDbArc
 50
343.9999999999995
 51
49.22485943116736
  0
ARC
  5
1068
330
1051
100
AcDbEntity
  8
0
  6
LÍNEAS_OCULTAS
 62
     9
 48
7.0
370
    -1
100
AcDbCircle
 10
83.27837673238406
 20
33.44172642078361
 30
0.0
 40
11.0
100
AcDbArc
 50
73.9999999999998
 51
253.9999999999998
  0
LINE
  5
1069
330
1051
100
AcDbEntity
  8
0
  6
LÍNEAS_OCULTAS
 62
     9
 48
7.0
370
    -1
100
AcDbLine
 10
86.31038764637108
 20
44.01560507610509
 30
0.0
 11
103.3608229415447
 21
39.12647143003491
 31
0.0
  0
LINE
  5
106A
330
1051
100
AcDbEntity
  8
0
  6
LÍNEAS_OCULTAS
 62
     9
 48
7.0
370
    -1
100
AcDbLine
 10
31.85331453115455
 20
45.06672741176124
 30
0.0
 11
67.07127752991997
 21
34.96813902604067
 31
0.0
  0
LINE
  5
106B
330
1051
100
AcDbEntity
  8
0
  6
LÍNEAS_OCULTAS
 62
     9
 48
7.0
370
    -1
100
AcDbLine
 10
33.5125053716925
 20
50.83275870931328
 30
0.0
 11
68.72510166482203
 21
40.73570920167055
 31
0.0
  0
LINE
  5
106C
330
1051
100
AcDbEntity
  8
0
  6
LÍNEAS_OCULTAS
 62
     9
 48
7.0
370
    -1
100
AcDbLine
 10
66.90875517904078
 20
34.4013562321377
 30
0.0
 11
68.9179009547421
 21
41.40808023010004
 31
0.0
  0
LINE
  5
106D
330
1051
100
AcDbEntity
  8
0
  6
LÍNEAS_OCULTAS
 62
     9
 48
7.0
370
    -1
100
AcDbLine
 10
71.25399052939588
 20
31.41521636213744
 30
0.0
 11
74.15500562472934
 21
41.53225830740388
 31
0.0
  0
ARC
  5
106E
330
1051
100
AcDbEntity
  8
0
  6
LÍNEAS_OCULTAS
 62
     9
 48
7.0
370
    -1
100
AcDbCircle
 10
65.48642035376596
 20
33.0690404970395
 30
0.0
 40
6.0
100
AcDbArc
 50
278.775140568832
 51
343.9999999999998
  0
LINE
  5
106F
330
1051
100
AcDbEntity
  8
0
  6
LÍNEAS_OCULTAS
 62
     9
 48
7.0
370
    -1
100
AcDbLine
 10
66.87847824000002
 20
34.29576799761142
 30
0.0
 11
71.2539905293958
 21
31.41521636213751
 31
0.0
  0
LINE
  5
1070
330
1051
100
AcDbEntity
  8
0
  6
LÍNEAS_OCULTAS
 62
     9
 48
7.0
370
    -1
100
AcDbLine
 10
66.40176265635054
 20
27.13927250249714
 30
0.0
 11
58.35691021947301
 21
25.89743744920294
 31
0.0
  0
LINE
  5
1071
330
1051
100
AcDbEntity
  8
0
  6
LÍNEAS_OCULTAS
 62
     9
 48
7.0
370
    -1
100
AcDbLine
 10
66.87847823999996
 20
34.29576799761139
 30
0.0
 11
58.39621772015457
 21
32.98641291280816
 31
0.0
  0
LINE
  5
1072
330
1051
100
AcDbEntity
  8
0
  6
LÍNEAS_OCULTAS
 62
     9
 48
7.0
370
    -1
100
AcDbLine
 10
68.9179009547421
 20
41.40808023010004
 30
0.0
 11
74.15500562472934
 21
41.53225830740388
 31
0.0
  0
LINE
  5
1073
330
1051
100
AcDbEntity
  8
0
  6
LÍNEAS_OCULTAS
 62
     9
 48
7.0
370
    -1
100
AcDbLine
 10
80.24636581839701
 20
22.8678477654621
 30
0.0
 11
102.3553848249784
 21
16.52818858167109
 31
0.0
  0
ARC
  5
1074
330
1051
100
AcDbEntity
  8
0
  6
LÍNEAS_OCULTAS
 62
     9
 48
7.0
370
    -1
100
AcDbCircle
 10
70.3831135427533
 20
46.26295247357623
 30
0.0
 40
8.0
100
AcDbArc
 50
122.0179129726655
 51
174.6174766750818
  0
LINE
  5
1075
330
1051
100
AcDbEntity
  8
0
  6
LÍNEAS_OCULTAS
 62
     9
 48
7.0
370
    -1
100
AcDbLine
 10
72.30598803887935
 20
47.72975338121972
 30
0.0
 11
66.1416385636667
 21
53.04601151812111
 31
0.0
  0
ARC
  5
1076
330
1051
100
AcDbEntity
  8
0
  6
LÍNEAS_OCULTAS
 62
     9
 48
7.0
370
    -1
100
AcDbCircle
 10
65.54835865851811
 20
29.40215845786466
 30
0.0
 40
8.0
100
AcDbArc
 50
153.3825233249175
 51
205.9820870273339
  0
ARC
  5
1077
330
1051
100
AcDbEntity
  8
0
  6
LÍNEAS_OCULTAS
 62
     9
 48
7.0
370
    -1
100
AcDbCircle
 10
27.09337676354149
 20
49.55395343933597
 30
0.0
 40
5.811234619238565
100
AcDbArc
 50
318.4663699854696
 51
9.427002965455047
  0
LINE
  5
1078
330
1051
100
AcDbEntity
  8
0
  6
LÍNEAS_OCULTAS
 62
     9
 48
7.0
370
    -1
100
AcDbLine
 10
32.82613111277877
 20
50.50578082449459
 30
0.0
 11
29.11126841756175
 21
51.57474244466076
 31
0.0
  0
LINE
  5
1079
330
1051
100
AcDbEntity
  8
0
  6
LÍNEAS_OCULTAS
 62
     9
 48
7.0
370
    -1
100
AcDbLine
 10
33.58506538795226
 20
52.89303082504711
 30
0.0
 11
29.72837639032048
 21
54.00264460801924
 31
0.0
  0
LINE
  5
107A
330
1051
100
AcDbEntity
  8
0
  6
LÍNEAS_OCULTAS
 62
     9
 48
7.0
370
    -1
100
AcDbLine
 10
33.92730194454512
 20
52.27426258141185
 30
0.0
 11
31.43925915798738
 21
43.62779936185262
 31
0.0
  0
ARC
  5
107B
330
1051
100
AcDbEntity
  8
0
  6
LÍNEAS_OCULTAS
 62
     9
 48
7.0
370
    -1
100
AcDbCircle
 10
15.86082294154468
 20
52.7733988894532
 30
0.0
 40
11.5000050289194
100
AcDbArc
 50
119.5918899138091
 51
60.40811008618988
  0
LINE
  5
107C
330
1051
100
AcDbEntity
  8
0
  6
LÍNEAS_OCULTAS
 62
     9
 48
7.0
370
    -1
100
AcDbLine
 10
24.70308282489248
 20
41.91552618133022
 30
0.0
 11
29.12759173299344
 21
57.29160964146917
 31
0.0
  0
ARC
  5
107D
330
1051
100
AcDbEntity
  8
0
  6
LÍNEAS_OCULTAS
 62
     9
 48
7.0
370
    -1
100
AcDbCircle
 10
25.71071892689866
 20
44.74893151834738
 30
0.0
 40
5.811234619238565
100
AcDbArc
 50
347.6940232523692
 51
9.427002965455047
  0
LINE
  5
107E
330
1051
100
AcDbEntity
  8
0
  6
LÍNEAS_OCULTAS
 62
     9
 48
7.0
370
    -1
100
AcDbLine
 10
30.82049091435212
 20
43.28556280525979
 30
0.0
 11
26.96474950118389
 21
44.39506265118104
 31
0.0
  0
LINE
  5
107F
330
1051
100
AcDbEntity
  8
0
  6
LÍNEAS_OCULTAS
 62
     9
 48
7.0
370
    -1
100
AcDbLine
 10
30.08885384507354
 20
57.01597216632541
 30
0.0
 11
25.66434493697253
 21
41.63988870618647
 31
0.0
  0
ARC
  5
1080
330
1051
100
AcDbEntity
  8
0
  6
LÍNEAS_OCULTAS
 62
     9
 48
7.0
370
    -1
100
AcDbCircle
 10
30.95875675787333
 20
43.76606520537382
 30
0.0
 40
0.5
100
AcDbArc
 50
253.9466864754625
 51
343.9466864754617
  0
ARC
  5
1081
330
1051
100
AcDbEntity
  8
0
  6
LÍNEAS_OCULTAS
 62
     9
 48
7.0
370
    -1
100
AcDbCircle
 10
34.84403511401797
 20
52.52649546085757
 30
0.0
 40
5.811234619238565
100
AcDbArc
 50
167.6090761226986
 51
189.4270029654547
  0
ARC
  5
1082
330
1051
100
AcDbEntity
  8
0
  6
LÍNEAS_OCULTAS
 62
     9
 48
7.0
370
    -1
100
AcDbCircle
 10
33.46137727737512
 20
47.72147353986895
 30
0.0
 40
5.811234619238565
100
AcDbArc
 50
138.4663699854692
 51
189.4270029654547
  0
LINE
  5
1083
330
1051
100
AcDbEntity
  8
0
  6
LÍNEAS_OCULTAS
 62
     9
 48
7.0
370
    -1
100
AcDbLine
 10
25.59670603324847
 20
46.65272114186286
 30
0.0
 11
26.03043549732277
 21
46.52835121937187
 31
0.0
  0
ARC
  5
1084
330
1051
100
AcDbEntity
  8
0
  6
LÍNEAS_OCULTAS
 62
     9
 48
7.0
370
    -1
100
AcDbCircle
 10
27.11092408121155
 20
44.87321847531553
 30
0.0
 40
0.5
100
AcDbArc
 50
163.9466864754626
 51
253.9466864754618
  0
ARC
  5
1085
330
1051
100
AcDbEntity
  8
0
  6
LÍNEAS_OCULTAS
 62
     9
 48
7.0
370
    -1
100
AcDbCircle
 10
32.07871944073234
 20
42.91645161888033
 30
0.0
 40
5.811234619238565
100
AcDbArc
 50
138.4663699854692
 51
160.1993496985551
  0
LINE
  5
1086
330
1051
100
AcDbEntity
  8
0
  6
LÍNEAS_OCULTAS
 62
     9
 48
7.0
370
    -1
100
AcDbLine
 10
31.44347327613599
 20
45.70075890350597
 30
0.0
 11
27.72862292813784
 21
46.76964615471036
 31
0.0
  0
LINE
  5
1087
330
1051
100
AcDbEntity
  8
0
  6
LÍNEAS_OCULTAS
 62
     9
 48
7.0
370
    -1
100
AcDbLine
 10
27.36078511047728
 20
52.80479599586806
 30
0.0
 11
27.80023906056317
 21
52.67878460342746
 31
0.0
  0
ARC
  5
1088
330
1051
100
AcDbEntity
  8
0
  6
LÍNEAS_OCULTAS
 62
     9
 48
7.0
370
    -1
100
AcDbCircle
 10
29.59896686776924
 20
53.51968169487475
 30
0.0
 40
0.5
100
AcDbArc
 50
73.94668647546195
 51
163.9466864754625
  0
ARC
  5
1089
330
1051
100
AcDbEntity
  8
0
  6
LÍNEAS_OCULTAS
 62
     9
 48
7.0
370
    -1
100
AcDbCircle
 10
33.44679954443107
 20
52.41252842493299
 30
0.0
 40
0.5
100
AcDbArc
 50
343.9466864754618
 51
73.94668647546234
  0
ARC
  5
108A
330
1051
100
AcDbEntity
  8
0
  6
LÍNEAS_OCULTAS
 62
     9
 48
7.0
370
    -1
100
AcDbCircle
 10
28.47603460018428
 20
54.35897536032465
 30
0.0
 40
5.811234619238565
100
AcDbArc
 50
318.4663699854696
 51
340.2842968282257
  0
LINE
  5
108B
330
1051
100
AcDbEntity
  8
0
  6
LÍNEAS_OCULTAS
 62
     9
 48
7.0
370
    -1
100
AcDbLine
 10
24.70308282489248
 20
41.91552618133022
 30
0.0
 11
25.66434493697258
 21
41.63988870618647
 31
0.0
  0
CIRCLE
  5
108C
330
1051
100
AcDbEntity
  8
0
  6
LÍNEAS_OCULTAS
 62
     9
 48
7.0
370
    -1
100
AcDbCircle
 10
15.86082294154468
 20
52.7733988894532
 30
0.0
 40
7.000000000000018
  0
LINE
  5
108D
330
1051
100
AcDbEntity
  8
0
  6
LÍNEAS_OCULTAS
 62
     9
 48
7.0
370
    -1
100
AcDbLine
 10
29.12759173299344
 20
57.29160964146917
 30
0.0
 11
30.08885384507354
 21
57.01597216632541
 31
0.0
  0
ARC
  5
108E
330
1051
100
AcDbEntity
  8
0
 62
     7
370
    -1
100
AcDbCircle
 10
15.86082294154468
 20
52.7733988894532
 30
0.0
 40
11.5000050289194
100
AcDbArc
 50
60.40811008618954
 51
119.5918899138088
  0
ENDBLK
  5
1090
330
1051
100
AcDbEntity
  8
0
 62
     7
370
    -1
100
AcDbBlockEnd
  0
ENDSEC
  0
SECTION
  2
ENTITIES
  0
LWPOLYLINE
  5
DE6
330
18
100
AcDbEntity
  8
0
  6
LÍNEAS_OCULTAS
 62
     9
 48
10.0
370
    -1
100
AcDbPolyline
 90
       14
 70
     0
 43
0.0
 10
647.3516361031191
 20
-197.8299792914012
 10
604.6120437507795
 20
-197.8299792914012
 42
-0.198912366943191
 10
602.844276800782
 20
-197.0977462473364
 10
600.5890729689114
 20
-194.8425424230406
 42
0.4142135623910803
 10
598.1141992346825
 20
-194.8425424256849
 10
595.8589954159997
 20
-197.0977462443676
 42
-0.1989123673796571
 10
594.0912284630333
 20
-197.8299792914012
 10
402.6120437432047
 20
-197.8299792914012
 42
-0.198912367379657
 10
400.8442767902383
 20
-197.0977462443676
 10
398.5890729715556
 20
-194.8425424256849
 42
0.4142135623910803
 10
396.1141992373267
 20
-194.8425424230406
 10
393.858995405456
 20
-197.0977462473364
 42
-0.1989123669431909
 10
392.0912284554585
 20
-197.8299792914012
 10
349.3516361031191
 20
-197.8299792914012
  0
LINE
  5
DE7
330
18
100
AcDbEntity
  8
0
 62
     7
370
    -1
100
AcDbLine
 10
402.6120437432047
 20
-197.0799792914013
 30
0.0
 11
594.0912284630333
 21
-197.0799792914012
 31
0.0
  0
LINE
  5
DE8
330
18
100
AcDbEntity
  8
0
  6
LÍNEAS_OCULTAS
 62
     9
 48
10.0
370
    -1
100
AcDbLine
 10
494.5461970585631
 20
-235.4411611576337
 30
0.0
 11
472.8192608343344
 21
-208.9560947650067
 31
0.0
  0
LWPOLYLINE
  5
DEE
330
18
100
AcDbEntity
  8
0
  6
LÍNEAS_OCULTAS
 62
     9
 48
10.0
370
    -1
100
AcDbPolyline
 90
       14
 70
     0
 43
0.0
 10
647.3516361031191
 20
-356.3299792914012
 10
604.6120437507795
 20
-356.3299792914012
 42
0.198912366943191
 10
602.844276800782
 20
-357.062212335466
 10
600.5890729689114
 20
-359.3174161597618
 42
-0.4142135623910803
 10
598.1141992346825
 20
-359.3174161571176
 10
595.8589954159997
 20
-357.0622123384348
 42
0.1989123673796571
 10
594.0912284630333
 20
-356.3299792914012
 10
402.6120437432047
 20
-356.3299792914012
 42
0.198912367379657
 10
400.8442767902383
 20
-357.0622123384348
 10
398.5890729715556
 20
-359.3174161571176
 42
-0.4142135623910803
 10
396.1141992373267
 20
-359.3174161597618
 10
393.858995405456
 20
-357.062212335466
 42
0.1989123669431909
 10
392.0912284554585
 20
-356.3299792914012
 10
349.3516361031191
 20
-356.3299792914012
  0
LINE
  5
DEF
330
18
100
AcDbEntity
  8
0
 62
     7
370
    -1
100
AcDbLine
 10
402.6120437432047
 20
-357.0799792914012
 30
0.0
 11
594.0912284630333
 21
-357.0799792914012
 31
0.0
  0
LWPOLYLINE
  5
DF0
330
18
100
AcDbEntity
  8
0
  6
LÍNEAS_OCULTAS
 62
     9
 48
10.0
370
    -1
100
AcDbPolyline
 90
       14
 70
     0
 43
0.0
 10
647.3516361031191
 20
-589.1050221117755
 10
604.6120437507795
 20
-589.1050221117755
 42
0.198912366943191
 10
602.844276800782
 20
-589.8372551558404
 10
600.5890729689114
 20
-592.0924589801361
 42
-0.4142135623910803
 10
598.1141992346825
 20
-592.0924589774919
 10
595.8589954159997
 20
-589.8372551588092
 42
0.1989123673796571
 10
594.0912284630333
 20
-589.1050221117755
 10
402.6120437432047
 20
-589.1050221117755
 42
0.198912367379657
 10
400.8442767902383
 20
-589.8372551588092
 10
398.5890729715556
 20
-592.0924589774919
 42
-0.4142135623910803
 10
396.1141992373267
 20
-592.0924589801361
 10
393.858995405456
 20
-589.8372551558404
 42
0.1989123669431909
 10
392.0912284554585
 20
-589.1050221117755
 10
349.3516361031191
 20
-589.1050221117755
  0
LINE
  5
DF1
330
18
100
AcDbEntity
  8
0
 62
     7
370
    -1
100
AcDbLine
 10
402.6120437432047
 20
-589.8550221117755
 30
0.0
 11
594.0912284630333
 21
-589.8550221117756
 31
0.0
  0
LWPOLYLINE
  5
DF2
330
18
100
AcDbEntity
  8
0
  6
LÍNEAS_OCULTAS
 62
     9
 48
10.0
370
    -1
100
AcDbPolyline
 90
       14
 70
     0
 43
0.0
 10
647.3516361031191
 20
-430.6050221117755
 10
604.6120437507795
 20
-430.6050221117755
 42
-0.198912366943191
 10
602.844276800782
 20
-429.8727890677108
 10
600.5890729689114
 20
-427.617585243415
 42
0.4142135623910803
 10
598.1141992346825
 20
-427.6175852460592
 10
595.8589954159997
 20
-429.8727890647419
 42
-0.1989123673796571
 10
594.0912284630333
 20
-430.6050221117755
 10
402.6120437432047
 20
-430.6050221117755
 42
-0.198912367379657
 10
400.8442767902383
 20
-429.8727890647419
 10
398.5890729715556
 20
-427.6175852460592
 42
0.4142135623910803
 10
396.1141992373267
 20
-427.617585243415
 10
393.858995405456
 20
-429.8727890677108
 42
-0.1989123669431909
 10
392.0912284554585
 20
-430.6050221117755
 10
349.3516361031191
 20
-430.6050221117755
  0
LINE
  5
DF3
330
18
100
AcDbEntity
  8
0
 62
     7
370
    -1
100
AcDbLine
 10
402.6120437432047
 20
-429.8550221117755
 30
0.0
 11
594.0912284630333
 21
-429.8550221117755
 31
0.0
  0
ELLIPSE
  5
DF6
330
18
100
AcDbEntity
  8
0
  6
LÍNEAS_OCULTAS
 62
     9
 48
10.0
370
    -1
100
AcDbEllipse
 10
525.4298867218464
 20
-509.8550221117755
 30
0.0
 11
-1.189131665314465E-14
 21
79.24999999999989
 31
0.0
210
0.0
220
0.0
230
-1.0
 40
0.6512560846063377
 41
0.0
 42
6.283185307179586
  0
ELLIPSE
  5
DF7
330
18
100
AcDbEntity
  8
0
  6
LÍNEAS_OCULTAS
 62
     9
 48
10.0
370
    -1
100
AcDbEllipse
 10
525.4298867218464
 20
-509.8550221117755
 30
0.0
 11
1.893013062926813E-14
 21
-79.24999999999989
 31
0.0
210
0.0
220
0.0
230
-1.0
 40
0.6584085417920637
 41
0.0
 42
6.283185307179586
  0
HATCH
  5
DF9
330
18
100
AcDbEntity
  8
0
 62
     7
370
    -1
100
AcDbHatch
 10
0.0
 20
0.0
 30
0.0
210
0.0
220
0.0
230
1.0
  2
SOLID
 70
     1
 71
     0
 91
        1
 92
        7
 72
     1
 73
     1
 93
       28
 10
196.1707133940372
 20
-197.0977462443676
 42
0.0
 10
198.42591721408
 20
-194.8425424243247
 42
-0.4142135618812031
 10
200.9007909461548
 20
-194.8425424222466
 42
0.0
 10
203.1559947788195
 20
-197.0977462473364
 42
0.1989123669431909
 10
204.923761728817
 20
-197.8299792914012
 42
0.0
 10
247.6633540811565
 20
-197.8299792914013
 42
0.0
 10
247.6633540811565
 20
-197.0799792914012
 42
0.0
 10
204.923761728817
 20
-197.0799792914012
 42
-0.1989123669431952
 10
203.6863248638187
 20
-196.5674161605558
 42
0.0
 10
201.431121031154
 20
-194.312212335466
 42
0.4142135618812017
 10
197.8955871281901
 20
-194.3122123384348
 42
0.0
 10
195.6403833081472
 20
-196.5674161584777
 42
-0.1989123673796553
 10
194.4029464410708
 20
-197.0799792914012
 42
0.0
 10
2.923761721242153
 20
-197.0799792914012
 42
-0.1989123673796571
 10
1.686324854165698
 20
-196.5674161584777
 42
0.0
 10
-0.5688789658771489
 20
-194.3122123384348
 42
0.4142135618812042
 10
-4.104412868841063
 20
-194.312212335466
 42
0.0
 10
-6.359616701505757
 20
-196.5674161605559
 42
-0.1989123669431908
 10
-7.597053566504037
 20
-197.0799792914012
 42
0.0
 10
-50.33664591884352
 20
-197.0799792914012
 42
0.0
 10
-50.33664591884353
 20
-197.8299792914012
 42
0.0
 10
-7.597053566504032
 20
-197.8299792914012
 42
0.1989123669431909
 10
-5.829286616506486
 20
-197.0977462473364
 42
0.0
 10
-3.574082783841799
 20
-194.8425424222466
 42
-0.4142135618812052
 10
-1.099209051767055
 20
-194.8425424243247
 42
0.0
 10
1.155994768275781
 20
-197.0977462443676
 42
0.1989123673796602
 10
2.923761721242163
 20
-197.8299792914012
 42
0.0
 10
194.4029464410708
 20
-197.8299792914012
 42
0.1989123673796612
 97
        0
 75
     0
 76
     1
 47
0.5215261234053368
 98
        4
 10
29.06440859238683
 20
-198.1543824895882
 10
29.06440859238683
 20
-198.1543824895882
 10
29.06440859238683
 20
-198.1543824895882
 10
43.38844657475624
 20
-197.4632937012785
  0
LINE
  5
DFA
330
18
100
AcDbEntity
  8
0
 62
     7
370
    -1
100
AcDbLine
 10
2.923761721242158
 20
-197.0799792914013
 30
0.0
 11
194.4029464410708
 21
-197.0799792914012
 31
0.0
  0
LINE
  5
DFB
330
18
100
AcDbEntity
  8
0
 62
     7
370
    -1
100
AcDbLine
 10
194.4029464410708
 20
-197.8299792914013
 30
0.0
 11
2.923761721242158
 21
-197.8299792914013
 31
0.0
  0
HATCH
  5
DFD
330
18
100
AcDbEntity
  8
0
 62
     7
370
    -1
100
AcDbHatch
 10
0.0
 20
0.0
 30
0.0
210
0.0
220
0.0
230
1.0
  2
SOLID
 70
     1
 71
     0
 91
        1
 92
        7
 72
     1
 73
     1
 93
       28
 10
194.4029464410708
 20
-356.3299792914012
 42
0.0
 10
2.92376172124216
 20
-356.3299792914012
 42
0.1989123673796557
 10
1.15599476827581
 20
-357.0622123384348
 42
0.0
 10
-1.099209051767052
 20
-359.3174161584777
 42
-0.4142135618812046
 10
-3.574082783841794
 20
-359.3174161605559
 42
0.0
 10
-5.829286616506489
 20
-357.062212335466
 42
0.1989123669431907
 10
-7.597053566504032
 20
-356.3299792914012
 42
0.0
 10
-50.33664591884352
 20
-356.3299792914012
 42
0.0
 10
-50.33664591884352
 20
-357.0799792914012
 42
0.0
 10
-7.597053566504041
 20
-357.0799792914012
 42
-0.1989123669431911
 10
-6.359616701505757
 20
-357.5925424222466
 42
0.0
 10
-4.104412868841063
 20
-359.8477462473364
 42
0.4142135618812034
 10
-0.5688789658771545
 20
-359.8477462443676
 42
0.0
 10
1.686324854165701
 20
-357.5925424243247
 42
-0.1989123673796568
 10
2.923761721242152
 20
-357.0799792914012
 42
0.0
 10
194.4029464410708
 20
-357.0799792914012
 42
-0.198912367379656
 10
195.6403833081472
 20
-357.5925424243247
 42
0.0
 10
197.8955871281901
 20
-359.8477462443676
 42
0.4142135618812016
 10
201.431121031154
 20
-359.8477462473364
 42
0.0
 10
203.6863248638187
 20
-357.5925424222465
 42
-0.1989123669431895
 10
204.923761728817
 20
-357.0799792914012
 42
0.0
 10
247.6633540811565
 20
-357.0799792914012
 42
0.0
 10
247.6633540811565
 20
-356.3299792914012
 42
0.0
 10
204.923761728817
 20
-356.3299792914012
 42
0.1989123669431907
 10
203.1559947788195
 20
-357.062212335466
 42
0.0
 10
200.9007909461548
 20
-359.3174161605558
 42
-0.4142135618812097
 10
198.42591721408
 20
-359.3174161584777
 42
0.0
 10
196.1707133940372
 20
-357.0622123384348
 42
0.1989123673796572
 97
        0
 75
     0
 76
     1
 47
0.4918722532657672
 98
        1
 10
89.58469666129258
 20
-356.9355323617467
  0
LINE
  5
DFE
330
18
100
AcDbEntity
  8
0
 62
     7
370
    -1
100
AcDbLine
 10
2.923761721242158
 20
-356.3299792914012
 30
0.0
 11
194.4029464410708
 21
-356.3299792914012
 31
0.0
  0
LINE
  5
DFF
330
18
100
AcDbEntity
  8
0
 62
     7
370
    -1
100
AcDbLine
 10
2.923761721242158
 20
-357.0799792914012
 30
0.0
 11
194.4029464410708
 21
-357.0799792914012
 31
0.0
  0
HATCH
  5
E01
330
18
100
AcDbEntity
  8
0
 62
     9
370
    -1
100
AcDbHatch
 10
0.0
 20
0.0
 30
0.0
210
0.0
220
0.0
230
1.0
  2
ANSI31
 70
     0
 71
     0
 91
        2
 92
        7
 72
     0
 73
     1
 93
        4
 10
99.4133540811565
 20
-197.8299792914013
 10
99.41335408115647
 20
-202.8299792914013
 10
118.6633540811565
 20
-202.8299792914013
 10
118.6633540811564
 20
-197.8299792914013
 97
        0
 92
        7
 72
     0
 73
     1
 93
        4
 10
78.6633540811565
 20
-351.3299792914012
 10
78.66335408115651
 20
-356.3299792914012
 10
97.91335408115646
 20
-356.3299792914012
 10
97.91335408115644
 20
-351.3299792914012
 97
        0
 75
     0
 76
     1
 52
0.0
 41
20.0
 77
     0
 78
     1
 53
45.0
 43
0.0
 44
-338.2540831235846
 45
-1.767766952966369
 46
1.767766952966369
 79
     0
 47
0.4113843275777461
 98
        2
 10
108.6537861651718
 20
-200.0962974919213
 10
83.95258094608448
 20
-353.1312676377864
  0
LINE
  5
E06
330
18
100
AcDbEntity
  8
0
 62
     9
370
    -1
100
AcDbLine
 10
-2.336645918843516
 20
-358.0799792914012
 30
0.0
 11
-2.336645918843516
 21
-196.0799792914013
 31
0.0
  0
LINE
  5
E07
330
18
100
AcDbEntity
  8
0
 62
     9
370
    -1
100
AcDbLine
 10
-50.33664591884352
 20
-197.8299792914013
 30
0.0
 11
-50.33664591884352
 21
-356.3299792914012
 31
0.0
  0
LINE
  5
E08
330
18
100
AcDbEntity
  8
0
 62
     7
370
    -1
100
AcDbLine
 10
-50.33664591884352
 20
-356.3299792914012
 30
0.0
 11
-7.59705356650403
 21
-356.3299792914012
 31
0.0
  0
LINE
  5
E09
330
18
100
AcDbEntity
  8
0
 62
     7
370
    -1
100
AcDbLine
 10
-50.33664591884352
 20
-357.0799792914012
 30
0.0
 11
-7.59705356650403
 21
-357.0799792914012
 31
0.0
  0
LINE
  5
E0A
330
18
100
AcDbEntity
  8
0
 62
     7
370
    -1
100
AcDbLine
 10
-50.33664591884352
 20
-356.3299792914012
 30
0.0
 11
-50.33664591884352
 21
-357.0799792914012
 31
0.0
  0
ARC
  5
E0B
330
18
100
AcDbEntity
  8
0
 62
     7
370
    -1
100
AcDbCircle
 10
-7.59705356650403
 20
-358.8299792914012
 30
0.0
 40
2.5
100
AcDbArc
 50
45.0000000962237
 51
90.00000000000001
  0
LINE
  5
E0C
330
18
100
AcDbEntity
  8
0
 62
     7
370
    -1
100
AcDbLine
 10
-6.359616701505757
 20
-357.5925424222466
 30
0.0
 11
-4.104412869975448
 21
-359.847746246202
 31
0.0
  0
ARC
  5
E0D
330
18
100
AcDbEntity
  8
0
 62
     7
370
    -1
100
AcDbCircle
 10
-7.59705356650403
 20
-358.8299792914012
 30
0.0
 40
1.75
100
AcDbArc
 50
45.0000000962237
 51
90.00000000000001
  0
ARC
  5
E0E
330
18
100
AcDbEntity
  8
0
 62
     7
370
    -1
100
AcDbCircle
 10
2.923761721242158
 20
-358.8299792914012
 30
0.0
 40
2.5
100
AcDbArc
 50
90.00000000000001
 51
134.9999999999998
  0
ARC
  5
E0F
330
18
100
AcDbEntity
  8
0
 62
     7
370
    -1
100
AcDbCircle
 10
2.923761721242158
 20
-358.8299792914012
 30
0.0
 40
1.75
100
AcDbArc
 50
90.00000000000001
 51
134.9999999999998
  0
ARC
  5
E10
330
18
100
AcDbEntity
  8
0
 62
     7
370
    -1
100
AcDbCircle
 10
-2.336645918843516
 20
-358.0799792914012
 30
0.0
 40
1.75
100
AcDbArc
 50
225.0000000594562
 51
315.0000000629745
  0
ARC
  5
E11
330
18
100
AcDbEntity
  8
0
 62
     7
370
    -1
100
AcDbCircle
 10
-2.336645918843516
 20
-358.0799792914012
 30
0.0
 40
2.5
100
AcDbArc
 50
225.0000000594562
 51
315.0000000629745
  0
LINE
  5
E12
330
18
100
AcDbEntity
  8
0
 62
     7
370
    -1
100
AcDbLine
 10
-5.829286616506494
 20
-357.062212335466
 30
0.0
 11
-3.574082784635863
 21
-359.3174161597618
 31
0.0
  0
LINE
  5
E13
330
18
100
AcDbEntity
  8
0
 62
     7
370
    -1
100
AcDbLine
 10
1.155994768275804
 20
-357.0622123384348
 30
0.0
 11
-1.099209050406955
 21
-359.3174161571176
 31
0.0
  0
LINE
  5
E14
330
18
100
AcDbEntity
  8
0
 62
     7
370
    -1
100
AcDbLine
 10
1.686324854165719
 20
-357.5925424243247
 30
0.0
 11
-0.5688789639341678
 21
-359.8477462424246
 31
0.0
  0
LINE
  5
E15
330
18
100
AcDbEntity
  8
0
 62
     9
370
    -1
100
AcDbLine
 10
78.66335408115651
 20
-351.3299792914012
 30
0.0
 11
97.91335408115646
 21
-351.3299792914012
 31
0.0
  0
LINE
  5
E17
330
18
100
AcDbEntity
  8
0
 62
     7
370
    -1
100
AcDbLine
 10
-50.33664591884352
 20
-197.0799792914013
 30
0.0
 11
-7.59705356650403
 21
-197.0799792914013
 31
0.0
  0
LINE
  5
E18
330
18
100
AcDbEntity
  8
0
 62
     7
370
    -1
100
AcDbLine
 10
-50.33664591884352
 20
-197.8299792914013
 30
0.0
 11
-7.59705356650403
 21
-197.8299792914013
 31
0.0
  0
LINE
  5
E1A
330
18
100
AcDbEntity
  8
0
 62
     7
370
    -1
100
AcDbLine
 10
-50.33664591884352
 20
-197.0799792914013
 30
0.0
 11
-50.33664591884352
 21
-197.8299792914013
 31
0.0
  0
ARC
  5
E31
330
18
100
AcDbEntity
  8
0
 62
     7
370
    -1
100
AcDbCircle
 10
-7.59705356650403
 20
-195.3299792914013
 30
0.0
 40
2.5
100
AcDbArc
 50
270.0
 51
314.9999999037763
  0
LINE
  5
E32
330
18
100
AcDbEntity
  8
0
 62
     7
370
    -1
100
AcDbLine
 10
-6.359616701505757
 20
-196.5674161605559
 30
0.0
 11
-4.104412869975448
 21
-194.3122123366004
 31
0.0
  0
ARC
  5
E33
330
18
100
AcDbEntity
  8
0
 62
     7
370
    -1
100
AcDbCircle
 10
-7.59705356650403
 20
-195.3299792914013
 30
0.0
 40
1.75
100
AcDbArc
 50
270.0
 51
314.9999999037763
  0
ARC
  5
E34
330
18
100
AcDbEntity
  8
0
 62
     7
370
    -1
100
AcDbCircle
 10
-2.336645918843516
 20
-196.0799792914013
 30
0.0
 40
2.5
100
AcDbArc
 50
44.9999999370255
 51
134.9999999405438
  0
ARC
  5
E35
330
18
100
AcDbEntity
  8
0
 62
     7
370
    -1
100
AcDbCircle
 10
2.923761721242158
 20
-195.3299792914013
 30
0.0
 40
1.75
100
AcDbArc
 50
225.0000000000002
 51
270.0
  0
ARC
  5
E36
330
18
100
AcDbEntity
  8
0
 62
     7
370
    -1
100
AcDbCircle
 10
2.923761721242158
 20
-195.3299792914013
 30
0.0
 40
2.5
100
AcDbArc
 50
225.0000000000002
 51
270.0
  0
LINE
  5
E37
330
18
100
AcDbEntity
  8
0
 62
     7
370
    -1
100
AcDbLine
 10
1.155994768275804
 20
-197.0977462443676
 30
0.0
 11
-1.099209050406955
 21
-194.8425424256849
 31
0.0
  0
LINE
  5
E38
330
18
100
AcDbEntity
  8
0
 62
     7
370
    -1
100
AcDbLine
 10
-5.829286616506494
 20
-197.0977462473364
 30
0.0
 11
-3.574082784635863
 21
-194.8425424230406
 31
0.0
  0
ARC
  5
E39
330
18
100
AcDbEntity
  8
0
 62
     7
370
    -1
100
AcDbCircle
 10
-2.336645918843516
 20
-196.0799792914013
 30
0.0
 40
1.75
100
AcDbArc
 50
44.9999999370255
 51
134.9999999405438
  0
LINE
  5
E3A
330
18
100
AcDbEntity
  8
0
 62
     7
370
    -1
100
AcDbLine
 10
1.686324854165719
 20
-196.5674161584777
 30
0.0
 11
-0.5688789639341678
 21
-194.3122123403779
 31
0.0
  0
LINE
  5
E3C
330
18
100
AcDbEntity
  8
0
 62
     9
370
    -1
100
AcDbLine
 10
118.6633540811565
 20
-202.8299792914013
 30
0.0
 11
99.41335408115651
 21
-202.8299792914013
 31
0.0
  0
LINE
  5
E3D
330
18
100
AcDbEntity
  8
0
 62
     9
370
    -1
100
AcDbLine
 10
397.3516361031191
 20
-358.0799792914012
 30
0.0
 11
397.3516361031191
 21
-196.0799792914013
 31
0.0
  0
LINE
  5
E3E
330
18
100
AcDbEntity
  8
0
 62
     7
370
    -1
100
AcDbLine
 10
349.3516361031191
 20
-197.8299792914013
 30
0.0
 11
349.3516361031191
 21
-356.3299792914012
 31
0.0
  0
LINE
  5
E3F
330
18
100
AcDbEntity
  8
0
 62
     9
370
    -1
100
AcDbLine
 10
199.6633540811565
 20
-358.0799792914012
 30
0.0
 11
199.6633540811565
 21
-196.0799792914013
 31
0.0
  0
LINE
  5
E40
330
18
100
AcDbEntity
  8
0
 62
     9
370
    -1
100
AcDbLine
 10
247.6633540811565
 20
-197.8299792914013
 30
0.0
 11
247.6633540811565
 21
-356.3299792914012
 31
0.0
  0
LINE
  5
E41
330
18
100
AcDbEntity
  8
0
 62
     7
370
    -1
100
AcDbLine
 10
204.923761728817
 20
-357.0799792914012
 30
0.0
 11
247.6633540811565
 21
-357.0799792914012
 31
0.0
  0
LINE
  5
E42
330
18
100
AcDbEntity
  8
0
 62
     7
370
    -1
100
AcDbLine
 10
247.6633540811565
 20
-356.3299792914012
 30
0.0
 11
204.923761728817
 21
-356.3299792914012
 31
0.0
  0
ARC
  5
E43
330
18
100
AcDbEntity
  8
0
 62
     7
370
    -1
100
AcDbCircle
 10
204.923761728817
 20
-358.8299792914012
 30
0.0
 40
2.5
100
AcDbArc
 50
90.00000000000001
 51
134.9999999037763
  0
LINE
  5
E44
330
18
100
AcDbEntity
  8
0
 62
     7
370
    -1
100
AcDbLine
 10
203.6863248638188
 20
-357.5925424222466
 30
0.0
 11
201.4311210322884
 21
-359.847746246202
 31
0.0
  0
LINE
  5
E45
330
18
100
AcDbEntity
  8
0
 62
     7
370
    -1
100
AcDbLine
 10
203.1559947788195
 20
-357.062212335466
 30
0.0
 11
200.9007909469489
 21
-359.3174161597618
 31
0.0
  0
ARC
  5
E46
330
18
100
AcDbEntity
  8
0
 62
     7
370
    -1
100
AcDbCircle
 10
194.4029464410708
 20
-358.8299792914012
 30
0.0
 40
2.5
100
AcDbArc
 50
45.00000000000022
 51
90.00000000000001
  0
ARC
  5
E47
330
18
100
AcDbEntity
  8
0
 62
     7
370
    -1
100
AcDbCircle
 10
194.4029464410708
 20
-358.8299792914012
 30
0.0
 40
1.75
100
AcDbArc
 50
45.00000000000022
 51
90.00000000000001
  0
LINE
  5
E48
330
18
100
AcDbEntity
  8
0
 62
     7
370
    -1
100
AcDbLine
 10
195.6403833081472
 20
-357.5925424243247
 30
0.0
 11
197.8955871262472
 21
-359.8477462424246
 31
0.0
  0
LINE
  5
E49
330
18
100
AcDbEntity
  8
0
 62
     7
370
    -1
100
AcDbLine
 10
196.1707133940372
 20
-357.0622123384348
 30
0.0
 11
198.4259172127199
 21
-359.3174161571176
 31
0.0
  0
ARC
  5
E4A
330
18
100
AcDbEntity
  8
0
 62
     7
370
    -1
100
AcDbCircle
 10
199.6633540811565
 20
-358.0799792914012
 30
0.0
 40
2.5
100
AcDbArc
 50
224.9999999370255
 51
314.9999999405438
  0
ARC
  5
E4B
330
18
100
AcDbEntity
  8
0
 62
     7
370
    -1
100
AcDbCircle
 10
199.6633540811565
 20
-358.0799792914012
 30
0.0
 40
1.75
100
AcDbArc
 50
224.9999999370255
 51
314.9999999405438
  0
ARC
  5
E4C
330
18
100
AcDbEntity
  8
0
 62
     7
370
    -1
100
AcDbCircle
 10
204.923761728817
 20
-358.8299792914012
 30
0.0
 40
1.75
100
AcDbArc
 50
90.00000000000001
 51
134.9999999037763
  0
LINE
  5
E4D
330
18
100
AcDbEntity
  8
0
 62
     7
370
    -1
100
AcDbLine
 10
247.6633540811565
 20
-356.3299792914012
 30
0.0
 11
247.6633540811565
 21
-357.0799792914012
 31
0.0
  0
LINE
  5
E4E
330
18
100
AcDbEntity
  8
0
 62
     9
370
    -1
100
AcDbLine
 10
397.3516361031191
 20
-428.8550221117755
 30
0.0
 11
397.3516361031191
 21
-590.8550221117755
 31
0.0
  0
LINE
  5
E4F
330
18
100
AcDbEntity
  8
0
 62
     7
370
    -1
100
AcDbLine
 10
349.3516361031191
 20
-589.1050221117755
 30
0.0
 11
349.3516361031191
 21
-430.6050221117755
 31
0.0
  0
LINE
  5
E50
330
18
100
AcDbEntity
  8
0
  6
ACAD_ISO10W100
 62
     9
370
    -1
100
AcDbLine
 10
339.3516361031191
 20
-509.8550221117755
 30
0.0
 11
497.6016361031191
 21
-509.8550221117755
 31
0.0
  0
LINE
  5
E51
330
18
100
AcDbEntity
  8
0
 62
     7
370
    -1
100
AcDbLine
 10
349.3516361031191
 20
-429.8550221117755
 30
0.0
 11
392.0912284554586
 21
-429.8550221117755
 31
0.0
  0
LINE
  5
E52
330
18
100
AcDbEntity
  8
0
 62
     7
370
    -1
100
AcDbLine
 10
349.3516361031191
 20
-430.6050221117755
 30
0.0
 11
349.3516361031191
 21
-429.8550221117755
 31
0.0
  0
ARC
  5
E53
330
18
100
AcDbEntity
  8
0
 62
     7
370
    -1
100
AcDbCircle
 10
402.6120437432047
 20
-428.1050221117755
 30
0.0
 40
1.75
100
AcDbArc
 50
225.0000000000002
 51
270.0
  0
LINE
  5
E54
330
18
100
AcDbEntity
  8
0
 62
     7
370
    -1
100
AcDbLine
 10
401.3746068761283
 20
-429.3424589788521
 30
0.0
 11
399.1194030580284
 21
-427.0872551607522
 31
0.0
  0
ARC
  5
E55
330
18
100
AcDbEntity
  8
0
 62
     7
370
    -1
100
AcDbCircle
 10
392.0912284554586
 20
-428.1050221117755
 30
0.0
 40
1.75
100
AcDbArc
 50
270.0
 51
314.9999999037763
  0
LINE
  5
E56
330
18
100
AcDbEntity
  8
0
 62
     7
370
    -1
100
AcDbLine
 10
393.3286653204568
 20
-429.3424589809301
 30
0.0
 11
395.5838691519871
 21
-427.0872551569748
 31
0.0
  0
ARC
  5
E57
330
18
100
AcDbEntity
  8
0
 62
     7
370
    -1
100
AcDbCircle
 10
397.3516361031191
 20
-428.8550221117755
 30
0.0
 40
2.5
100
AcDbArc
 50
44.99999993702549
 51
134.9999999405438
  0
LINE
  5
E58
330
18
100
AcDbEntity
  8
0
 62
     7
370
    -1
100
AcDbLine
 10
349.3516361031191
 20
-357.0799792914012
 30
0.0
 11
392.0912284554586
 21
-357.0799792914012
 31
0.0
  0
LINE
  5
E59
330
18
100
AcDbEntity
  8
0
 62
     7
370
    -1
100
AcDbLine
 10
349.3516361031191
 20
-589.8550221117755
 30
0.0
 11
392.0912284554586
 21
-589.8550221117755
 31
0.0
  0
LINE
  5
E5A
330
18
100
AcDbEntity
  8
0
 62
     7
370
    -1
100
AcDbLine
 10
349.3516361031191
 20
-589.8550221117755
 30
0.0
 11
349.3516361031191
 21
-589.1050221117755
 31
0.0
  0
LINE
  5
E5B
330
18
100
AcDbEntity
  8
0
 62
     7
370
    -1
100
AcDbLine
 10
349.3516361031191
 20
-356.3299792914012
 30
0.0
 11
349.3516361031191
 21
-357.0799792914012
 31
0.0
  0
ARC
  5
E5C
330
18
100
AcDbEntity
  8
0
 62
     7
370
    -1
100
AcDbCircle
 10
402.6120437432047
 20
-591.6050221117755
 30
0.0
 40
1.75
100
AcDbArc
 50
90.00000000000001
 51
134.9999999999998
  0
LINE
  5
E5D
330
18
100
AcDbEntity
  8
0
 62
     7
370
    -1
100
AcDbLine
 10
401.3746068761283
 20
-590.3675852446991
 30
0.0
 11
399.1194030580284
 21
-592.6227890627989
 31
0.0
  0
LINE
  5
E5E
330
18
100
AcDbEntity
  8
0
 62
     7
370
    -1
100
AcDbLine
 10
393.3286653204568
 20
-590.3675852426209
 30
0.0
 11
395.5838691519871
 21
-592.6227890665764
 31
0.0
  0
ARC
  5
E5F
330
18
100
AcDbEntity
  8
0
 62
     7
370
    -1
100
AcDbCircle
 10
392.0912284554586
 20
-591.6050221117755
 30
0.0
 40
1.75
100
AcDbArc
 50
45.0000000962237
 51
90.00000000000001
  0
ARC
  5
E60
330
18
100
AcDbEntity
  8
0
 62
     7
370
    -1
100
AcDbCircle
 10
397.3516361031191
 20
-590.8550221117755
 30
0.0
 40
2.5
100
AcDbArc
 50
225.0000000594562
 51
315.0000000629745
  0
ARC
  5
E61
330
18
100
AcDbEntity
  8
0
 62
     7
370
    -1
100
AcDbCircle
 10
402.6120437432047
 20
-358.8299792914012
 30
0.0
 40
1.75
100
AcDbArc
 50
90.00000000000001
 51
134.9999999999998
  0
LINE
  5
E62
330
18
100
AcDbEntity
  8
0
 62
     7
370
    -1
100
AcDbLine
 10
401.3746068761283
 20
-357.5925424243247
 30
0.0
 11
399.1194030580284
 21
-359.8477462424246
 31
0.0
  0
ARC
  5
E63
330
18
100
AcDbEntity
  8
0
 62
     7
370
    -1
100
AcDbCircle
 10
392.0912284554586
 20
-358.8299792914012
 30
0.0
 40
1.75
100
AcDbArc
 50
45.0000000962237
 51
90.00000000000001
  0
LINE
  5
E64
330
18
100
AcDbEntity
  8
0
 62
     7
370
    -1
100
AcDbLine
 10
393.3286653204568
 20
-357.5925424222466
 30
0.0
 11
395.5838691519871
 21
-359.847746246202
 31
0.0
  0
ARC
  5
E65
330
18
100
AcDbEntity
  8
0
 62
     7
370
    -1
100
AcDbCircle
 10
397.3516361031191
 20
-358.0799792914012
 30
0.0
 40
2.5
100
AcDbArc
 50
225.0000000594562
 51
315.0000000629745
  0
LINE
  5
E66
330
18
100
AcDbEntity
  8
0
 62
     7
370
    -1
100
AcDbLine
 10
247.6633540811565
 20
-197.8299792914013
 30
0.0
 11
204.923761728817
 21
-197.8299792914013
 31
0.0
  0
LINE
  5
E67
330
18
100
AcDbEntity
  8
0
 62
     7
370
    -1
100
AcDbLine
 10
204.923761728817
 20
-197.0799792914012
 30
0.0
 11
247.6633540811565
 21
-197.0799792914012
 31
0.0
  0
ARC
  5
E68
330
18
100
AcDbEntity
  8
0
 62
     7
370
    -1
100
AcDbCircle
 10
204.923761728817
 20
-195.3299792914013
 30
0.0
 40
2.5
100
AcDbArc
 50
225.0000000962237
 51
270.0
  0
LINE
  5
E69
330
18
100
AcDbEntity
  8
0
 62
     7
370
    -1
100
AcDbLine
 10
203.6863248638188
 20
-196.5674161605559
 30
0.0
 11
201.4311210322884
 21
-194.3122123366004
 31
0.0
  0
ARC
  5
E6A
330
18
100
AcDbEntity
  8
0
 62
     7
370
    -1
100
AcDbCircle
 10
199.6633540811565
 20
-196.0799792914013
 30
0.0
 40
2.5
100
AcDbArc
 50
45.00000005945622
 51
135.0000000629745
  0
LINE
  5
E6B
330
18
100
AcDbEntity
  8
0
 62
     7
370
    -1
100
AcDbLine
 10
203.1559947788195
 20
-197.0977462473364
 30
0.0
 11
200.9007909469489
 21
-194.8425424230406
 31
0.0
  0
ARC
  5
E6C
330
18
100
AcDbEntity
  8
0
 62
     7
370
    -1
100
AcDbCircle
 10
194.4029464410708
 20
-195.3299792914013
 30
0.0
 40
1.75
100
AcDbArc
 50
270.0
 51
314.9999999999998
  0
ARC
  5
E6D
330
18
100
AcDbEntity
  8
0
 62
     7
370
    -1
100
AcDbCircle
 10
194.4029464410708
 20
-195.3299792914013
 30
0.0
 40
2.5
100
AcDbArc
 50
270.0
 51
314.9999999999998
  0
LINE
  5
E6E
330
18
100
AcDbEntity
  8
0
 62
     7
370
    -1
100
AcDbLine
 10
196.1707133940372
 20
-197.0977462443676
 30
0.0
 11
198.4259172127199
 21
-194.8425424256849
 31
0.0
  0
LINE
  5
E6F
330
18
100
AcDbEntity
  8
0
 62
     7
370
    -1
100
AcDbLine
 10
195.6403833081472
 20
-196.5674161584777
 30
0.0
 11
197.8955871262472
 21
-194.3122123403779
 31
0.0
  0
ARC
  5
E70
330
18
100
AcDbEntity
  8
0
 62
     7
370
    -1
100
AcDbCircle
 10
199.6633540811565
 20
-196.0799792914013
 30
0.0
 40
1.75
100
AcDbArc
 50
45.00000005945622
 51
135.0000000629745
  0
ARC
  5
E71
330
18
100
AcDbEntity
  8
0
 62
     7
370
    -1
100
AcDbCircle
 10
204.923761728817
 20
-195.3299792914013
 30
0.0
 40
1.75
100
AcDbArc
 50
225.0000000962237
 51
270.0
  0
LINE
  5
E72
330
18
100
AcDbEntity
  8
0
 62
     7
370
    -1
100
AcDbLine
 10
247.6633540811565
 20
-197.0799792914012
 30
0.0
 11
247.6633540811565
 21
-197.8299792914013
 31
0.0
  0
LINE
  5
E73
330
18
100
AcDbEntity
  8
0
  6
ACAD_ISO10W100
 62
     9
370
    -1
100
AcDbLine
 10
339.3516361031191
 20
-277.0799792914012
 30
0.0
 11
468.0219960812119
 21
-277.0799792914012
 31
0.0
  0
LINE
  5
E75
330
18
100
AcDbEntity
  8
0
 62
     7
370
    -1
100
AcDbLine
 10
349.3516361031191
 20
-197.0799792914013
 30
0.0
 11
392.0912284554586
 21
-197.0799792914013
 31
0.0
  0
LINE
  5
E76
330
18
100
AcDbEntity
  8
0
 62
     7
370
    -1
100
AcDbLine
 10
349.3516361031191
 20
-197.0799792914013
 30
0.0
 11
349.3516361031191
 21
-197.8299792914013
 31
0.0
  0
ARC
  5
E77
330
18
100
AcDbEntity
  8
0
 62
     7
370
    -1
100
AcDbCircle
 10
397.3516361031191
 20
-196.0799792914013
 30
0.0
 40
2.5
100
AcDbArc
 50
44.9999999370255
 51
134.9999999405438
  0
ARC
  5
E78
330
18
100
AcDbEntity
  8
0
 62
     7
370
    -1
100
AcDbCircle
 10
402.6120437432047
 20
-195.3299792914013
 30
0.0
 40
1.75
100
AcDbArc
 50
225.0000000000002
 51
270.0
  0
LINE
  5
E79
330
18
100
AcDbEntity
  8
0
 62
     7
370
    -1
100
AcDbLine
 10
401.3746068761283
 20
-196.5674161584777
 30
0.0
 11
399.1194030580284
 21
-194.3122123403779
 31
0.0
  0
ARC
  5
E7A
330
18
100
AcDbEntity
  8
0
 62
     7
370
    -1
100
AcDbCircle
 10
392.0912284554586
 20
-195.3299792914013
 30
0.0
 40
1.75
100
AcDbArc
 50
270.0
 51
314.9999999037763
  0
LINE
  5
E7B
330
18
100
AcDbEntity
  8
0
 62
     7
370
    -1
100
AcDbLine
 10
393.3286653204568
 20
-196.5674161605559
 30
0.0
 11
395.5838691519871
 21
-194.3122123366004
 31
0.0
  0
LINE
  5
E81
330
18
100
AcDbEntity
  8
0
  6
ACAD_ISO10W100
 62
     9
370
    -1
100
AcDbLine
 10
498.3516361031191
 20
-364.2036733240277
 30
0.0
 11
498.3516361031191
 21
-603.3550221117755
 31
0.0
  0
LINE
  5
E88
330
18
100
AcDbEntity
  8
0
 62
     7
370
    -1
100
AcDbLine
 10
938.5799066888228
 20
-234.5799792914012
 30
0.0
 11
939.579906688823
 21
-234.5799792914012
 31
0.0
  0
LINE
  5
E89
330
18
100
AcDbEntity
  8
0
 62
     7
370
    -1
100
AcDbLine
 10
938.5799066888229
 20
-245.5799792914012
 30
0.0
 11
939.5799066888229
 21
-245.5799792914012
 31
0.0
  0
LINE
  5
E8B
330
18
100
AcDbEntity
  8
0
  6
LÍNEAS_OCULTAS
 62
     9
 48
10.0
370
    -1
100
AcDbLine
 10
782.877559918988
 20
-244.0799792914012
 30
0.0
 11
787.5274084670402
 21
-244.0799792914012
 31
0.0
  0
LINE
  5
E8C
330
18
100
AcDbEntity
  8
0
  6
LÍNEAS_OCULTAS
 62
     9
 48
10.0
370
    -1
100
AcDbLine
 10
786.8389278667037
 20
-236.0799792914012
 30
0.0
 11
791.7598322270532
 21
-236.0799792914012
 31
0.0
  0
ARC
  5
E90
330
18
100
AcDbEntity
  8
0
 62
     7
370
    -1
100
AcDbCircle
 10
859.5799066888228
 20
-277.0799792914012
 30
0.0
 40
74.25
100
AcDbArc
 50
33.51728673094456
 51
146.4827132690554
  0
CIRCLE
  5
E91
330
18
100
AcDbEntity
  8
0
 62
     7
370
    -1
100
AcDbCircle
 10
859.5799066888228
 20
-277.0799792914012
 30
0.0
 40
79.99999999999999
  0
CIRCLE
  5
E92
330
18
100
AcDbEntity
  8
0
 62
     7
370
    -1
100
AcDbCircle
 10
859.5799066888228
 20
-277.0799792914012
 30
0.0
 40
79.24999999999993
  0
ARC
  5
E93
330
18
100
AcDbEntity
  8
0
 62
     7
370
    -1
100
AcDbCircle
 10
859.5799066888228
 20
-277.0799792914012
 30
0.0
 40
74.25
100
AcDbArc
 50
194.7923243692783
 51
345.2076756307217
  0
ARC
  5
E94
330
18
100
AcDbEntity
  8
0
 62
     7
370
    -1
100
AcDbCircle
 10
859.5799066888228
 20
-277.0799792914012
 30
0.0
 40
83.49999999999993
100
AcDbArc
 50
16.55379258136393
 51
0.0
  0
LINE
  5
E95
330
18
100
AcDbEntity
  8
0
  6
ACAD_ISO10W100
 62
     9
370
    -1
100
AcDbLine
 10
716.0799066888229
 20
-240.0799792914012
 30
0.0
 11
953.0799066888226
 21
-240.0799792914012
 31
0.0
  0
LINE
  5
E96
330
18
100
AcDbEntity
  8
0
  6
ACAD_ISO10W100
 62
     9
370
    -1
100
AcDbLine
 10
859.5799066888228
 20
-370.5799792914012
 30
0.0
 11
859.5799066888228
 21
-183.5799792914013
 31
0.0
  0
LINE
  5
E97
330
18
100
AcDbEntity
  8
0
  6
LÍNEAS_OCULTAS
 62
     9
 48
10.0
370
    -1
100
AcDbLine
 10
502.157075147675
 20
-244.7187974251685
 30
0.0
 11
570.8150723451326
 21
-328.4126783936077
 31
0.0
  0
LINE
  5
E99
330
18
100
AcDbEntity
  8
0
  6
LÍNEAS_OCULTAS
 62
     9
 48
10.0
370
    -1
100
AcDbLine
 10
497.6016361031191
 20
-248.9857358566796
 30
0.0
 11
497.6016361031191
 21
-356.3299792914012
 31
0.0
  0
LINE
  5
E9A
330
18
100
AcDbEntity
  8
0
  6
LÍNEAS_OCULTAS
 62
     9
 48
10.0
370
    -1
100
AcDbLine
 10
478.3516361031191
 20
-241.8299792914011
 30
0.0
 11
478.3516361031191
 21
-356.3299792914012
 31
0.0
  0
LINE
  5
E9B
330
18
100
AcDbEntity
  8
0
 62
     7
370
    -1
100
AcDbLine
 10
647.3516361031192
 20
-197.0799792914012
 30
0.0
 11
647.3516361031191
 21
-357.0799792914012
 31
0.0
  0
HATCH
  5
E9C
330
18
100
AcDbEntity
  8
0
 62
     9
370
    -1
100
AcDbHatch
 10
0.0
 20
0.0
 30
0.0
210
0.0
220
0.0
230
1.0
  2
ANSI31
 70
     0
 71
     0
 91
        2
 92
        7
 72
     0
 73
     1
 93
        4
 10
499.101636103119
 20
-197.8299792914013
 10
499.1016361031191
 20
-202.8299792914012
 10
518.3516361031191
 20
-202.8299792914012
 10
518.351636103119
 20
-197.8299792914012
 97
        0
 92
        7
 72
     0
 73
     1
 93
        4
 10
478.351636103119
 20
-351.3299792914012
 10
478.351636103119
 20
-356.3299792914012
 10
497.6016361031189
 20
-356.3299792914012
 10
497.601636103119
 20
-351.3299792914012
 97
        0
 75
     0
 76
     1
 52
0.0
 41
20.0
 77
     0
 78
     1
 53
45.0
 43
399.6882820219626
 44
-338.2540831235846
 45
-1.767766952966369
 46
1.767766952966369
 79
     0
 47
0.4113843275777461
 98
        2
 10
508.3420681871344
 20
-200.0962974919213
 10
483.640862968047
 20
-353.1312676377864
  0
LINE
  5
E9D
330
18
100
AcDbEntity
  8
0
  6
LÍNEAS_OCULTAS
 62
     9
 48
10.0
370
    -1
100
AcDbLine
 10
599.3516361031191
 20
-358.0799792914012
 30
0.0
 11
599.3516361031191
 21
-196.0799792914013
 31
0.0
  0
LINE
  5
E9E
330
18
100
AcDbEntity
  8
0
 62
     7
370
    -1
100
AcDbLine
 10
604.6120437507795
 20
-357.0799792914012
 30
0.0
 11
647.3516361031191
 21
-357.0799792914012
 31
0.0
  0
LINE
  5
E9F
330
18
100
AcDbEntity
  8
0
 62
     7
370
    -1
100
AcDbLine
 10
604.6120437507795
 20
-589.8550221117756
 30
0.0
 11
647.3516361031191
 21
-589.8550221117756
 31
0.0
  0
LINE
  5
EA0
330
18
100
AcDbEntity
  8
0
 62
     7
370
    -1
100
AcDbLine
 10
604.6120437507795
 20
-429.8550221117755
 30
0.0
 11
647.3516361031191
 21
-429.8550221117755
 31
0.0
  0
LINE
  5
EA1
330
18
100
AcDbEntity
  8
0
  6
ACAD_ISO10W100
 62
     9
370
    -1
100
AcDbLine
 10
497.6016361031191
 20
-509.8550221117755
 30
0.0
 11
657.3516361031191
 21
-509.8550221117755
 31
0.0
  0
LINE
  5
EA2
330
18
100
AcDbEntity
  8
0
  6
LÍNEAS_OCULTAS
 62
     9
 48
10.0
370
    -1
100
AcDbLine
 10
496.3412446747107
 20
-589.046178092041
 30
0.0
 11
496.3412446747107
 21
-430.66386613151
 31
0.0
  0
LINE
  5
EA3
330
18
100
AcDbEntity
  8
0
  6
LÍNEAS_OCULTAS
 62
     9
 48
10.0
370
    -1
100
AcDbLine
 10
492.8516361031191
 20
-588.6635364836428
 30
0.0
 11
492.8516361031191
 21
-431.0465077399082
 31
0.0
  0
LINE
  5
EA4
330
18
100
AcDbEntity
  8
0
  6
LÍNEAS_OCULTAS
 62
     9
 48
10.0
370
    -1
100
AcDbLine
 10
503.8516361031191
 20
-588.6635364836428
 30
0.0
 11
503.8516361031191
 21
-431.0465077399082
 31
0.0
  0
LINE
  5
EA5
330
18
100
AcDbEntity
  8
0
  6
LÍNEAS_OCULTAS
 62
     9
 48
10.0
370
    -1
100
AcDbLine
 10
499.1016361031191
 20
-589.1050221117755
 30
0.0
 11
499.1016361031189
 21
-509.8550221117755
 31
0.0
  0
LINE
  5
EA6
330
18
100
AcDbEntity
  8
0
  6
LÍNEAS_OCULTAS
 62
     9
 48
10.0
370
    -1
100
AcDbLine
 10
497.6016361031191
 20
-509.8550221117755
 30
0.0
 11
497.6016361031191
 21
-589.1050221117755
 31
0.0
  0
LINE
  5
EA7
330
18
100
AcDbEntity
  8
0
  6
LÍNEAS_OCULTAS
 62
     9
 48
10.0
370
    -1
100
AcDbLine
 10
478.3516361031191
 20
-509.8550221117755
 30
0.0
 11
478.3516361031191
 21
-589.1050221117755
 31
0.0
  0
LINE
  5
EA8
330
18
100
AcDbEntity
  8
0
  6
LÍNEAS_OCULTAS
 62
     9
 48
10.0
370
    -1
100
AcDbLine
 10
518.3516361031191
 20
-589.1050221117755
 30
0.0
 11
518.3516361031191
 21
-509.8550221117755
 31
0.0
  0
HATCH
  5
EA9
330
18
100
AcDbEntity
  8
0
 62
     9
370
    -1
100
AcDbHatch
 10
0.0
 20
0.0
 30
0.0
210
0.0
220
0.0
230
1.0
  2
ANSI31
 70
     0
 71
     0
 91
        2
 92
        7
 72
     0
 73
     1
 93
        4
 10
499.101636103119
 20
-430.6050221117756
 10
499.1016361031191
 20
-435.6050221117755
 10
518.3516361031191
 20
-435.6050221117755
 10
518.351636103119
 20
-430.6050221117755
 97
        0
 92
        7
 72
     0
 73
     1
 93
        4
 10
478.351636103119
 20
-584.1050221117755
 10
478.351636103119
 20
-589.1050221117755
 10
497.6016361031189
 20
-589.1050221117755
 10
497.601636103119
 20
-584.1050221117755
 97
        0
 75
     0
 76
     1
 52
0.0
 41
20.0
 77
     0
 78
     1
 53
45.00000000000001
 43
399.6882820219626
 44
-571.0291259439589
 45
-1.767766952966369
 46
1.767766952966369
 79
     0
 47
0.4113843275777461
 98
        2
 10
508.3420681871344
 20
-432.8713403122956
 10
483.640862968047
 20
-585.9063104581608
  0
HATCH
  5
EAA
330
18
100
AcDbEntity
  8
0
 62
     9
370
    -1
100
AcDbHatch
 10
0.0
 20
0.0
 30
0.0
210
0.0
220
0.0
230
1.0
  2
ANSI31
 70
     0
 71
     0
 91
        2
 92
        7
 72
     0
 73
     1
 93
        4
 10
499.101636103119
 20
-589.1050221117755
 10
499.1016361031191
 20
-584.1050221117755
 10
518.3516361031191
 20
-584.1050221117755
 10
518.351636103119
 20
-589.1050221117755
 97
        0
 92
        7
 72
     0
 73
     1
 93
        4
 10
478.351636103119
 20
-435.6050221117756
 10
478.351636103119
 20
-430.6050221117756
 10
497.6016361031189
 20
-430.6050221117756
 10
497.601636103119
 20
-435.6050221117756
 97
        0
 75
     0
 76
     1
 52
0.0
 41
20.0
 77
     0
 78
     1
 53
315.0
 43
399.6882820219626
 44
-448.6809182795922
 45
-1.767766952966369
 46
-1.767766952966369
 79
     0
 47
0.4113843275777461
 98
        2
 10
508.3420681871344
 20
-586.8387039112555
 10
483.640862968047
 20
-433.8037337653903
  0
LINE
  5
EAB
330
18
100
AcDbEntity
  8
0
  6
LÍNEAS_OCULTAS
 62
     9
 48
10.0
370
    -1
100
AcDbLine
 10
599.3516361031191
 20
-428.8550221117755
 30
0.0
 11
599.3516361031191
 21
-590.8550221117755
 31
0.0
  0
LINE
  5
EAC
330
18
100
AcDbEntity
  8
0
  6
LÍNEAS_OCULTAS
 62
     9
 48
10.0
370
    -1
100
AcDbLine
 10
478.3516361031191
 20
-509.8550221117755
 30
0.0
 11
478.3516361031191
 21
-430.6050221117756
 31
0.0
  0
LINE
  5
EAD
330
18
100
AcDbEntity
  8
0
  6
LÍNEAS_OCULTAS
 62
     9
 48
10.0
370
    -1
100
AcDbLine
 10
497.6016361031191
 20
-509.8550221117755
 30
0.0
 11
497.6016361031191
 21
-430.6050221117756
 31
0.0
  0
LINE
  5
EAE
330
18
100
AcDbEntity
  8
0
  6
LÍNEAS_OCULTAS
 62
     9
 48
10.0
370
    -1
100
AcDbLine
 10
499.1016361031191
 20
-430.6050221117756
 30
0.0
 11
499.1016361031189
 21
-509.8550221117755
 31
0.0
  0
LINE
  5
EAF
330
18
100
AcDbEntity
  8
0
  6
LÍNEAS_OCULTAS
 62
     9
 48
10.0
370
    -1
100
AcDbLine
 10
518.3516361031191
 20
-430.6050221117755
 30
0.0
 11
518.3516361031191
 21
-509.8550221117755
 31
0.0
  0
LINE
  5
EB0
330
18
100
AcDbEntity
  8
0
  6
LÍNEAS_OCULTAS
 62
     9
 48
10.0
370
    -1
100
AcDbLine
 10
518.3516361031191
 20
-435.6050221117755
 30
0.0
 11
499.1016361031191
 21
-435.6050221117755
 31
0.0
  0
LINE
  5
EB1
330
18
100
AcDbEntity
  8
0
  6
LÍNEAS_OCULTAS
 62
     9
 48
10.0
370
    -1
100
AcDbLine
 10
502.3516361031191
 20
-427.2955095287798
 30
0.0
 11
494.3516361031191
 21
-427.2955095287789
 31
0.0
  0
LINE
  5
EB2
330
18
100
AcDbEntity
  8
0
  6
LÍNEAS_OCULTAS
 62
     9
 48
10.0
370
    -1
100
AcDbLine
 10
478.3516361031191
 20
-435.6050221117756
 30
0.0
 11
497.6016361031191
 21
-435.6050221117756
 31
0.0
  0
ARC
  5
EB3
330
18
100
AcDbEntity
  8
0
 62
     7
370
    -1
100
AcDbCircle
 10
599.3516361031191
 20
-428.8550221117755
 30
0.0
 40
2.5
100
AcDbArc
 50
45.00000005945623
 51
135.0000000629745
  0
ARC
  5
EB4
330
18
100
AcDbEntity
  8
0
 62
     7
370
    -1
100
AcDbCircle
 10
594.0912284630333
 20
-428.1050221117755
 30
0.0
 40
1.75
100
AcDbArc
 50
270.0
 51
314.9999999999998
  0
LINE
  5
EB5
330
18
100
AcDbEntity
  8
0
 62
     7
370
    -1
100
AcDbLine
 10
595.3286653301097
 20
-429.3424589788521
 30
0.0
 11
597.5838691482097
 21
-427.0872551607522
 31
0.0
  0
ARC
  5
EB6
330
18
100
AcDbEntity
  8
0
 62
     7
370
    -1
100
AcDbCircle
 10
604.6120437507795
 20
-428.1050221117755
 30
0.0
 40
1.75
100
AcDbArc
 50
225.0000000962237
 51
270.0
  0
LINE
  5
EB7
330
18
100
AcDbEntity
  8
0
 62
     7
370
    -1
100
AcDbLine
 10
603.3746068857813
 20
-429.3424589809301
 30
0.0
 11
601.1194030542509
 21
-427.0872551569748
 31
0.0
  0
LINE
  5
EB8
330
18
100
AcDbEntity
  8
0
  6
LÍNEAS_OCULTAS
 62
     9
 48
10.0
370
    -1
100
AcDbLine
 10
518.3516361031191
 20
-584.1050221117755
 30
0.0
 11
499.1016361031191
 21
-584.1050221117755
 31
0.0
  0
LINE
  5
EB9
330
18
100
AcDbEntity
  8
0
  6
LÍNEAS_OCULTAS
 62
     9
 48
10.0
370
    -1
100
AcDbLine
 10
478.3516361031191
 20
-584.1050221117755
 30
0.0
 11
497.6016361031191
 21
-584.1050221117755
 31
0.0
  0
LINE
  5
EBA
330
18
100
AcDbEntity
  8
0
  6
LÍNEAS_OCULTAS
 62
     9
 48
10.0
370
    -1
100
AcDbLine
 10
478.3516361031191
 20
-351.3299792914012
 30
0.0
 11
497.6016361031191
 21
-351.3299792914012
 31
0.0
  0
ARC
  5
EBC
330
18
100
AcDbEntity
  8
0
 62
     7
370
    -1
100
AcDbCircle
 10
599.3516361031191
 20
-590.8550221117755
 30
0.0
 40
2.5
100
AcDbArc
 50
224.9999999370255
 51
314.9999999405438
  0
LINE
  5
EBD
330
18
100
AcDbEntity
  8
0
 62
     7
370
    -1
100
AcDbLine
 10
595.3286653301097
 20
-590.3675852446991
 30
0.0
 11
597.5838691482097
 21
-592.6227890627989
 31
0.0
  0
ARC
  5
EBE
330
18
100
AcDbEntity
  8
0
 62
     7
370
    -1
100
AcDbCircle
 10
594.0912284630333
 20
-591.6050221117755
 30
0.0
 40
1.75
100
AcDbArc
 50
45.00000000000022
 51
90.00000000000001
  0
LINE
  5
EBF
330
18
100
AcDbEntity
  8
0
 62
     7
370
    -1
100
AcDbLine
 10
603.3746068857813
 20
-590.3675852426209
 30
0.0
 11
601.1194030542509
 21
-592.6227890665764
 31
0.0
  0
ARC
  5
EC0
330
18
100
AcDbEntity
  8
0
 62
     7
370
    -1
100
AcDbCircle
 10
604.6120437507795
 20
-591.6050221117755
 30
0.0
 40
1.75
100
AcDbArc
 50
90.00000000000001
 51
134.9999999037763
  0
ARC
  5
EC1
330
18
100
AcDbEntity
  8
0
 62
     7
370
    -1
100
AcDbCircle
 10
599.3516361031191
 20
-358.0799792914012
 30
0.0
 40
2.5
100
AcDbArc
 50
224.9999999370255
 51
314.9999999405438
  0
ARC
  5
EC2
330
18
100
AcDbEntity
  8
0
 62
     7
370
    -1
100
AcDbCircle
 10
594.0912284630333
 20
-358.8299792914012
 30
0.0
 40
1.75
100
AcDbArc
 50
45.00000000000022
 51
90.00000000000001
  0
LINE
  5
EC3
330
18
100
AcDbEntity
  8
0
 62
     7
370
    -1
100
AcDbLine
 10
595.3286653301097
 20
-357.5925424243247
 30
0.0
 11
597.5838691482097
 21
-359.8477462424246
 31
0.0
  0
ARC
  5
EC4
330
18
100
AcDbEntity
  8
0
 62
     7
370
    -1
100
AcDbCircle
 10
604.6120437507795
 20
-358.8299792914012
 30
0.0
 40
1.75
100
AcDbArc
 50
90.00000000000001
 51
134.9999999037763
  0
LINE
  5
EC5
330
18
100
AcDbEntity
  8
0
 62
     7
370
    -1
100
AcDbLine
 10
603.3746068857813
 20
-357.5925424222466
 30
0.0
 11
601.1194030542509
 21
-359.847746246202
 31
0.0
  0
LINE
  5
EC6
330
18
100
AcDbEntity
  8
0
 62
     7
370
    -1
100
AcDbLine
 10
647.3516361031192
 20
-589.8550221117756
 30
0.0
 11
647.3516361031191
 21
-429.8550221117755
 31
0.0
  0
LINE
  5
EC7
330
18
100
AcDbEntity
  8
0
 62
     7
370
    -1
100
AcDbLine
 10
604.6120437507795
 20
-197.0799792914012
 30
0.0
 11
647.3516361031191
 21
-197.0799792914012
 31
0.0
  0
LINE
  5
EC8
330
18
100
AcDbEntity
  8
0
  6
ACAD_ISO10W100
 62
     9
370
    -1
100
AcDbLine
 10
522.1681160564858
 20
-277.0799792914012
 30
0.0
 11
657.3516361031191
 21
-277.0799792914012
 31
0.0
  0
LINE
  5
EC9
330
18
100
AcDbEntity
  8
0
  6
LÍNEAS_OCULTAS
 62
     9
 48
10.0
370
    -1
100
AcDbLine
 10
499.1016361031191
 20
-197.8299792914012
 30
0.0
 11
499.1016361031191
 21
-231.1742227261227
 31
0.0
  0
LINE
  5
ECA
330
18
100
AcDbEntity
  8
0
  6
LÍNEAS_OCULTAS
 62
     9
 48
10.0
370
    -1
100
AcDbLine
 10
518.3516361031191
 20
-197.8299792914012
 30
0.0
 11
518.3516361031191
 21
-238.3299792914011
 31
0.0
  0
ARC
  5
ECB
330
18
100
AcDbEntity
  8
0
  6
LÍNEAS_OCULTAS
 62
     9
 48
10.0
370
    -1
100
AcDbCircle
 10
489.2686850408265
 20
-241.8299792914011
 30
0.0
 40
1.75
100
AcDbArc
 50
10.90546999673035
 51
90.0
  0
ARC
  5
ECC
330
18
100
AcDbEntity
  8
0
  6
LÍNEAS_OCULTAS
 62
     9
 48
10.0
370
    -1
100
AcDbCircle
 10
480.1016361031191
 20
-241.8299792914011
 30
0.0
 40
1.75
100
AcDbArc
 50
90.0
 51
180.0
  0
CIRCLE
  5
ECE
330
18
100
AcDbEntity
  8
0
 62
     7
370
    -1
100
AcDbCircle
 10
498.3516361031191
 20
-240.0799792914011
 30
0.0
 40
5.499999999999993
  0
CIRCLE
  5
ECF
330
18
100
AcDbEntity
  8
0
 62
     7
370
    -1
100
AcDbCircle
 10
498.3516361031191
 20
-240.0799792914011
 30
0.0
 40
4.0
  0
ARC
  5
ED2
330
18
100
AcDbEntity
  8
0
  6
LÍNEAS_OCULTAS
 62
     9
 48
10.0
370
    -1
100
AcDbCircle
 10
498.3516361031191
 20
-240.0799792914011
 30
0.0
 40
7.5
100
AcDbArc
 50
190.9054699967304
 51
254.3196498651606
  0
ARC
  5
ED4
330
18
100
AcDbEntity
  8
0
  6
LÍNEAS_OCULTAS
 62
     9
 48
10.0
370
    -1
100
AcDbCircle
 10
504.0899160367447
 20
-243.1331978232703
 30
0.0
 40
2.5
100
AcDbArc
 50
151.9834926004964
 51
219.3636276524564
  0
ARC
  5
ED5
330
18
100
AcDbEntity
  8
0
  6
LÍNEAS_OCULTAS
 62
     9
 48
10.0
370
    -1
100
AcDbCircle
 10
495.8516361031191
 20
-248.9857358566796
 30
0.0
 40
1.75
100
AcDbArc
 50
0.0000000000002326
 51
74.31964986516094
  0
ARC
  5
ED7
330
18
100
AcDbEntity
  8
0
  6
LÍNEAS_OCULTAS
 62
     9
 48
10.0
370
    -1
100
AcDbCircle
 10
516.6016361031191
 20
-238.3299792914011
 30
0.0
 40
1.75
100
AcDbArc
 50
270.0
 51
0.0000000000000127
  0
ARC
  5
EDA
330
18
100
AcDbEntity
  8
0
  6
LÍNEAS_OCULTAS
 62
     9
 48
10.0
370
    -1
100
AcDbCircle
 10
496.4790379476328
 20
-233.8555615557354
 30
0.0
 40
2.5
100
AcDbArc
 50
219.3636276524559
 51
286.7437627044154
  0
LINE
  5
EDB
330
18
100
AcDbEntity
  8
0
  6
LÍNEAS_OCULTAS
 62
     9
 48
10.0
370
    -1
100
AcDbLine
 10
480.1016361031191
 20
-240.0799792914011
 30
0.0
 11
489.2686850408265
 21
-240.0799792914011
 31
0.0
  0
ARC
  5
EDC
330
18
100
AcDbEntity
  8
0
  6
LÍNEAS_OCULTAS
 62
     9
 48
10.0
370
    -1
100
AcDbCircle
 10
507.4345871654116
 20
-238.3299792914011
 30
0.0
 40
1.75
100
AcDbArc
 50
190.9054699967303
 51
270.0
  0
ARC
  5
EDD
330
18
100
AcDbEntity
  8
0
  6
LÍNEAS_OCULTAS
 62
     9
 48
10.0
370
    -1
100
AcDbCircle
 10
500.8516361031191
 20
-231.1742227261227
 30
0.0
 40
1.75
100
AcDbArc
 50
180.0
 51
254.3196498651609
  0
ARC
  5
EDE
330
18
100
AcDbEntity
  8
0
  6
LÍNEAS_OCULTAS
 62
     9
 48
10.0
370
    -1
100
AcDbCircle
 10
498.3516361031191
 20
-240.0799792914011
 30
0.0
 40
7.5
100
AcDbArc
 50
10.90546999673037
 51
74.31964986516083
  0
LINE
  5
EDF
330
18
100
AcDbEntity
  8
0
  6
LÍNEAS_OCULTAS
 62
     9
 48
10.0
370
    -1
100
AcDbLine
 10
507.4345871654116
 20
-240.0799792914011
 30
0.0
 11
516.6016361031191
 21
-240.0799792914011
 31
0.0
  0
LINE
  5
EE1
330
18
100
AcDbEntity
  8
0
  6
LÍNEAS_OCULTAS
 62
     9
 48
10.0
370
    -1
100
AcDbLine
 10
518.3516361031191
 20
-202.8299792914013
 30
0.0
 11
499.1016361031191
 21
-202.8299792914013
 31
0.0
  0
ARC
  5
EE2
330
18
100
AcDbEntity
  8
0
 62
     7
370
    -1
100
AcDbCircle
 10
599.3516361031191
 20
-196.0799792914013
 30
0.0
 40
2.5
100
AcDbArc
 50
45.00000005945622
 51
135.0000000629745
  0
ARC
  5
EE3
330
18
100
AcDbEntity
  8
0
 62
     7
370
    -1
100
AcDbCircle
 10
594.0912284630333
 20
-195.3299792914013
 30
0.0
 40
1.75
100
AcDbArc
 50
270.0
 51
314.9999999999998
  0
LINE
  5
EE4
330
18
100
AcDbEntity
  8
0
 62
     7
370
    -1
100
AcDbLine
 10
595.3286653301097
 20
-196.5674161584777
 30
0.0
 11
597.5838691482097
 21
-194.3122123403779
 31
0.0
  0
ARC
  5
EE5
330
18
100
AcDbEntity
  8
0
 62
     7
370
    -1
100
AcDbCircle
 10
604.6120437507795
 20
-195.3299792914013
 30
0.0
 40
1.75
100
AcDbArc
 50
225.0000000962237
 51
270.0
  0
LINE
  5
EE6
330
18
100
AcDbEntity
  8
0
 62
     7
370
    -1
100
AcDbLine
 10
603.3746068857813
 20
-196.5674161605559
 30
0.0
 11
601.1194030542509
 21
-194.3122123366004
 31
0.0
  0
ARC
  5
EEC
330
18
100
AcDbEntity
  8
0
  6
LÍNEAS_OCULTAS
 62
     9
 48
10.0
370
    -1
100
AcDbCircle
 10
859.5799066888228
 20
-277.0799792914012
 30
0.0
 40
74.25
100
AcDbArc
 50
153.612200038757
 51
194.7923243692784
  0
LINE
  5
EEF
330
18
100
AcDbEntity
  8
0
 62
     7
370
    -1
100
AcDbLine
 10
942.3299066888228
 20
-244.0799792914012
 30
0.0
 11
948.8299066888229
 21
-244.0799792914013
 31
0.0
  0
LINE
  5
EF3
330
18
100
AcDbEntity
  8
0
 62
     7
370
    -1
100
AcDbLine
 10
940.3299066888228
 20
-277.0799792914012
 30
0.0
 11
940.329906688823
 21
-212.0799792914012
 31
0.0
  0
LINE
  5
EF4
330
18
100
AcDbEntity
  8
0
 62
     7
370
    -1
100
AcDbLine
 10
939.5799066888228
 20
-277.0799792914012
 30
0.0
 11
939.579906688823
 21
-212.0799792914012
 31
0.0
  0
ARC
  5
EF5
330
18
100
AcDbEntity
  8
0
  6
LÍNEAS_OCULTAS
 62
     9
 48
10.0
370
    -1
100
AcDbCircle
 10
859.5799066888228
 20
-277.0799792914012
 30
0.0
 40
74.25
100
AcDbArc
 50
345.2076756307216
 51
26.38779996124303
  0
ARC
  5
EF9
330
18
100
AcDbEntity
  8
0
 62
     7
370
    -1
100
AcDbCircle
 10
859.5799066888228
 20
-277.0799792914012
 30
0.0
 40
83.49999999999993
100
AcDbArc
 50
0.0
 51
14.74551441996616
  0
LINE
  5
EFA
330
18
100
AcDbEntity
  8
0
 62
     7
370
    -1
100
AcDbLine
 10
942.3299066888228
 20
-236.0799792914012
 30
0.0
 11
948.8299066888229
 21
-236.0799792914012
 31
0.0
  0
LINE
  5
EFE
330
18
100
AcDbEntity
  8
0
 62
     7
370
    -1
100
AcDbLine
 10
949.3299066888228
 20
-243.5799792914012
 30
0.0
 11
949.3299066888228
 21
-236.5799792914011
 31
0.0
  0
LINE
  5
EFF
330
18
100
AcDbEntity
  8
0
 62
     7
370
    -1
100
AcDbLine
 10
948.8299066888228
 20
-236.0799792914011
 30
0.0
 11
948.8299066888228
 21
-244.0799792914012
 31
0.0
  0
LINE
  5
F05
330
18
100
AcDbEntity
  8
0
 62
     7
370
    -1
100
AcDbLine
 10
948.8299066888228
 20
-244.0799792914012
 30
0.0
 11
949.3299066888228
 21
-243.5799792914012
 31
0.0
  0
LINE
  5
F0B
330
18
100
AcDbEntity
  8
0
 62
     7
370
    -1
100
AcDbLine
 10
482.8516361031191
 20
-212.0799792914012
 30
0.0
 11
513.851636103119
 21
-212.0799792914011
 31
0.0
  0
LINE
  5
F0D
330
18
100
AcDbEntity
  8
0
 62
     7
370
    -1
100
AcDbLine
 10
482.851636103119
 20
-277.0799792914012
 30
0.0
 11
482.8516361031191
 21
-212.0799792914012
 31
0.0
  0
LINE
  5
F0E
330
18
100
AcDbEntity
  8
0
 62
     7
370
    -1
100
AcDbLine
 10
513.851636103119
 20
-277.0799792914012
 30
0.0
 11
513.851636103119
 21
-212.0799792914011
 31
0.0
  0
LINE
  5
F10
330
18
100
AcDbEntity
  8
0
 62
     7
370
    -1
100
AcDbLine
 10
482.8516361031192
 20
-277.0799792914012
 30
0.0
 11
513.8516361031191
 21
-277.0799792914012
 31
0.0
  0
LINE
  5
F2B
330
18
100
AcDbEntity
  8
0
 62
     7
370
    -1
100
AcDbLine
 10
939.5799066888229
 20
-277.0799792914012
 30
0.0
 11
940.3299066888228
 21
-277.0799792914012
 31
0.0
  0
LWPOLYLINE
  5
F2E
330
18
100
AcDbEntity
  8
0
  6
LÍNEAS_OCULTAS
 62
     9
 48
10.0
370
    -1
100
AcDbPolyline
 90
        6
 70
     0
 43
0.0
 10
473.4035445529698
 20
-208.4858168102754
 10
495.126049325284
 20
-234.9654812770642
 42
0.302775637731994
 10
496.9831989894945
 20
-235.5313663307224
 42
-0.6666666666666671
 10
502.5449945161532
 20
-242.3111774493055
 42
0.3027756377319966
 10
502.7369274143958
 20
-244.243117544599
 10
571.3949246118533
 20
-327.9369985130383
  0
LINE
  5
F40
330
18
100
AcDbEntity
  8
0
  6
LÍNEAS_OCULTAS
 62
     9
 48
10.0
370
    -1
100
AcDbLine
 10
570.8150723451325
 20
-328.4126783936078
 30
0.0
 11
571.3949246118532
 21
-327.9369985130383
 31
0.0
  0
LINE
  5
F47
330
18
100
AcDbEntity
  8
0
  6
LÍNEAS_OCULTAS
 62
     9
 48
10.0
370
    -1
100
AcDbLine
 10
472.8192608343344
 20
-208.9560947650067
 30
0.0
 11
473.4035445529698
 21
-208.4858168102754
 31
0.0
  0
ELLIPSE
  5
F5F
330
18
100
AcDbEntity
  8
0
 62
     7
370
    -1
100
AcDbEllipse
 10
859.5799066888228
 20
-277.0799792914012
 30
0.0
 11
-77.24999999999996
 21
0.0
 31
0.0
210
0.0
220
0.0
230
1.0
 40
0.6645009592518653
 41
0.0
 42
3.141592653589793
  0
ELLIPSE
  5
F60
330
18
100
AcDbEntity
  8
0
 62
     7
370
    -1
100
AcDbEllipse
 10
859.5799066888228
 20
-277.0799792914013
 30
0.0
 11
77.24999999999994
 21
0.0
 31
0.0
210
0.0
220
0.0
230
1.0
 40
0.8879503233802715
 41
0.0
 42
0.5018981999916964
  0
ELLIPSE
  5
F71
330
18
100
AcDbEntity
  8
0
 62
     7
370
    -1
100
AcDbEllipse
 10
859.5799066888228
 20
-277.0799792914013
 30
0.0
 11
-77.24999999999994
 21
0.0
 31
0.0
210
0.0
220
0.0
230
1.0
 40
0.8818625828659508
 41
3.141592653589793
 42
3.647283117618142
  0
ELLIPSE
  5
F75
330
18
100
AcDbEntity
  8
0
  6
LÍNEAS_OCULTAS
 62
     9
 48
10.0
370
    -1
100
AcDbEllipse
 10
859.5799066888228
 20
-277.0799792914013
 30
0.0
 11
77.24999999999994
 21
5.684341886080801E-14
 31
0.0
210
0.0
220
0.0
230
1.0
 40
0.658343290894978
 41
3.141592653589793
 42
6.283185307179586
  0
ELLIPSE
  5
F76
330
18
100
AcDbEntity
  8
0
 62
     7
370
    -1
100
AcDbEllipse
 10
859.5799066888228
 20
-277.0799792914013
 30
0.0
 11
77.24999999999994
 21
0.0
 31
0.0
210
0.0
220
0.0
230
1.0
 40
0.8879503233802715
 41
2.639694453598097
 42
3.141592653589793
  0
ELLIPSE
  5
F77
330
18
100
AcDbEntity
  8
0
 62
     7
370
    -1
100
AcDbEllipse
 10
859.5799066888228
 20
-277.0799792914013
 30
0.0
 11
-77.24999999999994
 21
0.0
 31
0.0
210
0.0
220
0.0
230
1.0
 40
0.8818625828659508
 41
5.777494843151238
 42
6.283185307179586
  0
LINE
  5
F78
330
18
100
AcDbEntity
  8
0
 62
     7
370
    -1
100
AcDbLine
 10
787.5274084670402
 20
-244.0799792914012
 30
0.0
 11
931.6324049106054
 21
-244.0799792914012
 31
0.0
  0
LINE
  5
F79
330
18
100
AcDbEntity
  8
0
 62
     7
370
    -1
100
AcDbLine
 10
791.7598322270532
 20
-236.0799792914012
 30
0.0
 11
927.3999811505925
 21
-236.0799792914012
 31
0.0
  0
LINE
  5
F7A
330
18
100
AcDbEntity
  8
0
 62
     7
370
    -1
100
AcDbLine
 10
932.3208855109419
 20
-236.0799792914012
 30
0.0
 11
938.5799066888221
 21
-236.0799792914011
 31
0.0
  0
LINE
  5
F7B
330
18
100
AcDbEntity
  8
0
 62
     7
370
    -1
100
AcDbLine
 10
936.2822534586576
 20
-244.0799792914012
 30
0.0
 11
938.5799066888227
 21
-244.0799792914011
 31
0.0
  0
ELLIPSE
  5
F7C
330
18
100
AcDbEntity
  8
0
 62
     7
370
    -1
100
AcDbEllipse
 10
859.5799066888228
 20
-277.0799792914013
 30
0.0
 11
-77.24999999999994
 21
0.0
 31
0.0
210
0.0
220
0.0
230
1.0
 40
0.8818625828659508
 41
3.787401658005891
 42
5.637376302763488
  0
ELLIPSE
  5
F7D
330
18
100
AcDbEntity
  8
0
 62
     7
370
    -1
100
AcDbEllipse
 10
859.5799066888228
 20
-277.0799792914013
 30
0.0
 11
77.24999999999994
 21
0.0
 31
0.0
210
0.0
220
0.0
230
1.0
 40
0.8879503233802715
 41
0.6406522750780622
 42
2.500940378511731
  0
LINE
  5
F7E
330
18
100
AcDbEntity
  8
0
 62
     7
370
    -1
100
AcDbLine
 10
939.5799066888228
 20
-212.0799792914011
 30
0.0
 11
940.3299066888229
 21
-212.0799792914012
 31
0.0
  0
LINE
  5
F80
330
18
100
AcDbEntity
  8
0
 62
     7
370
    -1
100
AcDbLine
 10
948.8299066888228
 20
-236.0799792914012
 30
0.0
 11
949.3299066888228
 21
-236.5799792914012
 31
0.0
  0
LINE
  5
F81
330
18
100
AcDbEntity
  8
0
 62
     7
370
    -1
100
AcDbLine
 10
942.3299066888228
 20
-245.0799792914012
 30
0.0
 11
942.3299066888228
 21
-235.0799792914012
 31
0.0
  0
LINE
  5
F82
330
18
100
AcDbEntity
  8
0
 62
     7
370
    -1
100
AcDbLine
 10
940.3299066888229
 20
-245.0799792914012
 30
0.0
 11
942.3299066888228
 21
-245.0799792914012
 31
0.0
  0
LINE
  5
F83
330
18
100
AcDbEntity
  8
0
 62
     7
370
    -1
100
AcDbLine
 10
940.3299066888229
 20
-235.0799792914011
 30
0.0
 11
942.3299066888228
 21
-235.0799792914012
 31
0.0
  0
LINE
  5
F85
330
18
100
AcDbEntity
  8
0
 62
     7
370
    -1
100
AcDbLine
 10
938.5799066888229
 20
-245.5799792914012
 30
0.0
 11
938.579906688822
 21
-234.5799792914013
 31
0.0
  0
LINE
  5
F8A
330
18
100
AcDbEntity
  8
0
  6
LÍNEAS_OCULTAS
 62
     9
 48
10.0
370
    -1
100
AcDbLine
 10
791.5345252587856
 20
-244.8299792914012
 30
0.0
 11
927.7594432233543
 21
-244.8299792914012
 31
0.0
  0
LINE
  5
F8B
330
18
100
AcDbEntity
  8
0
  6
LÍNEAS_OCULTAS
 62
     9
 48
10.0
370
    -1
100
AcDbLine
 10
798.5372574475584
 20
-235.3299792914012
 30
0.0
 11
920.8729155111505
 21
-235.3299792914012
 31
0.0
  0
LINE
  5
F8C
330
18
100
AcDbEntity
  8
0
  6
LÍNEAS_OCULTAS
 62
     9
 48
10.0
370
    -1
100
AcDbLine
 10
936.2822534586576
 20
-244.0799792914012
 30
0.0
 11
931.6324049106054
 21
-244.0799792914012
 31
0.0
  0
LINE
  5
F8D
330
18
100
AcDbEntity
  8
0
  6
LÍNEAS_OCULTAS
 62
     9
 48
10.0
370
    -1
100
AcDbLine
 10
932.3208855109419
 20
-236.0799792914012
 30
0.0
 11
927.3999811505925
 21
-236.0799792914012
 31
0.0
  0
LINE
  5
F8F
330
18
100
AcDbEntity
  8
0
 62
     7
370
    -1
100
AcDbLine
 10
776.8299066888228
 20
-245.0799792914012
 30
0.0
 11
776.8299066888228
 21
-235.0799792914012
 31
0.0
  0
LINE
  5
F90
330
18
100
AcDbEntity
  8
0
 62
     7
370
    -1
100
AcDbLine
 10
780.5799066888227
 20
-245.5799792914012
 30
0.0
 11
780.5799066888236
 21
-234.5799792914013
 31
0.0
  0
LINE
  5
F91
330
18
100
AcDbEntity
  8
0
 62
     7
370
    -1
100
AcDbLine
 10
779.5799066888228
 20
-277.0799792914012
 30
0.0
 11
779.5799066888226
 21
-212.0799792914012
 31
0.0
  0
LINE
  5
F92
330
18
100
AcDbEntity
  8
0
 62
     7
370
    -1
100
AcDbLine
 10
778.8299066888228
 20
-277.0799792914012
 30
0.0
 11
778.8299066888226
 21
-212.0799792914012
 31
0.0
  0
LINE
  5
F93
330
18
100
AcDbEntity
  8
0
 62
     7
370
    -1
100
AcDbLine
 10
778.8299066888227
 20
-245.0799792914012
 30
0.0
 11
776.8299066888228
 21
-245.0799792914012
 31
0.0
  0
LINE
  5
F94
330
18
100
AcDbEntity
  8
0
 62
     7
370
    -1
100
AcDbLine
 10
780.5799066888227
 20
-245.5799792914012
 30
0.0
 11
779.5799066888227
 21
-245.5799792914012
 31
0.0
  0
LINE
  5
F95
330
18
100
AcDbEntity
  8
0
 62
     7
370
    -1
100
AcDbLine
 10
778.8299066888227
 20
-235.0799792914011
 30
0.0
 11
776.8299066888228
 21
-235.0799792914012
 31
0.0
  0
LINE
  5
F96
330
18
100
AcDbEntity
  8
0
 62
     7
370
    -1
100
AcDbLine
 10
780.5799066888228
 20
-234.5799792914012
 30
0.0
 11
779.5799066888226
 21
-234.5799792914012
 31
0.0
  0
LINE
  5
F97
330
18
100
AcDbEntity
  8
0
  6
LÍNEAS_OCULTAS
 62
     9
 48
10.0
370
    -1
100
AcDbLine
 10
720.3299066888228
 20
-236.0799792914012
 30
0.0
 11
719.8299066888228
 21
-236.5799792914012
 31
0.0
  0
LINE
  5
F98
330
18
100
AcDbEntity
  8
0
 62
     7
370
    -1
100
AcDbLine
 10
776.8299066888228
 20
-236.0799792914012
 30
0.0
 11
738.7050873242256
 21
-236.0799792914012
 31
0.0
  0
LINE
  5
F99
330
18
100
AcDbEntity
  8
0
  6
LÍNEAS_OCULTAS
 62
     9
 48
10.0
370
    -1
100
AcDbLine
 10
720.3299066888228
 20
-236.0799792914011
 30
0.0
 11
720.3299066888228
 21
-244.0799792914012
 31
0.0
  0
LINE
  5
F9A
330
18
100
AcDbEntity
  8
0
  6
LÍNEAS_OCULTAS
 62
     9
 48
10.0
370
    -1
100
AcDbLine
 10
719.8299066888228
 20
-243.5799792914012
 30
0.0
 11
719.8299066888228
 21
-236.5799792914011
 31
0.0
  0
LINE
  5
F9B
330
18
100
AcDbEntity
  8
0
  6
LÍNEAS_OCULTAS
 62
     9
 48
10.0
370
    -1
100
AcDbLine
 10
720.3299066888228
 20
-244.0799792914012
 30
0.0
 11
719.8299066888228
 21
-243.5799792914012
 31
0.0
  0
LINE
  5
F9C
330
18
100
AcDbEntity
  8
0
 62
     7
370
    -1
100
AcDbLine
 10
776.8299066888228
 20
-244.0799792914012
 30
0.0
 11
738.7050873242256
 21
-244.0799792914013
 31
0.0
  0
LINE
  5
F9D
330
18
100
AcDbEntity
  8
0
 62
     7
370
    -1
100
AcDbLine
 10
782.877559918988
 20
-244.0799792914012
 30
0.0
 11
780.5799066888229
 21
-244.0799792914011
 31
0.0
  0
LINE
  5
F9E
330
18
100
AcDbEntity
  8
0
 62
     7
370
    -1
100
AcDbLine
 10
786.8389278667037
 20
-236.0799792914012
 30
0.0
 11
780.5799066888235
 21
-236.0799792914011
 31
0.0
  0
LINE
  5
FA6
330
18
100
AcDbEntity
  8
0
 62
     7
370
    -1
100
AcDbLine
 10
482.8516361031192
 20
-590.6050221117755
 30
0.0
 11
513.8516361031192
 21
-590.6050221117755
 31
0.0
  0
LINE
  5
FA9
330
18
100
AcDbEntity
  8
0
 62
     7
370
    -1
100
AcDbLine
 10
513.8516361031192
 20
-589.8550221117755
 30
0.0
 11
513.8516361031191
 21
-590.6050221117756
 31
0.0
  0
LINE
  5
FAA
330
18
100
AcDbEntity
  8
0
 62
     7
370
    -1
100
AcDbLine
 10
482.8516361031192
 20
-589.8550221117755
 30
0.0
 11
482.8516361031192
 21
-590.6050221117756
 31
0.0
  0
LINE
  5
FAC
330
18
100
AcDbEntity
  8
0
 62
     7
370
    -1
100
AcDbLine
 10
494.3516361031191
 20
-588.8550221117747
 30
0.0
 11
494.3516361031191
 21
-581.5103311646385
 31
0.0
  0
LINE
  5
FAD
330
18
100
AcDbEntity
  8
0
 62
     7
370
    -1
100
AcDbLine
 10
502.351636103119
 20
-588.8550221117754
 30
0.0
 11
502.351636103119
 21
-581.5101297136393
 31
0.0
  0
LINE
  5
FAE
330
18
100
AcDbEntity
  8
0
 62
     7
370
    -1
100
AcDbLine
 10
503.351636103119
 20
-592.6050221117755
 30
0.0
 11
493.351636103119
 21
-592.6050221117755
 31
0.0
  0
LINE
  5
FAF
330
18
100
AcDbEntity
  8
0
 62
     7
370
    -1
100
AcDbLine
 10
494.351636103119
 20
-592.6050221117755
 30
0.0
 11
494.351636103119
 21
-599.1050221117755
 31
0.0
  0
LINE
  5
FB0
330
18
100
AcDbEntity
  8
0
 62
     7
370
    -1
100
AcDbLine
 10
493.351636103119
 20
-590.6050221117755
 30
0.0
 11
493.351636103119
 21
-592.6050221117755
 31
0.0
  0
LINE
  5
FB1
330
18
100
AcDbEntity
  8
0
 62
     7
370
    -1
100
AcDbLine
 10
494.351636103119
 20
-599.1050221117755
 30
0.0
 11
494.851636103119
 21
-599.6050221117755
 31
0.0
  0
LINE
  5
FB2
330
18
100
AcDbEntity
  8
0
 62
     7
370
    -1
100
AcDbLine
 10
494.351636103119
 20
-599.1050221117755
 30
0.0
 11
502.351636103119
 21
-599.1050221117755
 31
0.0
  0
LINE
  5
FB3
330
18
100
AcDbEntity
  8
0
 62
     7
370
    -1
100
AcDbLine
 10
501.851636103119
 20
-599.6050221117755
 30
0.0
 11
494.8516361031189
 21
-599.6050221117755
 31
0.0
  0
LINE
  5
FB4
330
18
100
AcDbEntity
  8
0
 62
     7
370
    -1
100
AcDbLine
 10
502.3516361031191
 20
-592.6050221117755
 30
0.0
 11
502.3516361031191
 21
-599.1050221117755
 31
0.0
  0
LINE
  5
FB5
330
18
100
AcDbEntity
  8
0
 62
     7
370
    -1
100
AcDbLine
 10
502.351636103119
 20
-599.1050221117755
 30
0.0
 11
501.851636103119
 21
-599.6050221117755
 31
0.0
  0
LINE
  5
FB6
330
18
100
AcDbEntity
  8
0
 62
     7
370
    -1
100
AcDbLine
 10
503.351636103119
 20
-590.6050221117755
 30
0.0
 11
503.3516361031191
 21
-592.6050221117755
 31
0.0
  0
LINE
  5
FB7
330
18
100
AcDbEntity
  8
0
 62
     7
370
    -1
100
AcDbLine
 10
503.851636103119
 20
-588.8550221117755
 30
0.0
 11
492.8516361031191
 21
-588.8550221117746
 31
0.0
  0
LINE
  5
FB8
330
18
100
AcDbEntity
  8
0
 62
     7
370
    -1
100
AcDbLine
 10
503.851636103119
 20
-588.8550221117755
 30
0.0
 11
503.851636103119
 21
-589.8550221117755
 31
0.0
  0
LINE
  5
FB9
330
18
100
AcDbEntity
  8
0
 62
     7
370
    -1
100
AcDbLine
 10
492.8516361031191
 20
-588.8550221117755
 30
0.0
 11
492.851636103119
 21
-589.8550221117757
 31
0.0
  0
SPLINE
  5
FBD
330
18
100
AcDbEntity
  8
0
 62
     7
370
    -1
100
AcDbSpline
210
0.0
220
0.0
230
1.0
 70
     8
 71
     3
 72
    49
 73
    45
 74
     0
 42
0.0000000001
 43
0.0000000001
 40
2.295570791671318
 40
2.295570791671318
 40
2.295570791671318
 40
2.295570791671318
 40
2.419547411568714
 40
2.419547411568714
 40
2.704699904669272
 40
2.704699904669272
 40
2.912634170323824
 40
2.912634170323824
 40
3.120568435978376
 40
3.120568435978376
 40
3.294843060245854
 40
3.294843060245854
 40
3.469117684513332
 40
3.469117684513332
 40
3.643392308780811
 40
3.643392308780811
 40
3.990971205711658
 40
3.990971205711658
 40
4.338550102642505
 40
4.338550102642505
 40
4.686128999573352
 40
4.686128999573352
 40
5.183309836062488
 40
5.183309836062488
 40
5.570021367143321
 40
5.570021367143321
 40
5.852445499306395
 40
5.852445499306395
 40
6.059061522635821
 40
6.059061522635821
 40
6.265677545965247
 40
6.265677545965247
 40
6.283185307179586
 40
6.283185307179586
 40
6.283185307179586
 40
6.446594405878857
 40
6.446594405878857
 40
6.610003504578127
 40
6.610003504578127
 40
6.773412603277397
 40
6.773412603277397
 40
7.117947652516916
 40
7.117947652516916
 40
7.129249409363957
 40
7.129249409363957
 40
7.129249409363957
 40
7.129249409363957
 10
494.3516361031191
 20
-586.8998918992895
 30
0.0
 10
494.1556266540384
 20
-586.8256764198245
 30
0.0
 10
493.9672938902546
 20
-586.7450551223621
 30
0.0
 10
493.3744060138685
 20
-586.45741251044
 30
0.0
 10
493.0055105165089
 20
-586.222892046186
 30
0.0
 10
492.4654802276467
 20
-585.7287912142815
 30
0.0
 10
492.266899750696
 20
-585.491570072282
 30
0.0
 10
491.9676227316747
 20
-584.9428653134901
 30
0.0
 10
491.8700323022524
 20
-584.6281267575068
 30
0.0
 10
491.8406739068437
 20
-584.0315674171128
 30
0.0
 10
491.8850323217085
 20
-583.7570143896569
 30
0.0
 10
492.0662879449106
 20
-583.2556235800246
 30
0.0
 10
492.2006960515862
 20
-583.0286067455274
 30
0.0
 10
492.5219144255064
 20
-582.6246536672895
 30
0.0
 10
492.7088817227529
 20
-582.4464113049521
 30
0.0
 10
493.3268392053811
 20
-581.9651565039342
 30
0.0
 10
493.8168715587075
 20
-581.7112875033133
 30
0.0
 10
494.9178586587529
 20
-581.2975142038017
 30
0.0
 10
495.5297612900559
 20
-581.139704548614
 30
0.0
 10
496.8257862203703
 20
-580.922473692408
 30
0.0
 10
497.5094640260699
 20
-580.8636001311005
 30
0.0
 10
499.1780307721032
 20
-580.8448742179371
 30
0.0
 10
500.164115737784
 20
-580.9388734524445
 30
0.0
 10
501.7560958744949
 20
-581.2851851473752
 30
0.0
 10
502.3975414385919
 20
-581.4960782757694
 30
0.0
 10
503.3605981004852
 20
-581.9717619609687
 30
0.0
 10
503.7233847602872
 20
-582.2061794794473
 30
0.0
 10
504.254653594246
 20
-582.7001694977431
 30
0.0
 10
504.4500460788324
 20
-582.9377617838459
 30
0.0
 10
504.7426854216396
 20
-583.4862808596002
 30
0.0
 10
504.8367321010072
 20
-583.8002772183233
 30
0.0
 10
504.8510749901379
 20
-584.1502762337959
 30
0.0
 10
504.8516361031191
 20
-584.1776491617068
 30
0.0
 10
504.8516361031191
 20
-584.2050221117755
 30
0.0
 10
504.8516361031191
 20
-584.4605081813377
 30
0.0
 10
504.8010845614547
 20
-584.7147076080682
 30
0.0
 10
504.6215448857729
 20
-585.1799716825508
 30
0.0
 10
504.4943091917358
 20
-585.3913910861966
 30
0.0
 10
504.193530517555
 20
-585.7705194768116
 30
0.0
 10
504.0198619838029
 20
-585.9391844660591
 30
0.0
 10
503.4261676152846
 20
-586.4145055260553
 30
0.0
 10
502.9456272638438
 20
-586.6700461629109
 30
0.0
 10
502.3872988214879
 20
-586.8861427535653
 30
0.0
 10
502.3694999286319
 20
-586.8929541462792
 30
0.0
 10
502.351636103119
 20
-586.8997134802371
 30
0.0
  0
LINE
  5
FBE
330
18
100
AcDbEntity
  8
0
  6
LÍNEAS_OCULTAS
 62
     9
 48
10.0
370
    -1
100
AcDbLine
 10
502.351636103119
 20
-581.5101297136395
 30
0.0
 11
502.3516361031191
 21
-438.1999145098955
 31
0.0
  0
LINE
  5
FBF
330
18
100
AcDbEntity
  8
0
  6
LÍNEAS_OCULTAS
 62
     9
 48
10.0
370
    -1
100
AcDbLine
 10
494.3516361031191
 20
-581.5103311646385
 30
0.0
 11
494.3516361031191
 21
-438.1997130588691
 31
0.0
  0
SPLINE
  5
FC2
330
18
100
AcDbEntity
  8
0
 62
     7
370
    -1
100
AcDbSpline
210
0.0
220
0.0
230
1.0
 70
     8
 71
     3
 72
    49
 73
    45
 74
     0
 42
0.0000000001
 43
0.0000000001
 40
2.295570791671318
 40
2.295570791671318
 40
2.295570791671318
 40
2.295570791671318
 40
2.419547411568714
 40
2.419547411568714
 40
2.704699904669272
 40
2.704699904669272
 40
2.912634170323824
 40
2.912634170323824
 40
3.120568435978376
 40
3.120568435978376
 40
3.294843060245854
 40
3.294843060245854
 40
3.469117684513332
 40
3.469117684513332
 40
3.643392308780811
 40
3.643392308780811
 40
3.990971205711658
 40
3.990971205711658
 40
4.338550102642505
 40
4.338550102642505
 40
4.686128999573352
 40
4.686128999573352
 40
5.183309836062488
 40
5.183309836062488
 40
5.570021367143321
 40
5.570021367143321
 40
5.852445499306395
 40
5.852445499306395
 40
6.059061522635821
 40
6.059061522635821
 40
6.265677545965247
 40
6.265677545965247
 40
6.283185307179586
 40
6.283185307179586
 40
6.283185307179586
 40
6.446594405878857
 40
6.446594405878857
 40
6.610003504578127
 40
6.610003504578127
 40
6.773412603277397
 40
6.773412603277397
 40
7.117947652516916
 40
7.117947652516916
 40
7.129249409363957
 40
7.129249409363957
 40
7.129249409363957
 40
7.129249409363957
 10
494.3516361031191
 20
-432.8101523242615
 30
0.0
 10
494.1556266540384
 20
-432.8843678037265
 30
0.0
 10
493.9672938902546
 20
-432.9649891011888
 30
0.0
 10
493.3744060138685
 20
-433.252631713111
 30
0.0
 10
493.0055105165089
 20
-433.487152177365
 30
0.0
 10
492.4654802276467
 20
-433.9812530092695
 30
0.0
 10
492.266899750696
 20
-434.218474151269
 30
0.0
 10
491.9676227316747
 20
-434.7671789100609
 30
0.0
 10
491.8700323022524
 20
-435.0819174660442
 30
0.0
 10
491.8406739068437
 20
-435.6784768064382
 30
0.0
 10
491.8850323217085
 20
-435.9530298338941
 30
0.0
 10
492.0662879449106
 20
-436.4544206435264
 30
0.0
 10
492.2006960515862
 20
-436.6814374780236
 30
0.0
 10
492.5219144255064
 20
-437.0853905562615
 30
0.0
 10
492.7088817227529
 20
-437.2636329185989
 30
0.0
 10
493.3268392053811
 20
-437.7448877196168
 30
0.0
 10
493.8168715587075
 20
-437.9987567202377
 30
0.0
 10
494.9178586587529
 20
-438.4125300197493
 30
0.0
 10
495.5297612900559
 20
-438.570339674937
 30
0.0
 10
496.8257862203703
 20
-438.787570531143
 30
0.0
 10
497.5094640260699
 20
-438.8464440924505
 30
0.0
 10
499.1780307721032
 20
-438.8651700056139
 30
0.0
 10
500.164115737784
 20
-438.7711707711065
 30
0.0
 10
501.7560958744949
 20
-438.4248590761758
 30
0.0
 10
502.3975414385919
 20
-438.2139659477816
 30
0.0
 10
503.3605981004852
 20
-437.7382822625823
 30
0.0
 10
503.7233847602872
 20
-437.5038647441037
 30
0.0
 10
504.254653594246
 20
-437.0098747258079
 30
0.0
 10
504.4500460788324
 20
-436.7722824397051
 30
0.0
 10
504.7426854216396
 20
-436.2237633639508
 30
0.0
 10
504.8367321010072
 20
-435.9097670052276
 30
0.0
 10
504.8510749901379
 20
-435.5597679897551
 30
0.0
 10
504.8516361031191
 20
-435.5323950618442
 30
0.0
 10
504.8516361031191
 20
-435.5050221117755
 30
0.0
 10
504.8516361031191
 20
-435.2495360422133
 30
0.0
 10
504.8010845614547
 20
-434.9953366154828
 30
0.0
 10
504.6215448857729
 20
-434.5300725410002
 30
0.0
 10
504.4943091917358
 20
-434.3186531373544
 30
0.0
 10
504.193530517555
 20
-433.9395247467394
 30
0.0
 10
504.0198619838029
 20
-433.7708597574918
 30
0.0
 10
503.4261676152846
 20
-433.2955386974957
 30
0.0
 10
502.9456272638438
 20
-433.0399980606401
 30
0.0
 10
502.3872988214879
 20
-432.8239014699857
 30
0.0
 10
502.3694999286319
 20
-432.8170900772718
 30
0.0
 10
502.351636103119
 20
-432.8103307433139
 30
0.0
  0
LINE
  5
FC5
330
18
100
AcDbEntity
  8
0
 62
     7
370
    -1
100
AcDbLine
 10
502.3516361031191
 20
-427.1050221117755
 30
0.0
 11
502.3516361031191
 21
-370.6050221117755
 31
0.0
  0
LINE
  5
FC6
330
18
100
AcDbEntity
  8
0
 62
     7
370
    -1
100
AcDbLine
 10
482.8516361031192
 20
-429.1050221117755
 30
0.0
 11
513.8516361031192
 21
-429.1050221117755
 31
0.0
  0
LINE
  5
FC7
330
18
100
AcDbEntity
  8
0
 62
     7
370
    -1
100
AcDbLine
 10
503.351636103119
 20
-427.1050221117755
 30
0.0
 11
493.351636103119
 21
-427.1050221117755
 31
0.0
  0
LINE
  5
FC8
330
18
100
AcDbEntity
  8
0
 62
     7
370
    -1
100
AcDbLine
 10
503.351636103119
 20
-429.1050221117755
 30
0.0
 11
503.3516361031191
 21
-427.1050221117755
 31
0.0
  0
LINE
  5
FC9
330
18
100
AcDbEntity
  8
0
 62
     7
370
    -1
100
AcDbLine
 10
513.8516361031192
 20
-429.8550221117755
 30
0.0
 11
513.8516361031191
 21
-429.1050221117754
 31
0.0
  0
LINE
  5
FCA
330
18
100
AcDbEntity
  8
0
 62
     7
370
    -1
100
AcDbLine
 10
501.851636103119
 20
-370.1050221117755
 30
0.0
 11
494.8516361031189
 21
-370.1050221117755
 31
0.0
  0
LINE
  5
FCB
330
18
100
AcDbEntity
  8
0
 62
     7
370
    -1
100
AcDbLine
 10
494.351636103119
 20
-370.6050221117755
 30
0.0
 11
502.351636103119
 21
-370.6050221117755
 31
0.0
  0
LINE
  5
FCC
330
18
100
AcDbEntity
  8
0
 62
     7
370
    -1
100
AcDbLine
 10
502.351636103119
 20
-370.6050221117755
 30
0.0
 11
501.851636103119
 21
-370.1050221117755
 31
0.0
  0
LINE
  5
FCD
330
18
100
AcDbEntity
  8
0
 62
     7
370
    -1
100
AcDbLine
 10
494.351636103119
 20
-427.1050221117755
 30
0.0
 11
494.351636103119
 21
-370.6050221117755
 31
0.0
  0
LINE
  5
FCE
330
18
100
AcDbEntity
  8
0
 62
     7
370
    -1
100
AcDbLine
 10
482.8516361031192
 20
-429.8550221117755
 30
0.0
 11
482.8516361031192
 21
-429.1050221117754
 31
0.0
  0
LINE
  5
FCF
330
18
100
AcDbEntity
  8
0
 62
     7
370
    -1
100
AcDbLine
 10
493.351636103119
 20
-429.1050221117755
 30
0.0
 11
493.351636103119
 21
-427.1050221117755
 31
0.0
  0
LINE
  5
FD0
330
18
100
AcDbEntity
  8
0
 62
     7
370
    -1
100
AcDbLine
 10
494.351636103119
 20
-370.6050221117755
 30
0.0
 11
494.851636103119
 21
-370.1050221117755
 31
0.0
  0
LINE
  5
FD1
330
18
100
AcDbEntity
  8
0
 62
     7
370
    -1
100
AcDbLine
 10
503.851636103119
 20
-430.8550221117755
 30
0.0
 11
492.8516361031191
 21
-430.8550221117764
 31
0.0
  0
LINE
  5
FD2
330
18
100
AcDbEntity
  8
0
 62
     7
370
    -1
100
AcDbLine
 10
492.8516361031191
 20
-430.8550221117755
 30
0.0
 11
492.851636103119
 21
-429.8550221117753
 31
0.0
  0
LINE
  5
FD3
330
18
100
AcDbEntity
  8
0
 62
     7
370
    -1
100
AcDbLine
 10
494.3516361031191
 20
-430.8550221117763
 30
0.0
 11
494.3516361031191
 21
-438.1997130589125
 31
0.0
  0
LINE
  5
FD4
330
18
100
AcDbEntity
  8
0
 62
     7
370
    -1
100
AcDbLine
 10
502.351636103119
 20
-430.8550221117756
 30
0.0
 11
502.351636103119
 21
-438.1999145099117
 31
0.0
  0
LINE
  5
FD5
330
18
100
AcDbEntity
  8
0
 62
     7
370
    -1
100
AcDbLine
 10
503.851636103119
 20
-430.8550221117755
 30
0.0
 11
503.851636103119
 21
-429.8550221117755
 31
0.0
  0
LINE
  5
FD7
102
{ACAD_REACTORS
330
1011
102
}
330
18
100
AcDbEntity
  8
0
  6
ACAD_ISO10W100
 62
     9
370
    -1
100
AcDbLine
 10
122.1834749367226
 20
-277.0799792914012
 30
0.0
 11
257.6633540811565
 21
-277.0799792914013
 31
0.0
  0
LINE
  5
FD8
330
18
100
AcDbEntity
  8
0
  6
ACAD_ISO10W100
 62
     9
370
    -1
100
AcDbLine
 10
-60.33664591884349
 20
-277.0799792914013
 30
0.0
 11
72.3587966877958
 21
-277.0799792914012
 31
0.0
  0
LINE
  5
FD9
102
{ACAD_REACTORS
330
1011
102
}
330
18
100
AcDbEntity
  8
0
 62
     7
370
    -1
100
AcDbLine
 10
102.4687931257124
 20
-244.7187974251686
 30
0.0
 11
171.1267903231701
 21
-328.4126783936077
 31
0.0
  0
LINE
  5
FDA
330
18
100
AcDbEntity
  8
0
 62
     9
370
    -1
100
AcDbLine
 10
97.91335408115651
 20
-248.9857358566796
 30
0.0
 11
97.91335408115651
 21
-356.3299792914013
 31
0.0
  0
LINE
  5
FDB
330
18
100
AcDbEntity
  8
0
 62
     9
370
    -1
100
AcDbLine
 10
78.66335408115651
 20
-241.8299792914012
 30
0.0
 11
78.66335408115651
 21
-356.3299792914013
 31
0.0
  0
LWPOLYLINE
  5
FDC
102
{ACAD_REACTORS
330
1011
330
1016
102
}
330
18
100
AcDbEntity
  8
0
 62
     7
370
    -1
100
AcDbPolyline
 90
        6
 70
     0
 43
0.0
 10
73.71526253100728
 20
-208.4858168102754
 10
95.43776730332144
 20
-234.9654812770643
 42
0.302775637731994
 10
97.29491696753195
 20
-235.5313663307224
 42
-0.6666666666666671
 10
102.8567124941906
 20
-242.3111774493056
 42
0.3027756377319966
 10
103.0486453924333
 20
-244.2431175445991
 10
171.7066425898907
 20
-327.9369985130384
  0
LINE
  5
FDD
102
{ACAD_REACTORS
330
1011
102
}
330
18
100
AcDbEntity
  8
0
 62
     7
370
    -1
100
AcDbLine
 10
171.12679032317
 20
-328.4126783936078
 30
0.0
 11
171.7066425898906
 21
-327.9369985130384
 31
0.0
  0
LINE
  5
FDE
330
18
100
AcDbEntity
  8
0
 62
     9
370
    -1
100
AcDbLine
 10
118.6633540811565
 20
-197.8299792914013
 30
0.0
 11
118.6633540811565
 21
-238.3299792914012
 31
0.0
  0
LINE
  5
FDF
330
18
100
AcDbEntity
  8
0
 62
     9
370
    -1
100
AcDbLine
 10
99.41335408115651
 20
-197.8299792914013
 30
0.0
 11
99.41335408115651
 21
-231.1742227261227
 31
0.0
  0
LINE
  5
FE0
330
18
100
AcDbEntity
  8
0
 62
     9
370
    -1
100
AcDbLine
 10
80.41335408115651
 20
-240.0799792914012
 30
0.0
 11
89.58040301886399
 21
-240.0799792914012
 31
0.0
  0
LINE
  5
FE1
102
{ACAD_REACTORS
330
1011
330
1016
102
}
330
18
100
AcDbEntity
  8
0
 62
     7
370
    -1
100
AcDbLine
 10
94.8579150366005
 20
-235.4411611576338
 30
0.0
 11
73.13097881237184
 21
-208.9560947650067
 31
0.0
  0
LINE
  5
FE2
330
18
100
AcDbEntity
  8
0
  6
LÍNEAS_OCULTAS
 62
     9
 48
10.0
370
    -1
100
AcDbLine
 10
83.16335408115651
 20
-212.0799792914013
 30
0.0
 11
114.1633540811564
 21
-212.0799792914012
 31
0.0
  0
LINE
  5
FE3
330
18
100
AcDbEntity
  8
0
  6
LÍNEAS_OCULTAS
 62
     9
 48
10.0
370
    -1
100
AcDbLine
 10
83.16335408115663
 20
-277.0799792914012
 30
0.0
 11
114.1633540811565
 21
-277.0799792914012
 31
0.0
  0
LINE
  5
FE4
102
{ACAD_REACTORS
330
1011
330
1016
102
}
330
18
100
AcDbEntity
  8
0
  6
LÍNEAS_OCULTAS
 62
     9
 48
10.0
370
    -1
100
AcDbLine
 10
83.16335408115646
 20
-277.0799792914012
 30
0.0
 11
83.16335408115651
 21
-212.0799792914012
 31
0.0
  0
ARC
  5
FE5
330
18
100
AcDbEntity
  8
0
 62
     9
370
    -1
100
AcDbCircle
 10
80.41335408115651
 20
-241.8299792914012
 30
0.0
 40
1.75
100
AcDbArc
 50
90.0
 51
180.0
  0
LINE
  5
FE6
102
{ACAD_REACTORS
330
1016
102
}
330
18
100
AcDbEntity
  8
0
 62
     7
370
    -1
100
AcDbLine
 10
73.13097881237184
 20
-208.9560947650067
 30
0.0
 11
73.71526253100728
 21
-208.4858168102754
 31
0.0
  0
ARC
  5
FE7
102
{ACAD_REACTORS
330
1011
102
}
330
18
100
AcDbEntity
  8
0
 62
     7
370
    -1
100
AcDbCircle
 10
104.4016340147821
 20
-243.1331978232703
 30
0.0
 40
2.5
100
AcDbArc
 50
151.9834926004964
 51
219.3636276524564
  0
ARC
  5
FE8
330
18
100
AcDbEntity
  8
0
 62
     9
370
    -1
100
AcDbCircle
 10
98.66335408115651
 20
-240.0799792914012
 30
0.0
 40
7.5
100
AcDbArc
 50
190.9054699967304
 51
254.3196498651606
  0
CIRCLE
  5
FE9
102
{ACAD_REACTORS
330
1011
102
}
330
18
100
AcDbEntity
  8
0
 62
     7
370
    -1
100
AcDbCircle
 10
98.66335408115651
 20
-240.0799792914012
 30
0.0
 40
5.499999999999993
  0
LINE
  5
FEA
102
{ACAD_REACTORS
330
1011
102
}
330
18
100
AcDbEntity
  8
0
  6
LÍNEAS_OCULTAS
 62
     9
 48
10.0
370
    -1
100
AcDbLine
 10
114.1633540811564
 20
-277.0799792914012
 30
0.0
 11
114.1633540811564
 21
-212.0799792914012
 31
0.0
  0
ARC
  5
FEB
330
18
100
AcDbEntity
  8
0
 62
     9
370
    -1
100
AcDbCircle
 10
96.16335408115651
 20
-248.9857358566796
 30
0.0
 40
1.75
100
AcDbArc
 50
0.0000000000002326
 51
74.31964986516094
  0
LINE
  5
FEC
330
18
100
AcDbEntity
  8
0
 62
     9
370
    -1
100
AcDbLine
 10
107.746305143449
 20
-240.0799792914012
 30
0.0
 11
116.9133540811565
 21
-240.0799792914012
 31
0.0
  0
CIRCLE
  5
FED
102
{ACAD_REACTORS
330
1011
102
}
330
18
100
AcDbEntity
  8
0
 62
     7
370
    -1
100
AcDbCircle
 10
98.66335408115651
 20
-240.0799792914012
 30
0.0
 40
4.0
  0
ARC
  5
FEE
102
{ACAD_REACTORS
330
1011
102
}
330
18
100
AcDbEntity
  8
0
  6
LÍNEAS_OCULTAS
 62
     9
 48
10.0
370
    -1
100
AcDbCircle
 10
96.79075592567028
 20
-233.8555615557355
 30
0.0
 40
2.5
100
AcDbArc
 50
219.3636276524559
 51
286.7437627044154
  0
ARC
  5
FEF
330
18
100
AcDbEntity
  8
0
 62
     9
370
    -1
100
AcDbCircle
 10
89.58040301886399
 20
-241.8299792914012
 30
0.0
 40
1.75
100
AcDbArc
 50
10.90546999673035
 51
90.0
  0
ARC
  5
FF0
330
18
100
AcDbEntity
  8
0
 62
     9
370
    -1
100
AcDbCircle
 10
101.1633540811565
 20
-231.1742227261227
 30
0.0
 40
1.75
100
AcDbArc
 50
180.0
 51
254.3196498651609
  0
ARC
  5
FF1
330
18
100
AcDbEntity
  8
0
 62
     9
370
    -1
100
AcDbCircle
 10
107.746305143449
 20
-238.3299792914012
 30
0.0
 40
1.75
100
AcDbArc
 50
190.9054699967303
 51
270.0
  0
ARC
  5
FF2
330
18
100
AcDbEntity
  8
0
 62
     9
370
    -1
100
AcDbCircle
 10
98.66335408115651
 20
-240.0799792914012
 30
0.0
 40
7.5
100
AcDbArc
 50
10.90546999673037
 51
74.31964986516083
  0
ARC
  5
FF3
330
18
100
AcDbEntity
  8
0
 62
     9
370
    -1
100
AcDbCircle
 10
116.9133540811565
 20
-238.3299792914012
 30
0.0
 40
1.75
100
AcDbArc
 50
270.0
 51
0.0000000000000127
  0
HATCH
  5
1011
330
18
100
AcDbEntity
  8
0
 62
     7
370
    -1
100
AcDbHatch
 10
0.0
 20
0.0
 30
0.0
210
0.0
220
0.0
230
1.0
  2
SOLID
 70
     1
 71
     1
 91
        5
 92
        7
 72
     0
 73
     1
 93
        4
 10
129.9862558329793
 20
-277.0799792914012
 10
129.0161811565779
 20
-277.0799792914012
 10
171.1267903231701
 20
-328.4126783936077
 10
171.7066425898907
 20
-327.9369985130383
 97
        4
330
FD7
330
FD9
330
FDD
330
FDC
 92
        7
 72
     0
 73
     1
 93
        4
 10
129.0161811565779
 20
-277.0799792914013
 10
129.9862558329793
 20
-277.0799792914013
 10
114.1633540811564
 20
-257.791912207478
 10
114.1633540811564
 20
-258.9744301633069
 97
        4
330
FEA
330
FD9
330
FD7
330
FDC
 92
        7
 72
     1
 73
     1
 93
        6
 10
114.1633540811564
 20
-258.9744301633069
 42
0.0
 10
114.1633540811564
 20
-257.791912207478
 42
0.0
 10
103.0486453924333
 20
-244.2431175445991
 42
-0.0823882162567367
 10
102.7627165635586
 20
-243.7467527010727
 42
-0.0362221504579339
 10
102.1906138209151
 20
-244.2999838800572
 42
0.0504058217142953
 10
102.4687931257125
 20
-244.7187974251686
 42
0.0
 97
        5
330
FDC
330
FE9
330
FE7
330
FD9
330
FEA
 92
        7
 72
     1
 73
     1
 93
        6
 10
94.8579150366005
 20
-235.4411611576338
 42
0.0504058217143006
 10
95.21427033671108
 20
-235.795843284713
 42
-0.0362221504579331
 10
95.86866288919789
 20
-235.3429231231055
 42
-0.0823882162567358
 10
95.4377673033215
 20
-234.9654812770644
 42
0.0
 10
83.1633540811565
 20
-220.0030104636665
 42
0.0
 10
83.16335408115648
 20
-221.1855284194955
 42
0.0
 97
        5
330
FE4
330
FE1
330
FEE
330
FE9
330
FDC
 92
        7
 72
     1
 73
     1
 93
        9
 10
97.51098598547269
 20
-236.2495683771454
 42
-0.5026401889476484
 10
102.6633540811565
 20
-240.0799792914012
 42
-0.1228576745520246
 10
102.19460327108
 20
-241.9588830033207
 42
0.2485761328824186
 10
102.1906138209151
 20
-244.2999838800572
 42
0.0362221504579339
 10
102.7627165635586
 20
-243.7467527010727
 42
-0.2150236260065793
 10
102.8567124941906
 20
-242.3111774493056
 42
0.6666666666666645
 10
97.29491696753198
 20
-235.5313663307224
 42
-0.2150236260065685
 10
95.86866288919789
 20
-235.3429231231055
 42
0.0362221504579313
 10
95.21427033671111
 20
-235.795843284713
 42
0.248576132882411
 97
        5
330
FDC
330
FE9
330
FEE
330
FED
330
FE7
 75
     0
 76
     1
 47
0.0400781845875411
 98
        5
 10
130.8565369689459
 20
-278.546589026676
 10
127.3836118880854
 20
-274.6134964241728
 10
111.4081525019492
 20
-255.1793981248979
 10
92.96408290186355
 20
-232.7136861497979
 10
95.85542605145656
 20
-235.8426436076884
  0
HATCH
  5
1016
330
18
100
AcDbEntity
  8
0
 62
     7
370
    -1
100
AcDbHatch
 10
0.0
 20
0.0
 30
0.0
210
0.0
220
0.0
230
1.0
  2
SOLID
 70
     1
 71
     1
 91
        1
 92
        7
 72
     0
 73
     1
 93
        4
 10
73.71526253100727
 20
-208.4858168102754
 10
73.13097881237182
 20
-208.9560947650068
 10
83.16335408115648
 20
-221.1855284194954
 10
83.1633540811565
 20
-220.0030104636665
 97
        4
330
FE6
330
FE1
330
FE4
330
FDC
 75
     0
 76
     1
 47
0.2067945944142805
 98
        1
 10
81.43426386546071
 20
-218.6487353987955
  0
LINE
  5
1018
330
18
100
AcDbEntity
  8
0
  6
ACAD_ISO10W100
 62
     9
370
    -1
100
AcDbLine
 10
766.0799066888229
 20
-277.0799792914012
 30
0.0
 11
953.0799066888227
 21
-277.0799792914012
 31
0.0
  0
LINE
  5
1092
330
18
100
AcDbEntity
  8
0
  6
ACAD_ISO10W100
 62
     9
370
    -1
100
AcDbLine
 10
82.80253126406672
 20
-235.5319615342626
 30
0.0
 11
239.4882681143307
 21
-280.4608735902951
 31
0.0
  0
LINE
  5
1093
330
18
100
AcDbEntity
  8
0
  6
LÍNEAS_OCULTAS
 62
     9
 48
7.0
370
    -1
100
AcDbLine
 10
204.5898253709613
 20
-266.6053525206896
 30
0.0
 11
213.0720858908068
 21
-265.2959974358862
 31
0.0
  0
LINE
  5
1094
330
18
100
AcDbEntity
  8
0
  6
LÍNEAS_OCULTAS
 62
     9
 48
7.0
370
    -1
100
AcDbLine
 10
205.0665409546107
 20
-259.4488570255753
 30
0.0
 11
213.1113933914883
 21
-258.207021972281
 31
0.0
  0
LINE
  5
1095
330
18
100
AcDbEntity
  8
0
  6
LÍNEAS_OCULTAS
 62
     9
 48
7.0
370
    -1
100
AcDbLine
 10
204.3970260810413
 20
-267.2777235491189
 30
0.0
 11
239.8372326866306
 21
-277.4400392636106
 31
0.0
  0
LINE
  5
1096
330
18
100
AcDbEntity
  8
0
  6
LÍNEAS_OCULTAS
 62
     9
 48
7.0
370
    -1
100
AcDbLine
 10
202.7432019461393
 20
-273.0452937247488
 30
0.0
 11
238.1780418460924
 21
-283.2060705611626
 31
0.0
  0
ARC
  5
1097
330
18
100
AcDbEntity
  8
0
  6
LÍNEAS_OCULTAS
 62
     9
 48
7.0
370
    -1
100
AcDbCircle
 10
201.0851900682081
 20
-278.5725369966544
 30
0.0
 40
8.0
100
AcDbArc
 50
302.0179129726656
 51
354.6174766750819
  0
ARC
  5
1098
330
18
100
AcDbEntity
  8
0
  6
LÍNEAS_OCULTAS
 62
     9
 48
7.0
370
    -1
100
AcDbCircle
 10
188.1899268785773
 20
-265.7513109438619
 30
0.0
 40
11.0
100
AcDbArc
 50
259.3835301591629
 51
73.99999999999983
  0
LINE
  5
1099
330
18
100
AcDbEntity
  8
0
  6
LÍNEAS_OCULTAS
 62
     9
 48
7.0
370
    -1
100
AcDbLine
 10
202.5806795952601
 20
-273.6120765186519
 30
0.0
 11
204.5898253709613
 21
-266.6053525206896
 31
0.0
  0
LINE
  5
109A
330
18
100
AcDbEntity
  8
0
  6
LÍNEAS_OCULTAS
 62
     9
 48
7.0
370
    -1
100
AcDbLine
 10
197.3132979862319
 20
-273.8418428304821
 30
0.0
 11
200.2143130815654
 21
-263.7248008852157
 31
0.0
  0
ARC
  5
109B
330
18
100
AcDbEntity
  8
0
  6
LÍNEAS_OCULTAS
 62
     9
 48
7.0
370
    -1
100
AcDbCircle
 10
203.0808681618619
 20
-275.4956669653841
 30
0.0
 40
6.0
100
AcDbArc
 50
163.9999999999997
 51
229.2248594311675
  0
LINE
  5
109C
330
18
100
AcDbEntity
  8
0
  6
LÍNEAS_OCULTAS
 62
     9
 48
7.0
370
    -1
100
AcDbLine
 10
202.5504026562193
 20
-273.7176647531782
 30
0.0
 11
209.049915058018
 21
-279.3229740937492
 31
0.0
  0
LINE
  5
109D
330
18
100
AcDbEntity
  8
0
  6
LÍNEAS_OCULTAS
 62
     9
 48
7.0
370
    -1
100
AcDbLine
 10
199.162315572082
 20
-280.0393379042978
 30
0.0
 11
205.3266650472947
 21
-285.3555960411992
 31
0.0
  0
LINE
  5
109E
330
18
100
AcDbEntity
  8
0
  6
LÍNEAS_OCULTAS
 62
     9
 48
7.0
370
    -1
100
AcDbLine
 10
202.5504026562193
 20
-273.7176647531782
 30
0.0
 11
197.313297986232
 21
-273.8418428304821
 31
0.0
  0
ARC
  5
109F
330
18
100
AcDbEntity
  8
0
  6
LÍNEAS_OCULTAS
 62
     9
 48
7.0
370
    -1
100
AcDbCircle
 10
205.9818832571954
 20
-265.3786250201176
 30
0.0
 40
6.0
100
AcDbArc
 50
98.77514056883214
 51
164.0
  0
LINE
  5
10A0
330
18
100
AcDbEntity
  8
0
  6
LÍNEAS_OCULTAS
 62
     9
 48
7.0
370
    -1
100
AcDbLine
 10
204.5898253709613
 20
-266.6053525206896
 30
0.0
 11
200.2143130815654
 21
-263.7248008852157
 31
0.0
  0
LINE
  5
10A1
330
18
100
AcDbEntity
  8
0
  6
LÍNEAS_OCULTAS
 62
     9
 48
7.0
370
    -1
100
AcDbLine
 10
239.8372326866305
 20
-277.4400392636105
 30
0.0
 11
238.1780418460926
 21
-283.2060705611626
 31
0.0
  0
LINE
  5
10A2
330
18
100
AcDbEntity
  8
0
  6
LÍNEAS_OCULTAS
 62
     9
 48
7.0
370
    -1
100
AcDbLine
 10
240.1795976910785
 20
-278.058360341633
 30
0.0
 11
238.7969385375829
 21
-282.863386838957
 31
0.0
  0
LINE
  5
10A3
330
18
100
AcDbEntity
  8
0
  6
LÍNEAS_OCULTAS
 62
     9
 48
7.0
370
    -1
100
AcDbLine
 10
238.1780418460926
 20
-283.2060705611626
 30
0.0
 11
238.7969385375829
 21
-282.863386838957
 31
0.0
  0
LINE
  5
10A4
330
18
100
AcDbEntity
  8
0
  6
LÍNEAS_OCULTAS
 62
     9
 48
7.0
370
    -1
100
AcDbLine
 10
240.1795976910785
 20
-278.058360341633
 30
0.0
 11
239.8372326866305
 21
-277.4400392636105
 31
0.0
  0
ARC
  5
10A5
330
18
100
AcDbEntity
  8
0
  6
LÍNEAS_OCULTAS
 62
     9
 48
7.0
370
    -1
100
AcDbCircle
 10
205.9199449524431
 20
-261.7117429809428
 30
0.0
 40
8.0
100
AcDbArc
 50
333.3825233249177
 51
25.98208702733406
  0
LINE
  5
10A6
330
18
100
AcDbEntity
  8
0
  6
LÍNEAS_OCULTAS
 62
     9
 48
7.0
370
    -1
100
AcDbLine
 10
151.7204320943539
 20
-251.4452979507544
 30
0.0
 11
145.2209196925551
 21
-245.8399886101833
 31
0.0
  0
ARC
  5
10A7
330
18
100
AcDbEntity
  8
0
  6
LÍNEAS_OCULTAS
 62
     9
 48
7.0
370
    -1
100
AcDbCircle
 10
151.1899665887113
 20
-249.6672957385485
 30
0.0
 40
6.0
100
AcDbArc
 50
343.9999999999995
 51
49.22485943116736
  0
ARC
  5
10A8
330
18
100
AcDbEntity
  8
0
  6
LÍNEAS_OCULTAS
 62
     9
 48
7.0
370
    -1
100
AcDbCircle
 10
166.0809078719959
 20
-259.4116517600708
 30
0.0
 40
11.0
100
AcDbArc
 50
73.9999999999998
 51
253.9999999999998
  0
LINE
  5
10A9
330
18
100
AcDbEntity
  8
0
  6
LÍNEAS_OCULTAS
 62
     9
 48
7.0
370
    -1
100
AcDbLine
 10
169.1129187859829
 20
-248.8377731047493
 30
0.0
 11
191.2219377925643
 21
-255.1774322885404
 31
0.0
  0
LINE
  5
10AA
330
18
100
AcDbEntity
  8
0
  6
LÍNEAS_OCULTAS
 62
     9
 48
7.0
370
    -1
100
AcDbLine
 10
114.6558456707664
 20
-247.7866507690932
 30
0.0
 11
149.8738086695318
 21
-257.8852391548137
 31
0.0
  0
LINE
  5
10AB
330
18
100
AcDbEntity
  8
0
  6
LÍNEAS_OCULTAS
 62
     9
 48
7.0
370
    -1
100
AcDbLine
 10
116.3150365113043
 20
-242.0206194715411
 30
0.0
 11
151.5276328044339
 21
-252.1176689791839
 31
0.0
  0
LINE
  5
10AC
330
18
100
AcDbEntity
  8
0
  6
LÍNEAS_OCULTAS
 62
     9
 48
7.0
370
    -1
100
AcDbLine
 10
149.7112863186526
 20
-258.4520219487167
 30
0.0
 11
151.7204320943539
 21
-251.4452979507544
 31
0.0
  0
LINE
  5
10AD
330
18
100
AcDbEntity
  8
0
  6
LÍNEAS_OCULTAS
 62
     9
 48
7.0
370
    -1
100
AcDbLine
 10
154.0565216690077
 20
-261.4381618187169
 30
0.0
 11
156.9575367643412
 21
-251.3211198734505
 31
0.0
  0
ARC
  5
10AE
330
18
100
AcDbEntity
  8
0
  6
LÍNEAS_OCULTAS
 62
     9
 48
7.0
370
    -1
100
AcDbCircle
 10
148.2889514933778
 20
-259.7843376838149
 30
0.0
 40
6.0
100
AcDbArc
 50
278.775140568832
 51
343.9999999999998
  0
LINE
  5
10AF
330
18
100
AcDbEntity
  8
0
  6
LÍNEAS_OCULTAS
 62
     9
 48
7.0
370
    -1
100
AcDbLine
 10
149.6810093796119
 20
-258.557610183243
 30
0.0
 11
154.0565216690076
 21
-261.4381618187169
 31
0.0
  0
LINE
  5
10B0
330
18
100
AcDbEntity
  8
0
  6
LÍNEAS_OCULTAS
 62
     9
 48
7.0
370
    -1
100
AcDbLine
 10
149.2042937959624
 20
-265.7141056783573
 30
0.0
 11
141.1594413590848
 21
-266.9559407316515
 31
0.0
  0
LINE
  5
10B1
330
18
100
AcDbEntity
  8
0
  6
LÍNEAS_OCULTAS
 62
     9
 48
7.0
370
    -1
100
AcDbLine
 10
149.6810093796118
 20
-258.557610183243
 30
0.0
 11
141.1987488597664
 21
-259.8669652680462
 31
0.0
  0
LINE
  5
10B2
330
18
100
AcDbEntity
  8
0
  6
LÍNEAS_OCULTAS
 62
     9
 48
7.0
370
    -1
100
AcDbLine
 10
151.7204320943539
 20
-251.4452979507544
 30
0.0
 11
156.9575367643412
 21
-251.3211198734505
 31
0.0
  0
LINE
  5
10B3
330
18
100
AcDbEntity
  8
0
  6
LÍNEAS_OCULTAS
 62
     9
 48
7.0
370
    -1
100
AcDbLine
 10
163.0488969580088
 20
-269.9855304153923
 30
0.0
 11
185.1579159645902
 21
-276.3251895991833
 31
0.0
  0
ARC
  5
10B4
330
18
100
AcDbEntity
  8
0
  6
LÍNEAS_OCULTAS
 62
     9
 48
7.0
370
    -1
100
AcDbCircle
 10
153.1856446823651
 20
-246.5904257072782
 30
0.0
 40
8.0
100
AcDbArc
 50
122.0179129726655
 51
174.6174766750818
  0
LINE
  5
10B5
330
18
100
AcDbEntity
  8
0
  6
LÍNEAS_OCULTAS
 62
     9
 48
7.0
370
    -1
100
AcDbLine
 10
155.1085191784912
 20
-245.1236247996347
 30
0.0
 11
148.9441697032785
 21
-239.8073666627333
 31
0.0
  0
ARC
  5
10B6
330
18
100
AcDbEntity
  8
0
  6
LÍNEAS_OCULTAS
 62
     9
 48
7.0
370
    -1
100
AcDbCircle
 10
148.3508897981299
 20
-263.4512197229898
 30
0.0
 40
8.0
100
AcDbArc
 50
153.3825233249175
 51
205.9820870273339
  0
ARC
  5
10B7
330
18
100
AcDbEntity
  8
0
  6
LÍNEAS_OCULTAS
 62
     9
 48
7.0
370
    -1
100
AcDbCircle
 10
109.8959079031533
 20
-243.2994247415184
 30
0.0
 40
5.811234619238565
100
AcDbArc
 50
318.4663699854696
 51
9.427002965455047
  0
LINE
  5
10B8
330
18
100
AcDbEntity
  8
0
  6
LÍNEAS_OCULTAS
 62
     9
 48
7.0
370
    -1
100
AcDbLine
 10
115.6286622523906
 20
-242.3475973563598
 30
0.0
 11
111.9137995571736
 21
-241.2786357361936
 31
0.0
  0
LINE
  5
10B9
330
18
100
AcDbEntity
  8
0
  6
LÍNEAS_OCULTAS
 62
     9
 48
7.0
370
    -1
100
AcDbLine
 10
116.3875965275641
 20
-239.9603473558073
 30
0.0
 11
112.5309075299323
 21
-238.8507335728352
 31
0.0
  0
LINE
  5
10BA
330
18
100
AcDbEntity
  8
0
  6
LÍNEAS_OCULTAS
 62
     9
 48
7.0
370
    -1
100
AcDbLine
 10
116.729833084157
 20
-240.5791155994426
 30
0.0
 11
114.2417902975992
 21
-249.2255788190018
 31
0.0
  0
ARC
  5
10BB
330
18
100
AcDbEntity
  8
0
  6
LÍNEAS_OCULTAS
 62
     9
 48
7.0
370
    -1
100
AcDbCircle
 10
98.66335408115651
 20
-240.0799792914012
 30
0.0
 40
11.5000050289194
100
AcDbArc
 50
119.5918899138091
 51
60.40811008618988
  0
LINE
  5
10BC
330
18
100
AcDbEntity
  8
0
  6
LÍNEAS_OCULTAS
 62
     9
 48
7.0
370
    -1
100
AcDbLine
 10
107.5056139645043
 20
-250.9378519995242
 30
0.0
 11
111.9301228726053
 21
-235.5617685393852
 31
0.0
  0
ARC
  5
10BD
330
18
100
AcDbEntity
  8
0
  6
LÍNEAS_OCULTAS
 62
     9
 48
7.0
370
    -1
100
AcDbCircle
 10
108.5132500665105
 20
-248.104446662507
 30
0.0
 40
5.811234619238565
100
AcDbArc
 50
347.6940232523692
 51
9.427002965455047
  0
LINE
  5
10BE
330
18
100
AcDbEntity
  8
0
  6
LÍNEAS_OCULTAS
 62
     9
 48
7.0
370
    -1
100
AcDbLine
 10
113.623022053964
 20
-249.5678153755946
 30
0.0
 11
109.7672806407957
 21
-248.4583155296734
 31
0.0
  0
LINE
  5
10BF
330
18
100
AcDbEntity
  8
0
  6
LÍNEAS_OCULTAS
 62
     9
 48
7.0
370
    -1
100
AcDbLine
 10
112.8913849846854
 20
-235.837406014529
 30
0.0
 11
108.4668760765844
 21
-251.2134894746679
 31
0.0
  0
ARC
  5
10C0
330
18
100
AcDbEntity
  8
0
  6
LÍNEAS_OCULTAS
 62
     9
 48
7.0
370
    -1
100
AcDbCircle
 10
113.7612878974852
 20
-249.0873129754806
 30
0.0
 40
0.5
100
AcDbArc
 50
253.9466864754625
 51
343.9466864754617
  0
ARC
  5
10C1
330
18
100
AcDbEntity
  8
0
  6
LÍNEAS_OCULTAS
 62
     9
 48
7.0
370
    -1
100
AcDbCircle
 10
117.6465662536298
 20
-240.3268827199968
 30
0.0
 40
5.811234619238565
100
AcDbArc
 50
167.6090761226986
 51
189.4270029654547
  0
ARC
  5
10C2
330
18
100
AcDbEntity
  8
0
  6
LÍNEAS_OCULTAS
 62
     9
 48
7.0
370
    -1
100
AcDbCircle
 10
116.263908416987
 20
-245.1319046409855
 30
0.0
 40
5.811234619238565
100
AcDbArc
 50
138.4663699854692
 51
189.4270029654547
  0
LINE
  5
10C3
330
18
100
AcDbEntity
  8
0
  6
LÍNEAS_OCULTAS
 62
     9
 48
7.0
370
    -1
100
AcDbLine
 10
108.3992371728603
 20
-246.2006570389916
 30
0.0
 11
108.8329666369346
 21
-246.3250269614825
 31
0.0
  0
ARC
  5
10C4
330
18
100
AcDbEntity
  8
0
  6
LÍNEAS_OCULTAS
 62
     9
 48
7.0
370
    -1
100
AcDbCircle
 10
109.9134552208234
 20
-247.9801597055389
 30
0.0
 40
0.5
100
AcDbArc
 50
163.9466864754626
 51
253.9466864754618
  0
ARC
  5
10C5
330
18
100
AcDbEntity
  8
0
  6
LÍNEAS_OCULTAS
 62
     9
 48
7.0
370
    -1
100
AcDbCircle
 10
114.8812505803442
 20
-249.9369265619741
 30
0.0
 40
5.811234619238565
100
AcDbArc
 50
138.4663699854692
 51
160.1993496985551
  0
LINE
  5
10C6
330
18
100
AcDbEntity
  8
0
  6
LÍNEAS_OCULTAS
 62
     9
 48
7.0
370
    -1
100
AcDbLine
 10
114.2460044157478
 20
-247.1526192773484
 30
0.0
 11
110.5311540677497
 21
-246.083732026144
 31
0.0
  0
LINE
  5
10C7
330
18
100
AcDbEntity
  8
0
  6
LÍNEAS_OCULTAS
 62
     9
 48
7.0
370
    -1
100
AcDbLine
 10
110.1633162500891
 20
-240.0485821849863
 30
0.0
 11
110.602770200175
 21
-240.1745935774269
 31
0.0
  0
ARC
  5
10C8
330
18
100
AcDbEntity
  8
0
  6
LÍNEAS_OCULTAS
 62
     9
 48
7.0
370
    -1
100
AcDbCircle
 10
112.4014980073811
 20
-239.3336964859797
 30
0.0
 40
0.5
100
AcDbArc
 50
73.94668647546195
 51
163.9466864754625
  0
ARC
  5
10C9
330
18
100
AcDbEntity
  8
0
  6
LÍNEAS_OCULTAS
 62
     9
 48
7.0
370
    -1
100
AcDbCircle
 10
116.2493306840429
 20
-240.4408497559214
 30
0.0
 40
0.5
100
AcDbArc
 50
343.9466864754618
 51
73.94668647546234
  0
ARC
  5
10CA
330
18
100
AcDbEntity
  8
0
  6
LÍNEAS_OCULTAS
 62
     9
 48
7.0
370
    -1
100
AcDbCircle
 10
111.2785657397961
 20
-238.4944028205298
 30
0.0
 40
5.811234619238565
100
AcDbArc
 50
318.4663699854696
 51
340.2842968282257
  0
LINE
  5
10CB
330
18
100
AcDbEntity
  8
0
  6
LÍNEAS_OCULTAS
 62
     9
 48
7.0
370
    -1
100
AcDbLine
 10
107.5056139645043
 20
-250.9378519995242
 30
0.0
 11
108.4668760765844
 21
-251.2134894746679
 31
0.0
  0
CIRCLE
  5
10CC
330
18
100
AcDbEntity
  8
0
  6
LÍNEAS_OCULTAS
 62
     9
 48
7.0
370
    -1
100
AcDbCircle
 10
98.66335408115651
 20
-240.0799792914012
 30
0.0
 40
7.000000000000018
  0
LINE
  5
10CD
330
18
100
AcDbEntity
  8
0
  6
LÍNEAS_OCULTAS
 62
     9
 48
7.0
370
    -1
100
AcDbLine
 10
111.9301228726053
 20
-235.5617685393852
 30
0.0
 11
112.8913849846854
 21
-235.837406014529
 31
0.0
  0
ARC
  5
10CE
330
18
100
AcDbEntity
  8
0
  6
LÍNEAS_OCULTAS
 62
     9
 48
7.0
370
    -1
100
AcDbCircle
 10
98.66335408115651
 20
-240.0799792914012
 30
0.0
 40
11.5000050289194
100
AcDbArc
 50
60.40811008618954
 51
119.5918899138088
  0
ARC
  5
10CF
330
18
100
AcDbEntity
  8
0
  6
LÍNEAS_OCULTAS
 62
     9
 48
7.0
370
    -1
100
AcDbCircle
 10
513.4495699194476
 20
-249.0873129754805
 30
0.0
 40
0.5
100
AcDbArc
 50
253.9466864754625
 51
343.9466864754617
  0
LINE
  5
10D0
330
18
100
AcDbEntity
  8
0
  6
LÍNEAS_OCULTAS
 62
     9
 48
7.0
370
    -1
100
AcDbLine
 10
512.5796670066479
 20
-235.8374060145289
 30
0.0
 11
508.1551580985469
 21
-251.2134894746679
 31
0.0
  0
LINE
  5
10D1
330
18
100
AcDbEntity
  8
0
  6
LÍNEAS_OCULTAS
 62
     9
 48
7.0
370
    -1
100
AcDbLine
 10
513.3113040759265
 20
-249.5678153755946
 30
0.0
 11
509.4555626627583
 21
-248.4583155296733
 31
0.0
  0
ARC
  5
10D2
330
18
100
AcDbEntity
  8
0
  6
LÍNEAS_OCULTAS
 62
     9
 48
7.0
370
    -1
100
AcDbCircle
 10
508.2015320884731
 20
-248.104446662507
 30
0.0
 40
5.811234619238565
100
AcDbArc
 50
347.6940232523692
 51
9.427002965455047
  0
LINE
  5
10D3
330
18
100
AcDbEntity
  8
0
  6
LÍNEAS_OCULTAS
 62
     9
 48
7.0
370
    -1
100
AcDbLine
 10
507.1938959864668
 20
-250.9378519995241
 30
0.0
 11
511.6184048945678
 21
-235.5617685393852
 31
0.0
  0
LINE
  5
10D4
330
18
100
AcDbEntity
  8
0
  6
LÍNEAS_OCULTAS
 62
     9
 48
7.0
370
    -1
100
AcDbLine
 10
507.1938959864668
 20
-250.9378519995241
 30
0.0
 11
508.155158098547
 21
-251.2134894746679
 31
0.0
  0
ARC
  5
10D5
330
18
100
AcDbEntity
  8
0
  6
LÍNEAS_OCULTAS
 62
     9
 48
7.0
370
    -1
100
AcDbCircle
 10
514.5695326023067
 20
-249.936926561974
 30
0.0
 40
5.811234619238565
100
AcDbArc
 50
138.4663699854692
 51
160.1993496985551
  0
ARC
  5
10D6
330
18
100
AcDbEntity
  8
0
  6
LÍNEAS_OCULTAS
 62
     9
 48
7.0
370
    -1
100
AcDbCircle
 10
509.6017372427859
 20
-247.9801597055388
 30
0.0
 40
0.5
100
AcDbArc
 50
163.9466864754626
 51
253.9466864754618
  0
LINE
  5
10D7
330
18
100
AcDbEntity
  8
0
  6
LÍNEAS_OCULTAS
 62
     9
 48
7.0
370
    -1
100
AcDbLine
 10
508.0875191948228
 20
-246.2006570389915
 30
0.0
 11
508.5212486588972
 21
-246.3250269614825
 31
0.0
  0
ARC
  5
10D8
330
18
100
AcDbEntity
  8
0
  6
LÍNEAS_OCULTAS
 62
     9
 48
7.0
370
    -1
100
AcDbCircle
 10
510.9668477617587
 20
-238.4944028205297
 30
0.0
 40
5.811234619238565
100
AcDbArc
 50
318.4663699854696
 51
340.2842968282257
  0
ARC
  5
10D9
330
18
100
AcDbEntity
  8
0
  6
LÍNEAS_OCULTAS
 62
     9
 48
7.0
370
    -1
100
AcDbCircle
 10
515.9376127060054
 20
-240.4408497559214
 30
0.0
 40
0.5
100
AcDbArc
 50
343.9466864754618
 51
73.94668647546234
  0
ARC
  5
10DA
330
18
100
AcDbEntity
  8
0
  6
LÍNEAS_OCULTAS
 62
     9
 48
7.0
370
    -1
100
AcDbCircle
 10
512.0897800293436
 20
-239.3336964859796
 30
0.0
 40
0.5
100
AcDbArc
 50
73.94668647546195
 51
163.9466864754625
  0
LINE
  5
10DB
330
18
100
AcDbEntity
  8
0
  6
LÍNEAS_OCULTAS
 62
     9
 48
7.0
370
    -1
100
AcDbLine
 10
509.8515982720517
 20
-240.0485821849863
 30
0.0
 11
510.2910522221375
 21
-240.1745935774269
 31
0.0
  0
LINE
  5
10DC
330
18
100
AcDbEntity
  8
0
  6
LÍNEAS_OCULTAS
 62
     9
 48
7.0
370
    -1
100
AcDbLine
 10
513.9342864377104
 20
-247.1526192773484
 30
0.0
 11
510.2194360897122
 21
-246.083732026144
 31
0.0
  0
ARC
  5
10DD
330
18
100
AcDbEntity
  8
0
  6
LÍNEAS_OCULTAS
 62
     9
 48
7.0
370
    -1
100
AcDbCircle
 10
515.9521904389495
 20
-245.1319046409854
 30
0.0
 40
5.811234619238565
100
AcDbArc
 50
138.4663699854692
 51
189.4270029654547
  0
ARC
  5
10DE
330
18
100
AcDbEntity
  8
0
  6
LÍNEAS_OCULTAS
 62
     9
 48
7.0
370
    -1
100
AcDbCircle
 10
517.3348482755923
 20
-240.3268827199968
 30
0.0
 40
5.811234619238565
100
AcDbArc
 50
167.6090761226986
 51
189.4270029654547
  0
LINE
  5
10DF
330
18
100
AcDbEntity
  8
0
  6
LÍNEAS_OCULTAS
 62
     9
 48
7.0
370
    -1
100
AcDbLine
 10
516.4181151061196
 20
-240.5791155994425
 30
0.0
 11
513.9300723195618
 21
-249.2255788190017
 31
0.0
  0
LINE
  5
10E0
330
18
100
AcDbEntity
  8
0
  6
LÍNEAS_OCULTAS
 62
     9
 48
7.0
370
    -1
100
AcDbLine
 10
516.0758785495266
 20
-239.9603473558072
 30
0.0
 11
512.2191895518948
 21
-238.8507335728351
 31
0.0
  0
LINE
  5
10E1
330
18
100
AcDbEntity
  8
0
  6
LÍNEAS_OCULTAS
 62
     9
 48
7.0
370
    -1
100
AcDbLine
 10
515.3169442743531
 20
-242.3475973563598
 30
0.0
 11
511.6020815791361
 21
-241.2786357361936
 31
0.0
  0
ARC
  5
10E2
330
18
100
AcDbEntity
  8
0
  6
LÍNEAS_OCULTAS
 62
     9
 48
7.0
370
    -1
100
AcDbCircle
 10
509.5841899251159
 20
-243.2994247415184
 30
0.0
 40
5.811234619238565
100
AcDbArc
 50
318.4663699854696
 51
9.427002965455047
  0
LINE
  5
10E3
330
18
100
AcDbEntity
  8
0
  6
LÍNEAS_OCULTAS
 62
     9
 48
7.0
370
    -1
100
AcDbLine
 10
511.6184048945678
 20
-235.5617685393852
 30
0.0
 11
512.5796670066479
 21
-235.8374060145289
 31
0.0
  0
LINE
  5
10E4
330
18
100
AcDbEntity
  8
0
  6
LÍNEAS_OCULTAS
 62
     9
 48
7.0
370
    -1
100
AcDbLine
 10
516.0033185332669
 20
-242.0206194715411
 30
0.0
 11
551.2159148263964
 21
-252.1176689791838
 31
0.0
  0
LINE
  5
10E5
330
18
100
AcDbEntity
  8
0
  6
LÍNEAS_OCULTAS
 62
     9
 48
7.0
370
    -1
100
AcDbLine
 10
514.344127692729
 20
-247.7866507690931
 30
0.0
 11
549.5620906914944
 21
-257.8852391548137
 31
0.0
  0
LINE
  5
10E6
330
18
100
AcDbEntity
  8
0
  6
ACAD_ISO10W100
 62
     9
370
    -1
100
AcDbLine
 10
482.4908132860293
 20
-235.5319615342625
 30
0.0
 11
639.1765501362933
 21
-280.460873590295
 31
0.0
  0
ARC
  5
10E7
330
18
100
AcDbEntity
  8
0
  6
LÍNEAS_OCULTAS
 62
     9
 48
7.0
370
    -1
100
AcDbCircle
 10
498.3516361031191
 20
-240.0799792914011
 30
0.0
 40
11.5000050289194
100
AcDbArc
 50
119.5918899138091
 51
60.40811008618988
  0
ARC
  5
10E8
330
18
100
AcDbEntity
  8
0
  6
LÍNEAS_OCULTAS
 62
     9
 48
7.0
370
    -1
100
AcDbCircle
 10
498.3516361031191
 20
-240.0799792914011
 30
0.0
 40
11.5000050289194
100
AcDbArc
 50
60.40811008618954
 51
119.5918899138088
  0
LINE
  5
10E9
330
18
100
AcDbEntity
  8
0
  6
LÍNEAS_OCULTAS
 62
     9
 48
7.0
370
    -1
100
AcDbLine
 10
602.4314839681019
 20
-273.0452937247488
 30
0.0
 11
637.866323868055
 21
-283.2060705611626
 31
0.0
  0
LINE
  5
10EA
330
18
100
AcDbEntity
  8
0
  6
LÍNEAS_OCULTAS
 62
     9
 48
7.0
370
    -1
100
AcDbLine
 10
604.0853081030039
 20
-267.2777235491188
 30
0.0
 11
639.5255147085932
 21
-277.4400392636105
 31
0.0
  0
LINE
  5
10EB
330
18
100
AcDbEntity
  8
0
  6
LÍNEAS_OCULTAS
 62
     9
 48
7.0
370
    -1
100
AcDbLine
 10
602.2386846781819
 20
-273.7176647531782
 30
0.0
 11
608.7381970799806
 21
-279.3229740937492
 31
0.0
  0
ARC
  5
10EC
330
18
100
AcDbEntity
  8
0
  6
LÍNEAS_OCULTAS
 62
     9
 48
7.0
370
    -1
100
AcDbCircle
 10
600.7734720901707
 20
-278.5725369966543
 30
0.0
 40
8.0
100
AcDbArc
 50
302.0179129726656
 51
354.6174766750819
  0
LINE
  5
10ED
330
18
100
AcDbEntity
  8
0
  6
LÍNEAS_OCULTAS
 62
     9
 48
7.0
370
    -1
100
AcDbLine
 10
604.7548229765732
 20
-259.4488570255753
 30
0.0
 11
612.7996754134508
 21
-258.207021972281
 31
0.0
  0
LINE
  5
10EE
330
18
100
AcDbEntity
  8
0
  6
LÍNEAS_OCULTAS
 62
     9
 48
7.0
370
    -1
100
AcDbLine
 10
604.2781073929239
 20
-266.6053525206895
 30
0.0
 11
612.7603679127694
 21
-265.2959974358862
 31
0.0
  0
LINE
  5
10EF
330
18
100
AcDbEntity
  8
0
  6
LÍNEAS_OCULTAS
 62
     9
 48
7.0
370
    -1
100
AcDbLine
 10
597.0015800081944
 20
-273.8418428304821
 30
0.0
 11
599.902595103528
 21
-263.7248008852156
 31
0.0
  0
LINE
  5
10F0
330
18
100
AcDbEntity
  8
0
  6
LÍNEAS_OCULTAS
 62
     9
 48
7.0
370
    -1
100
AcDbLine
 10
602.2689616172227
 20
-273.6120765186519
 30
0.0
 11
604.2781073929239
 21
-266.6053525206895
 31
0.0
  0
ARC
  5
10F1
330
18
100
AcDbEntity
  8
0
  6
LÍNEAS_OCULTAS
 62
     9
 48
7.0
370
    -1
100
AcDbCircle
 10
587.8782089005399
 20
-265.7513109438618
 30
0.0
 40
11.0
100
AcDbArc
 50
259.3835301591629
 51
73.99999999999983
  0
LINE
  5
10F2
330
18
100
AcDbEntity
  8
0
  6
LÍNEAS_OCULTAS
 62
     9
 48
7.0
370
    -1
100
AcDbLine
 10
598.8505975940445
 20
-280.0393379042978
 30
0.0
 11
605.0149470692572
 21
-285.3555960411992
 31
0.0
  0
LINE
  5
10F3
330
18
100
AcDbEntity
  8
0
  6
LÍNEAS_OCULTAS
 62
     9
 48
7.0
370
    -1
100
AcDbLine
 10
602.2386846781818
 20
-273.7176647531781
 30
0.0
 11
597.0015800081947
 21
-273.8418428304821
 31
0.0
  0
ARC
  5
10F4
330
18
100
AcDbEntity
  8
0
  6
LÍNEAS_OCULTAS
 62
     9
 48
7.0
370
    -1
100
AcDbCircle
 10
602.7691501838244
 20
-275.495666965384
 30
0.0
 40
6.0
100
AcDbArc
 50
163.9999999999997
 51
229.2248594311675
  0
ARC
  5
10F5
330
18
100
AcDbEntity
  8
0
  6
LÍNEAS_OCULTAS
 62
     9
 48
7.0
370
    -1
100
AcDbCircle
 10
605.6701652791579
 20
-265.3786250201176
 30
0.0
 40
6.0
100
AcDbArc
 50
98.77514056883214
 51
164.0
  0
LINE
  5
10F6
330
18
100
AcDbEntity
  8
0
  6
LÍNEAS_OCULTAS
 62
     9
 48
7.0
370
    -1
100
AcDbLine
 10
604.2781073929239
 20
-266.6053525206895
 30
0.0
 11
599.902595103528
 21
-263.7248008852156
 31
0.0
  0
LINE
  5
10F7
330
18
100
AcDbEntity
  8
0
  6
LÍNEAS_OCULTAS
 62
     9
 48
7.0
370
    -1
100
AcDbLine
 10
639.525514708593
 20
-277.4400392636104
 30
0.0
 11
637.8663238680551
 21
-283.2060705611625
 31
0.0
  0
LINE
  5
10F8
330
18
100
AcDbEntity
  8
0
  6
LÍNEAS_OCULTAS
 62
     9
 48
7.0
370
    -1
100
AcDbLine
 10
637.8663238680551
 20
-283.2060705611625
 30
0.0
 11
638.4852205595455
 21
-282.863386838957
 31
0.0
  0
LINE
  5
10F9
330
18
100
AcDbEntity
  8
0
  6
LÍNEAS_OCULTAS
 62
     9
 48
7.0
370
    -1
100
AcDbLine
 10
639.867879713041
 20
-278.058360341633
 30
0.0
 11
638.4852205595455
 21
-282.863386838957
 31
0.0
  0
LINE
  5
10FA
330
18
100
AcDbEntity
  8
0
  6
LÍNEAS_OCULTAS
 62
     9
 48
7.0
370
    -1
100
AcDbLine
 10
639.867879713041
 20
-278.058360341633
 30
0.0
 11
639.525514708593
 21
-277.4400392636104
 31
0.0
  0
ARC
  5
10FB
330
18
100
AcDbEntity
  8
0
  6
LÍNEAS_OCULTAS
 62
     9
 48
7.0
370
    -1
100
AcDbCircle
 10
605.6082269744056
 20
-261.7117429809427
 30
0.0
 40
8.0
100
AcDbArc
 50
333.3825233249177
 51
25.98208702733406
  0
LINE
  5
10FC
330
18
100
AcDbEntity
  8
0
  6
LÍNEAS_OCULTAS
 62
     9
 48
7.0
370
    -1
100
AcDbLine
 10
568.8012008079454
 20
-248.8377731047493
 30
0.0
 11
590.9102198145268
 21
-255.1774322885403
 31
0.0
  0
ARC
  5
10FD
330
18
100
AcDbEntity
  8
0
  6
LÍNEAS_OCULTAS
 62
     9
 48
7.0
370
    -1
100
AcDbCircle
 10
565.7691898939585
 20
-259.4116517600708
 30
0.0
 40
11.0
100
AcDbArc
 50
73.9999999999998
 51
253.9999999999998
  0
ARC
  5
10FE
330
18
100
AcDbEntity
  8
0
  6
LÍNEAS_OCULTAS
 62
     9
 48
7.0
370
    -1
100
AcDbCircle
 10
371.602864659258
 20
-198.2609066103408
 30
0.0
 40
6.0
100
AcDbArc
 50
343.9999999999995
 51
49.22485943116736
  0
LINE
  5
10FF
330
18
100
AcDbEntity
  8
0
  6
LÍNEAS_OCULTAS
 62
     9
 48
7.0
370
    -1
100
AcDbLine
 10
551.4087141163164
 20
-251.4452979507543
 30
0.0
 11
544.9092017145176
 21
-245.8399886101832
 31
0.0
  0
LINE
  5
1100
330
18
100
AcDbEntity
  8
0
  6
LÍNEAS_OCULTAS
 62
     9
 48
7.0
370
    -1
100
AcDbLine
 10
562.7371789799714
 20
-269.9855304153922
 30
0.0
 11
584.8461979865527
 21
-276.3251895991833
 31
0.0
  0
LINE
  5
1101
330
18
100
AcDbEntity
  8
0
  6
LÍNEAS_OCULTAS
 62
     9
 48
7.0
370
    -1
100
AcDbLine
 10
549.3692914015744
 20
-258.557610183243
 30
0.0
 11
540.887030881729
 21
-259.8669652680462
 31
0.0
  0
ARC
  5
1102
330
18
100
AcDbEntity
  8
0
  6
LÍNEAS_OCULTAS
 62
     9
 48
7.0
370
    -1
100
AcDbCircle
 10
547.9772335153403
 20
-259.7843376838148
 30
0.0
 40
6.0
100
AcDbArc
 50
278.775140568832
 51
343.9999999999998
  0
ARC
  5
1103
330
18
100
AcDbEntity
  8
0
  6
LÍNEAS_OCULTAS
 62
     9
 48
7.0
370
    -1
100
AcDbCircle
 10
548.0391718200925
 20
-263.4512197229897
 30
0.0
 40
8.0
100
AcDbArc
 50
153.3825233249175
 51
205.9820870273339
  0
LINE
  5
1104
330
18
100
AcDbEntity
  8
0
  6
LÍNEAS_OCULTAS
 62
     9
 48
7.0
370
    -1
100
AcDbLine
 10
548.8925758179249
 20
-265.7141056783572
 30
0.0
 11
540.8477233810474
 21
-266.9559407316514
 31
0.0
  0
LINE
  5
1105
330
18
100
AcDbEntity
  8
0
  6
LÍNEAS_OCULTAS
 62
     9
 48
7.0
370
    -1
100
AcDbLine
 10
549.3692914015744
 20
-258.557610183243
 30
0.0
 11
553.7448036909702
 21
-261.4381618187168
 31
0.0
  0
LINE
  5
1106
330
18
100
AcDbEntity
  8
0
  6
LÍNEAS_OCULTAS
 62
     9
 48
7.0
370
    -1
100
AcDbLine
 10
553.7448036909702
 20
-261.4381618187169
 30
0.0
 11
556.6458187863037
 21
-251.3211198734505
 31
0.0
  0
LINE
  5
1107
330
18
100
AcDbEntity
  8
0
  6
LÍNEAS_OCULTAS
 62
     9
 48
7.0
370
    -1
100
AcDbLine
 10
551.4087141163164
 20
-251.4452979507543
 30
0.0
 11
556.6458187863037
 21
-251.3211198734505
 31
0.0
  0
LINE
  5
1108
330
18
100
AcDbEntity
  8
0
  6
LÍNEAS_OCULTAS
 62
     9
 48
7.0
370
    -1
100
AcDbLine
 10
549.3995683406151
 20
-258.4520219487167
 30
0.0
 11
551.4087141163164
 21
-251.4452979507543
 31
0.0
  0
LINE
  5
1109
330
18
100
AcDbEntity
  8
0
  6
LÍNEAS_OCULTAS
 62
     9
 48
7.0
370
    -1
100
AcDbLine
 10
554.7968012004537
 20
-245.1236247996346
 30
0.0
 11
548.632451725241
 21
-239.8073666627332
 31
0.0
  0
ARC
  5
110A
330
18
100
AcDbEntity
  8
0
  6
LÍNEAS_OCULTAS
 62
     9
 48
7.0
370
    -1
100
AcDbCircle
 10
552.8739267043277
 20
-246.5904257072781
 30
0.0
 40
8.0
100
AcDbArc
 50
122.0179129726655
 51
174.6174766750818
  0
LINE
  5
110B
330
18
100
AcDbEntity
  8
0
 62
     7
370
    -1
100
AcDbLine
 10
713.7050873242256
 20
-229.8893397801735
 30
0.0
 11
738.7050873242256
 21
-229.8893397801735
 31
0.0
  0
LINE
  5
110C
330
18
100
AcDbEntity
  8
0
 62
     7
370
    -1
100
AcDbLine
 10
713.7050873242257
 20
-250.2706188026289
 30
0.0
 11
738.7050873242255
 21
-250.2706188026289
 31
0.0
  0
LINE
  5
110D
330
18
100
AcDbEntity
  8
0
 62
     7
370
    -1
100
AcDbLine
 10
713.7050873242256
 20
-250.2706188026289
 30
0.0
 11
713.7050873242256
 21
-229.8893397801735
 31
0.0
  0
LINE
  5
110E
330
18
100
AcDbEntity
  8
0
 62
     7
370
    -1
100
AcDbLine
 10
738.7050873242255
 20
-250.2706188026289
 30
0.0
 11
738.7050873242256
 21
-229.8893397801735
 31
0.0
  0
LINE
  5
110F
330
18
100
AcDbEntity
  8
0
  6
LÍNEAS_OCULTAS
 62
     9
 48
10.0
370
    -1
100
AcDbLine
 10
738.7050873242257
 20
-244.0799792914013
 30
0.0
 11
720.3299066888227
 21
-244.0799792914013
 31
0.0
  0
LINE
  5
1110
330
18
100
AcDbEntity
  8
0
  6
LÍNEAS_OCULTAS
 62
     9
 48
10.0
370
    -1
100
AcDbLine
 10
738.7050873242256
 20
-236.0799792914012
 30
0.0
 11
720.3299066888227
 21
-236.0799792914012
 31
0.0
  0
LINE
  5
1111
330
18
100
AcDbEntity
  8
0
  6
ACAD_ISO10W100
 62
     9
370
    -1
100
AcDbLine
 10
726.2050873242256
 20
-260.2706188026289
 30
0.0
 11
726.2050873242256
 21
-359.3795319764374
 31
0.0
  0
LINE
  5
1112
330
18
100
AcDbEntity
  8
0
 62
     7
370
    -1
100
AcDbLine
 10
723.2050860254894
 20
-336.2319245870013
 30
0.0
 11
723.2050860254894
 21
-336.8800481059145
 31
0.0
  0
LINE
  5
1113
330
18
100
AcDbEntity
  8
0
 62
     7
370
    -1
100
AcDbLine
 10
729.2050886229617
 20
-336.2319245870013
 30
0.0
 11
729.2050886229617
 21
-336.984778540823
 31
0.0
  0
ARC
  5
1114
330
18
100
AcDbEntity
  8
0
 62
     7
370
    -1
100
AcDbCircle
 10
731.3619479142935
 20
-343.0233406280576
 30
0.0
 40
6.0
100
AcDbArc
 50
23.77514056883212
 51
89.0
  0
LINE
  5
1115
330
18
100
AcDbEntity
  8
0
 62
     7
370
    -1
100
AcDbLine
 10
729.8167290468296
 20
-341.9962164043537
 30
0.0
 11
733.2768395070813
 21
-349.8505648730359
 31
0.0
  0
LINE
  5
1116
330
18
100
AcDbEntity
  8
0
 62
     7
370
    -1
100
AcDbLine
 10
715.435752711382
 20
-340.2306157860859
 30
0.0
 11
711.8960927225822
 21
-347.5608690009766
 31
0.0
  0
LINE
  5
1117
330
18
100
AcDbEntity
  8
0
 62
     7
370
    -1
100
AcDbLine
 10
722.4189215372472
 20
-341.8670871939477
 30
0.0
 11
718.6868060743159
 21
-349.5958948921619
 31
0.0
  0
LINE
  5
1118
330
18
100
AcDbEntity
  8
0
 62
     7
370
    -1
100
AcDbLine
 10
722.5287481883795
 20
-341.8690042252739
 30
0.0
 11
729.8167290468296
 21
-341.9962164043537
 31
0.0
  0
LINE
  5
1119
330
18
100
AcDbEntity
  8
0
 62
     7
370
    -1
100
AcDbLine
 10
720.9435122955323
 20
-336.8405721896181
 30
0.0
 11
731.4666623529172
 21
-337.0242544571194
 31
0.0
  0
LINE
  5
111A
330
18
100
AcDbEntity
  8
0
 62
     7
370
    -1
100
AcDbLine
 10
722.4189215372472
 20
-341.8670871939476
 30
0.0
 11
720.9435122955324
 21
-336.8405721896183
 31
0.0
  0
ARC
  5
111B
330
18
100
AcDbEntity
  8
0
 62
     7
370
    -1
100
AcDbCircle
 10
720.8387978569087
 20
-342.8396583605565
 30
0.0
 40
6.0
100
AcDbArc
 50
88.99999999999964
 51
154.2248594311675
  0
LINE
  5
111C
330
18
100
AcDbEntity
  8
0
 62
     7
370
    -1
100
AcDbLine
 10
729.8167290468296
 20
-341.9962164043537
 30
0.0
 11
731.4666623529172
 21
-337.0242544571194
 31
0.0
  0
ARC
  5
111D
330
18
100
AcDbEntity
  8
0
 62
     7
370
    -1
100
AcDbCircle
 10
717.3502501310383
 20
-341.708333912335
 30
0.0
 40
8.0
100
AcDbArc
 50
227.0179129726656
 51
279.6174766750819
  0
ARC
  5
111E
330
18
100
AcDbEntity
  8
0
 62
     7
370
    -1
100
AcDbCircle
 10
734.8878531649968
 20
-342.014453911978
 30
0.0
 40
8.0
100
AcDbArc
 50
258.3825233249177
 51
310.982087027334
  0
LINE
  5
111F
330
18
100
AcDbEntity
  8
0
 62
     7
370
    -1
100
AcDbLine
 10
736.8527559434274
 20
-340.6044509680692
 30
0.0
 11
740.1344375190987
 21
-348.0537711428653
 31
0.0
  0
LINE
  5
1120
330
18
100
AcDbEntity
  8
0
 62
     7
370
    -1
100
AcDbLine
 10
729.2050886229617
 20
-341.9855401810424
 30
0.0
 11
729.2050886229617
 21
-359.3795319764374
 31
0.0
  0
LINE
  5
1121
330
18
100
AcDbEntity
  8
0
 62
     7
370
    -1
100
AcDbLine
 10
729.2050886229617
 20
-337.9293249970549
 30
0.0
 11
729.2050886229617
 21
-340.9107243687899
 31
0.0
  0
LINE
  5
1122
330
18
100
AcDbEntity
  8
0
 62
     7
370
    -1
100
AcDbLine
 10
723.2050860254894
 20
-338.0835352609552
 30
0.0
 11
723.2050860254895
 21
-341.0135316795536
 31
0.0
  0
LINE
  5
1123
330
18
100
AcDbEntity
  8
0
 62
     7
370
    -1
100
AcDbLine
 10
723.2050860254895
 20
-341.880809746134
 30
0.0
 11
723.2050860254894
 21
-359.3795319764374
 31
0.0
  0
LINE
  5
1124
330
18
100
AcDbEntity
  8
0
 62
     7
370
    -1
100
AcDbLine
 10
723.2050860254894
 20
-359.3795319764374
 30
0.0
 11
729.2050886229617
 21
-359.3795319764374
 31
0.0
  0
LINE
  5
1125
330
18
100
AcDbEntity
  8
0
 62
     7
370
    -1
100
AcDbLine
 10
723.1998260201229
 20
-359.3961735518063
 30
0.0
 11
723.7041740929615
 21
-359.8922564779654
 31
0.0
  0
LINE
  5
1126
330
18
100
AcDbEntity
  8
0
 62
     7
370
    -1
100
AcDbLine
 10
728.7040247412483
 20
-359.8532761039841
 30
0.0
 11
723.7041740929615
 21
-359.8922564779654
 31
0.0
  0
LINE
  5
1127
330
18
100
AcDbEntity
  8
0
 62
     7
370
    -1
100
AcDbLine
 10
728.7040247412483
 20
-359.8532761039841
 30
0.0
 11
729.1996462785883
 21
-359.3493971070789
 31
0.0
  0
LINE
  5
1130
330
18
100
AcDbEntity
  8
0
 62
     7
370
    -1
100
AcDbLine
 10
736.8527559434274
 20
-305.048167614441
 30
0.0
 11
740.1344375190987
 21
-297.5988474396448
 31
0.0
  0
LINE
  5
1131
330
18
100
AcDbEntity
  8
0
 62
     7
370
    -1
100
AcDbLine
 10
729.8167290468296
 20
-303.6564021781564
 30
0.0
 11
733.2768395070813
 21
-295.8020537094743
 31
0.0
  0
ARC
  5
1132
330
18
100
AcDbEntity
  8
0
 62
     7
370
    -1
100
AcDbCircle
 10
734.8878531649968
 20
-303.6381646705322
 30
0.0
 40
8.0
100
AcDbArc
 50
49.017912972666
 51
101.6174766750823
  0
ARC
  5
1133
330
18
100
AcDbEntity
  8
0
 62
     7
370
    -1
100
AcDbCircle
 10
731.3619479142935
 20
-302.6292779544526
 30
0.0
 40
6.0
100
AcDbArc
 50
271.0
 51
336.2248594311679
  0
LINE
  5
1134
330
18
100
AcDbEntity
  8
0
 62
     7
370
    -1
100
AcDbLine
 10
722.4189215372472
 20
-303.7855313885625
 30
0.0
 11
718.6868060743159
 21
-296.0567236903482
 31
0.0
  0
LINE
  5
1135
330
18
100
AcDbEntity
  8
0
 62
     7
370
    -1
100
AcDbLine
 10
715.435752711382
 20
-305.4220027964243
 30
0.0
 11
711.8960927225822
 21
-298.0917495815336
 31
0.0
  0
ARC
  5
1136
330
18
100
AcDbEntity
  8
0
 62
     7
370
    -1
100
AcDbCircle
 10
717.3502501310383
 20
-303.9442846701752
 30
0.0
 40
8.0
100
AcDbArc
 50
80.38252332491805
 51
132.9820870273344
  0
LINE
  5
1137
330
18
100
AcDbEntity
  8
0
 62
     7
370
    -1
100
AcDbLine
 10
720.9435122955323
 20
-308.8120463928921
 30
0.0
 11
731.4666623529172
 21
-308.6283641253908
 31
0.0
  0
ARC
  5
1138
330
18
100
AcDbEntity
  8
0
 62
     7
370
    -1
100
AcDbCircle
 10
720.8387978569087
 20
-302.8129602219537
 30
0.0
 40
6.0
100
AcDbArc
 50
205.7751405688325
 51
271.0000000000003
  0
LINE
  5
1139
330
18
100
AcDbEntity
  8
0
 62
     7
370
    -1
100
AcDbLine
 10
722.4189215372472
 20
-303.7855313885626
 30
0.0
 11
720.9435122955324
 21
-308.8120463928918
 31
0.0
  0
LINE
  5
113A
330
18
100
AcDbEntity
  8
0
 62
     7
370
    -1
100
AcDbLine
 10
729.8167290468296
 20
-303.6564021781564
 30
0.0
 11
731.4666623529172
 21
-308.6283641253908
 31
0.0
  0
LINE
  5
113B
330
18
100
AcDbEntity
  8
0
 62
     7
370
    -1
100
AcDbLine
 10
722.5287481883795
 20
-303.7836143572363
 30
0.0
 11
729.8167290468296
 21
-303.6564021781564
 31
0.0
  0
LINE
  5
113C
330
18
100
AcDbEntity
  8
0
 62
     7
370
    -1
100
AcDbLine
 10
729.2050886229617
 20
-303.6670784014677
 30
0.0
 11
729.2050886229619
 21
-250.2706188026289
 31
0.0
  0
LINE
  5
113D
330
18
100
AcDbEntity
  8
0
 62
     7
370
    -1
100
AcDbLine
 10
723.2050860254895
 20
-303.7718088363761
 30
0.0
 11
723.2050860254892
 21
-250.2706188026288
 31
0.0
  0
LINE
  5
113E
330
18
100
AcDbEntity
  8
0
 62
     7
370
    -1
100
AcDbLine
 10
723.2050860254894
 20
-309.4206939955088
 30
0.0
 11
723.2050860254894
 21
-308.7725704765957
 31
0.0
  0
LINE
  5
113F
330
18
100
AcDbEntity
  8
0
 62
     7
370
    -1
100
AcDbLine
 10
729.2050886229617
 20
-309.4206939955088
 30
0.0
 11
729.2050886229617
 21
-308.6678400416872
 31
0.0
  0
LINE
  5
1140
330
18
100
AcDbEntity
  8
0
 62
     7
370
    -1
100
AcDbLine
 10
729.2050886229617
 20
-307.7232935854553
 30
0.0
 11
729.2050886229617
 21
-304.7418942137202
 31
0.0
  0
LINE
  5
1141
330
18
100
AcDbEntity
  8
0
 62
     7
370
    -1
100
AcDbLine
 10
723.2050860254894
 20
-307.569083321555
 30
0.0
 11
723.2050860254895
 21
-304.6390869029566
 31
0.0
  0
ARC
  5
1142
330
18
100
AcDbEntity
  8
0
 62
     7
370
    -1
100
AcDbCircle
 10
726.2050873242256
 20
-325.9324120246326
 30
0.0
 40
11.00000129873615
100
AcDbArc
 50
180.0
 51
0.0
  0
LINE
  5
1143
330
18
100
AcDbEntity
  8
0
 62
     7
370
    -1
100
AcDbLine
 10
715.2050860254893
 20
-319.5134877782046
 30
0.0
 11
715.2050860254894
 21
-325.9324120246327
 31
0.0
  0
LINE
  5
1144
330
18
100
AcDbEntity
  8
0
 62
     7
370
    -1
100
AcDbLine
 10
737.2050886229617
 20
-319.5134877782045
 30
0.0
 11
737.2050886229617
 21
-325.9324120246326
 31
0.0
  0
ARC
  5
1146
330
18
100
AcDbEntity
  8
0
 62
     7
370
    -1
100
AcDbCircle
 10
726.2050873242256
 20
-320.616847168041
 30
0.0
 40
11.00000129873615
100
AcDbArc
 50
0.0
 51
180.0
  0
ENDSEC
  0
SECTION
  2
OBJECTS
  0
DICTIONARY
  5
C
330
0
100
AcDbDictionary
281
     1
  3
ACAD_COLOR
350
114C
  3
ACAD_GROUP
350
D
  3
ACAD_LAYOUT
350
114D
  3
ACAD_MATERIAL
350
114B
  3
ACAD_MLEADERSTYLE
350
1183
  3
ACAD_MLINESTYLE
350
1B
  3
ACAD_PLOTSETTINGS
350
114E
  3
ACAD_PLOTSTYLENAME
350
1149
  3
ACAD_SCALELIST
350
116E
  3
ACAD_TABLESTYLE
350
1185
  3
ACAD_VISUALSTYLE
350
1155
  3
ACDBHEADERROUNDTRIPXREC
350
118F
  3
ACDBVARIABLEDICTIONARY
350
F2
  3
CONTENTDICTIONARY
350
23
  3
DWGPROPS
350
1192
  0
DICTIONARY
  5
1193
330
8
100
AcDbDictionary
280
     1
281
     1
  3
ACAD_XREC_ROUNDTRIP
360
1194
  0
DICTIONARY
  5
114C
102
{ACAD_REACTORS
330
C
102
}
330
C
100
AcDbDictionary
281
     1
  0
DICTIONARY
  5
D
102
{ACAD_REACTORS
330
C
102
}
330
C
100
AcDbDictionary
281
     1
  0
DICTIONARY
  5
114D
102
{ACAD_REACTORS
330
C
102
}
330
C
100
AcDbDictionary
281
     1
  3
Model
350
114F
  3
Presentación1
350
1150
  0
DICTIONARY
  5
114B
102
{ACAD_REACTORS
330
C
102
}
330
C
100
AcDbDictionary
281
     1
  3
ByBlock
350
1181
  3
ByLayer
350
1180
  3
Global
350
1182
  0
DICTIONARY
  5
1183
102
{ACAD_REACTORS
330
C
102
}
330
C
100
AcDbDictionary
281
     1
  3
Standard
350
1184
  0
DICTIONARY
  5
1B
102
{ACAD_REACTORS
330
C
102
}
330
C
100
AcDbDictionary
281
     1
  3
STANDARD
350
1C
  0
DICTIONARY
  5
114E
102
{ACAD_REACTORS
330
C
102
}
330
C
100
AcDbDictionary
281
     1
  0
ACDBDICTIONARYWDFLT
  5
1149
102
{ACAD_REACTORS
330
C
102
}
330
C
100
AcDbDictionary
281
     1
  3
Normal
350
114A
100
AcDbDictionaryWithDefault
340
114A
  0
DICTIONARY
  5
116E
102
{ACAD_REACTORS
330
C
102
}
330
C
100
AcDbDictionary
281
     1
  3
A0
350
116F
  3
A1
350
1170
  3
A2
350
1171
  3
A3
350
1172
  3
A4
350
1173
  3
A5
350
1174
  3
A6
350
1175
  3
A7
350
1176
  3
A8
350
1177
  3
A9
350
1178
  3
B1
350
1179
  3
B2
350
117A
  3
B3
350
117B
  3
B4
350
117C
  3
B5
350
117D
  3
B6
350
117E
  3
B7
350
117F
  0
DICTIONARY
  5
1185
102
{ACAD_REACTORS
330
C
102
}
330
C
100
AcDbDictionary
281
     1
  3
Standard
350
1186
  0
DICTIONARY
  5
1155
102
{ACAD_REACTORS
330
C
102
}
330
C
100
AcDbDictionary
281
     1
  3
2dWireframe
350
115A
  3
Basic
350
115D
  3
Brighten
350
1161
  3
ColorChange
350
1165
  3
Conceptual
350
115F
  3
Dim
350
1160
  3
EdgeColorOff
350
1168
  3
Facepattern
350
1164
  3
Flat
350
1156
  3
FlatWithEdges
350
1157
  3
Gouraud
350
1158
  3
GouraudWithEdges
350
1159
  3
Hidden
350
115C
  3
JitterOff
350
1166
  3
Linepattern
350
1163
  3
OverhangOff
350
1167
  3
Realistic
350
115E
  3
Shaded
350
116D
  3
Shaded with edges
350
116C
  3
Shades of Gray
350
1169
  3
Sketchy
350
116A
  3
Thicken
350
1162
  3
Wireframe
350
115B
  3
X-Ray
350
116B
  0
DICTIONARY
  5
118F
102
{ACAD_REACTORS
330
C
102
}
330
C
100
AcDbDictionary
281
     1
  3
COLORDICT
350
1190
  3
MATERIALDICT
350
1191
  0
DICTIONARY
  5
F2
102
{ACAD_REACTORS
330
C
102
}
330
C
100
AcDbDictionary
281
     1
  3
CANNOSCALE
350
1195
  3
CMLEADERSTYLE
350
1188
  3
CTABLESTYLE
350
1187
  3
DIMASSOC
350
118A
  3
HIDETEXT
350
118B
  3
MSLTSCALE
350
1189
  3
SORTENTS
350
F3
  3
XCLIPFRAME
350
118C
  0
DICTIONARY
  5
23
102
{ACAD_REACTORS
330
C
102
}
330
C
100
AcDbDictionary
281
     1
  0
XRECORD
  5
1192
102
{ACAD_REACTORS
330
C
102
}
330
C
100
AcDbXrecord
280
     1
  1
DWGPROPS COOKIE
  2

  3

  4

  6

  7

  8
acae2
  9

300
=
301
=
302
=
303
=
304
=
305
=
306
=
307
=
308
=
309
=
 40
0.0
 41
2452955.862270498
 42
2460298.59073669
  1

 90
        0
  0
XRECORD
  5
1194
102
{ACAD_REACTORS
330
1193
102
}
330
1193
100
AcDbXrecord
280
     1
102
VTR_0.000_0.000_1.000_1.000_VISUALSTYLE
340
115A
102
VTR_0.000_0.000_1.000_1.000_GRIDDISPLAY
 70
     3
102
VTR_0.000_0.000_1.000_1.000_GRIDMAJOR
 70
     5
102
VTR_0.000_0.000_1.000_1.000_DEFAULTLIGHTING
280
     1
102
VTR_0.000_0.000_1.000_1.000_DEFAULTLIGHTINGTYPE
 70
     1
102
VTR_0.000_0.000_1.000_1.000_BRIGHTNESS
141
0.0
102
VTR_0.000_0.000_1.000_1.000_CONTRAST
142
0.0
  0
LAYOUT
  5
114F
102
{ACAD_REACTORS
330
114D
102
}
330
114D
100
AcDbPlotSettings
  1

  2
Acrobat Distiller
  4

  6

 40
0.0
 41
0.0
 42
0.0
 43
0.0
 44
0.0
 45
0.0
 46
0.0
 47
0.0
 48
0.0
 49
0.0
140
0.0
141
0.0
142
1.0
143
1.0
 70
  1712
 72
     0
 73
     0
 74
     0
  7

 75
     0
147
1.0
148
0.0
149
0.0
100
AcDbLayout
  1
Model
 70
     1
 71
     0
 10
0.0
 20
0.0
 11
12.0
 21
9.0
 12
0.0
 22
0.0
 32
0.0
 14
0.0
 24
0.0
 34
0.0
 15
0.0
 25
0.0
 35
0.0
146
0.0
 13
0.0
 23
0.0
 33
0.0
 16
1.0
 26
0.0
 36
0.0
 17
0.0
 27
1.0
 37
0.0
 76
     0
330
18
331
1154
  0
LAYOUT
  5
1150
102
{ACAD_REACTORS
330
114D
102
}
330
114D
100
AcDbPlotSettings
  1

  2
Acrobat Distiller
  4

  6

 40
0.0
 41
0.0
 42
0.0
 43
0.0
 44
0.0
 45
0.0
 46
0.0
 47
0.0
 48
0.0
 49
0.0
140
0.0
141
0.0
142
1.0
143
1.0
 70
   688
 72
     0
 73
     0
 74
     5
  7

 75
    16
147
1.0
148
0.0
149
0.0
100
AcDbLayout
  1
Presentación1
 70
     1
 71
     1
 10
0.0
 20
0.0
 11
12.0
 21
9.0
 12
0.0
 22
0.0
 32
0.0
 14
1.000000000000000E+20
 24
1.000000000000000E+20
 34
1.000000000000000E+20
 15
-1.000000000000000E+20
 25
-1.000000000000000E+20
 35
-1.000000000000000E+20
146
0.0
 13
0.0
 23
0.0
 33
0.0
 16
1.0
 26
0.0
 36
0.0
 17
0.0
 27
1.0
 37
0.0
 76
     0
330
15
  0
MATERIAL
  5
1181
102
{ACAD_REACTORS
330
114B
102
}
102
{ACAD_XDICTIONARY
360
1198
102
}
330
114B
100
AcDbMaterial
  1
ByBlock
  0
MATERIAL
  5
1180
102
{ACAD_REACTORS
330
114B
102
}
102
{ACAD_XDICTIONARY
360
1196
102
}
330
114B
100
AcDbMaterial
  1
ByLayer
  0
MATERIAL
  5
1182
102
{ACAD_REACTORS
330
114B
102
}
102
{ACAD_XDICTIONARY
360
119A
102
}
330
114B
100
AcDbMaterial
  1
Global
  0
MLEADERSTYLE
  5
1184
102
{ACAD_REACTORS
330
1183
102
}
102
{ACAD_XDICTIONARY
360
11CD
102
}
330
1183
100
AcDbMLeaderStyle
170
     2
171
     1
172
     0
 90
        2
 40
0.0
 41
0.0
173
     1
 91
-1056964608
340
12
 92
       -2
290
     1
 42
0.09
291
     1
 43
0.36
  3
Standard
341
0
 44
0.18
300

342
F
174
     1
178
     6
175
     1
176
     0
 93
-1056964608
 45
0.18
292
     0
297
     0
 46
0.18
343
0
 94
-1056964608
 47
1.0
 49
1.0
140
1.0
293
     1
141
0.0
294
     1
177
     0
142
1.0
295
     0
296
     0
143
0.125
1001
ACAD_MLEADERVER
1070
     2
  0
MLINESTYLE
  5
1C
102
{ACAD_REACTORS
330
1B
102
}
330
1B
100
AcDbMlineStyle
  2
STANDARD
 70
     0
  3

 62
   256
 51
90.0
 52
90.0
 71
     2
 49
0.5
 62
   256
  6
BYLAYER
 49
-0.5
 62
   256
  6
BYLAYER
  0
ACDBPLACEHOLDER
  5
114A
102
{ACAD_REACTORS
330
1149
102
}
330
1149
  0
SCALE
  5
116F
102
{ACAD_REACTORS
330
116E
102
}
330
116E
100
AcDbScale
 70
     0
300
1:1
140
1.0
141
1.0
290
     1
  0
SCALE
  5
1170
102
{ACAD_REACTORS
330
116E
102
}
330
116E
100
AcDbScale
 70
     0
300
1/128" = 1'-0"
140
0.0078125
141
12.0
290
     0
  0
SCALE
  5
1171
102
{ACAD_REACTORS
330
116E
102
}
330
116E
100
AcDbScale
 70
     0
300
1/64" = 1'-0"
140
0.015625
141
12.0
290
     0
  0
SCALE
  5
1172
102
{ACAD_REACTORS
330
116E
102
}
330
116E
100
AcDbScale
 70
     0
300
1/32" = 1'-0"
140
0.03125
141
12.0
290
     0
  0
SCALE
  5
1173
102
{ACAD_REACTORS
330
116E
102
}
330
116E
100
AcDbScale
 70
     0
300
1/16" = 1'-0"
140
0.0625
141
12.0
290
     0
  0
SCALE
  5
1174
102
{ACAD_REACTORS
330
116E
102
}
330
116E
100
AcDbScale
 70
     0
300
3/32" = 1'-0"
140
0.09375
141
12.0
290
     0
  0
SCALE
  5
1175
102
{ACAD_REACTORS
330
116E
102
}
330
116E
100
AcDbScale
 70
     0
300
1/8" = 1'-0"
140
0.125
141
12.0
290
     0
  0
SCALE
  5
1176
102
{ACAD_REACTORS
330
116E
102
}
330
116E
100
AcDbScale
 70
     0
300
3/16" = 1'-0"
140
0.1875
141
12.0
290
     0
  0
SCALE
  5
1177
102
{ACAD_REACTORS
330
116E
102
}
330
116E
100
AcDbScale
 70
     0
300
1/4" = 1'-0"
140
0.25
141
12.0
290
     0
  0
SCALE
  5
1178
102
{ACAD_REACTORS
330
116E
102
}
330
116E
100
AcDbScale
 70
     0
300
3/8" = 1'-0"
140
0.375
141
12.0
290
     0
  0
SCALE
  5
1179
102
{ACAD_REACTORS
330
116E
102
}
330
116E
100
AcDbScale
 70
     0
300
1/2" = 1'-0"
140
0.5
141
12.0
290
     0
  0
SCALE
  5
117A
102
{ACAD_REACTORS
330
116E
102
}
330
116E
100
AcDbScale
 70
     0
300
3/4" = 1'-0"
140
0.75
141
12.0
290
     0
  0
SCALE
  5
117B
102
{ACAD_REACTORS
330
116E
102
}
330
116E
100
AcDbScale
 70
     0
300
1" = 1'-0"
140
1.0
141
12.0
290
     0
  0
SCALE
  5
117C
102
{ACAD_REACTORS
330
116E
102
}
330
116E
100
AcDbScale
 70
     0
300
1-1/2" = 1'-0"
140
1.5
141
12.0
290
     0
  0
SCALE
  5
117D
102
{ACAD_REACTORS
330
116E
102
}
330
116E
100
AcDbScale
 70
     0
300
3" = 1'-0"
140
3.0
141
12.0
290
     0
  0
SCALE
  5
117E
102
{ACAD_REACTORS
330
116E
102
}
330
116E
100
AcDbScale
 70
     0
300
6" = 1'-0"
140
6.0
141
12.0
290
     0
  0
SCALE
  5
117F
102
{ACAD_REACTORS
330
116E
102
}
330
116E
100
AcDbScale
 70
     0
300
1'-0" = 1'-0"
140
12.0
141
12.0
290
     0
  0
TABLESTYLE
  5
1186
102
{ACAD_REACTORS
330
1185
102
}
330
1185
100
AcDbTableStyle
  3
Standard
 70
     0
 71
     0
 40
0.06
 41
0.06
280
     0
281
     0
  7
STANDARD
140
0.18
170
     2
 62
     0
 63
   257
283
     0
274
    -2
284
     1
 64
     0
275
    -2
285
     1
 65
     0
276
    -2
286
     1
 66
     0
277
    -2
287
     1
 67
     0
278
    -2
288
     1
 68
     0
279
    -2
289
     1
 69
     0
  7
STANDARD
140
0.25
170
     5
 62
     0
 63
   257
283
     0
274
    -2
284
     1
 64
     0
275
    -2
285
     1
 65
     0
276
    -2
286
     1
 66
     0
277
    -2
287
     1
 67
     0
278
    -2
288
     1
 68
     0
279
    -2
289
     1
 69
     0
  7
STANDARD
140
0.18
170
     5
 62
     0
 63
   257
283
     0
274
    -2
284
     1
 64
     0
275
    -2
285
     1
 65
     0
276
    -2
286
     1
 66
     0
277
    -2
287
     1
 67
     0
278
    -2
288
     1
 68
     0
279
    -2
289
     1
 69
     0
  0
VISUALSTYLE
  5
115A
102
{ACAD_REACTORS
330
1155
102
}
102
{ACAD_XDICTIONARY
360
11A4
102
}
330
1155
100
AcDbVisualStyle
  2
2dWireframe
 70
     4
 71
     0
 72
     2
 73
     0
 90
        0
 40
0.6
 41
30.0
 62
     5
 63
     7
 74
     1
 91
        4
 64
     7
 65
   257
 75
     1
175
     1
 42
1.0
 92
        0
 66
   257
 43
1.0
 76
     1
 77
     6
 78
     2
 67
     7
 79
     5
170
     0
171
     0
290
     0
174
     0
 93
        1
 44
0.0
173
     0
291
     0
 45
0.0
1001
ACAD
1000
AcDbSavedByObjectVersion
1070
     0
  0
VISUALSTYLE
  5
115D
102
{ACAD_REACTORS
330
1155
102
}
102
{ACAD_XDICTIONARY
360
11AA
102
}
330
1155
100
AcDbVisualStyle
  2
Basic
 70
     7
 71
     1
 72
     0
 73
     1
 90
        0
 40
0.6
 41
30.0
 62
     5
 63
     7
 74
     0
 91
        4
 64
     7
 65
   257
 75
     1
175
     1
 42
1.0
 92
        8
 66
     7
 43
1.0
 76
     1
 77
     6
 78
     2
 67
     7
 79
     5
170
     0
171
     0
290
     0
174
     0
 93
        1
 44
0.0
173
     0
291
     1
 45
0.0
1001
ACAD
1000
AcDbSavedByObjectVersion
1070
     0
  0
VISUALSTYLE
  5
1161
102
{ACAD_REACTORS
330
1155
102
}
102
{ACAD_XDICTIONARY
360
11B2
102
}
330
1155
100
AcDbVisualStyle
  2
Brighten
 70
    12
 71
     2
 72
     2
 73
     0
 90
        0
 40
0.6
 41
30.0
 62
     5
 63
     7
 74
     1
 91
        4
 64
     7
 65
   257
 75
     1
175
     1
 42
1.0
 92
        8
 66
     7
 43
1.0
 76
     1
 77
     6
 78
     2
 67
     7
 79
     5
170
     0
171
     0
290
     0
174
     0
 93
        1
 44
50.0
173
     0
291
     1
 45
0.0
1001
ACAD
1000
AcDbSavedByObjectVersion
1070
     0
  0
VISUALSTYLE
  5
1165
102
{ACAD_REACTORS
330
1155
102
}
102
{ACAD_XDICTIONARY
360
11BA
102
}
330
1155
100
AcDbVisualStyle
  2
ColorChange
 70
    16
 71
     2
 72
     2
 73
     3
 90
        0
 40
0.6
 41
30.0
 62
     5
 63
     8
 74
     1
 91
        4
 64
     7
 65
   257
 75
     1
175
     1
 42
1.0
 92
        8
 66
     8
 43
1.0
 76
     1
 77
     6
 78
     2
 67
     7
 79
     5
170
     0
171
     0
290
     0
174
     0
 93
        1
 44
0.0
173
     0
291
     1
 45
0.0
1001
ACAD
1000
AcDbSavedByObjectVersion
1070
     0
  0
VISUALSTYLE
  5
115F
102
{ACAD_REACTORS
330
1155
102
}
102
{ACAD_XDICTIONARY
360
11AE
102
}
330
1155
100
AcDbVisualStyle
  2
Conceptual
 70
     9
 71
     3
 72
     2
 73
     0
 90
        0
 40
0.6
 41
30.0
 62
     5
 63
     7
 74
     2
 91
        2
 64
     7
 65
   257
 75
     1
175
     1
 42
179.0
 92
        8
 66
     7
 43
1.0
 76
     1
 77
     6
 78
     2
 67
     7
 79
     3
170
     0
171
     0
290
     0
174
     0
 93
        1
 44
0.0
173
     0
291
     0
 45
0.0
1001
ACAD
1000
AcDbSavedByObjectVersion
1070
     0
  0
VISUALSTYLE
  5
1160
102
{ACAD_REACTORS
330
1155
102
}
102
{ACAD_XDICTIONARY
360
11B0
102
}
330
1155
100
AcDbVisualStyle
  2
Dim
 70
    11
 71
     2
 72
     2
 73
     0
 90
        0
 40
0.6
 41
30.0
 62
     5
 63
     7
 74
     1
 91
        4
 64
     7
 65
   257
 75
     1
175
     1
 42
1.0
 92
        8
 66
     7
 43
1.0
 76
     1
 77
     6
 78
     2
 67
     7
 79
     5
170
     0
171
     0
290
     0
174
     0
 93
        1
 44
-50.0
173
     0
291
     1
 45
0.0
1001
ACAD
1000
AcDbSavedByObjectVersion
1070
     0
  0
VISUALSTYLE
  5
1168
102
{ACAD_REACTORS
330
1155
102
}
102
{ACAD_XDICTIONARY
360
11C0
102
}
330
1155
100
AcDbVisualStyle
  2
EdgeColorOff
 70
    22
 71
     2
 72
     2
 73
     0
 90
        0
 40
0.6
 41
30.0
 62
     5
 63
     7
 74
     1
 91
        4
 64
     7
 65
   257
 75
     1
175
     1
 42
1.0
 92
        8
 66
     7
 43
1.0
 76
     1
 77
     6
 78
     2
 67
     7
 79
     5
170
     0
171
     0
290
     0
174
     0
 93
        1
 44
0.0
173
     0
291
     1
 45
0.0
1001
ACAD
1000
AcDbSavedByObjectVersion
1070
     0
  0
VISUALSTYLE
  5
1164
102
{ACAD_REACTORS
330
1155
102
}
102
{ACAD_XDICTIONARY
360
11B8
102
}
330
1155
100
AcDbVisualStyle
  2
Facepattern
 70
    15
 71
     2
 72
     2
 73
     0
 90
        0
 40
0.6
 41
30.0
 62
     5
 63
     7
 74
     1
 91
        4
 64
     7
 65
   257
 75
     1
175
     1
 42
1.0
 92
        8
 66
     7
 43
1.0
 76
     1
 77
     6
 78
     2
 67
     7
 79
     5
170
     0
171
     0
290
     0
174
     0
 93
        1
 44
0.0
173
     0
291
     1
 45
0.0
1001
ACAD
1000
AcDbSavedByObjectVersion
1070
     0
  0
VISUALSTYLE
  5
1156
102
{ACAD_REACTORS
330
1155
102
}
102
{ACAD_XDICTIONARY
360
119C
102
}
330
1155
100
AcDbVisualStyle
  2
Flat
 70
     0
 71
     2
 72
     1
 73
     1
 90
        2
 40
0.6
 41
30.0
 62
     5
 63
     7
 74
     0
 91
        0
 64
     7
 65
   257
 75
     1
175
     1
 42
1.0
 92
        8
 66
     7
 43
1.0
 76
     1
 77
     6
 78
     2
 67
     7
 79
     5
170
     0
171
     0
290
     0
174
     0
 93
       13
 44
0.0
173
     0
291
     1
 45
0.0
1001
ACAD
1000
AcDbSavedByObjectVersion
1070
     0
  0
VISUALSTYLE
  5
1157
102
{ACAD_REACTORS
330
1155
102
}
102
{ACAD_XDICTIONARY
360
119E
102
}
330
1155
100
AcDbVisualStyle
  2
FlatWithEdges
 70
     1
 71
     2
 72
     1
 73
     1
 90
        2
 40
0.6
 41
30.0
 62
     5
 63
     7
 74
     1
 91
        0
 64
     7
 65
   257
 75
     1
175
     1
 42
1.0
 92
        0
 66
   257
 43
1.0
 76
     1
 77
     6
 78
     2
 67
     7
 79
     5
170
     0
171
     0
290
     0
174
     0
 93
       13
 44
0.0
173
     0
291
     1
 45
0.0
1001
ACAD
1000
AcDbSavedByObjectVersion
1070
     0
  0
VISUALSTYLE
  5
1158
102
{ACAD_REACTORS
330
1155
102
}
102
{ACAD_XDICTIONARY
360
11A0
102
}
330
1155
100
AcDbVisualStyle
  2
Gouraud
 70
     2
 71
     2
 72
     2
 73
     1
 90
        2
 40
0.6
 41
30.0
 62
     5
 63
     7
 74
     0
 91
        0
 64
     7
 65
   257
 75
     1
175
     1
 42
1.0
 92
        0
 66
     7
 43
1.0
 76
     1
 77
     6
 78
     2
 67
     7
 79
     5
170
     0
171
     0
290
     0
174
     0
 93
       13
 44
0.0
173
     0
291
     1
 45
0.0
1001
ACAD
1000
AcDbSavedByObjectVersion
1070
     0
  0
VISUALSTYLE
  5
1159
102
{ACAD_REACTORS
330
1155
102
}
102
{ACAD_XDICTIONARY
360
11A2
102
}
330
1155
100
AcDbVisualStyle
  2
GouraudWithEdges
 70
     3
 71
     2
 72
     2
 73
     1
 90
        2
 40
0.6
 41
30.0
 62
     5
 63
     7
 74
     1
 91
        0
 64
     7
 65
   257
 75
     1
175
     1
 42
1.0
 92
        0
 66
   257
 43
1.0
 76
     1
 77
     6
 78
     2
 67
     7
 79
     5
170
     0
171
     0
290
     0
174
     0
 93
       13
 44
0.0
173
     0
291
     1
 45
0.0
1001
ACAD
1000
AcDbSavedByObjectVersion
1070
     0
  0
VISUALSTYLE
  5
115C
102
{ACAD_REACTORS
330
1155
102
}
102
{ACAD_XDICTIONARY
360
11A8
102
}
330
1155
100
AcDbVisualStyle
  2
Hidden
 70
     6
 71
     1
 72
     2
 73
     2
 90
        0
 40
0.6
 41
30.0
 62
     5
 63
     7
 74
     2
 91
        2
 64
     7
 65
   257
 75
     2
175
     1
 42
40.0
 92
        0
 66
   257
 43
1.0
 76
     1
 77
     6
 78
     2
 67
     7
 79
     3
170
     0
171
     0
290
     0
174
     0
 93
        1
 44
0.0
173
     0
291
     0
 45
0.0
1001
ACAD
1000
AcDbSavedByObjectVersion
1070
     0
  0
VISUALSTYLE
  5
1166
102
{ACAD_REACTORS
330
1155
102
}
102
{ACAD_XDICTIONARY
360
11BC
102
}
330
1155
100
AcDbVisualStyle
  2
JitterOff
 70
    20
 71
     2
 72
     2
 73
     0
 90
        0
 40
0.6
 41
30.0
 62
     5
 63
     7
 74
     1
 91
        4
 64
     7
 65
   257
 75
     1
175
     1
 42
1.0
 92
       10
 66
     7
 43
1.0
 76
     1
 77
     6
 78
     2
 67
     7
 79
     5
170
     0
171
     0
290
     0
174
     0
 93
        1
 44
0.0
173
     0
291
     1
 45
0.0
1001
ACAD
1000
AcDbSavedByObjectVersion
1070
     0
  0
VISUALSTYLE
  5
1163
102
{ACAD_REACTORS
330
1155
102
}
102
{ACAD_XDICTIONARY
360
11B6
102
}
330
1155
100
AcDbVisualStyle
  2
Linepattern
 70
    14
 71
     2
 72
     2
 73
     0
 90
        0
 40
0.6
 41
30.0
 62
     5
 63
     7
 74
     1
 91
        4
 64
     7
 65
   257
 75
     7
175
     7
 42
1.0
 92
        8
 66
     7
 43
1.0
 76
     1
 77
     6
 78
     2
 67
     7
 79
     5
170
     0
171
     0
290
     0
174
     0
 93
        1
 44
0.0
173
     0
291
     1
 45
0.0
1001
ACAD
1000
AcDbSavedByObjectVersion
1070
     0
  0
VISUALSTYLE
  5
1167
102
{ACAD_REACTORS
330
1155
102
}
102
{ACAD_XDICTIONARY
360
11BE
102
}
330
1155
100
AcDbVisualStyle
  2
OverhangOff
 70
    21
 71
     2
 72
     2
 73
     0
 90
        0
 40
0.6
 41
30.0
 62
     5
 63
     7
 74
     1
 91
        4
 64
     7
 65
   257
 75
     1
175
     1
 42
1.0
 92
        9
 66
     7
 43
1.0
 76
     1
 77
     6
 78
     2
 67
     7
 79
     5
170
     0
171
     0
290
     0
174
     0
 93
        1
 44
0.0
173
     0
291
     1
 45
0.0
1001
ACAD
1000
AcDbSavedByObjectVersion
1070
     0
  0
VISUALSTYLE
  5
115E
102
{ACAD_REACTORS
330
1155
102
}
102
{ACAD_XDICTIONARY
360
11AC
102
}
330
1155
100
AcDbVisualStyle
  2
Realistic
 70
     8
 71
     2
 72
     3
 73
     0
 90
        2
 40
0.6
 41
30.0
 62
     5
 63
     7
 74
     0
 91
        0
 64
     7
 65
   257
 75
     1
175
     1
 42
1.0
 92
        8
 66
   257
 43
1.0
 76
     1
 77
     6
 78
     2
 67
     7
 79
     3
170
     0
171
     0
290
     0
174
     0
 93
       13
 44
0.0
173
     0
291
     0
 45
0.0
1001
ACAD
1000
AcDbSavedByObjectVersion
1070
     0
  0
VISUALSTYLE
  5
116D
102
{ACAD_REACTORS
330
1155
102
}
102
{ACAD_XDICTIONARY
360
11CA
102
}
330
1155
100
AcDbVisualStyle
  2
Shaded
 70
    27
 71
     2
 72
     2
 73
     1
 90
        2
 40
0.6
 41
30.0
 62
     5
 63
     7
 74
     0
 91
        4
 64
     7
 65
   257
 75
     1
175
     1
 42
1.0
 92
        8
 66
   257
 43
1.0
 76
     1
 77
     6
 78
     2
 67
     8
 79
     3
170
     0
171
     0
290
     0
174
     0
 93
        5
 44
0.0
173
     0
291
     0
 45
0.0
1001
ACAD
1000
AcDbSavedByObjectVersion
1070
     0
  0
VISUALSTYLE
  5
116C
102
{ACAD_REACTORS
330
1155
102
}
102
{ACAD_XDICTIONARY
360
11C8
102
}
330
1155
100
AcDbVisualStyle
  2
Shaded with edges
 70
    26
 71
     2
 72
     2
 73
     1
 90
        2
 40
0.6
 41
30.0
 62
     5
 63
     7
 74
     1
 91
       10
 64
     7
 65
   257
 75
     2
175
     1
 42
1.0
 92
        8
 66
   257
 43
1.0
 76
     1
 77
     6
 78
     2
 67
     7
 79
     3
170
     0
171
     0
290
     0
174
     0
 93
        5
 44
0.0
173
     0
291
     0
 45
0.0
1001
ACAD
1000
AcDbSavedByObjectVersion
1070
     0
  0
VISUALSTYLE
  5
1169
102
{ACAD_REACTORS
330
1155
102
}
102
{ACAD_XDICTIONARY
360
11C2
102
}
330
1155
100
AcDbVisualStyle
  2
Shades of Gray
 70
    23
 71
     2
 72
     2
 73
     3
 90
        0
 40
0.6
 41
30.0
 62
     5
 63
     7
 74
     2
 91
        2
 64
     7
 65
     7
 75
     1
175
     1
 42
40.0
 92
        8
 66
     7
 43
1.0
 76
     1
 77
     6
 78
     2
 67
     7
 79
     3
170
     0
171
     0
290
     0
174
     0
 93
        1
 44
0.0
173
     0
291
     0
 45
0.0
1001
ACAD
1000
AcDbSavedByObjectVersion
1070
     0
  0
VISUALSTYLE
  5
116A
102
{ACAD_REACTORS
330
1155
102
}
102
{ACAD_XDICTIONARY
360
11C4
102
}
330
1155
100
AcDbVisualStyle
  2
Sketchy
 70
    24
 71
     1
 72
     2
 73
     2
 90
        0
 40
0.6
 41
30.0
 62
     5
 63
     7
 74
     2
 91
        2
 64
     7
 65
     7
 75
     1
175
     1
 42
40.0
 92
       11
 66
     7
 43
1.0
 76
     1
 77
     6
 78
     2
 67
     7
 79
     6
170
     0
171
     0
290
     0
174
     0
 93
        1
 44
0.0
173
     0
291
     0
 45
0.0
1001
ACAD
1000
AcDbSavedByObjectVersion
1070
     0
  0
VISUALSTYLE
  5
1162
102
{ACAD_REACTORS
330
1155
102
}
102
{ACAD_XDICTIONARY
360
11B4
102
}
330
1155
100
AcDbVisualStyle
  2
Thicken
 70
    13
 71
     2
 72
     2
 73
     0
 90
        0
 40
0.6
 41
30.0
 62
     5
 63
     7
 74
     1
 91
        4
 64
     7
 65
   257
 75
     1
175
     1
 42
1.0
 92
       12
 66
     7
 43
1.0
 76
     1
 77
     6
 78
     2
 67
     7
 79
     5
170
     0
171
     0
290
     0
174
     0
 93
        1
 44
0.0
173
     0
291
     1
 45
0.0
1001
ACAD
1000
AcDbSavedByObjectVersion
1070
     0
  0
VISUALSTYLE
  5
115B
102
{ACAD_REACTORS
330
1155
102
}
102
{ACAD_XDICTIONARY
360
11A6
102
}
330
1155
100
AcDbVisualStyle
  2
Wireframe
 70
     5
 71
     0
 72
     2
 73
     0
 90
        0
 40
0.6
 41
30.0
 62
     5
 63
     7
 74
     1
 91
        4
 64
     7
 65
   257
 75
     1
175
     1
 42
1.0
 92
        0
 66
   257
 43
1.0
 76
     1
 77
     6
 78
     2
 67
     7
 79
     3
170
     0
171
     0
290
     0
174
     0
 93
        1
 44
0.0
173
     0
291
     0
 45
0.0
1001
ACAD
1000
AcDbSavedByObjectVersion
1070
     0
  0
VISUALSTYLE
  5
116B
102
{ACAD_REACTORS
330
1155
102
}
102
{ACAD_XDICTIONARY
360
11C6
102
}
330
1155
100
AcDbVisualStyle
  2
X-Ray
 70
    25
 71
     2
 72
     2
 73
     1
 90
        1
 40
0.5
 41
30.0
 62
     5
 63
     7
 74
     1
 91
        0
 64
     7
 65
   257
 75
     1
175
     1
 42
1.0
 92
        8
 66
     7
 43
1.0
 76
     1
 77
     6
 78
     2
 67
     7
 79
     3
170
     0
171
     0
290
     0
174
     0
 93
       13
 44
0.0
173
     0
291
     0
 45
0.0
1001
ACAD
1000
AcDbSavedByObjectVersion
1070
     0
  0
XRECORD
  5
1190
102
{ACAD_REACTORS
330
118F
102
}
330
118F
100
AcDbXrecord
280
     1
340
114C
  0
XRECORD
  5
1191
102
{ACAD_REACTORS
330
118F
102
}
330
118F
100
AcDbXrecord
280
     1
340
114B
  0
DICTIONARYVAR
  5
1195
102
{ACAD_REACTORS
330
F2
102
}
330
F2
100
DictionaryVariables
280
     0
  1
1:1
  0
DICTIONARYVAR
  5
1188
102
{ACAD_REACTORS
330
F2
102
}
330
F2
100
DictionaryVariables
280
     0
  1
Standard
  0
DICTIONARYVAR
  5
1187
102
{ACAD_REACTORS
330
F2
102
}
330
F2
100
DictionaryVariables
280
     0
  1
Standard
  0
DICTIONARYVAR
  5
118A
102
{ACAD_REACTORS
330
F2
102
}
330
F2
100
DictionaryVariables
280
     0
  1
1
  0
DICTIONARYVAR
  5
118B
102
{ACAD_REACTORS
330
F2
102
}
330
F2
100
DictionaryVariables
280
     0
  1
0
  0
DICTIONARYVAR
  5
1189
102
{ACAD_REACTORS
330
F2
102
}
330
F2
100
DictionaryVariables
280
     0
  1
0
  0
DICTIONARYVAR
  5
F3
102
{ACAD_REACTORS
330
F2
102
}
330
F2
100
DictionaryVariables
280
     0
  1
96
  0
DICTIONARYVAR
  5
118C
102
{ACAD_REACTORS
330
F2
102
}
330
F2
100
DictionaryVariables
280
     0
  1
0
  0
DICTIONARY
  5
1198
330
1181
100
AcDbDictionary
280
     1
281
     1
  3
ACAD_XREC_ROUNDTRIP
360
1199
  0
DICTIONARY
  5
1196
330
1180
100
AcDbDictionary
280
     1
281
     1
  3
ACAD_XREC_ROUNDTRIP
360
1197
  0
DICTIONARY
  5
119A
330
1182
100
AcDbDictionary
280
     1
281
     1
  3
ACAD_XREC_ROUNDTRIP
360
119B
  0
DICTIONARY
  5
11CD
330
1184
100
AcDbDictionary
280
     1
281
     1
  3
ACAD_XREC_ROUNDTRIP
360
11CE
  0
DICTIONARY
  5
11A4
330
115A
100
AcDbDictionary
280
     1
281
     1
  3
ACAD_XREC_ROUNDTRIP
360
11A5
  0
DICTIONARY
  5
11AA
330
115D
100
AcDbDictionary
280
     1
281
     1
  3
ACAD_XREC_ROUNDTRIP
360
11AB
  0
DICTIONARY
  5
11B2
330
1161
100
AcDbDictionary
280
     1
281
     1
  3
ACAD_XREC_ROUNDTRIP
360
11B3
  0
DICTIONARY
  5
11BA
330
1165
100
AcDbDictionary
280
     1
281
     1
  3
ACAD_XREC_ROUNDTRIP
360
11BB
  0
DICTIONARY
  5
11AE
330
115F
100
AcDbDictionary
280
     1
281
     1
  3
ACAD_XREC_ROUNDTRIP
360
11AF
  0
DICTIONARY
  5
11B0
330
1160
100
AcDbDictionary
280
     1
281
     1
  3
ACAD_XREC_ROUNDTRIP
360
11B1
  0
DICTIONARY
  5
11C0
330
1168
100
AcDbDictionary
280
     1
281
     1
  3
ACAD_XREC_ROUNDTRIP
360
11C1
  0
DICTIONARY
  5
11B8
330
1164
100
AcDbDictionary
280
     1
281
     1
  3
ACAD_XREC_ROUNDTRIP
360
11B9
  0
DICTIONARY
  5
119C
330
1156
100
AcDbDictionary
280
     1
281
     1
  3
ACAD_XREC_ROUNDTRIP
360
119D
  0
DICTIONARY
  5
119E
330
1157
100
AcDbDictionary
280
     1
281
     1
  3
ACAD_XREC_ROUNDTRIP
360
119F
  0
DICTIONARY
  5
11A0
330
1158
100
AcDbDictionary
280
     1
281
     1
  3
ACAD_XREC_ROUNDTRIP
360
11A1
  0
DICTIONARY
  5
11A2
330
1159
100
AcDbDictionary
280
     1
281
     1
  3
ACAD_XREC_ROUNDTRIP
360
11A3
  0
DICTIONARY
  5
11A8
330
115C
100
AcDbDictionary
280
     1
281
     1
  3
ACAD_XREC_ROUNDTRIP
360
11A9
  0
DICTIONARY
  5
11BC
330
1166
100
AcDbDictionary
280
     1
281
     1
  3
ACAD_XREC_ROUNDTRIP
360
11BD
  0
DICTIONARY
  5
11B6
330
1163
100
AcDbDictionary
280
     1
281
     1
  3
ACAD_XREC_ROUNDTRIP
360
11B7
  0
DICTIONARY
  5
11BE
330
1167
100
AcDbDictionary
280
     1
281
     1
  3
ACAD_XREC_ROUNDTRIP
360
11BF
  0
DICTIONARY
  5
11AC
330
115E
100
AcDbDictionary
280
     1
281
     1
  3
ACAD_XREC_ROUNDTRIP
360
11AD
  0
DICTIONARY
  5
11CA
330
116D
100
AcDbDictionary
280
     1
281
     1
  3
ACAD_XREC_ROUNDTRIP
360
11CB
  0
DICTIONARY
  5
11C8
330
116C
100
AcDbDictionary
280
     1
281
     1
  3
ACAD_XREC_ROUNDTRIP
360
11C9
  0
DICTIONARY
  5
11C2
330
1169
100
AcDbDictionary
280
     1
281
     1
  3
ACAD_XREC_ROUNDTRIP
360
11C3
  0
DICTIONARY
  5
11C4
330
116A
100
AcDbDictionary
280
     1
281
     1
  3
ACAD_XREC_ROUNDTRIP
360
11C5
  0
DICTIONARY
  5
11B4
330
1162
100
AcDbDictionary
280
     1
281
     1
  3
ACAD_XREC_ROUNDTRIP
360
11B5
  0
DICTIONARY
  5
11A6
330
115B
100
AcDbDictionary
280
     1
281
     1
  3
ACAD_XREC_ROUNDTRIP
360
11A7
  0
DICTIONARY
  5
11C6
330
116B
100
AcDbDictionary
280
     1
281
     1
  3
ACAD_XREC_ROUNDTRIP
360
11C7
  0
XRECORD
  5
1199
102
{ACAD_REACTORS
330
1198
102
}
330
1198
100
AcDbXrecord
280
     1
102
MATERIAL
148
0.0
149
0.0
149
0.0
 93
        0
 94
      127
282
     0
 72
     1
 77
     1
171
     1
175
     1
179
     1
273
     0
  0
XRECORD
  5
1197
102
{ACAD_REACTORS
330
1196
102
}
330
1196
100
AcDbXrecord
280
     1
102
MATERIAL
148
0.0
149
0.0
149
0.0
 93
        0
 94
      127
282
     0
 72
     1
 77
     1
171
     1
175
     1
179
     1
273
     0
  0
XRECORD
  5
119B
102
{ACAD_REACTORS
330
119A
102
}
330
119A
100
AcDbXrecord
280
     1
102
MATERIAL
148
0.0
149
0.0
149
0.0
 93
        0
 94
      127
282
     0
 72
     1
 77
     1
171
     1
175
     1
179
     1
273
     0
  0
XRECORD
  5
11CE
102
{ACAD_REACTORS
330
11CD
102
}
330
11CD
100
AcDbXrecord
280
     1
102
ACAD_ROUNDTRIP_2010_MLEADER_STYLE
  0
XRECORD
  5
11A5
102
{ACAD_REACTORS
330
11A4
102
}
330
11A4
100
AcDbXrecord
280
     1
102
RTVSPropertyOp0
 70
     1
102
RTVSPropertyOp1
 70
     1
102
RTVSPropertyOp2
 70
     1
102
RTVSPropertyOp3
 70
     1
102
RTVSPropertyOp4
 70
     1
102
RTVSPropertyOp5
 70
     1
102
RTVSPropertyOp6
 70
     1
102
RTVSPropertyOp7
 70
     1
102
RTVSPropertyOp8
 70
     1
102
RTVSPropertyOp9
 70
     1
102
RTVSPropertyOp10
 70
     1
102
RTVSPropertyOp11
 70
     1
102
RTVSPropertyOp12
 70
     1
102
RTVSPropertyOp13
 70
     1
102
RTVSPropertyOp14
 70
     1
102
RTVSPropertyOp15
 70
     1
102
RTVSPropertyOp16
 70
     1
102
RTVSPropertyOp17
 70
     1
102
RTVSPropertyOp18
 70
     1
102
RTVSPropertyOp19
 70
     1
102
RTVSPropertyOp20
 70
     1
102
RTVSPropertyOp21
 70
     1
102
RTVSPropertyOp22
 70
     1
102
RTVSPropertyOp23
 70
     1
102
RTVSPropertyOp24
 70
     1
102
RTVSPropertyOp25
 70
     1
102
RTVSPropertyOp26
 70
     1
102
RTVSPropertyOp27
 70
     1
102
RTVSPropertyOp28
 70
     1
102
RTVSPropertyOp29
 70
     1
102
RTVSPropertyOp30
 70
     1
102
RTVSPropertyOp31
 70
     1
102
RTVSPropertyOp32
 70
     1
102
RTVSPropertyOp33
 70
     1
102
RTVSPropertyOp34
 70
     1
102
RTVSPropertyOp35
 70
     1
102
RTVSPropertyOp36
 70
     1
102
RTVSPropertyOp37
 70
     1
102
RTVSPropertyOp38
 70
     1
102
RTVSPropertyOp39
 70
     1
102
RTVSPropertyOp40
 70
     1
102
RTVSPropertyOp41
 70
     1
102
RTVSPropertyOp42
 70
     1
102
RTVSPropertyOp43
 70
     1
102
RTVSPropertyOp44
 70
     1
102
RTVSPropertyOp45
 70
     1
102
RTVSPropertyOp46
 70
     1
102
RTVSPropertyOp47
 70
     1
102
RTVSPropertyOp48
 70
     1
102
RTVSPropertyOp49
 70
     1
102
RTVSPropertyOp50
 70
     1
102
RTVSPropertyOp51
 70
     0
102
RTVSPropertyOp52
 70
     0
102
RTVSPropertyOp53
 70
     1
102
RTVSPropertyOp54
 70
     1
102
RTVSPropertyOp55
 70
     1
102
RTVSPropertyOp56
 70
     1
102
RTVSPropertyOp57
 70
     1
102
RTVSPost2010Prop28
280
     1
102
RTVSPost2010PropOp28
 70
     1
102
RTVSPost2010Prop29
280
     1
102
RTVSPost2010PropOp29
 70
     1
102
RTVSPost2010Prop30
280
     0
102
RTVSPost2010PropOp30
 70
     1
102
RTVSPost2010Prop31
280
     0
102
RTVSPost2010PropOp31
 70
     1
102
RTVSPost2010Prop32
280
     0
102
RTVSPost2010PropOp32
 70
     1
102
RTVSPost2010Prop33
280
     0
102
RTVSPost2010PropOp33
 70
     1
102
RTVSPost2010Prop34
280
     0
102
RTVSPost2010PropOp34
 70
     1
102
RTVSPost2010Prop35
280
     0
102
RTVSPost2010PropOp35
 70
     1
102
RTVSPost2010Prop36
280
     0
102
RTVSPost2010PropOp36
 70
     1
102
RTVSPost2010Prop37
 90
       50
102
RTVSPost2010PropOp37
 70
     1
102
RTVSPost2010Prop38
140
0.0
102
RTVSPost2010PropOp38
 70
     1
102
RTVSPost2010Prop39
140
1.0
102
RTVSPost2010PropOp39
 70
     1
102
RTVSPost2010Prop40
 90
        0
102
RTVSPost2010PropOp40
 70
     1
102
RTVSPost2010Prop41ColorIndex
 90
       18
102
RTVSPost2010Prop41ColorRGB
 90
        0
102
RTVSPost2010PropOp41
 70
     1
102
RTVSPost2010Prop42
 90
       50
102
RTVSPost2010PropOp42
 70
     1
102
RTVSPost2010Prop43
 90
        3
102
RTVSPost2010PropOp43
 70
     1
102
RTVSPost2010Prop44ColorIndex
 90
        5
102
RTVSPost2010Prop44ColorRGB
 90
      255
102
RTVSPost2010PropOp44
 70
     1
102
RTVSPost2010Prop45
280
     0
102
RTVSPost2010PropOp45
 70
     1
102
RTVSPost2010Prop46
 90
       50
102
RTVSPost2010PropOp46
 70
     1
102
RTVSPost2010Prop47
 90
       50
102
RTVSPost2010PropOp47
 70
     1
102
RTVSPost2010Prop48
 90
       50
102
RTVSPost2010PropOp48
 70
     1
102
RTVSPost2010Prop49
280
     0
102
RTVSPost2010PropOp49
 70
     1
102
RTVSPost2010Prop50
 90
       50
102
RTVSPost2010PropOp50
 70
     1
102
RTVSPost2010Prop51ColorIndex
 90
      256
102
RTVSPost2010Prop51ColorRGB
 90
-16777216
102
RTVSPost2010PropOp51
 70
     0
102
RTVSPost2010Prop52
140
1.0
102
RTVSPost2010PropOp52
 70
     0
102
RTVSPost2010Prop53
 90
        2
102
RTVSPost2010PropOp53
 70
     1
102
RTVSPost2010Prop54
  1
strokes_ogs.tif
102
RTVSPost2010PropOp54
 70
     1
102
RTVSPost2010Prop55
280
     0
102
RTVSPost2010PropOp55
 70
     1
102
RTVSPost2010Prop56
140
1.0
102
RTVSPost2010PropOp56
 70
     1
102
RTVSPost2010Prop57
140
1.0
102
RTVSPost2010PropOp57
 70
     1
  0
XRECORD
  5
11AB
102
{ACAD_REACTORS
330
11AA
102
}
330
11AA
100
AcDbXrecord
280
     1
102
RTVSPropertyOp0
 70
     1
102
RTVSPropertyOp1
 70
     1
102
RTVSPropertyOp2
 70
     1
102
RTVSPropertyOp3
 70
     1
102
RTVSPropertyOp4
 70
     1
102
RTVSPropertyOp5
 70
     1
102
RTVSPropertyOp6
 70
     1
102
RTVSPropertyOp7
 70
     1
102
RTVSPropertyOp8
 70
     1
102
RTVSPropertyOp9
 70
     1
102
RTVSPropertyOp10
 70
     1
102
RTVSPropertyOp11
 70
     1
102
RTVSPropertyOp12
 70
     1
102
RTVSPropertyOp13
 70
     1
102
RTVSPropertyOp14
 70
     1
102
RTVSPropertyOp15
 70
     1
102
RTVSPropertyOp16
 70
     1
102
RTVSPropertyOp17
 70
     1
102
RTVSPropertyOp18
 70
     1
102
RTVSPropertyOp19
 70
     1
102
RTVSPropertyOp20
 70
     1
102
RTVSPropertyOp21
 70
     1
102
RTVSPropertyOp22
 70
     1
102
RTVSPropertyOp23
 70
     1
102
RTVSPropertyOp24
 70
     1
102
RTVSPropertyOp25
 70
     1
102
RTVSPropertyOp26
 70
     1
102
RTVSPropertyOp27
 70
     1
102
RTVSPropertyOp28
 70
     1
102
RTVSPropertyOp29
 70
     1
102
RTVSPropertyOp30
 70
     1
102
RTVSPropertyOp31
 70
     1
102
RTVSPropertyOp32
 70
     1
102
RTVSPropertyOp33
 70
     1
102
RTVSPropertyOp34
 70
     1
102
RTVSPropertyOp35
 70
     1
102
RTVSPropertyOp36
 70
     1
102
RTVSPropertyOp37
 70
     1
102
RTVSPropertyOp38
 70
     1
102
RTVSPropertyOp39
 70
     1
102
RTVSPropertyOp40
 70
     1
102
RTVSPropertyOp41
 70
     1
102
RTVSPropertyOp42
 70
     1
102
RTVSPropertyOp43
 70
     1
102
RTVSPropertyOp44
 70
     1
102
RTVSPropertyOp45
 70
     1
102
RTVSPropertyOp46
 70
     1
102
RTVSPropertyOp47
 70
     1
102
RTVSPropertyOp48
 70
     1
102
RTVSPropertyOp49
 70
     1
102
RTVSPropertyOp50
 70
     1
102
RTVSPropertyOp51
 70
     0
102
RTVSPropertyOp52
 70
     0
102
RTVSPropertyOp53
 70
     1
102
RTVSPropertyOp54
 70
     1
102
RTVSPropertyOp55
 70
     1
102
RTVSPropertyOp56
 70
     1
102
RTVSPropertyOp57
 70
     1
102
RTVSPost2010Prop28
280
     0
102
RTVSPost2010PropOp28
 70
     1
102
RTVSPost2010Prop29
280
     1
102
RTVSPost2010PropOp29
 70
     1
102
RTVSPost2010Prop30
280
     1
102
RTVSPost2010PropOp30
 70
     1
102
RTVSPost2010Prop31
280
     0
102
RTVSPost2010PropOp31
 70
     1
102
RTVSPost2010Prop32
280
     0
102
RTVSPost2010PropOp32
 70
     1
102
RTVSPost2010Prop33
280
     0
102
RTVSPost2010PropOp33
 70
     1
102
RTVSPost2010Prop34
280
     0
102
RTVSPost2010PropOp34
 70
     1
102
RTVSPost2010Prop35
280
     0
102
RTVSPost2010PropOp35
 70
     1
102
RTVSPost2010Prop36
280
     0
102
RTVSPost2010PropOp36
 70
     1
102
RTVSPost2010Prop37
 90
       50
102
RTVSPost2010PropOp37
 70
     1
102
RTVSPost2010Prop38
140
0.0
102
RTVSPost2010PropOp38
 70
     1
102
RTVSPost2010Prop39
140
1.0
102
RTVSPost2010PropOp39
 70
     1
102
RTVSPost2010Prop40
 90
        0
102
RTVSPost2010PropOp40
 70
     1
102
RTVSPost2010Prop41ColorIndex
 90
       18
102
RTVSPost2010Prop41ColorRGB
 90
        0
102
RTVSPost2010PropOp41
 70
     1
102
RTVSPost2010Prop42
 90
       50
102
RTVSPost2010PropOp42
 70
     1
102
RTVSPost2010Prop43
 90
        3
102
RTVSPost2010PropOp43
 70
     1
102
RTVSPost2010Prop44ColorIndex
 90
        5
102
RTVSPost2010Prop44ColorRGB
 90
      255
102
RTVSPost2010PropOp44
 70
     1
102
RTVSPost2010Prop45
280
     0
102
RTVSPost2010PropOp45
 70
     1
102
RTVSPost2010Prop46
 90
       50
102
RTVSPost2010PropOp46
 70
     1
102
RTVSPost2010Prop47
 90
       50
102
RTVSPost2010PropOp47
 70
     1
102
RTVSPost2010Prop48
 90
       50
102
RTVSPost2010PropOp48
 70
     1
102
RTVSPost2010Prop49
280
     0
102
RTVSPost2010PropOp49
 70
     1
102
RTVSPost2010Prop50
 90
       50
102
RTVSPost2010PropOp50
 70
     1
102
RTVSPost2010Prop51ColorIndex
 90
      256
102
RTVSPost2010Prop51ColorRGB
 90
-16777216
102
RTVSPost2010PropOp51
 70
     0
102
RTVSPost2010Prop52
140
1.0
102
RTVSPost2010PropOp52
 70
     0
102
RTVSPost2010Prop53
 90
        2
102
RTVSPost2010PropOp53
 70
     1
102
RTVSPost2010Prop54
  1
strokes_ogs.tif
102
RTVSPost2010PropOp54
 70
     1
102
RTVSPost2010Prop55
280
     0
102
RTVSPost2010PropOp55
 70
     1
102
RTVSPost2010Prop56
140
1.0
102
RTVSPost2010PropOp56
 70
     1
102
RTVSPost2010Prop57
140
1.0
102
RTVSPost2010PropOp57
 70
     1
  0
XRECORD
  5
11B3
102
{ACAD_REACTORS
330
11B2
102
}
330
11B2
100
AcDbXrecord
280
     1
102
RTVSPropertyOp0
 70
     1
102
RTVSPropertyOp1
 70
     1
102
RTVSPropertyOp2
 70
     1
102
RTVSPropertyOp3
 70
     1
102
RTVSPropertyOp4
 70
     1
102
RTVSPropertyOp5
 70
     1
102
RTVSPropertyOp6
 70
     1
102
RTVSPropertyOp7
 70
     1
102
RTVSPropertyOp8
 70
     1
102
RTVSPropertyOp9
 70
     1
102
RTVSPropertyOp10
 70
     1
102
RTVSPropertyOp11
 70
     1
102
RTVSPropertyOp12
 70
     1
102
RTVSPropertyOp13
 70
     1
102
RTVSPropertyOp14
 70
     1
102
RTVSPropertyOp15
 70
     1
102
RTVSPropertyOp16
 70
     1
102
RTVSPropertyOp17
 70
     1
102
RTVSPropertyOp18
 70
     1
102
RTVSPropertyOp19
 70
     1
102
RTVSPropertyOp20
 70
     1
102
RTVSPropertyOp21
 70
     1
102
RTVSPropertyOp22
 70
     1
102
RTVSPropertyOp23
 70
     1
102
RTVSPropertyOp24
 70
     1
102
RTVSPropertyOp25
 70
     1
102
RTVSPropertyOp26
 70
     1
102
RTVSPropertyOp27
 70
     1
102
RTVSPropertyOp28
 70
     1
102
RTVSPropertyOp29
 70
     1
102
RTVSPropertyOp30
 70
     1
102
RTVSPropertyOp31
 70
     1
102
RTVSPropertyOp32
 70
     1
102
RTVSPropertyOp33
 70
     1
102
RTVSPropertyOp34
 70
     1
102
RTVSPropertyOp35
 70
     1
102
RTVSPropertyOp36
 70
     1
102
RTVSPropertyOp37
 70
     1
102
RTVSPropertyOp38
 70
     1
102
RTVSPropertyOp39
 70
     1
102
RTVSPropertyOp40
 70
     1
102
RTVSPropertyOp41
 70
     1
102
RTVSPropertyOp42
 70
     1
102
RTVSPropertyOp43
 70
     1
102
RTVSPropertyOp44
 70
     1
102
RTVSPropertyOp45
 70
     1
102
RTVSPropertyOp46
 70
     1
102
RTVSPropertyOp47
 70
     1
102
RTVSPropertyOp48
 70
     1
102
RTVSPropertyOp49
 70
     1
102
RTVSPropertyOp50
 70
     1
102
RTVSPropertyOp51
 70
     0
102
RTVSPropertyOp52
 70
     0
102
RTVSPropertyOp53
 70
     1
102
RTVSPropertyOp54
 70
     1
102
RTVSPropertyOp55
 70
     1
102
RTVSPropertyOp56
 70
     1
102
RTVSPropertyOp57
 70
     1
102
RTVSPost2010Prop28
280
     0
102
RTVSPost2010PropOp28
 70
     1
102
RTVSPost2010Prop29
280
     1
102
RTVSPost2010PropOp29
 70
     1
102
RTVSPost2010Prop30
280
     1
102
RTVSPost2010PropOp30
 70
     1
102
RTVSPost2010Prop31
280
     0
102
RTVSPost2010PropOp31
 70
     1
102
RTVSPost2010Prop32
280
     0
102
RTVSPost2010PropOp32
 70
     1
102
RTVSPost2010Prop33
280
     0
102
RTVSPost2010PropOp33
 70
     1
102
RTVSPost2010Prop34
280
     0
102
RTVSPost2010PropOp34
 70
     1
102
RTVSPost2010Prop35
280
     0
102
RTVSPost2010PropOp35
 70
     1
102
RTVSPost2010Prop36
280
     0
102
RTVSPost2010PropOp36
 70
     1
102
RTVSPost2010Prop37
 90
       50
102
RTVSPost2010PropOp37
 70
     1
102
RTVSPost2010Prop38
140
0.0
102
RTVSPost2010PropOp38
 70
     1
102
RTVSPost2010Prop39
140
1.0
102
RTVSPost2010PropOp39
 70
     1
102
RTVSPost2010Prop40
 90
        0
102
RTVSPost2010PropOp40
 70
     1
102
RTVSPost2010Prop41ColorIndex
 90
       18
102
RTVSPost2010Prop41ColorRGB
 90
        0
102
RTVSPost2010PropOp41
 70
     1
102
RTVSPost2010Prop42
 90
       50
102
RTVSPost2010PropOp42
 70
     1
102
RTVSPost2010Prop43
 90
        3
102
RTVSPost2010PropOp43
 70
     1
102
RTVSPost2010Prop44ColorIndex
 90
        5
102
RTVSPost2010Prop44ColorRGB
 90
      255
102
RTVSPost2010PropOp44
 70
     1
102
RTVSPost2010Prop45
280
     0
102
RTVSPost2010PropOp45
 70
     1
102
RTVSPost2010Prop46
 90
       50
102
RTVSPost2010PropOp46
 70
     1
102
RTVSPost2010Prop47
 90
       50
102
RTVSPost2010PropOp47
 70
     1
102
RTVSPost2010Prop48
 90
       50
102
RTVSPost2010PropOp48
 70
     1
102
RTVSPost2010Prop49
280
     0
102
RTVSPost2010PropOp49
 70
     1
102
RTVSPost2010Prop50
 90
       50
102
RTVSPost2010PropOp50
 70
     1
102
RTVSPost2010Prop51ColorIndex
 90
      256
102
RTVSPost2010Prop51ColorRGB
 90
-16777216
102
RTVSPost2010PropOp51
 70
     0
102
RTVSPost2010Prop52
140
1.0
102
RTVSPost2010PropOp52
 70
     0
102
RTVSPost2010Prop53
 90
        2
102
RTVSPost2010PropOp53
 70
     1
102
RTVSPost2010Prop54
  1
strokes_ogs.tif
102
RTVSPost2010PropOp54
 70
     1
102
RTVSPost2010Prop55
280
     0
102
RTVSPost2010PropOp55
 70
     1
102
RTVSPost2010Prop56
140
1.0
102
RTVSPost2010PropOp56
 70
     1
102
RTVSPost2010Prop57
140
1.0
102
RTVSPost2010PropOp57
 70
     1
  0
XRECORD
  5
11BB
102
{ACAD_REACTORS
330
11BA
102
}
330
11BA
100
AcDbXrecord
280
     1
102
RTVSPropertyOp0
 70
     1
102
RTVSPropertyOp1
 70
     1
102
RTVSPropertyOp2
 70
     1
102
RTVSPropertyOp3
 70
     1
102
RTVSPropertyOp4
 70
     1
102
RTVSPropertyOp5
 70
     1
102
RTVSPropertyOp6
 70
     1
102
RTVSPropertyOp7
 70
     1
102
RTVSPropertyOp8
 70
     1
102
RTVSPropertyOp9
 70
     1
102
RTVSPropertyOp10
 70
     1
102
RTVSPropertyOp11
 70
     1
102
RTVSPropertyOp12
 70
     1
102
RTVSPropertyOp13
 70
     1
102
RTVSPropertyOp14
 70
     1
102
RTVSPropertyOp15
 70
     1
102
RTVSPropertyOp16
 70
     1
102
RTVSPropertyOp17
 70
     1
102
RTVSPropertyOp18
 70
     1
102
RTVSPropertyOp19
 70
     1
102
RTVSPropertyOp20
 70
     1
102
RTVSPropertyOp21
 70
     1
102
RTVSPropertyOp22
 70
     1
102
RTVSPropertyOp23
 70
     1
102
RTVSPropertyOp24
 70
     1
102
RTVSPropertyOp25
 70
     1
102
RTVSPropertyOp26
 70
     1
102
RTVSPropertyOp27
 70
     1
102
RTVSPropertyOp28
 70
     1
102
RTVSPropertyOp29
 70
     1
102
RTVSPropertyOp30
 70
     1
102
RTVSPropertyOp31
 70
     1
102
RTVSPropertyOp32
 70
     1
102
RTVSPropertyOp33
 70
     1
102
RTVSPropertyOp34
 70
     1
102
RTVSPropertyOp35
 70
     1
102
RTVSPropertyOp36
 70
     1
102
RTVSPropertyOp37
 70
     1
102
RTVSPropertyOp38
 70
     1
102
RTVSPropertyOp39
 70
     1
102
RTVSPropertyOp40
 70
     1
102
RTVSPropertyOp41
 70
     1
102
RTVSPropertyOp42
 70
     1
102
RTVSPropertyOp43
 70
     1
102
RTVSPropertyOp44
 70
     1
102
RTVSPropertyOp45
 70
     1
102
RTVSPropertyOp46
 70
     1
102
RTVSPropertyOp47
 70
     1
102
RTVSPropertyOp48
 70
     1
102
RTVSPropertyOp49
 70
     1
102
RTVSPropertyOp50
 70
     1
102
RTVSPropertyOp51
 70
     0
102
RTVSPropertyOp52
 70
     0
102
RTVSPropertyOp53
 70
     1
102
RTVSPropertyOp54
 70
     1
102
RTVSPropertyOp55
 70
     1
102
RTVSPropertyOp56
 70
     1
102
RTVSPropertyOp57
 70
     1
102
RTVSPost2010Prop28
280
     0
102
RTVSPost2010PropOp28
 70
     1
102
RTVSPost2010Prop29
280
     1
102
RTVSPost2010PropOp29
 70
     1
102
RTVSPost2010Prop30
280
     1
102
RTVSPost2010PropOp30
 70
     1
102
RTVSPost2010Prop31
280
     0
102
RTVSPost2010PropOp31
 70
     1
102
RTVSPost2010Prop32
280
     0
102
RTVSPost2010PropOp32
 70
     1
102
RTVSPost2010Prop33
280
     0
102
RTVSPost2010PropOp33
 70
     1
102
RTVSPost2010Prop34
280
     0
102
RTVSPost2010PropOp34
 70
     1
102
RTVSPost2010Prop35
280
     0
102
RTVSPost2010PropOp35
 70
     1
102
RTVSPost2010Prop36
280
     0
102
RTVSPost2010PropOp36
 70
     1
102
RTVSPost2010Prop37
 90
       50
102
RTVSPost2010PropOp37
 70
     1
102
RTVSPost2010Prop38
140
0.0
102
RTVSPost2010PropOp38
 70
     1
102
RTVSPost2010Prop39
140
1.0
102
RTVSPost2010PropOp39
 70
     1
102
RTVSPost2010Prop40
 90
        0
102
RTVSPost2010PropOp40
 70
     1
102
RTVSPost2010Prop41ColorIndex
 90
       18
102
RTVSPost2010Prop41ColorRGB
 90
        0
102
RTVSPost2010PropOp41
 70
     1
102
RTVSPost2010Prop42
 90
       50
102
RTVSPost2010PropOp42
 70
     1
102
RTVSPost2010Prop43
 90
        3
102
RTVSPost2010PropOp43
 70
     1
102
RTVSPost2010Prop44ColorIndex
 90
        5
102
RTVSPost2010Prop44ColorRGB
 90
      255
102
RTVSPost2010PropOp44
 70
     1
102
RTVSPost2010Prop45
280
     0
102
RTVSPost2010PropOp45
 70
     1
102
RTVSPost2010Prop46
 90
       50
102
RTVSPost2010PropOp46
 70
     1
102
RTVSPost2010Prop47
 90
       50
102
RTVSPost2010PropOp47
 70
     1
102
RTVSPost2010Prop48
 90
       50
102
RTVSPost2010PropOp48
 70
     1
102
RTVSPost2010Prop49
280
     0
102
RTVSPost2010PropOp49
 70
     1
102
RTVSPost2010Prop50
 90
       50
102
RTVSPost2010PropOp50
 70
     1
102
RTVSPost2010Prop51ColorIndex
 90
      256
102
RTVSPost2010Prop51ColorRGB
 90
-16777216
102
RTVSPost2010PropOp51
 70
     0
102
RTVSPost2010Prop52
140
1.0
102
RTVSPost2010PropOp52
 70
     0
102
RTVSPost2010Prop53
 90
        2
102
RTVSPost2010PropOp53
 70
     1
102
RTVSPost2010Prop54
  1
strokes_ogs.tif
102
RTVSPost2010PropOp54
 70
     1
102
RTVSPost2010Prop55
280
     0
102
RTVSPost2010PropOp55
 70
     1
102
RTVSPost2010Prop56
140
1.0
102
RTVSPost2010PropOp56
 70
     1
102
RTVSPost2010Prop57
140
1.0
102
RTVSPost2010PropOp57
 70
     1
  0
XRECORD
  5
11AF
102
{ACAD_REACTORS
330
11AE
102
}
330
11AE
100
AcDbXrecord
280
     1
102
RTVSPropertyOp0
 70
     1
102
RTVSPropertyOp1
 70
     1
102
RTVSPropertyOp2
 70
     1
102
RTVSPropertyOp3
 70
     1
102
RTVSPropertyOp4
 70
     1
102
RTVSPropertyOp5
 70
     1
102
RTVSPropertyOp6
 70
     1
102
RTVSPropertyOp7
 70
     1
102
RTVSPropertyOp8
 70
     1
102
RTVSPropertyOp9
 70
     1
102
RTVSPropertyOp10
 70
     1
102
RTVSPropertyOp11
 70
     1
102
RTVSPropertyOp12
 70
     1
102
RTVSPropertyOp13
 70
     1
102
RTVSPropertyOp14
 70
     1
102
RTVSPropertyOp15
 70
     1
102
RTVSPropertyOp16
 70
     1
102
RTVSPropertyOp17
 70
     1
102
RTVSPropertyOp18
 70
     1
102
RTVSPropertyOp19
 70
     1
102
RTVSPropertyOp20
 70
     1
102
RTVSPropertyOp21
 70
     1
102
RTVSPropertyOp22
 70
     1
102
RTVSPropertyOp23
 70
     1
102
RTVSPropertyOp24
 70
     1
102
RTVSPropertyOp25
 70
     1
102
RTVSPropertyOp26
 70
     1
102
RTVSPropertyOp27
 70
     1
102
RTVSPropertyOp28
 70
     1
102
RTVSPropertyOp29
 70
     1
102
RTVSPropertyOp30
 70
     1
102
RTVSPropertyOp31
 70
     1
102
RTVSPropertyOp32
 70
     1
102
RTVSPropertyOp33
 70
     1
102
RTVSPropertyOp34
 70
     1
102
RTVSPropertyOp35
 70
     1
102
RTVSPropertyOp36
 70
     1
102
RTVSPropertyOp37
 70
     1
102
RTVSPropertyOp38
 70
     1
102
RTVSPropertyOp39
 70
     1
102
RTVSPropertyOp40
 70
     1
102
RTVSPropertyOp41
 70
     1
102
RTVSPropertyOp42
 70
     1
102
RTVSPropertyOp43
 70
     1
102
RTVSPropertyOp44
 70
     1
102
RTVSPropertyOp45
 70
     1
102
RTVSPropertyOp46
 70
     1
102
RTVSPropertyOp47
 70
     1
102
RTVSPropertyOp48
 70
     1
102
RTVSPropertyOp49
 70
     1
102
RTVSPropertyOp50
 70
     1
102
RTVSPropertyOp51
 70
     0
102
RTVSPropertyOp52
 70
     0
102
RTVSPropertyOp53
 70
     1
102
RTVSPropertyOp54
 70
     1
102
RTVSPropertyOp55
 70
     1
102
RTVSPropertyOp56
 70
     1
102
RTVSPropertyOp57
 70
     1
102
RTVSPost2010Prop28
280
     0
102
RTVSPost2010PropOp28
 70
     1
102
RTVSPost2010Prop29
280
     1
102
RTVSPost2010PropOp29
 70
     1
102
RTVSPost2010Prop30
280
     1
102
RTVSPost2010PropOp30
 70
     1
102
RTVSPost2010Prop31
280
     0
102
RTVSPost2010PropOp31
 70
     1
102
RTVSPost2010Prop32
280
     0
102
RTVSPost2010PropOp32
 70
     1
102
RTVSPost2010Prop33
280
     0
102
RTVSPost2010PropOp33
 70
     1
102
RTVSPost2010Prop34
280
     0
102
RTVSPost2010PropOp34
 70
     1
102
RTVSPost2010Prop35
280
     0
102
RTVSPost2010PropOp35
 70
     1
102
RTVSPost2010Prop36
280
     0
102
RTVSPost2010PropOp36
 70
     1
102
RTVSPost2010Prop37
 90
       50
102
RTVSPost2010PropOp37
 70
     1
102
RTVSPost2010Prop38
140
0.0
102
RTVSPost2010PropOp38
 70
     1
102
RTVSPost2010Prop39
140
1.0
102
RTVSPost2010PropOp39
 70
     1
102
RTVSPost2010Prop40
 90
        0
102
RTVSPost2010PropOp40
 70
     1
102
RTVSPost2010Prop41ColorIndex
 90
       18
102
RTVSPost2010Prop41ColorRGB
 90
        0
102
RTVSPost2010PropOp41
 70
     1
102
RTVSPost2010Prop42
 90
       50
102
RTVSPost2010PropOp42
 70
     1
102
RTVSPost2010Prop43
 90
        3
102
RTVSPost2010PropOp43
 70
     1
102
RTVSPost2010Prop44ColorIndex
 90
        5
102
RTVSPost2010Prop44ColorRGB
 90
      255
102
RTVSPost2010PropOp44
 70
     1
102
RTVSPost2010Prop45
280
     0
102
RTVSPost2010PropOp45
 70
     1
102
RTVSPost2010Prop46
 90
       50
102
RTVSPost2010PropOp46
 70
     1
102
RTVSPost2010Prop47
 90
       50
102
RTVSPost2010PropOp47
 70
     1
102
RTVSPost2010Prop48
 90
       50
102
RTVSPost2010PropOp48
 70
     1
102
RTVSPost2010Prop49
280
     0
102
RTVSPost2010PropOp49
 70
     1
102
RTVSPost2010Prop50
 90
       50
102
RTVSPost2010PropOp50
 70
     1
102
RTVSPost2010Prop51ColorIndex
 90
      256
102
RTVSPost2010Prop51ColorRGB
 90
-16777216
102
RTVSPost2010PropOp51
 70
     0
102
RTVSPost2010Prop52
140
1.0
102
RTVSPost2010PropOp52
 70
     0
102
RTVSPost2010Prop53
 90
        2
102
RTVSPost2010PropOp53
 70
     1
102
RTVSPost2010Prop54
  1
strokes_ogs.tif
102
RTVSPost2010PropOp54
 70
     1
102
RTVSPost2010Prop55
280
     0
102
RTVSPost2010PropOp55
 70
     1
102
RTVSPost2010Prop56
140
1.0
102
RTVSPost2010PropOp56
 70
     1
102
RTVSPost2010Prop57
140
1.0
102
RTVSPost2010PropOp57
 70
     1
  0
XRECORD
  5
11B1
102
{ACAD_REACTORS
330
11B0
102
}
330
11B0
100
AcDbXrecord
280
     1
102
RTVSPropertyOp0
 70
     1
102
RTVSPropertyOp1
 70
     1
102
RTVSPropertyOp2
 70
     1
102
RTVSPropertyOp3
 70
     1
102
RTVSPropertyOp4
 70
     1
102
RTVSPropertyOp5
 70
     1
102
RTVSPropertyOp6
 70
     1
102
RTVSPropertyOp7
 70
     1
102
RTVSPropertyOp8
 70
     1
102
RTVSPropertyOp9
 70
     1
102
RTVSPropertyOp10
 70
     1
102
RTVSPropertyOp11
 70
     1
102
RTVSPropertyOp12
 70
     1
102
RTVSPropertyOp13
 70
     1
102
RTVSPropertyOp14
 70
     1
102
RTVSPropertyOp15
 70
     1
102
RTVSPropertyOp16
 70
     1
102
RTVSPropertyOp17
 70
     1
102
RTVSPropertyOp18
 70
     1
102
RTVSPropertyOp19
 70
     1
102
RTVSPropertyOp20
 70
     1
102
RTVSPropertyOp21
 70
     1
102
RTVSPropertyOp22
 70
     1
102
RTVSPropertyOp23
 70
     1
102
RTVSPropertyOp24
 70
     1
102
RTVSPropertyOp25
 70
     1
102
RTVSPropertyOp26
 70
     1
102
RTVSPropertyOp27
 70
     1
102
RTVSPropertyOp28
 70
     1
102
RTVSPropertyOp29
 70
     1
102
RTVSPropertyOp30
 70
     1
102
RTVSPropertyOp31
 70
     1
102
RTVSPropertyOp32
 70
     1
102
RTVSPropertyOp33
 70
     1
102
RTVSPropertyOp34
 70
     1
102
RTVSPropertyOp35
 70
     1
102
RTVSPropertyOp36
 70
     1
102
RTVSPropertyOp37
 70
     1
102
RTVSPropertyOp38
 70
     1
102
RTVSPropertyOp39
 70
     1
102
RTVSPropertyOp40
 70
     1
102
RTVSPropertyOp41
 70
     1
102
RTVSPropertyOp42
 70
     1
102
RTVSPropertyOp43
 70
     1
102
RTVSPropertyOp44
 70
     1
102
RTVSPropertyOp45
 70
     1
102
RTVSPropertyOp46
 70
     1
102
RTVSPropertyOp47
 70
     1
102
RTVSPropertyOp48
 70
     1
102
RTVSPropertyOp49
 70
     1
102
RTVSPropertyOp50
 70
     1
102
RTVSPropertyOp51
 70
     0
102
RTVSPropertyOp52
 70
     0
102
RTVSPropertyOp53
 70
     1
102
RTVSPropertyOp54
 70
     1
102
RTVSPropertyOp55
 70
     1
102
RTVSPropertyOp56
 70
     1
102
RTVSPropertyOp57
 70
     1
102
RTVSPost2010Prop28
280
     0
102
RTVSPost2010PropOp28
 70
     1
102
RTVSPost2010Prop29
280
     1
102
RTVSPost2010PropOp29
 70
     1
102
RTVSPost2010Prop30
280
     1
102
RTVSPost2010PropOp30
 70
     1
102
RTVSPost2010Prop31
280
     0
102
RTVSPost2010PropOp31
 70
     1
102
RTVSPost2010Prop32
280
     0
102
RTVSPost2010PropOp32
 70
     1
102
RTVSPost2010Prop33
280
     0
102
RTVSPost2010PropOp33
 70
     1
102
RTVSPost2010Prop34
280
     0
102
RTVSPost2010PropOp34
 70
     1
102
RTVSPost2010Prop35
280
     0
102
RTVSPost2010PropOp35
 70
     1
102
RTVSPost2010Prop36
280
     0
102
RTVSPost2010PropOp36
 70
     1
102
RTVSPost2010Prop37
 90
       50
102
RTVSPost2010PropOp37
 70
     1
102
RTVSPost2010Prop38
140
0.0
102
RTVSPost2010PropOp38
 70
     1
102
RTVSPost2010Prop39
140
1.0
102
RTVSPost2010PropOp39
 70
     1
102
RTVSPost2010Prop40
 90
        0
102
RTVSPost2010PropOp40
 70
     1
102
RTVSPost2010Prop41ColorIndex
 90
       18
102
RTVSPost2010Prop41ColorRGB
 90
        0
102
RTVSPost2010PropOp41
 70
     1
102
RTVSPost2010Prop42
 90
       50
102
RTVSPost2010PropOp42
 70
     1
102
RTVSPost2010Prop43
 90
        3
102
RTVSPost2010PropOp43
 70
     1
102
RTVSPost2010Prop44ColorIndex
 90
        5
102
RTVSPost2010Prop44ColorRGB
 90
      255
102
RTVSPost2010PropOp44
 70
     1
102
RTVSPost2010Prop45
280
     0
102
RTVSPost2010PropOp45
 70
     1
102
RTVSPost2010Prop46
 90
       50
102
RTVSPost2010PropOp46
 70
     1
102
RTVSPost2010Prop47
 90
       50
102
RTVSPost2010PropOp47
 70
     1
102
RTVSPost2010Prop48
 90
       50
102
RTVSPost2010PropOp48
 70
     1
102
RTVSPost2010Prop49
280
     0
102
RTVSPost2010PropOp49
 70
     1
102
RTVSPost2010Prop50
 90
       50
102
RTVSPost2010PropOp50
 70
     1
102
RTVSPost2010Prop51ColorIndex
 90
      256
102
RTVSPost2010Prop51ColorRGB
 90
-16777216
102
RTVSPost2010PropOp51
 70
     0
102
RTVSPost2010Prop52
140
1.0
102
RTVSPost2010PropOp52
 70
     0
102
RTVSPost2010Prop53
 90
        2
102
RTVSPost2010PropOp53
 70
     1
102
RTVSPost2010Prop54
  1
strokes_ogs.tif
102
RTVSPost2010PropOp54
 70
     1
102
RTVSPost2010Prop55
280
     0
102
RTVSPost2010PropOp55
 70
     1
102
RTVSPost2010Prop56
140
1.0
102
RTVSPost2010PropOp56
 70
     1
102
RTVSPost2010Prop57
140
1.0
102
RTVSPost2010PropOp57
 70
     1
  0
XRECORD
  5
11C1
102
{ACAD_REACTORS
330
11C0
102
}
330
11C0
100
AcDbXrecord
280
     1
102
RTVSPropertyOp0
 70
     0
102
RTVSPropertyOp1
 70
     0
102
RTVSPropertyOp2
 70
     0
102
RTVSPropertyOp3
 70
     0
102
RTVSPropertyOp4
 70
     0
102
RTVSPropertyOp5
 70
     0
102
RTVSPropertyOp6
 70
     0
102
RTVSPropertyOp7
 70
     0
102
RTVSPropertyOp8
 70
     0
102
RTVSPropertyOp9
 70
     0
102
RTVSPropertyOp10
 70
     0
102
RTVSPropertyOp11
 70
     0
102
RTVSPropertyOp12
 70
     0
102
RTVSPropertyOp13
 70
     0
102
RTVSPropertyOp14
 70
     2
102
RTVSPropertyOp15
 70
     0
102
RTVSPropertyOp16
 70
     0
102
RTVSPropertyOp17
 70
     0
102
RTVSPropertyOp18
 70
     0
102
RTVSPropertyOp19
 70
     0
102
RTVSPropertyOp20
 70
     0
102
RTVSPropertyOp21
 70
     0
102
RTVSPropertyOp22
 70
     0
102
RTVSPropertyOp23
 70
     0
102
RTVSPropertyOp24
 70
     0
102
RTVSPropertyOp25
 70
     0
102
RTVSPropertyOp26
 70
     0
102
RTVSPropertyOp27
 70
     0
102
RTVSPropertyOp28
 70
     0
102
RTVSPropertyOp29
 70
     0
102
RTVSPropertyOp30
 70
     0
102
RTVSPropertyOp31
 70
     0
102
RTVSPropertyOp32
 70
     0
102
RTVSPropertyOp33
 70
     0
102
RTVSPropertyOp34
 70
     0
102
RTVSPropertyOp35
 70
     0
102
RTVSPropertyOp36
 70
     0
102
RTVSPropertyOp37
 70
     0
102
RTVSPropertyOp38
 70
     0
102
RTVSPropertyOp39
 70
     0
102
RTVSPropertyOp40
 70
     0
102
RTVSPropertyOp41
 70
     0
102
RTVSPropertyOp42
 70
     0
102
RTVSPropertyOp43
 70
     0
102
RTVSPropertyOp44
 70
     0
102
RTVSPropertyOp45
 70
     0
102
RTVSPropertyOp46
 70
     0
102
RTVSPropertyOp47
 70
     0
102
RTVSPropertyOp48
 70
     0
102
RTVSPropertyOp49
 70
     0
102
RTVSPropertyOp50
 70
     0
102
RTVSPropertyOp51
 70
     0
102
RTVSPropertyOp52
 70
     0
102
RTVSPropertyOp53
 70
     0
102
RTVSPropertyOp54
 70
     0
102
RTVSPropertyOp55
 70
     0
102
RTVSPropertyOp56
 70
     0
102
RTVSPropertyOp57
 70
     0
102
RTVSPost2010Prop28
280
     0
102
RTVSPost2010PropOp28
 70
     0
102
RTVSPost2010Prop29
280
     1
102
RTVSPost2010PropOp29
 70
     0
102
RTVSPost2010Prop30
280
     1
102
RTVSPost2010PropOp30
 70
     0
102
RTVSPost2010Prop31
280
     0
102
RTVSPost2010PropOp31
 70
     0
102
RTVSPost2010Prop32
280
     0
102
RTVSPost2010PropOp32
 70
     0
102
RTVSPost2010Prop33
280
     0
102
RTVSPost2010PropOp33
 70
     0
102
RTVSPost2010Prop34
280
     0
102
RTVSPost2010PropOp34
 70
     0
102
RTVSPost2010Prop35
280
     0
102
RTVSPost2010PropOp35
 70
     0
102
RTVSPost2010Prop36
280
     0
102
RTVSPost2010PropOp36
 70
     0
102
RTVSPost2010Prop37
 90
       50
102
RTVSPost2010PropOp37
 70
     0
102
RTVSPost2010Prop38
140
0.0
102
RTVSPost2010PropOp38
 70
     0
102
RTVSPost2010Prop39
140
1.0
102
RTVSPost2010PropOp39
 70
     0
102
RTVSPost2010Prop40
 90
        0
102
RTVSPost2010PropOp40
 70
     0
102
RTVSPost2010Prop41ColorIndex
 90
       18
102
RTVSPost2010Prop41ColorRGB
 90
        0
102
RTVSPost2010PropOp41
 70
     0
102
RTVSPost2010Prop42
 90
       50
102
RTVSPost2010PropOp42
 70
     0
102
RTVSPost2010Prop43
 90
        3
102
RTVSPost2010PropOp43
 70
     0
102
RTVSPost2010Prop44ColorIndex
 90
        5
102
RTVSPost2010Prop44ColorRGB
 90
      255
102
RTVSPost2010PropOp44
 70
     0
102
RTVSPost2010Prop45
280
     0
102
RTVSPost2010PropOp45
 70
     0
102
RTVSPost2010Prop46
 90
       50
102
RTVSPost2010PropOp46
 70
     0
102
RTVSPost2010Prop47
 90
       50
102
RTVSPost2010PropOp47
 70
     0
102
RTVSPost2010Prop48
 90
       50
102
RTVSPost2010PropOp48
 70
     0
102
RTVSPost2010Prop49
280
     0
102
RTVSPost2010PropOp49
 70
     0
102
RTVSPost2010Prop50
 90
       50
102
RTVSPost2010PropOp50
 70
     0
102
RTVSPost2010Prop51ColorIndex
 90
      256
102
RTVSPost2010Prop51ColorRGB
 90
-16777216
102
RTVSPost2010PropOp51
 70
     0
102
RTVSPost2010Prop52
140
1.0
102
RTVSPost2010PropOp52
 70
     0
102
RTVSPost2010Prop53
 90
        2
102
RTVSPost2010PropOp53
 70
     0
102
RTVSPost2010Prop54
  1
strokes_ogs.tif
102
RTVSPost2010PropOp54
 70
     0
102
RTVSPost2010Prop55
280
     0
102
RTVSPost2010PropOp55
 70
     0
102
RTVSPost2010Prop56
140
1.0
102
RTVSPost2010PropOp56
 70
     0
102
RTVSPost2010Prop57
140
1.0
102
RTVSPost2010PropOp57
 70
     0
  0
XRECORD
  5
11B9
102
{ACAD_REACTORS
330
11B8
102
}
330
11B8
100
AcDbXrecord
280
     1
102
RTVSPropertyOp0
 70
     1
102
RTVSPropertyOp1
 70
     1
102
RTVSPropertyOp2
 70
     1
102
RTVSPropertyOp3
 70
     1
102
RTVSPropertyOp4
 70
     1
102
RTVSPropertyOp5
 70
     1
102
RTVSPropertyOp6
 70
     1
102
RTVSPropertyOp7
 70
     1
102
RTVSPropertyOp8
 70
     1
102
RTVSPropertyOp9
 70
     1
102
RTVSPropertyOp10
 70
     1
102
RTVSPropertyOp11
 70
     1
102
RTVSPropertyOp12
 70
     1
102
RTVSPropertyOp13
 70
     1
102
RTVSPropertyOp14
 70
     1
102
RTVSPropertyOp15
 70
     1
102
RTVSPropertyOp16
 70
     1
102
RTVSPropertyOp17
 70
     1
102
RTVSPropertyOp18
 70
     1
102
RTVSPropertyOp19
 70
     1
102
RTVSPropertyOp20
 70
     1
102
RTVSPropertyOp21
 70
     1
102
RTVSPropertyOp22
 70
     1
102
RTVSPropertyOp23
 70
     1
102
RTVSPropertyOp24
 70
     1
102
RTVSPropertyOp25
 70
     1
102
RTVSPropertyOp26
 70
     1
102
RTVSPropertyOp27
 70
     1
102
RTVSPropertyOp28
 70
     1
102
RTVSPropertyOp29
 70
     1
102
RTVSPropertyOp30
 70
     1
102
RTVSPropertyOp31
 70
     1
102
RTVSPropertyOp32
 70
     1
102
RTVSPropertyOp33
 70
     1
102
RTVSPropertyOp34
 70
     1
102
RTVSPropertyOp35
 70
     1
102
RTVSPropertyOp36
 70
     1
102
RTVSPropertyOp37
 70
     1
102
RTVSPropertyOp38
 70
     1
102
RTVSPropertyOp39
 70
     1
102
RTVSPropertyOp40
 70
     1
102
RTVSPropertyOp41
 70
     1
102
RTVSPropertyOp42
 70
     1
102
RTVSPropertyOp43
 70
     1
102
RTVSPropertyOp44
 70
     1
102
RTVSPropertyOp45
 70
     1
102
RTVSPropertyOp46
 70
     1
102
RTVSPropertyOp47
 70
     1
102
RTVSPropertyOp48
 70
     1
102
RTVSPropertyOp49
 70
     1
102
RTVSPropertyOp50
 70
     1
102
RTVSPropertyOp51
 70
     0
102
RTVSPropertyOp52
 70
     0
102
RTVSPropertyOp53
 70
     1
102
RTVSPropertyOp54
 70
     1
102
RTVSPropertyOp55
 70
     1
102
RTVSPropertyOp56
 70
     1
102
RTVSPropertyOp57
 70
     1
102
RTVSPost2010Prop28
280
     0
102
RTVSPost2010PropOp28
 70
     1
102
RTVSPost2010Prop29
280
     1
102
RTVSPost2010PropOp29
 70
     1
102
RTVSPost2010Prop30
280
     1
102
RTVSPost2010PropOp30
 70
     1
102
RTVSPost2010Prop31
280
     0
102
RTVSPost2010PropOp31
 70
     1
102
RTVSPost2010Prop32
280
     0
102
RTVSPost2010PropOp32
 70
     1
102
RTVSPost2010Prop33
280
     0
102
RTVSPost2010PropOp33
 70
     1
102
RTVSPost2010Prop34
280
     0
102
RTVSPost2010PropOp34
 70
     1
102
RTVSPost2010Prop35
280
     0
102
RTVSPost2010PropOp35
 70
     1
102
RTVSPost2010Prop36
280
     0
102
RTVSPost2010PropOp36
 70
     1
102
RTVSPost2010Prop37
 90
       50
102
RTVSPost2010PropOp37
 70
     1
102
RTVSPost2010Prop38
140
0.0
102
RTVSPost2010PropOp38
 70
     1
102
RTVSPost2010Prop39
140
1.0
102
RTVSPost2010PropOp39
 70
     1
102
RTVSPost2010Prop40
 90
        0
102
RTVSPost2010PropOp40
 70
     1
102
RTVSPost2010Prop41ColorIndex
 90
       18
102
RTVSPost2010Prop41ColorRGB
 90
        0
102
RTVSPost2010PropOp41
 70
     1
102
RTVSPost2010Prop42
 90
       50
102
RTVSPost2010PropOp42
 70
     1
102
RTVSPost2010Prop43
 90
        3
102
RTVSPost2010PropOp43
 70
     1
102
RTVSPost2010Prop44ColorIndex
 90
        5
102
RTVSPost2010Prop44ColorRGB
 90
      255
102
RTVSPost2010PropOp44
 70
     1
102
RTVSPost2010Prop45
280
     0
102
RTVSPost2010PropOp45
 70
     1
102
RTVSPost2010Prop46
 90
       50
102
RTVSPost2010PropOp46
 70
     1
102
RTVSPost2010Prop47
 90
       50
102
RTVSPost2010PropOp47
 70
     1
102
RTVSPost2010Prop48
 90
       50
102
RTVSPost2010PropOp48
 70
     1
102
RTVSPost2010Prop49
280
     0
102
RTVSPost2010PropOp49
 70
     1
102
RTVSPost2010Prop50
 90
       50
102
RTVSPost2010PropOp50
 70
     1
102
RTVSPost2010Prop51ColorIndex
 90
      256
102
RTVSPost2010Prop51ColorRGB
 90
-16777216
102
RTVSPost2010PropOp51
 70
     0
102
RTVSPost2010Prop52
140
1.0
102
RTVSPost2010PropOp52
 70
     0
102
RTVSPost2010Prop53
 90
        2
102
RTVSPost2010PropOp53
 70
     1
102
RTVSPost2010Prop54
  1
strokes_ogs.tif
102
RTVSPost2010PropOp54
 70
     1
102
RTVSPost2010Prop55
280
     0
102
RTVSPost2010PropOp55
 70
     1
102
RTVSPost2010Prop56
140
1.0
102
RTVSPost2010PropOp56
 70
     1
102
RTVSPost2010Prop57
140
1.0
102
RTVSPost2010PropOp57
 70
     1
  0
XRECORD
  5
119D
102
{ACAD_REACTORS
330
119C
102
}
330
119C
100
AcDbXrecord
280
     1
102
RTVSPropertyOp0
 70
     1
102
RTVSPropertyOp1
 70
     1
102
RTVSPropertyOp2
 70
     1
102
RTVSPropertyOp3
 70
     1
102
RTVSPropertyOp4
 70
     1
102
RTVSPropertyOp5
 70
     1
102
RTVSPropertyOp6
 70
     1
102
RTVSPropertyOp7
 70
     1
102
RTVSPropertyOp8
 70
     1
102
RTVSPropertyOp9
 70
     1
102
RTVSPropertyOp10
 70
     1
102
RTVSPropertyOp11
 70
     1
102
RTVSPropertyOp12
 70
     1
102
RTVSPropertyOp13
 70
     1
102
RTVSPropertyOp14
 70
     1
102
RTVSPropertyOp15
 70
     1
102
RTVSPropertyOp16
 70
     1
102
RTVSPropertyOp17
 70
     1
102
RTVSPropertyOp18
 70
     1
102
RTVSPropertyOp19
 70
     1
102
RTVSPropertyOp20
 70
     1
102
RTVSPropertyOp21
 70
     1
102
RTVSPropertyOp22
 70
     1
102
RTVSPropertyOp23
 70
     1
102
RTVSPropertyOp24
 70
     1
102
RTVSPropertyOp25
 70
     1
102
RTVSPropertyOp26
 70
     1
102
RTVSPropertyOp27
 70
     1
102
RTVSPropertyOp28
 70
     1
102
RTVSPropertyOp29
 70
     1
102
RTVSPropertyOp30
 70
     1
102
RTVSPropertyOp31
 70
     1
102
RTVSPropertyOp32
 70
     1
102
RTVSPropertyOp33
 70
     1
102
RTVSPropertyOp34
 70
     1
102
RTVSPropertyOp35
 70
     1
102
RTVSPropertyOp36
 70
     1
102
RTVSPropertyOp37
 70
     1
102
RTVSPropertyOp38
 70
     1
102
RTVSPropertyOp39
 70
     1
102
RTVSPropertyOp40
 70
     1
102
RTVSPropertyOp41
 70
     1
102
RTVSPropertyOp42
 70
     1
102
RTVSPropertyOp43
 70
     1
102
RTVSPropertyOp44
 70
     1
102
RTVSPropertyOp45
 70
     1
102
RTVSPropertyOp46
 70
     1
102
RTVSPropertyOp47
 70
     1
102
RTVSPropertyOp48
 70
     1
102
RTVSPropertyOp49
 70
     1
102
RTVSPropertyOp50
 70
     1
102
RTVSPropertyOp51
 70
     0
102
RTVSPropertyOp52
 70
     0
102
RTVSPropertyOp53
 70
     1
102
RTVSPropertyOp54
 70
     1
102
RTVSPropertyOp55
 70
     1
102
RTVSPropertyOp56
 70
     1
102
RTVSPropertyOp57
 70
     1
102
RTVSPost2010Prop28
280
     0
102
RTVSPost2010PropOp28
 70
     1
102
RTVSPost2010Prop29
280
     1
102
RTVSPost2010PropOp29
 70
     1
102
RTVSPost2010Prop30
280
     1
102
RTVSPost2010PropOp30
 70
     1
102
RTVSPost2010Prop31
280
     0
102
RTVSPost2010PropOp31
 70
     1
102
RTVSPost2010Prop32
280
     0
102
RTVSPost2010PropOp32
 70
     1
102
RTVSPost2010Prop33
280
     0
102
RTVSPost2010PropOp33
 70
     1
102
RTVSPost2010Prop34
280
     0
102
RTVSPost2010PropOp34
 70
     1
102
RTVSPost2010Prop35
280
     0
102
RTVSPost2010PropOp35
 70
     1
102
RTVSPost2010Prop36
280
     0
102
RTVSPost2010PropOp36
 70
     1
102
RTVSPost2010Prop37
 90
       50
102
RTVSPost2010PropOp37
 70
     1
102
RTVSPost2010Prop38
140
0.0
102
RTVSPost2010PropOp38
 70
     1
102
RTVSPost2010Prop39
140
1.0
102
RTVSPost2010PropOp39
 70
     1
102
RTVSPost2010Prop40
 90
        0
102
RTVSPost2010PropOp40
 70
     1
102
RTVSPost2010Prop41ColorIndex
 90
       18
102
RTVSPost2010Prop41ColorRGB
 90
        0
102
RTVSPost2010PropOp41
 70
     1
102
RTVSPost2010Prop42
 90
       50
102
RTVSPost2010PropOp42
 70
     1
102
RTVSPost2010Prop43
 90
        3
102
RTVSPost2010PropOp43
 70
     1
102
RTVSPost2010Prop44ColorIndex
 90
        5
102
RTVSPost2010Prop44ColorRGB
 90
      255
102
RTVSPost2010PropOp44
 70
     1
102
RTVSPost2010Prop45
280
     0
102
RTVSPost2010PropOp45
 70
     1
102
RTVSPost2010Prop46
 90
       50
102
RTVSPost2010PropOp46
 70
     1
102
RTVSPost2010Prop47
 90
       50
102
RTVSPost2010PropOp47
 70
     1
102
RTVSPost2010Prop48
 90
       50
102
RTVSPost2010PropOp48
 70
     1
102
RTVSPost2010Prop49
280
     0
102
RTVSPost2010PropOp49
 70
     1
102
RTVSPost2010Prop50
 90
       50
102
RTVSPost2010PropOp50
 70
     1
102
RTVSPost2010Prop51ColorIndex
 90
      256
102
RTVSPost2010Prop51ColorRGB
 90
-16777216
102
RTVSPost2010PropOp51
 70
     0
102
RTVSPost2010Prop52
140
1.0
102
RTVSPost2010PropOp52
 70
     0
102
RTVSPost2010Prop53
 90
        2
102
RTVSPost2010PropOp53
 70
     1
102
RTVSPost2010Prop54
  1
strokes_ogs.tif
102
RTVSPost2010PropOp54
 70
     1
102
RTVSPost2010Prop55
280
     0
102
RTVSPost2010PropOp55
 70
     1
102
RTVSPost2010Prop56
140
1.0
102
RTVSPost2010PropOp56
 70
     1
102
RTVSPost2010Prop57
140
1.0
102
RTVSPost2010PropOp57
 70
     1
  0
XRECORD
  5
119F
102
{ACAD_REACTORS
330
119E
102
}
330
119E
100
AcDbXrecord
280
     1
102
RTVSPropertyOp0
 70
     1
102
RTVSPropertyOp1
 70
     1
102
RTVSPropertyOp2
 70
     1
102
RTVSPropertyOp3
 70
     1
102
RTVSPropertyOp4
 70
     1
102
RTVSPropertyOp5
 70
     1
102
RTVSPropertyOp6
 70
     1
102
RTVSPropertyOp7
 70
     1
102
RTVSPropertyOp8
 70
     1
102
RTVSPropertyOp9
 70
     1
102
RTVSPropertyOp10
 70
     1
102
RTVSPropertyOp11
 70
     1
102
RTVSPropertyOp12
 70
     1
102
RTVSPropertyOp13
 70
     1
102
RTVSPropertyOp14
 70
     1
102
RTVSPropertyOp15
 70
     1
102
RTVSPropertyOp16
 70
     1
102
RTVSPropertyOp17
 70
     1
102
RTVSPropertyOp18
 70
     1
102
RTVSPropertyOp19
 70
     1
102
RTVSPropertyOp20
 70
     1
102
RTVSPropertyOp21
 70
     1
102
RTVSPropertyOp22
 70
     1
102
RTVSPropertyOp23
 70
     1
102
RTVSPropertyOp24
 70
     1
102
RTVSPropertyOp25
 70
     1
102
RTVSPropertyOp26
 70
     1
102
RTVSPropertyOp27
 70
     1
102
RTVSPropertyOp28
 70
     1
102
RTVSPropertyOp29
 70
     1
102
RTVSPropertyOp30
 70
     1
102
RTVSPropertyOp31
 70
     1
102
RTVSPropertyOp32
 70
     1
102
RTVSPropertyOp33
 70
     1
102
RTVSPropertyOp34
 70
     1
102
RTVSPropertyOp35
 70
     1
102
RTVSPropertyOp36
 70
     1
102
RTVSPropertyOp37
 70
     1
102
RTVSPropertyOp38
 70
     1
102
RTVSPropertyOp39
 70
     1
102
RTVSPropertyOp40
 70
     1
102
RTVSPropertyOp41
 70
     1
102
RTVSPropertyOp42
 70
     1
102
RTVSPropertyOp43
 70
     1
102
RTVSPropertyOp44
 70
     1
102
RTVSPropertyOp45
 70
     1
102
RTVSPropertyOp46
 70
     1
102
RTVSPropertyOp47
 70
     1
102
RTVSPropertyOp48
 70
     1
102
RTVSPropertyOp49
 70
     1
102
RTVSPropertyOp50
 70
     1
102
RTVSPropertyOp51
 70
     0
102
RTVSPropertyOp52
 70
     0
102
RTVSPropertyOp53
 70
     1
102
RTVSPropertyOp54
 70
     1
102
RTVSPropertyOp55
 70
     1
102
RTVSPropertyOp56
 70
     1
102
RTVSPropertyOp57
 70
     1
102
RTVSPost2010Prop28
280
     0
102
RTVSPost2010PropOp28
 70
     1
102
RTVSPost2010Prop29
280
     1
102
RTVSPost2010PropOp29
 70
     1
102
RTVSPost2010Prop30
280
     1
102
RTVSPost2010PropOp30
 70
     1
102
RTVSPost2010Prop31
280
     0
102
RTVSPost2010PropOp31
 70
     1
102
RTVSPost2010Prop32
280
     0
102
RTVSPost2010PropOp32
 70
     1
102
RTVSPost2010Prop33
280
     0
102
RTVSPost2010PropOp33
 70
     1
102
RTVSPost2010Prop34
280
     0
102
RTVSPost2010PropOp34
 70
     1
102
RTVSPost2010Prop35
280
     0
102
RTVSPost2010PropOp35
 70
     1
102
RTVSPost2010Prop36
280
     0
102
RTVSPost2010PropOp36
 70
     1
102
RTVSPost2010Prop37
 90
       50
102
RTVSPost2010PropOp37
 70
     1
102
RTVSPost2010Prop38
140
0.0
102
RTVSPost2010PropOp38
 70
     1
102
RTVSPost2010Prop39
140
1.0
102
RTVSPost2010PropOp39
 70
     1
102
RTVSPost2010Prop40
 90
        0
102
RTVSPost2010PropOp40
 70
     1
102
RTVSPost2010Prop41ColorIndex
 90
       18
102
RTVSPost2010Prop41ColorRGB
 90
        0
102
RTVSPost2010PropOp41
 70
     1
102
RTVSPost2010Prop42
 90
       50
102
RTVSPost2010PropOp42
 70
     1
102
RTVSPost2010Prop43
 90
        3
102
RTVSPost2010PropOp43
 70
     1
102
RTVSPost2010Prop44ColorIndex
 90
        5
102
RTVSPost2010Prop44ColorRGB
 90
      255
102
RTVSPost2010PropOp44
 70
     1
102
RTVSPost2010Prop45
280
     0
102
RTVSPost2010PropOp45
 70
     1
102
RTVSPost2010Prop46
 90
       50
102
RTVSPost2010PropOp46
 70
     1
102
RTVSPost2010Prop47
 90
       50
102
RTVSPost2010PropOp47
 70
     1
102
RTVSPost2010Prop48
 90
       50
102
RTVSPost2010PropOp48
 70
     1
102
RTVSPost2010Prop49
280
     0
102
RTVSPost2010PropOp49
 70
     1
102
RTVSPost2010Prop50
 90
       50
102
RTVSPost2010PropOp50
 70
     1
102
RTVSPost2010Prop51ColorIndex
 90
      256
102
RTVSPost2010Prop51ColorRGB
 90
-16777216
102
RTVSPost2010PropOp51
 70
     0
102
RTVSPost2010Prop52
140
1.0
102
RTVSPost2010PropOp52
 70
     0
102
RTVSPost2010Prop53
 90
        2
102
RTVSPost2010PropOp53
 70
     1
102
RTVSPost2010Prop54
  1
strokes_ogs.tif
102
RTVSPost2010PropOp54
 70
     1
102
RTVSPost2010Prop55
280
     0
102
RTVSPost2010PropOp55
 70
     1
102
RTVSPost2010Prop56
140
1.0
102
RTVSPost2010PropOp56
 70
     1
102
RTVSPost2010Prop57
140
1.0
102
RTVSPost2010PropOp57
 70
     1
  0
XRECORD
  5
11A1
102
{ACAD_REACTORS
330
11A0
102
}
330
11A0
100
AcDbXrecord
280
     1
102
RTVSPropertyOp0
 70
     1
102
RTVSPropertyOp1
 70
     1
102
RTVSPropertyOp2
 70
     1
102
RTVSPropertyOp3
 70
     1
102
RTVSPropertyOp4
 70
     1
102
RTVSPropertyOp5
 70
     1
102
RTVSPropertyOp6
 70
     1
102
RTVSPropertyOp7
 70
     1
102
RTVSPropertyOp8
 70
     1
102
RTVSPropertyOp9
 70
     1
102
RTVSPropertyOp10
 70
     1
102
RTVSPropertyOp11
 70
     1
102
RTVSPropertyOp12
 70
     1
102
RTVSPropertyOp13
 70
     1
102
RTVSPropertyOp14
 70
     1
102
RTVSPropertyOp15
 70
     1
102
RTVSPropertyOp16
 70
     1
102
RTVSPropertyOp17
 70
     1
102
RTVSPropertyOp18
 70
     1
102
RTVSPropertyOp19
 70
     1
102
RTVSPropertyOp20
 70
     1
102
RTVSPropertyOp21
 70
     1
102
RTVSPropertyOp22
 70
     1
102
RTVSPropertyOp23
 70
     1
102
RTVSPropertyOp24
 70
     1
102
RTVSPropertyOp25
 70
     1
102
RTVSPropertyOp26
 70
     1
102
RTVSPropertyOp27
 70
     1
102
RTVSPropertyOp28
 70
     1
102
RTVSPropertyOp29
 70
     1
102
RTVSPropertyOp30
 70
     1
102
RTVSPropertyOp31
 70
     1
102
RTVSPropertyOp32
 70
     1
102
RTVSPropertyOp33
 70
     1
102
RTVSPropertyOp34
 70
     1
102
RTVSPropertyOp35
 70
     1
102
RTVSPropertyOp36
 70
     1
102
RTVSPropertyOp37
 70
     1
102
RTVSPropertyOp38
 70
     1
102
RTVSPropertyOp39
 70
     1
102
RTVSPropertyOp40
 70
     1
102
RTVSPropertyOp41
 70
     1
102
RTVSPropertyOp42
 70
     1
102
RTVSPropertyOp43
 70
     1
102
RTVSPropertyOp44
 70
     1
102
RTVSPropertyOp45
 70
     1
102
RTVSPropertyOp46
 70
     1
102
RTVSPropertyOp47
 70
     1
102
RTVSPropertyOp48
 70
     1
102
RTVSPropertyOp49
 70
     1
102
RTVSPropertyOp50
 70
     1
102
RTVSPropertyOp51
 70
     0
102
RTVSPropertyOp52
 70
     0
102
RTVSPropertyOp53
 70
     1
102
RTVSPropertyOp54
 70
     1
102
RTVSPropertyOp55
 70
     1
102
RTVSPropertyOp56
 70
     1
102
RTVSPropertyOp57
 70
     1
102
RTVSPost2010Prop28
280
     0
102
RTVSPost2010PropOp28
 70
     1
102
RTVSPost2010Prop29
280
     1
102
RTVSPost2010PropOp29
 70
     1
102
RTVSPost2010Prop30
280
     1
102
RTVSPost2010PropOp30
 70
     1
102
RTVSPost2010Prop31
280
     0
102
RTVSPost2010PropOp31
 70
     1
102
RTVSPost2010Prop32
280
     0
102
RTVSPost2010PropOp32
 70
     1
102
RTVSPost2010Prop33
280
     0
102
RTVSPost2010PropOp33
 70
     1
102
RTVSPost2010Prop34
280
     0
102
RTVSPost2010PropOp34
 70
     1
102
RTVSPost2010Prop35
280
     0
102
RTVSPost2010PropOp35
 70
     1
102
RTVSPost2010Prop36
280
     0
102
RTVSPost2010PropOp36
 70
     1
102
RTVSPost2010Prop37
 90
       50
102
RTVSPost2010PropOp37
 70
     1
102
RTVSPost2010Prop38
140
0.0
102
RTVSPost2010PropOp38
 70
     1
102
RTVSPost2010Prop39
140
1.0
102
RTVSPost2010PropOp39
 70
     1
102
RTVSPost2010Prop40
 90
        0
102
RTVSPost2010PropOp40
 70
     1
102
RTVSPost2010Prop41ColorIndex
 90
       18
102
RTVSPost2010Prop41ColorRGB
 90
        0
102
RTVSPost2010PropOp41
 70
     1
102
RTVSPost2010Prop42
 90
       50
102
RTVSPost2010PropOp42
 70
     1
102
RTVSPost2010Prop43
 90
        3
102
RTVSPost2010PropOp43
 70
     1
102
RTVSPost2010Prop44ColorIndex
 90
        5
102
RTVSPost2010Prop44ColorRGB
 90
      255
102
RTVSPost2010PropOp44
 70
     1
102
RTVSPost2010Prop45
280
     0
102
RTVSPost2010PropOp45
 70
     1
102
RTVSPost2010Prop46
 90
       50
102
RTVSPost2010PropOp46
 70
     1
102
RTVSPost2010Prop47
 90
       50
102
RTVSPost2010PropOp47
 70
     1
102
RTVSPost2010Prop48
 90
       50
102
RTVSPost2010PropOp48
 70
     1
102
RTVSPost2010Prop49
280
     0
102
RTVSPost2010PropOp49
 70
     1
102
RTVSPost2010Prop50
 90
       50
102
RTVSPost2010PropOp50
 70
     1
102
RTVSPost2010Prop51ColorIndex
 90
      256
102
RTVSPost2010Prop51ColorRGB
 90
-16777216
102
RTVSPost2010PropOp51
 70
     0
102
RTVSPost2010Prop52
140
1.0
102
RTVSPost2010PropOp52
 70
     0
102
RTVSPost2010Prop53
 90
        2
102
RTVSPost2010PropOp53
 70
     1
102
RTVSPost2010Prop54
  1
strokes_ogs.tif
102
RTVSPost2010PropOp54
 70
     1
102
RTVSPost2010Prop55
280
     0
102
RTVSPost2010PropOp55
 70
     1
102
RTVSPost2010Prop56
140
1.0
102
RTVSPost2010PropOp56
 70
     1
102
RTVSPost2010Prop57
140
1.0
102
RTVSPost2010PropOp57
 70
     1
  0
XRECORD
  5
11A3
102
{ACAD_REACTORS
330
11A2
102
}
330
11A2
100
AcDbXrecord
280
     1
102
RTVSPropertyOp0
 70
     1
102
RTVSPropertyOp1
 70
     1
102
RTVSPropertyOp2
 70
     1
102
RTVSPropertyOp3
 70
     1
102
RTVSPropertyOp4
 70
     1
102
RTVSPropertyOp5
 70
     1
102
RTVSPropertyOp6
 70
     1
102
RTVSPropertyOp7
 70
     1
102
RTVSPropertyOp8
 70
     1
102
RTVSPropertyOp9
 70
     1
102
RTVSPropertyOp10
 70
     1
102
RTVSPropertyOp11
 70
     1
102
RTVSPropertyOp12
 70
     1
102
RTVSPropertyOp13
 70
     1
102
RTVSPropertyOp14
 70
     1
102
RTVSPropertyOp15
 70
     1
102
RTVSPropertyOp16
 70
     1
102
RTVSPropertyOp17
 70
     1
102
RTVSPropertyOp18
 70
     1
102
RTVSPropertyOp19
 70
     1
102
RTVSPropertyOp20
 70
     1
102
RTVSPropertyOp21
 70
     1
102
RTVSPropertyOp22
 70
     1
102
RTVSPropertyOp23
 70
     1
102
RTVSPropertyOp24
 70
     1
102
RTVSPropertyOp25
 70
     1
102
RTVSPropertyOp26
 70
     1
102
RTVSPropertyOp27
 70
     1
102
RTVSPropertyOp28
 70
     1
102
RTVSPropertyOp29
 70
     1
102
RTVSPropertyOp30
 70
     1
102
RTVSPropertyOp31
 70
     1
102
RTVSPropertyOp32
 70
     1
102
RTVSPropertyOp33
 70
     1
102
RTVSPropertyOp34
 70
     1
102
RTVSPropertyOp35
 70
     1
102
RTVSPropertyOp36
 70
     1
102
RTVSPropertyOp37
 70
     1
102
RTVSPropertyOp38
 70
     1
102
RTVSPropertyOp39
 70
     1
102
RTVSPropertyOp40
 70
     1
102
RTVSPropertyOp41
 70
     1
102
RTVSPropertyOp42
 70
     1
102
RTVSPropertyOp43
 70
     1
102
RTVSPropertyOp44
 70
     1
102
RTVSPropertyOp45
 70
     1
102
RTVSPropertyOp46
 70
     1
102
RTVSPropertyOp47
 70
     1
102
RTVSPropertyOp48
 70
     1
102
RTVSPropertyOp49
 70
     1
102
RTVSPropertyOp50
 70
     1
102
RTVSPropertyOp51
 70
     0
102
RTVSPropertyOp52
 70
     0
102
RTVSPropertyOp53
 70
     1
102
RTVSPropertyOp54
 70
     1
102
RTVSPropertyOp55
 70
     1
102
RTVSPropertyOp56
 70
     1
102
RTVSPropertyOp57
 70
     1
102
RTVSPost2010Prop28
280
     0
102
RTVSPost2010PropOp28
 70
     1
102
RTVSPost2010Prop29
280
     1
102
RTVSPost2010PropOp29
 70
     1
102
RTVSPost2010Prop30
280
     1
102
RTVSPost2010PropOp30
 70
     1
102
RTVSPost2010Prop31
280
     0
102
RTVSPost2010PropOp31
 70
     1
102
RTVSPost2010Prop32
280
     0
102
RTVSPost2010PropOp32
 70
     1
102
RTVSPost2010Prop33
280
     0
102
RTVSPost2010PropOp33
 70
     1
102
RTVSPost2010Prop34
280
     0
102
RTVSPost2010PropOp34
 70
     1
102
RTVSPost2010Prop35
280
     0
102
RTVSPost2010PropOp35
 70
     1
102
RTVSPost2010Prop36
280
     0
102
RTVSPost2010PropOp36
 70
     1
102
RTVSPost2010Prop37
 90
       50
102
RTVSPost2010PropOp37
 70
     1
102
RTVSPost2010Prop38
140
0.0
102
RTVSPost2010PropOp38
 70
     1
102
RTVSPost2010Prop39
140
1.0
102
RTVSPost2010PropOp39
 70
     1
102
RTVSPost2010Prop40
 90
        0
102
RTVSPost2010PropOp40
 70
     1
102
RTVSPost2010Prop41ColorIndex
 90
       18
102
RTVSPost2010Prop41ColorRGB
 90
        0
102
RTVSPost2010PropOp41
 70
     1
102
RTVSPost2010Prop42
 90
       50
102
RTVSPost2010PropOp42
 70
     1
102
RTVSPost2010Prop43
 90
        3
102
RTVSPost2010PropOp43
 70
     1
102
RTVSPost2010Prop44ColorIndex
 90
        5
102
RTVSPost2010Prop44ColorRGB
 90
      255
102
RTVSPost2010PropOp44
 70
     1
102
RTVSPost2010Prop45
280
     0
102
RTVSPost2010PropOp45
 70
     1
102
RTVSPost2010Prop46
 90
       50
102
RTVSPost2010PropOp46
 70
     1
102
RTVSPost2010Prop47
 90
       50
102
RTVSPost2010PropOp47
 70
     1
102
RTVSPost2010Prop48
 90
       50
102
RTVSPost2010PropOp48
 70
     1
102
RTVSPost2010Prop49
280
     0
102
RTVSPost2010PropOp49
 70
     1
102
RTVSPost2010Prop50
 90
       50
102
RTVSPost2010PropOp50
 70
     1
102
RTVSPost2010Prop51ColorIndex
 90
      256
102
RTVSPost2010Prop51ColorRGB
 90
-16777216
102
RTVSPost2010PropOp51
 70
     0
102
RTVSPost2010Prop52
140
1.0
102
RTVSPost2010PropOp52
 70
     0
102
RTVSPost2010Prop53
 90
        2
102
RTVSPost2010PropOp53
 70
     1
102
RTVSPost2010Prop54
  1
strokes_ogs.tif
102
RTVSPost2010PropOp54
 70
     1
102
RTVSPost2010Prop55
280
     0
102
RTVSPost2010PropOp55
 70
     1
102
RTVSPost2010Prop56
140
1.0
102
RTVSPost2010PropOp56
 70
     1
102
RTVSPost2010Prop57
140
1.0
102
RTVSPost2010PropOp57
 70
     1
  0
XRECORD
  5
11A9
102
{ACAD_REACTORS
330
11A8
102
}
330
11A8
100
AcDbXrecord
280
     1
102
RTVSPropertyOp0
 70
     1
102
RTVSPropertyOp1
 70
     1
102
RTVSPropertyOp2
 70
     1
102
RTVSPropertyOp3
 70
     1
102
RTVSPropertyOp4
 70
     1
102
RTVSPropertyOp5
 70
     1
102
RTVSPropertyOp6
 70
     1
102
RTVSPropertyOp7
 70
     1
102
RTVSPropertyOp8
 70
     1
102
RTVSPropertyOp9
 70
     1
102
RTVSPropertyOp10
 70
     1
102
RTVSPropertyOp11
 70
     1
102
RTVSPropertyOp12
 70
     1
102
RTVSPropertyOp13
 70
     1
102
RTVSPropertyOp14
 70
     1
102
RTVSPropertyOp15
 70
     1
102
RTVSPropertyOp16
 70
     1
102
RTVSPropertyOp17
 70
     1
102
RTVSPropertyOp18
 70
     1
102
RTVSPropertyOp19
 70
     1
102
RTVSPropertyOp20
 70
     1
102
RTVSPropertyOp21
 70
     1
102
RTVSPropertyOp22
 70
     1
102
RTVSPropertyOp23
 70
     1
102
RTVSPropertyOp24
 70
     1
102
RTVSPropertyOp25
 70
     1
102
RTVSPropertyOp26
 70
     1
102
RTVSPropertyOp27
 70
     1
102
RTVSPropertyOp28
 70
     1
102
RTVSPropertyOp29
 70
     1
102
RTVSPropertyOp30
 70
     1
102
RTVSPropertyOp31
 70
     1
102
RTVSPropertyOp32
 70
     1
102
RTVSPropertyOp33
 70
     1
102
RTVSPropertyOp34
 70
     1
102
RTVSPropertyOp35
 70
     1
102
RTVSPropertyOp36
 70
     1
102
RTVSPropertyOp37
 70
     1
102
RTVSPropertyOp38
 70
     1
102
RTVSPropertyOp39
 70
     1
102
RTVSPropertyOp40
 70
     1
102
RTVSPropertyOp41
 70
     1
102
RTVSPropertyOp42
 70
     1
102
RTVSPropertyOp43
 70
     1
102
RTVSPropertyOp44
 70
     1
102
RTVSPropertyOp45
 70
     1
102
RTVSPropertyOp46
 70
     1
102
RTVSPropertyOp47
 70
     1
102
RTVSPropertyOp48
 70
     1
102
RTVSPropertyOp49
 70
     1
102
RTVSPropertyOp50
 70
     1
102
RTVSPropertyOp51
 70
     0
102
RTVSPropertyOp52
 70
     0
102
RTVSPropertyOp53
 70
     1
102
RTVSPropertyOp54
 70
     1
102
RTVSPropertyOp55
 70
     1
102
RTVSPropertyOp56
 70
     1
102
RTVSPropertyOp57
 70
     1
102
RTVSPost2010Prop28
280
     0
102
RTVSPost2010PropOp28
 70
     1
102
RTVSPost2010Prop29
280
     1
102
RTVSPost2010PropOp29
 70
     1
102
RTVSPost2010Prop30
280
     1
102
RTVSPost2010PropOp30
 70
     1
102
RTVSPost2010Prop31
280
     0
102
RTVSPost2010PropOp31
 70
     1
102
RTVSPost2010Prop32
280
     0
102
RTVSPost2010PropOp32
 70
     1
102
RTVSPost2010Prop33
280
     0
102
RTVSPost2010PropOp33
 70
     1
102
RTVSPost2010Prop34
280
     0
102
RTVSPost2010PropOp34
 70
     1
102
RTVSPost2010Prop35
280
     0
102
RTVSPost2010PropOp35
 70
     1
102
RTVSPost2010Prop36
280
     0
102
RTVSPost2010PropOp36
 70
     1
102
RTVSPost2010Prop37
 90
       50
102
RTVSPost2010PropOp37
 70
     1
102
RTVSPost2010Prop38
140
0.0
102
RTVSPost2010PropOp38
 70
     1
102
RTVSPost2010Prop39
140
1.0
102
RTVSPost2010PropOp39
 70
     1
102
RTVSPost2010Prop40
 90
        0
102
RTVSPost2010PropOp40
 70
     1
102
RTVSPost2010Prop41ColorIndex
 90
       18
102
RTVSPost2010Prop41ColorRGB
 90
        0
102
RTVSPost2010PropOp41
 70
     1
102
RTVSPost2010Prop42
 90
       50
102
RTVSPost2010PropOp42
 70
     1
102
RTVSPost2010Prop43
 90
        3
102
RTVSPost2010PropOp43
 70
     1
102
RTVSPost2010Prop44ColorIndex
 90
        5
102
RTVSPost2010Prop44ColorRGB
 90
      255
102
RTVSPost2010PropOp44
 70
     1
102
RTVSPost2010Prop45
280
     0
102
RTVSPost2010PropOp45
 70
     1
102
RTVSPost2010Prop46
 90
       50
102
RTVSPost2010PropOp46
 70
     1
102
RTVSPost2010Prop47
 90
       50
102
RTVSPost2010PropOp47
 70
     1
102
RTVSPost2010Prop48
 90
       50
102
RTVSPost2010PropOp48
 70
     1
102
RTVSPost2010Prop49
280
     0
102
RTVSPost2010PropOp49
 70
     1
102
RTVSPost2010Prop50
 90
       50
102
RTVSPost2010PropOp50
 70
     1
102
RTVSPost2010Prop51ColorIndex
 90
      256
102
RTVSPost2010Prop51ColorRGB
 90
-16777216
102
RTVSPost2010PropOp51
 70
     0
102
RTVSPost2010Prop52
140
1.0
102
RTVSPost2010PropOp52
 70
     0
102
RTVSPost2010Prop53
 90
        2
102
RTVSPost2010PropOp53
 70
     1
102
RTVSPost2010Prop54
  1
strokes_ogs.tif
102
RTVSPost2010PropOp54
 70
     1
102
RTVSPost2010Prop55
280
     0
102
RTVSPost2010PropOp55
 70
     1
102
RTVSPost2010Prop56
140
1.0
102
RTVSPost2010PropOp56
 70
     1
102
RTVSPost2010Prop57
140
1.0
102
RTVSPost2010PropOp57
 70
     1
  0
XRECORD
  5
11BD
102
{ACAD_REACTORS
330
11BC
102
}
330
11BC
100
AcDbXrecord
280
     1
102
RTVSPropertyOp0
 70
     0
102
RTVSPropertyOp1
 70
     0
102
RTVSPropertyOp2
 70
     0
102
RTVSPropertyOp3
 70
     0
102
RTVSPropertyOp4
 70
     0
102
RTVSPropertyOp5
 70
     0
102
RTVSPropertyOp6
 70
     0
102
RTVSPropertyOp7
 70
     0
102
RTVSPropertyOp8
 70
     0
102
RTVSPropertyOp9
 70
     0
102
RTVSPropertyOp10
 70
     0
102
RTVSPropertyOp11
 70
     0
102
RTVSPropertyOp12
 70
     0
102
RTVSPropertyOp13
 70
     0
102
RTVSPropertyOp14
 70
     2
102
RTVSPropertyOp15
 70
     0
102
RTVSPropertyOp16
 70
     0
102
RTVSPropertyOp17
 70
     0
102
RTVSPropertyOp18
 70
     0
102
RTVSPropertyOp19
 70
     0
102
RTVSPropertyOp20
 70
     0
102
RTVSPropertyOp21
 70
     0
102
RTVSPropertyOp22
 70
     0
102
RTVSPropertyOp23
 70
     0
102
RTVSPropertyOp24
 70
     0
102
RTVSPropertyOp25
 70
     0
102
RTVSPropertyOp26
 70
     0
102
RTVSPropertyOp27
 70
     0
102
RTVSPropertyOp28
 70
     0
102
RTVSPropertyOp29
 70
     0
102
RTVSPropertyOp30
 70
     0
102
RTVSPropertyOp31
 70
     0
102
RTVSPropertyOp32
 70
     0
102
RTVSPropertyOp33
 70
     0
102
RTVSPropertyOp34
 70
     0
102
RTVSPropertyOp35
 70
     0
102
RTVSPropertyOp36
 70
     0
102
RTVSPropertyOp37
 70
     0
102
RTVSPropertyOp38
 70
     0
102
RTVSPropertyOp39
 70
     0
102
RTVSPropertyOp40
 70
     0
102
RTVSPropertyOp41
 70
     0
102
RTVSPropertyOp42
 70
     0
102
RTVSPropertyOp43
 70
     0
102
RTVSPropertyOp44
 70
     0
102
RTVSPropertyOp45
 70
     0
102
RTVSPropertyOp46
 70
     0
102
RTVSPropertyOp47
 70
     0
102
RTVSPropertyOp48
 70
     0
102
RTVSPropertyOp49
 70
     0
102
RTVSPropertyOp50
 70
     0
102
RTVSPropertyOp51
 70
     0
102
RTVSPropertyOp52
 70
     0
102
RTVSPropertyOp53
 70
     0
102
RTVSPropertyOp54
 70
     0
102
RTVSPropertyOp55
 70
     0
102
RTVSPropertyOp56
 70
     0
102
RTVSPropertyOp57
 70
     0
102
RTVSPost2010Prop28
280
     0
102
RTVSPost2010PropOp28
 70
     0
102
RTVSPost2010Prop29
280
     1
102
RTVSPost2010PropOp29
 70
     0
102
RTVSPost2010Prop30
280
     1
102
RTVSPost2010PropOp30
 70
     0
102
RTVSPost2010Prop31
280
     0
102
RTVSPost2010PropOp31
 70
     0
102
RTVSPost2010Prop32
280
     0
102
RTVSPost2010PropOp32
 70
     0
102
RTVSPost2010Prop33
280
     0
102
RTVSPost2010PropOp33
 70
     0
102
RTVSPost2010Prop34
280
     0
102
RTVSPost2010PropOp34
 70
     0
102
RTVSPost2010Prop35
280
     0
102
RTVSPost2010PropOp35
 70
     0
102
RTVSPost2010Prop36
280
     0
102
RTVSPost2010PropOp36
 70
     0
102
RTVSPost2010Prop37
 90
       50
102
RTVSPost2010PropOp37
 70
     0
102
RTVSPost2010Prop38
140
0.0
102
RTVSPost2010PropOp38
 70
     0
102
RTVSPost2010Prop39
140
1.0
102
RTVSPost2010PropOp39
 70
     0
102
RTVSPost2010Prop40
 90
        0
102
RTVSPost2010PropOp40
 70
     0
102
RTVSPost2010Prop41ColorIndex
 90
       18
102
RTVSPost2010Prop41ColorRGB
 90
        0
102
RTVSPost2010PropOp41
 70
     0
102
RTVSPost2010Prop42
 90
       50
102
RTVSPost2010PropOp42
 70
     0
102
RTVSPost2010Prop43
 90
        3
102
RTVSPost2010PropOp43
 70
     0
102
RTVSPost2010Prop44ColorIndex
 90
        5
102
RTVSPost2010Prop44ColorRGB
 90
      255
102
RTVSPost2010PropOp44
 70
     0
102
RTVSPost2010Prop45
280
     0
102
RTVSPost2010PropOp45
 70
     0
102
RTVSPost2010Prop46
 90
       50
102
RTVSPost2010PropOp46
 70
     0
102
RTVSPost2010Prop47
 90
       50
102
RTVSPost2010PropOp47
 70
     0
102
RTVSPost2010Prop48
 90
       50
102
RTVSPost2010PropOp48
 70
     0
102
RTVSPost2010Prop49
280
     0
102
RTVSPost2010PropOp49
 70
     0
102
RTVSPost2010Prop50
 90
       50
102
RTVSPost2010PropOp50
 70
     0
102
RTVSPost2010Prop51ColorIndex
 90
      256
102
RTVSPost2010Prop51ColorRGB
 90
-16777216
102
RTVSPost2010PropOp51
 70
     0
102
RTVSPost2010Prop52
140
1.0
102
RTVSPost2010PropOp52
 70
     0
102
RTVSPost2010Prop53
 90
        2
102
RTVSPost2010PropOp53
 70
     0
102
RTVSPost2010Prop54
  1
strokes_ogs.tif
102
RTVSPost2010PropOp54
 70
     0
102
RTVSPost2010Prop55
280
     0
102
RTVSPost2010PropOp55
 70
     0
102
RTVSPost2010Prop56
140
1.0
102
RTVSPost2010PropOp56
 70
     0
102
RTVSPost2010Prop57
140
1.0
102
RTVSPost2010PropOp57
 70
     0
  0
XRECORD
  5
11B7
102
{ACAD_REACTORS
330
11B6
102
}
330
11B6
100
AcDbXrecord
280
     1
102
RTVSPropertyOp0
 70
     1
102
RTVSPropertyOp1
 70
     1
102
RTVSPropertyOp2
 70
     1
102
RTVSPropertyOp3
 70
     1
102
RTVSPropertyOp4
 70
     1
102
RTVSPropertyOp5
 70
     1
102
RTVSPropertyOp6
 70
     1
102
RTVSPropertyOp7
 70
     1
102
RTVSPropertyOp8
 70
     1
102
RTVSPropertyOp9
 70
     1
102
RTVSPropertyOp10
 70
     1
102
RTVSPropertyOp11
 70
     1
102
RTVSPropertyOp12
 70
     1
102
RTVSPropertyOp13
 70
     1
102
RTVSPropertyOp14
 70
     1
102
RTVSPropertyOp15
 70
     1
102
RTVSPropertyOp16
 70
     1
102
RTVSPropertyOp17
 70
     1
102
RTVSPropertyOp18
 70
     1
102
RTVSPropertyOp19
 70
     1
102
RTVSPropertyOp20
 70
     1
102
RTVSPropertyOp21
 70
     1
102
RTVSPropertyOp22
 70
     1
102
RTVSPropertyOp23
 70
     1
102
RTVSPropertyOp24
 70
     1
102
RTVSPropertyOp25
 70
     1
102
RTVSPropertyOp26
 70
     1
102
RTVSPropertyOp27
 70
     1
102
RTVSPropertyOp28
 70
     1
102
RTVSPropertyOp29
 70
     1
102
RTVSPropertyOp30
 70
     1
102
RTVSPropertyOp31
 70
     1
102
RTVSPropertyOp32
 70
     1
102
RTVSPropertyOp33
 70
     1
102
RTVSPropertyOp34
 70
     1
102
RTVSPropertyOp35
 70
     1
102
RTVSPropertyOp36
 70
     1
102
RTVSPropertyOp37
 70
     1
102
RTVSPropertyOp38
 70
     1
102
RTVSPropertyOp39
 70
     1
102
RTVSPropertyOp40
 70
     1
102
RTVSPropertyOp41
 70
     1
102
RTVSPropertyOp42
 70
     1
102
RTVSPropertyOp43
 70
     1
102
RTVSPropertyOp44
 70
     1
102
RTVSPropertyOp45
 70
     1
102
RTVSPropertyOp46
 70
     1
102
RTVSPropertyOp47
 70
     1
102
RTVSPropertyOp48
 70
     1
102
RTVSPropertyOp49
 70
     1
102
RTVSPropertyOp50
 70
     1
102
RTVSPropertyOp51
 70
     0
102
RTVSPropertyOp52
 70
     0
102
RTVSPropertyOp53
 70
     1
102
RTVSPropertyOp54
 70
     1
102
RTVSPropertyOp55
 70
     1
102
RTVSPropertyOp56
 70
     1
102
RTVSPropertyOp57
 70
     1
102
RTVSPost2010Prop28
280
     0
102
RTVSPost2010PropOp28
 70
     1
102
RTVSPost2010Prop29
280
     1
102
RTVSPost2010PropOp29
 70
     1
102
RTVSPost2010Prop30
280
     1
102
RTVSPost2010PropOp30
 70
     1
102
RTVSPost2010Prop31
280
     0
102
RTVSPost2010PropOp31
 70
     1
102
RTVSPost2010Prop32
280
     0
102
RTVSPost2010PropOp32
 70
     1
102
RTVSPost2010Prop33
280
     0
102
RTVSPost2010PropOp33
 70
     1
102
RTVSPost2010Prop34
280
     0
102
RTVSPost2010PropOp34
 70
     1
102
RTVSPost2010Prop35
280
     0
102
RTVSPost2010PropOp35
 70
     1
102
RTVSPost2010Prop36
280
     0
102
RTVSPost2010PropOp36
 70
     1
102
RTVSPost2010Prop37
 90
       50
102
RTVSPost2010PropOp37
 70
     1
102
RTVSPost2010Prop38
140
0.0
102
RTVSPost2010PropOp38
 70
     1
102
RTVSPost2010Prop39
140
1.0
102
RTVSPost2010PropOp39
 70
     1
102
RTVSPost2010Prop40
 90
        0
102
RTVSPost2010PropOp40
 70
     1
102
RTVSPost2010Prop41ColorIndex
 90
       18
102
RTVSPost2010Prop41ColorRGB
 90
        0
102
RTVSPost2010PropOp41
 70
     1
102
RTVSPost2010Prop42
 90
       50
102
RTVSPost2010PropOp42
 70
     1
102
RTVSPost2010Prop43
 90
        3
102
RTVSPost2010PropOp43
 70
     1
102
RTVSPost2010Prop44ColorIndex
 90
        5
102
RTVSPost2010Prop44ColorRGB
 90
      255
102
RTVSPost2010PropOp44
 70
     1
102
RTVSPost2010Prop45
280
     0
102
RTVSPost2010PropOp45
 70
     1
102
RTVSPost2010Prop46
 90
       50
102
RTVSPost2010PropOp46
 70
     1
102
RTVSPost2010Prop47
 90
       50
102
RTVSPost2010PropOp47
 70
     1
102
RTVSPost2010Prop48
 90
       50
102
RTVSPost2010PropOp48
 70
     1
102
RTVSPost2010Prop49
280
     0
102
RTVSPost2010PropOp49
 70
     1
102
RTVSPost2010Prop50
 90
       50
102
RTVSPost2010PropOp50
 70
     1
102
RTVSPost2010Prop51ColorIndex
 90
      256
102
RTVSPost2010Prop51ColorRGB
 90
-16777216
102
RTVSPost2010PropOp51
 70
     0
102
RTVSPost2010Prop52
140
1.0
102
RTVSPost2010PropOp52
 70
     0
102
RTVSPost2010Prop53
 90
        2
102
RTVSPost2010PropOp53
 70
     1
102
RTVSPost2010Prop54
  1
strokes_ogs.tif
102
RTVSPost2010PropOp54
 70
     1
102
RTVSPost2010Prop55
280
     0
102
RTVSPost2010PropOp55
 70
     1
102
RTVSPost2010Prop56
140
1.0
102
RTVSPost2010PropOp56
 70
     1
102
RTVSPost2010Prop57
140
1.0
102
RTVSPost2010PropOp57
 70
     1
  0
XRECORD
  5
11BF
102
{ACAD_REACTORS
330
11BE
102
}
330
11BE
100
AcDbXrecord
280
     1
102
RTVSPropertyOp0
 70
     0
102
RTVSPropertyOp1
 70
     0
102
RTVSPropertyOp2
 70
     0
102
RTVSPropertyOp3
 70
     0
102
RTVSPropertyOp4
 70
     0
102
RTVSPropertyOp5
 70
     0
102
RTVSPropertyOp6
 70
     0
102
RTVSPropertyOp7
 70
     0
102
RTVSPropertyOp8
 70
     0
102
RTVSPropertyOp9
 70
     0
102
RTVSPropertyOp10
 70
     0
102
RTVSPropertyOp11
 70
     0
102
RTVSPropertyOp12
 70
     0
102
RTVSPropertyOp13
 70
     0
102
RTVSPropertyOp14
 70
     2
102
RTVSPropertyOp15
 70
     0
102
RTVSPropertyOp16
 70
     0
102
RTVSPropertyOp17
 70
     0
102
RTVSPropertyOp18
 70
     0
102
RTVSPropertyOp19
 70
     0
102
RTVSPropertyOp20
 70
     0
102
RTVSPropertyOp21
 70
     0
102
RTVSPropertyOp22
 70
     0
102
RTVSPropertyOp23
 70
     0
102
RTVSPropertyOp24
 70
     0
102
RTVSPropertyOp25
 70
     0
102
RTVSPropertyOp26
 70
     0
102
RTVSPropertyOp27
 70
     0
102
RTVSPropertyOp28
 70
     0
102
RTVSPropertyOp29
 70
     0
102
RTVSPropertyOp30
 70
     0
102
RTVSPropertyOp31
 70
     0
102
RTVSPropertyOp32
 70
     0
102
RTVSPropertyOp33
 70
     0
102
RTVSPropertyOp34
 70
     0
102
RTVSPropertyOp35
 70
     0
102
RTVSPropertyOp36
 70
     0
102
RTVSPropertyOp37
 70
     0
102
RTVSPropertyOp38
 70
     0
102
RTVSPropertyOp39
 70
     0
102
RTVSPropertyOp40
 70
     0
102
RTVSPropertyOp41
 70
     0
102
RTVSPropertyOp42
 70
     0
102
RTVSPropertyOp43
 70
     0
102
RTVSPropertyOp44
 70
     0
102
RTVSPropertyOp45
 70
     0
102
RTVSPropertyOp46
 70
     0
102
RTVSPropertyOp47
 70
     0
102
RTVSPropertyOp48
 70
     0
102
RTVSPropertyOp49
 70
     0
102
RTVSPropertyOp50
 70
     0
102
RTVSPropertyOp51
 70
     0
102
RTVSPropertyOp52
 70
     0
102
RTVSPropertyOp53
 70
     0
102
RTVSPropertyOp54
 70
     0
102
RTVSPropertyOp55
 70
     0
102
RTVSPropertyOp56
 70
     0
102
RTVSPropertyOp57
 70
     0
102
RTVSPost2010Prop28
280
     0
102
RTVSPost2010PropOp28
 70
     0
102
RTVSPost2010Prop29
280
     1
102
RTVSPost2010PropOp29
 70
     0
102
RTVSPost2010Prop30
280
     1
102
RTVSPost2010PropOp30
 70
     0
102
RTVSPost2010Prop31
280
     0
102
RTVSPost2010PropOp31
 70
     0
102
RTVSPost2010Prop32
280
     0
102
RTVSPost2010PropOp32
 70
     0
102
RTVSPost2010Prop33
280
     0
102
RTVSPost2010PropOp33
 70
     0
102
RTVSPost2010Prop34
280
     0
102
RTVSPost2010PropOp34
 70
     0
102
RTVSPost2010Prop35
280
     0
102
RTVSPost2010PropOp35
 70
     0
102
RTVSPost2010Prop36
280
     0
102
RTVSPost2010PropOp36
 70
     0
102
RTVSPost2010Prop37
 90
       50
102
RTVSPost2010PropOp37
 70
     0
102
RTVSPost2010Prop38
140
0.0
102
RTVSPost2010PropOp38
 70
     0
102
RTVSPost2010Prop39
140
1.0
102
RTVSPost2010PropOp39
 70
     0
102
RTVSPost2010Prop40
 90
        0
102
RTVSPost2010PropOp40
 70
     0
102
RTVSPost2010Prop41ColorIndex
 90
       18
102
RTVSPost2010Prop41ColorRGB
 90
        0
102
RTVSPost2010PropOp41
 70
     0
102
RTVSPost2010Prop42
 90
       50
102
RTVSPost2010PropOp42
 70
     0
102
RTVSPost2010Prop43
 90
        3
102
RTVSPost2010PropOp43
 70
     0
102
RTVSPost2010Prop44ColorIndex
 90
        5
102
RTVSPost2010Prop44ColorRGB
 90
      255
102
RTVSPost2010PropOp44
 70
     0
102
RTVSPost2010Prop45
280
     0
102
RTVSPost2010PropOp45
 70
     0
102
RTVSPost2010Prop46
 90
       50
102
RTVSPost2010PropOp46
 70
     0
102
RTVSPost2010Prop47
 90
       50
102
RTVSPost2010PropOp47
 70
     0
102
RTVSPost2010Prop48
 90
       50
102
RTVSPost2010PropOp48
 70
     0
102
RTVSPost2010Prop49
280
     0
102
RTVSPost2010PropOp49
 70
     0
102
RTVSPost2010Prop50
 90
       50
102
RTVSPost2010PropOp50
 70
     0
102
RTVSPost2010Prop51ColorIndex
 90
      256
102
RTVSPost2010Prop51ColorRGB
 90
-16777216
102
RTVSPost2010PropOp51
 70
     0
102
RTVSPost2010Prop52
140
1.0
102
RTVSPost2010PropOp52
 70
     0
102
RTVSPost2010Prop53
 90
        2
102
RTVSPost2010PropOp53
 70
     0
102
RTVSPost2010Prop54
  1
strokes_ogs.tif
102
RTVSPost2010PropOp54
 70
     0
102
RTVSPost2010Prop55
280
     0
102
RTVSPost2010PropOp55
 70
     0
102
RTVSPost2010Prop56
140
1.0
102
RTVSPost2010PropOp56
 70
     0
102
RTVSPost2010Prop57
140
1.0
102
RTVSPost2010PropOp57
 70
     0
  0
XRECORD
  5
11AD
102
{ACAD_REACTORS
330
11AC
102
}
330
11AC
100
AcDbXrecord
280
     1
102
RTVSPropertyOp0
 70
     1
102
RTVSPropertyOp1
 70
     1
102
RTVSPropertyOp2
 70
     1
102
RTVSPropertyOp3
 70
     1
102
RTVSPropertyOp4
 70
     1
102
RTVSPropertyOp5
 70
     1
102
RTVSPropertyOp6
 70
     1
102
RTVSPropertyOp7
 70
     1
102
RTVSPropertyOp8
 70
     1
102
RTVSPropertyOp9
 70
     1
102
RTVSPropertyOp10
 70
     1
102
RTVSPropertyOp11
 70
     1
102
RTVSPropertyOp12
 70
     1
102
RTVSPropertyOp13
 70
     1
102
RTVSPropertyOp14
 70
     1
102
RTVSPropertyOp15
 70
     1
102
RTVSPropertyOp16
 70
     1
102
RTVSPropertyOp17
 70
     1
102
RTVSPropertyOp18
 70
     1
102
RTVSPropertyOp19
 70
     1
102
RTVSPropertyOp20
 70
     1
102
RTVSPropertyOp21
 70
     1
102
RTVSPropertyOp22
 70
     1
102
RTVSPropertyOp23
 70
     1
102
RTVSPropertyOp24
 70
     1
102
RTVSPropertyOp25
 70
     1
102
RTVSPropertyOp26
 70
     1
102
RTVSPropertyOp27
 70
     1
102
RTVSPropertyOp28
 70
     1
102
RTVSPropertyOp29
 70
     1
102
RTVSPropertyOp30
 70
     1
102
RTVSPropertyOp31
 70
     1
102
RTVSPropertyOp32
 70
     1
102
RTVSPropertyOp33
 70
     1
102
RTVSPropertyOp34
 70
     1
102
RTVSPropertyOp35
 70
     1
102
RTVSPropertyOp36
 70
     1
102
RTVSPropertyOp37
 70
     1
102
RTVSPropertyOp38
 70
     1
102
RTVSPropertyOp39
 70
     1
102
RTVSPropertyOp40
 70
     1
102
RTVSPropertyOp41
 70
     1
102
RTVSPropertyOp42
 70
     1
102
RTVSPropertyOp43
 70
     1
102
RTVSPropertyOp44
 70
     1
102
RTVSPropertyOp45
 70
     1
102
RTVSPropertyOp46
 70
     1
102
RTVSPropertyOp47
 70
     1
102
RTVSPropertyOp48
 70
     1
102
RTVSPropertyOp49
 70
     1
102
RTVSPropertyOp50
 70
     1
102
RTVSPropertyOp51
 70
     0
102
RTVSPropertyOp52
 70
     0
102
RTVSPropertyOp53
 70
     1
102
RTVSPropertyOp54
 70
     1
102
RTVSPropertyOp55
 70
     1
102
RTVSPropertyOp56
 70
     1
102
RTVSPropertyOp57
 70
     1
102
RTVSPost2010Prop28
280
     0
102
RTVSPost2010PropOp28
 70
     1
102
RTVSPost2010Prop29
280
     1
102
RTVSPost2010PropOp29
 70
     1
102
RTVSPost2010Prop30
280
     1
102
RTVSPost2010PropOp30
 70
     1
102
RTVSPost2010Prop31
280
     0
102
RTVSPost2010PropOp31
 70
     1
102
RTVSPost2010Prop32
280
     0
102
RTVSPost2010PropOp32
 70
     1
102
RTVSPost2010Prop33
280
     0
102
RTVSPost2010PropOp33
 70
     1
102
RTVSPost2010Prop34
280
     0
102
RTVSPost2010PropOp34
 70
     1
102
RTVSPost2010Prop35
280
     0
102
RTVSPost2010PropOp35
 70
     1
102
RTVSPost2010Prop36
280
     0
102
RTVSPost2010PropOp36
 70
     1
102
RTVSPost2010Prop37
 90
       50
102
RTVSPost2010PropOp37
 70
     1
102
RTVSPost2010Prop38
140
0.0
102
RTVSPost2010PropOp38
 70
     1
102
RTVSPost2010Prop39
140
1.0
102
RTVSPost2010PropOp39
 70
     1
102
RTVSPost2010Prop40
 90
        0
102
RTVSPost2010PropOp40
 70
     1
102
RTVSPost2010Prop41ColorIndex
 90
       18
102
RTVSPost2010Prop41ColorRGB
 90
        0
102
RTVSPost2010PropOp41
 70
     1
102
RTVSPost2010Prop42
 90
       50
102
RTVSPost2010PropOp42
 70
     1
102
RTVSPost2010Prop43
 90
        3
102
RTVSPost2010PropOp43
 70
     1
102
RTVSPost2010Prop44ColorIndex
 90
        5
102
RTVSPost2010Prop44ColorRGB
 90
      255
102
RTVSPost2010PropOp44
 70
     1
102
RTVSPost2010Prop45
280
     0
102
RTVSPost2010PropOp45
 70
     1
102
RTVSPost2010Prop46
 90
       50
102
RTVSPost2010PropOp46
 70
     1
102
RTVSPost2010Prop47
 90
       50
102
RTVSPost2010PropOp47
 70
     1
102
RTVSPost2010Prop48
 90
       50
102
RTVSPost2010PropOp48
 70
     1
102
RTVSPost2010Prop49
280
     0
102
RTVSPost2010PropOp49
 70
     1
102
RTVSPost2010Prop50
 90
       50
102
RTVSPost2010PropOp50
 70
     1
102
RTVSPost2010Prop51ColorIndex
 90
      256
102
RTVSPost2010Prop51ColorRGB
 90
-16777216
102
RTVSPost2010PropOp51
 70
     0
102
RTVSPost2010Prop52
140
1.0
102
RTVSPost2010PropOp52
 70
     0
102
RTVSPost2010Prop53
 90
        2
102
RTVSPost2010PropOp53
 70
     1
102
RTVSPost2010Prop54
  1
strokes_ogs.tif
102
RTVSPost2010PropOp54
 70
     1
102
RTVSPost2010Prop55
280
     0
102
RTVSPost2010PropOp55
 70
     1
102
RTVSPost2010Prop56
140
1.0
102
RTVSPost2010PropOp56
 70
     1
102
RTVSPost2010Prop57
140
1.0
102
RTVSPost2010PropOp57
 70
     1
  0
XRECORD
  5
11CB
102
{ACAD_REACTORS
330
11CA
102
}
330
11CA
100
AcDbXrecord
280
     1
102
RTVSPropertyOp0
 70
     1
102
RTVSPropertyOp1
 70
     1
102
RTVSPropertyOp2
 70
     1
102
RTVSPropertyOp3
 70
     1
102
RTVSPropertyOp4
 70
     1
102
RTVSPropertyOp5
 70
     1
102
RTVSPropertyOp6
 70
     1
102
RTVSPropertyOp7
 70
     1
102
RTVSPropertyOp8
 70
     1
102
RTVSPropertyOp9
 70
     1
102
RTVSPropertyOp10
 70
     1
102
RTVSPropertyOp11
 70
     1
102
RTVSPropertyOp12
 70
     1
102
RTVSPropertyOp13
 70
     1
102
RTVSPropertyOp14
 70
     1
102
RTVSPropertyOp15
 70
     1
102
RTVSPropertyOp16
 70
     1
102
RTVSPropertyOp17
 70
     1
102
RTVSPropertyOp18
 70
     1
102
RTVSPropertyOp19
 70
     1
102
RTVSPropertyOp20
 70
     1
102
RTVSPropertyOp21
 70
     1
102
RTVSPropertyOp22
 70
     1
102
RTVSPropertyOp23
 70
     1
102
RTVSPropertyOp24
 70
     1
102
RTVSPropertyOp25
 70
     1
102
RTVSPropertyOp26
 70
     1
102
RTVSPropertyOp27
 70
     1
102
RTVSPropertyOp28
 70
     1
102
RTVSPropertyOp29
 70
     1
102
RTVSPropertyOp30
 70
     1
102
RTVSPropertyOp31
 70
     1
102
RTVSPropertyOp32
 70
     1
102
RTVSPropertyOp33
 70
     1
102
RTVSPropertyOp34
 70
     1
102
RTVSPropertyOp35
 70
     1
102
RTVSPropertyOp36
 70
     1
102
RTVSPropertyOp37
 70
     1
102
RTVSPropertyOp38
 70
     1
102
RTVSPropertyOp39
 70
     1
102
RTVSPropertyOp40
 70
     1
102
RTVSPropertyOp41
 70
     1
102
RTVSPropertyOp42
 70
     1
102
RTVSPropertyOp43
 70
     1
102
RTVSPropertyOp44
 70
     1
102
RTVSPropertyOp45
 70
     1
102
RTVSPropertyOp46
 70
     1
102
RTVSPropertyOp47
 70
     1
102
RTVSPropertyOp48
 70
     1
102
RTVSPropertyOp49
 70
     1
102
RTVSPropertyOp50
 70
     1
102
RTVSPropertyOp51
 70
     0
102
RTVSPropertyOp52
 70
     0
102
RTVSPropertyOp53
 70
     1
102
RTVSPropertyOp54
 70
     1
102
RTVSPropertyOp55
 70
     1
102
RTVSPropertyOp56
 70
     1
102
RTVSPropertyOp57
 70
     1
102
RTVSPost2010Prop28
280
     0
102
RTVSPost2010PropOp28
 70
     1
102
RTVSPost2010Prop29
280
     1
102
RTVSPost2010PropOp29
 70
     1
102
RTVSPost2010Prop30
280
     1
102
RTVSPost2010PropOp30
 70
     1
102
RTVSPost2010Prop31
280
     0
102
RTVSPost2010PropOp31
 70
     1
102
RTVSPost2010Prop32
280
     0
102
RTVSPost2010PropOp32
 70
     1
102
RTVSPost2010Prop33
280
     0
102
RTVSPost2010PropOp33
 70
     1
102
RTVSPost2010Prop34
280
     0
102
RTVSPost2010PropOp34
 70
     1
102
RTVSPost2010Prop35
280
     0
102
RTVSPost2010PropOp35
 70
     1
102
RTVSPost2010Prop36
280
     0
102
RTVSPost2010PropOp36
 70
     1
102
RTVSPost2010Prop37
 90
       50
102
RTVSPost2010PropOp37
 70
     1
102
RTVSPost2010Prop38
140
0.0
102
RTVSPost2010PropOp38
 70
     1
102
RTVSPost2010Prop39
140
1.0
102
RTVSPost2010PropOp39
 70
     1
102
RTVSPost2010Prop40
 90
        0
102
RTVSPost2010PropOp40
 70
     1
102
RTVSPost2010Prop41ColorIndex
 90
       18
102
RTVSPost2010Prop41ColorRGB
 90
        0
102
RTVSPost2010PropOp41
 70
     1
102
RTVSPost2010Prop42
 90
       50
102
RTVSPost2010PropOp42
 70
     1
102
RTVSPost2010Prop43
 90
        3
102
RTVSPost2010PropOp43
 70
     1
102
RTVSPost2010Prop44ColorIndex
 90
        5
102
RTVSPost2010Prop44ColorRGB
 90
      255
102
RTVSPost2010PropOp44
 70
     1
102
RTVSPost2010Prop45
280
     0
102
RTVSPost2010PropOp45
 70
     1
102
RTVSPost2010Prop46
 90
       50
102
RTVSPost2010PropOp46
 70
     1
102
RTVSPost2010Prop47
 90
       50
102
RTVSPost2010PropOp47
 70
     1
102
RTVSPost2010Prop48
 90
       50
102
RTVSPost2010PropOp48
 70
     1
102
RTVSPost2010Prop49
280
     0
102
RTVSPost2010PropOp49
 70
     1
102
RTVSPost2010Prop50
 90
       50
102
RTVSPost2010PropOp50
 70
     1
102
RTVSPost2010Prop51ColorIndex
 90
      256
102
RTVSPost2010Prop51ColorRGB
 90
-16777216
102
RTVSPost2010PropOp51
 70
     0
102
RTVSPost2010Prop52
140
1.0
102
RTVSPost2010PropOp52
 70
     0
102
RTVSPost2010Prop53
 90
        2
102
RTVSPost2010PropOp53
 70
     1
102
RTVSPost2010Prop54
  1
strokes_ogs.tif
102
RTVSPost2010PropOp54
 70
     1
102
RTVSPost2010Prop55
280
     0
102
RTVSPost2010PropOp55
 70
     1
102
RTVSPost2010Prop56
140
1.0
102
RTVSPost2010PropOp56
 70
     1
102
RTVSPost2010Prop57
140
1.0
102
RTVSPost2010PropOp57
 70
     1
  0
XRECORD
  5
11C9
102
{ACAD_REACTORS
330
11C8
102
}
330
11C8
100
AcDbXrecord
280
     1
102
RTVSPropertyOp0
 70
     1
102
RTVSPropertyOp1
 70
     1
102
RTVSPropertyOp2
 70
     1
102
RTVSPropertyOp3
 70
     1
102
RTVSPropertyOp4
 70
     1
102
RTVSPropertyOp5
 70
     1
102
RTVSPropertyOp6
 70
     1
102
RTVSPropertyOp7
 70
     1
102
RTVSPropertyOp8
 70
     1
102
RTVSPropertyOp9
 70
     1
102
RTVSPropertyOp10
 70
     1
102
RTVSPropertyOp11
 70
     1
102
RTVSPropertyOp12
 70
     1
102
RTVSPropertyOp13
 70
     1
102
RTVSPropertyOp14
 70
     1
102
RTVSPropertyOp15
 70
     1
102
RTVSPropertyOp16
 70
     1
102
RTVSPropertyOp17
 70
     1
102
RTVSPropertyOp18
 70
     1
102
RTVSPropertyOp19
 70
     1
102
RTVSPropertyOp20
 70
     1
102
RTVSPropertyOp21
 70
     1
102
RTVSPropertyOp22
 70
     1
102
RTVSPropertyOp23
 70
     1
102
RTVSPropertyOp24
 70
     1
102
RTVSPropertyOp25
 70
     1
102
RTVSPropertyOp26
 70
     1
102
RTVSPropertyOp27
 70
     1
102
RTVSPropertyOp28
 70
     1
102
RTVSPropertyOp29
 70
     1
102
RTVSPropertyOp30
 70
     1
102
RTVSPropertyOp31
 70
     1
102
RTVSPropertyOp32
 70
     1
102
RTVSPropertyOp33
 70
     1
102
RTVSPropertyOp34
 70
     1
102
RTVSPropertyOp35
 70
     1
102
RTVSPropertyOp36
 70
     1
102
RTVSPropertyOp37
 70
     1
102
RTVSPropertyOp38
 70
     1
102
RTVSPropertyOp39
 70
     1
102
RTVSPropertyOp40
 70
     1
102
RTVSPropertyOp41
 70
     1
102
RTVSPropertyOp42
 70
     1
102
RTVSPropertyOp43
 70
     1
102
RTVSPropertyOp44
 70
     1
102
RTVSPropertyOp45
 70
     1
102
RTVSPropertyOp46
 70
     1
102
RTVSPropertyOp47
 70
     1
102
RTVSPropertyOp48
 70
     1
102
RTVSPropertyOp49
 70
     1
102
RTVSPropertyOp50
 70
     1
102
RTVSPropertyOp51
 70
     0
102
RTVSPropertyOp52
 70
     0
102
RTVSPropertyOp53
 70
     1
102
RTVSPropertyOp54
 70
     1
102
RTVSPropertyOp55
 70
     1
102
RTVSPropertyOp56
 70
     1
102
RTVSPropertyOp57
 70
     1
102
RTVSPost2010Prop28
280
     0
102
RTVSPost2010PropOp28
 70
     1
102
RTVSPost2010Prop29
280
     1
102
RTVSPost2010PropOp29
 70
     1
102
RTVSPost2010Prop30
280
     1
102
RTVSPost2010PropOp30
 70
     1
102
RTVSPost2010Prop31
280
     0
102
RTVSPost2010PropOp31
 70
     1
102
RTVSPost2010Prop32
280
     0
102
RTVSPost2010PropOp32
 70
     1
102
RTVSPost2010Prop33
280
     0
102
RTVSPost2010PropOp33
 70
     1
102
RTVSPost2010Prop34
280
     0
102
RTVSPost2010PropOp34
 70
     1
102
RTVSPost2010Prop35
280
     0
102
RTVSPost2010PropOp35
 70
     1
102
RTVSPost2010Prop36
280
     0
102
RTVSPost2010PropOp36
 70
     1
102
RTVSPost2010Prop37
 90
       50
102
RTVSPost2010PropOp37
 70
     1
102
RTVSPost2010Prop38
140
0.0
102
RTVSPost2010PropOp38
 70
     1
102
RTVSPost2010Prop39
140
1.0
102
RTVSPost2010PropOp39
 70
     1
102
RTVSPost2010Prop40
 90
        0
102
RTVSPost2010PropOp40
 70
     1
102
RTVSPost2010Prop41ColorIndex
 90
       18
102
RTVSPost2010Prop41ColorRGB
 90
        0
102
RTVSPost2010PropOp41
 70
     1
102
RTVSPost2010Prop42
 90
       50
102
RTVSPost2010PropOp42
 70
     1
102
RTVSPost2010Prop43
 90
        3
102
RTVSPost2010PropOp43
 70
     1
102
RTVSPost2010Prop44ColorIndex
 90
        5
102
RTVSPost2010Prop44ColorRGB
 90
      255
102
RTVSPost2010PropOp44
 70
     1
102
RTVSPost2010Prop45
280
     0
102
RTVSPost2010PropOp45
 70
     1
102
RTVSPost2010Prop46
 90
       50
102
RTVSPost2010PropOp46
 70
     1
102
RTVSPost2010Prop47
 90
       50
102
RTVSPost2010PropOp47
 70
     1
102
RTVSPost2010Prop48
 90
       50
102
RTVSPost2010PropOp48
 70
     1
102
RTVSPost2010Prop49
280
     0
102
RTVSPost2010PropOp49
 70
     1
102
RTVSPost2010Prop50
 90
       50
102
RTVSPost2010PropOp50
 70
     1
102
RTVSPost2010Prop51ColorIndex
 90
      256
102
RTVSPost2010Prop51ColorRGB
 90
-16777216
102
RTVSPost2010PropOp51
 70
     0
102
RTVSPost2010Prop52
140
1.0
102
RTVSPost2010PropOp52
 70
     0
102
RTVSPost2010Prop53
 90
        2
102
RTVSPost2010PropOp53
 70
     1
102
RTVSPost2010Prop54
  1
strokes_ogs.tif
102
RTVSPost2010PropOp54
 70
     1
102
RTVSPost2010Prop55
280
     0
102
RTVSPost2010PropOp55
 70
     1
102
RTVSPost2010Prop56
140
1.0
102
RTVSPost2010PropOp56
 70
     1
102
RTVSPost2010Prop57
140
1.0
102
RTVSPost2010PropOp57
 70
     1
  0
XRECORD
  5
11C3
102
{ACAD_REACTORS
330
11C2
102
}
330
11C2
100
AcDbXrecord
280
     1
102
RTVSPropertyOp0
 70
     1
102
RTVSPropertyOp1
 70
     1
102
RTVSPropertyOp2
 70
     1
102
RTVSPropertyOp3
 70
     1
102
RTVSPropertyOp4
 70
     1
102
RTVSPropertyOp5
 70
     1
102
RTVSPropertyOp6
 70
     1
102
RTVSPropertyOp7
 70
     1
102
RTVSPropertyOp8
 70
     1
102
RTVSPropertyOp9
 70
     1
102
RTVSPropertyOp10
 70
     1
102
RTVSPropertyOp11
 70
     1
102
RTVSPropertyOp12
 70
     1
102
RTVSPropertyOp13
 70
     1
102
RTVSPropertyOp14
 70
     1
102
RTVSPropertyOp15
 70
     1
102
RTVSPropertyOp16
 70
     1
102
RTVSPropertyOp17
 70
     1
102
RTVSPropertyOp18
 70
     1
102
RTVSPropertyOp19
 70
     1
102
RTVSPropertyOp20
 70
     1
102
RTVSPropertyOp21
 70
     1
102
RTVSPropertyOp22
 70
     1
102
RTVSPropertyOp23
 70
     1
102
RTVSPropertyOp24
 70
     1
102
RTVSPropertyOp25
 70
     1
102
RTVSPropertyOp26
 70
     1
102
RTVSPropertyOp27
 70
     1
102
RTVSPropertyOp28
 70
     1
102
RTVSPropertyOp29
 70
     1
102
RTVSPropertyOp30
 70
     1
102
RTVSPropertyOp31
 70
     1
102
RTVSPropertyOp32
 70
     1
102
RTVSPropertyOp33
 70
     1
102
RTVSPropertyOp34
 70
     1
102
RTVSPropertyOp35
 70
     1
102
RTVSPropertyOp36
 70
     1
102
RTVSPropertyOp37
 70
     1
102
RTVSPropertyOp38
 70
     1
102
RTVSPropertyOp39
 70
     1
102
RTVSPropertyOp40
 70
     1
102
RTVSPropertyOp41
 70
     1
102
RTVSPropertyOp42
 70
     1
102
RTVSPropertyOp43
 70
     1
102
RTVSPropertyOp44
 70
     1
102
RTVSPropertyOp45
 70
     1
102
RTVSPropertyOp46
 70
     1
102
RTVSPropertyOp47
 70
     1
102
RTVSPropertyOp48
 70
     1
102
RTVSPropertyOp49
 70
     1
102
RTVSPropertyOp50
 70
     1
102
RTVSPropertyOp51
 70
     0
102
RTVSPropertyOp52
 70
     0
102
RTVSPropertyOp53
 70
     1
102
RTVSPropertyOp54
 70
     1
102
RTVSPropertyOp55
 70
     1
102
RTVSPropertyOp56
 70
     1
102
RTVSPropertyOp57
 70
     1
102
RTVSPost2010Prop28
280
     0
102
RTVSPost2010PropOp28
 70
     1
102
RTVSPost2010Prop29
280
     1
102
RTVSPost2010PropOp29
 70
     1
102
RTVSPost2010Prop30
280
     1
102
RTVSPost2010PropOp30
 70
     1
102
RTVSPost2010Prop31
280
     0
102
RTVSPost2010PropOp31
 70
     1
102
RTVSPost2010Prop32
280
     0
102
RTVSPost2010PropOp32
 70
     1
102
RTVSPost2010Prop33
280
     0
102
RTVSPost2010PropOp33
 70
     1
102
RTVSPost2010Prop34
280
     0
102
RTVSPost2010PropOp34
 70
     1
102
RTVSPost2010Prop35
280
     0
102
RTVSPost2010PropOp35
 70
     1
102
RTVSPost2010Prop36
280
     0
102
RTVSPost2010PropOp36
 70
     1
102
RTVSPost2010Prop37
 90
       50
102
RTVSPost2010PropOp37
 70
     1
102
RTVSPost2010Prop38
140
0.0
102
RTVSPost2010PropOp38
 70
     1
102
RTVSPost2010Prop39
140
1.0
102
RTVSPost2010PropOp39
 70
     1
102
RTVSPost2010Prop40
 90
        0
102
RTVSPost2010PropOp40
 70
     1
102
RTVSPost2010Prop41ColorIndex
 90
       18
102
RTVSPost2010Prop41ColorRGB
 90
        0
102
RTVSPost2010PropOp41
 70
     1
102
RTVSPost2010Prop42
 90
       50
102
RTVSPost2010PropOp42
 70
     1
102
RTVSPost2010Prop43
 90
        3
102
RTVSPost2010PropOp43
 70
     1
102
RTVSPost2010Prop44ColorIndex
 90
        5
102
RTVSPost2010Prop44ColorRGB
 90
      255
102
RTVSPost2010PropOp44
 70
     1
102
RTVSPost2010Prop45
280
     0
102
RTVSPost2010PropOp45
 70
     1
102
RTVSPost2010Prop46
 90
       50
102
RTVSPost2010PropOp46
 70
     1
102
RTVSPost2010Prop47
 90
       50
102
RTVSPost2010PropOp47
 70
     1
102
RTVSPost2010Prop48
 90
       50
102
RTVSPost2010PropOp48
 70
     1
102
RTVSPost2010Prop49
280
     0
102
RTVSPost2010PropOp49
 70
     1
102
RTVSPost2010Prop50
 90
       50
102
RTVSPost2010PropOp50
 70
     1
102
RTVSPost2010Prop51ColorIndex
 90
      256
102
RTVSPost2010Prop51ColorRGB
 90
-16777216
102
RTVSPost2010PropOp51
 70
     0
102
RTVSPost2010Prop52
140
1.0
102
RTVSPost2010PropOp52
 70
     0
102
RTVSPost2010Prop53
 90
        2
102
RTVSPost2010PropOp53
 70
     1
102
RTVSPost2010Prop54
  1
strokes_ogs.tif
102
RTVSPost2010PropOp54
 70
     1
102
RTVSPost2010Prop55
280
     0
102
RTVSPost2010PropOp55
 70
     1
102
RTVSPost2010Prop56
140
1.0
102
RTVSPost2010PropOp56
 70
     1
102
RTVSPost2010Prop57
140
1.0
102
RTVSPost2010PropOp57
 70
     1
  0
XRECORD
  5
11C5
102
{ACAD_REACTORS
330
11C4
102
}
330
11C4
100
AcDbXrecord
280
     1
102
RTVSPropertyOp0
 70
     1
102
RTVSPropertyOp1
 70
     1
102
RTVSPropertyOp2
 70
     1
102
RTVSPropertyOp3
 70
     1
102
RTVSPropertyOp4
 70
     1
102
RTVSPropertyOp5
 70
     1
102
RTVSPropertyOp6
 70
     1
102
RTVSPropertyOp7
 70
     1
102
RTVSPropertyOp8
 70
     1
102
RTVSPropertyOp9
 70
     1
102
RTVSPropertyOp10
 70
     1
102
RTVSPropertyOp11
 70
     1
102
RTVSPropertyOp12
 70
     1
102
RTVSPropertyOp13
 70
     1
102
RTVSPropertyOp14
 70
     1
102
RTVSPropertyOp15
 70
     1
102
RTVSPropertyOp16
 70
     1
102
RTVSPropertyOp17
 70
     1
102
RTVSPropertyOp18
 70
     1
102
RTVSPropertyOp19
 70
     1
102
RTVSPropertyOp20
 70
     1
102
RTVSPropertyOp21
 70
     1
102
RTVSPropertyOp22
 70
     1
102
RTVSPropertyOp23
 70
     1
102
RTVSPropertyOp24
 70
     1
102
RTVSPropertyOp25
 70
     1
102
RTVSPropertyOp26
 70
     1
102
RTVSPropertyOp27
 70
     1
102
RTVSPropertyOp28
 70
     1
102
RTVSPropertyOp29
 70
     1
102
RTVSPropertyOp30
 70
     1
102
RTVSPropertyOp31
 70
     1
102
RTVSPropertyOp32
 70
     1
102
RTVSPropertyOp33
 70
     1
102
RTVSPropertyOp34
 70
     1
102
RTVSPropertyOp35
 70
     1
102
RTVSPropertyOp36
 70
     1
102
RTVSPropertyOp37
 70
     1
102
RTVSPropertyOp38
 70
     1
102
RTVSPropertyOp39
 70
     1
102
RTVSPropertyOp40
 70
     1
102
RTVSPropertyOp41
 70
     1
102
RTVSPropertyOp42
 70
     1
102
RTVSPropertyOp43
 70
     1
102
RTVSPropertyOp44
 70
     1
102
RTVSPropertyOp45
 70
     1
102
RTVSPropertyOp46
 70
     1
102
RTVSPropertyOp47
 70
     1
102
RTVSPropertyOp48
 70
     1
102
RTVSPropertyOp49
 70
     1
102
RTVSPropertyOp50
 70
     1
102
RTVSPropertyOp51
 70
     0
102
RTVSPropertyOp52
 70
     0
102
RTVSPropertyOp53
 70
     1
102
RTVSPropertyOp54
 70
     1
102
RTVSPropertyOp55
 70
     1
102
RTVSPropertyOp56
 70
     1
102
RTVSPropertyOp57
 70
     1
102
RTVSPost2010Prop28
280
     0
102
RTVSPost2010PropOp28
 70
     1
102
RTVSPost2010Prop29
280
     1
102
RTVSPost2010PropOp29
 70
     1
102
RTVSPost2010Prop30
280
     1
102
RTVSPost2010PropOp30
 70
     1
102
RTVSPost2010Prop31
280
     0
102
RTVSPost2010PropOp31
 70
     1
102
RTVSPost2010Prop32
280
     0
102
RTVSPost2010PropOp32
 70
     1
102
RTVSPost2010Prop33
280
     0
102
RTVSPost2010PropOp33
 70
     1
102
RTVSPost2010Prop34
280
     0
102
RTVSPost2010PropOp34
 70
     1
102
RTVSPost2010Prop35
280
     0
102
RTVSPost2010PropOp35
 70
     1
102
RTVSPost2010Prop36
280
     0
102
RTVSPost2010PropOp36
 70
     1
102
RTVSPost2010Prop37
 90
       50
102
RTVSPost2010PropOp37
 70
     1
102
RTVSPost2010Prop38
140
0.0
102
RTVSPost2010PropOp38
 70
     1
102
RTVSPost2010Prop39
140
1.0
102
RTVSPost2010PropOp39
 70
     1
102
RTVSPost2010Prop40
 90
        0
102
RTVSPost2010PropOp40
 70
     1
102
RTVSPost2010Prop41ColorIndex
 90
       18
102
RTVSPost2010Prop41ColorRGB
 90
        0
102
RTVSPost2010PropOp41
 70
     1
102
RTVSPost2010Prop42
 90
       50
102
RTVSPost2010PropOp42
 70
     1
102
RTVSPost2010Prop43
 90
        3
102
RTVSPost2010PropOp43
 70
     1
102
RTVSPost2010Prop44ColorIndex
 90
        5
102
RTVSPost2010Prop44ColorRGB
 90
      255
102
RTVSPost2010PropOp44
 70
     1
102
RTVSPost2010Prop45
280
     0
102
RTVSPost2010PropOp45
 70
     1
102
RTVSPost2010Prop46
 90
       50
102
RTVSPost2010PropOp46
 70
     1
102
RTVSPost2010Prop47
 90
       50
102
RTVSPost2010PropOp47
 70
     1
102
RTVSPost2010Prop48
 90
       50
102
RTVSPost2010PropOp48
 70
     1
102
RTVSPost2010Prop49
280
     0
102
RTVSPost2010PropOp49
 70
     1
102
RTVSPost2010Prop50
 90
       50
102
RTVSPost2010PropOp50
 70
     1
102
RTVSPost2010Prop51ColorIndex
 90
      256
102
RTVSPost2010Prop51ColorRGB
 90
-16777216
102
RTVSPost2010PropOp51
 70
     0
102
RTVSPost2010Prop52
140
1.0
102
RTVSPost2010PropOp52
 70
     0
102
RTVSPost2010Prop53
 90
        2
102
RTVSPost2010PropOp53
 70
     1
102
RTVSPost2010Prop54
  1
strokes_ogs.tif
102
RTVSPost2010PropOp54
 70
     1
102
RTVSPost2010Prop55
280
     0
102
RTVSPost2010PropOp55
 70
     1
102
RTVSPost2010Prop56
140
1.0
102
RTVSPost2010PropOp56
 70
     1
102
RTVSPost2010Prop57
140
1.0
102
RTVSPost2010PropOp57
 70
     1
  0
XRECORD
  5
11B5
102
{ACAD_REACTORS
330
11B4
102
}
330
11B4
100
AcDbXrecord
280
     1
102
RTVSPropertyOp0
 70
     1
102
RTVSPropertyOp1
 70
     1
102
RTVSPropertyOp2
 70
     1
102
RTVSPropertyOp3
 70
     1
102
RTVSPropertyOp4
 70
     1
102
RTVSPropertyOp5
 70
     1
102
RTVSPropertyOp6
 70
     1
102
RTVSPropertyOp7
 70
     1
102
RTVSPropertyOp8
 70
     1
102
RTVSPropertyOp9
 70
     1
102
RTVSPropertyOp10
 70
     1
102
RTVSPropertyOp11
 70
     1
102
RTVSPropertyOp12
 70
     1
102
RTVSPropertyOp13
 70
     1
102
RTVSPropertyOp14
 70
     1
102
RTVSPropertyOp15
 70
     1
102
RTVSPropertyOp16
 70
     1
102
RTVSPropertyOp17
 70
     1
102
RTVSPropertyOp18
 70
     1
102
RTVSPropertyOp19
 70
     1
102
RTVSPropertyOp20
 70
     1
102
RTVSPropertyOp21
 70
     1
102
RTVSPropertyOp22
 70
     1
102
RTVSPropertyOp23
 70
     1
102
RTVSPropertyOp24
 70
     1
102
RTVSPropertyOp25
 70
     1
102
RTVSPropertyOp26
 70
     1
102
RTVSPropertyOp27
 70
     1
102
RTVSPropertyOp28
 70
     1
102
RTVSPropertyOp29
 70
     1
102
RTVSPropertyOp30
 70
     1
102
RTVSPropertyOp31
 70
     1
102
RTVSPropertyOp32
 70
     1
102
RTVSPropertyOp33
 70
     1
102
RTVSPropertyOp34
 70
     1
102
RTVSPropertyOp35
 70
     1
102
RTVSPropertyOp36
 70
     1
102
RTVSPropertyOp37
 70
     1
102
RTVSPropertyOp38
 70
     1
102
RTVSPropertyOp39
 70
     1
102
RTVSPropertyOp40
 70
     1
102
RTVSPropertyOp41
 70
     1
102
RTVSPropertyOp42
 70
     1
102
RTVSPropertyOp43
 70
     1
102
RTVSPropertyOp44
 70
     1
102
RTVSPropertyOp45
 70
     1
102
RTVSPropertyOp46
 70
     1
102
RTVSPropertyOp47
 70
     1
102
RTVSPropertyOp48
 70
     1
102
RTVSPropertyOp49
 70
     1
102
RTVSPropertyOp50
 70
     1
102
RTVSPropertyOp51
 70
     0
102
RTVSPropertyOp52
 70
     0
102
RTVSPropertyOp53
 70
     1
102
RTVSPropertyOp54
 70
     1
102
RTVSPropertyOp55
 70
     1
102
RTVSPropertyOp56
 70
     1
102
RTVSPropertyOp57
 70
     1
102
RTVSPost2010Prop28
280
     0
102
RTVSPost2010PropOp28
 70
     1
102
RTVSPost2010Prop29
280
     1
102
RTVSPost2010PropOp29
 70
     1
102
RTVSPost2010Prop30
280
     1
102
RTVSPost2010PropOp30
 70
     1
102
RTVSPost2010Prop31
280
     0
102
RTVSPost2010PropOp31
 70
     1
102
RTVSPost2010Prop32
280
     0
102
RTVSPost2010PropOp32
 70
     1
102
RTVSPost2010Prop33
280
     0
102
RTVSPost2010PropOp33
 70
     1
102
RTVSPost2010Prop34
280
     0
102
RTVSPost2010PropOp34
 70
     1
102
RTVSPost2010Prop35
280
     0
102
RTVSPost2010PropOp35
 70
     1
102
RTVSPost2010Prop36
280
     0
102
RTVSPost2010PropOp36
 70
     1
102
RTVSPost2010Prop37
 90
       50
102
RTVSPost2010PropOp37
 70
     1
102
RTVSPost2010Prop38
140
0.0
102
RTVSPost2010PropOp38
 70
     1
102
RTVSPost2010Prop39
140
1.0
102
RTVSPost2010PropOp39
 70
     1
102
RTVSPost2010Prop40
 90
        0
102
RTVSPost2010PropOp40
 70
     1
102
RTVSPost2010Prop41ColorIndex
 90
       18
102
RTVSPost2010Prop41ColorRGB
 90
        0
102
RTVSPost2010PropOp41
 70
     1
102
RTVSPost2010Prop42
 90
       50
102
RTVSPost2010PropOp42
 70
     1
102
RTVSPost2010Prop43
 90
        3
102
RTVSPost2010PropOp43
 70
     1
102
RTVSPost2010Prop44ColorIndex
 90
        5
102
RTVSPost2010Prop44ColorRGB
 90
      255
102
RTVSPost2010PropOp44
 70
     1
102
RTVSPost2010Prop45
280
     0
102
RTVSPost2010PropOp45
 70
     1
102
RTVSPost2010Prop46
 90
       50
102
RTVSPost2010PropOp46
 70
     1
102
RTVSPost2010Prop47
 90
       50
102
RTVSPost2010PropOp47
 70
     1
102
RTVSPost2010Prop48
 90
       50
102
RTVSPost2010PropOp48
 70
     1
102
RTVSPost2010Prop49
280
     0
102
RTVSPost2010PropOp49
 70
     1
102
RTVSPost2010Prop50
 90
       50
102
RTVSPost2010PropOp50
 70
     1
102
RTVSPost2010Prop51ColorIndex
 90
      256
102
RTVSPost2010Prop51ColorRGB
 90
-16777216
102
RTVSPost2010PropOp51
 70
     0
102
RTVSPost2010Prop52
140
1.0
102
RTVSPost2010PropOp52
 70
     0
102
RTVSPost2010Prop53
 90
        2
102
RTVSPost2010PropOp53
 70
     1
102
RTVSPost2010Prop54
  1
strokes_ogs.tif
102
RTVSPost2010PropOp54
 70
     1
102
RTVSPost2010Prop55
280
     0
102
RTVSPost2010PropOp55
 70
     1
102
RTVSPost2010Prop56
140
1.0
102
RTVSPost2010PropOp56
 70
     1
102
RTVSPost2010Prop57
140
1.0
102
RTVSPost2010PropOp57
 70
     1
  0
XRECORD
  5
11A7
102
{ACAD_REACTORS
330
11A6
102
}
330
11A6
100
AcDbXrecord
280
     1
102
RTVSPropertyOp0
 70
     1
102
RTVSPropertyOp1
 70
     1
102
RTVSPropertyOp2
 70
     1
102
RTVSPropertyOp3
 70
     1
102
RTVSPropertyOp4
 70
     1
102
RTVSPropertyOp5
 70
     1
102
RTVSPropertyOp6
 70
     1
102
RTVSPropertyOp7
 70
     1
102
RTVSPropertyOp8
 70
     1
102
RTVSPropertyOp9
 70
     1
102
RTVSPropertyOp10
 70
     1
102
RTVSPropertyOp11
 70
     1
102
RTVSPropertyOp12
 70
     1
102
RTVSPropertyOp13
 70
     1
102
RTVSPropertyOp14
 70
     1
102
RTVSPropertyOp15
 70
     1
102
RTVSPropertyOp16
 70
     1
102
RTVSPropertyOp17
 70
     1
102
RTVSPropertyOp18
 70
     1
102
RTVSPropertyOp19
 70
     1
102
RTVSPropertyOp20
 70
     1
102
RTVSPropertyOp21
 70
     1
102
RTVSPropertyOp22
 70
     1
102
RTVSPropertyOp23
 70
     1
102
RTVSPropertyOp24
 70
     1
102
RTVSPropertyOp25
 70
     1
102
RTVSPropertyOp26
 70
     1
102
RTVSPropertyOp27
 70
     1
102
RTVSPropertyOp28
 70
     1
102
RTVSPropertyOp29
 70
     1
102
RTVSPropertyOp30
 70
     1
102
RTVSPropertyOp31
 70
     1
102
RTVSPropertyOp32
 70
     1
102
RTVSPropertyOp33
 70
     1
102
RTVSPropertyOp34
 70
     1
102
RTVSPropertyOp35
 70
     1
102
RTVSPropertyOp36
 70
     1
102
RTVSPropertyOp37
 70
     1
102
RTVSPropertyOp38
 70
     1
102
RTVSPropertyOp39
 70
     1
102
RTVSPropertyOp40
 70
     1
102
RTVSPropertyOp41
 70
     1
102
RTVSPropertyOp42
 70
     1
102
RTVSPropertyOp43
 70
     1
102
RTVSPropertyOp44
 70
     1
102
RTVSPropertyOp45
 70
     1
102
RTVSPropertyOp46
 70
     1
102
RTVSPropertyOp47
 70
     1
102
RTVSPropertyOp48
 70
     1
102
RTVSPropertyOp49
 70
     1
102
RTVSPropertyOp50
 70
     1
102
RTVSPropertyOp51
 70
     0
102
RTVSPropertyOp52
 70
     0
102
RTVSPropertyOp53
 70
     1
102
RTVSPropertyOp54
 70
     1
102
RTVSPropertyOp55
 70
     1
102
RTVSPropertyOp56
 70
     1
102
RTVSPropertyOp57
 70
     1
102
RTVSPost2010Prop28
280
     0
102
RTVSPost2010PropOp28
 70
     1
102
RTVSPost2010Prop29
280
     1
102
RTVSPost2010PropOp29
 70
     1
102
RTVSPost2010Prop30
280
     1
102
RTVSPost2010PropOp30
 70
     1
102
RTVSPost2010Prop31
280
     0
102
RTVSPost2010PropOp31
 70
     1
102
RTVSPost2010Prop32
280
     0
102
RTVSPost2010PropOp32
 70
     1
102
RTVSPost2010Prop33
280
     0
102
RTVSPost2010PropOp33
 70
     1
102
RTVSPost2010Prop34
280
     0
102
RTVSPost2010PropOp34
 70
     1
102
RTVSPost2010Prop35
280
     0
102
RTVSPost2010PropOp35
 70
     1
102
RTVSPost2010Prop36
280
     0
102
RTVSPost2010PropOp36
 70
     1
102
RTVSPost2010Prop37
 90
       50
102
RTVSPost2010PropOp37
 70
     1
102
RTVSPost2010Prop38
140
0.0
102
RTVSPost2010PropOp38
 70
     1
102
RTVSPost2010Prop39
140
1.0
102
RTVSPost2010PropOp39
 70
     1
102
RTVSPost2010Prop40
 90
        0
102
RTVSPost2010PropOp40
 70
     1
102
RTVSPost2010Prop41ColorIndex
 90
       18
102
RTVSPost2010Prop41ColorRGB
 90
        0
102
RTVSPost2010PropOp41
 70
     1
102
RTVSPost2010Prop42
 90
       50
102
RTVSPost2010PropOp42
 70
     1
102
RTVSPost2010Prop43
 90
        3
102
RTVSPost2010PropOp43
 70
     1
102
RTVSPost2010Prop44ColorIndex
 90
        5
102
RTVSPost2010Prop44ColorRGB
 90
      255
102
RTVSPost2010PropOp44
 70
     1
102
RTVSPost2010Prop45
280
     0
102
RTVSPost2010PropOp45
 70
     1
102
RTVSPost2010Prop46
 90
       50
102
RTVSPost2010PropOp46
 70
     1
102
RTVSPost2010Prop47
 90
       50
102
RTVSPost2010PropOp47
 70
     1
102
RTVSPost2010Prop48
 90
       50
102
RTVSPost2010PropOp48
 70
     1
102
RTVSPost2010Prop49
280
     0
102
RTVSPost2010PropOp49
 70
     1
102
RTVSPost2010Prop50
 90
       50
102
RTVSPost2010PropOp50
 70
     1
102
RTVSPost2010Prop51ColorIndex
 90
      256
102
RTVSPost2010Prop51ColorRGB
 90
-16777216
102
RTVSPost2010PropOp51
 70
     0
102
RTVSPost2010Prop52
140
1.0
102
RTVSPost2010PropOp52
 70
     0
102
RTVSPost2010Prop53
 90
        2
102
RTVSPost2010PropOp53
 70
     1
102
RTVSPost2010Prop54
  1
strokes_ogs.tif
102
RTVSPost2010PropOp54
 70
     1
102
RTVSPost2010Prop55
280
     0
102
RTVSPost2010PropOp55
 70
     1
102
RTVSPost2010Prop56
140
1.0
102
RTVSPost2010PropOp56
 70
     1
102
RTVSPost2010Prop57
140
1.0
102
RTVSPost2010PropOp57
 70
     1
  0
XRECORD
  5
11C7
102
{ACAD_REACTORS
330
11C6
102
}
330
11C6
100
AcDbXrecord
280
     1
102
RTVSPropertyOp0
 70
     1
102
RTVSPropertyOp1
 70
     1
102
RTVSPropertyOp2
 70
     1
102
RTVSPropertyOp3
 70
     1
102
RTVSPropertyOp4
 70
     1
102
RTVSPropertyOp5
 70
     1
102
RTVSPropertyOp6
 70
     1
102
RTVSPropertyOp7
 70
     1
102
RTVSPropertyOp8
 70
     1
102
RTVSPropertyOp9
 70
     1
102
RTVSPropertyOp10
 70
     1
102
RTVSPropertyOp11
 70
     1
102
RTVSPropertyOp12
 70
     1
102
RTVSPropertyOp13
 70
     1
102
RTVSPropertyOp14
 70
     1
102
RTVSPropertyOp15
 70
     1
102
RTVSPropertyOp16
 70
     1
102
RTVSPropertyOp17
 70
     1
102
RTVSPropertyOp18
 70
     1
102
RTVSPropertyOp19
 70
     1
102
RTVSPropertyOp20
 70
     1
102
RTVSPropertyOp21
 70
     1
102
RTVSPropertyOp22
 70
     1
102
RTVSPropertyOp23
 70
     1
102
RTVSPropertyOp24
 70
     1
102
RTVSPropertyOp25
 70
     1
102
RTVSPropertyOp26
 70
     1
102
RTVSPropertyOp27
 70
     1
102
RTVSPropertyOp28
 70
     1
102
RTVSPropertyOp29
 70
     1
102
RTVSPropertyOp30
 70
     1
102
RTVSPropertyOp31
 70
     1
102
RTVSPropertyOp32
 70
     1
102
RTVSPropertyOp33
 70
     1
102
RTVSPropertyOp34
 70
     1
102
RTVSPropertyOp35
 70
     1
102
RTVSPropertyOp36
 70
     1
102
RTVSPropertyOp37
 70
     1
102
RTVSPropertyOp38
 70
     1
102
RTVSPropertyOp39
 70
     1
102
RTVSPropertyOp40
 70
     1
102
RTVSPropertyOp41
 70
     1
102
RTVSPropertyOp42
 70
     1
102
RTVSPropertyOp43
 70
     1
102
RTVSPropertyOp44
 70
     1
102
RTVSPropertyOp45
 70
     1
102
RTVSPropertyOp46
 70
     1
102
RTVSPropertyOp47
 70
     1
102
RTVSPropertyOp48
 70
     1
102
RTVSPropertyOp49
 70
     1
102
RTVSPropertyOp50
 70
     1
102
RTVSPropertyOp51
 70
     0
102
RTVSPropertyOp52
 70
     0
102
RTVSPropertyOp53
 70
     1
102
RTVSPropertyOp54
 70
     1
102
RTVSPropertyOp55
 70
     1
102
RTVSPropertyOp56
 70
     1
102
RTVSPropertyOp57
 70
     1
102
RTVSPost2010Prop28
280
     0
102
RTVSPost2010PropOp28
 70
     1
102
RTVSPost2010Prop29
280
     1
102
RTVSPost2010PropOp29
 70
     1
102
RTVSPost2010Prop30
280
     1
102
RTVSPost2010PropOp30
 70
     1
102
RTVSPost2010Prop31
280
     0
102
RTVSPost2010PropOp31
 70
     1
102
RTVSPost2010Prop32
280
     0
102
RTVSPost2010PropOp32
 70
     1
102
RTVSPost2010Prop33
280
     0
102
RTVSPost2010PropOp33
 70
     1
102
RTVSPost2010Prop34
280
     0
102
RTVSPost2010PropOp34
 70
     1
102
RTVSPost2010Prop35
280
     0
102
RTVSPost2010PropOp35
 70
     1
102
RTVSPost2010Prop36
280
     0
102
RTVSPost2010PropOp36
 70
     1
102
RTVSPost2010Prop37
 90
       50
102
RTVSPost2010PropOp37
 70
     1
102
RTVSPost2010Prop38
140
0.0
102
RTVSPost2010PropOp38
 70
     1
102
RTVSPost2010Prop39
140
1.0
102
RTVSPost2010PropOp39
 70
     1
102
RTVSPost2010Prop40
 90
        0
102
RTVSPost2010PropOp40
 70
     1
102
RTVSPost2010Prop41ColorIndex
 90
       18
102
RTVSPost2010Prop41ColorRGB
 90
        0
102
RTVSPost2010PropOp41
 70
     1
102
RTVSPost2010Prop42
 90
       50
102
RTVSPost2010PropOp42
 70
     1
102
RTVSPost2010Prop43
 90
        3
102
RTVSPost2010PropOp43
 70
     1
102
RTVSPost2010Prop44ColorIndex
 90
        5
102
RTVSPost2010Prop44ColorRGB
 90
      255
102
RTVSPost2010PropOp44
 70
     1
102
RTVSPost2010Prop45
280
     0
102
RTVSPost2010PropOp45
 70
     1
102
RTVSPost2010Prop46
 90
       50
102
RTVSPost2010PropOp46
 70
     1
102
RTVSPost2010Prop47
 90
       50
102
RTVSPost2010PropOp47
 70
     1
102
RTVSPost2010Prop48
 90
       50
102
RTVSPost2010PropOp48
 70
     1
102
RTVSPost2010Prop49
280
     0
102
RTVSPost2010PropOp49
 70
     1
102
RTVSPost2010Prop50
 90
       50
102
RTVSPost2010PropOp50
 70
     1
102
RTVSPost2010Prop51ColorIndex
 90
      256
102
RTVSPost2010Prop51ColorRGB
 90
-16777216
102
RTVSPost2010PropOp51
 70
     0
102
RTVSPost2010Prop52
140
1.0
102
RTVSPost2010PropOp52
 70
     0
102
RTVSPost2010Prop53
 90
        2
102
RTVSPost2010PropOp53
 70
     1
102
RTVSPost2010Prop54
  1
strokes_ogs.tif
102
RTVSPost2010PropOp54
 70
     1
102
RTVSPost2010Prop55
280
     0
102
RTVSPost2010PropOp55
 70
     1
102
RTVSPost2010Prop56
140
1.0
102
RTVSPost2010PropOp56
 70
     1
102
RTVSPost2010Prop57
140
1.0
102
RTVSPost2010PropOp57
 70
     1
  0
ENDSEC
  0
EOF
