  0
SECTION
  2
HEADER
  9
$ACADVER
  1
AC1015
  9
$ACADMAINTVER
 70
     6
  9
$DWGCODEPAGE
  3
ANSI_1252
  9
$INSBASE
 10
0.0
 20
0.0
 30
0.0
  9
$EXTMIN
 10
-1787.210896519033
 20
-2159.046403464796
 30
-0.0000000000000578
  9
$EXTMAX
 10
-1688.722483811724
 20
-2036.900348906939
 30
0.0000000000009191
  9
$LIMMIN
 10
-100.0
 20
-937.0
  9
$LIMMAX
 10
781.8584566516885
 20
220.6919114718445
  9
$ORTHOMODE
 70
     0
  9
$REGENMODE
 70
     1
  9
$FILLMODE
 70
     1
  9
$QTEXTMODE
 70
     0
  9
$MIRRTEXT
 70
     1
  9
$LTSCALE
 40
1.0
  9
$ATTMODE
 70
     1
  9
$TEXTSIZE
 40
20.0
  9
$TRACEWID
 40
0.05
  9
$TEXTSTYLE
  7
ROMANS
  9
$CLAYER
  8
Capa1
  9
$CELTYPE
  6
ByLayer
  9
$CECOLOR
 62
   256
  9
$CELTSCALE
 40
1.0
  9
$DISPSILH
 70
     0
  9
$DIMSCALE
 40
1.0
  9
$DIMASZ
 40
10.0
  9
$DIMEXO
 40
0.0625
  9
$DIMDLI
 40
0.38
  9
$DIMRND
 40
0.0
  9
$DIMDLE
 40
0.0
  9
$DIMEXE
 40
0.18
  9
$DIMTP
 40
0.0
  9
$DIMTM
 40
0.0
  9
$DIMTXT
 40
10.0
  9
$DIMCEN
 40
0.09
  9
$DIMTSZ
 40
0.0
  9
$DIMTOL
 70
     0
  9
$DIMLIM
 70
     0
  9
$DIMTIH
 70
     0
  9
$DIMTOH
 70
     1
  9
$DIMSE1
 70
     0
  9
$DIMSE2
 70
     0
  9
$DIMTAD
 70
     1
  9
$DIMZIN
 70
     0
  9
$DIMBLK
  1
VDDIM_DEFAULT
  9
$DIMASO
 70
     1
  9
$DIMSHO
 70
     1
  9
$DIMPOST
  1

  9
$DIMAPOST
  1

  9
$DIMALT
 70
     0
  9
$DIMALTD
 70
     2
  9
$DIMALTF
 40
25.4
  9
$DIMLFAC
 40
1.0
  9
$DIMTOFL
 70
     1
  9
$DIMTVP
 40
0.0
  9
$DIMTIX
 70
     1
  9
$DIMSOXD
 70
     0
  9
$DIMSAH
 70
     0
  9
$DIMBLK1
  1

  9
$DIMBLK2
  1

  9
$DIMSTYLE
  2
JESUS COTA
  9
$DIMCLRD
 70
     0
  9
$DIMCLRE
 70
     0
  9
$DIMCLRT
 70
     0
  9
$DIMTFAC
 40
1.0
  9
$DIMGAP
 40
0.01
  9
$DIMJUST
 70
     0
  9
$DIMSD1
 70
     0
  9
$DIMSD2
 70
     0
  9
$DIMTOLJ
 70
     1
  9
$DIMTZIN
 70
     0
  9
$DIMALTZ
 70
     0
  9
$DIMALTTZ
 70
     0
  9
$DIMUPT
 70
     0
  9
$DIMDEC
 70
     0
  9
$DIMTDEC
 70
     0
  9
$DIMALTU
 70
     2
  9
$DIMALTTD
 70
     2
  9
$DIMTXSTY
  7
STANDARD
  9
$DIMAUNIT
 70
     0
  9
$DIMADEC
 70
     0
  9
$DIMALTRND
 40
0.0
  9
$DIMAZIN
 70
     0
  9
$DIMDSEP
 70
    46
  9
$DIMATFIT
 70
     3
  9
$DIMFRAC
 70
     0
  9
$DIMLDRBLK
  1

  9
$DIMLUNIT
 70
     2
  9
$DIMLWD
 70
    -2
  9
$DIMLWE
 70
    -2
  9
$DIMTMOVE
 70
     0
  9
$LUNITS
 70
     2
  9
$LUPREC
 70
     4
  9
$SKETCHINC
 40
0.1
  9
$FILLETRAD
 40
0.5
  9
$AUNITS
 70
     0
  9
$AUPREC
 70
     0
  9
$MENU
  1
.
  9
$ELEVATION
 40
0.0
  9
$PELEVATION
 40
0.0
  9
$THICKNESS
 40
0.0
  9
$LIMCHECK
 70
     0
  9
$CHAMFERA
 40
0.5
  9
$CHAMFERB
 40
0.5
  9
$CHAMFERC
 40
1.0
  9
$CHAMFERD
 40
0.0
  9
$SKPOLY
 70
     0
  9
$TDCREATE
 40
2454476.527612824
  9
$TDUCREATE
 40
2454476.485946157
  9
$TDUPDATE
 40
2460301.661827442
  9
$TDUUPDATE
 40
2460301.620160775
  9
$TDINDWG
 40
0.3102368056
  9
$TDUSRTIMER
 40
0.3102368056
  9
$USRTIMER
 70
     1
  9
$ANGBASE
 50
0.0
  9
$ANGDIR
 70
     0
  9
$PDMODE
 70
     0
  9
$PDSIZE
 40
0.0
  9
$PLINEWID
 40
0.0
  9
$SPLFRAME
 70
     0
  9
$SPLINETYPE
 70
     6
  9
$SPLINESEGS
 70
     8
  9
$HANDSEED
  5
E0E00001CD0B
  9
$SURFTAB1
 70
     6
  9
$SURFTAB2
 70
     6
  9
$SURFTYPE
 70
     6
  9
$SURFU
 70
     6
  9
$SURFV
 70
     6
  9
$UCSBASE
  2

  9
$UCSNAME
  2

  9
$UCSORG
 10
0.0
 20
0.0
 30
0.0
  9
$UCSXDIR
 10
1.0
 20
0.0
 30
0.0
  9
$UCSYDIR
 10
0.0
 20
1.0
 30
0.0
  9
$UCSORTHOREF
  2

  9
$UCSORTHOVIEW
 70
     0
  9
$UCSORGTOP
 10
0.0
 20
0.0
 30
0.0
  9
$UCSORGBOTTOM
 10
0.0
 20
0.0
 30
0.0
  9
$UCSORGLEFT
 10
0.0
 20
0.0
 30
0.0
  9
$UCSORGRIGHT
 10
0.0
 20
0.0
 30
0.0
  9
$UCSORGFRONT
 10
0.0
 20
0.0
 30
0.0
  9
$UCSORGBACK
 10
0.0
 20
0.0
 30
0.0
  9
$PUCSBASE
  2

  9
$PUCSNAME
  2

  9
$PUCSORG
 10
0.0
 20
0.0
 30
0.0
  9
$PUCSXDIR
 10
1.0
 20
0.0
 30
0.0
  9
$PUCSYDIR
 10
0.0
 20
1.0
 30
0.0
  9
$PUCSORTHOREF
  2

  9
$PUCSORTHOVIEW
 70
     0
  9
$PUCSORGTOP
 10
0.0
 20
0.0
 30
0.0
  9
$PUCSORGBOTTOM
 10
0.0
 20
0.0
 30
0.0
  9
$PUCSORGLEFT
 10
0.0
 20
0.0
 30
0.0
  9
$PUCSORGRIGHT
 10
0.0
 20
0.0
 30
0.0
  9
$PUCSORGFRONT
 10
0.0
 20
0.0
 30
0.0
  9
$PUCSORGBACK
 10
0.0
 20
0.0
 30
0.0
  9
$USERI1
 70
     0
  9
$USERI2
 70
     0
  9
$USERI3
 70
     0
  9
$USERI4
 70
     0
  9
$USERI5
 70
     0
  9
$USERR1
 40
0.0
  9
$USERR2
 40
0.0
  9
$USERR3
 40
0.0
  9
$USERR4
 40
0.0
  9
$USERR5
 40
0.0
  9
$WORLDVIEW
 70
     1
  9
$SHADEDGE
 70
     3
  9
$SHADEDIF
 70
    70
  9
$TILEMODE
 70
     1
  9
$MAXACTVP
 70
    64
  9
$PINSBASE
 10
0.0
 20
0.0
 30
0.0
  9
$PLIMCHECK
 70
     0
  9
$PEXTMIN
 10
1.000000000000000E+20
 20
1.000000000000000E+20
 30
1.000000000000000E+20
  9
$PEXTMAX
 10
-1.000000000000000E+20
 20
-1.000000000000000E+20
 30
-1.000000000000000E+20
  9
$PLIMMIN
 10
0.0
 20
0.0
  9
$PLIMMAX
 10
12.0
 20
9.0
  9
$UNITMODE
 70
     0
  9
$VISRETAIN
 70
     1
  9
$PLINEGEN
 70
     0
  9
$PSLTSCALE
 70
     1
  9
$TREEDEPTH
 70
  3020
  9
$CMLSTYLE
  2
Standard
  9
$CMLJUST
 70
     0
  9
$CMLSCALE
 40
1.0
  9
$PROXYGRAPHICS
 70
     1
  9
$MEASUREMENT
 70
     0
  9
$CELWEIGHT
370
    -1
  9
$ENDCAPS
280
     0
  9
$JOINSTYLE
280
     0
  9
$LWDISPLAY
290
     0
  9
$INSUNITS
 70
     1
  9
$HYPERLINKBASE
  1

  9
$STYLESHEET
  1

  9
$XEDIT
290
     1
  9
$CEPSNTYPE
380
     0
  9
$PSTYLEMODE
290
     0
  9
$FINGERPRINTGUID
  2
{FAEB1C30-E019-11D5-929B-00C0DF256EC4}
  9
$VERSIONGUID
  2
{A12C0F95-8C62-4FFF-A53B-E284CE1C208E}
  9
$EXTNAMES
290
     1
  9
$PSVPSCALE
 40
0.0
  9
$OLESTARTUP
290
     0
  0
ENDSEC
  0
SECTION
  2
CLASSES
  0
CLASS
  1
ACDBDICTIONARYWDFLT
  2
AcDbDictionaryWithDefault
  3
ObjectDBX Classes
 90
        0
280
     0
281
     0
  0
CLASS
  1
ACDBPLACEHOLDER
  2
AcDbPlaceHolder
  3
ObjectDBX Classes
 90
        0
280
     0
281
     0
  0
CLASS
  1
LAYOUT
  2
AcDbLayout
  3
ObjectDBX Classes
 90
        0
280
     0
281
     0
  0
CLASS
  1
TABLESTYLE
  2
AcDbTableStyle
  3
ObjectDBX Classes
 90
     4095
280
     0
281
     0
  0
CLASS
  1
SORTENTSTABLE
  2
AcDbSortentsTable
  3
ObjectDBX Classes
 90
        0
280
     0
281
     0
  0
CLASS
  1
DICTIONARYVAR
  2
AcDbDictionaryVar
  3
ObjectDBX Classes
 90
        0
280
     0
281
     0
  0
CLASS
  1
MATERIAL
  2
AcDbMaterial
  3
ObjectDBX Classes
 90
     1153
280
     0
281
     0
  0
CLASS
  1
VISUALSTYLE
  2
AcDbVisualStyle
  3
ObjectDBX Classes
 90
     4095
280
     0
281
     0
  0
CLASS
  1
SCALE
  2
AcDbScale
  3
ObjectDBX Classes
 90
     1153
280
     0
281
     0
  0
CLASS
  1
MLEADERSTYLE
  2
AcDbMLeaderStyle
  3
ACDB_MLEADERSTYLE_CLASS
 90
     4095
280
     0
281
     0
  0
CLASS
  1
CELLSTYLEMAP
  2
AcDbCellStyleMap
  3
ObjectDBX Classes
 90
     1152
280
     0
281
     0
  0
CLASS
  1
ACDB_BLKREFOBJECTCONTEXTDATA_CLASS
  2
AcDbBlkRefObjectContextData
  3
ObjectDBX Classes
 90
     1153
280
     0
281
     0
  0
ENDSEC
  0
SECTION
  2
TABLES
  0
TABLE
  2
VPORT
  5
C345
102
{ACAD_XDICTIONARY
360
E0E00001CCCD
102
}
330
0
100
AcDbSymbolTable
 70
     1
  0
VPORT
  5
E0E000011F39
330
C345
100
AcDbSymbolTableRecord
100
AcDbViewportTableRecord
  2
*Active
 70
     0
 10
0.0
 20
0.0
 11
1.0
 21
1.0
 12
-1737.966690165349
 22
-2097.973376185892
 13
0.0
 23
0.0
 14
10.0
 24
10.0
 15
10.0
 25
10.0
 16
0.0
 26
0.0
 36
1.0
 17
0.0
 27
0.0
 37
0.0
 40
123.0387175631529
 41
1.491463414634146
 42
50.0
 43
0.0
 44
0.0
 50
0.0
 51
360.0000000000008
 71
     0
 72
   100
 73
     1
 74
     3
 75
     0
 76
     0
 77
     0
 78
     0
281
     0
 65
     1
110
0.0
120
0.0
130
0.0
111
1.0
121
0.0
131
0.0
112
0.0
122
1.0
132
0.0
 79
     0
146
0.0
  0
ENDTAB
  0
TABLE
  2
LTYPE
  5
C342
330
0
100
AcDbSymbolTable
 70
     1
  0
LTYPE
  5
C351
330
C342
100
AcDbSymbolTableRecord
100
AcDbLinetypeTableRecord
  2
ByBlock
 70
     0
  3

 72
    65
 73
     0
 40
0.0
  0
LTYPE
  5
C352
330
C342
100
AcDbSymbolTableRecord
100
AcDbLinetypeTableRecord
  2
ByLayer
 70
     0
  3

 72
    65
 73
     0
 40
0.0
  0
LTYPE
  5
C353
330
C342
100
AcDbSymbolTableRecord
100
AcDbLinetypeTableRecord
  2
Continuous
 70
     0
  3
Solid line
 72
    65
 73
     0
 40
0.0
  0
ENDTAB
  0
TABLE
  2
LAYER
  5
C33F
102
{ACAD_XDICTIONARY
360
E0E00000F818
102
}
330
0
100
AcDbSymbolTable
 70
    14
  0
LAYER
  5
C34D
102
{ACAD_XDICTIONARY
360
E0E000011FBD
102
}
330
C33F
100
AcDbSymbolTableRecord
100
AcDbLayerTableRecord
  2
0
 70
     0
 62
     7
  6
Continuous
370
     0
390
C34C
  0
LAYER
  5
E0E00000F55B
102
{ACAD_XDICTIONARY
360
E0E00000F55C
102
}
330
C33F
100
AcDbSymbolTableRecord
100
AcDbLayerTableRecord
  2
STL(Z)1550_V_5
 70
     0
 62
     7
  6
Continuous
370
    -3
390
C34C
  0
LAYER
  5
E0E00000F55F
102
{ACAD_XDICTIONARY
360
E0E00000F560
102
}
330
C33F
100
AcDbSymbolTableRecord
100
AcDbLayerTableRecord
  2
AK(Z)-1550_5
 70
     0
 62
     7
  6
Continuous
370
    -3
390
C34C
  0
LAYER
  5
E0E00000F57F
102
{ACAD_XDICTIONARY
360
E0E00000F580
102
}
330
C33F
100
AcDbSymbolTableRecord
100
AcDbLayerTableRecord
  2
Predeterminado
 70
     0
 62
     7
  6
Continuous
370
    -3
390
C34C
  0
LAYER
  5
E0E00000F7E3
102
{ACAD_XDICTIONARY
360
E0E00000F7E4
102
}
330
C33F
100
AcDbSymbolTableRecord
100
AcDbLayerTableRecord
  2
SLTZ_960_V_3
 70
     0
 62
     7
  6
Continuous
370
    -3
390
C34C
  0
LAYER
  5
E0E00000F7E7
102
{ACAD_XDICTIONARY
360
E0E00000F7E8
102
}
330
C33F
100
AcDbSymbolTableRecord
100
AcDbLayerTableRecord
  2
AKZ_960_3
 70
     0
 62
     7
  6
Continuous
370
    -3
390
C34C
  0
LAYER
  5
E0E00000F7F3
102
{ACAD_XDICTIONARY
360
E0E00000F7F4
102
}
330
C33F
100
AcDbSymbolTableRecord
100
AcDbLayerTableRecord
  2
TAPÓN
 70
     0
 62
     7
  6
Continuous
370
    -3
390
C34C
  0
LAYER
  5
E0E00000F7FB
102
{ACAD_XDICTIONARY
360
E0E00000F7FC
102
}
330
C33F
100
AcDbSymbolTableRecord
100
AcDbLayerTableRecord
  2
PCB_4M_PER1_V
 70
     0
 62
     7
  6
Continuous
370
    -3
390
C34C
  0
LAYER
  5
E0E00000F7FF
102
{ACAD_XDICTIONARY
360
E0E00000F800
102
}
330
C33F
100
AcDbSymbolTableRecord
100
AcDbLayerTableRecord
  2
BASE_4_M
 70
     0
 62
     7
  6
Continuous
370
    -3
390
C34C
  0
LAYER
  5
E0E00000F803
102
{ACAD_XDICTIONARY
360
E0E00000F804
102
}
330
C33F
100
AcDbSymbolTableRecord
100
AcDbLayerTableRecord
  2
TAPA_4_M
 70
     0
 62
     7
  6
Continuous
370
    -3
390
C34C
  0
LAYER
  5
E0E000011F9B
330
C33F
100
AcDbSymbolTableRecord
100
AcDbLayerTableRecord
  2
Defpoints
 70
     0
 62
     7
  6
Continuous
290
     0
370
    -3
390
C34C
  0
LAYER
  5
E0E000014BE3
330
C33F
100
AcDbSymbolTableRecord
100
AcDbLayerTableRecord
  2
STL(Z)-1550_3V
 70
     0
 62
     7
  6
Continuous
370
    -3
390
C34C
  0
LAYER
  5
E0E000014BE5
330
C33F
100
AcDbSymbolTableRecord
100
AcDbLayerTableRecord
  2
AK(Z)-1550_3
 70
     0
 62
     7
  6
Continuous
370
    -3
390
C34C
  0
LAYER
  5
E0E00001CC3B
330
C33F
100
AcDbSymbolTableRecord
100
AcDbLayerTableRecord
  2
Capa1
 70
     0
 62
     7
  6
Continuous
370
     0
390
C34C
1001
AcAecLayerStandard
1000

1000

  0
ENDTAB
  0
TABLE
  2
STYLE
  5
C340
330
0
100
AcDbSymbolTable
 70
     3
  0
STYLE
  5
C34E
330
C340
100
AcDbSymbolTableRecord
100
AcDbTextStyleTableRecord
  2
STANDARD
 70
     0
 40
10.0
 41
1.0
 50
0.0
 71
     0
 42
0.2
  3
ARIALUNI.TTF
  4

1001
ACAD
1000
@Arial Unicode MS
1071
       34
  0
STYLE
  5
26C3
330
C340
100
AcDbSymbolTableRecord
100
AcDbTextStyleTableRecord
  2
ROMANS
 70
     0
 40
20.0
 41
1.0
 50
0.0
 71
     0
 42
20.0
  3
ARIALUNI.TTF
  4

1001
ACAD
1000
@Arial Unicode MS
1071
        0
  0
STYLE
  5
E0E00000F583
330
C340
100
AcDbSymbolTableRecord
100
AcDbTextStyleTableRecord
  2
SEACAD_arial_ttfB
 70
     0
 40
0.2
 41
1.0
 50
0.0
 71
     0
 42
0.2
  3
ARIAL.TTF
  4

1001
ACAD
1000
Arial
1071
       34
  0
ENDTAB
  0
TABLE
  2
VIEW
  5
C343
330
0
100
AcDbSymbolTable
 70
     0
  0
ENDTAB
  0
TABLE
  2
UCS
  5
C344
330
0
100
AcDbSymbolTable
 70
     0
  0
ENDTAB
  0
TABLE
  2
APPID
  5
C346
330
0
100
AcDbSymbolTable
 70
    49
  0
APPID
  5
C34F
330
C346
100
AcDbSymbolTableRecord
100
AcDbRegAppTableRecord
  2
ACAD
 70
     0
  0
APPID
  5
C367
330
C346
100
AcDbSymbolTableRecord
100
AcDbRegAppTableRecord
  2
VD_INVISIBLE_NOT_FOR_READ
 70
     0
  0
APPID
  5
C368
330
C346
100
AcDbSymbolTableRecord
100
AcDbRegAppTableRecord
  2
VD_TEMPHATCH
 70
     0
  0
APPID
  5
C369
330
C346
100
AcDbSymbolTableRecord
100
AcDbRegAppTableRecord
  2
VDEXTRAPARAM
 70
     0
  0
APPID
  5
C36A
330
C346
100
AcDbSymbolTableRecord
100
AcDbRegAppTableRecord
  2
PE_URL
 70
     0
  0
APPID
  5
C36B
330
C346
100
AcDbSymbolTableRecord
100
AcDbRegAppTableRecord
  2
VD_UNKNOWN
 70
     0
  0
APPID
  5
E0E00000E1C6
330
C346
100
AcDbSymbolTableRecord
100
AcDbRegAppTableRecord
  2
Tipo
 70
     0
  0
APPID
  5
E0E00000E1C7
330
C346
100
AcDbSymbolTableRecord
100
AcDbRegAppTableRecord
  2
Descripción
 70
     0
  0
APPID
  5
E0E00000E1C8
330
C346
100
AcDbSymbolTableRecord
100
AcDbRegAppTableRecord
  2
Material
 70
     0
  0
APPID
  5
E0E00000E1C9
330
C346
100
AcDbSymbolTableRecord
100
AcDbRegAppTableRecord
  2
Vigi
 70
     0
  0
APPID
  5
E0E00000E1CA
330
C346
100
AcDbSymbolTableRecord
100
AcDbRegAppTableRecord
  2
Cabecera grupo
 70
     0
  0
APPID
  5
E0E00000E1CB
330
C346
100
AcDbSymbolTableRecord
100
AcDbRegAppTableRecord
  2
Calibre
 70
     0
  0
APPID
  5
E0E00000E1CC
330
C346
100
AcDbSymbolTableRecord
100
AcDbRegAppTableRecord
  2
Pasos
 70
     0
  0
APPID
  5
E0E00000E1CD
330
C346
100
AcDbSymbolTableRecord
100
AcDbRegAppTableRecord
  2
Polos
 70
     0
  0
APPID
  5
E0E00000E1CE
330
C346
100
AcDbSymbolTableRecord
100
AcDbRegAppTableRecord
  2
Tensión
 70
     0
  0
APPID
  5
E0E00000E1CF
330
C346
100
AcDbSymbolTableRecord
100
AcDbRegAppTableRecord
  2
Subfamilia
 70
     0
  0
APPID
  5
E0E00000E1D0
330
C346
100
AcDbSymbolTableRecord
100
AcDbRegAppTableRecord
  2
Referencia 1
 70
     0
  0
APPID
  5
E0E00000E1F2
330
C346
100
AcDbSymbolTableRecord
100
AcDbRegAppTableRecord
  2
Ref. distribución 1
 70
     0
  0
APPID
  5
E0E00000E1F5
330
C346
100
AcDbSymbolTableRecord
100
AcDbRegAppTableRecord
  2
Núm UF
 70
     0
  0
APPID
  5
E0E00000E1F6
330
C346
100
AcDbSymbolTableRecord
100
AcDbRegAppTableRecord
  2
Módulos verticales
 70
     0
  0
APPID
  5
E0E00000E1F7
330
C346
100
AcDbSymbolTableRecord
100
AcDbRegAppTableRecord
  2
Número pasos
 70
     0
  0
APPID
  5
E0E00000E1FC
330
C346
100
AcDbSymbolTableRecord
100
AcDbRegAppTableRecord
  2
Referencia
 70
     0
  0
APPID
  5
E0E00000E1FD
330
C346
100
AcDbSymbolTableRecord
100
AcDbRegAppTableRecord
  2
Núm Armario
 70
     0
  0
APPID
  5
E0E00000E1FE
330
C346
100
AcDbSymbolTableRecord
100
AcDbRegAppTableRecord
  2
Alto
 70
     0
  0
APPID
  5
E0E00000E1FF
330
C346
100
AcDbSymbolTableRecord
100
AcDbRegAppTableRecord
  2
Ancho
 70
     0
  0
APPID
  5
E0E00000E200
330
C346
100
AcDbSymbolTableRecord
100
AcDbRegAppTableRecord
  2
Grado IP
 70
     0
  0
APPID
  5
E0E00000E201
330
C346
100
AcDbSymbolTableRecord
100
AcDbRegAppTableRecord
  2
Zocalo
 70
     0
  0
APPID
  5
E0E00000E202
330
C346
100
AcDbSymbolTableRecord
100
AcDbRegAppTableRecord
  2
Junta estanqueidad
 70
     0
  0
APPID
  5
E0E00000E203
330
C346
100
AcDbSymbolTableRecord
100
AcDbRegAppTableRecord
  2
Tejado
 70
     0
  0
APPID
  5
E0E00000E204
330
C346
100
AcDbSymbolTableRecord
100
AcDbRegAppTableRecord
  2
Apertura
 70
     0
  0
APPID
  5
E0E00000E205
330
C346
100
AcDbSymbolTableRecord
100
AcDbRegAppTableRecord
  2
Tipo de envolvente
 70
     0
  0
APPID
  5
E0E00000E206
330
C346
100
AcDbSymbolTableRecord
100
AcDbRegAppTableRecord
  2
Gama armario
 70
     0
  0
APPID
  5
E0E00000E207
330
C346
100
AcDbSymbolTableRecord
100
AcDbRegAppTableRecord
  2
Tipo puerta
 70
     0
  0
APPID
  5
E0E00000E208
330
C346
100
AcDbSymbolTableRecord
100
AcDbRegAppTableRecord
  2
Referencia 2
 70
     0
  0
APPID
  5
E0E00000E209
330
C346
100
AcDbSymbolTableRecord
100
AcDbRegAppTableRecord
  2
Accesorio 1
 70
     0
  0
APPID
  5
E0E00000E20A
330
C346
100
AcDbSymbolTableRecord
100
AcDbRegAppTableRecord
  2
Accesorio 2
 70
     0
  0
APPID
  5
E0E00000ED8F
330
C346
100
AcDbSymbolTableRecord
100
AcDbRegAppTableRecord
  2
AcDbBlockRepETag
 70
     0
  0
APPID
  5
E0E00000ED90
330
C346
100
AcDbSymbolTableRecord
100
AcDbRegAppTableRecord
  2
AcDbAttr
 70
     0
  0
APPID
  5
E0E00000F584
330
C346
100
AcDbSymbolTableRecord
100
AcDbRegAppTableRecord
  2
ACAD_PSEXT
 70
     0
  0
APPID
  5
E0E000011C9B
330
C346
100
AcDbSymbolTableRecord
100
AcDbRegAppTableRecord
  2
ACAD_EXEMPT_FROM_CAD_STANDARDS
 70
     0
  0
APPID
  5
E0E000011F8B
330
C346
100
AcDbSymbolTableRecord
100
AcDbRegAppTableRecord
  2
ACAD_MLEADERVER
 70
     0
  0
APPID
  5
E0E000011FA0
330
C346
100
AcDbSymbolTableRecord
100
AcDbRegAppTableRecord
  2
AcadAnnotative
 70
     0
  0
APPID
  5
E0E000011FA1
330
C346
100
AcDbSymbolTableRecord
100
AcDbRegAppTableRecord
  2
AcAecLayerStandard
 70
     0
  0
APPID
  5
E0E00001C4A9
330
C346
100
AcDbSymbolTableRecord
100
AcDbRegAppTableRecord
  2
AcadAnnotativeDecomposition
 70
     0
  0
APPID
  5
E0E00001C51C
330
C346
100
AcDbSymbolTableRecord
100
AcDbRegAppTableRecord
  2
ACAD_DSTYLE_DIMJAG
 70
     0
  0
APPID
  5
E0E00001C51D
330
C346
100
AcDbSymbolTableRecord
100
AcDbRegAppTableRecord
  2
ACAD_DSTYLE_DIMBREAK
 70
     0
  0
APPID
  5
E0E00001C51E
330
C346
100
AcDbSymbolTableRecord
100
AcDbRegAppTableRecord
  2
AcadAnnoPO
 70
     0
  0
APPID
  5
E0E00001C51F
330
C346
100
AcDbSymbolTableRecord
100
AcDbRegAppTableRecord
  2
ACAD_DSTYLE_DIMTALN
 70
     0
  0
APPID
  5
E0E00001C8C2
330
C346
100
AcDbSymbolTableRecord
100
AcDbRegAppTableRecord
  2
ACAD_DSTYLE_DIMEXT_LENGTH
 70
     0
  0
ENDTAB
  0
TABLE
  2
DIMSTYLE
  5
C347
330
0
100
AcDbSymbolTable
 70
     2
100
AcDbDimStyleTable
  0
DIMSTYLE
105
C364
330
C347
100
AcDbSymbolTableRecord
100
AcDbDimStyleTableRecord
  2
STANDARD
 70
     0
 41
50.0
140
30.0
147
0.01
172
     1
174
     1
178
     0
288
     1
340
C34E
342
A619
  0
DIMSTYLE
105
E0E00001C520
330
C347
100
AcDbSymbolTableRecord
100
AcDbDimStyleTableRecord
  2
JESUS COTA
 70
     0
 41
10.0
 73
     0
 77
     1
140
10.0
147
0.01
172
     1
174
     1
178
     0
271
     0
272
     0
340
C34E
342
A619
1001
ACAD_DSTYLE_DIMBREAK
1070
   391
1040
0.125
1001
ACAD_DSTYLE_DIMJAG
1070
   388
1040
1.5
1001
ACAD_DSTYLE_DIMTALN
1070
   392
1070
     0
  0
ENDTAB
  0
TABLE
  2
BLOCK_RECORD
  5
C33E
330
0
100
AcDbSymbolTable
 70
     7
  0
BLOCK_RECORD
  5
C35C
102
{ACAD_XDICTIONARY
360
E0E00000E95E
102
}
330
C33E
100
AcDbSymbolTableRecord
100
AcDbBlockTableRecord
  2
*Model_Space
340
C35F
  0
BLOCK_RECORD
  5
C358
330
C33E
100
AcDbSymbolTableRecord
100
AcDbBlockTableRecord
  2
*Paper_Space
340
C35B
  0
BLOCK_RECORD
  5
C360
330
C33E
100
AcDbSymbolTableRecord
100
AcDbBlockTableRecord
  2
*Paper_Space0
340
C363
  0
BLOCK_RECORD
  5
A619
330
C33E
100
AcDbSymbolTableRecord
100
AcDbBlockTableRecord
  2
VDDIM_DEFAULT
340
0
102
{BLKREFS
331
E0E00001CC7D
331
E0E00001CC7E
331
E0E00001CC86
331
E0E00001CC87
331
E0E00001CCB9
331
E0E00001CCB8
331
E0E00001CCBF
331
E0E00001CCBE
102
}
  0
BLOCK_RECORD
  5
B507
330
C33E
100
AcDbSymbolTableRecord
100
AcDbBlockTableRecord
  2
COTE
340
0
102
{BLKREFS
331
E0E00000EA75
102
}
  0
BLOCK_RECORD
  5
B508
330
C33E
100
AcDbSymbolTableRecord
100
AcDbBlockTableRecord
  2
FOND
340
0
102
{BLKREFS
331
E0E00000EA76
102
}
  0
BLOCK_RECORD
  5
E0E00001C8CD
330
C33E
100
AcDbSymbolTableRecord
100
AcDbBlockTableRecord
  2
PER1
340
0
102
{BLKREFS
331
E0E00001CC5F
102
}
1001
ACAD
1000
DesignCenter Data
1002
{
1070
     1
1070
     1
1002
}
  0
BLOCK_RECORD
  5
E0E00001CC62
330
C33E
100
AcDbSymbolTableRecord
100
AcDbBlockTableRecord
  2
*D20
340
0
  0
BLOCK_RECORD
  5
E0E00001CC6E
330
C33E
100
AcDbSymbolTableRecord
100
AcDbBlockTableRecord
  2
*D21
340
0
  0
ENDTAB
  0
ENDSEC
  0
SECTION
  2
BLOCKS
  0
BLOCK
  5
C35D
330
C35C
100
AcDbEntity
  8
0
100
AcDbBlockBegin
  2
*Model_Space
 70
     0
 10
0.0
 20
0.0
 30
0.0
  3
*Model_Space
  1

  0
ENDBLK
  5
C35E
330
C35C
100
AcDbEntity
  8
0
100
AcDbBlockEnd
  0
BLOCK
  5
C359
330
C358
100
AcDbEntity
 67
     1
  8
0
100
AcDbBlockBegin
  2
*Paper_Space
 70
     0
 10
0.0
 20
0.0
 30
0.0
  3
*Paper_Space
  1

  0
ENDBLK
  5
C35A
330
C358
100
AcDbEntity
 67
     1
  8
0
100
AcDbBlockEnd
  0
BLOCK
  5
C361
330
C360
100
AcDbEntity
  8
0
100
AcDbBlockBegin
  2
*Paper_Space0
 70
     0
 10
0.0
 20
0.0
 30
0.0
  3
*Paper_Space0
  1

  0
ENDBLK
  5
C362
330
C360
100
AcDbEntity
  8
0
100
AcDbBlockEnd
  0
BLOCK
  5
C386
330
A619
100
AcDbEntity
  8
0
100
AcDbBlockBegin
  2
VDDIM_DEFAULT
 70
     0
 10
0.0
 20
0.0
 30
0.0
  3
VDDIM_DEFAULT
  1

  0
LWPOLYLINE
  5
47A8
330
A619
100
AcDbEntity
  8
0
  6
Continuous
 62
     0
100
AcDbPolyline
 90
        4
 70
     0
 43
0.0
 10
0.0
 20
0.0
 10
-1.0
 20
-0.1665
 10
-1.0
 20
0.1665
 10
0.0
 20
0.0
1001
VDEXTRAPARAM
1071
        1
1071
        0
1071
        0
1040
1.0
1000

1000

1040
0.0
1040
0.0
  0
HATCH
  5
C3CC
330
A619
100
AcDbEntity
  8
0
  6
Continuous
 62
     0
100
AcDbHatch
 10
0.0
 20
0.0
 30
0.0
210
0.0
220
0.0
230
1.0
  2
SOLID
 70
     1
 71
     0
 91
        1
 92
        2
 72
     0
 73
     1
 93
        3
 10
0.0
 20
0.0
 10
-1.0
 20
-0.1665
 10
-1.0
 20
0.1665
 97
        0
 75
     0
 76
     1
 98
        1
 10
0.0
 20
0.0
1001
VDEXTRAPARAM
1071
        1
1071
        0
1071
        0
1040
1.0
1000

1000

1040
0.0
1040
0.0
1001
VD_TEMPHATCH
1000
VD_TEMPHATCH
  0
ENDBLK
  5
C387
330
A619
100
AcDbEntity
  8
0
100
AcDbBlockEnd
  0
BLOCK
  5
C38C
330
B507
100
AcDbEntity
  8
0
100
AcDbBlockBegin
  2
COTE
 70
     0
 10
0.0
 20
0.0
 30
0.0
  3
COTE
  1

  0
ENDBLK
  5
C38D
330
B507
100
AcDbEntity
  8
0
100
AcDbBlockEnd
  0
BLOCK
  5
C38E
330
B508
100
AcDbEntity
  8
0
100
AcDbBlockBegin
  2
FOND
 70
     0
 10
0.0
 20
0.0
 30
0.0
  3
FOND
  1

  0
ENDBLK
  5
C38F
330
B508
100
AcDbEntity
  8
0
100
AcDbBlockEnd
  0
BLOCK
  5
E0E00001C8CE
330
E0E00001C8CD
100
AcDbEntity
  8
0
100
AcDbBlockBegin
  2
PER1
 70
     0
 10
0.0
 20
0.0
 30
0.0
  3
PER1
  1

  0
LINE
  5
E0E00001C8CF
330
E0E00001C8CD
100
AcDbEntity
  8
PCB_4M_PER1_V
  6
Continuous
 62
     7
 48
25.4
100
AcDbLine
 10
2.750779853940912
 20
42.51205228816843
 30
0.0
 11
41.60179422741021
 21
42.51205228816843
 31
0.0
  0
LINE
  5
E0E00001C8D0
330
E0E00001C8CD
100
AcDbEntity
  8
PCB_4M_PER1_V
  6
Continuous
 62
     7
 48
25.4
100
AcDbLine
 10
64.468276940529
 20
42.51205228816843
 30
0.0
 11
67.26907097363164
 21
42.51205228816843
 31
0.0
  0
LINE
  5
E0E00001C8D1
330
E0E00001C8CD
100
AcDbEntity
  8
PCB_4M_PER1_V
  6
Continuous
 62
     7
 48
25.4
100
AcDbLine
 10
67.26907097363164
 20
42.51205228816843
 30
0.0
 11
67.26907097363164
 21
31.00879108078152
 31
0.0
  0
LINE
  5
E0E00001C8D2
330
E0E00001C8CD
100
AcDbEntity
  8
PCB_4M_PER1_V
  6
Continuous
 62
     7
 48
25.4
100
AcDbLine
 10
67.26907097363164
 20
-31.00879108078243
 30
0.0
 11
67.26907097363164
 21
-42.51205228816934
 31
0.0
  0
LINE
  5
E0E00001C8D3
330
E0E00001C8CD
100
AcDbEntity
  8
PCB_4M_PER1_V
  6
Continuous
 62
     7
 48
25.4
100
AcDbLine
 10
67.26907097363164
 20
-42.51205228816934
 30
0.0
 11
66.20877037538503
 21
-42.51205228816934
 31
0.0
  0
LINE
  5
E0E00001C8D4
330
E0E00001C8CD
100
AcDbEntity
  8
PCB_4M_PER1_V
  6
Continuous
 62
     7
 48
25.4
100
AcDbLine
 10
45.76297393373534
 20
-42.51205228816934
 30
0.0
 11
45.48289453042344
 21
-42.51205228816934
 31
0.0
  0
LINE
  5
E0E00001C8D5
330
E0E00001C8CD
100
AcDbEntity
  8
PCB_4M_PER1_V
  6
Continuous
 62
     7
 48
25.4
100
AcDbLine
 10
32.65925899314607
 20
-42.51205228816934
 30
0.0
 11
27.70785525605243
 21
-42.51205228816934
 31
0.0
  0
LINE
  5
E0E00001C8D6
330
E0E00001C8CD
100
AcDbEntity
  8
PCB_4M_PER1_V
  6
Continuous
 62
     7
 48
25.4
100
AcDbLine
 10
4.84137254293455
 20
-42.51205228816934
 30
0.0
 11
2.750779853940912
 21
-42.51205228816934
 31
0.0
  0
LINE
  5
E0E00001C8D7
330
E0E00001C8CD
100
AcDbEntity
  8
PCB_4M_PER1_V
  6
Continuous
 62
     7
 48
25.4
100
AcDbLine
 10
2.750779853940912
 20
-42.51205228816934
 30
0.0
 11
2.750779853940912
 21
-31.00879108078243
 31
0.0
  0
LINE
  5
E0E00001C8D8
330
E0E00001C8CD
100
AcDbEntity
  8
PCB_4M_PER1_V
  6
Continuous
 62
     7
 48
25.4
100
AcDbLine
 10
2.750779853940912
 20
31.00879108078152
 30
0.0
 11
2.750779853940912
 21
42.51205228816843
 31
0.0
  0
LINE
  5
E0E00001C8D9
330
E0E00001C8CD
100
AcDbEntity
  8
SLTZ_960_V_3
  6
Continuous
 62
     7
 48
25.4
100
AcDbLine
 10
27.70785525605243
 20
-43.01219407979443
 30
0.0
 11
27.70785525605243
 21
-42.51205228816934
 31
0.0
  0
LINE
  5
E0E00001C8DA
330
E0E00001C8CD
100
AcDbEntity
  8
SLTZ_960_V_3
  6
Continuous
 62
     7
 48
25.4
100
AcDbLine
 10
27.70785525605243
 20
-42.51205228816934
 30
0.0
 11
27.70785525605243
 21
-34.60981198048648
 31
0.0
  0
LINE
  5
E0E00001C8DB
330
E0E00001C8CD
100
AcDbEntity
  8
SLTZ_960_V_3
  6
Continuous
 62
     7
 48
25.4
100
AcDbLine
 10
4.84137254293455
 20
-42.51205228816934
 30
0.0
 11
4.84137254293455
 21
-34.60981198048603
 31
0.0
  0
LINE
  5
E0E00001C8DC
330
E0E00001C8CD
100
AcDbEntity
  8
SLTZ_960_V_3
  6
Continuous
 62
     7
 48
25.4
100
AcDbLine
 10
4.84137254293455
 20
-43.01219407979443
 30
0.0
 11
4.84137254293455
 21
-42.51205228816934
 31
0.0
  0
LINE
  5
E0E00001C8DD
330
E0E00001C8CD
100
AcDbEntity
  8
SLTZ_960_V_3
  6
Continuous
 62
     7
 48
25.4
100
AcDbLine
 10
27.70785525605243
 20
-34.60981198048648
 30
0.0
 11
26.70757167280226
 21
-34.60981198048648
 31
0.0
  0
LINE
  5
E0E00001C8DE
330
E0E00001C8CD
100
AcDbEntity
  8
SLTZ_960_V_3
  6
Continuous
 62
     7
 48
25.4
100
AcDbLine
 10
5.841656126185626
 20
-34.60981198048648
 30
0.0
 11
4.84137254293455
 21
-34.60981198048648
 31
0.0
  0
LINE
  5
E0E00001C8DF
330
E0E00001C8CD
100
AcDbEntity
  8
SLTZ_960_V_3
  6
Continuous
 62
     7
 48
25.4
100
AcDbLine
 10
27.70785525605243
 20
-42.51205228816934
 30
0.0
 11
26.70757167280226
 21
-42.51205228816934
 31
0.0
  0
LINE
  5
E0E00001C8E0
330
E0E00001C8CD
100
AcDbEntity
  8
SLTZ_960_V_3
  6
Continuous
 62
     7
 48
25.4
100
AcDbLine
 10
5.841656126185626
 20
-42.51205228816934
 30
0.0
 11
4.84137254293455
 21
-42.51205228816934
 31
0.0
  0
LINE
  5
E0E00001C8E1
330
E0E00001C8CD
100
AcDbEntity
  8
SLTZ_960_V_3
  6
Continuous
 62
     7
 48
25.4
100
AcDbLine
 10
27.70785525605243
 20
-43.01219407979443
 30
0.0
 11
26.70757167280226
 21
-43.01219407979443
 31
0.0
  0
LINE
  5
E0E00001C8E2
330
E0E00001C8CD
100
AcDbEntity
  8
SLTZ_960_V_3
  6
Continuous
 62
     7
 48
25.4
100
AcDbLine
 10
5.841656126185626
 20
-43.01219407979443
 30
0.0
 11
4.84137254293455
 21
-43.01219407979443
 31
0.0
  0
LINE
  5
E0E00001C8E3
330
E0E00001C8CD
100
AcDbEntity
  8
STL(Z)1550_V_5
  6
Continuous
 62
     7
 48
25.4
100
AcDbLine
 10
66.20877037538503
 20
-42.51205228816934
 30
0.0
 11
65.90868530040916
 21
-42.51205228816934
 31
0.0
  0
LINE
  5
E0E00001C8E4
330
E0E00001C8CD
100
AcDbEntity
  8
STL(Z)1550_V_5
  6
Continuous
 62
     7
 48
25.4
100
AcDbLine
 10
46.0630590087103
 20
-42.51205228816934
 30
0.0
 11
45.76297393373534
 21
-42.51205228816934
 31
0.0
  0
LINE
  5
E0E00001C8E5
330
E0E00001C8CD
100
AcDbEntity
  8
STL(Z)1550_V_5
  6
Continuous
 62
     7
 48
25.4
100
AcDbLine
 10
66.20877037538503
 20
-35.51006720541181
 30
0.0
 11
66.20877037538503
 21
-42.51205228816934
 31
0.0
  0
LINE
  5
E0E00001C8E6
330
E0E00001C8CD
100
AcDbEntity
  8
STL(Z)1550_V_5
  6
Continuous
 62
     7
 48
25.4
100
AcDbLine
 10
66.20877037538503
 20
-43.01219407979443
 30
0.0
 11
66.20877037538503
 21
-42.51205228816934
 31
0.0
  0
LINE
  5
E0E00001C8E7
330
E0E00001C8CD
100
AcDbEntity
  8
STL(Z)1550_V_5
  6
Continuous
 62
     7
 48
25.4
100
AcDbLine
 10
45.76297393373534
 20
-43.01219407979443
 30
0.0
 11
66.20877037538503
 21
-43.01219407979443
 31
0.0
  0
LINE
  5
E0E00001C8E8
330
E0E00001C8CD
100
AcDbEntity
  8
STL(Z)1550_V_5
  6
Continuous
 62
     7
 48
25.4
100
AcDbLine
 10
45.76297393373534
 20
-35.51006720541181
 30
0.0
 11
46.0630590087103
 21
-35.51006720541181
 31
0.0
  0
LINE
  5
E0E00001C8E9
330
E0E00001C8CD
100
AcDbEntity
  8
STL(Z)1550_V_5
  6
Continuous
 62
     7
 48
25.4
100
AcDbLine
 10
65.90868530040916
 20
-35.51006720541181
 30
0.0
 11
66.20877037538503
 21
-35.51006720541181
 31
0.0
  0
LINE
  5
E0E00001C8EA
330
E0E00001C8CD
100
AcDbEntity
  8
STL(Z)1550_V_5
  6
Continuous
 62
     7
 48
25.4
100
AcDbLine
 10
45.76297393373534
 20
-43.01219407979443
 30
0.0
 11
45.76297393373534
 21
-42.51205228816934
 31
0.0
  0
LINE
  5
E0E00001C8EB
330
E0E00001C8CD
100
AcDbEntity
  8
STL(Z)1550_V_5
  6
Continuous
 62
     7
 48
25.4
100
AcDbLine
 10
45.76297393373534
 20
-42.51205228816934
 30
0.0
 11
45.76297393373534
 21
-35.51006720541181
 31
0.0
  0
LINE
  5
E0E00001C8EC
330
E0E00001C8CD
100
AcDbEntity
  8
SLTZ_960_V_3
  6
Continuous
 62
     7
 48
25.4
100
AcDbLine
 10
41.60179422741021
 20
43.01219407979397
 30
0.0
 11
41.60179422741021
 21
42.51205228816843
 31
0.0
  0
LINE
  5
E0E00001C8ED
330
E0E00001C8CD
100
AcDbEntity
  8
SLTZ_960_V_3
  6
Continuous
 62
     7
 48
25.4
100
AcDbLine
 10
41.60179422741021
 20
42.51205228816843
 30
0.0
 11
41.60179422741021
 21
34.60981198048512
 31
0.0
  0
LINE
  5
E0E00001C8EE
330
E0E00001C8CD
100
AcDbEntity
  8
SLTZ_960_V_3
  6
Continuous
 62
     7
 48
25.4
100
AcDbLine
 10
64.468276940529
 20
42.51205228816843
 30
0.0
 11
64.468276940529
 21
34.60981198048512
 31
0.0
  0
LINE
  5
E0E00001C8EF
330
E0E00001C8CD
100
AcDbEntity
  8
SLTZ_960_V_3
  6
Continuous
 62
     7
 48
25.4
100
AcDbLine
 10
64.468276940529
 20
43.01219407979397
 30
0.0
 11
64.468276940529
 21
42.51205228816843
 31
0.0
  0
LINE
  5
E0E00001C8F0
330
E0E00001C8CD
100
AcDbEntity
  8
SLTZ_960_V_3
  6
Continuous
 62
     7
 48
25.4
100
AcDbLine
 10
41.60179422741021
 20
34.60981198048512
 30
0.0
 11
42.60207781066038
 21
34.60981198048512
 31
0.0
  0
LINE
  5
E0E00001C8F1
330
E0E00001C8CD
100
AcDbEntity
  8
SLTZ_960_V_3
  6
Continuous
 62
     7
 48
25.4
100
AcDbLine
 10
63.46799335727792
 20
34.60981198048512
 30
0.0
 11
64.468276940529
 21
34.60981198048512
 31
0.0
  0
LINE
  5
E0E00001C8F2
330
E0E00001C8CD
100
AcDbEntity
  8
SLTZ_960_V_3
  6
Continuous
 62
     7
 48
25.4
100
AcDbLine
 10
41.60179422741021
 20
42.51205228816843
 30
0.0
 11
42.60207781066038
 21
42.51205228816843
 31
0.0
  0
LINE
  5
E0E00001C8F3
330
E0E00001C8CD
100
AcDbEntity
  8
SLTZ_960_V_3
  6
Continuous
 62
     7
 48
25.4
100
AcDbLine
 10
63.46799335727792
 20
42.51205228816843
 30
0.0
 11
64.468276940529
 21
42.51205228816843
 31
0.0
  0
LINE
  5
E0E00001C8F4
330
E0E00001C8CD
100
AcDbEntity
  8
SLTZ_960_V_3
  6
Continuous
 62
     7
 48
25.4
100
AcDbLine
 10
41.60179422741021
 20
43.01219407979397
 30
0.0
 11
42.60207781066038
 21
43.01219407979397
 31
0.0
  0
LINE
  5
E0E00001C8F5
330
E0E00001C8CD
100
AcDbEntity
  8
SLTZ_960_V_3
  6
Continuous
 62
     7
 48
25.4
100
AcDbLine
 10
63.46799335727792
 20
43.01219407979397
 30
0.0
 11
64.468276940529
 21
43.01219407979397
 31
0.0
  0
LINE
  5
E0E00001C8F6
330
E0E00001C8CD
100
AcDbEntity
  8
AKZ_960_3
  6
Continuous
 62
     7
 48
25.4
100
AcDbLine
 10
5.841656126185626
 20
-50.61266816362331
 30
0.0
 11
5.841656126185626
 21
-50.11252637199777
 31
0.0
  0
LINE
  5
E0E00001C8F7
330
E0E00001C8CD
100
AcDbEntity
  8
AKZ_960_3
  6
Continuous
 62
     7
 48
25.4
100
AcDbLine
 10
5.841656126185626
 20
-50.11252637199777
 30
0.0
 11
5.841656126185626
 21
-49.92575800659597
 31
0.0
  0
LINE
  5
E0E00001C8F8
330
E0E00001C8CD
100
AcDbEntity
  8
AKZ_960_3
  6
Continuous
 62
     7
 48
25.4
100
AcDbLine
 10
5.841656126185626
 20
-49.92575800659597
 30
0.0
 11
5.841656126185626
 21
-43.91244930472067
 31
0.0
  0
LINE
  5
E0E00001C8F9
330
E0E00001C8CD
100
AcDbEntity
  8
AKZ_960_3
  6
Continuous
 62
     7
 48
25.4
100
AcDbLine
 10
5.841656126185626
 20
-43.91244930472067
 30
0.0
 11
5.841656126185626
 21
-34.60981198048603
 31
0.0
  0
LINE
  5
E0E00001C8FA
330
E0E00001C8CD
100
AcDbEntity
  8
AKZ_960_3
  6
Continuous
 62
     7
 48
25.4
100
AcDbLine
 10
26.70757167280226
 20
-43.91244930472067
 30
0.0
 11
26.70757167280226
 21
-34.60981198048603
 31
0.0
  0
LINE
  5
E0E00001C8FB
330
E0E00001C8CD
100
AcDbEntity
  8
AKZ_960_3
  6
Continuous
 62
     7
 48
25.4
100
AcDbLine
 10
26.70757167280226
 20
-49.92575800659597
 30
0.0
 11
26.70757167280226
 21
-43.91244930472067
 31
0.0
  0
LINE
  5
E0E00001C8FC
330
E0E00001C8CD
100
AcDbEntity
  8
AKZ_960_3
  6
Continuous
 62
     7
 48
25.4
100
AcDbLine
 10
26.70757167280226
 20
-50.11252637199777
 30
0.0
 11
26.70757167280226
 21
-49.92575800659597
 31
0.0
  0
LINE
  5
E0E00001C8FD
330
E0E00001C8CD
100
AcDbEntity
  8
AKZ_960_3
  6
Continuous
 62
     7
 48
25.4
100
AcDbLine
 10
26.70757167280226
 20
-50.61266816362331
 30
0.0
 11
26.70757167280226
 21
-50.11252637199777
 31
0.0
  0
LINE
  5
E0E00001C8FE
330
E0E00001C8CD
100
AcDbEntity
  8
AKZ_960_3
  6
Continuous
 62
     7
 48
25.4
100
AcDbLine
 10
5.841656126185626
 20
-34.60981198048603
 30
0.0
 11
26.70757167280226
 21
-34.60981198048603
 31
0.0
  0
LINE
  5
E0E00001C8FF
330
E0E00001C8CD
100
AcDbEntity
  8
AKZ_960_3
  6
Continuous
 62
     7
 48
25.4
100
AcDbLine
 10
5.841656126185626
 20
-43.91244930472067
 30
0.0
 11
26.70757167280226
 21
-43.91244930472067
 31
0.0
  0
LINE
  5
E0E00001C900
330
E0E00001C8CD
100
AcDbEntity
  8
AKZ_960_3
  6
Continuous
 62
     7
 48
25.4
100
AcDbLine
 10
5.841656126185626
 20
-49.92575800659597
 30
0.0
 11
26.70757167280226
 21
-49.92575800659597
 31
0.0
  0
LINE
  5
E0E00001C901
330
E0E00001C8CD
100
AcDbEntity
  8
AKZ_960_3
  6
Continuous
 62
     7
 48
25.4
100
AcDbLine
 10
5.841656126185626
 20
-50.11252637199777
 30
0.0
 11
26.70757167280226
 21
-50.11252637199777
 31
0.0
  0
LINE
  5
E0E00001C902
330
E0E00001C8CD
100
AcDbEntity
  8
AKZ_960_3
  6
Continuous
 62
     7
 48
25.4
100
AcDbLine
 10
5.841656126185626
 20
-50.61266816362331
 30
0.0
 11
26.70757167280226
 21
-50.61266816362331
 31
0.0
  0
LINE
  5
E0E00001C903
330
E0E00001C8CD
100
AcDbEntity
  8
AKZ_960_3
  6
Continuous
 62
     7
 48
25.4
100
AcDbLine
 10
25.89734197036796
 20
-43.76240676723319
 30
0.0
 11
21.89620763736457
 21
-43.76240676723319
 31
0.0
  0
LINE
  5
E0E00001C904
330
E0E00001C8CD
100
AcDbEntity
  8
AKZ_960_3
  6
Continuous
 62
     7
 48
25.4
100
AcDbLine
 10
21.89620763736457
 20
-35.05993959294892
 30
0.0
 11
25.89734197036796
 21
-35.05993959294892
 31
0.0
  0
LINE
  5
E0E00001C905
330
E0E00001C8CD
100
AcDbEntity
  8
AKZ_960_3
  6
Continuous
 62
     7
 48
25.4
100
AcDbLine
 10
25.19714346209366
 20
-38.06079034270215
 30
0.0
 11
22.59640614563978
 21
-38.06079034270215
 31
0.0
  0
LINE
  5
E0E00001C906
330
E0E00001C8CD
100
AcDbEntity
  8
AKZ_960_3
  6
Continuous
 62
     7
 48
25.4
100
AcDbLine
 10
22.59640614563978
 20
-40.76155601747996
 30
0.0
 11
25.19714346209366
 21
-40.76155601747996
 31
0.0
  0
LINE
  5
E0E00001C907
330
E0E00001C8CD
100
AcDbEntity
  8
AKZ_960_3
  6
Continuous
 62
     7
 48
25.4
100
AcDbLine
 10
21.89620763736457
 20
-43.76240676723319
 30
0.0
 11
21.89620763736457
 21
-35.05993959294892
 31
0.0
  0
LINE
  5
E0E00001C908
330
E0E00001C8CD
100
AcDbEntity
  8
AKZ_960_3
  6
Continuous
 62
     7
 48
25.4
100
AcDbLine
 10
25.89734197036796
 20
-35.05993959294892
 30
0.0
 11
25.89734197036796
 21
-43.76240676723319
 31
0.0
  0
LINE
  5
E0E00001C909
330
E0E00001C8CD
100
AcDbEntity
  8
AKZ_960_3
  6
Continuous
 62
     7
 48
25.4
100
AcDbLine
 10
25.19714346209366
 20
-40.76155601747996
 30
0.0
 11
25.19714346209366
 21
-38.06079034270215
 31
0.0
  0
LINE
  5
E0E00001C90A
330
E0E00001C8CD
100
AcDbEntity
  8
AKZ_960_3
  6
Continuous
 62
     7
 48
25.4
100
AcDbLine
 10
22.59640614563978
 20
-38.06079034270215
 30
0.0
 11
22.59640614563978
 21
-40.76155601747996
 31
0.0
  0
LINE
  5
E0E00001C90B
330
E0E00001C8CD
100
AcDbEntity
  8
AKZ_960_3
  6
Continuous
 62
     7
 48
25.4
100
AcDbLine
 10
25.89734197036796
 20
-43.76240676723319
 30
0.0
 11
25.19714346209366
 21
-40.76155601747996
 31
0.0
  0
LINE
  5
E0E00001C90C
330
E0E00001C8CD
100
AcDbEntity
  8
AKZ_960_3
  6
Continuous
 62
     7
 48
25.4
100
AcDbLine
 10
25.19714346209366
 20
-38.06079034270215
 30
0.0
 11
25.89734197036796
 21
-35.05993959294892
 31
0.0
  0
LINE
  5
E0E00001C90D
330
E0E00001C8CD
100
AcDbEntity
  8
AKZ_960_3
  6
Continuous
 62
     7
 48
25.4
100
AcDbLine
 10
21.89620763736457
 20
-35.05993959294892
 30
0.0
 11
22.59640614563978
 21
-38.06079034270215
 31
0.0
  0
LINE
  5
E0E00001C90E
330
E0E00001C8CD
100
AcDbEntity
  8
AKZ_960_3
  6
Continuous
 62
     7
 48
25.4
100
AcDbLine
 10
22.59640614563978
 20
-40.76155601747996
 30
0.0
 11
21.89620763736457
 21
-43.76240676723319
 31
0.0
  0
LINE
  5
E0E00001C90F
330
E0E00001C8CD
100
AcDbEntity
  8
AKZ_960_3
  6
Continuous
 62
     7
 48
25.4
100
AcDbLine
 10
18.27518106599655
 20
-43.76240676723319
 30
0.0
 11
14.27404673299134
 21
-43.76240676723319
 31
0.0
  0
LINE
  5
E0E00001C910
330
E0E00001C8CD
100
AcDbEntity
  8
AKZ_960_3
  6
Continuous
 62
     7
 48
25.4
100
AcDbLine
 10
14.27404673299134
 20
-35.05993959294892
 30
0.0
 11
18.27518106599655
 21
-35.05993959294892
 31
0.0
  0
LINE
  5
E0E00001C911
330
E0E00001C8CD
100
AcDbEntity
  8
AKZ_960_3
  6
Continuous
 62
     7
 48
25.4
100
AcDbLine
 10
17.57498255771952
 20
-38.06079034270215
 30
0.0
 11
14.97424524126654
 21
-38.06079034270215
 31
0.0
  0
LINE
  5
E0E00001C912
330
E0E00001C8CD
100
AcDbEntity
  8
AKZ_960_3
  6
Continuous
 62
     7
 48
25.4
100
AcDbLine
 10
14.97424524126654
 20
-40.76155601747996
 30
0.0
 11
17.57498255771952
 21
-40.76155601747996
 31
0.0
  0
LINE
  5
E0E00001C913
330
E0E00001C8CD
100
AcDbEntity
  8
AKZ_960_3
  6
Continuous
 62
     7
 48
25.4
100
AcDbLine
 10
14.27404673299134
 20
-43.76240676723319
 30
0.0
 11
14.27404673299134
 21
-35.05993959294892
 31
0.0
  0
LINE
  5
E0E00001C914
330
E0E00001C8CD
100
AcDbEntity
  8
AKZ_960_3
  6
Continuous
 62
     7
 48
25.4
100
AcDbLine
 10
18.27518106599655
 20
-35.05993959294892
 30
0.0
 11
18.27518106599655
 21
-43.76240676723319
 31
0.0
  0
LINE
  5
E0E00001C915
330
E0E00001C8CD
100
AcDbEntity
  8
AKZ_960_3
  6
Continuous
 62
     7
 48
25.4
100
AcDbLine
 10
17.57498255771952
 20
-40.76155601747996
 30
0.0
 11
17.57498255771952
 21
-38.06079034270215
 31
0.0
  0
LINE
  5
E0E00001C916
330
E0E00001C8CD
100
AcDbEntity
  8
AKZ_960_3
  6
Continuous
 62
     7
 48
25.4
100
AcDbLine
 10
14.97424524126654
 20
-38.06079034270215
 30
0.0
 11
14.97424524126654
 21
-40.76155601747996
 31
0.0
  0
LINE
  5
E0E00001C917
330
E0E00001C8CD
100
AcDbEntity
  8
AKZ_960_3
  6
Continuous
 62
     7
 48
25.4
100
AcDbLine
 10
18.27518106599655
 20
-43.76240676723319
 30
0.0
 11
17.57498255771952
 21
-40.76155601747996
 31
0.0
  0
LINE
  5
E0E00001C918
330
E0E00001C8CD
100
AcDbEntity
  8
AKZ_960_3
  6
Continuous
 62
     7
 48
25.4
100
AcDbLine
 10
17.57498255771952
 20
-38.06079034270215
 30
0.0
 11
18.27518106599655
 21
-35.05993959294892
 31
0.0
  0
LINE
  5
E0E00001C919
330
E0E00001C8CD
100
AcDbEntity
  8
AKZ_960_3
  6
Continuous
 62
     7
 48
25.4
100
AcDbLine
 10
14.27404673299134
 20
-35.05993959294892
 30
0.0
 11
14.97424524126654
 21
-38.06079034270215
 31
0.0
  0
LINE
  5
E0E00001C91A
330
E0E00001C8CD
100
AcDbEntity
  8
AKZ_960_3
  6
Continuous
 62
     7
 48
25.4
100
AcDbLine
 10
14.97424524126654
 20
-40.76155601747996
 30
0.0
 11
14.27404673299134
 21
-43.76240676723319
 31
0.0
  0
LINE
  5
E0E00001C91B
330
E0E00001C8CD
100
AcDbEntity
  8
AKZ_960_3
  6
Continuous
 62
     7
 48
25.4
100
AcDbLine
 10
10.65302016162332
 20
-43.76240676723319
 30
0.0
 11
6.651885828618106
 21
-43.76240676723319
 31
0.0
  0
LINE
  5
E0E00001C91C
330
E0E00001C8CD
100
AcDbEntity
  8
AKZ_960_3
  6
Continuous
 62
     7
 48
25.4
100
AcDbLine
 10
6.651885828618106
 20
-35.05993959294892
 30
0.0
 11
10.65302016162332
 21
-35.05993959294892
 31
0.0
  0
LINE
  5
E0E00001C91D
330
E0E00001C8CD
100
AcDbEntity
  8
AKZ_960_3
  6
Continuous
 62
     7
 48
25.4
100
AcDbLine
 10
9.95282165334811
 20
-38.06079034270215
 30
0.0
 11
7.352084336895132
 21
-38.06079034270215
 31
0.0
  0
LINE
  5
E0E00001C91E
330
E0E00001C8CD
100
AcDbEntity
  8
AKZ_960_3
  6
Continuous
 62
     7
 48
25.4
100
AcDbLine
 10
7.352084336895132
 20
-40.76155601747996
 30
0.0
 11
9.95282165334811
 21
-40.76155601747996
 31
0.0
  0
LINE
  5
E0E00001C91F
330
E0E00001C8CD
100
AcDbEntity
  8
AKZ_960_3
  6
Continuous
 62
     7
 48
25.4
100
AcDbLine
 10
6.651885828618106
 20
-43.76240676723319
 30
0.0
 11
6.651885828618106
 21
-35.05993959294892
 31
0.0
  0
LINE
  5
E0E00001C920
330
E0E00001C8CD
100
AcDbEntity
  8
AKZ_960_3
  6
Continuous
 62
     7
 48
25.4
100
AcDbLine
 10
10.65302016162332
 20
-35.05993959294892
 30
0.0
 11
10.65302016162332
 21
-43.76240676723319
 31
0.0
  0
LINE
  5
E0E00001C921
330
E0E00001C8CD
100
AcDbEntity
  8
AKZ_960_3
  6
Continuous
 62
     7
 48
25.4
100
AcDbLine
 10
9.95282165334811
 20
-40.76155601747996
 30
0.0
 11
9.95282165334811
 21
-38.06079034270215
 31
0.0
  0
LINE
  5
E0E00001C922
330
E0E00001C8CD
100
AcDbEntity
  8
AKZ_960_3
  6
Continuous
 62
     7
 48
25.4
100
AcDbLine
 10
7.352084336895132
 20
-38.06079034270215
 30
0.0
 11
7.352084336895132
 21
-40.76155601747996
 31
0.0
  0
LINE
  5
E0E00001C923
330
E0E00001C8CD
100
AcDbEntity
  8
AKZ_960_3
  6
Continuous
 62
     7
 48
25.4
100
AcDbLine
 10
10.65302016162332
 20
-43.76240676723319
 30
0.0
 11
9.95282165334811
 21
-40.76155601747996
 31
0.0
  0
LINE
  5
E0E00001C924
330
E0E00001C8CD
100
AcDbEntity
  8
AKZ_960_3
  6
Continuous
 62
     7
 48
25.4
100
AcDbLine
 10
9.95282165334811
 20
-38.06079034270215
 30
0.0
 11
10.65302016162332
 21
-35.05993959294892
 31
0.0
  0
LINE
  5
E0E00001C925
330
E0E00001C8CD
100
AcDbEntity
  8
AKZ_960_3
  6
Continuous
 62
     7
 48
25.4
100
AcDbLine
 10
6.651885828618106
 20
-35.05993959294892
 30
0.0
 11
7.352084336895132
 21
-38.06079034270215
 31
0.0
  0
LINE
  5
E0E00001C926
330
E0E00001C8CD
100
AcDbEntity
  8
AKZ_960_3
  6
Continuous
 62
     7
 48
25.4
100
AcDbLine
 10
7.352084336895132
 20
-40.76155601747996
 30
0.0
 11
6.651885828618106
 21
-43.76240676723319
 31
0.0
  0
LINE
  5
E0E00001C927
330
E0E00001C8CD
100
AcDbEntity
  8
AK(Z)-1550_5
  6
Continuous
 62
     7
 48
25.4
100
AcDbLine
 10
46.0630590087103
 20
-31.57058615515871
 30
0.0
 11
65.90868530040916
 21
-31.57058615515871
 31
0.0
  0
LINE
  5
E0E00001C928
330
E0E00001C8CD
100
AcDbEntity
  8
AK(Z)-1550_5
  6
Continuous
 62
     7
 48
25.4
100
AcDbLine
 10
46.0630590087103
 20
-38.66681490541714
 30
0.0
 11
46.0630590087103
 21
-31.57058615515871
 31
0.0
  0
LINE
  5
E0E00001C929
330
E0E00001C8CD
100
AcDbEntity
  8
AK(Z)-1550_5
  6
Continuous
 62
     7
 48
25.4
100
AcDbLine
 10
46.0630590087103
 20
-38.66681490541714
 30
0.0
 11
46.0630590087103
 21
-42.35230721063272
 31
0.0
  0
LINE
  5
E0E00001C92A
330
E0E00001C8CD
100
AcDbEntity
  8
AK(Z)-1550_5
  6
Continuous
 62
     7
 48
25.4
100
AcDbLine
 10
46.0630590087103
 20
-42.35230721063272
 30
0.0
 11
46.0630590087103
 21
-42.67373392924492
 31
0.0
  0
LINE
  5
E0E00001C92B
330
E0E00001C8CD
100
AcDbEntity
  8
AK(Z)-1550_5
  6
Continuous
 62
     7
 48
25.4
100
AcDbLine
 10
46.0630590087103
 20
-42.35230721063272
 30
0.0
 11
65.90868530040916
 21
-42.35230721063272
 31
0.0
  0
LINE
  5
E0E00001C92C
330
E0E00001C8CD
100
AcDbEntity
  8
AK(Z)-1550_5
  6
Continuous
 62
     7
 48
25.4
100
AcDbLine
 10
46.0630590087103
 20
-42.67373392924492
 30
0.0
 11
65.90868530040916
 21
-42.67373392924492
 31
0.0
  0
LINE
  5
E0E00001C92D
330
E0E00001C8CD
100
AcDbEntity
  8
AK(Z)-1550_5
  6
Continuous
 62
     7
 48
25.4
100
AcDbLine
 10
47.21338512944931
 20
-37.43112643496579
 30
0.0
 11
47.21338512944931
 21
-32.17433132054384
 31
0.0
  0
LINE
  5
E0E00001C92E
330
E0E00001C8CD
100
AcDbEntity
  8
AK(Z)-1550_5
  6
Continuous
 62
     7
 48
25.4
100
AcDbLine
 10
47.21338512944931
 20
-32.17433132054339
 30
0.0
 11
49.51403737092642
 21
-32.17433132054339
 31
0.0
  0
LINE
  5
E0E00001C92F
330
E0E00001C8CD
100
AcDbEntity
  8
AK(Z)-1550_5
  6
Continuous
 62
     7
 48
25.4
100
AcDbLine
 10
49.51403737092642
 20
-32.17433132054384
 30
0.0
 11
49.51403737092642
 21
-37.43112643496579
 31
0.0
  0
LINE
  5
E0E00001C930
330
E0E00001C8CD
100
AcDbEntity
  8
AK(Z)-1550_5
  6
Continuous
 62
     7
 48
25.4
100
AcDbLine
 10
49.51403737092642
 20
-37.43112643496579
 30
0.0
 11
47.21338512944931
 21
-37.43112643496579
 31
0.0
  0
LINE
  5
E0E00001C931
330
E0E00001C8CD
100
AcDbEntity
  8
AK(Z)-1550_5
  6
Continuous
 62
     7
 48
25.4
100
AcDbLine
 10
46.85828445739389
 20
-38.26670147211689
 30
0.0
 11
47.21338512944931
 21
-37.43112643496579
 31
0.0
  0
LINE
  5
E0E00001C932
330
E0E00001C8CD
100
AcDbEntity
  8
AK(Z)-1550_5
  6
Continuous
 62
     7
 48
25.4
100
AcDbLine
 10
49.8691380429791
 20
-38.26670147211689
 30
0.0
 11
46.85828445739389
 21
-38.26670147211689
 31
0.0
  0
LINE
  5
E0E00001C933
330
E0E00001C8CD
100
AcDbEntity
  8
AK(Z)-1550_5
  6
Continuous
 62
     7
 48
25.4
100
AcDbLine
 10
46.85828445739389
 20
-31.97069958845896
 30
0.0
 11
47.21338512944931
 21
-32.17433132054339
 31
0.0
  0
LINE
  5
E0E00001C934
330
E0E00001C8CD
100
AcDbEntity
  8
AK(Z)-1550_5
  6
Continuous
 62
     7
 48
25.4
100
AcDbLine
 10
46.85828445739389
 20
-38.26670147211689
 30
0.0
 11
46.85828445739389
 21
-31.97069958845896
 31
0.0
  0
LINE
  5
E0E00001C935
330
E0E00001C8CD
100
AcDbEntity
  8
AK(Z)-1550_5
  6
Continuous
 62
     7
 48
25.4
100
AcDbLine
 10
49.8691380429791
 20
-31.97069958845896
 30
0.0
 11
49.51403737092642
 21
-32.17433132054339
 31
0.0
  0
LINE
  5
E0E00001C936
330
E0E00001C8CD
100
AcDbEntity
  8
AK(Z)-1550_5
  6
Continuous
 62
     7
 48
25.4
100
AcDbLine
 10
46.85828445739389
 20
-31.97069958845896
 30
0.0
 11
49.8691380429791
 21
-31.97069958845896
 31
0.0
  0
LINE
  5
E0E00001C937
330
E0E00001C8CD
100
AcDbEntity
  8
AK(Z)-1550_5
  6
Continuous
 62
     7
 48
25.4
100
AcDbLine
 10
49.8691380429791
 20
-31.97069958845896
 30
0.0
 11
49.8691380429791
 21
-38.26670147211689
 31
0.0
  0
LINE
  5
E0E00001C938
330
E0E00001C8CD
100
AcDbEntity
  8
AK(Z)-1550_5
  6
Continuous
 62
     7
 48
25.4
100
AcDbLine
 10
49.8691380429791
 20
-38.26670147211689
 30
0.0
 11
49.51403737092642
 21
-37.43112643496579
 31
0.0
  0
LINE
  5
E0E00001C939
330
E0E00001C8CD
100
AcDbEntity
  8
AK(Z)-1550_5
  6
Continuous
 62
     7
 48
25.4
100
AcDbLine
 10
53.32511782311121
 20
-37.43112643496579
 30
0.0
 11
51.02446558163501
 21
-37.43112643496579
 31
0.0
  0
LINE
  5
E0E00001C93A
330
E0E00001C8CD
100
AcDbEntity
  8
AK(Z)-1550_5
  6
Continuous
 62
     7
 48
25.4
100
AcDbLine
 10
51.02446558163501
 20
-37.43112643496579
 30
0.0
 11
51.02446558163501
 21
-32.17433132054384
 31
0.0
  0
LINE
  5
E0E00001C93B
330
E0E00001C8CD
100
AcDbEntity
  8
AK(Z)-1550_5
  6
Continuous
 62
     7
 48
25.4
100
AcDbLine
 10
51.02446558163501
 20
-32.17433132054384
 30
0.0
 11
53.32511782311121
 21
-32.17433132054384
 31
0.0
  0
LINE
  5
E0E00001C93C
330
E0E00001C8CD
100
AcDbEntity
  8
AK(Z)-1550_5
  6
Continuous
 62
     7
 48
25.4
100
AcDbLine
 10
53.32511782311121
 20
-32.17433132054384
 30
0.0
 11
53.32511782311121
 21
-37.43112643496579
 31
0.0
  0
LINE
  5
E0E00001C93D
330
E0E00001C8CD
100
AcDbEntity
  8
AK(Z)-1550_5
  6
Continuous
 62
     7
 48
25.4
100
AcDbLine
 10
50.66936490958142
 20
-31.97069958845896
 30
0.0
 11
51.02446558163501
 21
-32.17433132054339
 31
0.0
  0
LINE
  5
E0E00001C93E
330
E0E00001C8CD
100
AcDbEntity
  8
AK(Z)-1550_5
  6
Continuous
 62
     7
 48
25.4
100
AcDbLine
 10
50.66936490958142
 20
-38.26670147211689
 30
0.0
 11
50.66936490958142
 21
-31.97069958845896
 31
0.0
  0
LINE
  5
E0E00001C93F
330
E0E00001C8CD
100
AcDbEntity
  8
AK(Z)-1550_5
  6
Continuous
 62
     7
 48
25.4
100
AcDbLine
 10
53.68021849516663
 20
-31.97069958845896
 30
0.0
 11
53.32511782311121
 21
-32.17433132054384
 31
0.0
  0
LINE
  5
E0E00001C940
330
E0E00001C8CD
100
AcDbEntity
  8
AK(Z)-1550_5
  6
Continuous
 62
     7
 48
25.4
100
AcDbLine
 10
50.66936490958142
 20
-31.97069958845896
 30
0.0
 11
53.68021849516663
 21
-31.97069958845896
 31
0.0
  0
LINE
  5
E0E00001C941
330
E0E00001C8CD
100
AcDbEntity
  8
AK(Z)-1550_5
  6
Continuous
 62
     7
 48
25.4
100
AcDbLine
 10
53.68021849516663
 20
-38.26670147211689
 30
0.0
 11
53.32511782311121
 21
-37.43112643496579
 31
0.0
  0
LINE
  5
E0E00001C942
330
E0E00001C8CD
100
AcDbEntity
  8
AK(Z)-1550_5
  6
Continuous
 62
     7
 48
25.4
100
AcDbLine
 10
53.68021849516663
 20
-31.97069958845896
 30
0.0
 11
53.68021849516663
 21
-38.26670147211689
 31
0.0
  0
LINE
  5
E0E00001C943
330
E0E00001C8CD
100
AcDbEntity
  8
AK(Z)-1550_5
  6
Continuous
 62
     7
 48
25.4
100
AcDbLine
 10
53.68021849516663
 20
-38.26670147211689
 30
0.0
 11
50.66936490958142
 21
-38.26670147211689
 31
0.0
  0
LINE
  5
E0E00001C944
330
E0E00001C8CD
100
AcDbEntity
  8
AK(Z)-1550_5
  6
Continuous
 62
     7
 48
25.4
100
AcDbLine
 10
50.66936490958142
 20
-38.26670147211689
 30
0.0
 11
51.02446558163501
 21
-37.43112643496579
 31
0.0
  0
LINE
  5
E0E00001C945
330
E0E00001C8CD
100
AcDbEntity
  8
AK(Z)-1550_5
  6
Continuous
 62
     7
 48
25.4
100
AcDbLine
 10
61.30237939953895
 20
-38.26670147211689
 30
0.0
 11
60.94727872748535
 21
-37.43112643496579
 31
0.0
  0
LINE
  5
E0E00001C946
330
E0E00001C8CD
100
AcDbEntity
  8
AK(Z)-1550_5
  6
Continuous
 62
     7
 48
25.4
100
AcDbLine
 10
58.29152581395374
 20
-38.26670147211689
 30
0.0
 11
61.30237939953895
 21
-38.26670147211689
 31
0.0
  0
LINE
  5
E0E00001C947
330
E0E00001C8CD
100
AcDbEntity
  8
AK(Z)-1550_5
  6
Continuous
 62
     7
 48
25.4
100
AcDbLine
 10
61.30237939953895
 20
-31.97069958845896
 30
0.0
 11
60.94727872748535
 21
-32.17433132054384
 31
0.0
  0
LINE
  5
E0E00001C948
330
E0E00001C8CD
100
AcDbEntity
  8
AK(Z)-1550_5
  6
Continuous
 62
     7
 48
25.4
100
AcDbLine
 10
61.30237939953895
 20
-38.26670147211689
 30
0.0
 11
61.30237939953895
 21
-31.97069958845896
 31
0.0
  0
LINE
  5
E0E00001C949
330
E0E00001C8CD
100
AcDbEntity
  8
AK(Z)-1550_5
  6
Continuous
 62
     7
 48
25.4
100
AcDbLine
 10
58.29152581395374
 20
-31.97069958845896
 30
0.0
 11
58.64662648600734
 21
-32.17433132054384
 31
0.0
  0
LINE
  5
E0E00001C94A
330
E0E00001C8CD
100
AcDbEntity
  8
AK(Z)-1550_5
  6
Continuous
 62
     7
 48
25.4
100
AcDbLine
 10
61.30237939953895
 20
-31.97069958845896
 30
0.0
 11
58.29152581395374
 21
-31.97069958845896
 31
0.0
  0
LINE
  5
E0E00001C94B
330
E0E00001C8CD
100
AcDbEntity
  8
AK(Z)-1550_5
  6
Continuous
 62
     7
 48
25.4
100
AcDbLine
 10
58.29152581395374
 20
-31.97069958845896
 30
0.0
 11
58.29152581395374
 21
-38.26670147211689
 31
0.0
  0
LINE
  5
E0E00001C94C
330
E0E00001C8CD
100
AcDbEntity
  8
AK(Z)-1550_5
  6
Continuous
 62
     7
 48
25.4
100
AcDbLine
 10
58.29152581395374
 20
-38.26670147211689
 30
0.0
 11
58.64662648600734
 21
-37.43112643496579
 31
0.0
  0
LINE
  5
E0E00001C94D
330
E0E00001C8CD
100
AcDbEntity
  8
AK(Z)-1550_5
  6
Continuous
 62
     7
 48
25.4
100
AcDbLine
 10
58.64662648600734
 20
-32.17433132054384
 30
0.0
 11
58.64662648600734
 21
-37.43112643496579
 31
0.0
  0
LINE
  5
E0E00001C94E
330
E0E00001C8CD
100
AcDbEntity
  8
AK(Z)-1550_5
  6
Continuous
 62
     7
 48
25.4
100
AcDbLine
 10
58.64662648600734
 20
-37.43112643496579
 30
0.0
 11
60.94727872748444
 21
-37.43112643496579
 31
0.0
  0
LINE
  5
E0E00001C94F
330
E0E00001C8CD
100
AcDbEntity
  8
AK(Z)-1550_5
  6
Continuous
 62
     7
 48
25.4
100
AcDbLine
 10
60.94727872748444
 20
-37.43112643496579
 30
0.0
 11
60.94727872748535
 21
-32.17433132054384
 31
0.0
  0
LINE
  5
E0E00001C950
330
E0E00001C8CD
100
AcDbEntity
  8
AK(Z)-1550_5
  6
Continuous
 62
     7
 48
25.4
100
AcDbLine
 10
60.94727872748535
 20
-32.17433132054384
 30
0.0
 11
58.64662648600734
 21
-32.17433132054384
 31
0.0
  0
LINE
  5
E0E00001C951
330
E0E00001C8CD
100
AcDbEntity
  8
AK(Z)-1550_5
  6
Continuous
 62
     7
 48
25.4
100
AcDbLine
 10
57.49129894735233
 20
-31.97069958845896
 30
0.0
 11
57.13619827529874
 21
-32.17433132054384
 31
0.0
  0
LINE
  5
E0E00001C952
330
E0E00001C8CD
100
AcDbEntity
  8
AK(Z)-1550_5
  6
Continuous
 62
     7
 48
25.4
100
AcDbLine
 10
57.49129894735233
 20
-38.26670147211689
 30
0.0
 11
57.49129894735233
 21
-31.97069958845896
 31
0.0
  0
LINE
  5
E0E00001C953
330
E0E00001C8CD
100
AcDbEntity
  8
AK(Z)-1550_5
  6
Continuous
 62
     7
 48
25.4
100
AcDbLine
 10
54.48044536176712
 20
-31.97069958845896
 30
0.0
 11
54.83554603382072
 21
-32.17433132054384
 31
0.0
  0
LINE
  5
E0E00001C954
330
E0E00001C8CD
100
AcDbEntity
  8
AK(Z)-1550_5
  6
Continuous
 62
     7
 48
25.4
100
AcDbLine
 10
57.49129894735233
 20
-31.97069958845896
 30
0.0
 11
54.48044536176712
 21
-31.97069958845896
 31
0.0
  0
LINE
  5
E0E00001C955
330
E0E00001C8CD
100
AcDbEntity
  8
AK(Z)-1550_5
  6
Continuous
 62
     7
 48
25.4
100
AcDbLine
 10
54.48044536176712
 20
-38.26670147211689
 30
0.0
 11
54.83554603382072
 21
-37.43112643496579
 31
0.0
  0
LINE
  5
E0E00001C956
330
E0E00001C8CD
100
AcDbEntity
  8
AK(Z)-1550_5
  6
Continuous
 62
     7
 48
25.4
100
AcDbLine
 10
54.48044536176712
 20
-31.97069958845896
 30
0.0
 11
54.48044536176712
 21
-38.26670147211689
 31
0.0
  0
LINE
  5
E0E00001C957
330
E0E00001C8CD
100
AcDbEntity
  8
AK(Z)-1550_5
  6
Continuous
 62
     7
 48
25.4
100
AcDbLine
 10
54.48044536176712
 20
-38.26670147211689
 30
0.0
 11
57.49129894735233
 21
-38.26670147211689
 31
0.0
  0
LINE
  5
E0E00001C958
330
E0E00001C8CD
100
AcDbEntity
  8
AK(Z)-1550_5
  6
Continuous
 62
     7
 48
25.4
100
AcDbLine
 10
57.49129894735233
 20
-38.26670147211689
 30
0.0
 11
57.13619827529874
 21
-37.43112643496579
 31
0.0
  0
LINE
  5
E0E00001C959
330
E0E00001C8CD
100
AcDbEntity
  8
AK(Z)-1550_5
  6
Continuous
 62
     7
 48
25.4
100
AcDbLine
 10
54.83554603382072
 20
-37.43112643496579
 30
0.0
 11
57.13619827529874
 21
-37.43112643496579
 31
0.0
  0
LINE
  5
E0E00001C95A
330
E0E00001C8CD
100
AcDbEntity
  8
AK(Z)-1550_5
  6
Continuous
 62
     7
 48
25.4
100
AcDbLine
 10
57.13619827529874
 20
-37.43112643496579
 30
0.0
 11
57.13619827529874
 21
-32.17433132054384
 31
0.0
  0
LINE
  5
E0E00001C95B
330
E0E00001C8CD
100
AcDbEntity
  8
AK(Z)-1550_5
  6
Continuous
 62
     7
 48
25.4
100
AcDbLine
 10
57.13619827529874
 20
-32.17433132054384
 30
0.0
 11
54.83554603382072
 21
-32.17433132054384
 31
0.0
  0
LINE
  5
E0E00001C95C
330
E0E00001C8CD
100
AcDbEntity
  8
AK(Z)-1550_5
  6
Continuous
 62
     7
 48
25.4
100
AcDbLine
 10
54.83554603382072
 20
-32.17433132054384
 30
0.0
 11
54.83554603382072
 21
-37.43112643496579
 31
0.0
  0
LINE
  5
E0E00001C95D
330
E0E00001C8CD
100
AcDbEntity
  8
AK(Z)-1550_5
  6
Continuous
 62
     7
 48
25.4
100
AcDbLine
 10
65.11345985172557
 20
-38.26670147211689
 30
0.0
 11
62.10260626614036
 21
-38.26670147211689
 31
0.0
  0
LINE
  5
E0E00001C95E
330
E0E00001C8CD
100
AcDbEntity
  8
AK(Z)-1550_5
  6
Continuous
 62
     7
 48
25.4
100
AcDbLine
 10
62.10260626614036
 20
-38.26670147211689
 30
0.0
 11
62.10260626614036
 21
-31.97069958845896
 31
0.0
  0
LINE
  5
E0E00001C95F
330
E0E00001C8CD
100
AcDbEntity
  8
AK(Z)-1550_5
  6
Continuous
 62
     7
 48
25.4
100
AcDbLine
 10
62.10260626614036
 20
-31.97069958845896
 30
0.0
 11
65.11345985172557
 21
-31.97069958845896
 31
0.0
  0
LINE
  5
E0E00001C960
330
E0E00001C8CD
100
AcDbEntity
  8
AK(Z)-1550_5
  6
Continuous
 62
     7
 48
25.4
100
AcDbLine
 10
65.11345985172557
 20
-31.97069958845896
 30
0.0
 11
65.11345985172557
 21
-38.26670147211689
 31
0.0
  0
LINE
  5
E0E00001C961
330
E0E00001C8CD
100
AcDbEntity
  8
AK(Z)-1550_5
  6
Continuous
 62
     7
 48
25.4
100
AcDbLine
 10
65.11345985172557
 20
-38.26670147211689
 30
0.0
 11
64.75835917967106
 21
-37.43112643496579
 31
0.0
  0
LINE
  5
E0E00001C962
330
E0E00001C8CD
100
AcDbEntity
  8
AK(Z)-1550_5
  6
Continuous
 62
     7
 48
25.4
100
AcDbLine
 10
64.75835917967106
 20
-37.43112643496579
 30
0.0
 11
62.45770693819395
 21
-37.43112643496579
 31
0.0
  0
LINE
  5
E0E00001C963
330
E0E00001C8CD
100
AcDbEntity
  8
AK(Z)-1550_5
  6
Continuous
 62
     7
 48
25.4
100
AcDbLine
 10
62.10260626614036
 20
-38.26670147211689
 30
0.0
 11
62.45770693819395
 21
-37.43112643496579
 31
0.0
  0
LINE
  5
E0E00001C964
330
E0E00001C8CD
100
AcDbEntity
  8
AK(Z)-1550_5
  6
Continuous
 62
     7
 48
25.4
100
AcDbLine
 10
62.45770693819395
 20
-37.43112643496579
 30
0.0
 11
62.45770693819395
 21
-32.17433132054384
 31
0.0
  0
LINE
  5
E0E00001C965
330
E0E00001C8CD
100
AcDbEntity
  8
AK(Z)-1550_5
  6
Continuous
 62
     7
 48
25.4
100
AcDbLine
 10
62.10260626614036
 20
-31.97069958845896
 30
0.0
 11
62.45770693819395
 21
-32.17433132054384
 31
0.0
  0
LINE
  5
E0E00001C966
330
E0E00001C8CD
100
AcDbEntity
  8
AK(Z)-1550_5
  6
Continuous
 62
     7
 48
25.4
100
AcDbLine
 10
62.45770693819395
 20
-32.17433132054384
 30
0.0
 11
64.75835917967106
 21
-32.17433132054384
 31
0.0
  0
LINE
  5
E0E00001C967
330
E0E00001C8CD
100
AcDbEntity
  8
AK(Z)-1550_5
  6
Continuous
 62
     7
 48
25.4
100
AcDbLine
 10
64.75835917967106
 20
-32.17433132054384
 30
0.0
 11
64.75835917967106
 21
-37.43112643496579
 31
0.0
  0
LINE
  5
E0E00001C968
330
E0E00001C8CD
100
AcDbEntity
  8
AK(Z)-1550_5
  6
Continuous
 62
     7
 48
25.4
100
AcDbLine
 10
65.11345985172557
 20
-31.97069958845896
 30
0.0
 11
64.75835917967106
 21
-32.17433132054384
 31
0.0
  0
LINE
  5
E0E00001C969
330
E0E00001C8CD
100
AcDbEntity
  8
AK(Z)-1550_5
  6
Continuous
 62
     7
 48
25.4
100
AcDbLine
 10
65.90868530040916
 20
-38.66681490541714
 30
0.0
 11
46.0630590087103
 21
-38.66681490541714
 31
0.0
  0
LINE
  5
E0E00001C96A
330
E0E00001C8CD
100
AcDbEntity
  8
AK(Z)-1550_5
  6
Continuous
 62
     7
 48
25.4
100
AcDbLine
 10
65.90868530040916
 20
-31.57058615515871
 30
0.0
 11
65.90868530040916
 21
-38.66681490541714
 31
0.0
  0
LINE
  5
E0E00001C96B
330
E0E00001C8CD
100
AcDbEntity
  8
AK(Z)-1550_5
  6
Continuous
 62
     7
 48
25.4
100
AcDbLine
 10
65.90868530040916
 20
-38.66681490541714
 30
0.0
 11
65.90868530040916
 21
-42.35230721063272
 31
0.0
  0
LINE
  5
E0E00001C96C
330
E0E00001C8CD
100
AcDbEntity
  8
AK(Z)-1550_5
  6
Continuous
 62
     7
 48
25.4
100
AcDbLine
 10
65.90868530040916
 20
-42.35230721063272
 30
0.0
 11
65.90868530040916
 21
-42.67373392924492
 31
0.0
  0
LINE
  5
E0E00001C96D
330
E0E00001C8CD
100
AcDbEntity
  8
AKZ_960_3
  6
Continuous
 62
     7
 48
25.4
100
AcDbLine
 10
63.46799335727792
 20
50.6126681636224
 30
0.0
 11
63.46799335727792
 21
50.11252637199686
 31
0.0
  0
LINE
  5
E0E00001C96E
330
E0E00001C8CD
100
AcDbEntity
  8
AKZ_960_3
  6
Continuous
 62
     7
 48
25.4
100
AcDbLine
 10
63.46799335727792
 20
50.11252637199686
 30
0.0
 11
63.46799335727792
 21
49.92575800659506
 31
0.0
  0
LINE
  5
E0E00001C96F
330
E0E00001C8CD
100
AcDbEntity
  8
AKZ_960_3
  6
Continuous
 62
     7
 48
25.4
100
AcDbLine
 10
63.46799335727792
 20
49.92575800659506
 30
0.0
 11
63.46799335727792
 21
43.91244930471976
 31
0.0
  0
LINE
  5
E0E00001C970
330
E0E00001C8CD
100
AcDbEntity
  8
AKZ_960_3
  6
Continuous
 62
     7
 48
25.4
100
AcDbLine
 10
63.46799335727792
 20
43.91244930471976
 30
0.0
 11
63.46799335727792
 21
34.60981198048512
 31
0.0
  0
LINE
  5
E0E00001C971
330
E0E00001C8CD
100
AcDbEntity
  8
AKZ_960_3
  6
Continuous
 62
     7
 48
25.4
100
AcDbLine
 10
42.60207781066038
 20
43.91244930471976
 30
0.0
 11
42.60207781066038
 21
34.60981198048512
 31
0.0
  0
LINE
  5
E0E00001C972
330
E0E00001C8CD
100
AcDbEntity
  8
AKZ_960_3
  6
Continuous
 62
     7
 48
25.4
100
AcDbLine
 10
42.60207781066038
 20
49.92575800659506
 30
0.0
 11
42.60207781066038
 21
43.91244930471976
 31
0.0
  0
LINE
  5
E0E00001C973
330
E0E00001C8CD
100
AcDbEntity
  8
AKZ_960_3
  6
Continuous
 62
     7
 48
25.4
100
AcDbLine
 10
42.60207781066038
 20
50.11252637199686
 30
0.0
 11
42.60207781066038
 21
49.92575800659506
 31
0.0
  0
LINE
  5
E0E00001C974
330
E0E00001C8CD
100
AcDbEntity
  8
AKZ_960_3
  6
Continuous
 62
     7
 48
25.4
100
AcDbLine
 10
42.60207781066038
 20
50.6126681636224
 30
0.0
 11
42.60207781066038
 21
50.11252637199686
 31
0.0
  0
LINE
  5
E0E00001C975
330
E0E00001C8CD
100
AcDbEntity
  8
AKZ_960_3
  6
Continuous
 62
     7
 48
25.4
100
AcDbLine
 10
63.46799335727792
 20
34.60981198048512
 30
0.0
 11
42.60207781066038
 21
34.60981198048512
 31
0.0
  0
LINE
  5
E0E00001C976
330
E0E00001C8CD
100
AcDbEntity
  8
AKZ_960_3
  6
Continuous
 62
     7
 48
25.4
100
AcDbLine
 10
63.46799335727792
 20
43.91244930471976
 30
0.0
 11
42.60207781066038
 21
43.91244930471976
 31
0.0
  0
LINE
  5
E0E00001C977
330
E0E00001C8CD
100
AcDbEntity
  8
AKZ_960_3
  6
Continuous
 62
     7
 48
25.4
100
AcDbLine
 10
63.46799335727792
 20
49.92575800659506
 30
0.0
 11
42.60207781066038
 21
49.92575800659506
 31
0.0
  0
LINE
  5
E0E00001C978
330
E0E00001C8CD
100
AcDbEntity
  8
AKZ_960_3
  6
Continuous
 62
     7
 48
25.4
100
AcDbLine
 10
63.46799335727792
 20
50.11252637199686
 30
0.0
 11
42.60207781066038
 21
50.11252637199686
 31
0.0
  0
LINE
  5
E0E00001C979
330
E0E00001C8CD
100
AcDbEntity
  8
AKZ_960_3
  6
Continuous
 62
     7
 48
25.4
100
AcDbLine
 10
63.46799335727792
 20
50.6126681636224
 30
0.0
 11
42.60207781066038
 21
50.6126681636224
 31
0.0
  0
LINE
  5
E0E00001C97A
330
E0E00001C8CD
100
AcDbEntity
  8
AKZ_960_3
  6
Continuous
 62
     7
 48
25.4
100
AcDbLine
 10
43.41230751309467
 20
43.76240676723228
 30
0.0
 11
47.41344184609807
 21
43.76240676723228
 31
0.0
  0
LINE
  5
E0E00001C97B
330
E0E00001C8CD
100
AcDbEntity
  8
AKZ_960_3
  6
Continuous
 62
     7
 48
25.4
100
AcDbLine
 10
47.41344184609807
 20
35.05993959294801
 30
0.0
 11
43.41230751309467
 21
35.05993959294801
 31
0.0
  0
LINE
  5
E0E00001C97C
330
E0E00001C8CD
100
AcDbEntity
  8
AKZ_960_3
  6
Continuous
 62
     7
 48
25.4
100
AcDbLine
 10
44.11250602136988
 20
38.06079034270124
 30
0.0
 11
46.71324333782377
 21
38.06079034270124
 31
0.0
  0
LINE
  5
E0E00001C97D
330
E0E00001C8CD
100
AcDbEntity
  8
AKZ_960_3
  6
Continuous
 62
     7
 48
25.4
100
AcDbLine
 10
46.71324333782377
 20
40.76155601747905
 30
0.0
 11
44.11250602136988
 21
40.76155601747905
 31
0.0
  0
LINE
  5
E0E00001C97E
330
E0E00001C8CD
100
AcDbEntity
  8
AKZ_960_3
  6
Continuous
 62
     7
 48
25.4
100
AcDbLine
 10
47.41344184609807
 20
43.76240676723228
 30
0.0
 11
47.41344184609807
 21
35.05993959294801
 31
0.0
  0
LINE
  5
E0E00001C97F
330
E0E00001C8CD
100
AcDbEntity
  8
AKZ_960_3
  6
Continuous
 62
     7
 48
25.4
100
AcDbLine
 10
43.41230751309467
 20
35.05993959294801
 30
0.0
 11
43.41230751309467
 21
43.76240676723228
 31
0.0
  0
LINE
  5
E0E00001C980
330
E0E00001C8CD
100
AcDbEntity
  8
AKZ_960_3
  6
Continuous
 62
     7
 48
25.4
100
AcDbLine
 10
44.11250602136988
 20
40.76155601747905
 30
0.0
 11
44.11250602136988
 21
38.06079034270124
 31
0.0
  0
LINE
  5
E0E00001C981
330
E0E00001C8CD
100
AcDbEntity
  8
AKZ_960_3
  6
Continuous
 62
     7
 48
25.4
100
AcDbLine
 10
46.71324333782377
 20
38.06079034270124
 30
0.0
 11
46.71324333782377
 21
40.76155601747905
 31
0.0
  0
LINE
  5
E0E00001C982
330
E0E00001C8CD
100
AcDbEntity
  8
AKZ_960_3
  6
Continuous
 62
     7
 48
25.4
100
AcDbLine
 10
43.41230751309467
 20
43.76240676723228
 30
0.0
 11
44.11250602136988
 21
40.76155601747905
 31
0.0
  0
LINE
  5
E0E00001C983
330
E0E00001C8CD
100
AcDbEntity
  8
AKZ_960_3
  6
Continuous
 62
     7
 48
25.4
100
AcDbLine
 10
44.11250602136988
 20
38.06079034270124
 30
0.0
 11
43.41230751309467
 21
35.05993959294801
 31
0.0
  0
LINE
  5
E0E00001C984
330
E0E00001C8CD
100
AcDbEntity
  8
AKZ_960_3
  6
Continuous
 62
     7
 48
25.4
100
AcDbLine
 10
47.41344184609807
 20
35.05993959294801
 30
0.0
 11
46.71324333782377
 21
38.06079034270124
 31
0.0
  0
LINE
  5
E0E00001C985
330
E0E00001C8CD
100
AcDbEntity
  8
AKZ_960_3
  6
Continuous
 62
     7
 48
25.4
100
AcDbLine
 10
46.71324333782377
 20
40.76155601747905
 30
0.0
 11
47.41344184609807
 21
43.76240676723228
 31
0.0
  0
LINE
  5
E0E00001C986
330
E0E00001C8CD
100
AcDbEntity
  8
AKZ_960_3
  6
Continuous
 62
     7
 48
25.4
100
AcDbLine
 10
51.03446841746609
 20
43.76240676723228
 30
0.0
 11
55.0356027504713
 21
43.76240676723228
 31
0.0
  0
LINE
  5
E0E00001C987
330
E0E00001C8CD
100
AcDbEntity
  8
AKZ_960_3
  6
Continuous
 62
     7
 48
25.4
100
AcDbLine
 10
55.0356027504713
 20
35.05993959294801
 30
0.0
 11
51.03446841746609
 21
35.05993959294801
 31
0.0
  0
LINE
  5
E0E00001C988
330
E0E00001C8CD
100
AcDbEntity
  8
AKZ_960_3
  6
Continuous
 62
     7
 48
25.4
100
AcDbLine
 10
51.73466692574311
 20
38.06079034270124
 30
0.0
 11
54.33540424219518
 21
38.06079034270124
 31
0.0
  0
LINE
  5
E0E00001C989
330
E0E00001C8CD
100
AcDbEntity
  8
AKZ_960_3
  6
Continuous
 62
     7
 48
25.4
100
AcDbLine
 10
54.33540424219518
 20
40.76155601747905
 30
0.0
 11
51.73466692574311
 21
40.76155601747905
 31
0.0
  0
LINE
  5
E0E00001C98A
330
E0E00001C8CD
100
AcDbEntity
  8
AKZ_960_3
  6
Continuous
 62
     7
 48
25.4
100
AcDbLine
 10
55.0356027504713
 20
43.76240676723228
 30
0.0
 11
55.0356027504713
 21
35.05993959294801
 31
0.0
  0
LINE
  5
E0E00001C98B
330
E0E00001C8CD
100
AcDbEntity
  8
AKZ_960_3
  6
Continuous
 62
     7
 48
25.4
100
AcDbLine
 10
51.03446841746609
 20
35.05993959294801
 30
0.0
 11
51.03446841746609
 21
43.76240676723228
 31
0.0
  0
LINE
  5
E0E00001C98C
330
E0E00001C8CD
100
AcDbEntity
  8
AKZ_960_3
  6
Continuous
 62
     7
 48
25.4
100
AcDbLine
 10
51.73466692574311
 20
40.76155601747905
 30
0.0
 11
51.73466692574311
 21
38.06079034270124
 31
0.0
  0
LINE
  5
E0E00001C98D
330
E0E00001C8CD
100
AcDbEntity
  8
AKZ_960_3
  6
Continuous
 62
     7
 48
25.4
100
AcDbLine
 10
54.33540424219518
 20
38.06079034270124
 30
0.0
 11
54.33540424219518
 21
40.76155601747905
 31
0.0
  0
LINE
  5
E0E00001C98E
330
E0E00001C8CD
100
AcDbEntity
  8
AKZ_960_3
  6
Continuous
 62
     7
 48
25.4
100
AcDbLine
 10
51.03446841746609
 20
43.76240676723228
 30
0.0
 11
51.73466692574311
 21
40.76155601747905
 31
0.0
  0
LINE
  5
E0E00001C98F
330
E0E00001C8CD
100
AcDbEntity
  8
AKZ_960_3
  6
Continuous
 62
     7
 48
25.4
100
AcDbLine
 10
51.73466692574311
 20
38.06079034270124
 30
0.0
 11
51.03446841746609
 21
35.05993959294801
 31
0.0
  0
LINE
  5
E0E00001C990
330
E0E00001C8CD
100
AcDbEntity
  8
AKZ_960_3
  6
Continuous
 62
     7
 48
25.4
100
AcDbLine
 10
55.0356027504713
 20
35.05993959294801
 30
0.0
 11
54.33540424219518
 21
38.06079034270124
 31
0.0
  0
LINE
  5
E0E00001C991
330
E0E00001C8CD
100
AcDbEntity
  8
AKZ_960_3
  6
Continuous
 62
     7
 48
25.4
100
AcDbLine
 10
54.33540424219518
 20
40.76155601747905
 30
0.0
 11
55.0356027504713
 21
43.76240676723228
 31
0.0
  0
LINE
  5
E0E00001C992
330
E0E00001C8CD
100
AcDbEntity
  8
AKZ_960_3
  6
Continuous
 62
     7
 48
25.4
100
AcDbLine
 10
58.65662932184023
 20
43.76240676723228
 30
0.0
 11
62.65776365484362
 21
43.76240676723228
 31
0.0
  0
LINE
  5
E0E00001C993
330
E0E00001C8CD
100
AcDbEntity
  8
AKZ_960_3
  6
Continuous
 62
     7
 48
25.4
100
AcDbLine
 10
62.65776365484362
 20
35.05993959294801
 30
0.0
 11
58.65662932184023
 21
35.05993959294801
 31
0.0
  0
LINE
  5
E0E00001C994
330
E0E00001C8CD
100
AcDbEntity
  8
AKZ_960_3
  6
Continuous
 62
     7
 48
25.4
100
AcDbLine
 10
59.35682783011544
 20
38.06079034270124
 30
0.0
 11
61.95756514656841
 21
38.06079034270124
 31
0.0
  0
LINE
  5
E0E00001C995
330
E0E00001C8CD
100
AcDbEntity
  8
AKZ_960_3
  6
Continuous
 62
     7
 48
25.4
100
AcDbLine
 10
61.95756514656841
 20
40.76155601747905
 30
0.0
 11
59.35682783011544
 21
40.76155601747905
 31
0.0
  0
LINE
  5
E0E00001C996
330
E0E00001C8CD
100
AcDbEntity
  8
AKZ_960_3
  6
Continuous
 62
     7
 48
25.4
100
AcDbLine
 10
62.65776365484362
 20
43.76240676723228
 30
0.0
 11
62.65776365484362
 21
35.05993959294801
 31
0.0
  0
LINE
  5
E0E00001C997
330
E0E00001C8CD
100
AcDbEntity
  8
AKZ_960_3
  6
Continuous
 62
     7
 48
25.4
100
AcDbLine
 10
58.65662932184023
 20
35.05993959294801
 30
0.0
 11
58.65662932184023
 21
43.76240676723228
 31
0.0
  0
LINE
  5
E0E00001C998
330
E0E00001C8CD
100
AcDbEntity
  8
AKZ_960_3
  6
Continuous
 62
     7
 48
25.4
100
AcDbLine
 10
59.35682783011544
 20
40.76155601747905
 30
0.0
 11
59.35682783011544
 21
38.06079034270124
 31
0.0
  0
LINE
  5
E0E00001C999
330
E0E00001C8CD
100
AcDbEntity
  8
AKZ_960_3
  6
Continuous
 62
     7
 48
25.4
100
AcDbLine
 10
61.95756514656841
 20
38.06079034270124
 30
0.0
 11
61.95756514656841
 21
40.76155601747905
 31
0.0
  0
LINE
  5
E0E00001C99A
330
E0E00001C8CD
100
AcDbEntity
  8
AKZ_960_3
  6
Continuous
 62
     7
 48
25.4
100
AcDbLine
 10
58.65662932184023
 20
43.76240676723228
 30
0.0
 11
59.35682783011544
 21
40.76155601747905
 31
0.0
  0
LINE
  5
E0E00001C99B
330
E0E00001C8CD
100
AcDbEntity
  8
AKZ_960_3
  6
Continuous
 62
     7
 48
25.4
100
AcDbLine
 10
59.35682783011544
 20
38.06079034270124
 30
0.0
 11
58.65662932184023
 21
35.05993959294801
 31
0.0
  0
LINE
  5
E0E00001C99C
330
E0E00001C8CD
100
AcDbEntity
  8
AKZ_960_3
  6
Continuous
 62
     7
 48
25.4
100
AcDbLine
 10
62.65776365484362
 20
35.05993959294801
 30
0.0
 11
61.95756514656841
 21
38.06079034270124
 31
0.0
  0
LINE
  5
E0E00001C99D
330
E0E00001C8CD
100
AcDbEntity
  8
AKZ_960_3
  6
Continuous
 62
     7
 48
25.4
100
AcDbLine
 10
61.95756514656841
 20
40.76155601747905
 30
0.0
 11
62.65776365484362
 21
43.76240676723228
 31
0.0
  0
LINE
  5
E0E00001C99E
330
E0E00001C8CD
100
AcDbEntity
  8
STL(Z)-1550_3V
  6
Continuous
 62
     7
 48
25.4
100
AcDbLine
 10
45.48289453042344
 20
-42.51205228816934
 30
0.0
 11
44.78769744006513
 21
-42.51205228816934
 31
0.0
  0
LINE
  5
E0E00001C99F
330
E0E00001C8CD
100
AcDbEntity
  8
STL(Z)-1550_3V
  6
Continuous
 62
     7
 48
25.4
100
AcDbLine
 10
33.35445608350528
 20
-42.51205228816934
 30
0.0
 11
32.65925899314607
 21
-42.51205228816934
 31
0.0
  0
LINE
  5
E0E00001C9A0
330
E0E00001C8CD
100
AcDbEntity
  8
STL(Z)-1550_3V
  6
Continuous
 62
     7
 48
25.4
100
AcDbLine
 10
45.48289453042344
 20
-35.51006720541181
 30
0.0
 11
45.48289453042344
 21
-42.51205228816934
 31
0.0
  0
LINE
  5
E0E00001C9A1
330
E0E00001C8CD
100
AcDbEntity
  8
STL(Z)-1550_3V
  6
Continuous
 62
     7
 48
25.4
100
AcDbLine
 10
45.48289453042344
 20
-43.01219407979443
 30
0.0
 11
45.48289453042344
 21
-42.51205228816934
 31
0.0
  0
LINE
  5
E0E00001C9A2
330
E0E00001C8CD
100
AcDbEntity
  8
STL(Z)-1550_3V
  6
Continuous
 62
     7
 48
25.4
100
AcDbLine
 10
32.65925899314607
 20
-43.01219407979443
 30
0.0
 11
45.48289453042344
 21
-43.01219407979443
 31
0.0
  0
LINE
  5
E0E00001C9A3
330
E0E00001C8CD
100
AcDbEntity
  8
STL(Z)-1550_3V
  6
Continuous
 62
     7
 48
25.4
100
AcDbLine
 10
32.65925899314607
 20
-35.51006720541181
 30
0.0
 11
33.35445608350528
 21
-35.51006720541181
 31
0.0
  0
LINE
  5
E0E00001C9A4
330
E0E00001C8CD
100
AcDbEntity
  8
STL(Z)-1550_3V
  6
Continuous
 62
     7
 48
25.4
100
AcDbLine
 10
44.78769744006513
 20
-35.51006720541181
 30
0.0
 11
45.48289453042344
 21
-35.51006720541181
 31
0.0
  0
LINE
  5
E0E00001C9A5
330
E0E00001C8CD
100
AcDbEntity
  8
STL(Z)-1550_3V
  6
Continuous
 62
     7
 48
25.4
100
AcDbLine
 10
32.65925899314607
 20
-43.01219407979443
 30
0.0
 11
32.65925899314607
 21
-42.51205228816934
 31
0.0
  0
LINE
  5
E0E00001C9A6
330
E0E00001C8CD
100
AcDbEntity
  8
STL(Z)-1550_3V
  6
Continuous
 62
     7
 48
25.4
100
AcDbLine
 10
32.65925899314607
 20
-42.51205228816934
 30
0.0
 11
32.65925899314607
 21
-35.51006720541181
 31
0.0
  0
LINE
  5
E0E00001C9A7
330
E0E00001C8CD
100
AcDbEntity
  8
BASE_4_M
  6
Continuous
 62
     7
 48
25.4
100
AcDbLine
 10
27.70785525605243
 20
-42.64139318762864
 30
0.0
 11
32.65925899314607
 21
-42.64139318762864
 31
0.0
  0
LINE
  5
E0E00001C9A8
330
E0E00001C8CD
100
AcDbEntity
  8
BASE_4_M
  6
Continuous
 62
     7
 48
25.4
100
AcDbLine
 10
45.76297393373534
 20
-42.62244306484354
 30
0.0
 11
45.48289453042344
 21
-42.62244306484354
 31
0.0
  0
LINE
  5
E0E00001C9A9
330
E0E00001C8CD
100
AcDbEntity
  8
BASE_4_M
  6
Continuous
 62
     7
 48
25.4
100
AcDbLine
 10
4.84137254293455
 20
-42.62244306484354
 30
0.0
 11
4.112005427570693
 21
-42.62244306484354
 31
0.0
  0
LINE
  5
E0E00001C9AA
330
E0E00001C8CD
100
AcDbEntity
  8
BASE_4_M
  6
Continuous
 62
     7
 48
25.4
100
AcDbLine
 10
64.468276940529
 20
42.62244306484308
 30
0.0
 11
65.90784540000186
 21
42.62244306484308
 31
0.0
  0
LINE
  5
E0E00001C9AB
330
E0E00001C8CD
100
AcDbEntity
  8
BASE_4_M
  6
Continuous
 62
     7
 48
25.4
100
AcDbLine
 10
23.61753530096485
 20
42.62244306484308
 30
0.0
 11
41.60179422741021
 21
42.62244306484308
 31
0.0
  0
LINE
  5
E0E00001C9AC
330
E0E00001C8CD
100
AcDbEntity
  8
BASE_4_M
  6
Continuous
 62
     7
 48
25.4
100
AcDbLine
 10
23.50666420639845
 20
42.73331415940902
 30
0.0
 11
22.50638062314829
 21
42.73331415940902
 31
0.0
  0
LINE
  5
E0E00001C9AD
330
E0E00001C8CD
100
AcDbEntity
  8
BASE_4_M
  6
Continuous
 62
     7
 48
25.4
100
AcDbLine
 10
23.61753530096485
 20
42.62244306484308
 30
0.0
 11
23.50666420639845
 21
42.73331415940902
 31
0.0
  0
LINE
  5
E0E00001C9AE
330
E0E00001C8CD
100
AcDbEntity
  8
BASE_4_M
  6
Continuous
 62
     7
 48
25.4
100
AcDbLine
 10
22.50638062314829
 20
42.73331415940902
 30
0.0
 11
22.39550952858281
 21
42.62244306484263
 31
0.0
  0
LINE
  5
E0E00001C9AF
330
E0E00001C8CD
100
AcDbEntity
  8
BASE_4_M
  6
Continuous
 62
     7
 48
25.4
100
AcDbLine
 10
22.39550952858281
 20
42.62244306484308
 30
0.0
 11
22.39550952858281
 21
42.51205228816843
 31
0.0
  0
LINE
  5
E0E00001C9B0
330
E0E00001C8CD
100
AcDbEntity
  8
BASE_4_M
  6
Continuous
 62
     7
 48
25.4
100
AcDbLine
 10
23.61753530096485
 20
42.51205228816843
 30
0.0
 11
23.61753530096485
 21
42.62244306484308
 31
0.0
  0
LINE
  5
E0E00001C9B1
330
E0E00001C8CD
100
AcDbEntity
  8
BASE_4_M
  6
Continuous
 62
     7
 48
25.4
100
AcDbLine
 10
23.50666420639845
 20
42.51205228816843
 30
0.0
 11
23.50666420639845
 21
42.73331415940902
 31
0.0
  0
LINE
  5
E0E00001C9B2
330
E0E00001C8CD
100
AcDbEntity
  8
BASE_4_M
  6
Continuous
 62
     7
 48
25.4
100
AcDbLine
 10
22.50638062314829
 20
42.73331415940902
 30
0.0
 11
22.50638062314829
 21
42.51205228816843
 31
0.0
  0
LINE
  5
E0E00001C9B3
330
E0E00001C8CD
100
AcDbEntity
  8
BASE_4_M
  6
Continuous
 62
     7
 48
25.4
100
AcDbLine
 10
67.51914186944487
 20
-42.76212318398211
 30
0.0
 11
66.20877037538503
 21
-42.76212318398211
 31
0.0
  0
LINE
  5
E0E00001C9B4
330
E0E00001C8CD
100
AcDbEntity
  8
BASE_4_M
  6
Continuous
 62
     7
 48
25.4
100
AcDbLine
 10
45.76297393373534
 20
-42.76212318398211
 30
0.0
 11
45.48289453042344
 21
-42.76212318398211
 31
0.0
  0
LINE
  5
E0E00001C9B5
330
E0E00001C8CD
100
AcDbEntity
  8
BASE_4_M
  6
Continuous
 62
     7
 48
25.4
100
AcDbLine
 10
32.65925899314607
 20
-42.76212318398211
 30
0.0
 11
27.70785525605243
 21
-42.76212318398211
 31
0.0
  0
LINE
  5
E0E00001C9B6
330
E0E00001C8CD
100
AcDbEntity
  8
BASE_4_M
  6
Continuous
 62
     7
 48
25.4
100
AcDbLine
 10
4.84137254293455
 20
-42.76212318398211
 30
0.0
 11
2.500708958127689
 21
-42.76212318398211
 31
0.0
  0
LINE
  5
E0E00001C9B7
330
E0E00001C8CD
100
AcDbEntity
  8
BASE_4_M
  6
Continuous
 62
     7
 48
25.4
100
AcDbLine
 10
4.112005427570693
 20
42.62244306484308
 30
0.0
 11
22.39550952858281
 21
42.62244306484308
 31
0.0
  0
LINE
  5
E0E00001C9B8
330
E0E00001C8CD
100
AcDbEntity
  8
BASE_4_M
  6
Continuous
 62
     7
 48
25.4
100
AcDbLine
 10
2.500708958127689
 20
42.7621231839812
 30
0.0
 11
41.60179422741021
 21
42.7621231839812
 31
0.0
  0
LINE
  5
E0E00001C9B9
330
E0E00001C8CD
100
AcDbEntity
  8
BASE_4_M
  6
Continuous
 62
     7
 48
25.4
100
AcDbLine
 10
64.468276940529
 20
42.7621231839812
 30
0.0
 11
67.51914186944487
 21
42.7621231839812
 31
0.0
  0
LINE
  5
E0E00001C9BA
330
E0E00001C8CD
100
AcDbEntity
  8
BASE_4_M
  6
Continuous
 62
     7
 48
25.4
100
AcDbLine
 10
2.000262470432062
 20
-45.01276124629658
 30
0.0
 11
5.841656126185626
 21
-45.01276124629658
 31
0.0
  0
LINE
  5
E0E00001C9BB
330
E0E00001C8CD
100
AcDbEntity
  8
BASE_4_M
  6
Continuous
 62
     7
 48
25.4
100
AcDbLine
 10
26.70757167280226
 20
-45.01276124629658
 30
0.0
 11
68.01958835713958
 21
-45.01276124629658
 31
0.0
  0
LINE
  5
E0E00001C9BC
330
E0E00001C8CD
100
AcDbEntity
  8
BASE_4_M
  6
Continuous
 62
     7
 48
25.4
100
AcDbLine
 10
68.01958835713958
 20
45.01276124629612
 30
0.0
 11
63.46799335727792
 21
45.01276124629612
 31
0.0
  0
LINE
  5
E0E00001C9BD
330
E0E00001C8CD
100
AcDbEntity
  8
BASE_4_M
  6
Continuous
 62
     7
 48
25.4
100
AcDbLine
 10
42.60207781066038
 20
45.01276124629612
 30
0.0
 11
2.000262470432062
 21
45.01276124629612
 31
0.0
  0
ELLIPSE
  5
E0E00001C9BE
330
E0E00001C8CD
100
AcDbEntity
  8
BASE_4_M
  6
Continuous
 62
     7
 48
25.4
100
AcDbEllipse
 10
2.000871908985573
 20
43.011889337311
 30
0.0
 11
1.41504554779102
 21
-1.41504554779102
 31
0.0
210
0.0
220
0.0
230
1.0
 40
0.9996954598818878
 41
2.356346783439906
 42
3.926838523739673
  0
LINE
  5
E0E00001C9BF
330
E0E00001C8CD
100
AcDbEntity
  8
BASE_4_M
  6
Continuous
 62
     7
 48
25.4
100
AcDbLine
 10
0.0
 20
43.01249877586315
 30
0.0
 11
0.0
 21
41.1616694507793
 31
0.0
  0
LINE
  5
E0E00001C9C0
330
E0E00001C8CD
100
AcDbEntity
  8
BASE_4_M
  6
Continuous
 62
     7
 48
25.4
100
AcDbLine
 10
0.0
 20
31.158833618269
 30
0.0
 11
0.0
 21
5.751630603693229
 31
0.0
  0
LINE
  5
E0E00001C9C1
330
E0E00001C8CD
100
AcDbEntity
  8
BASE_4_M
  6
Continuous
 62
     7
 48
25.4
100
AcDbLine
 10
0.0
 20
-5.751630603693684
 30
0.0
 11
0.0
 21
-31.15883361826991
 31
0.0
  0
LINE
  5
E0E00001C9C2
330
E0E00001C8CD
100
AcDbEntity
  8
BASE_4_M
  6
Continuous
 62
     7
 48
25.4
100
AcDbLine
 10
2.500708958127689
 20
31.158833618269
 30
0.0
 11
2.500708958127689
 21
31.00879108078152
 31
0.0
  0
LINE
  5
E0E00001C9C3
330
E0E00001C8CD
100
AcDbEntity
  8
BASE_4_M
  6
Continuous
 62
     7
 48
25.4
100
AcDbLine
 10
2.529517982699872
 20
31.00879108078152
 30
0.0
 11
2.529517982699872
 21
42.73331415940902
 31
0.0
  0
LINE
  5
E0E00001C9C4
330
E0E00001C8CD
100
AcDbEntity
  8
BASE_4_M
  6
Continuous
 62
     7
 48
25.4
100
AcDbLine
 10
2.529517982699872
 20
42.73331415940902
 30
0.0
 11
2.500708958127689
 21
42.7621231839812
 31
0.0
  0
LINE
  5
E0E00001C9C5
330
E0E00001C8CD
100
AcDbEntity
  8
BASE_4_M
  6
Continuous
 62
     7
 48
25.4
100
AcDbLine
 10
2.500708958127689
 20
42.7621231839812
 30
0.0
 11
2.500708958127689
 21
41.1616694507793
 31
0.0
  0
ELLIPSE
  5
E0E00001C9C6
330
E0E00001C8CD
100
AcDbEntity
  8
BASE_4_M
  6
Continuous
 62
     7
 48
25.4
100
AcDbEllipse
 10
2.430868898558401
 20
41.1616694507793
 30
0.0
 11
6.940861657999058E-15
 21
4.001134333003351
 31
0.0
210
0.0
220
0.0
230
1.0
 40
0.0174550649282488
 41
4.45092300009751
 42
4.712388980384754
  0
LINE
  5
E0E00001C9C7
330
E0E00001C8CD
100
AcDbEntity
  8
BASE_4_M
  6
Continuous
 62
     7
 48
25.4
100
AcDbLine
 10
2.498335238708933
 20
40.12738829393447
 30
0.0
 11
2.46578892834259
 21
33.15940078477115
 31
0.0
  0
LINE
  5
E0E00001C9C8
330
E0E00001C8CD
100
AcDbEntity
  8
BASE_4_M
  6
Continuous
 62
     7
 48
25.4
100
AcDbLine
 10
2.46578892834259
 20
31.19375364805364
 30
0.0
 11
2.500708958127689
 21
31.158833618269
 31
0.0
  0
LINE
  5
E0E00001C9C9
330
E0E00001C8CD
100
AcDbEntity
  8
BASE_4_M
  6
Continuous
 62
     7
 48
25.4
100
AcDbLine
 10
2.500708958127689
 20
-31.00879108078243
 30
0.0
 11
2.500708958127689
 21
-31.15883361826991
 31
0.0
  0
LINE
  5
E0E00001C9CA
330
E0E00001C8CD
100
AcDbEntity
  8
BASE_4_M
  6
Continuous
 62
     7
 48
25.4
100
AcDbLine
 10
2.46578892834259
 20
-33.15940078477206
 30
0.0
 11
2.498335238708933
 21
-40.12738829393538
 31
0.0
  0
ELLIPSE
  5
E0E00001C9CB
330
E0E00001C8CD
100
AcDbEntity
  8
BASE_4_M
  6
Continuous
 62
     7
 48
25.4
100
AcDbEllipse
 10
2.430868898558401
 20
-41.16166945078021
 30
0.0
 11
0.0
 21
4.001134333005044
 31
0.0
210
0.0
220
0.0
230
1.0
 40
0.017455064928256
 41
4.712388980384732
 42
4.973854960671837
  0
LINE
  5
E0E00001C9CC
330
E0E00001C8CD
100
AcDbEntity
  8
BASE_4_M
  6
Continuous
 62
     7
 48
25.4
100
AcDbLine
 10
2.500708958127689
 20
-41.16166945078021
 30
0.0
 11
2.500708958127689
 21
-42.76212318398211
 31
0.0
  0
LINE
  5
E0E00001C9CD
330
E0E00001C8CD
100
AcDbEntity
  8
BASE_4_M
  6
Continuous
 62
     7
 48
25.4
100
AcDbLine
 10
2.500708958127689
 20
-42.76212318398211
 30
0.0
 11
2.529517982699872
 21
-42.73331415940993
 31
0.0
  0
LINE
  5
E0E00001C9CE
330
E0E00001C8CD
100
AcDbEntity
  8
BASE_4_M
  6
Continuous
 62
     7
 48
25.4
100
AcDbLine
 10
2.529517982699872
 20
-42.73331415940993
 30
0.0
 11
2.529517982699872
 21
-31.00879108078243
 31
0.0
  0
LINE
  5
E0E00001C9CF
330
E0E00001C8CD
100
AcDbEntity
  8
BASE_4_M
  6
Continuous
 62
     7
 48
25.4
100
AcDbLine
 10
0.0
 20
-41.16166945078021
 30
0.0
 11
0.0
 21
-43.01249877586406
 31
0.0
  0
ELLIPSE
  5
E0E00001C9D0
330
E0E00001C8CD
100
AcDbEntity
  8
BASE_4_M
  6
Continuous
 62
     7
 48
25.4
100
AcDbEllipse
 10
2.000871908985573
 20
-43.01188933731146
 30
0.0
 11
1.415045547791021
 21
1.415045547791022
 31
0.0
210
0.0
220
0.0
230
1.0
 40
0.9996954598818876
 41
2.356346783439949
 42
3.926838523739644
  0
LINE
  5
E0E00001C9D1
330
E0E00001C8CD
100
AcDbEntity
  8
BASE_4_M
  6
Continuous
 62
     7
 48
25.4
100
AcDbLine
 10
4.112005427570693
 20
42.62244306484308
 30
0.0
 11
4.112005427570693
 21
42.51205228816843
 31
0.0
  0
LINE
  5
E0E00001C9D2
330
E0E00001C8CD
100
AcDbEntity
  8
BASE_4_M
  6
Continuous
 62
     7
 48
25.4
100
AcDbLine
 10
4.112005427570693
 20
-42.51205228816934
 30
0.0
 11
4.112005427570693
 21
-42.62244306484354
 31
0.0
  0
LINE
  5
E0E00001C9D3
330
E0E00001C8CD
100
AcDbEntity
  8
BASE_4_M
  6
Continuous
 62
     7
 48
25.4
100
AcDbLine
 10
4.001134333004302
 20
-42.51205228816934
 30
0.0
 11
4.001134333004302
 21
-42.73331415940993
 31
0.0
  0
LINE
  5
E0E00001C9D4
330
E0E00001C8CD
100
AcDbEntity
  8
BASE_4_M
  6
Continuous
 62
     7
 48
25.4
100
AcDbLine
 10
4.001134333004302
 20
-42.73331415940993
 30
0.0
 11
4.112005427570693
 21
-42.62244306484354
 31
0.0
  0
LINE
  5
E0E00001C9D5
330
E0E00001C8CD
100
AcDbEntity
  8
BASE_4_M
  6
Continuous
 62
     7
 48
25.4
100
AcDbLine
 10
0.10002835832438
 20
5.001417916254923
 30
0.0
 11
0.10002835832438
 21
-5.001417916255377
 31
0.0
  0
LINE
  5
E0E00001C9D6
330
E0E00001C8CD
100
AcDbEntity
  8
BASE_4_M
  6
Continuous
 62
     7
 48
25.4
100
AcDbLine
 10
0.10002835832438
 20
5.001417916254923
 30
0.0
 11
0.1467484571003297
 21
5.001417916254923
 31
0.0
  0
LINE
  5
E0E00001C9D7
330
E0E00001C8CD
100
AcDbEntity
  8
BASE_4_M
  6
Continuous
 62
     7
 48
25.4
100
AcDbLine
 10
0.1467484571003297
 20
-5.001417916255377
 30
0.0
 11
0.10002835832438
 21
-5.001417916255377
 31
0.0
  0
LINE
  5
E0E00001C9D8
330
E0E00001C8CD
100
AcDbEntity
  8
BASE_4_M
  6
Continuous
 62
     7
 48
25.4
100
AcDbLine
 10
4.001134333004302
 20
42.73331415940902
 30
0.0
 11
4.001134333004302
 21
42.51205228816843
 31
0.0
  0
LINE
  5
E0E00001C9D9
330
E0E00001C8CD
100
AcDbEntity
  8
BASE_4_M
  6
Continuous
 62
     7
 48
25.4
100
AcDbLine
 10
4.112005427570693
 20
42.62244306484308
 30
0.0
 11
4.001134333004302
 21
42.73331415940902
 31
0.0
  0
LINE
  5
E0E00001C9DA
330
E0E00001C8CD
100
AcDbEntity
  8
BASE_4_M
  6
Continuous
 62
     7
 48
25.4
100
AcDbLine
 10
2.529517982699872
 20
42.73331415940902
 30
0.0
 11
4.001134333004302
 21
42.73331415940902
 31
0.0
  0
LINE
  5
E0E00001C9DB
330
E0E00001C8CD
100
AcDbEntity
  8
BASE_4_M
  6
Continuous
 62
     7
 48
25.4
100
AcDbLine
 10
4.001134333004302
 20
-42.73331415940993
 30
0.0
 11
2.529517982699872
 21
-42.73331415940993
 31
0.0
  0
LINE
  5
E0E00001C9DC
330
E0E00001C8CD
100
AcDbEntity
  8
BASE_4_M
  6
Continuous
 62
     7
 48
25.4
100
AcDbLine
 10
0.0
 20
41.1616694507793
 30
0.0
 11
0.0
 21
31.158833618269
 31
0.0
  0
LINE
  5
E0E00001C9DD
330
E0E00001C8CD
100
AcDbEntity
  8
BASE_4_M
  6
Continuous
 62
     7
 48
25.4
100
AcDbLine
 10
0.0
 20
31.158833618269
 30
0.0
 11
2.500708958127689
 21
31.158833618269
 31
0.0
  0
LINE
  5
E0E00001C9DE
330
E0E00001C8CD
100
AcDbEntity
  8
BASE_4_M
  6
Continuous
 62
     7
 48
25.4
100
AcDbLine
 10
0.034920029784189
 20
31.19375364805364
 30
0.0
 11
0.0
 21
31.158833618269
 31
0.0
  0
LINE
  5
E0E00001C9DF
330
E0E00001C8CD
100
AcDbEntity
  8
BASE_4_M
  6
Continuous
 62
     7
 48
25.4
100
AcDbLine
 10
0.034920029784189
 20
33.15940078477115
 30
0.0
 11
0.034920029784189
 21
31.19375364805364
 31
0.0
  0
LINE
  5
E0E00001C9E0
330
E0E00001C8CD
100
AcDbEntity
  8
BASE_4_M
  6
Continuous
 62
     7
 48
25.4
100
AcDbLine
 10
0.034920029784189
 20
31.19375364805364
 30
0.0
 11
2.46578892834259
 21
31.19375364805364
 31
0.0
  0
LINE
  5
E0E00001C9E1
330
E0E00001C8CD
100
AcDbEntity
  8
BASE_4_M
  6
Continuous
 62
     7
 48
25.4
100
AcDbLine
 10
2.46578892834259
 20
31.19375364805364
 30
0.0
 11
2.46578892834259
 21
33.15940078477115
 31
0.0
  0
LINE
  5
E0E00001C9E2
330
E0E00001C8CD
100
AcDbEntity
  8
BASE_4_M
  6
Continuous
 62
     7
 48
25.4
100
AcDbLine
 10
2.500708958127689
 20
41.1616694507793
 30
0.0
 11
0.0
 21
41.1616694507793
 31
0.0
  0
ELLIPSE
  5
E0E00001C9E3
330
E0E00001C8CD
100
AcDbEntity
  8
BASE_4_M
  6
Continuous
 62
     7
 48
25.4
100
AcDbEllipse
 10
0.0698400595692874
 20
41.16166945077975
 30
0.0
 11
0.0
 21
-4.001134333005225
 31
0.0
210
0.0
220
0.0
230
1.0
 40
0.0174550649282567
 41
4.712388980384747
 42
4.973854960671876
  0
LINE
  5
E0E00001C9E4
330
E0E00001C8CD
100
AcDbEntity
  8
BASE_4_M
  6
Continuous
 62
     7
 48
25.4
100
AcDbLine
 10
2.498335238708933
 20
40.12738829393447
 30
0.0
 11
0.0023737194178466
 21
40.12738829393447
 31
0.0
  0
LINE
  5
E0E00001C9E5
330
E0E00001C8CD
100
AcDbEntity
  8
BASE_4_M
  6
Continuous
 62
     7
 48
25.4
100
AcDbLine
 10
0.0023737194178466
 20
40.12738829393447
 30
0.0
 11
0.034920029784189
 21
33.15940078477115
 31
0.0
  0
LINE
  5
E0E00001C9E6
330
E0E00001C8CD
100
AcDbEntity
  8
BASE_4_M
  6
Continuous
 62
     7
 48
25.4
100
AcDbLine
 10
0.034920029784189
 20
33.15940078477115
 30
0.0
 11
2.46578892834259
 21
33.15940078477115
 31
0.0
  0
LINE
  5
E0E00001C9E7
330
E0E00001C8CD
100
AcDbEntity
  8
BASE_4_M
  6
Continuous
 62
     7
 48
25.4
100
AcDbLine
 10
2.500708958127689
 20
-31.15883361826991
 30
0.0
 11
0.0
 21
-31.15883361826991
 31
0.0
  0
LINE
  5
E0E00001C9E8
330
E0E00001C8CD
100
AcDbEntity
  8
BASE_4_M
  6
Continuous
 62
     7
 48
25.4
100
AcDbLine
 10
2.46578892834259
 20
-31.19375364805455
 30
0.0
 11
2.500708958127689
 21
-31.15883361826991
 31
0.0
  0
LINE
  5
E0E00001C9E9
330
E0E00001C8CD
100
AcDbEntity
  8
BASE_4_M
  6
Continuous
 62
     7
 48
25.4
100
AcDbLine
 10
0.034920029784189
 20
-31.19375364805455
 30
0.0
 11
0.0
 21
-31.15883361826991
 31
0.0
  0
LINE
  5
E0E00001C9EA
330
E0E00001C8CD
100
AcDbEntity
  8
BASE_4_M
  6
Continuous
 62
     7
 48
25.4
100
AcDbLine
 10
0.0
 20
-31.15883361826991
 30
0.0
 11
0.0
 21
-41.16166945078021
 31
0.0
  0
LINE
  5
E0E00001C9EB
330
E0E00001C8CD
100
AcDbEntity
  8
BASE_4_M
  6
Continuous
 62
     7
 48
25.4
100
AcDbLine
 10
2.46578892834259
 20
-33.15940078477206
 30
0.0
 11
2.46578892834259
 21
-31.19375364805455
 31
0.0
  0
LINE
  5
E0E00001C9EC
330
E0E00001C8CD
100
AcDbEntity
  8
BASE_4_M
  6
Continuous
 62
     7
 48
25.4
100
AcDbLine
 10
2.46578892834259
 20
-31.19375364805455
 30
0.0
 11
0.034920029784189
 21
-31.19375364805455
 31
0.0
  0
LINE
  5
E0E00001C9ED
330
E0E00001C8CD
100
AcDbEntity
  8
BASE_4_M
  6
Continuous
 62
     7
 48
25.4
100
AcDbLine
 10
0.034920029784189
 20
-31.19375364805455
 30
0.0
 11
0.034920029784189
 21
-33.15940078477206
 31
0.0
  0
LINE
  5
E0E00001C9EE
330
E0E00001C8CD
100
AcDbEntity
  8
BASE_4_M
  6
Continuous
 62
     7
 48
25.4
100
AcDbLine
 10
2.46578892834259
 20
-33.15940078477206
 30
0.0
 11
0.034920029784189
 21
-33.15940078477206
 31
0.0
  0
LINE
  5
E0E00001C9EF
330
E0E00001C8CD
100
AcDbEntity
  8
BASE_4_M
  6
Continuous
 62
     7
 48
25.4
100
AcDbLine
 10
0.034920029784189
 20
-33.15940078477206
 30
0.0
 11
0.0023737194178466
 21
-40.12738829393538
 31
0.0
  0
LINE
  5
E0E00001C9F0
330
E0E00001C8CD
100
AcDbEntity
  8
BASE_4_M
  6
Continuous
 62
     7
 48
25.4
100
AcDbLine
 10
2.498335238708933
 20
-40.12738829393538
 30
0.0
 11
0.0023737194178466
 21
-40.12738829393538
 31
0.0
  0
ELLIPSE
  5
E0E00001C9F1
330
E0E00001C8CD
100
AcDbEntity
  8
BASE_4_M
  6
Continuous
 62
     7
 48
25.4
100
AcDbEllipse
 10
0.0698400595692874
 20
-41.16166945078112
 30
0.0
 11
-1.388172331599812E-14
 21
4.001134333007974
 31
0.0
210
0.0
220
0.0
230
1.0
 40
0.0174550649282683
 41
1.309330346507747
 42
1.570796326794669
  0
LINE
  5
E0E00001C9F2
330
E0E00001C8CD
100
AcDbEntity
  8
BASE_4_M
  6
Continuous
 62
     7
 48
25.4
100
AcDbLine
 10
0.0
 20
-41.16166945078021
 30
0.0
 11
2.500708958127689
 21
-41.16166945078021
 31
0.0
  0
ELLIPSE
  5
E0E00001C9F3
330
E0E00001C8CD
100
AcDbEntity
  8
BASE_4_M
  6
Continuous
 62
     7
 48
25.4
100
AcDbEllipse
 10
68.01897891858698
 20
-43.01188933731146
 30
0.0
 11
-1.41504554779102
 21
1.41504554779102
 31
0.0
210
0.0
220
0.0
230
1.0
 40
0.9996954598818878
 41
2.356346783439935
 42
3.926838523739623
  0
LINE
  5
E0E00001C9F4
330
E0E00001C8CD
100
AcDbEntity
  8
BASE_4_M
  6
Continuous
 62
     7
 48
25.4
100
AcDbLine
 10
70.01985082757255
 20
-43.01249877586406
 30
0.0
 11
70.01985082757255
 21
-41.16166945078021
 31
0.0
  0
LINE
  5
E0E00001C9F5
330
E0E00001C8CD
100
AcDbEntity
  8
BASE_4_M
  6
Continuous
 62
     7
 48
25.4
100
AcDbLine
 10
70.01985082757255
 20
5.751630603693229
 30
0.0
 11
70.01985082757255
 21
31.158833618269
 31
0.0
  0
LINE
  5
E0E00001C9F6
330
E0E00001C8CD
100
AcDbEntity
  8
BASE_4_M
  6
Continuous
 62
     7
 48
25.4
100
AcDbLine
 10
70.01985082757255
 20
-31.15883361826991
 30
0.0
 11
70.01985082757255
 21
-5.751630603693684
 31
0.0
  0
LINE
  5
E0E00001C9F7
330
E0E00001C8CD
100
AcDbEntity
  8
BASE_4_M
  6
Continuous
 62
     7
 48
25.4
100
AcDbLine
 10
70.01985082757255
 20
41.1616694507793
 30
0.0
 11
70.01985082757255
 21
43.01249877586315
 31
0.0
  0
ELLIPSE
  5
E0E00001C9F8
330
E0E00001C8CD
100
AcDbEntity
  8
BASE_4_M
  6
Continuous
 62
     7
 48
25.4
100
AcDbEllipse
 10
68.01897891858698
 20
43.011889337311
 30
0.0
 11
-1.415045547791021
 21
-1.415045547791022
 31
0.0
210
0.0
220
0.0
230
1.0
 40
0.9996954598818876
 41
2.35634678343992
 42
3.926838523739665
  0
LINE
  5
E0E00001C9F9
330
E0E00001C8CD
100
AcDbEntity
  8
BASE_4_M
  6
Continuous
 62
     7
 48
25.4
100
AcDbLine
 10
65.90784540000186
 20
42.51205228816843
 30
0.0
 11
65.90784540000186
 21
42.62244306484308
 31
0.0
  0
LINE
  5
E0E00001C9FA
330
E0E00001C8CD
100
AcDbEntity
  8
BASE_4_M
  6
Continuous
 62
     7
 48
25.4
100
AcDbLine
 10
67.51914186944487
 20
-31.15883361826991
 30
0.0
 11
67.51914186944487
 21
-31.00879108078243
 31
0.0
  0
LINE
  5
E0E00001C9FB
330
E0E00001C8CD
100
AcDbEntity
  8
BASE_4_M
  6
Continuous
 62
     7
 48
25.4
100
AcDbLine
 10
67.49033284487268
 20
-31.00879108078243
 30
0.0
 11
67.49033284487268
 21
-42.73331415940993
 31
0.0
  0
LINE
  5
E0E00001C9FC
330
E0E00001C8CD
100
AcDbEntity
  8
BASE_4_M
  6
Continuous
 62
     7
 48
25.4
100
AcDbLine
 10
67.49033284487268
 20
-42.73331415940993
 30
0.0
 11
67.51914186944487
 21
-42.76212318398211
 31
0.0
  0
LINE
  5
E0E00001C9FD
330
E0E00001C8CD
100
AcDbEntity
  8
BASE_4_M
  6
Continuous
 62
     7
 48
25.4
100
AcDbLine
 10
67.51914186944487
 20
-42.76212318398211
 30
0.0
 11
67.51914186944487
 21
-41.16166945078021
 31
0.0
  0
ELLIPSE
  5
E0E00001C9FE
330
E0E00001C8CD
100
AcDbEntity
  8
BASE_4_M
  6
Continuous
 62
     7
 48
25.4
100
AcDbEllipse
 10
67.58898192901324
 20
-41.16166945078021
 30
0.0
 11
-6.940861657999058E-15
 21
-4.001134333003351
 31
0.0
210
0.0
220
0.0
230
1.0
 40
0.0174550649282488
 41
4.45092300009751
 42
4.712388980384761
  0
LINE
  5
E0E00001C9FF
330
E0E00001C8CD
100
AcDbEntity
  8
BASE_4_M
  6
Continuous
 62
     7
 48
25.4
100
AcDbLine
 10
67.52151558886271
 20
-40.12738829393538
 30
0.0
 11
67.55406189922815
 21
-33.15940078477206
 31
0.0
  0
LINE
  5
E0E00001CA00
330
E0E00001C8CD
100
AcDbEntity
  8
BASE_4_M
  6
Continuous
 62
     7
 48
25.4
100
AcDbLine
 10
67.55406189922815
 20
-31.19375364805455
 30
0.0
 11
67.51914186944487
 21
-31.15883361826991
 31
0.0
  0
LINE
  5
E0E00001CA01
330
E0E00001C8CD
100
AcDbEntity
  8
BASE_4_M
  6
Continuous
 62
     7
 48
25.4
100
AcDbLine
 10
67.51914186944487
 20
31.00879108078152
 30
0.0
 11
67.51914186944487
 21
31.158833618269
 31
0.0
  0
LINE
  5
E0E00001CA02
330
E0E00001C8CD
100
AcDbEntity
  8
BASE_4_M
  6
Continuous
 62
     7
 48
25.4
100
AcDbLine
 10
67.55406189922815
 20
33.15940078477115
 30
0.0
 11
67.52151558886271
 21
40.12738829393447
 31
0.0
  0
ELLIPSE
  5
E0E00001CA03
330
E0E00001C8CD
100
AcDbEntity
  8
BASE_4_M
  6
Continuous
 62
     7
 48
25.4
100
AcDbEllipse
 10
67.58898192901324
 20
41.16166945077975
 30
0.0
 11
0.0
 21
-4.001134333005044
 31
0.0
210
0.0
220
0.0
230
1.0
 40
0.017455064928256
 41
4.712388980384732
 42
4.973854960671837
  0
LINE
  5
E0E00001CA04
330
E0E00001C8CD
100
AcDbEntity
  8
BASE_4_M
  6
Continuous
 62
     7
 48
25.4
100
AcDbLine
 10
67.51914186944487
 20
41.1616694507793
 30
0.0
 11
67.51914186944487
 21
42.7621231839812
 31
0.0
  0
LINE
  5
E0E00001CA05
330
E0E00001C8CD
100
AcDbEntity
  8
BASE_4_M
  6
Continuous
 62
     7
 48
25.4
100
AcDbLine
 10
67.51914186944487
 20
42.7621231839812
 30
0.0
 11
67.49033284487268
 21
42.73331415940902
 31
0.0
  0
LINE
  5
E0E00001CA06
330
E0E00001C8CD
100
AcDbEntity
  8
BASE_4_M
  6
Continuous
 62
     7
 48
25.4
100
AcDbLine
 10
67.49033284487268
 20
42.73331415940902
 30
0.0
 11
67.49033284487268
 21
31.00879108078152
 31
0.0
  0
LINE
  5
E0E00001CA07
330
E0E00001C8CD
100
AcDbEntity
  8
BASE_4_M
  6
Continuous
 62
     7
 48
25.4
100
AcDbLine
 10
66.01871649456734
 20
42.51205228816843
 30
0.0
 11
66.01871649456734
 21
42.73331415940902
 31
0.0
  0
LINE
  5
E0E00001CA08
330
E0E00001C8CD
100
AcDbEntity
  8
BASE_4_M
  6
Continuous
 62
     7
 48
25.4
100
AcDbLine
 10
66.01871649456734
 20
42.73331415940902
 30
0.0
 11
65.90784540000186
 21
42.62244306484308
 31
0.0
  0
LINE
  5
E0E00001CA09
330
E0E00001C8CD
100
AcDbEntity
  8
BASE_4_M
  6
Continuous
 62
     7
 48
25.4
100
AcDbLine
 10
69.91982246924636
 20
5.001417916254923
 30
0.0
 11
69.91982246924636
 21
-5.001417916255377
 31
0.0
  0
LINE
  5
E0E00001CA0A
330
E0E00001C8CD
100
AcDbEntity
  8
BASE_4_M
  6
Continuous
 62
     7
 48
25.4
100
AcDbLine
 10
69.87310237047132
 20
5.001417916254923
 30
0.0
 11
69.91982246924636
 21
5.001417916254923
 31
0.0
  0
LINE
  5
E0E00001CA0B
330
E0E00001C8CD
100
AcDbEntity
  8
BASE_4_M
  6
Continuous
 62
     7
 48
25.4
100
AcDbLine
 10
69.91982246924636
 20
-5.001417916255377
 30
0.0
 11
69.87310237047132
 21
-5.001417916255377
 31
0.0
  0
LINE
  5
E0E00001CA0C
330
E0E00001C8CD
100
AcDbEntity
  8
BASE_4_M
  6
Continuous
 62
     7
 48
25.4
100
AcDbLine
 10
66.01871649456734
 20
42.73331415940902
 30
0.0
 11
67.49033284487268
 21
42.73331415940902
 31
0.0
  0
LINE
  5
E0E00001CA0D
330
E0E00001C8CD
100
AcDbEntity
  8
BASE_4_M
  6
Continuous
 62
     7
 48
25.4
100
AcDbLine
 10
67.49033284487268
 20
-42.73331415940993
 30
0.0
 11
66.20877037538503
 21
-42.73331415940993
 31
0.0
  0
LINE
  5
E0E00001CA0E
330
E0E00001C8CD
100
AcDbEntity
  8
BASE_4_M
  6
Continuous
 62
     7
 48
25.4
100
AcDbLine
 10
67.51914186944487
 20
31.158833618269
 30
0.0
 11
70.01985082757255
 21
31.158833618269
 31
0.0
  0
LINE
  5
E0E00001CA0F
330
E0E00001C8CD
100
AcDbEntity
  8
BASE_4_M
  6
Continuous
 62
     7
 48
25.4
100
AcDbLine
 10
67.55406189922815
 20
31.19375364805364
 30
0.0
 11
67.51914186944487
 21
31.158833618269
 31
0.0
  0
LINE
  5
E0E00001CA10
330
E0E00001C8CD
100
AcDbEntity
  8
BASE_4_M
  6
Continuous
 62
     7
 48
25.4
100
AcDbLine
 10
69.98493079778746
 20
31.19375364805364
 30
0.0
 11
70.01985082757255
 21
31.158833618269
 31
0.0
  0
LINE
  5
E0E00001CA11
330
E0E00001C8CD
100
AcDbEntity
  8
BASE_4_M
  6
Continuous
 62
     7
 48
25.4
100
AcDbLine
 10
70.01985082757255
 20
31.158833618269
 30
0.0
 11
70.01985082757255
 21
41.1616694507793
 31
0.0
  0
LINE
  5
E0E00001CA12
330
E0E00001C8CD
100
AcDbEntity
  8
BASE_4_M
  6
Continuous
 62
     7
 48
25.4
100
AcDbLine
 10
67.55406189922815
 20
33.15940078477115
 30
0.0
 11
67.55406189922815
 21
31.19375364805364
 31
0.0
  0
LINE
  5
E0E00001CA13
330
E0E00001C8CD
100
AcDbEntity
  8
BASE_4_M
  6
Continuous
 62
     7
 48
25.4
100
AcDbLine
 10
67.55406189922815
 20
31.19375364805364
 30
0.0
 11
69.98493079778746
 21
31.19375364805364
 31
0.0
  0
LINE
  5
E0E00001CA14
330
E0E00001C8CD
100
AcDbEntity
  8
BASE_4_M
  6
Continuous
 62
     7
 48
25.4
100
AcDbLine
 10
69.98493079778746
 20
31.19375364805364
 30
0.0
 11
69.98493079778746
 21
33.15940078477115
 31
0.0
  0
LINE
  5
E0E00001CA15
330
E0E00001C8CD
100
AcDbEntity
  8
BASE_4_M
  6
Continuous
 62
     7
 48
25.4
100
AcDbLine
 10
67.55406189922815
 20
33.15940078477115
 30
0.0
 11
69.98493079778746
 21
33.15940078477115
 31
0.0
  0
LINE
  5
E0E00001CA16
330
E0E00001C8CD
100
AcDbEntity
  8
BASE_4_M
  6
Continuous
 62
     7
 48
25.4
100
AcDbLine
 10
69.98493079778746
 20
33.15940078477115
 30
0.0
 11
70.0174771081538
 21
40.12738829393447
 31
0.0
  0
LINE
  5
E0E00001CA17
330
E0E00001C8CD
100
AcDbEntity
  8
BASE_4_M
  6
Continuous
 62
     7
 48
25.4
100
AcDbLine
 10
67.52151558886271
 20
40.12738829393447
 30
0.0
 11
70.0174771081538
 21
40.12738829393447
 31
0.0
  0
ELLIPSE
  5
E0E00001CA18
330
E0E00001C8CD
100
AcDbEntity
  8
BASE_4_M
  6
Continuous
 62
     7
 48
25.4
100
AcDbEllipse
 10
69.95001076800236
 20
41.16166945078021
 30
0.0
 11
1.388172331599812E-14
 21
-4.001134333007974
 31
0.0
210
0.0
220
0.0
230
1.0
 40
0.0174550649282683
 41
1.309330346507739
 42
1.570796326794655
  0
LINE
  5
E0E00001CA19
330
E0E00001C8CD
100
AcDbEntity
  8
BASE_4_M
  6
Continuous
 62
     7
 48
25.4
100
AcDbLine
 10
70.01985082757255
 20
41.1616694507793
 30
0.0
 11
67.51914186944487
 21
41.1616694507793
 31
0.0
  0
LINE
  5
E0E00001CA1A
330
E0E00001C8CD
100
AcDbEntity
  8
BASE_4_M
  6
Continuous
 62
     7
 48
25.4
100
AcDbLine
 10
70.01985082757255
 20
-41.16166945078021
 30
0.0
 11
70.01985082757255
 21
-31.15883361826991
 31
0.0
  0
LINE
  5
E0E00001CA1B
330
E0E00001C8CD
100
AcDbEntity
  8
BASE_4_M
  6
Continuous
 62
     7
 48
25.4
100
AcDbLine
 10
70.01985082757255
 20
-31.15883361826991
 30
0.0
 11
67.51914186944487
 21
-31.15883361826991
 31
0.0
  0
LINE
  5
E0E00001CA1C
330
E0E00001C8CD
100
AcDbEntity
  8
BASE_4_M
  6
Continuous
 62
     7
 48
25.4
100
AcDbLine
 10
69.98493079778746
 20
-31.19375364805455
 30
0.0
 11
70.01985082757255
 21
-31.15883361826991
 31
0.0
  0
LINE
  5
E0E00001CA1D
330
E0E00001C8CD
100
AcDbEntity
  8
BASE_4_M
  6
Continuous
 62
     7
 48
25.4
100
AcDbLine
 10
69.98493079778746
 20
-33.15940078477206
 30
0.0
 11
69.98493079778746
 21
-31.19375364805455
 31
0.0
  0
LINE
  5
E0E00001CA1E
330
E0E00001C8CD
100
AcDbEntity
  8
BASE_4_M
  6
Continuous
 62
     7
 48
25.4
100
AcDbLine
 10
69.98493079778746
 20
-31.19375364805455
 30
0.0
 11
67.55406189922815
 21
-31.19375364805455
 31
0.0
  0
LINE
  5
E0E00001CA1F
330
E0E00001C8CD
100
AcDbEntity
  8
BASE_4_M
  6
Continuous
 62
     7
 48
25.4
100
AcDbLine
 10
67.55406189922815
 20
-31.19375364805455
 30
0.0
 11
67.55406189922815
 21
-33.15940078477206
 31
0.0
  0
LINE
  5
E0E00001CA20
330
E0E00001C8CD
100
AcDbEntity
  8
BASE_4_M
  6
Continuous
 62
     7
 48
25.4
100
AcDbLine
 10
67.51914186944487
 20
-41.16166945078021
 30
0.0
 11
70.01985082757255
 21
-41.16166945078021
 31
0.0
  0
ELLIPSE
  5
E0E00001CA21
330
E0E00001C8CD
100
AcDbEntity
  8
BASE_4_M
  6
Continuous
 62
     7
 48
25.4
100
AcDbEllipse
 10
69.95001076800236
 20
-41.16166945078021
 30
0.0
 11
0.0
 21
4.001134333005225
 31
0.0
210
0.0
220
0.0
230
1.0
 40
0.0174550649282567
 41
4.712388980384739
 42
4.973854960671884
  0
LINE
  5
E0E00001CA22
330
E0E00001C8CD
100
AcDbEntity
  8
BASE_4_M
  6
Continuous
 62
     7
 48
25.4
100
AcDbLine
 10
67.52151558886271
 20
-40.12738829393538
 30
0.0
 11
70.0174771081538
 21
-40.12738829393538
 31
0.0
  0
LINE
  5
E0E00001CA23
330
E0E00001C8CD
100
AcDbEntity
  8
BASE_4_M
  6
Continuous
 62
     7
 48
25.4
100
AcDbLine
 10
70.0174771081538
 20
-40.12738829393538
 30
0.0
 11
69.98493079778746
 21
-33.15940078477206
 31
0.0
  0
LINE
  5
E0E00001CA24
330
E0E00001C8CD
100
AcDbEntity
  8
BASE_4_M
  6
Continuous
 62
     7
 48
25.4
100
AcDbLine
 10
69.98493079778746
 20
-33.15940078477206
 30
0.0
 11
67.55406189922815
 21
-33.15940078477206
 31
0.0
  0
ARC
  5
E0E00001CA25
330
E0E00001C8CD
100
AcDbEntity
  8
TAPÓN
  6
Continuous
 62
     7
 48
25.4
100
AcDbCircle
 10
66.71924463051619
 20
-0.0000000000004547
 30
0.0
 40
2.775786943521612
100
AcDbArc
 50
90.0
 51
149.3853915130392
  0
LINE
  5
E0E00001CA26
330
E0E00001C8CD
100
AcDbEntity
  8
TAPÓN
  6
Continuous
 62
     7
 48
25.4
100
AcDbLine
 10
67.74453530334813
 20
2.775786943521325
 30
0.0
 11
66.71924463051619
 21
2.775786943521325
 31
0.0
  0
LINE
  5
E0E00001CA27
330
E0E00001C8CD
100
AcDbEntity
  8
TAPÓN
  6
Continuous
 62
     7
 48
25.4
100
AcDbLine
 10
67.74453530334813
 20
-2.775786943522235
 30
0.0
 11
67.74453530334813
 21
2.775786943521325
 31
0.0
  0
LINE
  5
E0E00001CA28
330
E0E00001C8CD
100
AcDbEntity
  8
TAPÓN
  6
Continuous
 62
     7
 48
25.4
100
AcDbLine
 10
66.71924463051619
 20
-2.775786943522235
 30
0.0
 11
67.74453530334813
 21
-2.775786943522235
 31
0.0
  0
ARC
  5
E0E00001CA29
330
E0E00001C8CD
100
AcDbEntity
  8
TAPÓN
  6
Continuous
 62
     7
 48
25.4
100
AcDbCircle
 10
66.71924463051619
 20
-0.0000000000004547
 30
0.0
 40
2.775786943521611
100
AcDbArc
 50
210.6146084869608
 51
270.0
  0
ARC
  5
E0E00001CA2A
330
E0E00001C8CD
100
AcDbEntity
  8
TAPÓN
  6
Continuous
 62
     7
 48
25.4
100
AcDbCircle
 10
66.71924463051619
 20
-0.0000000000004547
 30
0.0
 40
2.767056936075476
100
AcDbArc
 50
149.9929025707764
 51
210.0070974292237
  0
ARC
  5
E0E00001CA2B
330
E0E00001C8CD
100
AcDbEntity
  8
TAPÓN
  6
Continuous
 62
     7
 48
25.4
100
AcDbCircle
 10
67.64071756863359
 20
-0.5868598498782376
 30
0.0
 40
3.41202428069363
100
AcDbArc
 50
193.5076711071019
 51
194.0224373111571
  0
ARC
  5
E0E00001CA2C
330
E0E00001C8CD
100
AcDbEntity
  8
TAPÓN
  6
Continuous
 62
     7
 48
25.4
100
AcDbCircle
 10
67.64071756875364
 20
0.5868598498482243
 30
0.0
 40
3.412024313927483
100
AcDbArc
 50
165.9775626888429
 51
166.4923288928713
  0
LINE
  5
E0E00001CA2D
330
E0E00001C8CD
100
AcDbEntity
  8
TAPÓN
  6
Continuous
 62
     7
 48
25.4
100
AcDbLine
 10
67.43218250657628
 20
-2.463434146749933
 30
0.0
 11
67.43218250657628
 21
2.463434146749023
 31
0.0
  0
LINE
  5
E0E00001CA2E
330
E0E00001C8CD
100
AcDbEntity
  8
TAPÓN
  6
Continuous
 62
     7
 48
25.4
100
AcDbLine
 10
66.71924463051619
 20
-2.463434146749933
 30
0.0
 11
67.43218250657628
 21
-2.463434146749933
 31
0.0
  0
LINE
  5
E0E00001CA2F
330
E0E00001C8CD
100
AcDbEntity
  8
TAPÓN
  6
Continuous
 62
     7
 48
25.4
100
AcDbLine
 10
67.43218250657628
 20
2.463434146749023
 30
0.0
 11
66.71924463051619
 21
2.463434146749023
 31
0.0
  0
ARC
  5
E0E00001CA30
330
E0E00001C8CD
100
AcDbEntity
  8
TAPÓN
  6
Continuous
 62
     7
 48
25.4
100
AcDbCircle
 10
66.71924463051619
 20
-0.0000000000004547
 30
0.0
 40
2.463434146749234
100
AcDbArc
 50
90.0
 51
270.0
  0
LINE
  5
E0E00001CA31
330
E0E00001C8CD
100
AcDbEntity
  8
TAPÓN
  6
Continuous
 62
     7
 48
25.4
100
AcDbLine
 10
66.71924463051619
 20
-2.763473517314651
 30
0.0
 11
66.71924463051619
 21
-2.775786943522235
 31
0.0
  0
LINE
  5
E0E00001CA32
330
E0E00001C8CD
100
AcDbEntity
  8
TAPÓN
  6
Continuous
 62
     7
 48
25.4
100
AcDbLine
 10
66.71924463051619
 20
2.763473517313741
 30
0.0
 11
66.71924463051619
 21
2.775786943521325
 31
0.0
  0
ARC
  5
E0E00001CA33
330
E0E00001C8CD
100
AcDbEntity
  8
TAPÓN
  6
Continuous
 62
     7
 48
25.4
100
AcDbCircle
 10
66.71924463051619
 20
-0.0000000000004547
 30
0.0
 40
2.76347351731413
100
AcDbArc
 50
90.0
 51
270.0
  0
LINE
  5
E0E00001CA34
330
E0E00001C8CD
100
AcDbEntity
  8
TAPÓN
  6
Continuous
 62
     7
 48
25.4
100
AcDbLine
 10
67.73222187714055
 20
2.763473517313741
 30
0.0
 11
67.74453530334813
 21
2.775786943521325
 31
0.0
  0
LINE
  5
E0E00001CA35
330
E0E00001C8CD
100
AcDbEntity
  8
TAPÓN
  6
Continuous
 62
     7
 48
25.4
100
AcDbLine
 10
66.71924463051619
 20
2.763473517313741
 30
0.0
 11
67.73222187714055
 21
2.763473517313741
 31
0.0
  0
LINE
  5
E0E00001CA36
330
E0E00001C8CD
100
AcDbEntity
  8
TAPÓN
  6
Continuous
 62
     7
 48
25.4
100
AcDbLine
 10
67.73222187714055
 20
-2.763473517314651
 30
0.0
 11
67.74453530334813
 21
-2.775786943522235
 31
0.0
  0
LINE
  5
E0E00001CA37
330
E0E00001C8CD
100
AcDbEntity
  8
TAPÓN
  6
Continuous
 62
     7
 48
25.4
100
AcDbLine
 10
67.73222187714055
 20
-2.763473517314651
 30
0.0
 11
66.71924463051619
 21
-2.763473517314651
 31
0.0
  0
LINE
  5
E0E00001CA38
330
E0E00001C8CD
100
AcDbEntity
  8
TAPÓN
  6
Continuous
 62
     7
 48
25.4
100
AcDbLine
 10
67.73222187714055
 20
2.763473517313741
 30
0.0
 11
67.73222187714055
 21
-2.763473517314651
 31
0.0
  0
LINE
  5
E0E00001CA39
330
E0E00001C8CD
100
AcDbEntity
  8
TAPÓN
  6
Continuous
 62
     7
 48
25.4
100
AcDbLine
 10
67.43218250657628
 20
2.463434146749023
 30
0.0
 11
67.73222187714055
 21
2.763473517313741
 31
0.0
  0
LINE
  5
E0E00001CA3A
330
E0E00001C8CD
100
AcDbEntity
  8
TAPÓN
  6
Continuous
 62
     7
 48
25.4
100
AcDbLine
 10
67.73222187714055
 20
-2.763473517314651
 30
0.0
 11
67.43218250657628
 21
-2.463434146749933
 31
0.0
  0
LINE
  5
E0E00001CA3B
330
E0E00001C8CD
100
AcDbEntity
  8
TAPÓN
  6
Continuous
 62
     7
 48
25.4
100
AcDbLine
 10
66.71924463051619
 20
2.463434146749023
 30
0.0
 11
66.71924463051619
 21
2.763473517313741
 31
0.0
  0
LINE
  5
E0E00001CA3C
330
E0E00001C8CD
100
AcDbEntity
  8
TAPÓN
  6
Continuous
 62
     7
 48
25.4
100
AcDbLine
 10
66.71924463051619
 20
-2.763473517314651
 30
0.0
 11
66.71924463051619
 21
-2.463434146749933
 31
0.0
  0
ARC
  5
E0E00001CA3D
330
E0E00001C8CD
100
AcDbEntity
  8
TAPÓN
  6
Continuous
 62
     7
 48
25.4
100
AcDbCircle
 10
3.300606197056368
 20
-0.0000000000004547
 30
0.0
 40
2.775786943521612
100
AcDbArc
 50
270.0
 51
329.3853915130392
  0
LINE
  5
E0E00001CA3E
330
E0E00001C8CD
100
AcDbEntity
  8
TAPÓN
  6
Continuous
 62
     7
 48
25.4
100
AcDbLine
 10
2.275315524223515
 20
-2.775786943522235
 30
0.0
 11
3.300606197056368
 21
-2.775786943522235
 31
0.0
  0
LINE
  5
E0E00001CA3F
330
E0E00001C8CD
100
AcDbEntity
  8
TAPÓN
  6
Continuous
 62
     7
 48
25.4
100
AcDbLine
 10
2.275315524223515
 20
2.775786943521325
 30
0.0
 11
2.275315524223515
 21
-2.775786943522235
 31
0.0
  0
LINE
  5
E0E00001CA40
330
E0E00001C8CD
100
AcDbEntity
  8
TAPÓN
  6
Continuous
 62
     7
 48
25.4
100
AcDbLine
 10
3.300606197056368
 20
2.775786943521325
 30
0.0
 11
2.275315524223515
 21
2.775786943521325
 31
0.0
  0
ARC
  5
E0E00001CA41
330
E0E00001C8CD
100
AcDbEntity
  8
TAPÓN
  6
Continuous
 62
     7
 48
25.4
100
AcDbCircle
 10
3.300606197056368
 20
-0.0000000000004547
 30
0.0
 40
2.775786943521611
100
AcDbArc
 50
30.61460848696078
 51
90.0
  0
ARC
  5
E0E00001CA42
330
E0E00001C8CD
100
AcDbEntity
  8
TAPÓN
  6
Continuous
 62
     7
 48
25.4
100
AcDbCircle
 10
3.300606197056368
 20
-0.0000000000004547
 30
0.0
 40
2.767056936075475
100
AcDbArc
 50
329.9929025707763
 51
30.00709742922364
  0
ARC
  5
E0E00001CA43
330
E0E00001C8CD
100
AcDbEntity
  8
TAPÓN
  6
Continuous
 62
     7
 48
25.4
100
AcDbCircle
 10
2.379133258858928
 20
0.5868598498573192
 30
0.0
 40
3.412024280774768
100
AcDbArc
 50
13.50767110712872
 51
14.02243731115711
  0
ARC
  5
E0E00001CA44
330
E0E00001C8CD
100
AcDbEntity
  8
TAPÓN
  6
Continuous
 62
     7
 48
25.4
100
AcDbCircle
 10
2.379133258753427
 20
-0.5868598498332176
 30
0.0
 40
3.412024313993936
100
AcDbArc
 50
345.9775626888429
 51
346.4923288928713
  0
LINE
  5
E0E00001CA45
330
E0E00001C8CD
100
AcDbEntity
  8
TAPÓN
  6
Continuous
 62
     7
 48
25.4
100
AcDbLine
 10
2.587668320996272
 20
2.463434146749023
 30
0.0
 11
2.587668320996272
 21
-2.463434146749933
 31
0.0
  0
LINE
  5
E0E00001CA46
330
E0E00001C8CD
100
AcDbEntity
  8
TAPÓN
  6
Continuous
 62
     7
 48
25.4
100
AcDbLine
 10
3.300606197056368
 20
2.463434146749023
 30
0.0
 11
2.587668320996272
 21
2.463434146749023
 31
0.0
  0
LINE
  5
E0E00001CA47
330
E0E00001C8CD
100
AcDbEntity
  8
TAPÓN
  6
Continuous
 62
     7
 48
25.4
100
AcDbLine
 10
2.587668320996272
 20
-2.463434146749933
 30
0.0
 11
3.300606197056368
 21
-2.463434146749933
 31
0.0
  0
ARC
  5
E0E00001CA48
330
E0E00001C8CD
100
AcDbEntity
  8
TAPÓN
  6
Continuous
 62
     7
 48
25.4
100
AcDbCircle
 10
3.300606197056368
 20
-0.0000000000004547
 30
0.0
 40
2.463434146749233
100
AcDbArc
 50
270.0
 51
90.0
  0
LINE
  5
E0E00001CA49
330
E0E00001C8CD
100
AcDbEntity
  8
TAPÓN
  6
Continuous
 62
     7
 48
25.4
100
AcDbLine
 10
3.300606197056368
 20
2.763473517313741
 30
0.0
 11
3.300606197056368
 21
2.775786943521325
 31
0.0
  0
LINE
  5
E0E00001CA4A
330
E0E00001C8CD
100
AcDbEntity
  8
TAPÓN
  6
Continuous
 62
     7
 48
25.4
100
AcDbLine
 10
3.300606197056368
 20
-2.763473517314651
 30
0.0
 11
3.300606197056368
 21
-2.775786943522235
 31
0.0
  0
ARC
  5
E0E00001CA4B
330
E0E00001C8CD
100
AcDbEntity
  8
TAPÓN
  6
Continuous
 62
     7
 48
25.4
100
AcDbCircle
 10
3.300606197056368
 20
-0.0000000000004547
 30
0.0
 40
2.76347351731413
100
AcDbArc
 50
270.0
 51
90.0
  0
LINE
  5
E0E00001CA4C
330
E0E00001C8CD
100
AcDbEntity
  8
TAPÓN
  6
Continuous
 62
     7
 48
25.4
100
AcDbLine
 10
2.287628950431099
 20
-2.763473517314651
 30
0.0
 11
2.275315524223515
 21
-2.775786943522235
 31
0.0
  0
LINE
  5
E0E00001CA4D
330
E0E00001C8CD
100
AcDbEntity
  8
TAPÓN
  6
Continuous
 62
     7
 48
25.4
100
AcDbLine
 10
3.300606197056368
 20
-2.763473517314651
 30
0.0
 11
2.287628950431099
 21
-2.763473517314651
 31
0.0
  0
LINE
  5
E0E00001CA4E
330
E0E00001C8CD
100
AcDbEntity
  8
TAPÓN
  6
Continuous
 62
     7
 48
25.4
100
AcDbLine
 10
2.287628950431099
 20
2.763473517313741
 30
0.0
 11
2.275315524223515
 21
2.775786943521325
 31
0.0
  0
LINE
  5
E0E00001CA4F
330
E0E00001C8CD
100
AcDbEntity
  8
TAPÓN
  6
Continuous
 62
     7
 48
25.4
100
AcDbLine
 10
2.287628950431099
 20
2.763473517313741
 30
0.0
 11
3.300606197056368
 21
2.763473517313741
 31
0.0
  0
LINE
  5
E0E00001CA50
330
E0E00001C8CD
100
AcDbEntity
  8
TAPÓN
  6
Continuous
 62
     7
 48
25.4
100
AcDbLine
 10
2.287628950431099
 20
-2.763473517314651
 30
0.0
 11
2.287628950431099
 21
2.763473517313741
 31
0.0
  0
LINE
  5
E0E00001CA51
330
E0E00001C8CD
100
AcDbEntity
  8
TAPÓN
  6
Continuous
 62
     7
 48
25.4
100
AcDbLine
 10
2.587668320996272
 20
-2.463434146749933
 30
0.0
 11
2.287628950431099
 21
-2.763473517314651
 31
0.0
  0
LINE
  5
E0E00001CA52
330
E0E00001C8CD
100
AcDbEntity
  8
TAPÓN
  6
Continuous
 62
     7
 48
25.4
100
AcDbLine
 10
2.287628950431099
 20
2.763473517313741
 30
0.0
 11
2.587668320996272
 21
2.463434146749023
 31
0.0
  0
LINE
  5
E0E00001CA53
330
E0E00001C8CD
100
AcDbEntity
  8
TAPÓN
  6
Continuous
 62
     7
 48
25.4
100
AcDbLine
 10
3.300606197056368
 20
-2.463434146749933
 30
0.0
 11
3.300606197056368
 21
-2.763473517314651
 31
0.0
  0
LINE
  5
E0E00001CA54
330
E0E00001C8CD
100
AcDbEntity
  8
TAPÓN
  6
Continuous
 62
     7
 48
25.4
100
AcDbLine
 10
3.300606197056368
 20
2.763473517313741
 30
0.0
 11
3.300606197056368
 21
2.463434146749023
 31
0.0
  0
LINE
  5
E0E00001CA55
330
E0E00001C8CD
100
AcDbEntity
  8
TAPA_4_M
  6
Continuous
 62
     7
 48
25.4
100
AcDbLine
 10
65.38706215144066
 20
31.9916146491405
 30
0.0
 11
4.632788676130986
 21
31.9916146491405
 31
0.0
  0
LINE
  5
E0E00001CA56
330
E0E00001C8CD
100
AcDbEntity
  8
TAPA_4_M
  6
Continuous
 62
     7
 48
25.4
100
AcDbLine
 10
65.39429432640918
 20
32.0090746640326
 30
0.0
 11
4.625556501163373
 21
32.0090746640326
 31
0.0
  0
LINE
  5
E0E00001CA57
330
E0E00001C8CD
100
AcDbEntity
  8
TAPA_4_M
  6
Continuous
 62
     7
 48
25.4
100
AcDbLine
 10
66.63590648775971
 20
30.99133106588943
 30
0.0
 11
3.508224716345467
 21
30.99133106588943
 31
0.0
  0
LINE
  5
E0E00001CA58
330
E0E00001C8CD
100
AcDbEntity
  8
TAPA_4_M
  6
Continuous
 62
     7
 48
25.4
100
AcDbLine
 10
4.632788676130986
 20
-31.99161464914141
 30
0.0
 11
33.35445608350528
 21
-31.99161464914141
 31
0.0
  0
LINE
  5
E0E00001CA59
330
E0E00001C8CD
100
AcDbEntity
  8
TAPA_4_M
  6
Continuous
 62
     7
 48
25.4
100
AcDbLine
 10
44.78769744006513
 20
-31.99161464914141
 30
0.0
 11
46.0630590087103
 21
-31.99161464914141
 31
0.0
  0
LINE
  5
E0E00001CA5A
330
E0E00001C8CD
100
AcDbEntity
  8
TAPA_4_M
  6
Continuous
 62
     7
 48
25.4
100
AcDbLine
 10
3.508224716345467
 20
-30.99133106589034
 30
0.0
 11
66.63590648775971
 21
-30.99133106589034
 31
0.0
  0
LINE
  5
E0E00001CA5B
330
E0E00001C8CD
100
AcDbEntity
  8
TAPA_4_M
  6
Continuous
 62
     7
 48
25.4
100
AcDbLine
 10
4.625556501163373
 20
-32.00907466403351
 30
0.0
 11
33.35445608350528
 21
-32.00907466403351
 31
0.0
  0
LINE
  5
E0E00001CA5C
330
E0E00001C8CD
100
AcDbEntity
  8
TAPA_4_M
  6
Continuous
 62
     7
 48
25.4
100
AcDbLine
 10
44.78769744006513
 20
-32.00907466403351
 30
0.0
 11
46.0630590087103
 21
-32.00907466403351
 31
0.0
  0
LINE
  5
E0E00001CA5D
330
E0E00001C8CD
100
AcDbEntity
  8
TAPA_4_M
  6
Continuous
 62
     7
 48
25.4
100
AcDbLine
 10
67.21938642214172
 20
-21.42555241453056
 30
0.0
 11
2.80046440543083
 21
-21.42555241453056
 31
0.0
  0
LINE
  5
E0E00001CA5E
330
E0E00001C8CD
100
AcDbEntity
  8
TAPA_4_M
  6
Continuous
 62
     7
 48
25.4
100
AcDbLine
 10
67.21938642214172
 20
-21.41333040410609
 30
0.0
 11
2.80046440543083
 21
-21.41333040410609
 31
0.0
  0
LINE
  5
E0E00001CA5F
330
E0E00001C8CD
100
AcDbEntity
  8
TAPA_4_M
  6
Continuous
 62
     7
 48
25.4
100
AcDbLine
 10
1.821056654429412
 20
-21.86640634114337
 30
0.0
 11
68.19879417314223
 21
-21.86640634114337
 31
0.0
  0
LINE
  5
E0E00001CA60
330
E0E00001C8CD
100
AcDbEntity
  8
TAPA_4_M
  6
Continuous
 62
     7
 48
25.4
100
AcDbLine
 10
68.19879417314223
 20
-22.86653757635986
 30
0.0
 11
1.821056654429412
 21
-22.86653757635986
 31
0.0
  0
LINE
  5
E0E00001CA61
330
E0E00001C8CD
100
AcDbEntity
  8
TAPA_4_M
  6
Continuous
 62
     7
 48
25.4
100
AcDbLine
 10
1.663916520398743
 20
-29.34487456038323
 30
0.0
 11
68.3559343071729
 21
-29.34487456038323
 31
0.0
  0
LINE
  5
E0E00001CA62
330
E0E00001C8CD
100
AcDbEntity
  8
TAPA_4_M
  6
Continuous
 62
     7
 48
25.4
100
AcDbLine
 10
68.3559343071729
 20
-23.98949835437452
 30
0.0
 11
1.663916520398743
 21
-23.98949835437452
 31
0.0
  0
LINE
  5
E0E00001CA63
330
E0E00001C8CD
100
AcDbEntity
  8
TAPA_4_M
  6
Continuous
 62
     7
 48
25.4
100
AcDbLine
 10
1.69822711163124
 20
-22.98936711915849
 30
0.0
 11
68.3216237159404
 21
-22.98936711915849
 31
0.0
  0
LINE
  5
E0E00001CA64
330
E0E00001C8CD
100
AcDbEntity
  8
TAPA_4_M
  6
Continuous
 62
     7
 48
25.4
100
AcDbLine
 10
68.3559343071729
 20
-30.34500579559972
 30
0.0
 11
1.663916520398743
 21
-30.34500579559972
 31
0.0
  0
LINE
  5
E0E00001CA65
330
E0E00001C8CD
100
AcDbEntity
  8
TAPA_4_M
  6
Continuous
 62
     7
 48
25.4
100
AcDbLine
 10
2.80046440543083
 20
21.41333040410518
 30
0.0
 11
67.21938642214172
 21
21.41333040410518
 31
0.0
  0
LINE
  5
E0E00001CA66
330
E0E00001C8CD
100
AcDbEntity
  8
TAPA_4_M
  6
Continuous
 62
     7
 48
25.4
100
AcDbLine
 10
2.80046440543083
 20
21.4255524145301
 30
0.0
 11
67.21938642214172
 21
21.4255524145301
 31
0.0
  0
LINE
  5
E0E00001CA67
330
E0E00001C8CD
100
AcDbEntity
  8
TAPA_4_M
  6
Continuous
 62
     7
 48
25.4
100
AcDbLine
 10
68.19879417314223
 20
21.86640634114246
 30
0.0
 11
1.821056654429412
 21
21.86640634114246
 31
0.0
  0
LINE
  5
E0E00001CA68
330
E0E00001C8CD
100
AcDbEntity
  8
TAPA_4_M
  6
Continuous
 62
     7
 48
25.4
100
AcDbLine
 10
1.821056654429412
 20
22.86653757635895
 30
0.0
 11
68.19879417314223
 21
22.86653757635895
 31
0.0
  0
LINE
  5
E0E00001CA69
330
E0E00001C8CD
100
AcDbEntity
  8
TAPA_4_M
  6
Continuous
 62
     7
 48
25.4
100
AcDbLine
 10
68.3559343071729
 20
29.34487456038232
 30
0.0
 11
1.663916520398743
 21
29.34487456038232
 31
0.0
  0
LINE
  5
E0E00001CA6A
330
E0E00001C8CD
100
AcDbEntity
  8
TAPA_4_M
  6
Continuous
 62
     7
 48
25.4
100
AcDbLine
 10
1.663916520398743
 20
23.98949835437361
 30
0.0
 11
68.3559343071729
 21
23.98949835437361
 31
0.0
  0
LINE
  5
E0E00001CA6B
330
E0E00001C8CD
100
AcDbEntity
  8
TAPA_4_M
  6
Continuous
 62
     7
 48
25.4
100
AcDbLine
 10
68.3216237159404
 20
22.98936711915712
 30
0.0
 11
1.69822711163124
 21
22.98936711915712
 31
0.0
  0
LINE
  5
E0E00001CA6C
330
E0E00001C8CD
100
AcDbEntity
  8
TAPA_4_M
  6
Continuous
 62
     7
 48
25.4
100
AcDbLine
 10
1.663916520398743
 20
30.34500579559881
 30
0.0
 11
68.3559343071729
 21
30.34500579559881
 31
0.0
  0
LINE
  5
E0E00001CA6D
330
E0E00001C8CD
100
AcDbEntity
  8
TAPA_4_M
  6
Continuous
 62
     7
 48
25.4
100
AcDbLine
 10
3.508224716345467
 20
30.99133106588943
 30
0.0
 11
3.500992541378764
 21
31.00879108078152
 31
0.0
  0
LINE
  5
E0E00001CA6E
330
E0E00001C8CD
100
AcDbEntity
  8
TAPA_4_M
  6
Continuous
 62
     7
 48
25.4
100
AcDbLine
 10
3.500992541378764
 20
31.00879108078152
 30
0.0
 11
1.000131235216031
 21
31.00879108078152
 31
0.0
  0
LINE
  5
E0E00001CA6F
330
E0E00001C8CD
100
AcDbEntity
  8
TAPA_4_M
  6
Continuous
 62
     7
 48
25.4
100
AcDbLine
 10
1.000131235216031
 20
31.00879108078152
 30
0.0
 11
1.663916520398743
 21
30.34500579559881
 31
0.0
  0
LINE
  5
E0E00001CA70
330
E0E00001C8CD
100
AcDbEntity
  8
TAPA_4_M
  6
Continuous
 62
     7
 48
25.4
100
AcDbLine
 10
1.663916520398743
 20
-30.34500579559972
 30
0.0
 11
1.000131235216031
 21
-31.00879108078243
 31
0.0
  0
ARC
  5
E0E00001CA71
330
E0E00001C8CD
100
AcDbEntity
  8
TAPA_4_M
  6
Continuous
 62
     7
 48
25.4
100
AcDbCircle
 10
2.80046440543083
 20
20.8869985901415
 30
0.0
 40
0.5263318139639278
100
AcDbArc
 50
90.0
 51
180.0
  0
LINE
  5
E0E00001CA72
330
E0E00001C8CD
100
AcDbEntity
  8
TAPA_4_M
  6
Continuous
 62
     7
 48
25.4
100
AcDbLine
 10
2.274132591466696
 20
1.776686293027524
 30
0.0
 11
2.275315524223515
 21
1.776686293027524
 31
0.0
  0
LINE
  5
E0E00001CA73
330
E0E00001C8CD
100
AcDbEntity
  8
TAPA_4_M
  6
Continuous
 62
     7
 48
25.4
100
AcDbLine
 10
2.275315524223515
 20
-1.776686293027979
 30
0.0
 11
2.274132591466696
 21
-1.776686293027979
 31
0.0
  0
ARC
  5
E0E00001CA74
330
E0E00001C8CD
100
AcDbEntity
  8
TAPA_4_M
  6
Continuous
 62
     7
 48
25.4
100
AcDbCircle
 10
2.80046440543083
 20
-20.88699859014196
 30
0.0
 40
0.5263318139639347
100
AcDbArc
 50
180.0
 51
270.0
  0
LINE
  5
E0E00001CA75
330
E0E00001C8CD
100
AcDbEntity
  8
TAPA_4_M
  6
Continuous
 62
     7
 48
25.4
100
AcDbLine
 10
1.663916520398743
 20
30.34500579559881
 30
0.0
 11
1.663916520398743
 21
29.34487456038232
 31
0.0
  0
LINE
  5
E0E00001CA76
330
E0E00001C8CD
100
AcDbEntity
  8
TAPA_4_M
  6
Continuous
 62
     7
 48
25.4
100
AcDbLine
 10
1.69822711163124
 20
22.98936711915712
 30
0.0
 11
1.821056654429412
 21
22.86653757635895
 31
0.0
  0
ELLIPSE
  5
E0E00001CA77
330
E0E00001C8CD
100
AcDbEntity
  8
TAPA_4_M
  6
Continuous
 62
     7
 48
25.4
100
AcDbEllipse
 10
1.698836550182932
 20
23.98949835437361
 30
0.0
 11
0.0
 21
-1.000283583251032
 31
0.0
210
0.0
220
0.0
230
1.0
 40
0.0349101298564306
 41
4.71238898038469
 42
6.265732014660345
  0
LINE
  5
E0E00001CA78
330
E0E00001C8CD
100
AcDbEntity
  8
TAPA_4_M
  6
Continuous
 62
     7
 48
25.4
100
AcDbLine
 10
1.663916520398743
 20
29.34487456038278
 30
0.0
 11
1.663916520398743
 21
23.98949835437361
 31
0.0
  0
LINE
  5
E0E00001CA79
330
E0E00001C8CD
100
AcDbEntity
  8
TAPA_4_M
  6
Continuous
 62
     7
 48
25.4
100
AcDbLine
 10
1.821056654429412
 20
22.86653757635895
 30
0.0
 11
1.821056654429412
 21
21.86640634114246
 31
0.0
  0
ELLIPSE
  5
E0E00001CA7A
330
E0E00001C8CD
100
AcDbEntity
  8
TAPA_4_M
  6
Continuous
 62
     7
 48
25.4
100
AcDbEllipse
 10
4.625594366820224
 20
-31.70894387768567
 30
0.0
 11
0.1148580805319581
 21
0.2772919357683944
 31
0.0
210
0.0
220
0.0
230
1.0
 40
0.9998215707699757
 41
2.748956657798695
 42
3.534228649380672
  0
LINE
  5
E0E00001CA7B
330
E0E00001C8CD
100
AcDbEntity
  8
TAPA_4_M
  6
Continuous
 62
     7
 48
25.4
100
AcDbLine
 10
3.500992541378764
 20
-31.00879108078243
 30
0.0
 11
1.000131235216031
 21
-31.00879108078243
 31
0.0
  0
ELLIPSE
  5
E0E00001CA7C
330
E0E00001C8CD
100
AcDbEntity
  8
TAPA_4_M
  6
Continuous
 62
     7
 48
25.4
100
AcDbEllipse
 10
1.000435954491877
 20
-30.00835512628964
 30
0.0
 11
0.7075227738955381
 21
0.7075227738954861
 31
0.0
210
0.0
220
0.0
230
0.9999999999999998
 40
0.9996954598818871
 41
2.356346783439969
 42
3.926838523739677
  0
ELLIPSE
  5
E0E00001CA7D
330
E0E00001C8CD
100
AcDbEntity
  8
TAPA_4_M
  6
Continuous
 62
     7
 48
25.4
100
AcDbEllipse
 10
1.000435954491877
 20
30.00835512628873
 30
0.0
 11
0.7075227738955381
 21
-0.7075227738954861
 31
0.0
210
0.0
220
0.0
230
0.9999999999999998
 40
0.9996954598818871
 41
2.356346783439867
 42
3.926838523739618
  0
ELLIPSE
  5
E0E00001CA7E
330
E0E00001C8CD
100
AcDbEntity
  8
TAPA_4_M
  6
Continuous
 62
     7
 48
25.4
100
AcDbEllipse
 10
4.625594366820224
 20
31.70894387768476
 30
0.0
 11
0.1148580805319581
 21
-0.2772919357683944
 31
0.0
210
0.0
220
0.0
230
1.0
 40
0.9998215707699757
 41
2.74895665779863
 42
3.534228649380884
  0
ARC
  5
E0E00001CA7F
330
E0E00001C8CD
100
AcDbEntity
  8
TAPA_4_M
  6
Continuous
 62
     7
 48
25.4
100
AcDbCircle
 10
2.80046440543083
 20
-20.88699859014196
 30
0.0
 40
0.5385538243885254
100
AcDbArc
 50
180.0
 51
270.0
  0
LINE
  5
E0E00001CA80
330
E0E00001C8CD
100
AcDbEntity
  8
TAPA_4_M
  6
Continuous
 62
     7
 48
25.4
100
AcDbLine
 10
2.261910581041775
 20
-20.88699859014196
 30
0.0
 11
2.261910581041775
 21
20.8869985901415
 31
0.0
  0
ARC
  5
E0E00001CA81
330
E0E00001C8CD
100
AcDbEntity
  8
TAPA_4_M
  6
Continuous
 62
     7
 48
25.4
100
AcDbCircle
 10
2.80046440543083
 20
20.8869985901415
 30
0.0
 40
0.5385538243885254
100
AcDbArc
 50
90.0
 51
180.0
  0
LINE
  5
E0E00001CA82
330
E0E00001C8CD
100
AcDbEntity
  8
TAPA_4_M
  6
Continuous
 62
     7
 48
25.4
100
AcDbLine
 10
1.821056654429412
 20
21.86640634114246
 30
0.0
 11
1.821056654429412
 21
-21.86640634114337
 31
0.0
  0
LINE
  5
E0E00001CA83
330
E0E00001C8CD
100
AcDbEntity
  8
TAPA_4_M
  6
Continuous
 62
     7
 48
25.4
100
AcDbLine
 10
2.80046440543083
 20
21.4255524145301
 30
0.0
 11
2.80046440543083
 21
21.41333040410518
 31
0.0
  0
LINE
  5
E0E00001CA84
330
E0E00001C8CD
100
AcDbEntity
  8
TAPA_4_M
  6
Continuous
 62
     7
 48
25.4
100
AcDbLine
 10
1.663916520398743
 20
-29.34487456038323
 30
0.0
 11
1.663916520398743
 21
-30.34500579559972
 31
0.0
  0
LINE
  5
E0E00001CA85
330
E0E00001C8CD
100
AcDbEntity
  8
TAPA_4_M
  6
Continuous
 62
     7
 48
25.4
100
AcDbLine
 10
1.821056654429412
 20
-22.86653757635986
 30
0.0
 11
1.69822711163124
 21
-22.98936711915849
 31
0.0
  0
ELLIPSE
  5
E0E00001CA86
330
E0E00001C8CD
100
AcDbEntity
  8
TAPA_4_M
  6
Continuous
 62
     7
 48
25.4
100
AcDbEllipse
 10
1.698836550182932
 20
-23.98949835437452
 30
0.0
 11
0.0
 21
1.000283583251039
 31
0.0
210
0.0
220
0.0
230
1.0
 40
0.0349101298564302
 41
0.0174532925212647
 42
1.570796326794897
  0
LINE
  5
E0E00001CA87
330
E0E00001C8CD
100
AcDbEntity
  8
TAPA_4_M
  6
Continuous
 62
     7
 48
25.4
100
AcDbLine
 10
1.663916520398743
 20
-23.98949835437452
 30
0.0
 11
1.663916520398743
 21
-29.34487456038323
 31
0.0
  0
LINE
  5
E0E00001CA88
330
E0E00001C8CD
100
AcDbEntity
  8
TAPA_4_M
  6
Continuous
 62
     7
 48
25.4
100
AcDbLine
 10
1.821056654429412
 20
-21.86640634114337
 30
0.0
 11
1.821056654429412
 21
-22.86653757635986
 31
0.0
  0
LINE
  5
E0E00001CA89
330
E0E00001C8CD
100
AcDbEntity
  8
TAPA_4_M
  6
Continuous
 62
     7
 48
25.4
100
AcDbLine
 10
2.80046440543083
 20
-21.41333040410609
 30
0.0
 11
2.80046440543083
 21
-21.42555241453056
 31
0.0
  0
LINE
  5
E0E00001CA8A
330
E0E00001C8CD
100
AcDbEntity
  8
TAPA_4_M
  6
Continuous
 62
     7
 48
25.4
100
AcDbLine
 10
4.632788676130986
 20
-31.99161464914141
 30
0.0
 11
4.625556501163373
 21
-32.00907466403351
 31
0.0
  0
ELLIPSE
  5
E0E00001CA8B
330
E0E00001C8CD
100
AcDbEntity
  8
TAPA_4_M
  6
Continuous
 62
     7
 48
25.4
100
AcDbEllipse
 10
4.632826541786926
 20
-31.69148386279358
 30
0.0
 11
0.1148580805319581
 21
0.2772919357683944
 31
0.0
210
0.0
220
0.0
230
1.0
 40
0.9998215707699757
 41
2.748956657798924
 42
3.534228649380672
  0
ELLIPSE
  5
E0E00001CA8C
330
E0E00001C8CD
100
AcDbEntity
  8
TAPA_4_M
  6
Continuous
 62
     7
 48
25.4
100
AcDbEllipse
 10
4.632826541786926
 20
31.69148386279267
 30
0.0
 11
0.1148580805319581
 21
-0.2772919357683944
 31
0.0
210
0.0
220
0.0
230
1.0
 40
0.9998215707699757
 41
2.74895665779863
 42
3.534228649381065
  0
LINE
  5
E0E00001CA8D
330
E0E00001C8CD
100
AcDbEntity
  8
TAPA_4_M
  6
Continuous
 62
     7
 48
25.4
100
AcDbLine
 10
4.420628802581632
 20
31.90373515212468
 30
0.0
 11
3.508224716345467
 21
30.99133106588943
 31
0.0
  0
LINE
  5
E0E00001CA8E
330
E0E00001C8CD
100
AcDbEntity
  8
TAPA_4_M
  6
Continuous
 62
     7
 48
25.4
100
AcDbLine
 10
4.625556501163373
 20
32.0090746640326
 30
0.0
 11
4.632788676130986
 21
31.9916146491405
 31
0.0
  0
LINE
  5
E0E00001CA8F
330
E0E00001C8CD
100
AcDbEntity
  8
TAPA_4_M
  6
Continuous
 62
     7
 48
25.4
100
AcDbLine
 10
0.663785285182712
 20
29.34487456038278
 30
0.0
 11
1.663916520398743
 21
29.34487456038278
 31
0.0
  0
LINE
  5
E0E00001CA90
330
E0E00001C8CD
100
AcDbEntity
  8
TAPA_4_M
  6
Continuous
 62
     7
 48
25.4
100
AcDbLine
 10
0.0672210573347911
 20
-5.151460453743312
 30
0.0
 11
0.1467484571003297
 21
-5.151460453743312
 31
0.0
  0
LINE
  5
E0E00001CA91
330
E0E00001C8CD
100
AcDbEntity
  8
TAPA_4_M
  6
Continuous
 62
     7
 48
25.4
100
AcDbLine
 10
0.1467484571003297
 20
-5.151460453743312
 30
0.0
 11
0.1467484571003297
 21
5.151460453742402
 31
0.0
  0
LINE
  5
E0E00001CA92
330
E0E00001C8CD
100
AcDbEntity
  8
TAPA_4_M
  6
Continuous
 62
     7
 48
25.4
100
AcDbLine
 10
0.1467484571003297
 20
5.151460453742402
 30
0.0
 11
0.0672210573347911
 21
5.151460453742402
 31
0.0
  0
LINE
  5
E0E00001CA93
330
E0E00001C8CD
100
AcDbEntity
  8
TAPA_4_M
  6
Continuous
 62
     7
 48
25.4
100
AcDbLine
 10
0.0672210573347911
 20
5.151460453742402
 30
0.0
 11
0.0672210573347911
 21
-5.151460453743312
 31
0.0
  0
ELLIPSE
  5
E0E00001CA94
330
E0E00001C8CD
100
AcDbEntity
  8
TAPA_4_M
  6
Continuous
 62
     7
 48
25.4
100
AcDbEllipse
 10
1.663916520398743
 20
29.34487456038278
 30
0.0
 11
-0.7073073053227072
 21
-0.7073073043303549
 31
0.0
210
0.0
220
0.0
230
1.0
 40
0.9996954598814639
 41
3.927143110936618
 42
5.49763485123586
  0
LINE
  5
E0E00001CA95
330
E0E00001C8CD
100
AcDbEntity
  8
TAPA_4_M
  6
Continuous
 62
     7
 48
25.4
100
AcDbLine
 10
0.663785285182712
 20
23.98949835437361
 30
0.0
 11
1.663916520398743
 21
23.98949835437361
 31
0.0
  0
ELLIPSE
  5
E0E00001CA96
330
E0E00001C8CD
100
AcDbEntity
  8
TAPA_4_M
  6
Continuous
 62
     7
 48
25.4
100
AcDbEllipse
 10
1.69822711163124
 20
21.98923588394064
 30
0.0
 11
-0.7073073045481207
 21
-0.7073073051044724
 31
0.0
210
0.0
220
0.0
230
0.9999999999999998
 40
0.9996954598821286
 41
3.927143109841405
 42
5.497634850141381
  0
ELLIPSE
  5
E0E00001CA97
330
E0E00001C8CD
100
AcDbEntity
  8
TAPA_4_M
  6
Continuous
 62
     7
 48
25.4
100
AcDbEllipse
 10
1.821056654429412
 20
21.86640634114246
 30
0.0
 11
-0.7073073047179846
 21
-0.7073073049348374
 31
0.0
210
0.0
220
0.0
230
0.9999999999999998
 40
0.9996954598817965
 41
3.927143110081573
 42
5.49763485038121
  0
LINE
  5
E0E00001CA98
330
E0E00001C8CD
100
AcDbEntity
  8
TAPA_4_M
  6
Continuous
 62
     7
 48
25.4
100
AcDbLine
 10
0.0
 20
30.00865984556549
 30
0.0
 11
0.0
 21
-30.00865984556594
 31
0.0
  0
LINE
  5
E0E00001CA99
330
E0E00001C8CD
100
AcDbEntity
  8
TAPA_4_M
  6
Continuous
 62
     7
 48
25.4
100
AcDbLine
 10
0.0
 20
-30.00865984556594
 30
0.0
 11
0.663785285182712
 21
-29.34487456038323
 31
0.0
  0
LINE
  5
E0E00001CA9A
330
E0E00001C8CD
100
AcDbEntity
  8
TAPA_4_M
  6
Continuous
 62
     7
 48
25.4
100
AcDbLine
 10
0.663785285182712
 20
-29.34487456038323
 30
0.0
 11
0.663785285182712
 21
-23.98949835437452
 31
0.0
  0
ELLIPSE
  5
E0E00001CA9B
330
E0E00001C8CD
100
AcDbEntity
  8
TAPA_4_M
  6
Continuous
 62
     7
 48
25.4
100
AcDbEllipse
 10
0.6987053149669009
 20
-23.98949835437452
 30
0.0
 11
0.0
 21
2.000567166502061
 31
0.0
210
0.0
220
0.0
230
1.0
 40
0.0174550649282188
 41
0.0174532925199543
 42
1.570796326794897
  0
LINE
  5
E0E00001CA9C
330
E0E00001C8CD
100
AcDbEntity
  8
TAPA_4_M
  6
Continuous
 62
     7
 48
25.4
100
AcDbLine
 10
0.6980958764142997
 20
-21.989235883942
 30
0.0
 11
0.8209254192124718
 21
-21.86640634114337
 31
0.0
  0
LINE
  5
E0E00001CA9D
330
E0E00001C8CD
100
AcDbEntity
  8
TAPA_4_M
  6
Continuous
 62
     7
 48
25.4
100
AcDbLine
 10
0.8209254192124718
 20
-21.86640634114337
 30
0.0
 11
0.8209254192124718
 21
21.86640634114246
 31
0.0
  0
LINE
  5
E0E00001CA9E
330
E0E00001C8CD
100
AcDbEntity
  8
TAPA_4_M
  6
Continuous
 62
     7
 48
25.4
100
AcDbLine
 10
0.8209254192124718
 20
21.86640634114246
 30
0.0
 11
0.6980958764142997
 21
21.98923588394064
 31
0.0
  0
ELLIPSE
  5
E0E00001CA9F
330
E0E00001C8CD
100
AcDbEntity
  8
TAPA_4_M
  6
Continuous
 62
     7
 48
25.4
100
AcDbEllipse
 10
0.6987053149669009
 20
23.98949835437361
 30
0.0
 11
0.0
 21
-2.000567166502061
 31
0.0
210
0.0
220
0.0
230
1.0
 40
0.0174550649282187
 41
4.71238898038469
 42
6.265732014659632
  0
LINE
  5
E0E00001CAA0
330
E0E00001C8CD
100
AcDbEntity
  8
TAPA_4_M
  6
Continuous
 62
     7
 48
25.4
100
AcDbLine
 10
0.663785285182712
 20
23.98949835437361
 30
0.0
 11
0.663785285182712
 21
29.34487456038278
 31
0.0
  0
LINE
  5
E0E00001CAA1
330
E0E00001C8CD
100
AcDbEntity
  8
TAPA_4_M
  6
Continuous
 62
     7
 48
25.4
100
AcDbLine
 10
0.663785285182712
 20
29.34487456038278
 30
0.0
 11
0.0
 21
30.00865984556549
 31
0.0
  0
LINE
  5
E0E00001CAA2
330
E0E00001C8CD
100
AcDbEntity
  8
TAPA_4_M
  6
Continuous
 62
     7
 48
25.4
100
AcDbLine
 10
0.8209254192124718
 20
21.86640634114246
 30
0.0
 11
1.821056654429412
 21
21.86640634114246
 31
0.0
  0
LINE
  5
E0E00001CAA3
330
E0E00001C8CD
100
AcDbEntity
  8
TAPA_4_M
  6
Continuous
 62
     7
 48
25.4
100
AcDbLine
 10
2.274132591466696
 20
20.8869985901415
 30
0.0
 11
2.261910581041775
 21
20.8869985901415
 31
0.0
  0
LINE
  5
E0E00001CAA4
330
E0E00001C8CD
100
AcDbEntity
  8
TAPA_4_M
  6
Continuous
 62
     7
 48
25.4
100
AcDbLine
 10
2.261910581041775
 20
-20.88699859014196
 30
0.0
 11
2.274132591466696
 21
-20.88699859014196
 31
0.0
  0
LINE
  5
E0E00001CAA5
330
E0E00001C8CD
100
AcDbEntity
  8
TAPA_4_M
  6
Continuous
 62
     7
 48
25.4
100
AcDbLine
 10
2.274132591466696
 20
-20.88699859014196
 30
0.0
 11
2.274132591466696
 21
-1.776686293027979
 31
0.0
  0
LINE
  5
E0E00001CAA6
330
E0E00001C8CD
100
AcDbEntity
  8
TAPA_4_M
  6
Continuous
 62
     7
 48
25.4
100
AcDbLine
 10
2.275315524223515
 20
1.77550336027025
 30
0.0
 11
2.274132591466696
 21
1.776686293027524
 31
0.0
  0
LINE
  5
E0E00001CAA7
330
E0E00001C8CD
100
AcDbEntity
  8
TAPA_4_M
  6
Continuous
 62
     7
 48
25.4
100
AcDbLine
 10
2.274132591466696
 20
1.776686293027524
 30
0.0
 11
2.274132591466696
 21
20.8869985901415
 31
0.0
  0
LINE
  5
E0E00001CAA8
330
E0E00001C8CD
100
AcDbEntity
  8
TAPA_4_M
  6
Continuous
 62
     7
 48
25.4
100
AcDbLine
 10
0.8209254192124718
 20
-21.86640634114337
 30
0.0
 11
1.821056654429412
 21
-21.86640634114337
 31
0.0
  0
ELLIPSE
  5
E0E00001CAA9
330
E0E00001C8CD
100
AcDbEntity
  8
TAPA_4_M
  6
Continuous
 62
     7
 48
25.4
100
AcDbEllipse
 10
1.663916520398743
 20
-29.34487456038323
 30
0.0
 11
-0.7073073049349208
 21
0.7073073047179081
 31
0.0
210
0.0
220
0.0
230
0.9999999999999998
 40
0.9996954598817961
 41
0.7855504564916719
 42
2.356042196791299
  0
ELLIPSE
  5
E0E00001CAAA
330
E0E00001C8CD
100
AcDbEntity
  8
TAPA_4_M
  6
Continuous
 62
     7
 48
25.4
100
AcDbEllipse
 10
1.69822711163124
 20
-21.989235883942
 30
0.0
 11
-0.7073073054912385
 21
0.7073073041611124
 31
0.0
210
0.0
220
0.0
230
0.9999999999999998
 40
0.999695459882461
 41
0.7855504557045077
 42
2.35604219600477
  0
LINE
  5
E0E00001CAAB
330
E0E00001C8CD
100
AcDbEntity
  8
TAPA_4_M
  6
Continuous
 62
     7
 48
25.4
100
AcDbLine
 10
0.663785285182712
 20
-23.98949835437452
 30
0.0
 11
1.663916520398743
 21
-23.98949835437452
 31
0.0
  0
LINE
  5
E0E00001CAAC
330
E0E00001C8CD
100
AcDbEntity
  8
TAPA_4_M
  6
Continuous
 62
     7
 48
25.4
100
AcDbLine
 10
0.663785285182712
 20
-29.34487456038323
 30
0.0
 11
1.663916520398743
 21
-29.34487456038323
 31
0.0
  0
ELLIPSE
  5
E0E00001CAAD
330
E0E00001C8CD
100
AcDbEntity
  8
TAPA_4_M
  6
Continuous
 62
     7
 48
25.4
100
AcDbEllipse
 10
1.821056654429412
 20
-21.86640634114337
 30
0.0
 11
-0.7073073047175747
 21
0.7073073049352541
 31
0.0
210
0.0
220
0.0
230
1.0
 40
0.9996954598817962
 41
0.7855504567989504
 42
2.356042197098578
  0
LINE
  5
E0E00001CAAE
330
E0E00001C8CD
100
AcDbEntity
  8
TAPA_4_M
  6
Continuous
 62
     7
 48
25.4
100
AcDbLine
 10
2.275315524223515
 20
-1.775503360271159
 30
0.0
 11
2.274132591466696
 21
-1.776686293027979
 31
0.0
  0
LINE
  5
E0E00001CAAF
330
E0E00001C8CD
100
AcDbEntity
  8
TAPA_4_M
  6
Continuous
 62
     7
 48
25.4
100
AcDbLine
 10
3.500992541378764
 20
-31.00879108078243
 30
0.0
 11
4.41339662761402
 21
-31.92119516701769
 31
0.0
  0
LINE
  5
E0E00001CAB0
330
E0E00001C8CD
100
AcDbEntity
  8
TAPA_4_M
  6
Continuous
 62
     7
 48
25.4
100
AcDbLine
 10
4.41339662761402
 20
-31.92119516701769
 30
0.0
 11
4.420628802581632
 21
-31.90373515212559
 31
0.0
  0
LINE
  5
E0E00001CAB1
330
E0E00001C8CD
100
AcDbEntity
  8
TAPA_4_M
  6
Continuous
 62
     7
 48
25.4
100
AcDbLine
 10
4.420628802581632
 20
-31.90373515212559
 30
0.0
 11
3.508224716345467
 21
-30.99133106589034
 31
0.0
  0
LINE
  5
E0E00001CAB2
330
E0E00001C8CD
100
AcDbEntity
  8
TAPA_4_M
  6
Continuous
 62
     7
 48
25.4
100
AcDbLine
 10
3.508224716345467
 20
-30.99133106589034
 30
0.0
 11
3.500992541378764
 21
-31.00879108078243
 31
0.0
  0
LINE
  5
E0E00001CAB3
330
E0E00001C8CD
100
AcDbEntity
  8
TAPA_4_M
  6
Continuous
 62
     7
 48
25.4
100
AcDbLine
 10
4.420628802581632
 20
31.90373515212468
 30
0.0
 11
4.41339662761402
 21
31.92119516701723
 31
0.0
  0
LINE
  5
E0E00001CAB4
330
E0E00001C8CD
100
AcDbEntity
  8
TAPA_4_M
  6
Continuous
 62
     7
 48
25.4
100
AcDbLine
 10
4.41339662761402
 20
31.92119516701723
 30
0.0
 11
3.500992541378764
 21
31.00879108078152
 31
0.0
  0
LINE
  5
E0E00001CAB5
330
E0E00001C8CD
100
AcDbEntity
  8
TAPA_4_M
  6
Continuous
 62
     7
 48
25.4
100
AcDbLine
 10
68.3559343071729
 20
30.34500579559881
 30
0.0
 11
69.01971959235561
 21
31.00879108078152
 31
0.0
  0
LINE
  5
E0E00001CAB6
330
E0E00001C8CD
100
AcDbEntity
  8
TAPA_4_M
  6
Continuous
 62
     7
 48
25.4
100
AcDbLine
 10
69.01971959235561
 20
31.00879108078152
 30
0.0
 11
66.64313866272732
 21
31.00879108078152
 31
0.0
  0
LINE
  5
E0E00001CAB7
330
E0E00001C8CD
100
AcDbEntity
  8
TAPA_4_M
  6
Continuous
 62
     7
 48
25.4
100
AcDbLine
 10
66.64313866272732
 20
31.00879108078152
 30
0.0
 11
66.63590648775971
 21
30.99133106588943
 31
0.0
  0
LINE
  5
E0E00001CAB8
330
E0E00001C8CD
100
AcDbEntity
  8
TAPA_4_M
  6
Continuous
 62
     7
 48
25.4
100
AcDbLine
 10
66.63590648775971
 20
-30.99133106589034
 30
0.0
 11
66.64313866272732
 21
-31.00879108078243
 31
0.0
  0
LINE
  5
E0E00001CAB9
330
E0E00001C8CD
100
AcDbEntity
  8
TAPA_4_M
  6
Continuous
 62
     7
 48
25.4
100
AcDbLine
 10
69.01971959235561
 20
-31.00879108078243
 30
0.0
 11
68.3559343071729
 21
-30.34500579559972
 31
0.0
  0
ARC
  5
E0E00001CABA
330
E0E00001C8CD
100
AcDbEntity
  8
TAPA_4_M
  6
Continuous
 62
     7
 48
25.4
100
AcDbCircle
 10
67.21938642214172
 20
-20.88699859014196
 30
0.0
 40
0.5263318139639278
100
AcDbArc
 50
270.0
 51
0.0
  0
LINE
  5
E0E00001CABB
330
E0E00001C8CD
100
AcDbEntity
  8
TAPA_4_M
  6
Continuous
 62
     7
 48
25.4
100
AcDbLine
 10
67.74571823610495
 20
-1.776686293027979
 30
0.0
 11
67.74453530334813
 21
-1.776686293027979
 31
0.0
  0
LINE
  5
E0E00001CABC
330
E0E00001C8CD
100
AcDbEntity
  8
TAPA_4_M
  6
Continuous
 62
     7
 48
25.4
100
AcDbLine
 10
67.74453530334813
 20
1.776686293027524
 30
0.0
 11
67.74571823610495
 21
1.776686293027524
 31
0.0
  0
ARC
  5
E0E00001CABD
330
E0E00001C8CD
100
AcDbEntity
  8
TAPA_4_M
  6
Continuous
 62
     7
 48
25.4
100
AcDbCircle
 10
67.21938642214172
 20
20.8869985901415
 30
0.0
 40
0.5263318139639347
100
AcDbArc
 50
0.0
 51
90.0
  0
LINE
  5
E0E00001CABE
330
E0E00001C8CD
100
AcDbEntity
  8
TAPA_4_M
  6
Continuous
 62
     7
 48
25.4
100
AcDbLine
 10
68.3559343071729
 20
29.34487456038232
 30
0.0
 11
68.3559343071729
 21
30.34500579559881
 31
0.0
  0
LINE
  5
E0E00001CABF
330
E0E00001C8CD
100
AcDbEntity
  8
TAPA_4_M
  6
Continuous
 62
     7
 48
25.4
100
AcDbLine
 10
68.19879417314223
 20
22.8665375763585
 30
0.0
 11
68.3216237159404
 21
22.98936711915712
 31
0.0
  0
ELLIPSE
  5
E0E00001CAC0
330
E0E00001C8CD
100
AcDbEntity
  8
TAPA_4_M
  6
Continuous
 62
     7
 48
25.4
100
AcDbEllipse
 10
68.32101427738871
 20
23.98949835437361
 30
0.0
 11
0.0
 21
-1.000283583251029
 31
0.0
210
0.0
220
0.0
230
1.0
 40
0.0349101298564301
 41
0.0174532925206731
 42
1.570796326794897
  0
LINE
  5
E0E00001CAC1
330
E0E00001C8CD
100
AcDbEntity
  8
TAPA_4_M
  6
Continuous
 62
     7
 48
25.4
100
AcDbLine
 10
68.3559343071729
 20
23.98949835437361
 30
0.0
 11
68.3559343071729
 21
29.34487456038232
 31
0.0
  0
LINE
  5
E0E00001CAC2
330
E0E00001C8CD
100
AcDbEntity
  8
TAPA_4_M
  6
Continuous
 62
     7
 48
25.4
100
AcDbLine
 10
68.3559343071729
 20
29.34487456038232
 30
0.0
 11
69.35606554238893
 21
29.34487456038232
 31
0.0
  0
LINE
  5
E0E00001CAC3
330
E0E00001C8CD
100
AcDbEntity
  8
TAPA_4_M
  6
Continuous
 62
     7
 48
25.4
100
AcDbLine
 10
68.19879417314223
 20
21.86640634114246
 30
0.0
 11
68.19879417314223
 21
22.86653757635895
 31
0.0
  0
LINE
  5
E0E00001CAC4
330
E0E00001C8CD
100
AcDbEntity
  8
TAPA_4_M
  6
Continuous
 62
     7
 48
25.4
100
AcDbLine
 10
69.95262977023685
 20
5.151460453742402
 30
0.0
 11
69.87310237047132
 21
5.151460453742402
 31
0.0
  0
LINE
  5
E0E00001CAC5
330
E0E00001C8CD
100
AcDbEntity
  8
TAPA_4_M
  6
Continuous
 62
     7
 48
25.4
100
AcDbLine
 10
69.87310237047132
 20
5.151460453742402
 30
0.0
 11
69.87310237047132
 21
-5.151460453743312
 31
0.0
  0
LINE
  5
E0E00001CAC6
330
E0E00001C8CD
100
AcDbEntity
  8
TAPA_4_M
  6
Continuous
 62
     7
 48
25.4
100
AcDbLine
 10
69.87310237047132
 20
-5.151460453743312
 30
0.0
 11
69.95262977023685
 21
-5.151460453743312
 31
0.0
  0
LINE
  5
E0E00001CAC7
330
E0E00001C8CD
100
AcDbEntity
  8
TAPA_4_M
  6
Continuous
 62
     7
 48
25.4
100
AcDbLine
 10
69.95262977023685
 20
-5.151460453743312
 30
0.0
 11
69.95262977023685
 21
5.151460453742402
 31
0.0
  0
ELLIPSE
  5
E0E00001CAC8
330
E0E00001C8CD
100
AcDbEntity
  8
TAPA_4_M
  6
Continuous
 62
     7
 48
25.4
100
AcDbEllipse
 10
68.19879417314223
 20
21.86640634114246
 30
0.0
 11
-0.7073073051081383
 21
0.7073073045444676
 31
0.0
210
0.0
220
0.0
230
1.0
 40
0.9996954598821285
 41
3.927143109836241
 42
5.497634850136201
  0
ELLIPSE
  5
E0E00001CAC9
330
E0E00001C8CD
100
AcDbEntity
  8
TAPA_4_M
  6
Continuous
 62
     7
 48
25.4
100
AcDbEllipse
 10
68.3216237159404
 20
21.98923588394064
 30
0.0
 11
-0.7073073047228716
 21
0.7073073049299592
 31
0.0
210
0.0
220
0.0
230
1.0
 40
0.9996954598817961
 41
3.92714311038123
 42
5.497634850680928
  0
LINE
  5
E0E00001CACA
330
E0E00001C8CD
100
AcDbEntity
  8
TAPA_4_M
  6
Continuous
 62
     7
 48
25.4
100
AcDbLine
 10
68.3559343071729
 20
23.98949835437361
 30
0.0
 11
69.35606554238893
 21
23.98949835437361
 31
0.0
  0
ELLIPSE
  5
E0E00001CACB
330
E0E00001C8CD
100
AcDbEntity
  8
TAPA_4_M
  6
Continuous
 62
     7
 48
25.4
100
AcDbEllipse
 10
68.3559343071729
 20
29.34487456038278
 30
0.0
 11
-0.7073073047228716
 21
0.7073073049299592
 31
0.0
210
0.0
220
0.0
230
1.0
 40
0.9996954598817961
 41
3.92714311038123
 42
5.497634850680928
  0
ELLIPSE
  5
E0E00001CACC
330
E0E00001C8CD
100
AcDbEntity
  8
TAPA_4_M
  6
Continuous
 62
     7
 48
25.4
100
AcDbEllipse
 10
65.39425646075142
 20
31.70894387768476
 30
0.0
 11
-0.1148580805319578
 21
-0.2772919357683945
 31
0.0
210
0.0
220
0.0
230
1.0
 40
0.9998215707699757
 41
2.748956657798836
 42
3.534228649381042
  0
ELLIPSE
  5
E0E00001CACD
330
E0E00001C8CD
100
AcDbEntity
  8
TAPA_4_M
  6
Continuous
 62
     7
 48
25.4
100
AcDbEllipse
 10
66.64317652838417
 20
31.30892186712936
 30
0.0
 11
0.1148580805319826
 21
0.2772919357683842
 31
0.0
210
0.0
220
0.0
230
0.9999999999999998
 40
0.9998215707699757
 41
2.748956657798697
 42
3.534228649380942
  0
ELLIPSE
  5
E0E00001CACE
330
E0E00001C8CD
100
AcDbEntity
  8
TAPA_4_M
  6
Continuous
 62
     7
 48
25.4
100
AcDbEllipse
 10
69.01941487307886
 20
30.00835512628873
 30
0.0
 11
-0.7075227738955381
 21
-0.7075227738954861
 31
0.0
210
0.0
220
0.0
230
0.9999999999999998
 40
0.9996954598818871
 41
2.356346783439955
 42
3.926838523739677
  0
LINE
  5
E0E00001CACF
330
E0E00001C8CD
100
AcDbEntity
  8
TAPA_4_M
  6
Continuous
 62
     7
 48
25.4
100
AcDbLine
 10
70.01985082757255
 20
30.00865984556549
 30
0.0
 11
70.01985082757255
 21
-30.00865984556594
 31
0.0
  0
ELLIPSE
  5
E0E00001CAD0
330
E0E00001C8CD
100
AcDbEntity
  8
TAPA_4_M
  6
Continuous
 62
     7
 48
25.4
100
AcDbEllipse
 10
69.01941487307886
 20
-30.00835512628964
 30
0.0
 11
-0.7075227738955381
 21
0.7075227738954861
 31
0.0
210
0.0
220
0.0
230
0.9999999999999998
 40
0.9996954598818871
 41
2.356346783439852
 42
3.92683852373966
  0
LINE
  5
E0E00001CAD1
330
E0E00001C8CD
100
AcDbEntity
  8
TAPA_4_M
  6
Continuous
 62
     7
 48
25.4
100
AcDbLine
 10
69.01971959235561
 20
-31.00879108078243
 30
0.0
 11
66.64313866272732
 21
-31.00879108078243
 31
0.0
  0
ELLIPSE
  5
E0E00001CAD2
330
E0E00001C8CD
100
AcDbEntity
  8
TAPA_4_M
  6
Continuous
 62
     7
 48
25.4
100
AcDbEllipse
 10
66.64317652838417
 20
-31.30892186713027
 30
0.0
 11
0.1148580805319826
 21
-0.2772919357683842
 31
0.0
210
0.0
220
0.0
230
0.9999999999999998
 40
0.9998215707699757
 41
2.748956657798455
 42
3.534228649380889
  0
LINE
  5
E0E00001CAD3
330
E0E00001C8CD
100
AcDbEntity
  8
TAPA_4_M
  6
Continuous
 62
     7
 48
25.4
100
AcDbLine
 10
68.19879417314223
 20
-21.86640634114337
 30
0.0
 11
68.19879417314223
 21
21.86640634114246
 31
0.0
  0
ARC
  5
E0E00001CAD4
330
E0E00001C8CD
100
AcDbEntity
  8
TAPA_4_M
  6
Continuous
 62
     7
 48
25.4
100
AcDbCircle
 10
67.21938642214172
 20
20.8869985901415
 30
0.0
 40
0.5385538243885254
100
AcDbArc
 50
0.0
 51
90.0
  0
LINE
  5
E0E00001CAD5
330
E0E00001C8CD
100
AcDbEntity
  8
TAPA_4_M
  6
Continuous
 62
     7
 48
25.4
100
AcDbLine
 10
67.75794024652896
 20
20.8869985901415
 30
0.0
 11
67.75794024652896
 21
-20.88699859014196
 31
0.0
  0
ARC
  5
E0E00001CAD6
330
E0E00001C8CD
100
AcDbEntity
  8
TAPA_4_M
  6
Continuous
 62
     7
 48
25.4
100
AcDbCircle
 10
67.21938642214172
 20
-20.88699859014196
 30
0.0
 40
0.5385538243885254
100
AcDbArc
 50
270.0
 51
0.0
  0
LINE
  5
E0E00001CAD7
330
E0E00001C8CD
100
AcDbEntity
  8
TAPA_4_M
  6
Continuous
 62
     7
 48
25.4
100
AcDbLine
 10
67.21938642214172
 20
21.41333040410518
 30
0.0
 11
67.21938642214172
 21
21.4255524145301
 31
0.0
  0
LINE
  5
E0E00001CAD8
330
E0E00001C8CD
100
AcDbEntity
  8
TAPA_4_M
  6
Continuous
 62
     7
 48
25.4
100
AcDbLine
 10
67.74571823610495
 20
20.8869985901415
 30
0.0
 11
67.74571823610495
 21
1.776686293027524
 31
0.0
  0
LINE
  5
E0E00001CAD9
330
E0E00001C8CD
100
AcDbEntity
  8
TAPA_4_M
  6
Continuous
 62
     7
 48
25.4
100
AcDbLine
 10
67.74453530334813
 20
-1.775503360271159
 30
0.0
 11
67.74571823610495
 21
-1.776686293027979
 31
0.0
  0
LINE
  5
E0E00001CADA
330
E0E00001C8CD
100
AcDbEntity
  8
TAPA_4_M
  6
Continuous
 62
     7
 48
25.4
100
AcDbLine
 10
67.74571823610495
 20
-1.776686293027979
 30
0.0
 11
67.74571823610495
 21
-20.88699859014196
 31
0.0
  0
LINE
  5
E0E00001CADB
330
E0E00001C8CD
100
AcDbEntity
  8
TAPA_4_M
  6
Continuous
 62
     7
 48
25.4
100
AcDbLine
 10
67.74571823610495
 20
-20.88699859014196
 30
0.0
 11
67.75794024652896
 21
-20.88699859014196
 31
0.0
  0
LINE
  5
E0E00001CADC
330
E0E00001C8CD
100
AcDbEntity
  8
TAPA_4_M
  6
Continuous
 62
     7
 48
25.4
100
AcDbLine
 10
67.75794024652896
 20
20.8869985901415
 30
0.0
 11
67.74571823610495
 21
20.8869985901415
 31
0.0
  0
LINE
  5
E0E00001CADD
330
E0E00001C8CD
100
AcDbEntity
  8
TAPA_4_M
  6
Continuous
 62
     7
 48
25.4
100
AcDbLine
 10
68.19879417314223
 20
21.86640634114246
 30
0.0
 11
69.19892540835826
 21
21.86640634114246
 31
0.0
  0
LINE
  5
E0E00001CADE
330
E0E00001C8CD
100
AcDbEntity
  8
TAPA_4_M
  6
Continuous
 62
     7
 48
25.4
100
AcDbLine
 10
69.35606554238893
 20
-29.34487456038323
 30
0.0
 11
70.01985082757255
 21
-30.00865984556594
 31
0.0
  0
LINE
  5
E0E00001CADF
330
E0E00001C8CD
100
AcDbEntity
  8
TAPA_4_M
  6
Continuous
 62
     7
 48
25.4
100
AcDbLine
 10
70.01985082757255
 20
30.00865984556549
 30
0.0
 11
69.35606554238893
 21
29.34487456038278
 31
0.0
  0
LINE
  5
E0E00001CAE0
330
E0E00001C8CD
100
AcDbEntity
  8
TAPA_4_M
  6
Continuous
 62
     7
 48
25.4
100
AcDbLine
 10
69.35606554238893
 20
29.34487456038232
 30
0.0
 11
69.35606554238893
 21
23.98949835437361
 31
0.0
  0
ELLIPSE
  5
E0E00001CAE1
330
E0E00001C8CD
100
AcDbEntity
  8
TAPA_4_M
  6
Continuous
 62
     7
 48
25.4
100
AcDbEllipse
 10
69.32114551260383
 20
23.98949835437361
 30
0.0
 11
0.0
 21
-2.000567166502064
 31
0.0
210
0.0
220
0.0
230
1.0
 40
0.0174550649282187
 41
0.0174532925200561
 42
1.570796326794897
  0
LINE
  5
E0E00001CAE2
330
E0E00001C8CD
100
AcDbEntity
  8
TAPA_4_M
  6
Continuous
 62
     7
 48
25.4
100
AcDbLine
 10
69.32175495115644
 20
21.98923588394064
 30
0.0
 11
69.19892540835826
 21
21.86640634114246
 31
0.0
  0
LINE
  5
E0E00001CAE3
330
E0E00001C8CD
100
AcDbEntity
  8
TAPA_4_M
  6
Continuous
 62
     7
 48
25.4
100
AcDbLine
 10
69.19892540835826
 20
21.86640634114246
 30
0.0
 11
69.19892540835826
 21
-21.86640634114337
 31
0.0
  0
LINE
  5
E0E00001CAE4
330
E0E00001C8CD
100
AcDbEntity
  8
TAPA_4_M
  6
Continuous
 62
     7
 48
25.4
100
AcDbLine
 10
69.19892540835826
 20
-21.86640634114337
 30
0.0
 11
69.32175495115644
 21
-21.989235883942
 31
0.0
  0
ELLIPSE
  5
E0E00001CAE5
330
E0E00001C8CD
100
AcDbEntity
  8
TAPA_4_M
  6
Continuous
 62
     7
 48
25.4
100
AcDbEllipse
 10
69.32114551260383
 20
-23.98949835437452
 30
0.0
 11
0.0
 21
2.000567166502064
 31
0.0
210
0.0
220
0.0
230
1.0
 40
0.0174550649282188
 41
4.71238898038469
 42
6.26573201465953
  0
LINE
  5
E0E00001CAE6
330
E0E00001C8CD
100
AcDbEntity
  8
TAPA_4_M
  6
Continuous
 62
     7
 48
25.4
100
AcDbLine
 10
69.35606554238893
 20
-23.98949835437452
 30
0.0
 11
69.35606554238893
 21
-29.34487456038323
 31
0.0
  0
LINE
  5
E0E00001CAE7
330
E0E00001C8CD
100
AcDbEntity
  8
TAPA_4_M
  6
Continuous
 62
     7
 48
25.4
100
AcDbLine
 10
68.19879417314223
 20
-21.86640634114337
 30
0.0
 11
69.19892540835826
 21
-21.86640634114337
 31
0.0
  0
LINE
  5
E0E00001CAE8
330
E0E00001C8CD
100
AcDbEntity
  8
TAPA_4_M
  6
Continuous
 62
     7
 48
25.4
100
AcDbLine
 10
68.3559343071729
 20
-30.34500579559972
 30
0.0
 11
68.3559343071729
 21
-29.34487456038323
 31
0.0
  0
ELLIPSE
  5
E0E00001CAE9
330
E0E00001C8CD
100
AcDbEntity
  8
TAPA_4_M
  6
Continuous
 62
     7
 48
25.4
100
AcDbEllipse
 10
68.3559343071729
 20
-29.34487456038323
 30
0.0
 11
-0.7073073054941046
 21
-0.7073073041582562
 31
0.0
210
0.0
220
0.0
230
0.9999999999999998
 40
0.9996954598824606
 41
0.785550457589047
 42
2.356042197889379
  0
LINE
  5
E0E00001CAEA
330
E0E00001C8CD
100
AcDbEntity
  8
TAPA_4_M
  6
Continuous
 62
     7
 48
25.4
100
AcDbLine
 10
68.3216237159404
 20
-22.98936711915849
 30
0.0
 11
68.19879417314223
 21
-22.86653757635986
 31
0.0
  0
ELLIPSE
  5
E0E00001CAEB
330
E0E00001C8CD
100
AcDbEntity
  8
TAPA_4_M
  6
Continuous
 62
     7
 48
25.4
100
AcDbEllipse
 10
68.32101427738871
 20
-23.98949835437452
 30
0.0
 11
0.0
 21
1.000283583251036
 31
0.0
210
0.0
220
0.0
230
1.0
 40
0.0349101298564306
 41
4.71238898038469
 42
6.265732014660141
  0
LINE
  5
E0E00001CAEC
330
E0E00001C8CD
100
AcDbEntity
  8
TAPA_4_M
  6
Continuous
 62
     7
 48
25.4
100
AcDbLine
 10
68.3559343071729
 20
-29.34487456038323
 30
0.0
 11
68.3559343071729
 21
-23.98949835437452
 31
0.0
  0
LINE
  5
E0E00001CAED
330
E0E00001C8CD
100
AcDbEntity
  8
TAPA_4_M
  6
Continuous
 62
     7
 48
25.4
100
AcDbLine
 10
68.3559343071729
 20
-29.34487456038323
 30
0.0
 11
69.35606554238893
 21
-29.34487456038323
 31
0.0
  0
LINE
  5
E0E00001CAEE
330
E0E00001C8CD
100
AcDbEntity
  8
TAPA_4_M
  6
Continuous
 62
     7
 48
25.4
100
AcDbLine
 10
68.3559343071729
 20
-23.98949835437452
 30
0.0
 11
69.35606554238893
 21
-23.98949835437452
 31
0.0
  0
ELLIPSE
  5
E0E00001CAEF
330
E0E00001C8CD
100
AcDbEntity
  8
TAPA_4_M
  6
Continuous
 62
     7
 48
25.4
100
AcDbEllipse
 10
68.3216237159404
 20
-21.989235883942
 30
0.0
 11
-0.7073073047208861
 21
-0.7073073049319473
 31
0.0
210
0.0
220
0.0
230
1.0
 40
0.9996954598817961
 41
0.7855504564958521
 42
2.356042196795489
  0
LINE
  5
E0E00001CAF0
330
E0E00001C8CD
100
AcDbEntity
  8
TAPA_4_M
  6
Continuous
 62
     7
 48
25.4
100
AcDbLine
 10
68.19879417314223
 20
-22.86653757635986
 30
0.0
 11
68.19879417314223
 21
-21.86640634114337
 31
0.0
  0
ELLIPSE
  5
E0E00001CAF1
330
E0E00001C8CD
100
AcDbEntity
  8
TAPA_4_M
  6
Continuous
 62
     7
 48
25.4
100
AcDbEllipse
 10
68.19879417314223
 20
-21.86640634114337
 30
0.0
 11
-0.7073073047219829
 21
-0.7073073049308475
 31
0.0
210
0.0
220
0.0
230
1.0
 40
0.9996954598817961
 41
0.7855504564974305
 42
2.356042196797072
  0
LINE
  5
E0E00001CAF2
330
E0E00001C8CD
100
AcDbEntity
  8
TAPA_4_M
  6
Continuous
 62
     7
 48
25.4
100
AcDbLine
 10
67.21938642214172
 20
-21.42555241453056
 30
0.0
 11
67.21938642214172
 21
-21.41333040410609
 31
0.0
  0
LINE
  5
E0E00001CAF3
330
E0E00001C8CD
100
AcDbEntity
  8
TAPA_4_M
  6
Continuous
 62
     7
 48
25.4
100
AcDbLine
 10
67.74453530334813
 20
1.77550336027025
 30
0.0
 11
67.74571823610495
 21
1.776686293027524
 31
0.0
  0
LINE
  5
E0E00001CAF4
330
E0E00001C8CD
100
AcDbEntity
  8
TAPA_4_M
  6
Continuous
 62
     7
 48
25.4
100
AcDbLine
 10
65.90868530040916
 20
-31.6189640665657
 30
0.0
 11
66.43097878917797
 21
-31.09667057779779
 31
0.0
  0
LINE
  5
E0E00001CAF5
330
E0E00001C8CD
100
AcDbEntity
  8
TAPA_4_M
  6
Continuous
 62
     7
 48
25.4
100
AcDbLine
 10
66.43097878917797
 20
-31.09667057779779
 30
0.0
 11
66.42374661421036
 21
-31.0792105629057
 31
0.0
  0
LINE
  5
E0E00001CAF6
330
E0E00001C8CD
100
AcDbEntity
  8
TAPA_4_M
  6
Continuous
 62
     7
 48
25.4
100
AcDbLine
 10
65.90868530040916
 20
-31.59427187670553
 30
0.0
 11
66.42374661421036
 21
-31.0792105629057
 31
0.0
  0
ELLIPSE
  5
E0E00001CAF7
330
E0E00001C8CD
100
AcDbEntity
  8
TAPA_4_M
  6
Continuous
 62
     7
 48
25.4
100
AcDbEllipse
 10
66.63594435341656
 20
-31.29146185223817
 30
0.0
 11
0.1148580805319826
 21
-0.2772919357683842
 31
0.0
210
0.0
220
0.0
230
0.9999999999999998
 40
0.9998215707699757
 41
2.74895665779855
 42
3.534228649380527
  0
ELLIPSE
  5
E0E00001CAF8
330
E0E00001C8CD
100
AcDbEntity
  8
TAPA_4_M
  6
Continuous
 62
     7
 48
25.4
100
AcDbEllipse
 10
66.63594435341656
 20
31.29146185223726
 30
0.0
 11
0.1148580805319826
 21
0.2772919357683842
 31
0.0
210
0.0
220
0.0
230
0.9999999999999998
 40
0.9998215707699757
 41
2.748956657798831
 42
3.534228649381226
  0
LINE
  5
E0E00001CAF9
330
E0E00001C8CD
100
AcDbEntity
  8
TAPA_4_M
  6
Continuous
 62
     7
 48
25.4
100
AcDbLine
 10
66.42374661421036
 20
31.07921056290479
 30
0.0
 11
65.59922202499001
 21
31.90373515212468
 31
0.0
  0
ELLIPSE
  5
E0E00001CAFA
330
E0E00001C8CD
100
AcDbEntity
  8
TAPA_4_M
  6
Continuous
 62
     7
 48
25.4
100
AcDbEllipse
 10
65.3870242857829
 20
31.69148386279267
 30
0.0
 11
-0.1148580805319578
 21
-0.2772919357683945
 31
0.0
210
0.0
220
0.0
230
1.0
 40
0.9998215707699757
 41
2.748956657798473
 42
3.534228649380908
  0
LINE
  5
E0E00001CAFB
330
E0E00001C8CD
100
AcDbEntity
  8
TAPA_4_M
  6
Continuous
 62
     7
 48
25.4
100
AcDbLine
 10
65.38706215144066
 20
31.9916146491405
 30
0.0
 11
65.39429432640918
 21
32.0090746640326
 31
0.0
  0
LINE
  5
E0E00001CAFC
330
E0E00001C8CD
100
AcDbEntity
  8
TAPA_4_M
  6
Continuous
 62
     7
 48
25.4
100
AcDbLine
 10
66.43097878917797
 20
31.09667057779734
 30
0.0
 11
65.60645419995853
 21
31.92119516701723
 31
0.0
  0
LINE
  5
E0E00001CAFD
330
E0E00001C8CD
100
AcDbEntity
  8
TAPA_4_M
  6
Continuous
 62
     7
 48
25.4
100
AcDbLine
 10
65.60645419995762
 20
31.92119516701723
 30
0.0
 11
65.59922202499001
 21
31.90373515212468
 31
0.0
  0
LINE
  5
E0E00001CAFE
330
E0E00001C8CD
100
AcDbEntity
  8
TAPA_4_M
  6
Continuous
 62
     7
 48
25.4
100
AcDbLine
 10
66.42374661421036
 20
31.07921056290479
 30
0.0
 11
66.43097878917797
 21
31.09667057779734
 31
0.0
  0
LINE
  5
E0E00001CAFF
330
E0E00001C8CD
100
AcDbEntity
  8
AK(Z)-1550_3
  6
Continuous
 62
     7
 48
25.4
100
AcDbLine
 10
33.35445608350528
 20
-31.57058615515871
 30
0.0
 11
44.78769744006513
 21
-31.57058615515871
 31
0.0
  0
LINE
  5
E0E00001CB00
330
E0E00001C8CD
100
AcDbEntity
  8
AK(Z)-1550_3
  6
Continuous
 62
     7
 48
25.4
100
AcDbLine
 10
33.35445608350528
 20
-38.66681490541714
 30
0.0
 11
33.35445608350528
 21
-31.57058615515871
 31
0.0
  0
LINE
  5
E0E00001CB01
330
E0E00001C8CD
100
AcDbEntity
  8
AK(Z)-1550_3
  6
Continuous
 62
     7
 48
25.4
100
AcDbLine
 10
33.35445608350528
 20
-38.66681490541714
 30
0.0
 11
33.35445608350528
 21
-42.35230721063272
 31
0.0
  0
LINE
  5
E0E00001CB02
330
E0E00001C8CD
100
AcDbEntity
  8
AK(Z)-1550_3
  6
Continuous
 62
     7
 48
25.4
100
AcDbLine
 10
33.35445608350528
 20
-42.35230721063272
 30
0.0
 11
33.35445608350528
 21
-42.67373392924492
 31
0.0
  0
LINE
  5
E0E00001CB03
330
E0E00001C8CD
100
AcDbEntity
  8
AK(Z)-1550_3
  6
Continuous
 62
     7
 48
25.4
100
AcDbLine
 10
33.35445608350528
 20
-42.35230721063272
 30
0.0
 11
44.78769744006513
 21
-42.35230721063272
 31
0.0
  0
LINE
  5
E0E00001CB04
330
E0E00001C8CD
100
AcDbEntity
  8
AK(Z)-1550_3
  6
Continuous
 62
     7
 48
25.4
100
AcDbLine
 10
33.35445608350528
 20
-42.67373392924492
 30
0.0
 11
44.78769744006513
 21
-42.67373392924537
 31
0.0
  0
LINE
  5
E0E00001CB05
330
E0E00001C8CD
100
AcDbEntity
  8
AK(Z)-1550_3
  6
Continuous
 62
     7
 48
25.4
100
AcDbLine
 10
34.10967018885913
 20
-37.43112643496579
 30
0.0
 11
34.10967018885913
 21
-32.17433132054384
 31
0.0
  0
LINE
  5
E0E00001CB06
330
E0E00001C8CD
100
AcDbEntity
  8
AK(Z)-1550_3
  6
Continuous
 62
     7
 48
25.4
100
AcDbLine
 10
34.10967018885913
 20
-32.17433132054384
 30
0.0
 11
36.21276642264456
 21
-32.17433132054384
 31
0.0
  0
LINE
  5
E0E00001CB07
330
E0E00001C8CD
100
AcDbEntity
  8
AK(Z)-1550_3
  6
Continuous
 62
     7
 48
25.4
100
AcDbLine
 10
36.41032243033715
 20
-32.17433132054384
 30
0.0
 11
36.41032243033715
 21
-37.43112643496579
 31
0.0
  0
LINE
  5
E0E00001CB08
330
E0E00001C8CD
100
AcDbEntity
  8
AK(Z)-1550_3
  6
Continuous
 62
     7
 48
25.4
100
AcDbLine
 10
36.41032243033715
 20
-37.43112643496579
 30
0.0
 11
36.21276642264456
 21
-37.43112643496579
 31
0.0
  0
LINE
  5
E0E00001CB09
330
E0E00001C8CD
100
AcDbEntity
  8
AK(Z)-1550_3
  6
Continuous
 62
     7
 48
25.4
100
AcDbLine
 10
33.55701350911295
 20
-38.26670147211689
 30
0.0
 11
34.10967018885913
 21
-37.43112643496579
 31
0.0
  0
LINE
  5
E0E00001CB0A
330
E0E00001C8CD
100
AcDbEntity
  8
AK(Z)-1550_3
  6
Continuous
 62
     7
 48
25.4
100
AcDbLine
 10
36.96297911008332
 20
-38.26670147211689
 30
0.0
 11
33.55701350911295
 21
-38.26670147211689
 31
0.0
  0
LINE
  5
E0E00001CB0B
330
E0E00001C8CD
100
AcDbEntity
  8
AK(Z)-1550_3
  6
Continuous
 62
     7
 48
25.4
100
AcDbLine
 10
33.55701350911295
 20
-31.97069958845896
 30
0.0
 11
34.10967018885913
 21
-32.17433132054384
 31
0.0
  0
LINE
  5
E0E00001CB0C
330
E0E00001C8CD
100
AcDbEntity
  8
AK(Z)-1550_3
  6
Continuous
 62
     7
 48
25.4
100
AcDbLine
 10
33.55701350911295
 20
-38.26670147211689
 30
0.0
 11
33.55701350911295
 21
-31.97069958845896
 31
0.0
  0
LINE
  5
E0E00001CB0D
330
E0E00001C8CD
100
AcDbEntity
  8
AK(Z)-1550_3
  6
Continuous
 62
     7
 48
25.4
100
AcDbLine
 10
36.96297911008332
 20
-31.97069958845896
 30
0.0
 11
36.41032243033715
 21
-32.17433132054384
 31
0.0
  0
LINE
  5
E0E00001CB0E
330
E0E00001C8CD
100
AcDbEntity
  8
AK(Z)-1550_3
  6
Continuous
 62
     7
 48
25.4
100
AcDbLine
 10
33.55701350911295
 20
-31.97069958845896
 30
0.0
 11
36.96297911008332
 21
-31.97069958845896
 31
0.0
  0
LINE
  5
E0E00001CB0F
330
E0E00001C8CD
100
AcDbEntity
  8
AK(Z)-1550_3
  6
Continuous
 62
     7
 48
25.4
100
AcDbLine
 10
36.96297911008332
 20
-31.97069958845896
 30
0.0
 11
36.96297911008332
 21
-38.26670147211689
 31
0.0
  0
LINE
  5
E0E00001CB10
330
E0E00001C8CD
100
AcDbEntity
  8
AK(Z)-1550_3
  6
Continuous
 62
     7
 48
25.4
100
AcDbLine
 10
36.96297911008332
 20
-38.26670147211689
 30
0.0
 11
36.41032243033715
 21
-37.43112643496579
 31
0.0
  0
LINE
  5
E0E00001CB11
330
E0E00001C8CD
100
AcDbEntity
  8
AK(Z)-1550_3
  6
Continuous
 62
     7
 48
25.4
100
AcDbLine
 10
36.21276642264456
 20
-32.17433132054384
 30
0.0
 11
36.41032243033715
 21
-32.17433132054384
 31
0.0
  0
LINE
  5
E0E00001CB12
330
E0E00001C8CD
100
AcDbEntity
  8
AK(Z)-1550_3
  6
Continuous
 62
     7
 48
25.4
100
AcDbLine
 10
36.21276642264456
 20
-32.17433132054384
 30
0.0
 11
36.21276642264456
 21
-37.43112643496579
 31
0.0
  0
LINE
  5
E0E00001CB13
330
E0E00001C8CD
100
AcDbEntity
  8
AK(Z)-1550_3
  6
Continuous
 62
     7
 48
25.4
100
AcDbLine
 10
36.21276642264456
 20
-37.43112643496579
 30
0.0
 11
34.10967018885913
 21
-37.43112643496579
 31
0.0
  0
LINE
  5
E0E00001CB14
330
E0E00001C8CD
100
AcDbEntity
  8
AK(Z)-1550_3
  6
Continuous
 62
     7
 48
25.4
100
AcDbLine
 10
40.22140288252376
 20
-37.43112643496579
 30
0.0
 11
38.11830664873924
 21
-37.43112643496579
 31
0.0
  0
LINE
  5
E0E00001CB15
330
E0E00001C8CD
100
AcDbEntity
  8
AK(Z)-1550_3
  6
Continuous
 62
     7
 48
25.4
100
AcDbLine
 10
37.92075064104574
 20
-37.43112643496579
 30
0.0
 11
37.92075064104574
 21
-32.17433132054384
 31
0.0
  0
LINE
  5
E0E00001CB16
330
E0E00001C8CD
100
AcDbEntity
  8
AK(Z)-1550_3
  6
Continuous
 62
     7
 48
25.4
100
AcDbLine
 10
37.92075064104574
 20
-32.17433132054384
 30
0.0
 11
38.11830664873924
 21
-32.17433132054384
 31
0.0
  0
LINE
  5
E0E00001CB17
330
E0E00001C8CD
100
AcDbEntity
  8
AK(Z)-1550_3
  6
Continuous
 62
     7
 48
25.4
100
AcDbLine
 10
40.22140288252376
 20
-32.17433132054384
 30
0.0
 11
40.22140288252376
 21
-37.43112643496579
 31
0.0
  0
LINE
  5
E0E00001CB18
330
E0E00001C8CD
100
AcDbEntity
  8
AK(Z)-1550_3
  6
Continuous
 62
     7
 48
25.4
100
AcDbLine
 10
37.36809396130047
 20
-31.97069958845896
 30
0.0
 11
37.92075064104574
 21
-32.17433132054384
 31
0.0
  0
LINE
  5
E0E00001CB19
330
E0E00001C8CD
100
AcDbEntity
  8
AK(Z)-1550_3
  6
Continuous
 62
     7
 48
25.4
100
AcDbLine
 10
37.36809396130047
 20
-38.26670147211689
 30
0.0
 11
37.36809396130047
 21
-31.97069958845896
 31
0.0
  0
LINE
  5
E0E00001CB1A
330
E0E00001C8CD
100
AcDbEntity
  8
AK(Z)-1550_3
  6
Continuous
 62
     7
 48
25.4
100
AcDbLine
 10
40.77405956226903
 20
-31.97069958845896
 30
0.0
 11
40.22140288252376
 21
-32.17433132054384
 31
0.0
  0
LINE
  5
E0E00001CB1B
330
E0E00001C8CD
100
AcDbEntity
  8
AK(Z)-1550_3
  6
Continuous
 62
     7
 48
25.4
100
AcDbLine
 10
37.36809396130047
 20
-31.97069958845896
 30
0.0
 11
40.77405956226903
 21
-31.97069958845896
 31
0.0
  0
LINE
  5
E0E00001CB1C
330
E0E00001C8CD
100
AcDbEntity
  8
AK(Z)-1550_3
  6
Continuous
 62
     7
 48
25.4
100
AcDbLine
 10
40.77405956226903
 20
-38.26670147211689
 30
0.0
 11
40.22140288252376
 21
-37.43112643496579
 31
0.0
  0
LINE
  5
E0E00001CB1D
330
E0E00001C8CD
100
AcDbEntity
  8
AK(Z)-1550_3
  6
Continuous
 62
     7
 48
25.4
100
AcDbLine
 10
40.77405956226903
 20
-31.97069958845896
 30
0.0
 11
40.77405956226903
 21
-38.26670147211689
 31
0.0
  0
LINE
  5
E0E00001CB1E
330
E0E00001C8CD
100
AcDbEntity
  8
AK(Z)-1550_3
  6
Continuous
 62
     7
 48
25.4
100
AcDbLine
 10
40.77405956226903
 20
-38.26670147211689
 30
0.0
 11
37.36809396130047
 21
-38.26670147211689
 31
0.0
  0
LINE
  5
E0E00001CB1F
330
E0E00001C8CD
100
AcDbEntity
  8
AK(Z)-1550_3
  6
Continuous
 62
     7
 48
25.4
100
AcDbLine
 10
37.36809396130047
 20
-38.26670147211689
 30
0.0
 11
37.92075064104574
 21
-37.43112643496579
 31
0.0
  0
LINE
  5
E0E00001CB20
330
E0E00001C8CD
100
AcDbEntity
  8
AK(Z)-1550_3
  6
Continuous
 62
     7
 48
25.4
100
AcDbLine
 10
38.11830664873924
 20
-37.43112643496579
 30
0.0
 11
37.92075064104574
 21
-37.43112643496579
 31
0.0
  0
LINE
  5
E0E00001CB21
330
E0E00001C8CD
100
AcDbEntity
  8
AK(Z)-1550_3
  6
Continuous
 62
     7
 48
25.4
100
AcDbLine
 10
38.11830664873924
 20
-37.43112643496579
 30
0.0
 11
38.11830664873924
 21
-32.17433132054384
 31
0.0
  0
LINE
  5
E0E00001CB22
330
E0E00001C8CD
100
AcDbEntity
  8
AK(Z)-1550_3
  6
Continuous
 62
     7
 48
25.4
100
AcDbLine
 10
40.22140288252376
 20
-32.17433132054384
 30
0.0
 11
38.11830664873924
 21
-32.17433132054384
 31
0.0
  0
LINE
  5
E0E00001CB23
330
E0E00001C8CD
100
AcDbEntity
  8
AK(Z)-1550_3
  6
Continuous
 62
     7
 48
25.4
100
AcDbLine
 10
43.83492732701779
 20
-37.43112643496579
 30
0.0
 11
44.03248333470947
 21
-37.43112643496579
 31
0.0
  0
LINE
  5
E0E00001CB24
330
E0E00001C8CD
100
AcDbEntity
  8
AK(Z)-1550_3
  6
Continuous
 62
     7
 48
25.4
100
AcDbLine
 10
44.03248333470947
 20
-37.43112643496579
 30
0.0
 11
44.03248333470947
 21
-32.17433132054384
 31
0.0
  0
LINE
  5
E0E00001CB25
330
E0E00001C8CD
100
AcDbEntity
  8
AK(Z)-1550_3
  6
Continuous
 62
     7
 48
25.4
100
AcDbLine
 10
44.03248333470947
 20
-32.17433132054384
 30
0.0
 11
43.83492732701779
 21
-32.17433132054384
 31
0.0
  0
LINE
  5
E0E00001CB26
330
E0E00001C8CD
100
AcDbEntity
  8
AK(Z)-1550_3
  6
Continuous
 62
     7
 48
25.4
100
AcDbLine
 10
44.58514001445656
 20
-31.97069958845896
 30
0.0
 11
44.03248333470947
 21
-32.17433132054384
 31
0.0
  0
LINE
  5
E0E00001CB27
330
E0E00001C8CD
100
AcDbEntity
  8
AK(Z)-1550_3
  6
Continuous
 62
     7
 48
25.4
100
AcDbLine
 10
44.58514001445656
 20
-38.26670147211689
 30
0.0
 11
44.58514001445656
 21
-31.97069958845896
 31
0.0
  0
LINE
  5
E0E00001CB28
330
E0E00001C8CD
100
AcDbEntity
  8
AK(Z)-1550_3
  6
Continuous
 62
     7
 48
25.4
100
AcDbLine
 10
41.17917441348618
 20
-31.97069958845896
 30
0.0
 11
41.73183109323327
 21
-32.17433132054384
 31
0.0
  0
LINE
  5
E0E00001CB29
330
E0E00001C8CD
100
AcDbEntity
  8
AK(Z)-1550_3
  6
Continuous
 62
     7
 48
25.4
100
AcDbLine
 10
41.73183109323327
 20
-32.17433132054384
 30
0.0
 11
43.83492732701779
 21
-32.17433132054384
 31
0.0
  0
LINE
  5
E0E00001CB2A
330
E0E00001C8CD
100
AcDbEntity
  8
AK(Z)-1550_3
  6
Continuous
 62
     7
 48
25.4
100
AcDbLine
 10
44.58514001445656
 20
-31.97069958845896
 30
0.0
 11
41.17917441348618
 21
-31.97069958845896
 31
0.0
  0
LINE
  5
E0E00001CB2B
330
E0E00001C8CD
100
AcDbEntity
  8
AK(Z)-1550_3
  6
Continuous
 62
     7
 48
25.4
100
AcDbLine
 10
41.17917441348618
 20
-38.26670147211689
 30
0.0
 11
41.73183109323327
 21
-37.43112643496579
 31
0.0
  0
LINE
  5
E0E00001CB2C
330
E0E00001C8CD
100
AcDbEntity
  8
AK(Z)-1550_3
  6
Continuous
 62
     7
 48
25.4
100
AcDbLine
 10
41.17917441348618
 20
-31.97069958845896
 30
0.0
 11
41.17917441348618
 21
-38.26670147211689
 31
0.0
  0
LINE
  5
E0E00001CB2D
330
E0E00001C8CD
100
AcDbEntity
  8
AK(Z)-1550_3
  6
Continuous
 62
     7
 48
25.4
100
AcDbLine
 10
41.17917441348618
 20
-38.26670147211689
 30
0.0
 11
44.58514001445656
 21
-38.26670147211689
 31
0.0
  0
LINE
  5
E0E00001CB2E
330
E0E00001C8CD
100
AcDbEntity
  8
AK(Z)-1550_3
  6
Continuous
 62
     7
 48
25.4
100
AcDbLine
 10
44.58514001445656
 20
-38.26670147211689
 30
0.0
 11
44.03248333470947
 21
-37.43112643496579
 31
0.0
  0
LINE
  5
E0E00001CB2F
330
E0E00001C8CD
100
AcDbEntity
  8
AK(Z)-1550_3
  6
Continuous
 62
     7
 48
25.4
100
AcDbLine
 10
41.73183109323327
 20
-32.17433132054384
 30
0.0
 11
41.73183109323327
 21
-37.43112643496579
 31
0.0
  0
LINE
  5
E0E00001CB30
330
E0E00001C8CD
100
AcDbEntity
  8
AK(Z)-1550_3
  6
Continuous
 62
     7
 48
25.4
100
AcDbLine
 10
41.73183109323327
 20
-37.43112643496579
 30
0.0
 11
43.83492732701779
 21
-37.43112643496579
 31
0.0
  0
LINE
  5
E0E00001CB31
330
E0E00001C8CD
100
AcDbEntity
  8
AK(Z)-1550_3
  6
Continuous
 62
     7
 48
25.4
100
AcDbLine
 10
43.83492732701779
 20
-37.43112643496579
 30
0.0
 11
43.83492732701779
 21
-32.17433132054384
 31
0.0
  0
LINE
  5
E0E00001CB32
330
E0E00001C8CD
100
AcDbEntity
  8
AK(Z)-1550_3
  6
Continuous
 62
     7
 48
25.4
100
AcDbLine
 10
44.78769744006513
 20
-38.66681490541714
 30
0.0
 11
33.35445608350528
 21
-38.66681490541714
 31
0.0
  0
LINE
  5
E0E00001CB33
330
E0E00001C8CD
100
AcDbEntity
  8
AK(Z)-1550_3
  6
Continuous
 62
     7
 48
25.4
100
AcDbLine
 10
44.78769744006513
 20
-38.66681490541714
 30
0.0
 11
44.78769744006513
 21
-31.57058615515871
 31
0.0
  0
LINE
  5
E0E00001CB34
330
E0E00001C8CD
100
AcDbEntity
  8
AK(Z)-1550_3
  6
Continuous
 62
     7
 48
25.4
100
AcDbLine
 10
44.78769744006513
 20
-38.66681490541714
 30
0.0
 11
44.78769744006513
 21
-42.35230721063272
 31
0.0
  0
LINE
  5
E0E00001CB35
330
E0E00001C8CD
100
AcDbEntity
  8
AK(Z)-1550_3
  6
Continuous
 62
     7
 48
25.4
100
AcDbLine
 10
44.78769744006513
 20
-42.35230721063272
 30
0.0
 11
44.78769744006513
 21
-42.67373392924492
 31
0.0
  0
TEXT
  5
E0E00001CB36
330
E0E00001C8CD
100
AcDbEntity
  8
Predeterminado
  6
Continuous
 62
     7
 48
25.4
100
AcDbText
 10
26.22783067164391
 20
-2.689115168081281
 30
0.0
 40
5.001156947788042
  1
PER1
  7
SEACAD_arial_ttfB
 11
26.22783067164391
 21
2.31204177970676
 31
0.0
100
AcDbText
 73
     3
1001
AcDbBlockRepETag
1070
     1
1071
     1071
1005
0
  0
ENDBLK
  5
E0E00001CB37
330
E0E00001C8CD
100
AcDbEntity
  8
0
100
AcDbBlockEnd
  0
BLOCK
  5
E0E00001CC6C
330
E0E00001CC62
100
AcDbEntity
  8
0
100
AcDbBlockBegin
  2
*D20
 70
     1
 10
0.0
 20
0.0
 30
0.0
  3
*D20
  1

  0
LINE
  5
E0E00001CC7A
330
E0E00001CC62
100
AcDbEntity
  8
0
 62
     0
370
    -2
100
AcDbLine
 10
-1758.871065989468
 20
-2065.187129981733
 30
0.0
 11
-1758.871065989468
 21
-2051.917469435119
 31
0.0
  0
LINE
  5
E0E00001CC7B
330
E0E00001CC62
100
AcDbEntity
  8
0
 62
     0
370
    -2
100
AcDbLine
 10
-1688.851215161896
 20
-2065.187129981733
 30
0.0
 11
-1688.851215161896
 21
-2051.917469435119
 31
0.0
  0
LINE
  5
E0E00001CC7C
330
E0E00001CC62
100
AcDbEntity
  8
0
 62
     0
370
    -2
100
AcDbLine
 10
-1748.871065989468
 20
-2052.097469435118
 30
0.0
 11
-1698.851215161896
 21
-2052.097469435118
 31
0.0
  0
INSERT
  5
E0E00001CC7D
330
E0E00001CC62
100
AcDbEntity
  8
0
 62
     0
370
    -2
100
AcDbBlockReference
  2
VDDIM_DEFAULT
 10
-1758.871065989468
 20
-2052.097469435118
 30
0.0
 41
10.0
 42
10.0
 43
10.0
 50
180.0
  0
INSERT
  5
E0E00001CC7E
330
E0E00001CC62
100
AcDbEntity
  8
0
 62
     0
370
    -2
100
AcDbBlockReference
  2
VDDIM_DEFAULT
 10
-1688.851215161896
 20
-2052.097469435118
 30
0.0
 41
10.0
 42
10.0
 43
10.0
  0
MTEXT
  5
E0E00001CC7F
330
E0E00001CC62
100
AcDbEntity
  8
0
 62
     0
100
AcDbMText
 10
-1723.861140575682
 20
-2046.978328916701
 30
0.0
 40
10.0
 41
0.0
 71
     5
 72
     1
  1
\A1;70
 73
     1
 44
1.0
  0
POINT
  5
E0E00001CC80
330
E0E00001CC62
100
AcDbEntity
  8
Defpoints
 62
     0
100
AcDbPoint
 10
-1758.871065989468
 20
-2065.249629981733
 30
0.0
  0
POINT
  5
E0E00001CC81
330
E0E00001CC62
100
AcDbEntity
  8
Defpoints
 62
     0
100
AcDbPoint
 10
-1688.851215161896
 20
-2065.249629981733
 30
0.0
  0
POINT
  5
E0E00001CC82
330
E0E00001CC62
100
AcDbEntity
  8
Defpoints
 62
     0
100
AcDbPoint
 10
-1688.851215161896
 20
-2052.097469435118
 30
0.0
  0
ENDBLK
  5
E0E00001CC6D
330
E0E00001CC62
100
AcDbEntity
  8
0
100
AcDbBlockEnd
  0
BLOCK
  5
E0E00001CC78
330
E0E00001CC6E
100
AcDbEntity
  8
0
100
AcDbBlockBegin
  2
*D21
 70
     1
 10
0.0
 20
0.0
 30
0.0
  3
*D21
  1

  0
LINE
  5
E0E00001CC83
330
E0E00001CC6E
100
AcDbEntity
  8
0
 62
     0
370
    -2
100
AcDbLine
 10
-1756.933303519035
 20
-2063.2493675113
 30
0.0
 11
-1772.175598786665
 21
-2063.2493675113
 31
0.0
  0
LINE
  5
E0E00001CC84
330
E0E00001CC6E
100
AcDbEntity
  8
0
 62
     0
370
    -2
100
AcDbLine
 10
-1756.933303519036
 20
-2153.274890003893
 30
0.0
 11
-1772.175598786665
 21
-2153.274890003893
 31
0.0
  0
LINE
  5
E0E00001CC85
330
E0E00001CC6E
100
AcDbEntity
  8
0
 62
     0
370
    -2
100
AcDbLine
 10
-1771.995598786665
 20
-2073.2493675113
 30
0.0
 11
-1771.995598786665
 21
-2143.274890003893
 31
0.0
  0
INSERT
  5
E0E00001CC86
330
E0E00001CC6E
100
AcDbEntity
  8
0
 62
     0
370
    -2
100
AcDbBlockReference
  2
VDDIM_DEFAULT
 10
-1771.995598786665
 20
-2063.2493675113
 30
0.0
 41
10.0
 42
10.0
 43
10.0
 50
90.0
  0
INSERT
  5
E0E00001CC87
330
E0E00001CC6E
100
AcDbEntity
  8
0
 62
     0
370
    -2
100
AcDbBlockReference
  2
VDDIM_DEFAULT
 10
-1771.995598786665
 20
-2153.274890003893
 30
0.0
 41
10.0
 42
10.0
 43
10.0
 50
270.0
  0
MTEXT
  5
E0E00001CC88
330
E0E00001CC6E
100
AcDbEntity
  8
0
 62
     0
100
AcDbMText
 10
-1777.114739305082
 20
-2108.262128757597
 30
0.0
 40
10.0
 41
0.0
 71
     5
 72
     1
  1
\A1;90
 11
6.123233995736766E-17
 21
1.0
 31
0.0
 73
     1
 44
1.0
  0
POINT
  5
E0E00001CC89
330
E0E00001CC6E
100
AcDbEntity
  8
Defpoints
 62
     0
100
AcDbPoint
 10
-1756.870803519035
 20
-2063.2493675113
 30
0.0
  0
POINT
  5
E0E00001CC8A
330
E0E00001CC6E
100
AcDbEntity
  8
Defpoints
 62
     0
100
AcDbPoint
 10
-1756.870803519036
 20
-2153.274890003893
 30
0.0
  0
POINT
  5
E0E00001CC8B
330
E0E00001CC6E
100
AcDbEntity
  8
Defpoints
 62
     0
100
AcDbPoint
 10
-1771.995598786665
 20
-2153.274890003893
 30
0.0
  0
ENDBLK
  5
E0E00001CC79
330
E0E00001CC6E
100
AcDbEntity
  8
0
100
AcDbBlockEnd
  0
ENDSEC
  0
SECTION
  2
ENTITIES
  0
INSERT
  5
E0E00000EA75
330
C35C
100
AcDbEntity
  8
0
100
AcDbBlockReference
  2
COTE
 10
-1173.998722688419
 20
-1677.095146853732
 30
0.0
  0
INSERT
  5
E0E00000EA76
330
C35C
100
AcDbEntity
  8
0
100
AcDbBlockReference
  2
FOND
 10
-1173.998722688419
 20
-1677.095146853732
 30
0.0
  0
INSERT
  5
E0E00001CC5F
330
C35C
100
AcDbEntity
  8
0
100
AcDbBlockReference
  2
PER1
 10
-1758.871065989468
 20
-2108.262128757596
 30
0.0
  0
LINE
  5
E0E00001CCB5
330
C35C
100
AcDbEntity
  8
0
100
AcDbLine
 10
-1758.871065989468
 20
-2065.187129981733
 30
0.0
 11
-1758.871065989468
 21
-2051.917469435119
 31
0.0
  0
LINE
  5
E0E00001CCB6
330
C35C
100
AcDbEntity
  8
0
100
AcDbLine
 10
-1688.851215161896
 20
-2065.187129981733
 30
0.0
 11
-1688.851215161896
 21
-2051.917469435119
 31
0.0
  0
LINE
  5
E0E00001CCB7
330
C35C
100
AcDbEntity
  8
0
100
AcDbLine
 10
-1748.871065989468
 20
-2052.097469435118
 30
0.0
 11
-1698.851215161896
 21
-2052.097469435118
 31
0.0
  0
INSERT
  5
E0E00001CCB8
330
C35C
100
AcDbEntity
  8
0
100
AcDbBlockReference
  2
VDDIM_DEFAULT
 10
-1758.871065989468
 20
-2052.097469435118
 30
0.0
 41
10.0
 42
10.0
 43
10.0
 50
180.0
  0
INSERT
  5
E0E00001CCB9
330
C35C
100
AcDbEntity
  8
0
100
AcDbBlockReference
  2
VDDIM_DEFAULT
 10
-1688.851215161896
 20
-2052.097469435118
 30
0.0
 41
10.0
 42
10.0
 43
10.0
  0
MTEXT
  5
E0E00001CCBA
330
C35C
100
AcDbEntity
  8
0
100
AcDbMText
 10
-1723.861140575682
 20
-2046.978328916701
 30
0.0
 40
10.0
 41
0.0
 71
     5
 72
     1
  1
\A1;70
 73
     1
 44
1.0
  0
LINE
  5
E0E00001CCBB
330
C35C
100
AcDbEntity
  8
0
100
AcDbLine
 10
-1756.933303519035
 20
-2063.2493675113
 30
0.0
 11
-1772.175598786665
 21
-2063.2493675113
 31
0.0
  0
LINE
  5
E0E00001CCBC
330
C35C
100
AcDbEntity
  8
0
100
AcDbLine
 10
-1756.933303519036
 20
-2153.274890003893
 30
0.0
 11
-1772.175598786665
 21
-2153.274890003893
 31
0.0
  0
LINE
  5
E0E00001CCBD
330
C35C
100
AcDbEntity
  8
0
100
AcDbLine
 10
-1771.995598786665
 20
-2073.2493675113
 30
0.0
 11
-1771.995598786665
 21
-2143.274890003893
 31
0.0
  0
INSERT
  5
E0E00001CCBE
330
C35C
100
AcDbEntity
  8
0
100
AcDbBlockReference
  2
VDDIM_DEFAULT
 10
-1771.995598786665
 20
-2063.2493675113
 30
0.0
 41
10.0
 42
10.0
 43
10.0
 50
90.0
  0
INSERT
  5
E0E00001CCBF
330
C35C
100
AcDbEntity
  8
0
100
AcDbBlockReference
  2
VDDIM_DEFAULT
 10
-1771.995598786665
 20
-2153.274890003893
 30
0.0
 41
10.0
 42
10.0
 43
10.0
 50
270.0
  0
MTEXT
  5
E0E00001CCC0
330
C35C
100
AcDbEntity
  8
0
100
AcDbMText
 10
-1777.114739305082
 20
-2108.262128757597
 30
0.0
 40
10.0
 41
0.0
 71
     5
 72
     1
  1
\A1;90
 11
6.123233995736766E-17
 21
1.0
 31
0.0
 73
     1
 44
1.0
  0
VIEWPORT
  5
E0E00000E20F
102
{ACAD_XDICTIONARY
360
E0E00001CCC9
102
}
330
C358
100
AcDbEntity
 67
     1
  8
0
 60
     1
100
AcDbViewport
 10
210.0
 20
148.5
 30
0.0
 40
297.0
 41
297.0
 69
     1
 12
210.0
 22
148.5
 13
0.0
 23
0.0
 14
1.0
 24
1.0
 15
0.0
 25
0.0
 16
0.0
 26
0.0
 36
1.0
 17
0.0
 27
0.0
 37
0.0
 42
0.0
 43
0.0
 44
0.0
 45
297.0
 50
0.0
 51
360.0000000000008
 72
   100
 90
   163872
  1

281
     0
 71
     0
 74
     0
110
0.0
120
0.0
130
0.0
111
1.0
121
0.0
131
0.0
112
0.0
122
1.0
132
0.0
 79
     0
146
0.0
1001
VD_INVISIBLE_NOT_FOR_READ
1000
VD_INVISIBLE_NOT_FOR_READ
  0
VIEWPORT
  5
E0E00000E210
102
{ACAD_XDICTIONARY
360
E0E00001CCCB
102
}
330
C358
100
AcDbEntity
 67
     1
  8
0
 60
     1
100
AcDbViewport
 10
210.0
 20
148.5
 30
0.0
 40
297.0
 41
297.0
 69
    -1
 12
210.0
 22
148.5
 13
0.0
 23
0.0
 14
1.0
 24
1.0
 15
0.0
 25
0.0
 16
0.0
 26
0.0
 36
1.0
 17
0.0
 27
0.0
 37
0.0
 42
0.0
 43
0.0
 44
0.0
 45
297.0
 50
0.0
 51
360.0000000000008
 72
   100
 90
   163872
  1

281
     0
 71
     0
 74
     0
110
0.0
120
0.0
130
0.0
111
1.0
121
0.0
131
0.0
112
0.0
122
1.0
132
0.0
 79
     0
146
0.0
1001
VD_INVISIBLE_NOT_FOR_READ
1000
VD_INVISIBLE_NOT_FOR_READ
  0
ENDSEC
  0
SECTION
  2
OBJECTS
  0
DICTIONARY
  5
C349
330
0
100
AcDbDictionary
281
     1
  3
ACAD_COLOR
350
E0E00000E216
  3
ACAD_GROUP
350
C34A
  3
ACAD_LAYOUT
350
C357
  3
ACAD_MATERIAL
350
E0E00000E215
  3
ACAD_MLEADERSTYLE
350
E0E000011F89
  3
ACAD_MLINESTYLE
350
C354
  3
ACAD_PLOTSETTINGS
350
C356
  3
ACAD_PLOTSTYLENAME
350
C34B
  3
ACAD_SCALELIST
350
E0E000011F67
  3
ACAD_TABLESTYLE
350
E0E00000E217
  3
ACAD_VISUALSTYLE
350
E0E000011F56
  3
ACDBHEADERROUNDTRIPXREC
350
E0E00001CCC5
  3
AcDbVariableDictionary
350
E0E00000EADD
  3
DWGPROPS
350
E0E00001CCC8
  3
VECTORDRAW_OBJECTS
350
C36C
  0
DICTIONARY
  5
E0E00001CCCD
330
C345
100
AcDbDictionary
280
     1
281
     1
  3
ACAD_XREC_ROUNDTRIP
360
E0E00001CCCE
  0
DICTIONARY
  5
E0E00000F818
330
C33F
100
AcDbDictionary
280
     1
281
     1
  3
ACAD_LAYERFILTERS
360
E0E00001CC8D
  3
ACAD_LAYERSTATES
360
E0E00000F819
  3
ACLYDICTIONARY
360
E0E00001CC8C
  0
DICTIONARY
  5
E0E000011FBD
330
C34D
100
AcDbDictionary
280
     1
281
     1
  3
ADSK_XREC_LAYER_RECONCILED
360
E0E000011FBE
  0
DICTIONARY
  5
E0E00000F55C
330
E0E00000F55B
100
AcDbDictionary
280
     1
281
     1
  3
ADSK_XREC_LAYER_RECONCILED
360
E0E00000F55E
  0
DICTIONARY
  5
E0E00000F560
330
E0E00000F55F
100
AcDbDictionary
280
     1
281
     1
  3
ADSK_XREC_LAYER_RECONCILED
360
E0E00000F562
  0
DICTIONARY
  5
E0E00000F580
330
E0E00000F57F
100
AcDbDictionary
280
     1
281
     1
  3
ADSK_XREC_LAYER_RECONCILED
360
E0E00000F582
  0
DICTIONARY
  5
E0E00000F7E4
330
E0E00000F7E3
100
AcDbDictionary
280
     1
281
     1
  3
ADSK_XREC_LAYER_RECONCILED
360
E0E00000F7E6
  0
DICTIONARY
  5
E0E00000F7E8
330
E0E00000F7E7
100
AcDbDictionary
280
     1
281
     1
  3
ADSK_XREC_LAYER_RECONCILED
360
E0E00000F7EA
  0
DICTIONARY
  5
E0E00000F7F4
330
E0E00000F7F3
100
AcDbDictionary
280
     1
281
     1
  3
ADSK_XREC_LAYER_RECONCILED
360
E0E00000F7F6
  0
DICTIONARY
  5
E0E00000F7FC
330
E0E00000F7FB
100
AcDbDictionary
280
     1
281
     1
  3
ADSK_XREC_LAYER_RECONCILED
360
E0E00000F7FE
  0
DICTIONARY
  5
E0E00000F800
330
E0E00000F7FF
100
AcDbDictionary
280
     1
281
     1
  3
ADSK_XREC_LAYER_RECONCILED
360
E0E00000F802
  0
DICTIONARY
  5
E0E00000F804
330
E0E00000F803
100
AcDbDictionary
280
     1
281
     1
  3
ADSK_XREC_LAYER_RECONCILED
360
E0E00000F806
  0
DICTIONARY
  5
E0E00000E95E
330
C35C
100
AcDbDictionary
280
     1
281
     1
  3
ACAD_SORTENTS
360
E0E00000E95F
  0
DICTIONARY
  5
E0E00001CCC9
330
E0E00000E20F
100
AcDbDictionary
280
     1
281
     1
  3
ACAD_XREC_ROUNDTRIP
360
E0E00001CCCA
  0
DICTIONARY
  5
E0E00001CCCB
330
E0E00000E210
100
AcDbDictionary
280
     1
281
     1
  3
ACAD_XREC_ROUNDTRIP
360
E0E00001CCCC
  0
DICTIONARY
  5
E0E00000E216
102
{ACAD_REACTORS
330
C349
102
}
330
C349
100
AcDbDictionary
281
     1
  0
DICTIONARY
  5
C34A
102
{ACAD_REACTORS
330
C349
102
}
330
C349
100
AcDbDictionary
281
     1
  0
DICTIONARY
  5
C357
102
{ACAD_REACTORS
330
C349
102
}
330
C349
100
AcDbDictionary
281
     1
  3
Layout2
350
C363
  3
Model
350
C35F
  3
Presentación1
350
C35B
  0
DICTIONARY
  5
E0E00000E215
102
{ACAD_REACTORS
330
C349
102
}
330
C349
100
AcDbDictionary
281
     1
  3
ByBlock
350
E0E000011F4E
  3
ByLayer
350
E0E000011F46
  3
Global
350
E0E00000ED91
  0
DICTIONARY
  5
E0E000011F89
102
{ACAD_REACTORS
330
C349
102
}
330
C349
100
AcDbDictionary
281
     1
  3
Standard
350
E0E000011F8A
  0
DICTIONARY
  5
C354
102
{ACAD_REACTORS
330
C349
102
}
330
C349
100
AcDbDictionary
281
     1
  3
Standard
350
C355
  0
DICTIONARY
  5
C356
102
{ACAD_REACTORS
330
C349
102
}
330
C349
100
AcDbDictionary
281
     1
  0
ACDBDICTIONARYWDFLT
  5
C34B
102
{ACAD_REACTORS
330
C349
102
}
330
C349
100
AcDbDictionary
281
     1
  3
Normal
350
C34C
100
AcDbDictionaryWithDefault
340
C34C
  0
DICTIONARY
  5
E0E000011F67
102
{ACAD_REACTORS
330
C349
102
}
330
C349
100
AcDbDictionary
281
     1
  3
A0
350
E0E000011F68
  3
A1
350
E0E000011F69
  3
A2
350
E0E000011F6A
  3
A3
350
E0E000011F6B
  3
A4
350
E0E000011F6C
  3
A5
350
E0E000011F6D
  3
A6
350
E0E000011F6E
  3
A7
350
E0E000011F6F
  3
A8
350
E0E000011F70
  3
A9
350
E0E000011F71
  3
B0
350
E0E000011F72
  3
B1
350
E0E000011F73
  3
B2
350
E0E000011F74
  3
B3
350
E0E000011F75
  3
B4
350
E0E000011F76
  3
B5
350
E0E000011F77
  3
B6
350
E0E000011F78
  3
B7
350
E0E000011F79
  3
B8
350
E0E000011F7A
  3
B9
350
E0E000011F7B
  3
C0
350
E0E000011F7C
  3
C1
350
E0E000011F7D
  3
C2
350
E0E000011F7E
  3
C3
350
E0E000011F7F
  3
C4
350
E0E000011F80
  3
C5
350
E0E000011F81
  3
C6
350
E0E000011F82
  3
C7
350
E0E000011F83
  3
C8
350
E0E000011F84
  3
C9
350
E0E000011F85
  3
D0
350
E0E000011F86
  3
D1
350
E0E000011F87
  3
D2
350
E0E000011F88
  0
DICTIONARY
  5
E0E00000E217
102
{ACAD_REACTORS
330
C349
102
}
330
C349
100
AcDbDictionary
281
     1
  3
Standard
350
E0E00000E218
  0
DICTIONARY
  5
E0E000011F56
102
{ACAD_REACTORS
330
C349
102
}
330
C349
100
AcDbDictionary
281
     1
  3
2dWireframe
350
E0E000011F5C
  3
3D Hidden
350
E0E000011F5E
  3
3dWireframe
350
E0E000011F5D
  3
Basic
350
E0E000011F5B
  3
Brighten
350
E0E000011F62
  3
ColorChange
350
E0E000011F66
  3
Conceptual
350
E0E000011F5F
  3
Dim
350
E0E000011F61
  3
EdgeColorOff
350
E0E00001CCAF
  3
Facepattern
350
E0E000011F65
  3
Flat
350
E0E000011F57
  3
FlatWithEdges
350
E0E000011F58
  3
Gouraud
350
E0E000011F59
  3
GouraudWithEdges
350
E0E000011F5A
  3
Hidden
350
E0E00001CCAC
  3
JitterOff
350
E0E00001CCAD
  3
Linepattern
350
E0E000011F64
  3
OverhangOff
350
E0E00001CCAE
  3
Realistic
350
E0E000011F60
  3
Shaded
350
E0E00001CCB4
  3
Shaded with edges
350
E0E00001CCB3
  3
Shades of Gray
350
E0E00001CCB0
  3
Sketchy
350
E0E00001CCB1
  3
Thicken
350
E0E000011F63
  3
Wireframe
350
E0E00001CCAB
  3
X-Ray
350
E0E00001CCB2
  0
DICTIONARY
  5
E0E00001CCC5
102
{ACAD_REACTORS
330
C349
102
}
330
C349
100
AcDbDictionary
281
     1
  3
COLORDICT
350
E0E00001CCC6
  3
MATERIALDICT
350
E0E00001CCC7
  0
DICTIONARY
  5
E0E00000EADD
102
{ACAD_REACTORS
330
C349
102
}
330
C349
100
AcDbDictionary
281
     1
  3
CANNOSCALE
350
E0E0000120B9
  3
CMLEADERSTYLE
350
E0E0000120B8
  3
CTABLESTYLE
350
E0E00000EADE
  3
DIMASSOC
350
E0E000011E77
  3
HIDETEXT
350
E0E00001CCC1
  3
LIGHTINGUNITS
350
E0E00001CB88
  3
MSLTSCALE
350
E0E00001CB87
  3
PROJECTNAME
350
E0E000011E78
  3
XCLIPFRAME
350
E0E00001CCC2
  0
XRECORD
  5
E0E00001CCC8
102
{ACAD_REACTORS
330
C349
102
}
330
C349
100
AcDbXrecord
280
     1
  1
DWGPROPS COOKIE
  2

  3

  4

  6

  7

  8
acae2
  9

300
=
301
=
302
=
303
=
304
=
305
=
306
=
307
=
308
=
309
=
 40
0.0
 41
2454476.485946157
 42
2460301.620160775
  1

 90
        0
  0
DICTIONARY
  5
C36C
102
{ACAD_REACTORS
330
C349
102
}
330
C349
100
AcDbDictionary
281
     1
  3
SERIALNO
350
C36D
  0
XRECORD
  5
E0E00001CCCE
102
{ACAD_REACTORS
330
E0E00001CCCD
102
}
330
E0E00001CCCD
100
AcDbXrecord
280
     1
102
VTR_0.000_0.000_1.000_1.000_VISUALSTYLE
340
E0E000011F5C
102
VTR_0.000_0.000_1.000_1.000_GRIDDISPLAY
 70
     3
102
VTR_0.000_0.000_1.000_1.000_GRIDMAJOR
 70
     5
102
VTR_0.000_0.000_1.000_1.000_DEFAULTLIGHTING
280
     1
102
VTR_0.000_0.000_1.000_1.000_DEFAULTLIGHTINGTYPE
 70
     1
102
VTR_0.000_0.000_1.000_1.000_BRIGHTNESS
141
0.0
102
VTR_0.000_0.000_1.000_1.000_CONTRAST
142
0.0
  0
DICTIONARY
  5
E0E00001CC8D
102
{ACAD_REACTORS
330
E0E00000F818
102
}
330
E0E00000F818
100
AcDbDictionary
281
     1
  0
DICTIONARY
  5
E0E00000F819
102
{ACAD_REACTORS
330
E0E00000F818
102
}
330
E0E00000F818
100
AcDbDictionary
281
     1
  0
DICTIONARY
  5
E0E00001CC8C
102
{ACAD_REACTORS
330
E0E00000F818
102
}
330
E0E00000F818
100
AcDbDictionary
281
     1
1001
ACAD
1000
<All
  0
XRECORD
  5
E0E000011FBE
102
{ACAD_REACTORS
330
E0E000011FBD
102
}
330
E0E000011FBD
100
AcDbXrecord
280
     1
290
     1
  0
XRECORD
  5
E0E00000F55E
102
{ACAD_REACTORS
330
E0E00000F55C
102
}
330
E0E00000F55C
100
AcDbXrecord
280
     1
290
     1
  0
XRECORD
  5
E0E00000F562
102
{ACAD_REACTORS
330
E0E00000F560
102
}
330
E0E00000F560
100
AcDbXrecord
280
     1
290
     1
  0
XRECORD
  5
E0E00000F582
102
{ACAD_REACTORS
330
E0E00000F580
102
}
330
E0E00000F580
100
AcDbXrecord
280
     1
290
     1
  0
XRECORD
  5
E0E00000F7E6
102
{ACAD_REACTORS
330
E0E00000F7E4
102
}
330
E0E00000F7E4
100
AcDbXrecord
280
     1
290
     1
  0
XRECORD
  5
E0E00000F7EA
102
{ACAD_REACTORS
330
E0E00000F7E8
102
}
330
E0E00000F7E8
100
AcDbXrecord
280
     1
290
     1
  0
XRECORD
  5
E0E00000F7F6
102
{ACAD_REACTORS
330
E0E00000F7F4
102
}
330
E0E00000F7F4
100
AcDbXrecord
280
     1
290
     1
  0
XRECORD
  5
E0E00000F7FE
102
{ACAD_REACTORS
330
E0E00000F7FC
102
}
330
E0E00000F7FC
100
AcDbXrecord
280
     1
290
     1
  0
XRECORD
  5
E0E00000F802
102
{ACAD_REACTORS
330
E0E00000F800
102
}
330
E0E00000F800
100
AcDbXrecord
280
     1
290
     1
  0
XRECORD
  5
E0E00000F806
102
{ACAD_REACTORS
330
E0E00000F804
102
}
330
E0E00000F804
100
AcDbXrecord
280
     1
290
     1
  0
SORTENTSTABLE
  5
E0E00000E95F
102
{ACAD_REACTORS
330
E0E00000E95E
102
}
330
E0E00000E95E
100
AcDbSortentsTable
330
C35C
331
E0E00000EA75
  5
B5B0
331
E0E00000EA76
  5
E0E00000F7AB
  0
XRECORD
  5
E0E00001CCCA
102
{ACAD_REACTORS
330
E0E00001CCC9
102
}
330
E0E00001CCC9
100
AcDbXrecord
280
     1
102
VISUALSTYLE
340
E0E000011F5C
102
GRIDDISPLAY
 70
     0
102
GRIDMAJOR
 70
     5
102
DEFAULTLIGHTING
280
     1
102
DEFAULTLIGHTINGTYPE
 70
     1
102
BRIGHTNESS
141
0.0
102
CONTRAST
142
0.0
  0
XRECORD
  5
E0E00001CCCC
102
{ACAD_REACTORS
330
E0E00001CCCB
102
}
330
E0E00001CCCB
100
AcDbXrecord
280
     1
102
VISUALSTYLE
340
E0E000011F5C
102
GRIDDISPLAY
 70
     0
102
GRIDMAJOR
 70
     5
102
DEFAULTLIGHTING
280
     1
102
DEFAULTLIGHTINGTYPE
 70
     1
102
BRIGHTNESS
141
0.0
102
CONTRAST
142
0.0
  0
LAYOUT
  5
C363
102
{ACAD_REACTORS
330
C357
102
}
330
C357
100
AcDbPlotSettings
  1

  2

  4

  6

 40
0.0
 41
0.0
 42
0.0
 43
0.0
 44
0.0
 45
0.0
 46
0.0
 47
0.0
 48
0.0
 49
0.0
140
0.0
141
0.0
142
1.0
143
1.0
 70
   688
 72
     0
 73
     0
 74
     5
  7

 75
    16
147
1.0
148
0.0
149
0.0
100
AcDbLayout
  1
Layout2
 70
     1
 71
     2
 10
0.0
 20
0.0
 11
0.0
 21
0.0
 12
0.0
 22
0.0
 32
0.0
 14
0.0
 24
0.0
 34
0.0
 15
0.0
 25
0.0
 35
0.0
146
0.0
 13
0.0
 23
0.0
 33
0.0
 16
1.0
 26
0.0
 36
0.0
 17
0.0
 27
1.0
 37
0.0
 76
     0
330
C360
  0
LAYOUT
  5
C35F
102
{ACAD_REACTORS
330
C357
102
}
330
C357
100
AcDbPlotSettings
  1
VectorDraw Printer Drawing
  2
Adobe PDF
  4
A4
  6

 40
3.174999952316284
 41
3.174999952316284
 42
3.175003051757812
 43
3.17498779296875
 44
209.9733276367188
 45
297.0318298339844
 46
0.0
 47
0.0
 48
0.0
 49
0.0
140
0.0
141
0.0
142
1.0
143
1.958075487974208
 70
 11952
 72
     0
 73
     1
 74
     0
  7

 75
     0
147
0.5107055402826085
148
21785.31336441393
149
12075.2757316998
100
AcDbLayout
  1
Model
 70
     1
 71
     0
 10
-100.0
 20
-937.0
 11
781.8584566516885
 21
220.6919114718445
 12
0.0
 22
0.0
 32
0.0
 14
0.0
 24
-837.0
 34
-1.0
 15
681.8584566516885
 25
120.6919114718445
 35
1.0
146
0.0
 13
0.0
 23
0.0
 33
0.0
 16
1.0
 26
0.0
 36
0.0
 17
0.0
 27
1.0
 37
0.0
 76
     0
330
C35C
331
E0E000011F39
1001
ACAD_PSEXT
1000
Adobe PDF
1000
Adobe PDF Converter
1000
Mis documentos
1000

1070
     0
  0
LAYOUT
  5
C35B
102
{ACAD_REACTORS
330
C357
102
}
330
C357
100
AcDbPlotSettings
  1
VectorDraw Printer Drawing
  2

  4

  6

 40
0.0
 41
0.0
 42
0.0
 43
0.0
 44
0.0
 45
0.0
 46
0.0
 47
0.0
 48
0.0
 49
0.0
140
0.0
141
0.0
142
1.0
143
1.0
 70
   688
 72
     0
 73
     0
 74
     5
  7

 75
    16
147
1.0
148
0.0
149
0.0
100
AcDbLayout
  1
Presentación1
 70
     1
 71
     1
 10
0.0
 20
0.0
 11
12.0
 21
9.0
 12
0.0
 22
0.0
 32
0.0
 14
1.000000000000000E+20
 24
1.000000000000000E+20
 34
1.000000000000000E+20
 15
-1.000000000000000E+20
 25
-1.000000000000000E+20
 35
-1.000000000000000E+20
146
0.0
 13
0.0
 23
0.0
 33
0.0
 16
1.0
 26
0.0
 36
0.0
 17
0.0
 27
1.0
 37
0.0
 76
     0
330
C358
331
E0E00000E20F
  0
MATERIAL
  5
E0E000011F4E
102
{ACAD_REACTORS
330
E0E00000E215
102
}
102
{ACAD_XDICTIONARY
360
E0E00001CCCF
102
}
330
E0E00000E215
100
AcDbMaterial
  1
ByBlock
 72
     0
 73
     2
 43
0.0208333333333333
 43
0.0
 43
0.0
 43
0.0
 43
0.0
 43
0.0208333333333333
 43
0.0
 43
0.0
 43
0.0
 43
0.0
 43
1.0
 43
0.0
 43
0.0
 43
0.0
 43
0.0
 43
1.0
 77
     0
 78
     2
 47
0.0208333333333333
 47
0.0
 47
0.0
 47
0.0
 47
0.0
 47
0.0208333333333333
 47
0.0
 47
0.0
 47
0.0
 47
0.0
 47
1.0
 47
0.0
 47
0.0
 47
0.0
 47
0.0
 47
1.0
171
     0
172
     2
 49
0.0208333333333333
 49
0.0
 49
0.0
 49
0.0
 49
0.0
 49
0.0208333333333333
 49
0.0
 49
0.0
 49
0.0
 49
0.0
 49
1.0
 49
0.0
 49
0.0
 49
0.0
 49
0.0
 49
1.0
175
     0
176
     2
142
0.0208333333333333
142
0.0
142
0.0
142
0.0
142
0.0
142
0.0208333333333333
142
0.0
142
0.0
142
0.0
142
0.0
142
1.0
142
0.0
142
0.0
142
0.0
142
0.0
142
1.0
179
     0
270
     2
144
0.0208333333333333
144
0.0
144
0.0
144
0.0
144
0.0
144
0.0208333333333333
144
0.0
144
0.0
144
0.0
144
0.0
144
1.0
144
0.0
144
0.0
144
0.0
144
0.0
144
1.0
274
     2
147
0.0208333333333333
147
0.0
147
0.0
147
0.0
147
0.0
147
0.0208333333333333
147
0.0
147
0.0
147
0.0
147
0.0
147
1.0
147
0.0
147
0.0
147
0.0
147
0.0
147
1.0
  0
MATERIAL
  5
E0E000011F46
102
{ACAD_REACTORS
330
E0E00000E215
102
}
102
{ACAD_XDICTIONARY
360
E0E00001CCD1
102
}
330
E0E00000E215
100
AcDbMaterial
  1
ByLayer
 72
     0
 73
     2
 43
0.0208333333333333
 43
0.0
 43
0.0
 43
0.0
 43
0.0
 43
0.0208333333333333
 43
0.0
 43
0.0
 43
0.0
 43
0.0
 43
1.0
 43
0.0
 43
0.0
 43
0.0
 43
0.0
 43
1.0
 77
     0
 78
     2
 47
0.0208333333333333
 47
0.0
 47
0.0
 47
0.0
 47
0.0
 47
0.0208333333333333
 47
0.0
 47
0.0
 47
0.0
 47
0.0
 47
1.0
 47
0.0
 47
0.0
 47
0.0
 47
0.0
 47
1.0
171
     0
172
     2
 49
0.0208333333333333
 49
0.0
 49
0.0
 49
0.0
 49
0.0
 49
0.0208333333333333
 49
0.0
 49
0.0
 49
0.0
 49
0.0
 49
1.0
 49
0.0
 49
0.0
 49
0.0
 49
0.0
 49
1.0
175
     0
176
     2
142
0.0208333333333333
142
0.0
142
0.0
142
0.0
142
0.0
142
0.0208333333333333
142
0.0
142
0.0
142
0.0
142
0.0
142
1.0
142
0.0
142
0.0
142
0.0
142
0.0
142
1.0
179
     0
270
     2
144
0.0208333333333333
144
0.0
144
0.0
144
0.0
144
0.0
144
0.0208333333333333
144
0.0
144
0.0
144
0.0
144
0.0
144
1.0
144
0.0
144
0.0
144
0.0
144
0.0
144
1.0
274
     2
147
0.0208333333333333
147
0.0
147
0.0
147
0.0
147
0.0
147
0.0208333333333333
147
0.0
147
0.0
147
0.0
147
0.0
147
1.0
147
0.0
147
0.0
147
0.0
147
0.0
147
1.0
  0
MATERIAL
  5
E0E00000ED91
102
{ACAD_REACTORS
330
E0E00000E215
102
}
102
{ACAD_XDICTIONARY
360
E0E00001CCD3
102
}
330
E0E00000E215
100
AcDbMaterial
  1
Global
 72
     0
 73
     2
 43
0.0008202099737533
 43
0.0
 43
0.0
 43
0.0
 43
0.0
 43
0.0008202099737533
 43
0.0
 43
0.0
 43
0.0
 43
0.0
 43
1.0
 43
0.0
 43
0.0
 43
0.0
 43
0.0
 43
1.0
 77
     0
 78
     2
 47
0.0008202099737533
 47
0.0
 47
0.0
 47
0.0
 47
0.0
 47
0.0008202099737533
 47
0.0
 47
0.0
 47
0.0
 47
0.0
 47
1.0
 47
0.0
 47
0.0
 47
0.0
 47
0.0
 47
1.0
171
     0
172
     2
 49
0.0008202099737533
 49
0.0
 49
0.0
 49
0.0
 49
0.0
 49
0.0008202099737533
 49
0.0
 49
0.0
 49
0.0
 49
0.0
 49
1.0
 49
0.0
 49
0.0
 49
0.0
 49
0.0
 49
1.0
175
     0
176
     2
142
0.0008202099737533
142
0.0
142
0.0
142
0.0
142
0.0
142
0.0008202099737533
142
0.0
142
0.0
142
0.0
142
0.0
142
1.0
142
0.0
142
0.0
142
0.0
142
0.0
142
1.0
179
     0
270
     2
144
0.0008202099737533
144
0.0
144
0.0
144
0.0
144
0.0
144
0.0008202099737533
144
0.0
144
0.0
144
0.0
144
0.0
144
1.0
144
0.0
144
0.0
144
0.0
144
0.0
144
1.0
274
     2
147
0.0008202099737533
147
0.0
147
0.0
147
0.0
147
0.0
147
0.0008202099737533
147
0.0
147
0.0
147
0.0
147
0.0
147
1.0
147
0.0
147
0.0
147
0.0
147
0.0
147
1.0
  0
MLEADERSTYLE
  5
E0E000011F8A
102
{ACAD_REACTORS
330
E0E000011F89
102
}
102
{ACAD_XDICTIONARY
360
E0E00001CCD5
102
}
330
E0E000011F89
100
AcDbMLeaderStyle
170
     2
171
     1
172
     0
 90
        2
 40
0.0
 41
0.0
173
     1
 91
-1056964608
340
C351
 92
       -2
290
     1
 42
0.09
291
     1
 43
0.36
  3
Standard
341
0
 44
0.18
300

342
C34E
174
     1
178
     6
175
     1
176
     0
 93
-1056964608
 45
0.18
292
     0
297
     0
 46
0.18
343
0
 94
-1056964608
 47
1.0
 49
1.0
140
1.0
293
     1
141
0.0
294
     1
177
     0
142
1.0
295
     0
296
     0
143
0.125
1001
ACAD_MLEADERVER
1070
     2
  0
MLINESTYLE
  5
C355
102
{ACAD_REACTORS
330
C354
102
}
330
C354
100
AcDbMlineStyle
  2
STANDARD
 70
     0
  3

 62
   256
 51
90.0
 52
90.0
 71
     2
 49
0.5
 62
   256
  6
BYLAYER
 49
-0.5
 62
   256
  6
BYLAYER
  0
ACDBPLACEHOLDER
  5
C34C
102
{ACAD_REACTORS
330
C34B
102
}
330
C34B
  0
SCALE
  5
E0E000011F68
102
{ACAD_REACTORS
330
E0E000011F67
102
}
330
E0E000011F67
100
AcDbScale
 70
     0
300
1:1
140
1.0
141
1.0
290
     1
  0
SCALE
  5
E0E000011F69
102
{ACAD_REACTORS
330
E0E000011F67
102
}
330
E0E000011F67
100
AcDbScale
 70
     0
300
1:2
140
1.0
141
2.0
290
     0
  0
SCALE
  5
E0E000011F6A
102
{ACAD_REACTORS
330
E0E000011F67
102
}
330
E0E000011F67
100
AcDbScale
 70
     0
300
1:4
140
1.0
141
4.0
290
     0
  0
SCALE
  5
E0E000011F6B
102
{ACAD_REACTORS
330
E0E000011F67
102
}
330
E0E000011F67
100
AcDbScale
 70
     0
300
1:5
140
1.0
141
5.0
290
     0
  0
SCALE
  5
E0E000011F6C
102
{ACAD_REACTORS
330
E0E000011F67
102
}
330
E0E000011F67
100
AcDbScale
 70
     0
300
1:8
140
1.0
141
8.0
290
     0
  0
SCALE
  5
E0E000011F6D
102
{ACAD_REACTORS
330
E0E000011F67
102
}
330
E0E000011F67
100
AcDbScale
 70
     0
300
1:10
140
1.0
141
10.0
290
     0
  0
SCALE
  5
E0E000011F6E
102
{ACAD_REACTORS
330
E0E000011F67
102
}
330
E0E000011F67
100
AcDbScale
 70
     0
300
1:16
140
1.0
141
16.0
290
     0
  0
SCALE
  5
E0E000011F6F
102
{ACAD_REACTORS
330
E0E000011F67
102
}
330
E0E000011F67
100
AcDbScale
 70
     0
300
1:20
140
1.0
141
20.0
290
     0
  0
SCALE
  5
E0E000011F70
102
{ACAD_REACTORS
330
E0E000011F67
102
}
330
E0E000011F67
100
AcDbScale
 70
     0
300
1:30
140
1.0
141
30.0
290
     0
  0
SCALE
  5
E0E000011F71
102
{ACAD_REACTORS
330
E0E000011F67
102
}
330
E0E000011F67
100
AcDbScale
 70
     0
300
1:40
140
1.0
141
40.0
290
     0
  0
SCALE
  5
E0E000011F72
102
{ACAD_REACTORS
330
E0E000011F67
102
}
330
E0E000011F67
100
AcDbScale
 70
     0
300
1:50
140
1.0
141
50.0
290
     0
  0
SCALE
  5
E0E000011F73
102
{ACAD_REACTORS
330
E0E000011F67
102
}
330
E0E000011F67
100
AcDbScale
 70
     0
300
1:100
140
1.0
141
100.0
290
     0
  0
SCALE
  5
E0E000011F74
102
{ACAD_REACTORS
330
E0E000011F67
102
}
330
E0E000011F67
100
AcDbScale
 70
     0
300
2:1
140
2.0
141
1.0
290
     0
  0
SCALE
  5
E0E000011F75
102
{ACAD_REACTORS
330
E0E000011F67
102
}
330
E0E000011F67
100
AcDbScale
 70
     0
300
4:1
140
4.0
141
1.0
290
     0
  0
SCALE
  5
E0E000011F76
102
{ACAD_REACTORS
330
E0E000011F67
102
}
330
E0E000011F67
100
AcDbScale
 70
     0
300
8:1
140
8.0
141
1.0
290
     0
  0
SCALE
  5
E0E000011F77
102
{ACAD_REACTORS
330
E0E000011F67
102
}
330
E0E000011F67
100
AcDbScale
 70
     0
300
10:1
140
10.0
141
1.0
290
     0
  0
SCALE
  5
E0E000011F78
102
{ACAD_REACTORS
330
E0E000011F67
102
}
330
E0E000011F67
100
AcDbScale
 70
     0
300
100:1
140
100.0
141
1.0
290
     0
  0
SCALE
  5
E0E000011F79
102
{ACAD_REACTORS
330
E0E000011F67
102
}
330
E0E000011F67
100
AcDbScale
 70
     0
300
1/128" = 1'-0"
140
0.0078125
141
12.0
290
     0
  0
SCALE
  5
E0E000011F7A
102
{ACAD_REACTORS
330
E0E000011F67
102
}
330
E0E000011F67
100
AcDbScale
 70
     0
300
1/64" = 1'-0"
140
0.015625
141
12.0
290
     0
  0
SCALE
  5
E0E000011F7B
102
{ACAD_REACTORS
330
E0E000011F67
102
}
330
E0E000011F67
100
AcDbScale
 70
     0
300
1/32" = 1'-0"
140
0.03125
141
12.0
290
     0
  0
SCALE
  5
E0E000011F7C
102
{ACAD_REACTORS
330
E0E000011F67
102
}
330
E0E000011F67
100
AcDbScale
 70
     0
300
1/16" = 1'-0"
140
0.0625
141
12.0
290
     0
  0
SCALE
  5
E0E000011F7D
102
{ACAD_REACTORS
330
E0E000011F67
102
}
330
E0E000011F67
100
AcDbScale
 70
     0
300
3/32" = 1'-0"
140
0.09375
141
12.0
290
     0
  0
SCALE
  5
E0E000011F7E
102
{ACAD_REACTORS
330
E0E000011F67
102
}
330
E0E000011F67
100
AcDbScale
 70
     0
300
1/8" = 1'-0"
140
0.125
141
12.0
290
     0
  0
SCALE
  5
E0E000011F7F
102
{ACAD_REACTORS
330
E0E000011F67
102
}
330
E0E000011F67
100
AcDbScale
 70
     0
300
3/16" = 1'-0"
140
0.1875
141
12.0
290
     0
  0
SCALE
  5
E0E000011F80
102
{ACAD_REACTORS
330
E0E000011F67
102
}
330
E0E000011F67
100
AcDbScale
 70
     0
300
1/4" = 1'-0"
140
0.25
141
12.0
290
     0
  0
SCALE
  5
E0E000011F81
102
{ACAD_REACTORS
330
E0E000011F67
102
}
330
E0E000011F67
100
AcDbScale
 70
     0
300
3/8" = 1'-0"
140
0.375
141
12.0
290
     0
  0
SCALE
  5
E0E000011F82
102
{ACAD_REACTORS
330
E0E000011F67
102
}
330
E0E000011F67
100
AcDbScale
 70
     0
300
1/2" = 1'-0"
140
0.5
141
12.0
290
     0
  0
SCALE
  5
E0E000011F83
102
{ACAD_REACTORS
330
E0E000011F67
102
}
330
E0E000011F67
100
AcDbScale
 70
     0
300
3/4" = 1'-0"
140
0.75
141
12.0
290
     0
  0
SCALE
  5
E0E000011F84
102
{ACAD_REACTORS
330
E0E000011F67
102
}
330
E0E000011F67
100
AcDbScale
 70
     0
300
1" = 1'-0"
140
1.0
141
12.0
290
     0
  0
SCALE
  5
E0E000011F85
102
{ACAD_REACTORS
330
E0E000011F67
102
}
330
E0E000011F67
100
AcDbScale
 70
     0
300
1-1/2" = 1'-0"
140
1.5
141
12.0
290
     0
  0
SCALE
  5
E0E000011F86
102
{ACAD_REACTORS
330
E0E000011F67
102
}
330
E0E000011F67
100
AcDbScale
 70
     0
300
3" = 1'-0"
140
3.0
141
12.0
290
     0
  0
SCALE
  5
E0E000011F87
102
{ACAD_REACTORS
330
E0E000011F67
102
}
330
E0E000011F67
100
AcDbScale
 70
     0
300
6" = 1'-0"
140
6.0
141
12.0
290
     0
  0
SCALE
  5
E0E000011F88
102
{ACAD_REACTORS
330
E0E000011F67
102
}
330
E0E000011F67
100
AcDbScale
 70
     0
300
1'-0" = 1'-0"
140
12.0
141
12.0
290
     0
  0
TABLESTYLE
  5
E0E00000E218
102
{ACAD_REACTORS
330
E0E00000E217
102
}
330
E0E00000E217
100
AcDbTableStyle
  3
Standard
 70
     0
 71
     0
 40
0.06
 41
0.06
280
     0
281
     0
  7
STANDARD
140
0.18
170
     2
 62
     0
 63
   257
283
     0
274
    -2
284
     1
 64
     0
275
    -2
285
     1
 65
     0
276
    -2
286
     1
 66
     0
277
    -2
287
     1
 67
     0
278
    -2
288
     1
 68
     0
279
    -2
289
     1
 69
     0
  7
STANDARD
140
0.25
170
     5
 62
     0
 63
   257
283
     0
274
    -2
284
     1
 64
     0
275
    -2
285
     1
 65
     0
276
    -2
286
     1
 66
     0
277
    -2
287
     1
 67
     0
278
    -2
288
     1
 68
     0
279
    -2
289
     1
 69
     0
  7
STANDARD
140
0.18
170
     5
 62
     0
 63
   257
283
     0
274
    -2
284
     1
 64
     0
275
    -2
285
     1
 65
     0
276
    -2
286
     1
 66
     0
277
    -2
287
     1
 67
     0
278
    -2
288
     1
 68
     0
279
    -2
289
     1
 69
     0
  0
VISUALSTYLE
  5
E0E000011F5C
102
{ACAD_REACTORS
330
E0E000011F56
102
}
102
{ACAD_XDICTIONARY
360
E0E00001CCD7
102
}
330
E0E000011F56
100
AcDbVisualStyle
  2
2dWireframe
 70
     4
 71
     0
 72
     2
 73
     0
 90
        0
 40
-0.6
 41
-30.0
 62
     5
 63
     7
 74
     1
 91
        4
 64
     7
 65
   257
 75
     1
175
     1
 42
1.0
 92
        0
 66
   257
 43
1.0
 76
     1
 77
     6
 78
     2
 67
     7
 79
     5
170
     0
171
     0
290
     0
174
     0
 93
        1
 44
0.0
173
     0
291
     0
 45
0.0
1001
ACAD
1000
AcDbSavedByObjectVersion
1070
     0
  0
VISUALSTYLE
  5
E0E000011F5E
102
{ACAD_REACTORS
330
E0E000011F56
102
}
102
{ACAD_XDICTIONARY
360
E0E00001CCD9
102
}
330
E0E000011F56
100
AcDbVisualStyle
  2
3D Hidden
 70
     6
 71
     1
 72
     2
 73
     2
 90
        0
 40
-0.6
 41
-30.0
 62
     5
 63
     7
 74
     2
 91
        2
 64
     7
 65
   257
 75
     2
175
     1
 42
40.0
 92
        0
 66
   257
 43
1.0
 76
     1
 77
     6
 78
     2
 67
     7
 79
     3
170
     0
171
     0
290
     0
174
     0
 93
        1
 44
0.0
173
     0
291
     0
 45
0.0
1001
ACAD
1000
AcDbSavedByObjectVersion
1070
     0
  0
VISUALSTYLE
  5
E0E000011F5D
102
{ACAD_REACTORS
330
E0E000011F56
102
}
102
{ACAD_XDICTIONARY
360
E0E00001CCDB
102
}
330
E0E000011F56
100
AcDbVisualStyle
  2
3dWireframe
 70
     5
 71
     0
 72
     2
 73
     0
 90
        0
 40
-0.6
 41
-30.0
 62
     5
 63
     7
 74
     1
 91
        4
 64
     7
 65
   257
 75
     1
175
     1
 42
1.0
 92
        0
 66
   257
 43
1.0
 76
     1
 77
     6
 78
     2
 67
     7
 79
     5
170
     0
171
     0
290
     0
174
     0
 93
        1
 44
0.0
173
     0
291
     0
 45
0.0
1001
ACAD
1000
AcDbSavedByObjectVersion
1070
     0
  0
VISUALSTYLE
  5
E0E000011F5B
102
{ACAD_REACTORS
330
E0E000011F56
102
}
102
{ACAD_XDICTIONARY
360
E0E00001CCDD
102
}
330
E0E000011F56
100
AcDbVisualStyle
  2
Basic
 70
     7
 71
     1
 72
     0
 73
     1
 90
        0
 40
-0.6
 41
-30.0
 62
     5
 63
     7
 74
     0
 91
        4
 64
     7
 65
   257
 75
     1
175
     1
 42
1.0
 92
        8
 66
     7
 43
1.0
 76
     1
 77
     6
 78
     2
 67
     7
 79
     5
170
     0
171
     0
290
     0
174
     0
 93
        1
 44
0.0
173
     0
291
     1
 45
0.0
1001
ACAD
1000
AcDbSavedByObjectVersion
1070
     0
  0
VISUALSTYLE
  5
E0E000011F62
102
{ACAD_REACTORS
330
E0E000011F56
102
}
102
{ACAD_XDICTIONARY
360
E0E00001CCDF
102
}
330
E0E000011F56
100
AcDbVisualStyle
  2
Brighten
 70
    12
 71
     2
 72
     2
 73
     0
 90
        0
 40
-0.6
 41
-30.0
 62
     5
 63
     7
 74
     1
 91
        4
 64
     7
 65
   257
 75
     1
175
     1
 42
1.0
 92
        8
 66
     7
 43
1.0
 76
     1
 77
     6
 78
     2
 67
     7
 79
     5
170
     0
171
     0
290
     0
174
     0
 93
        1
 44
50.0
173
     0
291
     1
 45
0.0
1001
ACAD
1000
AcDbSavedByObjectVersion
1070
     0
  0
VISUALSTYLE
  5
E0E000011F66
102
{ACAD_REACTORS
330
E0E000011F56
102
}
102
{ACAD_XDICTIONARY
360
E0E00001CCE1
102
}
330
E0E000011F56
100
AcDbVisualStyle
  2
ColorChange
 70
    16
 71
     2
 72
     2
 73
     3
 90
        0
 40
-0.6
 41
-30.0
 62
     5
 63
     8
 74
     1
 91
        4
 64
     7
 65
   257
 75
     1
175
     1
 42
1.0
 92
        8
 66
     8
 43
1.0
 76
     1
 77
     6
 78
     2
 67
     7
 79
     5
170
     0
171
     0
290
     0
174
     0
 93
        1
 44
0.0
173
     0
291
     1
 45
0.0
1001
ACAD
1000
AcDbSavedByObjectVersion
1070
     0
  0
VISUALSTYLE
  5
E0E000011F5F
102
{ACAD_REACTORS
330
E0E000011F56
102
}
102
{ACAD_XDICTIONARY
360
E0E00001CCE3
102
}
330
E0E000011F56
100
AcDbVisualStyle
  2
Conceptual
 70
     9
 71
     3
 72
     2
 73
     0
 90
        0
 40
-0.6
 41
-30.0
 62
     5
 63
     7
 74
     2
 91
        2
 64
     7
 65
   257
 75
     1
175
     1
 42
40.0
 92
        8
 66
     7
 43
1.0
 76
     1
 77
     6
 78
     2
 67
     7
 79
     3
170
     0
171
     0
290
     0
174
     0
 93
        1
 44
0.0
173
     0
291
     0
 45
0.0
1001
ACAD
1000
AcDbSavedByObjectVersion
1070
     0
  0
VISUALSTYLE
  5
E0E000011F61
102
{ACAD_REACTORS
330
E0E000011F56
102
}
102
{ACAD_XDICTIONARY
360
E0E00001CCE5
102
}
330
E0E000011F56
100
AcDbVisualStyle
  2
Dim
 70
    11
 71
     2
 72
     2
 73
     0
 90
        0
 40
-0.6
 41
-30.0
 62
     5
 63
     7
 74
     1
 91
        4
 64
     7
 65
   257
 75
     1
175
     1
 42
1.0
 92
        8
 66
     7
 43
1.0
 76
     1
 77
     6
 78
     2
 67
     7
 79
     5
170
     0
171
     0
290
     0
174
     0
 93
        1
 44
-50.0
173
     0
291
     1
 45
0.0
1001
ACAD
1000
AcDbSavedByObjectVersion
1070
     0
  0
VISUALSTYLE
  5
E0E00001CCAF
102
{ACAD_REACTORS
330
E0E000011F56
102
}
102
{ACAD_XDICTIONARY
360
E0E00001CCFF
102
}
330
E0E000011F56
100
AcDbVisualStyle
  2
EdgeColorOff
 70
    22
 71
     2
 72
     2
 73
     0
 90
        0
 40
0.6
 41
30.0
 62
     5
 63
     7
 74
     1
 91
        4
 64
     7
 65
   257
 75
     1
175
     1
 42
1.0
 92
        8
 66
     7
 43
1.0
 76
     1
 77
     6
 78
     2
 67
     7
 79
     5
170
     0
171
     0
290
     0
174
     0
 93
        1
 44
0.0
173
     0
291
     1
 45
0.0
1001
ACAD
1000
AcDbSavedByObjectVersion
1070
     0
  0
VISUALSTYLE
  5
E0E000011F65
102
{ACAD_REACTORS
330
E0E000011F56
102
}
102
{ACAD_XDICTIONARY
360
E0E00001CCE7
102
}
330
E0E000011F56
100
AcDbVisualStyle
  2
Facepattern
 70
    15
 71
     2
 72
     2
 73
     0
 90
        0
 40
-0.6
 41
-30.0
 62
     5
 63
     7
 74
     1
 91
        4
 64
     7
 65
   257
 75
     1
175
     1
 42
1.0
 92
        8
 66
     7
 43
1.0
 76
     1
 77
     6
 78
     2
 67
     7
 79
     5
170
     0
171
     0
290
     0
174
     0
 93
        1
 44
0.0
173
     0
291
     1
 45
0.0
1001
ACAD
1000
AcDbSavedByObjectVersion
1070
     0
  0
VISUALSTYLE
  5
E0E000011F57
102
{ACAD_REACTORS
330
E0E000011F56
102
}
102
{ACAD_XDICTIONARY
360
E0E00001CCE9
102
}
330
E0E000011F56
100
AcDbVisualStyle
  2
Flat
 70
     0
 71
     2
 72
     1
 73
     1
 90
        2
 40
-0.6
 41
30.0
 62
     5
 63
     7
 74
     0
 91
        4
 64
     7
 65
   257
 75
     1
175
     1
 42
1.0
 92
        8
 66
     7
 43
1.0
 76
     1
 77
     6
 78
     2
 67
     7
 79
     5
170
     0
171
     0
290
     0
174
     0
 93
       13
 44
0.0
173
     0
291
     1
 45
0.0
1001
ACAD
1000
AcDbSavedByObjectVersion
1070
     0
  0
VISUALSTYLE
  5
E0E000011F58
102
{ACAD_REACTORS
330
E0E000011F56
102
}
102
{ACAD_XDICTIONARY
360
E0E00001CCEB
102
}
330
E0E000011F56
100
AcDbVisualStyle
  2
FlatWithEdges
 70
     1
 71
     2
 72
     1
 73
     1
 90
        2
 40
-0.6
 41
30.0
 62
     5
 63
     7
 74
     1
 91
        4
 64
     7
 65
   257
 75
     1
175
     1
 42
1.0
 92
        0
 66
   257
 43
1.0
 76
     1
 77
     6
 78
     2
 67
     7
 79
     5
170
     0
171
     0
290
     0
174
     0
 93
       13
 44
0.0
173
     0
291
     1
 45
0.0
1001
ACAD
1000
AcDbSavedByObjectVersion
1070
     0
  0
VISUALSTYLE
  5
E0E000011F59
102
{ACAD_REACTORS
330
E0E000011F56
102
}
102
{ACAD_XDICTIONARY
360
E0E00001CCED
102
}
330
E0E000011F56
100
AcDbVisualStyle
  2
Gouraud
 70
     2
 71
     2
 72
     2
 73
     1
 90
        2
 40
-0.6
 41
30.0
 62
     5
 63
     7
 74
     0
 91
        4
 64
     7
 65
   257
 75
     1
175
     1
 42
1.0
 92
        0
 66
     7
 43
1.0
 76
     1
 77
     6
 78
     2
 67
     7
 79
     5
170
     0
171
     0
290
     0
174
     0
 93
       13
 44
0.0
173
     0
291
     1
 45
0.0
1001
ACAD
1000
AcDbSavedByObjectVersion
1070
     0
  0
VISUALSTYLE
  5
E0E000011F5A
102
{ACAD_REACTORS
330
E0E000011F56
102
}
102
{ACAD_XDICTIONARY
360
E0E00001CCEF
102
}
330
E0E000011F56
100
AcDbVisualStyle
  2
GouraudWithEdges
 70
     3
 71
     2
 72
     2
 73
     1
 90
        2
 40
-0.6
 41
30.0
 62
     5
 63
     7
 74
     1
 91
        4
 64
     7
 65
   257
 75
     1
175
     1
 42
1.0
 92
        0
 66
   257
 43
1.0
 76
     1
 77
     6
 78
     2
 67
     7
 79
     5
170
     0
171
     0
290
     0
174
     0
 93
       13
 44
0.0
173
     0
291
     1
 45
0.0
1001
ACAD
1000
AcDbSavedByObjectVersion
1070
     0
  0
VISUALSTYLE
  5
E0E00001CCAC
102
{ACAD_REACTORS
330
E0E000011F56
102
}
102
{ACAD_XDICTIONARY
360
E0E00001CCF9
102
}
330
E0E000011F56
100
AcDbVisualStyle
  2
Hidden
 70
     6
 71
     1
 72
     2
 73
     2
 90
        0
 40
0.6
 41
30.0
 62
     5
 63
     7
 74
     2
 91
        2
 64
     7
 65
   257
 75
     2
175
     1
 42
40.0
 92
        0
 66
   257
 43
1.0
 76
     1
 77
     6
 78
     2
 67
     7
 79
     3
170
     0
171
     0
290
     0
174
     0
 93
        1
 44
0.0
173
     0
291
     0
 45
0.0
1001
ACAD
1000
AcDbSavedByObjectVersion
1070
     0
  0
VISUALSTYLE
  5
E0E00001CCAD
102
{ACAD_REACTORS
330
E0E000011F56
102
}
102
{ACAD_XDICTIONARY
360
E0E00001CCFB
102
}
330
E0E000011F56
100
AcDbVisualStyle
  2
JitterOff
 70
    20
 71
     2
 72
     2
 73
     0
 90
        0
 40
0.6
 41
30.0
 62
     5
 63
     7
 74
     1
 91
        4
 64
     7
 65
   257
 75
     1
175
     1
 42
1.0
 92
       10
 66
     7
 43
1.0
 76
     1
 77
     6
 78
     2
 67
     7
 79
     5
170
     0
171
     0
290
     0
174
     0
 93
        1
 44
0.0
173
     0
291
     1
 45
0.0
1001
ACAD
1000
AcDbSavedByObjectVersion
1070
     0
  0
VISUALSTYLE
  5
E0E000011F64
102
{ACAD_REACTORS
330
E0E000011F56
102
}
102
{ACAD_XDICTIONARY
360
E0E00001CCF1
102
}
330
E0E000011F56
100
AcDbVisualStyle
  2
Linepattern
 70
    14
 71
     2
 72
     2
 73
     0
 90
        0
 40
-0.6
 41
-30.0
 62
     5
 63
     7
 74
     1
 91
        4
 64
     7
 65
   257
 75
     7
175
     7
 42
1.0
 92
        8
 66
     7
 43
1.0
 76
     1
 77
     6
 78
     2
 67
     7
 79
     5
170
     0
171
     0
290
     0
174
     0
 93
        1
 44
0.0
173
     0
291
     1
 45
0.0
1001
ACAD
1000
AcDbSavedByObjectVersion
1070
     0
  0
VISUALSTYLE
  5
E0E00001CCAE
102
{ACAD_REACTORS
330
E0E000011F56
102
}
102
{ACAD_XDICTIONARY
360
E0E00001CCFD
102
}
330
E0E000011F56
100
AcDbVisualStyle
  2
OverhangOff
 70
    21
 71
     2
 72
     2
 73
     0
 90
        0
 40
0.6
 41
30.0
 62
     5
 63
     7
 74
     1
 91
        4
 64
     7
 65
   257
 75
     1
175
     1
 42
1.0
 92
        9
 66
     7
 43
1.0
 76
     1
 77
     6
 78
     2
 67
     7
 79
     5
170
     0
171
     0
290
     0
174
     0
 93
        1
 44
0.0
173
     0
291
     1
 45
0.0
1001
ACAD
1000
AcDbSavedByObjectVersion
1070
     0
  0
VISUALSTYLE
  5
E0E000011F60
102
{ACAD_REACTORS
330
E0E000011F56
102
}
102
{ACAD_XDICTIONARY
360
E0E00001CCF3
102
}
330
E0E000011F56
100
AcDbVisualStyle
  2
Realistic
 70
     8
 71
     2
 72
     2
 73
     0
 90
        0
 40
-0.6
 41
-30.0
 62
     5
 63
     7
 74
     1
 91
        0
 64
     7
 65
   257
 75
     1
175
     1
 42
1.0
 92
        8
 66
     8
 43
1.0
 76
     1
 77
     6
 78
     2
 67
     7
 79
     5
170
     0
171
     0
290
     0
174
     0
 93
       13
 44
0.0
173
     0
291
     0
 45
0.0
1001
ACAD
1000
AcDbSavedByObjectVersion
1070
     0
  0
VISUALSTYLE
  5
E0E00001CCB4
102
{ACAD_REACTORS
330
E0E000011F56
102
}
102
{ACAD_XDICTIONARY
360
E0E00001CD09
102
}
330
E0E000011F56
100
AcDbVisualStyle
  2
Shaded
 70
    27
 71
     2
 72
     2
 73
     1
 90
        2
 40
0.6
 41
30.0
 62
     5
 63
     7
 74
     0
 91
        4
 64
     7
 65
   257
 75
     1
175
     1
 42
1.0
 92
        8
 66
   257
 43
1.0
 76
     1
 77
     6
 78
     2
 67
     8
 79
     3
170
     0
171
     0
290
     0
174
     0
 93
        5
 44
0.0
173
     0
291
     0
 45
0.0
1001
ACAD
1000
AcDbSavedByObjectVersion
1070
     0
  0
VISUALSTYLE
  5
E0E00001CCB3
102
{ACAD_REACTORS
330
E0E000011F56
102
}
102
{ACAD_XDICTIONARY
360
E0E00001CD07
102
}
330
E0E000011F56
100
AcDbVisualStyle
  2
Shaded with edges
 70
    26
 71
     2
 72
     2
 73
     1
 90
        2
 40
0.6
 41
30.0
 62
     5
 63
     7
 74
     1
 91
       10
 64
     7
 65
   257
 75
     2
175
     1
 42
1.0
 92
        8
 66
   257
 43
1.0
 76
     1
 77
     6
 78
     2
 67
     7
 79
     3
170
     0
171
     0
290
     0
174
     0
 93
        5
 44
0.0
173
     0
291
     0
 45
0.0
1001
ACAD
1000
AcDbSavedByObjectVersion
1070
     0
  0
VISUALSTYLE
  5
E0E00001CCB0
102
{ACAD_REACTORS
330
E0E000011F56
102
}
102
{ACAD_XDICTIONARY
360
E0E00001CD01
102
}
330
E0E000011F56
100
AcDbVisualStyle
  2
Shades of Gray
 70
    23
 71
     2
 72
     2
 73
     3
 90
        0
 40
0.6
 41
30.0
 62
     5
 63
     7
 74
     2
 91
        2
 64
     7
 65
     7
 75
     1
175
     1
 42
40.0
 92
        8
 66
     7
 43
1.0
 76
     1
 77
     6
 78
     2
 67
     7
 79
     3
170
     0
171
     0
290
     0
174
     0
 93
        1
 44
0.0
173
     0
291
     0
 45
0.0
1001
ACAD
1000
AcDbSavedByObjectVersion
1070
     0
  0
VISUALSTYLE
  5
E0E00001CCB1
102
{ACAD_REACTORS
330
E0E000011F56
102
}
102
{ACAD_XDICTIONARY
360
E0E00001CD03
102
}
330
E0E000011F56
100
AcDbVisualStyle
  2
Sketchy
 70
    24
 71
     1
 72
     2
 73
     2
 90
        0
 40
0.6
 41
30.0
 62
     5
 63
     7
 74
     2
 91
        2
 64
     7
 65
     7
 75
     1
175
     1
 42
40.0
 92
       11
 66
     7
 43
1.0
 76
     1
 77
     6
 78
     2
 67
     7
 79
     6
170
     0
171
     0
290
     0
174
     0
 93
        1
 44
0.0
173
     0
291
     0
 45
0.0
1001
ACAD
1000
AcDbSavedByObjectVersion
1070
     0
  0
VISUALSTYLE
  5
E0E000011F63
102
{ACAD_REACTORS
330
E0E000011F56
102
}
102
{ACAD_XDICTIONARY
360
E0E00001CCF5
102
}
330
E0E000011F56
100
AcDbVisualStyle
  2
Thicken
 70
    13
 71
     2
 72
     2
 73
     0
 90
        0
 40
-0.6
 41
-30.0
 62
     5
 63
     7
 74
     1
 91
        4
 64
     7
 65
   257
 75
     1
175
     1
 42
1.0
 92
       12
 66
     7
 43
1.0
 76
     1
 77
     6
 78
     2
 67
     7
 79
     5
170
     0
171
     0
290
     0
174
     0
 93
        1
 44
0.0
173
     0
291
     1
 45
0.0
1001
ACAD
1000
AcDbSavedByObjectVersion
1070
     0
  0
VISUALSTYLE
  5
E0E00001CCAB
102
{ACAD_REACTORS
330
E0E000011F56
102
}
102
{ACAD_XDICTIONARY
360
E0E00001CCF7
102
}
330
E0E000011F56
100
AcDbVisualStyle
  2
Wireframe
 70
     5
 71
     0
 72
     2
 73
     0
 90
        0
 40
0.6
 41
30.0
 62
     5
 63
     7
 74
     1
 91
        4
 64
     7
 65
   257
 75
     1
175
     1
 42
1.0
 92
        0
 66
   257
 43
1.0
 76
     1
 77
     6
 78
     2
 67
     7
 79
     3
170
     0
171
     0
290
     0
174
     0
 93
        1
 44
0.0
173
     0
291
     0
 45
0.0
1001
ACAD
1000
AcDbSavedByObjectVersion
1070
     0
  0
VISUALSTYLE
  5
E0E00001CCB2
102
{ACAD_REACTORS
330
E0E000011F56
102
}
102
{ACAD_XDICTIONARY
360
E0E00001CD05
102
}
330
E0E000011F56
100
AcDbVisualStyle
  2
X-Ray
 70
    25
 71
     2
 72
     2
 73
     1
 90
        1
 40
0.5
 41
30.0
 62
     5
 63
     7
 74
     1
 91
        0
 64
     7
 65
   257
 75
     1
175
     1
 42
1.0
 92
        8
 66
     7
 43
1.0
 76
     1
 77
     6
 78
     2
 67
     7
 79
     3
170
     0
171
     0
290
     0
174
     0
 93
       13
 44
0.0
173
     0
291
     0
 45
0.0
1001
ACAD
1000
AcDbSavedByObjectVersion
1070
     0
  0
XRECORD
  5
E0E00001CCC6
102
{ACAD_REACTORS
330
E0E00001CCC5
102
}
330
E0E00001CCC5
100
AcDbXrecord
280
     1
340
E0E00000E216
  0
XRECORD
  5
E0E00001CCC7
102
{ACAD_REACTORS
330
E0E00001CCC5
102
}
330
E0E00001CCC5
100
AcDbXrecord
280
     1
340
E0E00000E215
  0
DICTIONARYVAR
  5
E0E0000120B9
102
{ACAD_REACTORS
330
E0E00000EADD
102
}
330
E0E00000EADD
100
DictionaryVariables
280
     0
  1
1:1
  0
DICTIONARYVAR
  5
E0E0000120B8
102
{ACAD_REACTORS
330
E0E00000EADD
102
}
330
E0E00000EADD
100
DictionaryVariables
280
     0
  1
Standard
  0
DICTIONARYVAR
  5
E0E00000EADE
102
{ACAD_REACTORS
330
E0E00000EADD
102
}
330
E0E00000EADD
100
DictionaryVariables
280
     0
  1
Standard
  0
DICTIONARYVAR
  5
E0E000011E77
102
{ACAD_REACTORS
330
E0E00000EADD
102
}
330
E0E00000EADD
100
DictionaryVariables
280
     0
  1
1
  0
DICTIONARYVAR
  5
E0E00001CCC1
102
{ACAD_REACTORS
330
E0E00000EADD
102
}
330
E0E00000EADD
100
DictionaryVariables
280
     0
  1
0
  0
DICTIONARYVAR
  5
E0E00001CB88
102
{ACAD_REACTORS
330
E0E00000EADD
102
}
330
E0E00000EADD
100
DictionaryVariables
280
     0
  1
0
  0
DICTIONARYVAR
  5
E0E00001CB87
102
{ACAD_REACTORS
330
E0E00000EADD
102
}
330
E0E00000EADD
100
DictionaryVariables
280
     0
  1
0
  0
DICTIONARYVAR
  5
E0E000011E78
102
{ACAD_REACTORS
330
E0E00000EADD
102
}
330
E0E00000EADD
100
DictionaryVariables
280
     0
  1

  0
DICTIONARYVAR
  5
E0E00001CCC2
102
{ACAD_REACTORS
330
E0E00000EADD
102
}
330
E0E00000EADD
100
DictionaryVariables
280
     0
  1
0
  0
XRECORD
  5
C36D
102
{ACAD_REACTORS
330
C36C
102
}
330
C36C
100
AcDbXrecord
280
     1
1000
F79QCx7rc7TXb9PZRVfDqKyB6
1070
     4
1070
     6
  0
DICTIONARY
  5
E0E00001CCCF
330
E0E000011F4E
100
AcDbDictionary
280
     1
281
     1
  3
ACAD_XREC_ROUNDTRIP
360
E0E00001CCD0
  0
DICTIONARY
  5
E0E00001CCD1
330
E0E000011F46
100
AcDbDictionary
280
     1
281
     1
  3
ACAD_XREC_ROUNDTRIP
360
E0E00001CCD2
  0
DICTIONARY
  5
E0E00001CCD3
330
E0E00000ED91
100
AcDbDictionary
280
     1
281
     1
  3
ACAD_XREC_ROUNDTRIP
360
E0E00001CCD4
  0
DICTIONARY
  5
E0E00001CCD5
330
E0E000011F8A
100
AcDbDictionary
280
     1
281
     1
  3
ACAD_XREC_ROUNDTRIP
360
E0E00001CCD6
  0
DICTIONARY
  5
E0E00001CCD7
330
E0E000011F5C
100
AcDbDictionary
280
     1
281
     1
  3
ACAD_XREC_ROUNDTRIP
360
E0E00001CCD8
  0
DICTIONARY
  5
E0E00001CCD9
330
E0E000011F5E
100
AcDbDictionary
280
     1
281
     1
  3
ACAD_XREC_ROUNDTRIP
360
E0E00001CCDA
  0
DICTIONARY
  5
E0E00001CCDB
330
E0E000011F5D
100
AcDbDictionary
280
     1
281
     1
  3
ACAD_XREC_ROUNDTRIP
360
E0E00001CCDC
  0
DICTIONARY
  5
E0E00001CCDD
330
E0E000011F5B
100
AcDbDictionary
280
     1
281
     1
  3
ACAD_XREC_ROUNDTRIP
360
E0E00001CCDE
  0
DICTIONARY
  5
E0E00001CCDF
330
E0E000011F62
100
AcDbDictionary
280
     1
281
     1
  3
ACAD_XREC_ROUNDTRIP
360
E0E00001CCE0
  0
DICTIONARY
  5
E0E00001CCE1
330
E0E000011F66
100
AcDbDictionary
280
     1
281
     1
  3
ACAD_XREC_ROUNDTRIP
360
E0E00001CCE2
  0
DICTIONARY
  5
E0E00001CCE3
330
E0E000011F5F
100
AcDbDictionary
280
     1
281
     1
  3
ACAD_XREC_ROUNDTRIP
360
E0E00001CCE4
  0
DICTIONARY
  5
E0E00001CCE5
330
E0E000011F61
100
AcDbDictionary
280
     1
281
     1
  3
ACAD_XREC_ROUNDTRIP
360
E0E00001CCE6
  0
DICTIONARY
  5
E0E00001CCFF
330
E0E00001CCAF
100
AcDbDictionary
280
     1
281
     1
  3
ACAD_XREC_ROUNDTRIP
360
E0E00001CD00
  0
DICTIONARY
  5
E0E00001CCE7
330
E0E000011F65
100
AcDbDictionary
280
     1
281
     1
  3
ACAD_XREC_ROUNDTRIP
360
E0E00001CCE8
  0
DICTIONARY
  5
E0E00001CCE9
330
E0E000011F57
100
AcDbDictionary
280
     1
281
     1
  3
ACAD_XREC_ROUNDTRIP
360
E0E00001CCEA
  0
DICTIONARY
  5
E0E00001CCEB
330
E0E000011F58
100
AcDbDictionary
280
     1
281
     1
  3
ACAD_XREC_ROUNDTRIP
360
E0E00001CCEC
  0
DICTIONARY
  5
E0E00001CCED
330
E0E000011F59
100
AcDbDictionary
280
     1
281
     1
  3
ACAD_XREC_ROUNDTRIP
360
E0E00001CCEE
  0
DICTIONARY
  5
E0E00001CCEF
330
E0E000011F5A
100
AcDbDictionary
280
     1
281
     1
  3
ACAD_XREC_ROUNDTRIP
360
E0E00001CCF0
  0
DICTIONARY
  5
E0E00001CCF9
330
E0E00001CCAC
100
AcDbDictionary
280
     1
281
     1
  3
ACAD_XREC_ROUNDTRIP
360
E0E00001CCFA
  0
DICTIONARY
  5
E0E00001CCFB
330
E0E00001CCAD
100
AcDbDictionary
280
     1
281
     1
  3
ACAD_XREC_ROUNDTRIP
360
E0E00001CCFC
  0
DICTIONARY
  5
E0E00001CCF1
330
E0E000011F64
100
AcDbDictionary
280
     1
281
     1
  3
ACAD_XREC_ROUNDTRIP
360
E0E00001CCF2
  0
DICTIONARY
  5
E0E00001CCFD
330
E0E00001CCAE
100
AcDbDictionary
280
     1
281
     1
  3
ACAD_XREC_ROUNDTRIP
360
E0E00001CCFE
  0
DICTIONARY
  5
E0E00001CCF3
330
E0E000011F60
100
AcDbDictionary
280
     1
281
     1
  3
ACAD_XREC_ROUNDTRIP
360
E0E00001CCF4
  0
DICTIONARY
  5
E0E00001CD09
330
E0E00001CCB4
100
AcDbDictionary
280
     1
281
     1
  3
ACAD_XREC_ROUNDTRIP
360
E0E00001CD0A
  0
DICTIONARY
  5
E0E00001CD07
330
E0E00001CCB3
100
AcDbDictionary
280
     1
281
     1
  3
ACAD_XREC_ROUNDTRIP
360
E0E00001CD08
  0
DICTIONARY
  5
E0E00001CD01
330
E0E00001CCB0
100
AcDbDictionary
280
     1
281
     1
  3
ACAD_XREC_ROUNDTRIP
360
E0E00001CD02
  0
DICTIONARY
  5
E0E00001CD03
330
E0E00001CCB1
100
AcDbDictionary
280
     1
281
     1
  3
ACAD_XREC_ROUNDTRIP
360
E0E00001CD04
  0
DICTIONARY
  5
E0E00001CCF5
330
E0E000011F63
100
AcDbDictionary
280
     1
281
     1
  3
ACAD_XREC_ROUNDTRIP
360
E0E00001CCF6
  0
DICTIONARY
  5
E0E00001CCF7
330
E0E00001CCAB
100
AcDbDictionary
280
     1
281
     1
  3
ACAD_XREC_ROUNDTRIP
360
E0E00001CCF8
  0
DICTIONARY
  5
E0E00001CD05
330
E0E00001CCB2
100
AcDbDictionary
280
     1
281
     1
  3
ACAD_XREC_ROUNDTRIP
360
E0E00001CD06
  0
XRECORD
  5
E0E00001CCD0
102
{ACAD_REACTORS
330
E0E00001CCCF
102
}
330
E0E00001CCCF
100
AcDbXrecord
280
     1
102
MATERIAL
148
0.0
149
0.0
149
0.0
 93
        0
 94
      127
282
     0
 72
     0
 77
     0
171
     0
175
     0
179
     0
273
     0
  0
XRECORD
  5
E0E00001CCD2
102
{ACAD_REACTORS
330
E0E00001CCD1
102
}
330
E0E00001CCD1
100
AcDbXrecord
280
     1
102
MATERIAL
148
0.0
149
0.0
149
0.0
 93
        0
 94
      127
282
     0
 72
     0
 77
     0
171
     0
175
     0
179
     0
273
     0
  0
XRECORD
  5
E0E00001CCD4
102
{ACAD_REACTORS
330
E0E00001CCD3
102
}
330
E0E00001CCD3
100
AcDbXrecord
280
     1
102
MATERIAL
148
0.0
149
0.0
149
0.0
 93
        0
 94
      127
282
     0
 72
     0
 77
     0
171
     0
175
     0
179
     0
273
     0
  0
XRECORD
  5
E0E00001CCD6
102
{ACAD_REACTORS
330
E0E00001CCD5
102
}
330
E0E00001CCD5
100
AcDbXrecord
280
     1
102
ACAD_ROUNDTRIP_2010_MLEADER_STYLE
  0
XRECORD
  5
E0E00001CCD8
102
{ACAD_REACTORS
330
E0E00001CCD7
102
}
330
E0E00001CCD7
100
AcDbXrecord
280
     1
102
RTVSPropertyOp0
 70
     1
102
RTVSPropertyOp1
 70
     1
102
RTVSPropertyOp2
 70
     1
102
RTVSPropertyOp3
 70
     1
102
RTVSPropertyOp4
 70
     1
102
RTVSPropertyOp5
 70
     1
102
RTVSPropertyOp6
 70
     1
102
RTVSPropertyOp7
 70
     1
102
RTVSPropertyOp8
 70
     1
102
RTVSPropertyOp9
 70
     1
102
RTVSPropertyOp10
 70
     1
102
RTVSPropertyOp11
 70
     1
102
RTVSPropertyOp12
 70
     1
102
RTVSPropertyOp13
 70
     1
102
RTVSPropertyOp14
 70
     1
102
RTVSPropertyOp15
 70
     1
102
RTVSPropertyOp16
 70
     1
102
RTVSPropertyOp17
 70
     1
102
RTVSPropertyOp18
 70
     1
102
RTVSPropertyOp19
 70
     1
102
RTVSPropertyOp20
 70
     1
102
RTVSPropertyOp21
 70
     1
102
RTVSPropertyOp22
 70
     1
102
RTVSPropertyOp23
 70
     1
102
RTVSPropertyOp24
 70
     1
102
RTVSPropertyOp25
 70
     1
102
RTVSPropertyOp26
 70
     1
102
RTVSPropertyOp27
 70
     1
102
RTVSPropertyOp28
 70
     1
102
RTVSPropertyOp29
 70
     1
102
RTVSPropertyOp30
 70
     1
102
RTVSPropertyOp31
 70
     1
102
RTVSPropertyOp32
 70
     1
102
RTVSPropertyOp33
 70
     1
102
RTVSPropertyOp34
 70
     1
102
RTVSPropertyOp35
 70
     1
102
RTVSPropertyOp36
 70
     1
102
RTVSPropertyOp37
 70
     1
102
RTVSPropertyOp38
 70
     1
102
RTVSPropertyOp39
 70
     1
102
RTVSPropertyOp40
 70
     1
102
RTVSPropertyOp41
 70
     1
102
RTVSPropertyOp42
 70
     1
102
RTVSPropertyOp43
 70
     1
102
RTVSPropertyOp44
 70
     1
102
RTVSPropertyOp45
 70
     1
102
RTVSPropertyOp46
 70
     1
102
RTVSPropertyOp47
 70
     1
102
RTVSPropertyOp48
 70
     1
102
RTVSPropertyOp49
 70
     1
102
RTVSPropertyOp50
 70
     1
102
RTVSPropertyOp51
 70
     0
102
RTVSPropertyOp52
 70
     0
102
RTVSPropertyOp53
 70
     1
102
RTVSPropertyOp54
 70
     1
102
RTVSPropertyOp55
 70
     1
102
RTVSPropertyOp56
 70
     1
102
RTVSPropertyOp57
 70
     1
102
RTVSPost2010Prop28
280
     1
102
RTVSPost2010PropOp28
 70
     1
102
RTVSPost2010Prop29
280
     1
102
RTVSPost2010PropOp29
 70
     1
102
RTVSPost2010Prop30
280
     0
102
RTVSPost2010PropOp30
 70
     1
102
RTVSPost2010Prop31
280
     0
102
RTVSPost2010PropOp31
 70
     1
102
RTVSPost2010Prop32
280
     0
102
RTVSPost2010PropOp32
 70
     1
102
RTVSPost2010Prop33
280
     0
102
RTVSPost2010PropOp33
 70
     1
102
RTVSPost2010Prop34
280
     0
102
RTVSPost2010PropOp34
 70
     1
102
RTVSPost2010Prop35
280
     0
102
RTVSPost2010PropOp35
 70
     1
102
RTVSPost2010Prop36
280
     0
102
RTVSPost2010PropOp36
 70
     1
102
RTVSPost2010Prop37
 90
       50
102
RTVSPost2010PropOp37
 70
     1
102
RTVSPost2010Prop38
140
0.0
102
RTVSPost2010PropOp38
 70
     1
102
RTVSPost2010Prop39
140
1.0
102
RTVSPost2010PropOp39
 70
     1
102
RTVSPost2010Prop40
 90
        0
102
RTVSPost2010PropOp40
 70
     1
102
RTVSPost2010Prop41ColorIndex
 90
       18
102
RTVSPost2010Prop41ColorRGB
 90
        0
102
RTVSPost2010PropOp41
 70
     1
102
RTVSPost2010Prop42
 90
       50
102
RTVSPost2010PropOp42
 70
     1
102
RTVSPost2010Prop43
 90
        3
102
RTVSPost2010PropOp43
 70
     1
102
RTVSPost2010Prop44ColorIndex
 90
        5
102
RTVSPost2010Prop44ColorRGB
 90
      255
102
RTVSPost2010PropOp44
 70
     1
102
RTVSPost2010Prop45
280
     0
102
RTVSPost2010PropOp45
 70
     1
102
RTVSPost2010Prop46
 90
       50
102
RTVSPost2010PropOp46
 70
     1
102
RTVSPost2010Prop47
 90
       50
102
RTVSPost2010PropOp47
 70
     1
102
RTVSPost2010Prop48
 90
       50
102
RTVSPost2010PropOp48
 70
     1
102
RTVSPost2010Prop49
280
     0
102
RTVSPost2010PropOp49
 70
     1
102
RTVSPost2010Prop50
 90
       50
102
RTVSPost2010PropOp50
 70
     1
102
RTVSPost2010Prop51ColorIndex
 90
      256
102
RTVSPost2010Prop51ColorRGB
 90
-16777216
102
RTVSPost2010PropOp51
 70
     0
102
RTVSPost2010Prop52
140
1.0
102
RTVSPost2010PropOp52
 70
     0
102
RTVSPost2010Prop53
 90
        2
102
RTVSPost2010PropOp53
 70
     1
102
RTVSPost2010Prop54
  1
strokes_ogs.tif
102
RTVSPost2010PropOp54
 70
     1
102
RTVSPost2010Prop55
280
     0
102
RTVSPost2010PropOp55
 70
     1
102
RTVSPost2010Prop56
140
1.0
102
RTVSPost2010PropOp56
 70
     1
102
RTVSPost2010Prop57
140
1.0
102
RTVSPost2010PropOp57
 70
     1
  0
XRECORD
  5
E0E00001CCDA
102
{ACAD_REACTORS
330
E0E00001CCD9
102
}
330
E0E00001CCD9
100
AcDbXrecord
280
     1
102
RTVSPropertyOp0
 70
     1
102
RTVSPropertyOp1
 70
     1
102
RTVSPropertyOp2
 70
     1
102
RTVSPropertyOp3
 70
     1
102
RTVSPropertyOp4
 70
     1
102
RTVSPropertyOp5
 70
     1
102
RTVSPropertyOp6
 70
     1
102
RTVSPropertyOp7
 70
     1
102
RTVSPropertyOp8
 70
     1
102
RTVSPropertyOp9
 70
     1
102
RTVSPropertyOp10
 70
     1
102
RTVSPropertyOp11
 70
     1
102
RTVSPropertyOp12
 70
     1
102
RTVSPropertyOp13
 70
     1
102
RTVSPropertyOp14
 70
     1
102
RTVSPropertyOp15
 70
     1
102
RTVSPropertyOp16
 70
     1
102
RTVSPropertyOp17
 70
     1
102
RTVSPropertyOp18
 70
     1
102
RTVSPropertyOp19
 70
     1
102
RTVSPropertyOp20
 70
     1
102
RTVSPropertyOp21
 70
     1
102
RTVSPropertyOp22
 70
     1
102
RTVSPropertyOp23
 70
     1
102
RTVSPropertyOp24
 70
     1
102
RTVSPropertyOp25
 70
     1
102
RTVSPropertyOp26
 70
     1
102
RTVSPropertyOp27
 70
     1
102
RTVSPropertyOp28
 70
     1
102
RTVSPropertyOp29
 70
     1
102
RTVSPropertyOp30
 70
     1
102
RTVSPropertyOp31
 70
     1
102
RTVSPropertyOp32
 70
     1
102
RTVSPropertyOp33
 70
     1
102
RTVSPropertyOp34
 70
     1
102
RTVSPropertyOp35
 70
     1
102
RTVSPropertyOp36
 70
     1
102
RTVSPropertyOp37
 70
     1
102
RTVSPropertyOp38
 70
     1
102
RTVSPropertyOp39
 70
     1
102
RTVSPropertyOp40
 70
     1
102
RTVSPropertyOp41
 70
     1
102
RTVSPropertyOp42
 70
     1
102
RTVSPropertyOp43
 70
     1
102
RTVSPropertyOp44
 70
     1
102
RTVSPropertyOp45
 70
     1
102
RTVSPropertyOp46
 70
     1
102
RTVSPropertyOp47
 70
     1
102
RTVSPropertyOp48
 70
     1
102
RTVSPropertyOp49
 70
     1
102
RTVSPropertyOp50
 70
     1
102
RTVSPropertyOp51
 70
     0
102
RTVSPropertyOp52
 70
     0
102
RTVSPropertyOp53
 70
     1
102
RTVSPropertyOp54
 70
     1
102
RTVSPropertyOp55
 70
     1
102
RTVSPropertyOp56
 70
     1
102
RTVSPropertyOp57
 70
     1
102
RTVSPost2010Prop28
280
     0
102
RTVSPost2010PropOp28
 70
     1
102
RTVSPost2010Prop29
280
     1
102
RTVSPost2010PropOp29
 70
     1
102
RTVSPost2010Prop30
280
     1
102
RTVSPost2010PropOp30
 70
     1
102
RTVSPost2010Prop31
280
     0
102
RTVSPost2010PropOp31
 70
     1
102
RTVSPost2010Prop32
280
     0
102
RTVSPost2010PropOp32
 70
     1
102
RTVSPost2010Prop33
280
     0
102
RTVSPost2010PropOp33
 70
     1
102
RTVSPost2010Prop34
280
     0
102
RTVSPost2010PropOp34
 70
     1
102
RTVSPost2010Prop35
280
     0
102
RTVSPost2010PropOp35
 70
     1
102
RTVSPost2010Prop36
280
     0
102
RTVSPost2010PropOp36
 70
     1
102
RTVSPost2010Prop37
 90
       50
102
RTVSPost2010PropOp37
 70
     1
102
RTVSPost2010Prop38
140
0.0
102
RTVSPost2010PropOp38
 70
     1
102
RTVSPost2010Prop39
140
1.0
102
RTVSPost2010PropOp39
 70
     1
102
RTVSPost2010Prop40
 90
        0
102
RTVSPost2010PropOp40
 70
     1
102
RTVSPost2010Prop41ColorIndex
 90
       18
102
RTVSPost2010Prop41ColorRGB
 90
        0
102
RTVSPost2010PropOp41
 70
     1
102
RTVSPost2010Prop42
 90
       50
102
RTVSPost2010PropOp42
 70
     1
102
RTVSPost2010Prop43
 90
        3
102
RTVSPost2010PropOp43
 70
     1
102
RTVSPost2010Prop44ColorIndex
 90
        5
102
RTVSPost2010Prop44ColorRGB
 90
      255
102
RTVSPost2010PropOp44
 70
     1
102
RTVSPost2010Prop45
280
     0
102
RTVSPost2010PropOp45
 70
     1
102
RTVSPost2010Prop46
 90
       50
102
RTVSPost2010PropOp46
 70
     1
102
RTVSPost2010Prop47
 90
       50
102
RTVSPost2010PropOp47
 70
     1
102
RTVSPost2010Prop48
 90
       50
102
RTVSPost2010PropOp48
 70
     1
102
RTVSPost2010Prop49
280
     0
102
RTVSPost2010PropOp49
 70
     1
102
RTVSPost2010Prop50
 90
       50
102
RTVSPost2010PropOp50
 70
     1
102
RTVSPost2010Prop51ColorIndex
 90
      256
102
RTVSPost2010Prop51ColorRGB
 90
-16777216
102
RTVSPost2010PropOp51
 70
     0
102
RTVSPost2010Prop52
140
1.0
102
RTVSPost2010PropOp52
 70
     0
102
RTVSPost2010Prop53
 90
        2
102
RTVSPost2010PropOp53
 70
     1
102
RTVSPost2010Prop54
  1
strokes_ogs.tif
102
RTVSPost2010PropOp54
 70
     1
102
RTVSPost2010Prop55
280
     0
102
RTVSPost2010PropOp55
 70
     1
102
RTVSPost2010Prop56
140
1.0
102
RTVSPost2010PropOp56
 70
     1
102
RTVSPost2010Prop57
140
1.0
102
RTVSPost2010PropOp57
 70
     1
  0
XRECORD
  5
E0E00001CCDC
102
{ACAD_REACTORS
330
E0E00001CCDB
102
}
330
E0E00001CCDB
100
AcDbXrecord
280
     1
102
RTVSPropertyOp0
 70
     1
102
RTVSPropertyOp1
 70
     1
102
RTVSPropertyOp2
 70
     1
102
RTVSPropertyOp3
 70
     1
102
RTVSPropertyOp4
 70
     1
102
RTVSPropertyOp5
 70
     1
102
RTVSPropertyOp6
 70
     1
102
RTVSPropertyOp7
 70
     1
102
RTVSPropertyOp8
 70
     1
102
RTVSPropertyOp9
 70
     1
102
RTVSPropertyOp10
 70
     1
102
RTVSPropertyOp11
 70
     1
102
RTVSPropertyOp12
 70
     1
102
RTVSPropertyOp13
 70
     1
102
RTVSPropertyOp14
 70
     1
102
RTVSPropertyOp15
 70
     1
102
RTVSPropertyOp16
 70
     1
102
RTVSPropertyOp17
 70
     1
102
RTVSPropertyOp18
 70
     1
102
RTVSPropertyOp19
 70
     1
102
RTVSPropertyOp20
 70
     1
102
RTVSPropertyOp21
 70
     1
102
RTVSPropertyOp22
 70
     1
102
RTVSPropertyOp23
 70
     1
102
RTVSPropertyOp24
 70
     1
102
RTVSPropertyOp25
 70
     1
102
RTVSPropertyOp26
 70
     1
102
RTVSPropertyOp27
 70
     1
102
RTVSPropertyOp28
 70
     1
102
RTVSPropertyOp29
 70
     1
102
RTVSPropertyOp30
 70
     1
102
RTVSPropertyOp31
 70
     1
102
RTVSPropertyOp32
 70
     1
102
RTVSPropertyOp33
 70
     1
102
RTVSPropertyOp34
 70
     1
102
RTVSPropertyOp35
 70
     1
102
RTVSPropertyOp36
 70
     1
102
RTVSPropertyOp37
 70
     1
102
RTVSPropertyOp38
 70
     1
102
RTVSPropertyOp39
 70
     1
102
RTVSPropertyOp40
 70
     1
102
RTVSPropertyOp41
 70
     1
102
RTVSPropertyOp42
 70
     1
102
RTVSPropertyOp43
 70
     1
102
RTVSPropertyOp44
 70
     1
102
RTVSPropertyOp45
 70
     1
102
RTVSPropertyOp46
 70
     1
102
RTVSPropertyOp47
 70
     1
102
RTVSPropertyOp48
 70
     1
102
RTVSPropertyOp49
 70
     1
102
RTVSPropertyOp50
 70
     1
102
RTVSPropertyOp51
 70
     0
102
RTVSPropertyOp52
 70
     0
102
RTVSPropertyOp53
 70
     1
102
RTVSPropertyOp54
 70
     1
102
RTVSPropertyOp55
 70
     1
102
RTVSPropertyOp56
 70
     1
102
RTVSPropertyOp57
 70
     1
102
RTVSPost2010Prop28
280
     0
102
RTVSPost2010PropOp28
 70
     1
102
RTVSPost2010Prop29
280
     1
102
RTVSPost2010PropOp29
 70
     1
102
RTVSPost2010Prop30
280
     1
102
RTVSPost2010PropOp30
 70
     1
102
RTVSPost2010Prop31
280
     0
102
RTVSPost2010PropOp31
 70
     1
102
RTVSPost2010Prop32
280
     0
102
RTVSPost2010PropOp32
 70
     1
102
RTVSPost2010Prop33
280
     0
102
RTVSPost2010PropOp33
 70
     1
102
RTVSPost2010Prop34
280
     0
102
RTVSPost2010PropOp34
 70
     1
102
RTVSPost2010Prop35
280
     0
102
RTVSPost2010PropOp35
 70
     1
102
RTVSPost2010Prop36
280
     0
102
RTVSPost2010PropOp36
 70
     1
102
RTVSPost2010Prop37
 90
       50
102
RTVSPost2010PropOp37
 70
     1
102
RTVSPost2010Prop38
140
0.0
102
RTVSPost2010PropOp38
 70
     1
102
RTVSPost2010Prop39
140
1.0
102
RTVSPost2010PropOp39
 70
     1
102
RTVSPost2010Prop40
 90
        0
102
RTVSPost2010PropOp40
 70
     1
102
RTVSPost2010Prop41ColorIndex
 90
       18
102
RTVSPost2010Prop41ColorRGB
 90
        0
102
RTVSPost2010PropOp41
 70
     1
102
RTVSPost2010Prop42
 90
       50
102
RTVSPost2010PropOp42
 70
     1
102
RTVSPost2010Prop43
 90
        3
102
RTVSPost2010PropOp43
 70
     1
102
RTVSPost2010Prop44ColorIndex
 90
        5
102
RTVSPost2010Prop44ColorRGB
 90
      255
102
RTVSPost2010PropOp44
 70
     1
102
RTVSPost2010Prop45
280
     0
102
RTVSPost2010PropOp45
 70
     1
102
RTVSPost2010Prop46
 90
       50
102
RTVSPost2010PropOp46
 70
     1
102
RTVSPost2010Prop47
 90
       50
102
RTVSPost2010PropOp47
 70
     1
102
RTVSPost2010Prop48
 90
       50
102
RTVSPost2010PropOp48
 70
     1
102
RTVSPost2010Prop49
280
     0
102
RTVSPost2010PropOp49
 70
     1
102
RTVSPost2010Prop50
 90
       50
102
RTVSPost2010PropOp50
 70
     1
102
RTVSPost2010Prop51ColorIndex
 90
      256
102
RTVSPost2010Prop51ColorRGB
 90
-16777216
102
RTVSPost2010PropOp51
 70
     0
102
RTVSPost2010Prop52
140
1.0
102
RTVSPost2010PropOp52
 70
     0
102
RTVSPost2010Prop53
 90
        2
102
RTVSPost2010PropOp53
 70
     1
102
RTVSPost2010Prop54
  1
strokes_ogs.tif
102
RTVSPost2010PropOp54
 70
     1
102
RTVSPost2010Prop55
280
     0
102
RTVSPost2010PropOp55
 70
     1
102
RTVSPost2010Prop56
140
1.0
102
RTVSPost2010PropOp56
 70
     1
102
RTVSPost2010Prop57
140
1.0
102
RTVSPost2010PropOp57
 70
     1
  0
XRECORD
  5
E0E00001CCDE
102
{ACAD_REACTORS
330
E0E00001CCDD
102
}
330
E0E00001CCDD
100
AcDbXrecord
280
     1
102
RTVSPropertyOp0
 70
     1
102
RTVSPropertyOp1
 70
     1
102
RTVSPropertyOp2
 70
     1
102
RTVSPropertyOp3
 70
     1
102
RTVSPropertyOp4
 70
     1
102
RTVSPropertyOp5
 70
     1
102
RTVSPropertyOp6
 70
     1
102
RTVSPropertyOp7
 70
     1
102
RTVSPropertyOp8
 70
     1
102
RTVSPropertyOp9
 70
     1
102
RTVSPropertyOp10
 70
     1
102
RTVSPropertyOp11
 70
     1
102
RTVSPropertyOp12
 70
     1
102
RTVSPropertyOp13
 70
     1
102
RTVSPropertyOp14
 70
     1
102
RTVSPropertyOp15
 70
     1
102
RTVSPropertyOp16
 70
     1
102
RTVSPropertyOp17
 70
     1
102
RTVSPropertyOp18
 70
     1
102
RTVSPropertyOp19
 70
     1
102
RTVSPropertyOp20
 70
     1
102
RTVSPropertyOp21
 70
     1
102
RTVSPropertyOp22
 70
     1
102
RTVSPropertyOp23
 70
     1
102
RTVSPropertyOp24
 70
     1
102
RTVSPropertyOp25
 70
     1
102
RTVSPropertyOp26
 70
     1
102
RTVSPropertyOp27
 70
     1
102
RTVSPropertyOp28
 70
     1
102
RTVSPropertyOp29
 70
     1
102
RTVSPropertyOp30
 70
     1
102
RTVSPropertyOp31
 70
     1
102
RTVSPropertyOp32
 70
     1
102
RTVSPropertyOp33
 70
     1
102
RTVSPropertyOp34
 70
     1
102
RTVSPropertyOp35
 70
     1
102
RTVSPropertyOp36
 70
     1
102
RTVSPropertyOp37
 70
     1
102
RTVSPropertyOp38
 70
     1
102
RTVSPropertyOp39
 70
     1
102
RTVSPropertyOp40
 70
     1
102
RTVSPropertyOp41
 70
     1
102
RTVSPropertyOp42
 70
     1
102
RTVSPropertyOp43
 70
     1
102
RTVSPropertyOp44
 70
     1
102
RTVSPropertyOp45
 70
     1
102
RTVSPropertyOp46
 70
     1
102
RTVSPropertyOp47
 70
     1
102
RTVSPropertyOp48
 70
     1
102
RTVSPropertyOp49
 70
     1
102
RTVSPropertyOp50
 70
     1
102
RTVSPropertyOp51
 70
     0
102
RTVSPropertyOp52
 70
     0
102
RTVSPropertyOp53
 70
     1
102
RTVSPropertyOp54
 70
     1
102
RTVSPropertyOp55
 70
     1
102
RTVSPropertyOp56
 70
     1
102
RTVSPropertyOp57
 70
     1
102
RTVSPost2010Prop28
280
     0
102
RTVSPost2010PropOp28
 70
     1
102
RTVSPost2010Prop29
280
     1
102
RTVSPost2010PropOp29
 70
     1
102
RTVSPost2010Prop30
280
     1
102
RTVSPost2010PropOp30
 70
     1
102
RTVSPost2010Prop31
280
     0
102
RTVSPost2010PropOp31
 70
     1
102
RTVSPost2010Prop32
280
     0
102
RTVSPost2010PropOp32
 70
     1
102
RTVSPost2010Prop33
280
     0
102
RTVSPost2010PropOp33
 70
     1
102
RTVSPost2010Prop34
280
     0
102
RTVSPost2010PropOp34
 70
     1
102
RTVSPost2010Prop35
280
     0
102
RTVSPost2010PropOp35
 70
     1
102
RTVSPost2010Prop36
280
     0
102
RTVSPost2010PropOp36
 70
     1
102
RTVSPost2010Prop37
 90
       50
102
RTVSPost2010PropOp37
 70
     1
102
RTVSPost2010Prop38
140
0.0
102
RTVSPost2010PropOp38
 70
     1
102
RTVSPost2010Prop39
140
1.0
102
RTVSPost2010PropOp39
 70
     1
102
RTVSPost2010Prop40
 90
        0
102
RTVSPost2010PropOp40
 70
     1
102
RTVSPost2010Prop41ColorIndex
 90
       18
102
RTVSPost2010Prop41ColorRGB
 90
        0
102
RTVSPost2010PropOp41
 70
     1
102
RTVSPost2010Prop42
 90
       50
102
RTVSPost2010PropOp42
 70
     1
102
RTVSPost2010Prop43
 90
        3
102
RTVSPost2010PropOp43
 70
     1
102
RTVSPost2010Prop44ColorIndex
 90
        5
102
RTVSPost2010Prop44ColorRGB
 90
      255
102
RTVSPost2010PropOp44
 70
     1
102
RTVSPost2010Prop45
280
     0
102
RTVSPost2010PropOp45
 70
     1
102
RTVSPost2010Prop46
 90
       50
102
RTVSPost2010PropOp46
 70
     1
102
RTVSPost2010Prop47
 90
       50
102
RTVSPost2010PropOp47
 70
     1
102
RTVSPost2010Prop48
 90
       50
102
RTVSPost2010PropOp48
 70
     1
102
RTVSPost2010Prop49
280
     0
102
RTVSPost2010PropOp49
 70
     1
102
RTVSPost2010Prop50
 90
       50
102
RTVSPost2010PropOp50
 70
     1
102
RTVSPost2010Prop51ColorIndex
 90
      256
102
RTVSPost2010Prop51ColorRGB
 90
-16777216
102
RTVSPost2010PropOp51
 70
     0
102
RTVSPost2010Prop52
140
1.0
102
RTVSPost2010PropOp52
 70
     0
102
RTVSPost2010Prop53
 90
        2
102
RTVSPost2010PropOp53
 70
     1
102
RTVSPost2010Prop54
  1
strokes_ogs.tif
102
RTVSPost2010PropOp54
 70
     1
102
RTVSPost2010Prop55
280
     0
102
RTVSPost2010PropOp55
 70
     1
102
RTVSPost2010Prop56
140
1.0
102
RTVSPost2010PropOp56
 70
     1
102
RTVSPost2010Prop57
140
1.0
102
RTVSPost2010PropOp57
 70
     1
  0
XRECORD
  5
E0E00001CCE0
102
{ACAD_REACTORS
330
E0E00001CCDF
102
}
330
E0E00001CCDF
100
AcDbXrecord
280
     1
102
RTVSPropertyOp0
 70
     1
102
RTVSPropertyOp1
 70
     1
102
RTVSPropertyOp2
 70
     1
102
RTVSPropertyOp3
 70
     1
102
RTVSPropertyOp4
 70
     1
102
RTVSPropertyOp5
 70
     1
102
RTVSPropertyOp6
 70
     1
102
RTVSPropertyOp7
 70
     1
102
RTVSPropertyOp8
 70
     1
102
RTVSPropertyOp9
 70
     1
102
RTVSPropertyOp10
 70
     1
102
RTVSPropertyOp11
 70
     1
102
RTVSPropertyOp12
 70
     1
102
RTVSPropertyOp13
 70
     1
102
RTVSPropertyOp14
 70
     1
102
RTVSPropertyOp15
 70
     1
102
RTVSPropertyOp16
 70
     1
102
RTVSPropertyOp17
 70
     1
102
RTVSPropertyOp18
 70
     1
102
RTVSPropertyOp19
 70
     1
102
RTVSPropertyOp20
 70
     1
102
RTVSPropertyOp21
 70
     1
102
RTVSPropertyOp22
 70
     1
102
RTVSPropertyOp23
 70
     1
102
RTVSPropertyOp24
 70
     1
102
RTVSPropertyOp25
 70
     1
102
RTVSPropertyOp26
 70
     1
102
RTVSPropertyOp27
 70
     1
102
RTVSPropertyOp28
 70
     1
102
RTVSPropertyOp29
 70
     1
102
RTVSPropertyOp30
 70
     1
102
RTVSPropertyOp31
 70
     1
102
RTVSPropertyOp32
 70
     1
102
RTVSPropertyOp33
 70
     1
102
RTVSPropertyOp34
 70
     1
102
RTVSPropertyOp35
 70
     1
102
RTVSPropertyOp36
 70
     1
102
RTVSPropertyOp37
 70
     1
102
RTVSPropertyOp38
 70
     1
102
RTVSPropertyOp39
 70
     1
102
RTVSPropertyOp40
 70
     1
102
RTVSPropertyOp41
 70
     1
102
RTVSPropertyOp42
 70
     1
102
RTVSPropertyOp43
 70
     1
102
RTVSPropertyOp44
 70
     1
102
RTVSPropertyOp45
 70
     1
102
RTVSPropertyOp46
 70
     1
102
RTVSPropertyOp47
 70
     1
102
RTVSPropertyOp48
 70
     1
102
RTVSPropertyOp49
 70
     1
102
RTVSPropertyOp50
 70
     1
102
RTVSPropertyOp51
 70
     0
102
RTVSPropertyOp52
 70
     0
102
RTVSPropertyOp53
 70
     1
102
RTVSPropertyOp54
 70
     1
102
RTVSPropertyOp55
 70
     1
102
RTVSPropertyOp56
 70
     1
102
RTVSPropertyOp57
 70
     1
102
RTVSPost2010Prop28
280
     0
102
RTVSPost2010PropOp28
 70
     1
102
RTVSPost2010Prop29
280
     1
102
RTVSPost2010PropOp29
 70
     1
102
RTVSPost2010Prop30
280
     1
102
RTVSPost2010PropOp30
 70
     1
102
RTVSPost2010Prop31
280
     0
102
RTVSPost2010PropOp31
 70
     1
102
RTVSPost2010Prop32
280
     0
102
RTVSPost2010PropOp32
 70
     1
102
RTVSPost2010Prop33
280
     0
102
RTVSPost2010PropOp33
 70
     1
102
RTVSPost2010Prop34
280
     0
102
RTVSPost2010PropOp34
 70
     1
102
RTVSPost2010Prop35
280
     0
102
RTVSPost2010PropOp35
 70
     1
102
RTVSPost2010Prop36
280
     0
102
RTVSPost2010PropOp36
 70
     1
102
RTVSPost2010Prop37
 90
       50
102
RTVSPost2010PropOp37
 70
     1
102
RTVSPost2010Prop38
140
0.0
102
RTVSPost2010PropOp38
 70
     1
102
RTVSPost2010Prop39
140
1.0
102
RTVSPost2010PropOp39
 70
     1
102
RTVSPost2010Prop40
 90
        0
102
RTVSPost2010PropOp40
 70
     1
102
RTVSPost2010Prop41ColorIndex
 90
       18
102
RTVSPost2010Prop41ColorRGB
 90
        0
102
RTVSPost2010PropOp41
 70
     1
102
RTVSPost2010Prop42
 90
       50
102
RTVSPost2010PropOp42
 70
     1
102
RTVSPost2010Prop43
 90
        3
102
RTVSPost2010PropOp43
 70
     1
102
RTVSPost2010Prop44ColorIndex
 90
        5
102
RTVSPost2010Prop44ColorRGB
 90
      255
102
RTVSPost2010PropOp44
 70
     1
102
RTVSPost2010Prop45
280
     0
102
RTVSPost2010PropOp45
 70
     1
102
RTVSPost2010Prop46
 90
       50
102
RTVSPost2010PropOp46
 70
     1
102
RTVSPost2010Prop47
 90
       50
102
RTVSPost2010PropOp47
 70
     1
102
RTVSPost2010Prop48
 90
       50
102
RTVSPost2010PropOp48
 70
     1
102
RTVSPost2010Prop49
280
     0
102
RTVSPost2010PropOp49
 70
     1
102
RTVSPost2010Prop50
 90
       50
102
RTVSPost2010PropOp50
 70
     1
102
RTVSPost2010Prop51ColorIndex
 90
      256
102
RTVSPost2010Prop51ColorRGB
 90
-16777216
102
RTVSPost2010PropOp51
 70
     0
102
RTVSPost2010Prop52
140
1.0
102
RTVSPost2010PropOp52
 70
     0
102
RTVSPost2010Prop53
 90
        2
102
RTVSPost2010PropOp53
 70
     1
102
RTVSPost2010Prop54
  1
strokes_ogs.tif
102
RTVSPost2010PropOp54
 70
     1
102
RTVSPost2010Prop55
280
     0
102
RTVSPost2010PropOp55
 70
     1
102
RTVSPost2010Prop56
140
1.0
102
RTVSPost2010PropOp56
 70
     1
102
RTVSPost2010Prop57
140
1.0
102
RTVSPost2010PropOp57
 70
     1
  0
XRECORD
  5
E0E00001CCE2
102
{ACAD_REACTORS
330
E0E00001CCE1
102
}
330
E0E00001CCE1
100
AcDbXrecord
280
     1
102
RTVSPropertyOp0
 70
     1
102
RTVSPropertyOp1
 70
     1
102
RTVSPropertyOp2
 70
     1
102
RTVSPropertyOp3
 70
     1
102
RTVSPropertyOp4
 70
     1
102
RTVSPropertyOp5
 70
     1
102
RTVSPropertyOp6
 70
     1
102
RTVSPropertyOp7
 70
     1
102
RTVSPropertyOp8
 70
     1
102
RTVSPropertyOp9
 70
     1
102
RTVSPropertyOp10
 70
     1
102
RTVSPropertyOp11
 70
     1
102
RTVSPropertyOp12
 70
     1
102
RTVSPropertyOp13
 70
     1
102
RTVSPropertyOp14
 70
     1
102
RTVSPropertyOp15
 70
     1
102
RTVSPropertyOp16
 70
     1
102
RTVSPropertyOp17
 70
     1
102
RTVSPropertyOp18
 70
     1
102
RTVSPropertyOp19
 70
     1
102
RTVSPropertyOp20
 70
     1
102
RTVSPropertyOp21
 70
     1
102
RTVSPropertyOp22
 70
     1
102
RTVSPropertyOp23
 70
     1
102
RTVSPropertyOp24
 70
     1
102
RTVSPropertyOp25
 70
     1
102
RTVSPropertyOp26
 70
     1
102
RTVSPropertyOp27
 70
     1
102
RTVSPropertyOp28
 70
     1
102
RTVSPropertyOp29
 70
     1
102
RTVSPropertyOp30
 70
     1
102
RTVSPropertyOp31
 70
     1
102
RTVSPropertyOp32
 70
     1
102
RTVSPropertyOp33
 70
     1
102
RTVSPropertyOp34
 70
     1
102
RTVSPropertyOp35
 70
     1
102
RTVSPropertyOp36
 70
     1
102
RTVSPropertyOp37
 70
     1
102
RTVSPropertyOp38
 70
     1
102
RTVSPropertyOp39
 70
     1
102
RTVSPropertyOp40
 70
     1
102
RTVSPropertyOp41
 70
     1
102
RTVSPropertyOp42
 70
     1
102
RTVSPropertyOp43
 70
     1
102
RTVSPropertyOp44
 70
     1
102
RTVSPropertyOp45
 70
     1
102
RTVSPropertyOp46
 70
     1
102
RTVSPropertyOp47
 70
     1
102
RTVSPropertyOp48
 70
     1
102
RTVSPropertyOp49
 70
     1
102
RTVSPropertyOp50
 70
     1
102
RTVSPropertyOp51
 70
     0
102
RTVSPropertyOp52
 70
     0
102
RTVSPropertyOp53
 70
     1
102
RTVSPropertyOp54
 70
     1
102
RTVSPropertyOp55
 70
     1
102
RTVSPropertyOp56
 70
     1
102
RTVSPropertyOp57
 70
     1
102
RTVSPost2010Prop28
280
     0
102
RTVSPost2010PropOp28
 70
     1
102
RTVSPost2010Prop29
280
     1
102
RTVSPost2010PropOp29
 70
     1
102
RTVSPost2010Prop30
280
     1
102
RTVSPost2010PropOp30
 70
     1
102
RTVSPost2010Prop31
280
     0
102
RTVSPost2010PropOp31
 70
     1
102
RTVSPost2010Prop32
280
     0
102
RTVSPost2010PropOp32
 70
     1
102
RTVSPost2010Prop33
280
     0
102
RTVSPost2010PropOp33
 70
     1
102
RTVSPost2010Prop34
280
     0
102
RTVSPost2010PropOp34
 70
     1
102
RTVSPost2010Prop35
280
     0
102
RTVSPost2010PropOp35
 70
     1
102
RTVSPost2010Prop36
280
     0
102
RTVSPost2010PropOp36
 70
     1
102
RTVSPost2010Prop37
 90
       50
102
RTVSPost2010PropOp37
 70
     1
102
RTVSPost2010Prop38
140
0.0
102
RTVSPost2010PropOp38
 70
     1
102
RTVSPost2010Prop39
140
1.0
102
RTVSPost2010PropOp39
 70
     1
102
RTVSPost2010Prop40
 90
        0
102
RTVSPost2010PropOp40
 70
     1
102
RTVSPost2010Prop41ColorIndex
 90
       18
102
RTVSPost2010Prop41ColorRGB
 90
        0
102
RTVSPost2010PropOp41
 70
     1
102
RTVSPost2010Prop42
 90
       50
102
RTVSPost2010PropOp42
 70
     1
102
RTVSPost2010Prop43
 90
        3
102
RTVSPost2010PropOp43
 70
     1
102
RTVSPost2010Prop44ColorIndex
 90
        5
102
RTVSPost2010Prop44ColorRGB
 90
      255
102
RTVSPost2010PropOp44
 70
     1
102
RTVSPost2010Prop45
280
     0
102
RTVSPost2010PropOp45
 70
     1
102
RTVSPost2010Prop46
 90
       50
102
RTVSPost2010PropOp46
 70
     1
102
RTVSPost2010Prop47
 90
       50
102
RTVSPost2010PropOp47
 70
     1
102
RTVSPost2010Prop48
 90
       50
102
RTVSPost2010PropOp48
 70
     1
102
RTVSPost2010Prop49
280
     0
102
RTVSPost2010PropOp49
 70
     1
102
RTVSPost2010Prop50
 90
       50
102
RTVSPost2010PropOp50
 70
     1
102
RTVSPost2010Prop51ColorIndex
 90
      256
102
RTVSPost2010Prop51ColorRGB
 90
-16777216
102
RTVSPost2010PropOp51
 70
     0
102
RTVSPost2010Prop52
140
1.0
102
RTVSPost2010PropOp52
 70
     0
102
RTVSPost2010Prop53
 90
        2
102
RTVSPost2010PropOp53
 70
     1
102
RTVSPost2010Prop54
  1
strokes_ogs.tif
102
RTVSPost2010PropOp54
 70
     1
102
RTVSPost2010Prop55
280
     0
102
RTVSPost2010PropOp55
 70
     1
102
RTVSPost2010Prop56
140
1.0
102
RTVSPost2010PropOp56
 70
     1
102
RTVSPost2010Prop57
140
1.0
102
RTVSPost2010PropOp57
 70
     1
  0
XRECORD
  5
E0E00001CCE4
102
{ACAD_REACTORS
330
E0E00001CCE3
102
}
330
E0E00001CCE3
100
AcDbXrecord
280
     1
102
RTVSPropertyOp0
 70
     1
102
RTVSPropertyOp1
 70
     1
102
RTVSPropertyOp2
 70
     1
102
RTVSPropertyOp3
 70
     1
102
RTVSPropertyOp4
 70
     1
102
RTVSPropertyOp5
 70
     1
102
RTVSPropertyOp6
 70
     1
102
RTVSPropertyOp7
 70
     1
102
RTVSPropertyOp8
 70
     1
102
RTVSPropertyOp9
 70
     1
102
RTVSPropertyOp10
 70
     1
102
RTVSPropertyOp11
 70
     1
102
RTVSPropertyOp12
 70
     1
102
RTVSPropertyOp13
 70
     1
102
RTVSPropertyOp14
 70
     1
102
RTVSPropertyOp15
 70
     1
102
RTVSPropertyOp16
 70
     1
102
RTVSPropertyOp17
 70
     1
102
RTVSPropertyOp18
 70
     1
102
RTVSPropertyOp19
 70
     1
102
RTVSPropertyOp20
 70
     1
102
RTVSPropertyOp21
 70
     1
102
RTVSPropertyOp22
 70
     1
102
RTVSPropertyOp23
 70
     1
102
RTVSPropertyOp24
 70
     1
102
RTVSPropertyOp25
 70
     1
102
RTVSPropertyOp26
 70
     1
102
RTVSPropertyOp27
 70
     1
102
RTVSPropertyOp28
 70
     1
102
RTVSPropertyOp29
 70
     1
102
RTVSPropertyOp30
 70
     1
102
RTVSPropertyOp31
 70
     1
102
RTVSPropertyOp32
 70
     1
102
RTVSPropertyOp33
 70
     1
102
RTVSPropertyOp34
 70
     1
102
RTVSPropertyOp35
 70
     1
102
RTVSPropertyOp36
 70
     1
102
RTVSPropertyOp37
 70
     1
102
RTVSPropertyOp38
 70
     1
102
RTVSPropertyOp39
 70
     1
102
RTVSPropertyOp40
 70
     1
102
RTVSPropertyOp41
 70
     1
102
RTVSPropertyOp42
 70
     1
102
RTVSPropertyOp43
 70
     1
102
RTVSPropertyOp44
 70
     1
102
RTVSPropertyOp45
 70
     1
102
RTVSPropertyOp46
 70
     1
102
RTVSPropertyOp47
 70
     1
102
RTVSPropertyOp48
 70
     1
102
RTVSPropertyOp49
 70
     1
102
RTVSPropertyOp50
 70
     1
102
RTVSPropertyOp51
 70
     0
102
RTVSPropertyOp52
 70
     0
102
RTVSPropertyOp53
 70
     1
102
RTVSPropertyOp54
 70
     1
102
RTVSPropertyOp55
 70
     1
102
RTVSPropertyOp56
 70
     1
102
RTVSPropertyOp57
 70
     1
102
RTVSPost2010Prop28
280
     0
102
RTVSPost2010PropOp28
 70
     1
102
RTVSPost2010Prop29
280
     1
102
RTVSPost2010PropOp29
 70
     1
102
RTVSPost2010Prop30
280
     1
102
RTVSPost2010PropOp30
 70
     1
102
RTVSPost2010Prop31
280
     0
102
RTVSPost2010PropOp31
 70
     1
102
RTVSPost2010Prop32
280
     0
102
RTVSPost2010PropOp32
 70
     1
102
RTVSPost2010Prop33
280
     0
102
RTVSPost2010PropOp33
 70
     1
102
RTVSPost2010Prop34
280
     0
102
RTVSPost2010PropOp34
 70
     1
102
RTVSPost2010Prop35
280
     0
102
RTVSPost2010PropOp35
 70
     1
102
RTVSPost2010Prop36
280
     0
102
RTVSPost2010PropOp36
 70
     1
102
RTVSPost2010Prop37
 90
       50
102
RTVSPost2010PropOp37
 70
     1
102
RTVSPost2010Prop38
140
0.0
102
RTVSPost2010PropOp38
 70
     1
102
RTVSPost2010Prop39
140
1.0
102
RTVSPost2010PropOp39
 70
     1
102
RTVSPost2010Prop40
 90
        0
102
RTVSPost2010PropOp40
 70
     1
102
RTVSPost2010Prop41ColorIndex
 90
       18
102
RTVSPost2010Prop41ColorRGB
 90
        0
102
RTVSPost2010PropOp41
 70
     1
102
RTVSPost2010Prop42
 90
       50
102
RTVSPost2010PropOp42
 70
     1
102
RTVSPost2010Prop43
 90
        3
102
RTVSPost2010PropOp43
 70
     1
102
RTVSPost2010Prop44ColorIndex
 90
        5
102
RTVSPost2010Prop44ColorRGB
 90
      255
102
RTVSPost2010PropOp44
 70
     1
102
RTVSPost2010Prop45
280
     0
102
RTVSPost2010PropOp45
 70
     1
102
RTVSPost2010Prop46
 90
       50
102
RTVSPost2010PropOp46
 70
     1
102
RTVSPost2010Prop47
 90
       50
102
RTVSPost2010PropOp47
 70
     1
102
RTVSPost2010Prop48
 90
       50
102
RTVSPost2010PropOp48
 70
     1
102
RTVSPost2010Prop49
280
     0
102
RTVSPost2010PropOp49
 70
     1
102
RTVSPost2010Prop50
 90
       50
102
RTVSPost2010PropOp50
 70
     1
102
RTVSPost2010Prop51ColorIndex
 90
      256
102
RTVSPost2010Prop51ColorRGB
 90
-16777216
102
RTVSPost2010PropOp51
 70
     0
102
RTVSPost2010Prop52
140
1.0
102
RTVSPost2010PropOp52
 70
     0
102
RTVSPost2010Prop53
 90
        2
102
RTVSPost2010PropOp53
 70
     1
102
RTVSPost2010Prop54
  1
strokes_ogs.tif
102
RTVSPost2010PropOp54
 70
     1
102
RTVSPost2010Prop55
280
     0
102
RTVSPost2010PropOp55
 70
     1
102
RTVSPost2010Prop56
140
1.0
102
RTVSPost2010PropOp56
 70
     1
102
RTVSPost2010Prop57
140
1.0
102
RTVSPost2010PropOp57
 70
     1
  0
XRECORD
  5
E0E00001CCE6
102
{ACAD_REACTORS
330
E0E00001CCE5
102
}
330
E0E00001CCE5
100
AcDbXrecord
280
     1
102
RTVSPropertyOp0
 70
     1
102
RTVSPropertyOp1
 70
     1
102
RTVSPropertyOp2
 70
     1
102
RTVSPropertyOp3
 70
     1
102
RTVSPropertyOp4
 70
     1
102
RTVSPropertyOp5
 70
     1
102
RTVSPropertyOp6
 70
     1
102
RTVSPropertyOp7
 70
     1
102
RTVSPropertyOp8
 70
     1
102
RTVSPropertyOp9
 70
     1
102
RTVSPropertyOp10
 70
     1
102
RTVSPropertyOp11
 70
     1
102
RTVSPropertyOp12
 70
     1
102
RTVSPropertyOp13
 70
     1
102
RTVSPropertyOp14
 70
     1
102
RTVSPropertyOp15
 70
     1
102
RTVSPropertyOp16
 70
     1
102
RTVSPropertyOp17
 70
     1
102
RTVSPropertyOp18
 70
     1
102
RTVSPropertyOp19
 70
     1
102
RTVSPropertyOp20
 70
     1
102
RTVSPropertyOp21
 70
     1
102
RTVSPropertyOp22
 70
     1
102
RTVSPropertyOp23
 70
     1
102
RTVSPropertyOp24
 70
     1
102
RTVSPropertyOp25
 70
     1
102
RTVSPropertyOp26
 70
     1
102
RTVSPropertyOp27
 70
     1
102
RTVSPropertyOp28
 70
     1
102
RTVSPropertyOp29
 70
     1
102
RTVSPropertyOp30
 70
     1
102
RTVSPropertyOp31
 70
     1
102
RTVSPropertyOp32
 70
     1
102
RTVSPropertyOp33
 70
     1
102
RTVSPropertyOp34
 70
     1
102
RTVSPropertyOp35
 70
     1
102
RTVSPropertyOp36
 70
     1
102
RTVSPropertyOp37
 70
     1
102
RTVSPropertyOp38
 70
     1
102
RTVSPropertyOp39
 70
     1
102
RTVSPropertyOp40
 70
     1
102
RTVSPropertyOp41
 70
     1
102
RTVSPropertyOp42
 70
     1
102
RTVSPropertyOp43
 70
     1
102
RTVSPropertyOp44
 70
     1
102
RTVSPropertyOp45
 70
     1
102
RTVSPropertyOp46
 70
     1
102
RTVSPropertyOp47
 70
     1
102
RTVSPropertyOp48
 70
     1
102
RTVSPropertyOp49
 70
     1
102
RTVSPropertyOp50
 70
     1
102
RTVSPropertyOp51
 70
     0
102
RTVSPropertyOp52
 70
     0
102
RTVSPropertyOp53
 70
     1
102
RTVSPropertyOp54
 70
     1
102
RTVSPropertyOp55
 70
     1
102
RTVSPropertyOp56
 70
     1
102
RTVSPropertyOp57
 70
     1
102
RTVSPost2010Prop28
280
     0
102
RTVSPost2010PropOp28
 70
     1
102
RTVSPost2010Prop29
280
     1
102
RTVSPost2010PropOp29
 70
     1
102
RTVSPost2010Prop30
280
     1
102
RTVSPost2010PropOp30
 70
     1
102
RTVSPost2010Prop31
280
     0
102
RTVSPost2010PropOp31
 70
     1
102
RTVSPost2010Prop32
280
     0
102
RTVSPost2010PropOp32
 70
     1
102
RTVSPost2010Prop33
280
     0
102
RTVSPost2010PropOp33
 70
     1
102
RTVSPost2010Prop34
280
     0
102
RTVSPost2010PropOp34
 70
     1
102
RTVSPost2010Prop35
280
     0
102
RTVSPost2010PropOp35
 70
     1
102
RTVSPost2010Prop36
280
     0
102
RTVSPost2010PropOp36
 70
     1
102
RTVSPost2010Prop37
 90
       50
102
RTVSPost2010PropOp37
 70
     1
102
RTVSPost2010Prop38
140
0.0
102
RTVSPost2010PropOp38
 70
     1
102
RTVSPost2010Prop39
140
1.0
102
RTVSPost2010PropOp39
 70
     1
102
RTVSPost2010Prop40
 90
        0
102
RTVSPost2010PropOp40
 70
     1
102
RTVSPost2010Prop41ColorIndex
 90
       18
102
RTVSPost2010Prop41ColorRGB
 90
        0
102
RTVSPost2010PropOp41
 70
     1
102
RTVSPost2010Prop42
 90
       50
102
RTVSPost2010PropOp42
 70
     1
102
RTVSPost2010Prop43
 90
        3
102
RTVSPost2010PropOp43
 70
     1
102
RTVSPost2010Prop44ColorIndex
 90
        5
102
RTVSPost2010Prop44ColorRGB
 90
      255
102
RTVSPost2010PropOp44
 70
     1
102
RTVSPost2010Prop45
280
     0
102
RTVSPost2010PropOp45
 70
     1
102
RTVSPost2010Prop46
 90
       50
102
RTVSPost2010PropOp46
 70
     1
102
RTVSPost2010Prop47
 90
       50
102
RTVSPost2010PropOp47
 70
     1
102
RTVSPost2010Prop48
 90
       50
102
RTVSPost2010PropOp48
 70
     1
102
RTVSPost2010Prop49
280
     0
102
RTVSPost2010PropOp49
 70
     1
102
RTVSPost2010Prop50
 90
       50
102
RTVSPost2010PropOp50
 70
     1
102
RTVSPost2010Prop51ColorIndex
 90
      256
102
RTVSPost2010Prop51ColorRGB
 90
-16777216
102
RTVSPost2010PropOp51
 70
     0
102
RTVSPost2010Prop52
140
1.0
102
RTVSPost2010PropOp52
 70
     0
102
RTVSPost2010Prop53
 90
        2
102
RTVSPost2010PropOp53
 70
     1
102
RTVSPost2010Prop54
  1
strokes_ogs.tif
102
RTVSPost2010PropOp54
 70
     1
102
RTVSPost2010Prop55
280
     0
102
RTVSPost2010PropOp55
 70
     1
102
RTVSPost2010Prop56
140
1.0
102
RTVSPost2010PropOp56
 70
     1
102
RTVSPost2010Prop57
140
1.0
102
RTVSPost2010PropOp57
 70
     1
  0
XRECORD
  5
E0E00001CD00
102
{ACAD_REACTORS
330
E0E00001CCFF
102
}
330
E0E00001CCFF
100
AcDbXrecord
280
     1
102
RTVSPropertyOp0
 70
     0
102
RTVSPropertyOp1
 70
     0
102
RTVSPropertyOp2
 70
     0
102
RTVSPropertyOp3
 70
     0
102
RTVSPropertyOp4
 70
     0
102
RTVSPropertyOp5
 70
     0
102
RTVSPropertyOp6
 70
     0
102
RTVSPropertyOp7
 70
     0
102
RTVSPropertyOp8
 70
     0
102
RTVSPropertyOp9
 70
     0
102
RTVSPropertyOp10
 70
     0
102
RTVSPropertyOp11
 70
     0
102
RTVSPropertyOp12
 70
     0
102
RTVSPropertyOp13
 70
     0
102
RTVSPropertyOp14
 70
     2
102
RTVSPropertyOp15
 70
     0
102
RTVSPropertyOp16
 70
     0
102
RTVSPropertyOp17
 70
     0
102
RTVSPropertyOp18
 70
     0
102
RTVSPropertyOp19
 70
     0
102
RTVSPropertyOp20
 70
     0
102
RTVSPropertyOp21
 70
     0
102
RTVSPropertyOp22
 70
     0
102
RTVSPropertyOp23
 70
     0
102
RTVSPropertyOp24
 70
     0
102
RTVSPropertyOp25
 70
     0
102
RTVSPropertyOp26
 70
     0
102
RTVSPropertyOp27
 70
     0
102
RTVSPropertyOp28
 70
     0
102
RTVSPropertyOp29
 70
     0
102
RTVSPropertyOp30
 70
     0
102
RTVSPropertyOp31
 70
     0
102
RTVSPropertyOp32
 70
     0
102
RTVSPropertyOp33
 70
     0
102
RTVSPropertyOp34
 70
     0
102
RTVSPropertyOp35
 70
     0
102
RTVSPropertyOp36
 70
     0
102
RTVSPropertyOp37
 70
     0
102
RTVSPropertyOp38
 70
     0
102
RTVSPropertyOp39
 70
     0
102
RTVSPropertyOp40
 70
     0
102
RTVSPropertyOp41
 70
     0
102
RTVSPropertyOp42
 70
     0
102
RTVSPropertyOp43
 70
     0
102
RTVSPropertyOp44
 70
     0
102
RTVSPropertyOp45
 70
     0
102
RTVSPropertyOp46
 70
     0
102
RTVSPropertyOp47
 70
     0
102
RTVSPropertyOp48
 70
     0
102
RTVSPropertyOp49
 70
     0
102
RTVSPropertyOp50
 70
     0
102
RTVSPropertyOp51
 70
     0
102
RTVSPropertyOp52
 70
     0
102
RTVSPropertyOp53
 70
     0
102
RTVSPropertyOp54
 70
     0
102
RTVSPropertyOp55
 70
     0
102
RTVSPropertyOp56
 70
     0
102
RTVSPropertyOp57
 70
     0
102
RTVSPost2010Prop28
280
     0
102
RTVSPost2010PropOp28
 70
     0
102
RTVSPost2010Prop29
280
     1
102
RTVSPost2010PropOp29
 70
     0
102
RTVSPost2010Prop30
280
     1
102
RTVSPost2010PropOp30
 70
     0
102
RTVSPost2010Prop31
280
     0
102
RTVSPost2010PropOp31
 70
     0
102
RTVSPost2010Prop32
280
     0
102
RTVSPost2010PropOp32
 70
     0
102
RTVSPost2010Prop33
280
     0
102
RTVSPost2010PropOp33
 70
     0
102
RTVSPost2010Prop34
280
     0
102
RTVSPost2010PropOp34
 70
     0
102
RTVSPost2010Prop35
280
     0
102
RTVSPost2010PropOp35
 70
     0
102
RTVSPost2010Prop36
280
     0
102
RTVSPost2010PropOp36
 70
     0
102
RTVSPost2010Prop37
 90
       50
102
RTVSPost2010PropOp37
 70
     0
102
RTVSPost2010Prop38
140
0.0
102
RTVSPost2010PropOp38
 70
     0
102
RTVSPost2010Prop39
140
1.0
102
RTVSPost2010PropOp39
 70
     0
102
RTVSPost2010Prop40
 90
        0
102
RTVSPost2010PropOp40
 70
     0
102
RTVSPost2010Prop41ColorIndex
 90
       18
102
RTVSPost2010Prop41ColorRGB
 90
        0
102
RTVSPost2010PropOp41
 70
     0
102
RTVSPost2010Prop42
 90
       50
102
RTVSPost2010PropOp42
 70
     0
102
RTVSPost2010Prop43
 90
        3
102
RTVSPost2010PropOp43
 70
     0
102
RTVSPost2010Prop44ColorIndex
 90
        5
102
RTVSPost2010Prop44ColorRGB
 90
      255
102
RTVSPost2010PropOp44
 70
     0
102
RTVSPost2010Prop45
280
     0
102
RTVSPost2010PropOp45
 70
     0
102
RTVSPost2010Prop46
 90
       50
102
RTVSPost2010PropOp46
 70
     0
102
RTVSPost2010Prop47
 90
       50
102
RTVSPost2010PropOp47
 70
     0
102
RTVSPost2010Prop48
 90
       50
102
RTVSPost2010PropOp48
 70
     0
102
RTVSPost2010Prop49
280
     0
102
RTVSPost2010PropOp49
 70
     0
102
RTVSPost2010Prop50
 90
       50
102
RTVSPost2010PropOp50
 70
     0
102
RTVSPost2010Prop51ColorIndex
 90
      256
102
RTVSPost2010Prop51ColorRGB
 90
-16777216
102
RTVSPost2010PropOp51
 70
     0
102
RTVSPost2010Prop52
140
1.0
102
RTVSPost2010PropOp52
 70
     0
102
RTVSPost2010Prop53
 90
        2
102
RTVSPost2010PropOp53
 70
     0
102
RTVSPost2010Prop54
  1
strokes_ogs.tif
102
RTVSPost2010PropOp54
 70
     0
102
RTVSPost2010Prop55
280
     0
102
RTVSPost2010PropOp55
 70
     0
102
RTVSPost2010Prop56
140
1.0
102
RTVSPost2010PropOp56
 70
     0
102
RTVSPost2010Prop57
140
1.0
102
RTVSPost2010PropOp57
 70
     0
  0
XRECORD
  5
E0E00001CCE8
102
{ACAD_REACTORS
330
E0E00001CCE7
102
}
330
E0E00001CCE7
100
AcDbXrecord
280
     1
102
RTVSPropertyOp0
 70
     1
102
RTVSPropertyOp1
 70
     1
102
RTVSPropertyOp2
 70
     1
102
RTVSPropertyOp3
 70
     1
102
RTVSPropertyOp4
 70
     1
102
RTVSPropertyOp5
 70
     1
102
RTVSPropertyOp6
 70
     1
102
RTVSPropertyOp7
 70
     1
102
RTVSPropertyOp8
 70
     1
102
RTVSPropertyOp9
 70
     1
102
RTVSPropertyOp10
 70
     1
102
RTVSPropertyOp11
 70
     1
102
RTVSPropertyOp12
 70
     1
102
RTVSPropertyOp13
 70
     1
102
RTVSPropertyOp14
 70
     1
102
RTVSPropertyOp15
 70
     1
102
RTVSPropertyOp16
 70
     1
102
RTVSPropertyOp17
 70
     1
102
RTVSPropertyOp18
 70
     1
102
RTVSPropertyOp19
 70
     1
102
RTVSPropertyOp20
 70
     1
102
RTVSPropertyOp21
 70
     1
102
RTVSPropertyOp22
 70
     1
102
RTVSPropertyOp23
 70
     1
102
RTVSPropertyOp24
 70
     1
102
RTVSPropertyOp25
 70
     1
102
RTVSPropertyOp26
 70
     1
102
RTVSPropertyOp27
 70
     1
102
RTVSPropertyOp28
 70
     1
102
RTVSPropertyOp29
 70
     1
102
RTVSPropertyOp30
 70
     1
102
RTVSPropertyOp31
 70
     1
102
RTVSPropertyOp32
 70
     1
102
RTVSPropertyOp33
 70
     1
102
RTVSPropertyOp34
 70
     1
102
RTVSPropertyOp35
 70
     1
102
RTVSPropertyOp36
 70
     1
102
RTVSPropertyOp37
 70
     1
102
RTVSPropertyOp38
 70
     1
102
RTVSPropertyOp39
 70
     1
102
RTVSPropertyOp40
 70
     1
102
RTVSPropertyOp41
 70
     1
102
RTVSPropertyOp42
 70
     1
102
RTVSPropertyOp43
 70
     1
102
RTVSPropertyOp44
 70
     1
102
RTVSPropertyOp45
 70
     1
102
RTVSPropertyOp46
 70
     1
102
RTVSPropertyOp47
 70
     1
102
RTVSPropertyOp48
 70
     1
102
RTVSPropertyOp49
 70
     1
102
RTVSPropertyOp50
 70
     1
102
RTVSPropertyOp51
 70
     0
102
RTVSPropertyOp52
 70
     0
102
RTVSPropertyOp53
 70
     1
102
RTVSPropertyOp54
 70
     1
102
RTVSPropertyOp55
 70
     1
102
RTVSPropertyOp56
 70
     1
102
RTVSPropertyOp57
 70
     1
102
RTVSPost2010Prop28
280
     0
102
RTVSPost2010PropOp28
 70
     1
102
RTVSPost2010Prop29
280
     1
102
RTVSPost2010PropOp29
 70
     1
102
RTVSPost2010Prop30
280
     1
102
RTVSPost2010PropOp30
 70
     1
102
RTVSPost2010Prop31
280
     0
102
RTVSPost2010PropOp31
 70
     1
102
RTVSPost2010Prop32
280
     0
102
RTVSPost2010PropOp32
 70
     1
102
RTVSPost2010Prop33
280
     0
102
RTVSPost2010PropOp33
 70
     1
102
RTVSPost2010Prop34
280
     0
102
RTVSPost2010PropOp34
 70
     1
102
RTVSPost2010Prop35
280
     0
102
RTVSPost2010PropOp35
 70
     1
102
RTVSPost2010Prop36
280
     0
102
RTVSPost2010PropOp36
 70
     1
102
RTVSPost2010Prop37
 90
       50
102
RTVSPost2010PropOp37
 70
     1
102
RTVSPost2010Prop38
140
0.0
102
RTVSPost2010PropOp38
 70
     1
102
RTVSPost2010Prop39
140
1.0
102
RTVSPost2010PropOp39
 70
     1
102
RTVSPost2010Prop40
 90
        0
102
RTVSPost2010PropOp40
 70
     1
102
RTVSPost2010Prop41ColorIndex
 90
       18
102
RTVSPost2010Prop41ColorRGB
 90
        0
102
RTVSPost2010PropOp41
 70
     1
102
RTVSPost2010Prop42
 90
       50
102
RTVSPost2010PropOp42
 70
     1
102
RTVSPost2010Prop43
 90
        3
102
RTVSPost2010PropOp43
 70
     1
102
RTVSPost2010Prop44ColorIndex
 90
        5
102
RTVSPost2010Prop44ColorRGB
 90
      255
102
RTVSPost2010PropOp44
 70
     1
102
RTVSPost2010Prop45
280
     0
102
RTVSPost2010PropOp45
 70
     1
102
RTVSPost2010Prop46
 90
       50
102
RTVSPost2010PropOp46
 70
     1
102
RTVSPost2010Prop47
 90
       50
102
RTVSPost2010PropOp47
 70
     1
102
RTVSPost2010Prop48
 90
       50
102
RTVSPost2010PropOp48
 70
     1
102
RTVSPost2010Prop49
280
     0
102
RTVSPost2010PropOp49
 70
     1
102
RTVSPost2010Prop50
 90
       50
102
RTVSPost2010PropOp50
 70
     1
102
RTVSPost2010Prop51ColorIndex
 90
      256
102
RTVSPost2010Prop51ColorRGB
 90
-16777216
102
RTVSPost2010PropOp51
 70
     0
102
RTVSPost2010Prop52
140
1.0
102
RTVSPost2010PropOp52
 70
     0
102
RTVSPost2010Prop53
 90
        2
102
RTVSPost2010PropOp53
 70
     1
102
RTVSPost2010Prop54
  1
strokes_ogs.tif
102
RTVSPost2010PropOp54
 70
     1
102
RTVSPost2010Prop55
280
     0
102
RTVSPost2010PropOp55
 70
     1
102
RTVSPost2010Prop56
140
1.0
102
RTVSPost2010PropOp56
 70
     1
102
RTVSPost2010Prop57
140
1.0
102
RTVSPost2010PropOp57
 70
     1
  0
XRECORD
  5
E0E00001CCEA
102
{ACAD_REACTORS
330
E0E00001CCE9
102
}
330
E0E00001CCE9
100
AcDbXrecord
280
     1
102
RTVSPropertyOp0
 70
     1
102
RTVSPropertyOp1
 70
     1
102
RTVSPropertyOp2
 70
     1
102
RTVSPropertyOp3
 70
     1
102
RTVSPropertyOp4
 70
     1
102
RTVSPropertyOp5
 70
     1
102
RTVSPropertyOp6
 70
     1
102
RTVSPropertyOp7
 70
     1
102
RTVSPropertyOp8
 70
     1
102
RTVSPropertyOp9
 70
     1
102
RTVSPropertyOp10
 70
     1
102
RTVSPropertyOp11
 70
     1
102
RTVSPropertyOp12
 70
     1
102
RTVSPropertyOp13
 70
     1
102
RTVSPropertyOp14
 70
     1
102
RTVSPropertyOp15
 70
     1
102
RTVSPropertyOp16
 70
     1
102
RTVSPropertyOp17
 70
     1
102
RTVSPropertyOp18
 70
     1
102
RTVSPropertyOp19
 70
     1
102
RTVSPropertyOp20
 70
     1
102
RTVSPropertyOp21
 70
     1
102
RTVSPropertyOp22
 70
     1
102
RTVSPropertyOp23
 70
     1
102
RTVSPropertyOp24
 70
     1
102
RTVSPropertyOp25
 70
     1
102
RTVSPropertyOp26
 70
     1
102
RTVSPropertyOp27
 70
     1
102
RTVSPropertyOp28
 70
     1
102
RTVSPropertyOp29
 70
     1
102
RTVSPropertyOp30
 70
     1
102
RTVSPropertyOp31
 70
     1
102
RTVSPropertyOp32
 70
     1
102
RTVSPropertyOp33
 70
     1
102
RTVSPropertyOp34
 70
     1
102
RTVSPropertyOp35
 70
     1
102
RTVSPropertyOp36
 70
     1
102
RTVSPropertyOp37
 70
     1
102
RTVSPropertyOp38
 70
     1
102
RTVSPropertyOp39
 70
     1
102
RTVSPropertyOp40
 70
     1
102
RTVSPropertyOp41
 70
     1
102
RTVSPropertyOp42
 70
     1
102
RTVSPropertyOp43
 70
     1
102
RTVSPropertyOp44
 70
     1
102
RTVSPropertyOp45
 70
     1
102
RTVSPropertyOp46
 70
     1
102
RTVSPropertyOp47
 70
     1
102
RTVSPropertyOp48
 70
     1
102
RTVSPropertyOp49
 70
     1
102
RTVSPropertyOp50
 70
     1
102
RTVSPropertyOp51
 70
     0
102
RTVSPropertyOp52
 70
     0
102
RTVSPropertyOp53
 70
     1
102
RTVSPropertyOp54
 70
     1
102
RTVSPropertyOp55
 70
     1
102
RTVSPropertyOp56
 70
     1
102
RTVSPropertyOp57
 70
     1
102
RTVSPost2010Prop28
280
     0
102
RTVSPost2010PropOp28
 70
     1
102
RTVSPost2010Prop29
280
     1
102
RTVSPost2010PropOp29
 70
     1
102
RTVSPost2010Prop30
280
     1
102
RTVSPost2010PropOp30
 70
     1
102
RTVSPost2010Prop31
280
     0
102
RTVSPost2010PropOp31
 70
     1
102
RTVSPost2010Prop32
280
     0
102
RTVSPost2010PropOp32
 70
     1
102
RTVSPost2010Prop33
280
     0
102
RTVSPost2010PropOp33
 70
     1
102
RTVSPost2010Prop34
280
     0
102
RTVSPost2010PropOp34
 70
     1
102
RTVSPost2010Prop35
280
     0
102
RTVSPost2010PropOp35
 70
     1
102
RTVSPost2010Prop36
280
     0
102
RTVSPost2010PropOp36
 70
     1
102
RTVSPost2010Prop37
 90
       50
102
RTVSPost2010PropOp37
 70
     1
102
RTVSPost2010Prop38
140
0.0
102
RTVSPost2010PropOp38
 70
     1
102
RTVSPost2010Prop39
140
1.0
102
RTVSPost2010PropOp39
 70
     1
102
RTVSPost2010Prop40
 90
        0
102
RTVSPost2010PropOp40
 70
     1
102
RTVSPost2010Prop41ColorIndex
 90
       18
102
RTVSPost2010Prop41ColorRGB
 90
        0
102
RTVSPost2010PropOp41
 70
     1
102
RTVSPost2010Prop42
 90
       50
102
RTVSPost2010PropOp42
 70
     1
102
RTVSPost2010Prop43
 90
        3
102
RTVSPost2010PropOp43
 70
     1
102
RTVSPost2010Prop44ColorIndex
 90
        5
102
RTVSPost2010Prop44ColorRGB
 90
      255
102
RTVSPost2010PropOp44
 70
     1
102
RTVSPost2010Prop45
280
     0
102
RTVSPost2010PropOp45
 70
     1
102
RTVSPost2010Prop46
 90
       50
102
RTVSPost2010PropOp46
 70
     1
102
RTVSPost2010Prop47
 90
       50
102
RTVSPost2010PropOp47
 70
     1
102
RTVSPost2010Prop48
 90
       50
102
RTVSPost2010PropOp48
 70
     1
102
RTVSPost2010Prop49
280
     0
102
RTVSPost2010PropOp49
 70
     1
102
RTVSPost2010Prop50
 90
       50
102
RTVSPost2010PropOp50
 70
     1
102
RTVSPost2010Prop51ColorIndex
 90
      256
102
RTVSPost2010Prop51ColorRGB
 90
-16777216
102
RTVSPost2010PropOp51
 70
     0
102
RTVSPost2010Prop52
140
1.0
102
RTVSPost2010PropOp52
 70
     0
102
RTVSPost2010Prop53
 90
        2
102
RTVSPost2010PropOp53
 70
     1
102
RTVSPost2010Prop54
  1
strokes_ogs.tif
102
RTVSPost2010PropOp54
 70
     1
102
RTVSPost2010Prop55
280
     0
102
RTVSPost2010PropOp55
 70
     1
102
RTVSPost2010Prop56
140
1.0
102
RTVSPost2010PropOp56
 70
     1
102
RTVSPost2010Prop57
140
1.0
102
RTVSPost2010PropOp57
 70
     1
  0
XRECORD
  5
E0E00001CCEC
102
{ACAD_REACTORS
330
E0E00001CCEB
102
}
330
E0E00001CCEB
100
AcDbXrecord
280
     1
102
RTVSPropertyOp0
 70
     1
102
RTVSPropertyOp1
 70
     1
102
RTVSPropertyOp2
 70
     1
102
RTVSPropertyOp3
 70
     1
102
RTVSPropertyOp4
 70
     1
102
RTVSPropertyOp5
 70
     1
102
RTVSPropertyOp6
 70
     1
102
RTVSPropertyOp7
 70
     1
102
RTVSPropertyOp8
 70
     1
102
RTVSPropertyOp9
 70
     1
102
RTVSPropertyOp10
 70
     1
102
RTVSPropertyOp11
 70
     1
102
RTVSPropertyOp12
 70
     1
102
RTVSPropertyOp13
 70
     1
102
RTVSPropertyOp14
 70
     1
102
RTVSPropertyOp15
 70
     1
102
RTVSPropertyOp16
 70
     1
102
RTVSPropertyOp17
 70
     1
102
RTVSPropertyOp18
 70
     1
102
RTVSPropertyOp19
 70
     1
102
RTVSPropertyOp20
 70
     1
102
RTVSPropertyOp21
 70
     1
102
RTVSPropertyOp22
 70
     1
102
RTVSPropertyOp23
 70
     1
102
RTVSPropertyOp24
 70
     1
102
RTVSPropertyOp25
 70
     1
102
RTVSPropertyOp26
 70
     1
102
RTVSPropertyOp27
 70
     1
102
RTVSPropertyOp28
 70
     1
102
RTVSPropertyOp29
 70
     1
102
RTVSPropertyOp30
 70
     1
102
RTVSPropertyOp31
 70
     1
102
RTVSPropertyOp32
 70
     1
102
RTVSPropertyOp33
 70
     1
102
RTVSPropertyOp34
 70
     1
102
RTVSPropertyOp35
 70
     1
102
RTVSPropertyOp36
 70
     1
102
RTVSPropertyOp37
 70
     1
102
RTVSPropertyOp38
 70
     1
102
RTVSPropertyOp39
 70
     1
102
RTVSPropertyOp40
 70
     1
102
RTVSPropertyOp41
 70
     1
102
RTVSPropertyOp42
 70
     1
102
RTVSPropertyOp43
 70
     1
102
RTVSPropertyOp44
 70
     1
102
RTVSPropertyOp45
 70
     1
102
RTVSPropertyOp46
 70
     1
102
RTVSPropertyOp47
 70
     1
102
RTVSPropertyOp48
 70
     1
102
RTVSPropertyOp49
 70
     1
102
RTVSPropertyOp50
 70
     1
102
RTVSPropertyOp51
 70
     0
102
RTVSPropertyOp52
 70
     0
102
RTVSPropertyOp53
 70
     1
102
RTVSPropertyOp54
 70
     1
102
RTVSPropertyOp55
 70
     1
102
RTVSPropertyOp56
 70
     1
102
RTVSPropertyOp57
 70
     1
102
RTVSPost2010Prop28
280
     0
102
RTVSPost2010PropOp28
 70
     1
102
RTVSPost2010Prop29
280
     1
102
RTVSPost2010PropOp29
 70
     1
102
RTVSPost2010Prop30
280
     1
102
RTVSPost2010PropOp30
 70
     1
102
RTVSPost2010Prop31
280
     0
102
RTVSPost2010PropOp31
 70
     1
102
RTVSPost2010Prop32
280
     0
102
RTVSPost2010PropOp32
 70
     1
102
RTVSPost2010Prop33
280
     0
102
RTVSPost2010PropOp33
 70
     1
102
RTVSPost2010Prop34
280
     0
102
RTVSPost2010PropOp34
 70
     1
102
RTVSPost2010Prop35
280
     0
102
RTVSPost2010PropOp35
 70
     1
102
RTVSPost2010Prop36
280
     0
102
RTVSPost2010PropOp36
 70
     1
102
RTVSPost2010Prop37
 90
       50
102
RTVSPost2010PropOp37
 70
     1
102
RTVSPost2010Prop38
140
0.0
102
RTVSPost2010PropOp38
 70
     1
102
RTVSPost2010Prop39
140
1.0
102
RTVSPost2010PropOp39
 70
     1
102
RTVSPost2010Prop40
 90
        0
102
RTVSPost2010PropOp40
 70
     1
102
RTVSPost2010Prop41ColorIndex
 90
       18
102
RTVSPost2010Prop41ColorRGB
 90
        0
102
RTVSPost2010PropOp41
 70
     1
102
RTVSPost2010Prop42
 90
       50
102
RTVSPost2010PropOp42
 70
     1
102
RTVSPost2010Prop43
 90
        3
102
RTVSPost2010PropOp43
 70
     1
102
RTVSPost2010Prop44ColorIndex
 90
        5
102
RTVSPost2010Prop44ColorRGB
 90
      255
102
RTVSPost2010PropOp44
 70
     1
102
RTVSPost2010Prop45
280
     0
102
RTVSPost2010PropOp45
 70
     1
102
RTVSPost2010Prop46
 90
       50
102
RTVSPost2010PropOp46
 70
     1
102
RTVSPost2010Prop47
 90
       50
102
RTVSPost2010PropOp47
 70
     1
102
RTVSPost2010Prop48
 90
       50
102
RTVSPost2010PropOp48
 70
     1
102
RTVSPost2010Prop49
280
     0
102
RTVSPost2010PropOp49
 70
     1
102
RTVSPost2010Prop50
 90
       50
102
RTVSPost2010PropOp50
 70
     1
102
RTVSPost2010Prop51ColorIndex
 90
      256
102
RTVSPost2010Prop51ColorRGB
 90
-16777216
102
RTVSPost2010PropOp51
 70
     0
102
RTVSPost2010Prop52
140
1.0
102
RTVSPost2010PropOp52
 70
     0
102
RTVSPost2010Prop53
 90
        2
102
RTVSPost2010PropOp53
 70
     1
102
RTVSPost2010Prop54
  1
strokes_ogs.tif
102
RTVSPost2010PropOp54
 70
     1
102
RTVSPost2010Prop55
280
     0
102
RTVSPost2010PropOp55
 70
     1
102
RTVSPost2010Prop56
140
1.0
102
RTVSPost2010PropOp56
 70
     1
102
RTVSPost2010Prop57
140
1.0
102
RTVSPost2010PropOp57
 70
     1
  0
XRECORD
  5
E0E00001CCEE
102
{ACAD_REACTORS
330
E0E00001CCED
102
}
330
E0E00001CCED
100
AcDbXrecord
280
     1
102
RTVSPropertyOp0
 70
     1
102
RTVSPropertyOp1
 70
     1
102
RTVSPropertyOp2
 70
     1
102
RTVSPropertyOp3
 70
     1
102
RTVSPropertyOp4
 70
     1
102
RTVSPropertyOp5
 70
     1
102
RTVSPropertyOp6
 70
     1
102
RTVSPropertyOp7
 70
     1
102
RTVSPropertyOp8
 70
     1
102
RTVSPropertyOp9
 70
     1
102
RTVSPropertyOp10
 70
     1
102
RTVSPropertyOp11
 70
     1
102
RTVSPropertyOp12
 70
     1
102
RTVSPropertyOp13
 70
     1
102
RTVSPropertyOp14
 70
     1
102
RTVSPropertyOp15
 70
     1
102
RTVSPropertyOp16
 70
     1
102
RTVSPropertyOp17
 70
     1
102
RTVSPropertyOp18
 70
     1
102
RTVSPropertyOp19
 70
     1
102
RTVSPropertyOp20
 70
     1
102
RTVSPropertyOp21
 70
     1
102
RTVSPropertyOp22
 70
     1
102
RTVSPropertyOp23
 70
     1
102
RTVSPropertyOp24
 70
     1
102
RTVSPropertyOp25
 70
     1
102
RTVSPropertyOp26
 70
     1
102
RTVSPropertyOp27
 70
     1
102
RTVSPropertyOp28
 70
     1
102
RTVSPropertyOp29
 70
     1
102
RTVSPropertyOp30
 70
     1
102
RTVSPropertyOp31
 70
     1
102
RTVSPropertyOp32
 70
     1
102
RTVSPropertyOp33
 70
     1
102
RTVSPropertyOp34
 70
     1
102
RTVSPropertyOp35
 70
     1
102
RTVSPropertyOp36
 70
     1
102
RTVSPropertyOp37
 70
     1
102
RTVSPropertyOp38
 70
     1
102
RTVSPropertyOp39
 70
     1
102
RTVSPropertyOp40
 70
     1
102
RTVSPropertyOp41
 70
     1
102
RTVSPropertyOp42
 70
     1
102
RTVSPropertyOp43
 70
     1
102
RTVSPropertyOp44
 70
     1
102
RTVSPropertyOp45
 70
     1
102
RTVSPropertyOp46
 70
     1
102
RTVSPropertyOp47
 70
     1
102
RTVSPropertyOp48
 70
     1
102
RTVSPropertyOp49
 70
     1
102
RTVSPropertyOp50
 70
     1
102
RTVSPropertyOp51
 70
     0
102
RTVSPropertyOp52
 70
     0
102
RTVSPropertyOp53
 70
     1
102
RTVSPropertyOp54
 70
     1
102
RTVSPropertyOp55
 70
     1
102
RTVSPropertyOp56
 70
     1
102
RTVSPropertyOp57
 70
     1
102
RTVSPost2010Prop28
280
     0
102
RTVSPost2010PropOp28
 70
     1
102
RTVSPost2010Prop29
280
     1
102
RTVSPost2010PropOp29
 70
     1
102
RTVSPost2010Prop30
280
     1
102
RTVSPost2010PropOp30
 70
     1
102
RTVSPost2010Prop31
280
     0
102
RTVSPost2010PropOp31
 70
     1
102
RTVSPost2010Prop32
280
     0
102
RTVSPost2010PropOp32
 70
     1
102
RTVSPost2010Prop33
280
     0
102
RTVSPost2010PropOp33
 70
     1
102
RTVSPost2010Prop34
280
     0
102
RTVSPost2010PropOp34
 70
     1
102
RTVSPost2010Prop35
280
     0
102
RTVSPost2010PropOp35
 70
     1
102
RTVSPost2010Prop36
280
     0
102
RTVSPost2010PropOp36
 70
     1
102
RTVSPost2010Prop37
 90
       50
102
RTVSPost2010PropOp37
 70
     1
102
RTVSPost2010Prop38
140
0.0
102
RTVSPost2010PropOp38
 70
     1
102
RTVSPost2010Prop39
140
1.0
102
RTVSPost2010PropOp39
 70
     1
102
RTVSPost2010Prop40
 90
        0
102
RTVSPost2010PropOp40
 70
     1
102
RTVSPost2010Prop41ColorIndex
 90
       18
102
RTVSPost2010Prop41ColorRGB
 90
        0
102
RTVSPost2010PropOp41
 70
     1
102
RTVSPost2010Prop42
 90
       50
102
RTVSPost2010PropOp42
 70
     1
102
RTVSPost2010Prop43
 90
        3
102
RTVSPost2010PropOp43
 70
     1
102
RTVSPost2010Prop44ColorIndex
 90
        5
102
RTVSPost2010Prop44ColorRGB
 90
      255
102
RTVSPost2010PropOp44
 70
     1
102
RTVSPost2010Prop45
280
     0
102
RTVSPost2010PropOp45
 70
     1
102
RTVSPost2010Prop46
 90
       50
102
RTVSPost2010PropOp46
 70
     1
102
RTVSPost2010Prop47
 90
       50
102
RTVSPost2010PropOp47
 70
     1
102
RTVSPost2010Prop48
 90
       50
102
RTVSPost2010PropOp48
 70
     1
102
RTVSPost2010Prop49
280
     0
102
RTVSPost2010PropOp49
 70
     1
102
RTVSPost2010Prop50
 90
       50
102
RTVSPost2010PropOp50
 70
     1
102
RTVSPost2010Prop51ColorIndex
 90
      256
102
RTVSPost2010Prop51ColorRGB
 90
-16777216
102
RTVSPost2010PropOp51
 70
     0
102
RTVSPost2010Prop52
140
1.0
102
RTVSPost2010PropOp52
 70
     0
102
RTVSPost2010Prop53
 90
        2
102
RTVSPost2010PropOp53
 70
     1
102
RTVSPost2010Prop54
  1
strokes_ogs.tif
102
RTVSPost2010PropOp54
 70
     1
102
RTVSPost2010Prop55
280
     0
102
RTVSPost2010PropOp55
 70
     1
102
RTVSPost2010Prop56
140
1.0
102
RTVSPost2010PropOp56
 70
     1
102
RTVSPost2010Prop57
140
1.0
102
RTVSPost2010PropOp57
 70
     1
  0
XRECORD
  5
E0E00001CCF0
102
{ACAD_REACTORS
330
E0E00001CCEF
102
}
330
E0E00001CCEF
100
AcDbXrecord
280
     1
102
RTVSPropertyOp0
 70
     1
102
RTVSPropertyOp1
 70
     1
102
RTVSPropertyOp2
 70
     1
102
RTVSPropertyOp3
 70
     1
102
RTVSPropertyOp4
 70
     1
102
RTVSPropertyOp5
 70
     1
102
RTVSPropertyOp6
 70
     1
102
RTVSPropertyOp7
 70
     1
102
RTVSPropertyOp8
 70
     1
102
RTVSPropertyOp9
 70
     1
102
RTVSPropertyOp10
 70
     1
102
RTVSPropertyOp11
 70
     1
102
RTVSPropertyOp12
 70
     1
102
RTVSPropertyOp13
 70
     1
102
RTVSPropertyOp14
 70
     1
102
RTVSPropertyOp15
 70
     1
102
RTVSPropertyOp16
 70
     1
102
RTVSPropertyOp17
 70
     1
102
RTVSPropertyOp18
 70
     1
102
RTVSPropertyOp19
 70
     1
102
RTVSPropertyOp20
 70
     1
102
RTVSPropertyOp21
 70
     1
102
RTVSPropertyOp22
 70
     1
102
RTVSPropertyOp23
 70
     1
102
RTVSPropertyOp24
 70
     1
102
RTVSPropertyOp25
 70
     1
102
RTVSPropertyOp26
 70
     1
102
RTVSPropertyOp27
 70
     1
102
RTVSPropertyOp28
 70
     1
102
RTVSPropertyOp29
 70
     1
102
RTVSPropertyOp30
 70
     1
102
RTVSPropertyOp31
 70
     1
102
RTVSPropertyOp32
 70
     1
102
RTVSPropertyOp33
 70
     1
102
RTVSPropertyOp34
 70
     1
102
RTVSPropertyOp35
 70
     1
102
RTVSPropertyOp36
 70
     1
102
RTVSPropertyOp37
 70
     1
102
RTVSPropertyOp38
 70
     1
102
RTVSPropertyOp39
 70
     1
102
RTVSPropertyOp40
 70
     1
102
RTVSPropertyOp41
 70
     1
102
RTVSPropertyOp42
 70
     1
102
RTVSPropertyOp43
 70
     1
102
RTVSPropertyOp44
 70
     1
102
RTVSPropertyOp45
 70
     1
102
RTVSPropertyOp46
 70
     1
102
RTVSPropertyOp47
 70
     1
102
RTVSPropertyOp48
 70
     1
102
RTVSPropertyOp49
 70
     1
102
RTVSPropertyOp50
 70
     1
102
RTVSPropertyOp51
 70
     0
102
RTVSPropertyOp52
 70
     0
102
RTVSPropertyOp53
 70
     1
102
RTVSPropertyOp54
 70
     1
102
RTVSPropertyOp55
 70
     1
102
RTVSPropertyOp56
 70
     1
102
RTVSPropertyOp57
 70
     1
102
RTVSPost2010Prop28
280
     0
102
RTVSPost2010PropOp28
 70
     1
102
RTVSPost2010Prop29
280
     1
102
RTVSPost2010PropOp29
 70
     1
102
RTVSPost2010Prop30
280
     1
102
RTVSPost2010PropOp30
 70
     1
102
RTVSPost2010Prop31
280
     0
102
RTVSPost2010PropOp31
 70
     1
102
RTVSPost2010Prop32
280
     0
102
RTVSPost2010PropOp32
 70
     1
102
RTVSPost2010Prop33
280
     0
102
RTVSPost2010PropOp33
 70
     1
102
RTVSPost2010Prop34
280
     0
102
RTVSPost2010PropOp34
 70
     1
102
RTVSPost2010Prop35
280
     0
102
RTVSPost2010PropOp35
 70
     1
102
RTVSPost2010Prop36
280
     0
102
RTVSPost2010PropOp36
 70
     1
102
RTVSPost2010Prop37
 90
       50
102
RTVSPost2010PropOp37
 70
     1
102
RTVSPost2010Prop38
140
0.0
102
RTVSPost2010PropOp38
 70
     1
102
RTVSPost2010Prop39
140
1.0
102
RTVSPost2010PropOp39
 70
     1
102
RTVSPost2010Prop40
 90
        0
102
RTVSPost2010PropOp40
 70
     1
102
RTVSPost2010Prop41ColorIndex
 90
       18
102
RTVSPost2010Prop41ColorRGB
 90
        0
102
RTVSPost2010PropOp41
 70
     1
102
RTVSPost2010Prop42
 90
       50
102
RTVSPost2010PropOp42
 70
     1
102
RTVSPost2010Prop43
 90
        3
102
RTVSPost2010PropOp43
 70
     1
102
RTVSPost2010Prop44ColorIndex
 90
        5
102
RTVSPost2010Prop44ColorRGB
 90
      255
102
RTVSPost2010PropOp44
 70
     1
102
RTVSPost2010Prop45
280
     0
102
RTVSPost2010PropOp45
 70
     1
102
RTVSPost2010Prop46
 90
       50
102
RTVSPost2010PropOp46
 70
     1
102
RTVSPost2010Prop47
 90
       50
102
RTVSPost2010PropOp47
 70
     1
102
RTVSPost2010Prop48
 90
       50
102
RTVSPost2010PropOp48
 70
     1
102
RTVSPost2010Prop49
280
     0
102
RTVSPost2010PropOp49
 70
     1
102
RTVSPost2010Prop50
 90
       50
102
RTVSPost2010PropOp50
 70
     1
102
RTVSPost2010Prop51ColorIndex
 90
      256
102
RTVSPost2010Prop51ColorRGB
 90
-16777216
102
RTVSPost2010PropOp51
 70
     0
102
RTVSPost2010Prop52
140
1.0
102
RTVSPost2010PropOp52
 70
     0
102
RTVSPost2010Prop53
 90
        2
102
RTVSPost2010PropOp53
 70
     1
102
RTVSPost2010Prop54
  1
strokes_ogs.tif
102
RTVSPost2010PropOp54
 70
     1
102
RTVSPost2010Prop55
280
     0
102
RTVSPost2010PropOp55
 70
     1
102
RTVSPost2010Prop56
140
1.0
102
RTVSPost2010PropOp56
 70
     1
102
RTVSPost2010Prop57
140
1.0
102
RTVSPost2010PropOp57
 70
     1
  0
XRECORD
  5
E0E00001CCFA
102
{ACAD_REACTORS
330
E0E00001CCF9
102
}
330
E0E00001CCF9
100
AcDbXrecord
280
     1
102
RTVSPropertyOp0
 70
     1
102
RTVSPropertyOp1
 70
     1
102
RTVSPropertyOp2
 70
     1
102
RTVSPropertyOp3
 70
     1
102
RTVSPropertyOp4
 70
     1
102
RTVSPropertyOp5
 70
     1
102
RTVSPropertyOp6
 70
     1
102
RTVSPropertyOp7
 70
     1
102
RTVSPropertyOp8
 70
     1
102
RTVSPropertyOp9
 70
     1
102
RTVSPropertyOp10
 70
     1
102
RTVSPropertyOp11
 70
     1
102
RTVSPropertyOp12
 70
     1
102
RTVSPropertyOp13
 70
     1
102
RTVSPropertyOp14
 70
     1
102
RTVSPropertyOp15
 70
     1
102
RTVSPropertyOp16
 70
     1
102
RTVSPropertyOp17
 70
     1
102
RTVSPropertyOp18
 70
     1
102
RTVSPropertyOp19
 70
     1
102
RTVSPropertyOp20
 70
     1
102
RTVSPropertyOp21
 70
     1
102
RTVSPropertyOp22
 70
     1
102
RTVSPropertyOp23
 70
     1
102
RTVSPropertyOp24
 70
     1
102
RTVSPropertyOp25
 70
     1
102
RTVSPropertyOp26
 70
     1
102
RTVSPropertyOp27
 70
     1
102
RTVSPropertyOp28
 70
     1
102
RTVSPropertyOp29
 70
     1
102
RTVSPropertyOp30
 70
     1
102
RTVSPropertyOp31
 70
     1
102
RTVSPropertyOp32
 70
     1
102
RTVSPropertyOp33
 70
     1
102
RTVSPropertyOp34
 70
     1
102
RTVSPropertyOp35
 70
     1
102
RTVSPropertyOp36
 70
     1
102
RTVSPropertyOp37
 70
     1
102
RTVSPropertyOp38
 70
     1
102
RTVSPropertyOp39
 70
     1
102
RTVSPropertyOp40
 70
     1
102
RTVSPropertyOp41
 70
     1
102
RTVSPropertyOp42
 70
     1
102
RTVSPropertyOp43
 70
     1
102
RTVSPropertyOp44
 70
     1
102
RTVSPropertyOp45
 70
     1
102
RTVSPropertyOp46
 70
     1
102
RTVSPropertyOp47
 70
     1
102
RTVSPropertyOp48
 70
     1
102
RTVSPropertyOp49
 70
     1
102
RTVSPropertyOp50
 70
     1
102
RTVSPropertyOp51
 70
     0
102
RTVSPropertyOp52
 70
     0
102
RTVSPropertyOp53
 70
     1
102
RTVSPropertyOp54
 70
     1
102
RTVSPropertyOp55
 70
     1
102
RTVSPropertyOp56
 70
     1
102
RTVSPropertyOp57
 70
     1
102
RTVSPost2010Prop28
280
     0
102
RTVSPost2010PropOp28
 70
     1
102
RTVSPost2010Prop29
280
     1
102
RTVSPost2010PropOp29
 70
     1
102
RTVSPost2010Prop30
280
     1
102
RTVSPost2010PropOp30
 70
     1
102
RTVSPost2010Prop31
280
     0
102
RTVSPost2010PropOp31
 70
     1
102
RTVSPost2010Prop32
280
     0
102
RTVSPost2010PropOp32
 70
     1
102
RTVSPost2010Prop33
280
     0
102
RTVSPost2010PropOp33
 70
     1
102
RTVSPost2010Prop34
280
     0
102
RTVSPost2010PropOp34
 70
     1
102
RTVSPost2010Prop35
280
     0
102
RTVSPost2010PropOp35
 70
     1
102
RTVSPost2010Prop36
280
     0
102
RTVSPost2010PropOp36
 70
     1
102
RTVSPost2010Prop37
 90
       50
102
RTVSPost2010PropOp37
 70
     1
102
RTVSPost2010Prop38
140
0.0
102
RTVSPost2010PropOp38
 70
     1
102
RTVSPost2010Prop39
140
1.0
102
RTVSPost2010PropOp39
 70
     1
102
RTVSPost2010Prop40
 90
        0
102
RTVSPost2010PropOp40
 70
     1
102
RTVSPost2010Prop41ColorIndex
 90
       18
102
RTVSPost2010Prop41ColorRGB
 90
        0
102
RTVSPost2010PropOp41
 70
     1
102
RTVSPost2010Prop42
 90
       50
102
RTVSPost2010PropOp42
 70
     1
102
RTVSPost2010Prop43
 90
        3
102
RTVSPost2010PropOp43
 70
     1
102
RTVSPost2010Prop44ColorIndex
 90
        5
102
RTVSPost2010Prop44ColorRGB
 90
      255
102
RTVSPost2010PropOp44
 70
     1
102
RTVSPost2010Prop45
280
     0
102
RTVSPost2010PropOp45
 70
     1
102
RTVSPost2010Prop46
 90
       50
102
RTVSPost2010PropOp46
 70
     1
102
RTVSPost2010Prop47
 90
       50
102
RTVSPost2010PropOp47
 70
     1
102
RTVSPost2010Prop48
 90
       50
102
RTVSPost2010PropOp48
 70
     1
102
RTVSPost2010Prop49
280
     0
102
RTVSPost2010PropOp49
 70
     1
102
RTVSPost2010Prop50
 90
       50
102
RTVSPost2010PropOp50
 70
     1
102
RTVSPost2010Prop51ColorIndex
 90
      256
102
RTVSPost2010Prop51ColorRGB
 90
-16777216
102
RTVSPost2010PropOp51
 70
     0
102
RTVSPost2010Prop52
140
1.0
102
RTVSPost2010PropOp52
 70
     0
102
RTVSPost2010Prop53
 90
        2
102
RTVSPost2010PropOp53
 70
     1
102
RTVSPost2010Prop54
  1
strokes_ogs.tif
102
RTVSPost2010PropOp54
 70
     1
102
RTVSPost2010Prop55
280
     0
102
RTVSPost2010PropOp55
 70
     1
102
RTVSPost2010Prop56
140
1.0
102
RTVSPost2010PropOp56
 70
     1
102
RTVSPost2010Prop57
140
1.0
102
RTVSPost2010PropOp57
 70
     1
  0
XRECORD
  5
E0E00001CCFC
102
{ACAD_REACTORS
330
E0E00001CCFB
102
}
330
E0E00001CCFB
100
AcDbXrecord
280
     1
102
RTVSPropertyOp0
 70
     0
102
RTVSPropertyOp1
 70
     0
102
RTVSPropertyOp2
 70
     0
102
RTVSPropertyOp3
 70
     0
102
RTVSPropertyOp4
 70
     0
102
RTVSPropertyOp5
 70
     0
102
RTVSPropertyOp6
 70
     0
102
RTVSPropertyOp7
 70
     0
102
RTVSPropertyOp8
 70
     0
102
RTVSPropertyOp9
 70
     0
102
RTVSPropertyOp10
 70
     0
102
RTVSPropertyOp11
 70
     0
102
RTVSPropertyOp12
 70
     0
102
RTVSPropertyOp13
 70
     0
102
RTVSPropertyOp14
 70
     2
102
RTVSPropertyOp15
 70
     0
102
RTVSPropertyOp16
 70
     0
102
RTVSPropertyOp17
 70
     0
102
RTVSPropertyOp18
 70
     0
102
RTVSPropertyOp19
 70
     0
102
RTVSPropertyOp20
 70
     0
102
RTVSPropertyOp21
 70
     0
102
RTVSPropertyOp22
 70
     0
102
RTVSPropertyOp23
 70
     0
102
RTVSPropertyOp24
 70
     0
102
RTVSPropertyOp25
 70
     0
102
RTVSPropertyOp26
 70
     0
102
RTVSPropertyOp27
 70
     0
102
RTVSPropertyOp28
 70
     0
102
RTVSPropertyOp29
 70
     0
102
RTVSPropertyOp30
 70
     0
102
RTVSPropertyOp31
 70
     0
102
RTVSPropertyOp32
 70
     0
102
RTVSPropertyOp33
 70
     0
102
RTVSPropertyOp34
 70
     0
102
RTVSPropertyOp35
 70
     0
102
RTVSPropertyOp36
 70
     0
102
RTVSPropertyOp37
 70
     0
102
RTVSPropertyOp38
 70
     0
102
RTVSPropertyOp39
 70
     0
102
RTVSPropertyOp40
 70
     0
102
RTVSPropertyOp41
 70
     0
102
RTVSPropertyOp42
 70
     0
102
RTVSPropertyOp43
 70
     0
102
RTVSPropertyOp44
 70
     0
102
RTVSPropertyOp45
 70
     0
102
RTVSPropertyOp46
 70
     0
102
RTVSPropertyOp47
 70
     0
102
RTVSPropertyOp48
 70
     0
102
RTVSPropertyOp49
 70
     0
102
RTVSPropertyOp50
 70
     0
102
RTVSPropertyOp51
 70
     0
102
RTVSPropertyOp52
 70
     0
102
RTVSPropertyOp53
 70
     0
102
RTVSPropertyOp54
 70
     0
102
RTVSPropertyOp55
 70
     0
102
RTVSPropertyOp56
 70
     0
102
RTVSPropertyOp57
 70
     0
102
RTVSPost2010Prop28
280
     0
102
RTVSPost2010PropOp28
 70
     0
102
RTVSPost2010Prop29
280
     1
102
RTVSPost2010PropOp29
 70
     0
102
RTVSPost2010Prop30
280
     1
102
RTVSPost2010PropOp30
 70
     0
102
RTVSPost2010Prop31
280
     0
102
RTVSPost2010PropOp31
 70
     0
102
RTVSPost2010Prop32
280
     0
102
RTVSPost2010PropOp32
 70
     0
102
RTVSPost2010Prop33
280
     0
102
RTVSPost2010PropOp33
 70
     0
102
RTVSPost2010Prop34
280
     0
102
RTVSPost2010PropOp34
 70
     0
102
RTVSPost2010Prop35
280
     0
102
RTVSPost2010PropOp35
 70
     0
102
RTVSPost2010Prop36
280
     0
102
RTVSPost2010PropOp36
 70
     0
102
RTVSPost2010Prop37
 90
       50
102
RTVSPost2010PropOp37
 70
     0
102
RTVSPost2010Prop38
140
0.0
102
RTVSPost2010PropOp38
 70
     0
102
RTVSPost2010Prop39
140
1.0
102
RTVSPost2010PropOp39
 70
     0
102
RTVSPost2010Prop40
 90
        0
102
RTVSPost2010PropOp40
 70
     0
102
RTVSPost2010Prop41ColorIndex
 90
       18
102
RTVSPost2010Prop41ColorRGB
 90
        0
102
RTVSPost2010PropOp41
 70
     0
102
RTVSPost2010Prop42
 90
       50
102
RTVSPost2010PropOp42
 70
     0
102
RTVSPost2010Prop43
 90
        3
102
RTVSPost2010PropOp43
 70
     0
102
RTVSPost2010Prop44ColorIndex
 90
        5
102
RTVSPost2010Prop44ColorRGB
 90
      255
102
RTVSPost2010PropOp44
 70
     0
102
RTVSPost2010Prop45
280
     0
102
RTVSPost2010PropOp45
 70
     0
102
RTVSPost2010Prop46
 90
       50
102
RTVSPost2010PropOp46
 70
     0
102
RTVSPost2010Prop47
 90
       50
102
RTVSPost2010PropOp47
 70
     0
102
RTVSPost2010Prop48
 90
       50
102
RTVSPost2010PropOp48
 70
     0
102
RTVSPost2010Prop49
280
     0
102
RTVSPost2010PropOp49
 70
     0
102
RTVSPost2010Prop50
 90
       50
102
RTVSPost2010PropOp50
 70
     0
102
RTVSPost2010Prop51ColorIndex
 90
      256
102
RTVSPost2010Prop51ColorRGB
 90
-16777216
102
RTVSPost2010PropOp51
 70
     0
102
RTVSPost2010Prop52
140
1.0
102
RTVSPost2010PropOp52
 70
     0
102
RTVSPost2010Prop53
 90
        2
102
RTVSPost2010PropOp53
 70
     0
102
RTVSPost2010Prop54
  1
strokes_ogs.tif
102
RTVSPost2010PropOp54
 70
     0
102
RTVSPost2010Prop55
280
     0
102
RTVSPost2010PropOp55
 70
     0
102
RTVSPost2010Prop56
140
1.0
102
RTVSPost2010PropOp56
 70
     0
102
RTVSPost2010Prop57
140
1.0
102
RTVSPost2010PropOp57
 70
     0
  0
XRECORD
  5
E0E00001CCF2
102
{ACAD_REACTORS
330
E0E00001CCF1
102
}
330
E0E00001CCF1
100
AcDbXrecord
280
     1
102
RTVSPropertyOp0
 70
     1
102
RTVSPropertyOp1
 70
     1
102
RTVSPropertyOp2
 70
     1
102
RTVSPropertyOp3
 70
     1
102
RTVSPropertyOp4
 70
     1
102
RTVSPropertyOp5
 70
     1
102
RTVSPropertyOp6
 70
     1
102
RTVSPropertyOp7
 70
     1
102
RTVSPropertyOp8
 70
     1
102
RTVSPropertyOp9
 70
     1
102
RTVSPropertyOp10
 70
     1
102
RTVSPropertyOp11
 70
     1
102
RTVSPropertyOp12
 70
     1
102
RTVSPropertyOp13
 70
     1
102
RTVSPropertyOp14
 70
     1
102
RTVSPropertyOp15
 70
     1
102
RTVSPropertyOp16
 70
     1
102
RTVSPropertyOp17
 70
     1
102
RTVSPropertyOp18
 70
     1
102
RTVSPropertyOp19
 70
     1
102
RTVSPropertyOp20
 70
     1
102
RTVSPropertyOp21
 70
     1
102
RTVSPropertyOp22
 70
     1
102
RTVSPropertyOp23
 70
     1
102
RTVSPropertyOp24
 70
     1
102
RTVSPropertyOp25
 70
     1
102
RTVSPropertyOp26
 70
     1
102
RTVSPropertyOp27
 70
     1
102
RTVSPropertyOp28
 70
     1
102
RTVSPropertyOp29
 70
     1
102
RTVSPropertyOp30
 70
     1
102
RTVSPropertyOp31
 70
     1
102
RTVSPropertyOp32
 70
     1
102
RTVSPropertyOp33
 70
     1
102
RTVSPropertyOp34
 70
     1
102
RTVSPropertyOp35
 70
     1
102
RTVSPropertyOp36
 70
     1
102
RTVSPropertyOp37
 70
     1
102
RTVSPropertyOp38
 70
     1
102
RTVSPropertyOp39
 70
     1
102
RTVSPropertyOp40
 70
     1
102
RTVSPropertyOp41
 70
     1
102
RTVSPropertyOp42
 70
     1
102
RTVSPropertyOp43
 70
     1
102
RTVSPropertyOp44
 70
     1
102
RTVSPropertyOp45
 70
     1
102
RTVSPropertyOp46
 70
     1
102
RTVSPropertyOp47
 70
     1
102
RTVSPropertyOp48
 70
     1
102
RTVSPropertyOp49
 70
     1
102
RTVSPropertyOp50
 70
     1
102
RTVSPropertyOp51
 70
     0
102
RTVSPropertyOp52
 70
     0
102
RTVSPropertyOp53
 70
     1
102
RTVSPropertyOp54
 70
     1
102
RTVSPropertyOp55
 70
     1
102
RTVSPropertyOp56
 70
     1
102
RTVSPropertyOp57
 70
     1
102
RTVSPost2010Prop28
280
     0
102
RTVSPost2010PropOp28
 70
     1
102
RTVSPost2010Prop29
280
     1
102
RTVSPost2010PropOp29
 70
     1
102
RTVSPost2010Prop30
280
     1
102
RTVSPost2010PropOp30
 70
     1
102
RTVSPost2010Prop31
280
     0
102
RTVSPost2010PropOp31
 70
     1
102
RTVSPost2010Prop32
280
     0
102
RTVSPost2010PropOp32
 70
     1
102
RTVSPost2010Prop33
280
     0
102
RTVSPost2010PropOp33
 70
     1
102
RTVSPost2010Prop34
280
     0
102
RTVSPost2010PropOp34
 70
     1
102
RTVSPost2010Prop35
280
     0
102
RTVSPost2010PropOp35
 70
     1
102
RTVSPost2010Prop36
280
     0
102
RTVSPost2010PropOp36
 70
     1
102
RTVSPost2010Prop37
 90
       50
102
RTVSPost2010PropOp37
 70
     1
102
RTVSPost2010Prop38
140
0.0
102
RTVSPost2010PropOp38
 70
     1
102
RTVSPost2010Prop39
140
1.0
102
RTVSPost2010PropOp39
 70
     1
102
RTVSPost2010Prop40
 90
        0
102
RTVSPost2010PropOp40
 70
     1
102
RTVSPost2010Prop41ColorIndex
 90
       18
102
RTVSPost2010Prop41ColorRGB
 90
        0
102
RTVSPost2010PropOp41
 70
     1
102
RTVSPost2010Prop42
 90
       50
102
RTVSPost2010PropOp42
 70
     1
102
RTVSPost2010Prop43
 90
        3
102
RTVSPost2010PropOp43
 70
     1
102
RTVSPost2010Prop44ColorIndex
 90
        5
102
RTVSPost2010Prop44ColorRGB
 90
      255
102
RTVSPost2010PropOp44
 70
     1
102
RTVSPost2010Prop45
280
     0
102
RTVSPost2010PropOp45
 70
     1
102
RTVSPost2010Prop46
 90
       50
102
RTVSPost2010PropOp46
 70
     1
102
RTVSPost2010Prop47
 90
       50
102
RTVSPost2010PropOp47
 70
     1
102
RTVSPost2010Prop48
 90
       50
102
RTVSPost2010PropOp48
 70
     1
102
RTVSPost2010Prop49
280
     0
102
RTVSPost2010PropOp49
 70
     1
102
RTVSPost2010Prop50
 90
       50
102
RTVSPost2010PropOp50
 70
     1
102
RTVSPost2010Prop51ColorIndex
 90
      256
102
RTVSPost2010Prop51ColorRGB
 90
-16777216
102
RTVSPost2010PropOp51
 70
     0
102
RTVSPost2010Prop52
140
1.0
102
RTVSPost2010PropOp52
 70
     0
102
RTVSPost2010Prop53
 90
        2
102
RTVSPost2010PropOp53
 70
     1
102
RTVSPost2010Prop54
  1
strokes_ogs.tif
102
RTVSPost2010PropOp54
 70
     1
102
RTVSPost2010Prop55
280
     0
102
RTVSPost2010PropOp55
 70
     1
102
RTVSPost2010Prop56
140
1.0
102
RTVSPost2010PropOp56
 70
     1
102
RTVSPost2010Prop57
140
1.0
102
RTVSPost2010PropOp57
 70
     1
  0
XRECORD
  5
E0E00001CCFE
102
{ACAD_REACTORS
330
E0E00001CCFD
102
}
330
E0E00001CCFD
100
AcDbXrecord
280
     1
102
RTVSPropertyOp0
 70
     0
102
RTVSPropertyOp1
 70
     0
102
RTVSPropertyOp2
 70
     0
102
RTVSPropertyOp3
 70
     0
102
RTVSPropertyOp4
 70
     0
102
RTVSPropertyOp5
 70
     0
102
RTVSPropertyOp6
 70
     0
102
RTVSPropertyOp7
 70
     0
102
RTVSPropertyOp8
 70
     0
102
RTVSPropertyOp9
 70
     0
102
RTVSPropertyOp10
 70
     0
102
RTVSPropertyOp11
 70
     0
102
RTVSPropertyOp12
 70
     0
102
RTVSPropertyOp13
 70
     0
102
RTVSPropertyOp14
 70
     2
102
RTVSPropertyOp15
 70
     0
102
RTVSPropertyOp16
 70
     0
102
RTVSPropertyOp17
 70
     0
102
RTVSPropertyOp18
 70
     0
102
RTVSPropertyOp19
 70
     0
102
RTVSPropertyOp20
 70
     0
102
RTVSPropertyOp21
 70
     0
102
RTVSPropertyOp22
 70
     0
102
RTVSPropertyOp23
 70
     0
102
RTVSPropertyOp24
 70
     0
102
RTVSPropertyOp25
 70
     0
102
RTVSPropertyOp26
 70
     0
102
RTVSPropertyOp27
 70
     0
102
RTVSPropertyOp28
 70
     0
102
RTVSPropertyOp29
 70
     0
102
RTVSPropertyOp30
 70
     0
102
RTVSPropertyOp31
 70
     0
102
RTVSPropertyOp32
 70
     0
102
RTVSPropertyOp33
 70
     0
102
RTVSPropertyOp34
 70
     0
102
RTVSPropertyOp35
 70
     0
102
RTVSPropertyOp36
 70
     0
102
RTVSPropertyOp37
 70
     0
102
RTVSPropertyOp38
 70
     0
102
RTVSPropertyOp39
 70
     0
102
RTVSPropertyOp40
 70
     0
102
RTVSPropertyOp41
 70
     0
102
RTVSPropertyOp42
 70
     0
102
RTVSPropertyOp43
 70
     0
102
RTVSPropertyOp44
 70
     0
102
RTVSPropertyOp45
 70
     0
102
RTVSPropertyOp46
 70
     0
102
RTVSPropertyOp47
 70
     0
102
RTVSPropertyOp48
 70
     0
102
RTVSPropertyOp49
 70
     0
102
RTVSPropertyOp50
 70
     0
102
RTVSPropertyOp51
 70
     0
102
RTVSPropertyOp52
 70
     0
102
RTVSPropertyOp53
 70
     0
102
RTVSPropertyOp54
 70
     0
102
RTVSPropertyOp55
 70
     0
102
RTVSPropertyOp56
 70
     0
102
RTVSPropertyOp57
 70
     0
102
RTVSPost2010Prop28
280
     0
102
RTVSPost2010PropOp28
 70
     0
102
RTVSPost2010Prop29
280
     1
102
RTVSPost2010PropOp29
 70
     0
102
RTVSPost2010Prop30
280
     1
102
RTVSPost2010PropOp30
 70
     0
102
RTVSPost2010Prop31
280
     0
102
RTVSPost2010PropOp31
 70
     0
102
RTVSPost2010Prop32
280
     0
102
RTVSPost2010PropOp32
 70
     0
102
RTVSPost2010Prop33
280
     0
102
RTVSPost2010PropOp33
 70
     0
102
RTVSPost2010Prop34
280
     0
102
RTVSPost2010PropOp34
 70
     0
102
RTVSPost2010Prop35
280
     0
102
RTVSPost2010PropOp35
 70
     0
102
RTVSPost2010Prop36
280
     0
102
RTVSPost2010PropOp36
 70
     0
102
RTVSPost2010Prop37
 90
       50
102
RTVSPost2010PropOp37
 70
     0
102
RTVSPost2010Prop38
140
0.0
102
RTVSPost2010PropOp38
 70
     0
102
RTVSPost2010Prop39
140
1.0
102
RTVSPost2010PropOp39
 70
     0
102
RTVSPost2010Prop40
 90
        0
102
RTVSPost2010PropOp40
 70
     0
102
RTVSPost2010Prop41ColorIndex
 90
       18
102
RTVSPost2010Prop41ColorRGB
 90
        0
102
RTVSPost2010PropOp41
 70
     0
102
RTVSPost2010Prop42
 90
       50
102
RTVSPost2010PropOp42
 70
     0
102
RTVSPost2010Prop43
 90
        3
102
RTVSPost2010PropOp43
 70
     0
102
RTVSPost2010Prop44ColorIndex
 90
        5
102
RTVSPost2010Prop44ColorRGB
 90
      255
102
RTVSPost2010PropOp44
 70
     0
102
RTVSPost2010Prop45
280
     0
102
RTVSPost2010PropOp45
 70
     0
102
RTVSPost2010Prop46
 90
       50
102
RTVSPost2010PropOp46
 70
     0
102
RTVSPost2010Prop47
 90
       50
102
RTVSPost2010PropOp47
 70
     0
102
RTVSPost2010Prop48
 90
       50
102
RTVSPost2010PropOp48
 70
     0
102
RTVSPost2010Prop49
280
     0
102
RTVSPost2010PropOp49
 70
     0
102
RTVSPost2010Prop50
 90
       50
102
RTVSPost2010PropOp50
 70
     0
102
RTVSPost2010Prop51ColorIndex
 90
      256
102
RTVSPost2010Prop51ColorRGB
 90
-16777216
102
RTVSPost2010PropOp51
 70
     0
102
RTVSPost2010Prop52
140
1.0
102
RTVSPost2010PropOp52
 70
     0
102
RTVSPost2010Prop53
 90
        2
102
RTVSPost2010PropOp53
 70
     0
102
RTVSPost2010Prop54
  1
strokes_ogs.tif
102
RTVSPost2010PropOp54
 70
     0
102
RTVSPost2010Prop55
280
     0
102
RTVSPost2010PropOp55
 70
     0
102
RTVSPost2010Prop56
140
1.0
102
RTVSPost2010PropOp56
 70
     0
102
RTVSPost2010Prop57
140
1.0
102
RTVSPost2010PropOp57
 70
     0
  0
XRECORD
  5
E0E00001CCF4
102
{ACAD_REACTORS
330
E0E00001CCF3
102
}
330
E0E00001CCF3
100
AcDbXrecord
280
     1
102
RTVSPropertyOp0
 70
     1
102
RTVSPropertyOp1
 70
     1
102
RTVSPropertyOp2
 70
     1
102
RTVSPropertyOp3
 70
     1
102
RTVSPropertyOp4
 70
     1
102
RTVSPropertyOp5
 70
     1
102
RTVSPropertyOp6
 70
     1
102
RTVSPropertyOp7
 70
     1
102
RTVSPropertyOp8
 70
     1
102
RTVSPropertyOp9
 70
     1
102
RTVSPropertyOp10
 70
     1
102
RTVSPropertyOp11
 70
     1
102
RTVSPropertyOp12
 70
     1
102
RTVSPropertyOp13
 70
     1
102
RTVSPropertyOp14
 70
     1
102
RTVSPropertyOp15
 70
     1
102
RTVSPropertyOp16
 70
     1
102
RTVSPropertyOp17
 70
     1
102
RTVSPropertyOp18
 70
     1
102
RTVSPropertyOp19
 70
     1
102
RTVSPropertyOp20
 70
     1
102
RTVSPropertyOp21
 70
     1
102
RTVSPropertyOp22
 70
     1
102
RTVSPropertyOp23
 70
     1
102
RTVSPropertyOp24
 70
     1
102
RTVSPropertyOp25
 70
     1
102
RTVSPropertyOp26
 70
     1
102
RTVSPropertyOp27
 70
     1
102
RTVSPropertyOp28
 70
     1
102
RTVSPropertyOp29
 70
     1
102
RTVSPropertyOp30
 70
     1
102
RTVSPropertyOp31
 70
     1
102
RTVSPropertyOp32
 70
     1
102
RTVSPropertyOp33
 70
     1
102
RTVSPropertyOp34
 70
     1
102
RTVSPropertyOp35
 70
     1
102
RTVSPropertyOp36
 70
     1
102
RTVSPropertyOp37
 70
     1
102
RTVSPropertyOp38
 70
     1
102
RTVSPropertyOp39
 70
     1
102
RTVSPropertyOp40
 70
     1
102
RTVSPropertyOp41
 70
     1
102
RTVSPropertyOp42
 70
     1
102
RTVSPropertyOp43
 70
     1
102
RTVSPropertyOp44
 70
     1
102
RTVSPropertyOp45
 70
     1
102
RTVSPropertyOp46
 70
     1
102
RTVSPropertyOp47
 70
     1
102
RTVSPropertyOp48
 70
     1
102
RTVSPropertyOp49
 70
     1
102
RTVSPropertyOp50
 70
     1
102
RTVSPropertyOp51
 70
     0
102
RTVSPropertyOp52
 70
     0
102
RTVSPropertyOp53
 70
     1
102
RTVSPropertyOp54
 70
     1
102
RTVSPropertyOp55
 70
     1
102
RTVSPropertyOp56
 70
     1
102
RTVSPropertyOp57
 70
     1
102
RTVSPost2010Prop28
280
     0
102
RTVSPost2010PropOp28
 70
     1
102
RTVSPost2010Prop29
280
     1
102
RTVSPost2010PropOp29
 70
     1
102
RTVSPost2010Prop30
280
     1
102
RTVSPost2010PropOp30
 70
     1
102
RTVSPost2010Prop31
280
     0
102
RTVSPost2010PropOp31
 70
     1
102
RTVSPost2010Prop32
280
     0
102
RTVSPost2010PropOp32
 70
     1
102
RTVSPost2010Prop33
280
     0
102
RTVSPost2010PropOp33
 70
     1
102
RTVSPost2010Prop34
280
     0
102
RTVSPost2010PropOp34
 70
     1
102
RTVSPost2010Prop35
280
     0
102
RTVSPost2010PropOp35
 70
     1
102
RTVSPost2010Prop36
280
     0
102
RTVSPost2010PropOp36
 70
     1
102
RTVSPost2010Prop37
 90
       50
102
RTVSPost2010PropOp37
 70
     1
102
RTVSPost2010Prop38
140
0.0
102
RTVSPost2010PropOp38
 70
     1
102
RTVSPost2010Prop39
140
1.0
102
RTVSPost2010PropOp39
 70
     1
102
RTVSPost2010Prop40
 90
        0
102
RTVSPost2010PropOp40
 70
     1
102
RTVSPost2010Prop41ColorIndex
 90
       18
102
RTVSPost2010Prop41ColorRGB
 90
        0
102
RTVSPost2010PropOp41
 70
     1
102
RTVSPost2010Prop42
 90
       50
102
RTVSPost2010PropOp42
 70
     1
102
RTVSPost2010Prop43
 90
        3
102
RTVSPost2010PropOp43
 70
     1
102
RTVSPost2010Prop44ColorIndex
 90
        5
102
RTVSPost2010Prop44ColorRGB
 90
      255
102
RTVSPost2010PropOp44
 70
     1
102
RTVSPost2010Prop45
280
     0
102
RTVSPost2010PropOp45
 70
     1
102
RTVSPost2010Prop46
 90
       50
102
RTVSPost2010PropOp46
 70
     1
102
RTVSPost2010Prop47
 90
       50
102
RTVSPost2010PropOp47
 70
     1
102
RTVSPost2010Prop48
 90
       50
102
RTVSPost2010PropOp48
 70
     1
102
RTVSPost2010Prop49
280
     0
102
RTVSPost2010PropOp49
 70
     1
102
RTVSPost2010Prop50
 90
       50
102
RTVSPost2010PropOp50
 70
     1
102
RTVSPost2010Prop51ColorIndex
 90
      256
102
RTVSPost2010Prop51ColorRGB
 90
-16777216
102
RTVSPost2010PropOp51
 70
     0
102
RTVSPost2010Prop52
140
1.0
102
RTVSPost2010PropOp52
 70
     0
102
RTVSPost2010Prop53
 90
        2
102
RTVSPost2010PropOp53
 70
     1
102
RTVSPost2010Prop54
  1
strokes_ogs.tif
102
RTVSPost2010PropOp54
 70
     1
102
RTVSPost2010Prop55
280
     0
102
RTVSPost2010PropOp55
 70
     1
102
RTVSPost2010Prop56
140
1.0
102
RTVSPost2010PropOp56
 70
     1
102
RTVSPost2010Prop57
140
1.0
102
RTVSPost2010PropOp57
 70
     1
  0
XRECORD
  5
E0E00001CD0A
102
{ACAD_REACTORS
330
E0E00001CD09
102
}
330
E0E00001CD09
100
AcDbXrecord
280
     1
102
RTVSPropertyOp0
 70
     1
102
RTVSPropertyOp1
 70
     1
102
RTVSPropertyOp2
 70
     1
102
RTVSPropertyOp3
 70
     1
102
RTVSPropertyOp4
 70
     1
102
RTVSPropertyOp5
 70
     1
102
RTVSPropertyOp6
 70
     1
102
RTVSPropertyOp7
 70
     1
102
RTVSPropertyOp8
 70
     1
102
RTVSPropertyOp9
 70
     1
102
RTVSPropertyOp10
 70
     1
102
RTVSPropertyOp11
 70
     1
102
RTVSPropertyOp12
 70
     1
102
RTVSPropertyOp13
 70
     1
102
RTVSPropertyOp14
 70
     1
102
RTVSPropertyOp15
 70
     1
102
RTVSPropertyOp16
 70
     1
102
RTVSPropertyOp17
 70
     1
102
RTVSPropertyOp18
 70
     1
102
RTVSPropertyOp19
 70
     1
102
RTVSPropertyOp20
 70
     1
102
RTVSPropertyOp21
 70
     1
102
RTVSPropertyOp22
 70
     1
102
RTVSPropertyOp23
 70
     1
102
RTVSPropertyOp24
 70
     1
102
RTVSPropertyOp25
 70
     1
102
RTVSPropertyOp26
 70
     1
102
RTVSPropertyOp27
 70
     1
102
RTVSPropertyOp28
 70
     1
102
RTVSPropertyOp29
 70
     1
102
RTVSPropertyOp30
 70
     1
102
RTVSPropertyOp31
 70
     1
102
RTVSPropertyOp32
 70
     1
102
RTVSPropertyOp33
 70
     1
102
RTVSPropertyOp34
 70
     1
102
RTVSPropertyOp35
 70
     1
102
RTVSPropertyOp36
 70
     1
102
RTVSPropertyOp37
 70
     1
102
RTVSPropertyOp38
 70
     1
102
RTVSPropertyOp39
 70
     1
102
RTVSPropertyOp40
 70
     1
102
RTVSPropertyOp41
 70
     1
102
RTVSPropertyOp42
 70
     1
102
RTVSPropertyOp43
 70
     1
102
RTVSPropertyOp44
 70
     1
102
RTVSPropertyOp45
 70
     1
102
RTVSPropertyOp46
 70
     1
102
RTVSPropertyOp47
 70
     1
102
RTVSPropertyOp48
 70
     1
102
RTVSPropertyOp49
 70
     1
102
RTVSPropertyOp50
 70
     1
102
RTVSPropertyOp51
 70
     0
102
RTVSPropertyOp52
 70
     0
102
RTVSPropertyOp53
 70
     1
102
RTVSPropertyOp54
 70
     1
102
RTVSPropertyOp55
 70
     1
102
RTVSPropertyOp56
 70
     1
102
RTVSPropertyOp57
 70
     1
102
RTVSPost2010Prop28
280
     0
102
RTVSPost2010PropOp28
 70
     1
102
RTVSPost2010Prop29
280
     1
102
RTVSPost2010PropOp29
 70
     1
102
RTVSPost2010Prop30
280
     1
102
RTVSPost2010PropOp30
 70
     1
102
RTVSPost2010Prop31
280
     0
102
RTVSPost2010PropOp31
 70
     1
102
RTVSPost2010Prop32
280
     0
102
RTVSPost2010PropOp32
 70
     1
102
RTVSPost2010Prop33
280
     0
102
RTVSPost2010PropOp33
 70
     1
102
RTVSPost2010Prop34
280
     0
102
RTVSPost2010PropOp34
 70
     1
102
RTVSPost2010Prop35
280
     0
102
RTVSPost2010PropOp35
 70
     1
102
RTVSPost2010Prop36
280
     0
102
RTVSPost2010PropOp36
 70
     1
102
RTVSPost2010Prop37
 90
       50
102
RTVSPost2010PropOp37
 70
     1
102
RTVSPost2010Prop38
140
0.0
102
RTVSPost2010PropOp38
 70
     1
102
RTVSPost2010Prop39
140
1.0
102
RTVSPost2010PropOp39
 70
     1
102
RTVSPost2010Prop40
 90
        0
102
RTVSPost2010PropOp40
 70
     1
102
RTVSPost2010Prop41ColorIndex
 90
       18
102
RTVSPost2010Prop41ColorRGB
 90
        0
102
RTVSPost2010PropOp41
 70
     1
102
RTVSPost2010Prop42
 90
       50
102
RTVSPost2010PropOp42
 70
     1
102
RTVSPost2010Prop43
 90
        3
102
RTVSPost2010PropOp43
 70
     1
102
RTVSPost2010Prop44ColorIndex
 90
        5
102
RTVSPost2010Prop44ColorRGB
 90
      255
102
RTVSPost2010PropOp44
 70
     1
102
RTVSPost2010Prop45
280
     0
102
RTVSPost2010PropOp45
 70
     1
102
RTVSPost2010Prop46
 90
       50
102
RTVSPost2010PropOp46
 70
     1
102
RTVSPost2010Prop47
 90
       50
102
RTVSPost2010PropOp47
 70
     1
102
RTVSPost2010Prop48
 90
       50
102
RTVSPost2010PropOp48
 70
     1
102
RTVSPost2010Prop49
280
     0
102
RTVSPost2010PropOp49
 70
     1
102
RTVSPost2010Prop50
 90
       50
102
RTVSPost2010PropOp50
 70
     1
102
RTVSPost2010Prop51ColorIndex
 90
      256
102
RTVSPost2010Prop51ColorRGB
 90
-16777216
102
RTVSPost2010PropOp51
 70
     0
102
RTVSPost2010Prop52
140
1.0
102
RTVSPost2010PropOp52
 70
     0
102
RTVSPost2010Prop53
 90
        2
102
RTVSPost2010PropOp53
 70
     1
102
RTVSPost2010Prop54
  1
strokes_ogs.tif
102
RTVSPost2010PropOp54
 70
     1
102
RTVSPost2010Prop55
280
     0
102
RTVSPost2010PropOp55
 70
     1
102
RTVSPost2010Prop56
140
1.0
102
RTVSPost2010PropOp56
 70
     1
102
RTVSPost2010Prop57
140
1.0
102
RTVSPost2010PropOp57
 70
     1
  0
XRECORD
  5
E0E00001CD08
102
{ACAD_REACTORS
330
E0E00001CD07
102
}
330
E0E00001CD07
100
AcDbXrecord
280
     1
102
RTVSPropertyOp0
 70
     1
102
RTVSPropertyOp1
 70
     1
102
RTVSPropertyOp2
 70
     1
102
RTVSPropertyOp3
 70
     1
102
RTVSPropertyOp4
 70
     1
102
RTVSPropertyOp5
 70
     1
102
RTVSPropertyOp6
 70
     1
102
RTVSPropertyOp7
 70
     1
102
RTVSPropertyOp8
 70
     1
102
RTVSPropertyOp9
 70
     1
102
RTVSPropertyOp10
 70
     1
102
RTVSPropertyOp11
 70
     1
102
RTVSPropertyOp12
 70
     1
102
RTVSPropertyOp13
 70
     1
102
RTVSPropertyOp14
 70
     1
102
RTVSPropertyOp15
 70
     1
102
RTVSPropertyOp16
 70
     1
102
RTVSPropertyOp17
 70
     1
102
RTVSPropertyOp18
 70
     1
102
RTVSPropertyOp19
 70
     1
102
RTVSPropertyOp20
 70
     1
102
RTVSPropertyOp21
 70
     1
102
RTVSPropertyOp22
 70
     1
102
RTVSPropertyOp23
 70
     1
102
RTVSPropertyOp24
 70
     1
102
RTVSPropertyOp25
 70
     1
102
RTVSPropertyOp26
 70
     1
102
RTVSPropertyOp27
 70
     1
102
RTVSPropertyOp28
 70
     1
102
RTVSPropertyOp29
 70
     1
102
RTVSPropertyOp30
 70
     1
102
RTVSPropertyOp31
 70
     1
102
RTVSPropertyOp32
 70
     1
102
RTVSPropertyOp33
 70
     1
102
RTVSPropertyOp34
 70
     1
102
RTVSPropertyOp35
 70
     1
102
RTVSPropertyOp36
 70
     1
102
RTVSPropertyOp37
 70
     1
102
RTVSPropertyOp38
 70
     1
102
RTVSPropertyOp39
 70
     1
102
RTVSPropertyOp40
 70
     1
102
RTVSPropertyOp41
 70
     1
102
RTVSPropertyOp42
 70
     1
102
RTVSPropertyOp43
 70
     1
102
RTVSPropertyOp44
 70
     1
102
RTVSPropertyOp45
 70
     1
102
RTVSPropertyOp46
 70
     1
102
RTVSPropertyOp47
 70
     1
102
RTVSPropertyOp48
 70
     1
102
RTVSPropertyOp49
 70
     1
102
RTVSPropertyOp50
 70
     1
102
RTVSPropertyOp51
 70
     0
102
RTVSPropertyOp52
 70
     0
102
RTVSPropertyOp53
 70
     1
102
RTVSPropertyOp54
 70
     1
102
RTVSPropertyOp55
 70
     1
102
RTVSPropertyOp56
 70
     1
102
RTVSPropertyOp57
 70
     1
102
RTVSPost2010Prop28
280
     0
102
RTVSPost2010PropOp28
 70
     1
102
RTVSPost2010Prop29
280
     1
102
RTVSPost2010PropOp29
 70
     1
102
RTVSPost2010Prop30
280
     1
102
RTVSPost2010PropOp30
 70
     1
102
RTVSPost2010Prop31
280
     0
102
RTVSPost2010PropOp31
 70
     1
102
RTVSPost2010Prop32
280
     0
102
RTVSPost2010PropOp32
 70
     1
102
RTVSPost2010Prop33
280
     0
102
RTVSPost2010PropOp33
 70
     1
102
RTVSPost2010Prop34
280
     0
102
RTVSPost2010PropOp34
 70
     1
102
RTVSPost2010Prop35
280
     0
102
RTVSPost2010PropOp35
 70
     1
102
RTVSPost2010Prop36
280
     0
102
RTVSPost2010PropOp36
 70
     1
102
RTVSPost2010Prop37
 90
       50
102
RTVSPost2010PropOp37
 70
     1
102
RTVSPost2010Prop38
140
0.0
102
RTVSPost2010PropOp38
 70
     1
102
RTVSPost2010Prop39
140
1.0
102
RTVSPost2010PropOp39
 70
     1
102
RTVSPost2010Prop40
 90
        0
102
RTVSPost2010PropOp40
 70
     1
102
RTVSPost2010Prop41ColorIndex
 90
       18
102
RTVSPost2010Prop41ColorRGB
 90
        0
102
RTVSPost2010PropOp41
 70
     1
102
RTVSPost2010Prop42
 90
       50
102
RTVSPost2010PropOp42
 70
     1
102
RTVSPost2010Prop43
 90
        3
102
RTVSPost2010PropOp43
 70
     1
102
RTVSPost2010Prop44ColorIndex
 90
        5
102
RTVSPost2010Prop44ColorRGB
 90
      255
102
RTVSPost2010PropOp44
 70
     1
102
RTVSPost2010Prop45
280
     0
102
RTVSPost2010PropOp45
 70
     1
102
RTVSPost2010Prop46
 90
       50
102
RTVSPost2010PropOp46
 70
     1
102
RTVSPost2010Prop47
 90
       50
102
RTVSPost2010PropOp47
 70
     1
102
RTVSPost2010Prop48
 90
       50
102
RTVSPost2010PropOp48
 70
     1
102
RTVSPost2010Prop49
280
     0
102
RTVSPost2010PropOp49
 70
     1
102
RTVSPost2010Prop50
 90
       50
102
RTVSPost2010PropOp50
 70
     1
102
RTVSPost2010Prop51ColorIndex
 90
      256
102
RTVSPost2010Prop51ColorRGB
 90
-16777216
102
RTVSPost2010PropOp51
 70
     0
102
RTVSPost2010Prop52
140
1.0
102
RTVSPost2010PropOp52
 70
     0
102
RTVSPost2010Prop53
 90
        2
102
RTVSPost2010PropOp53
 70
     1
102
RTVSPost2010Prop54
  1
strokes_ogs.tif
102
RTVSPost2010PropOp54
 70
     1
102
RTVSPost2010Prop55
280
     0
102
RTVSPost2010PropOp55
 70
     1
102
RTVSPost2010Prop56
140
1.0
102
RTVSPost2010PropOp56
 70
     1
102
RTVSPost2010Prop57
140
1.0
102
RTVSPost2010PropOp57
 70
     1
  0
XRECORD
  5
E0E00001CD02
102
{ACAD_REACTORS
330
E0E00001CD01
102
}
330
E0E00001CD01
100
AcDbXrecord
280
     1
102
RTVSPropertyOp0
 70
     1
102
RTVSPropertyOp1
 70
     1
102
RTVSPropertyOp2
 70
     1
102
RTVSPropertyOp3
 70
     1
102
RTVSPropertyOp4
 70
     1
102
RTVSPropertyOp5
 70
     1
102
RTVSPropertyOp6
 70
     1
102
RTVSPropertyOp7
 70
     1
102
RTVSPropertyOp8
 70
     1
102
RTVSPropertyOp9
 70
     1
102
RTVSPropertyOp10
 70
     1
102
RTVSPropertyOp11
 70
     1
102
RTVSPropertyOp12
 70
     1
102
RTVSPropertyOp13
 70
     1
102
RTVSPropertyOp14
 70
     1
102
RTVSPropertyOp15
 70
     1
102
RTVSPropertyOp16
 70
     1
102
RTVSPropertyOp17
 70
     1
102
RTVSPropertyOp18
 70
     1
102
RTVSPropertyOp19
 70
     1
102
RTVSPropertyOp20
 70
     1
102
RTVSPropertyOp21
 70
     1
102
RTVSPropertyOp22
 70
     1
102
RTVSPropertyOp23
 70
     1
102
RTVSPropertyOp24
 70
     1
102
RTVSPropertyOp25
 70
     1
102
RTVSPropertyOp26
 70
     1
102
RTVSPropertyOp27
 70
     1
102
RTVSPropertyOp28
 70
     1
102
RTVSPropertyOp29
 70
     1
102
RTVSPropertyOp30
 70
     1
102
RTVSPropertyOp31
 70
     1
102
RTVSPropertyOp32
 70
     1
102
RTVSPropertyOp33
 70
     1
102
RTVSPropertyOp34
 70
     1
102
RTVSPropertyOp35
 70
     1
102
RTVSPropertyOp36
 70
     1
102
RTVSPropertyOp37
 70
     1
102
RTVSPropertyOp38
 70
     1
102
RTVSPropertyOp39
 70
     1
102
RTVSPropertyOp40
 70
     1
102
RTVSPropertyOp41
 70
     1
102
RTVSPropertyOp42
 70
     1
102
RTVSPropertyOp43
 70
     1
102
RTVSPropertyOp44
 70
     1
102
RTVSPropertyOp45
 70
     1
102
RTVSPropertyOp46
 70
     1
102
RTVSPropertyOp47
 70
     1
102
RTVSPropertyOp48
 70
     1
102
RTVSPropertyOp49
 70
     1
102
RTVSPropertyOp50
 70
     1
102
RTVSPropertyOp51
 70
     0
102
RTVSPropertyOp52
 70
     0
102
RTVSPropertyOp53
 70
     1
102
RTVSPropertyOp54
 70
     1
102
RTVSPropertyOp55
 70
     1
102
RTVSPropertyOp56
 70
     1
102
RTVSPropertyOp57
 70
     1
102
RTVSPost2010Prop28
280
     0
102
RTVSPost2010PropOp28
 70
     1
102
RTVSPost2010Prop29
280
     1
102
RTVSPost2010PropOp29
 70
     1
102
RTVSPost2010Prop30
280
     1
102
RTVSPost2010PropOp30
 70
     1
102
RTVSPost2010Prop31
280
     0
102
RTVSPost2010PropOp31
 70
     1
102
RTVSPost2010Prop32
280
     0
102
RTVSPost2010PropOp32
 70
     1
102
RTVSPost2010Prop33
280
     0
102
RTVSPost2010PropOp33
 70
     1
102
RTVSPost2010Prop34
280
     0
102
RTVSPost2010PropOp34
 70
     1
102
RTVSPost2010Prop35
280
     0
102
RTVSPost2010PropOp35
 70
     1
102
RTVSPost2010Prop36
280
     0
102
RTVSPost2010PropOp36
 70
     1
102
RTVSPost2010Prop37
 90
       50
102
RTVSPost2010PropOp37
 70
     1
102
RTVSPost2010Prop38
140
0.0
102
RTVSPost2010PropOp38
 70
     1
102
RTVSPost2010Prop39
140
1.0
102
RTVSPost2010PropOp39
 70
     1
102
RTVSPost2010Prop40
 90
        0
102
RTVSPost2010PropOp40
 70
     1
102
RTVSPost2010Prop41ColorIndex
 90
       18
102
RTVSPost2010Prop41ColorRGB
 90
        0
102
RTVSPost2010PropOp41
 70
     1
102
RTVSPost2010Prop42
 90
       50
102
RTVSPost2010PropOp42
 70
     1
102
RTVSPost2010Prop43
 90
        3
102
RTVSPost2010PropOp43
 70
     1
102
RTVSPost2010Prop44ColorIndex
 90
        5
102
RTVSPost2010Prop44ColorRGB
 90
      255
102
RTVSPost2010PropOp44
 70
     1
102
RTVSPost2010Prop45
280
     0
102
RTVSPost2010PropOp45
 70
     1
102
RTVSPost2010Prop46
 90
       50
102
RTVSPost2010PropOp46
 70
     1
102
RTVSPost2010Prop47
 90
       50
102
RTVSPost2010PropOp47
 70
     1
102
RTVSPost2010Prop48
 90
       50
102
RTVSPost2010PropOp48
 70
     1
102
RTVSPost2010Prop49
280
     0
102
RTVSPost2010PropOp49
 70
     1
102
RTVSPost2010Prop50
 90
       50
102
RTVSPost2010PropOp50
 70
     1
102
RTVSPost2010Prop51ColorIndex
 90
      256
102
RTVSPost2010Prop51ColorRGB
 90
-16777216
102
RTVSPost2010PropOp51
 70
     0
102
RTVSPost2010Prop52
140
1.0
102
RTVSPost2010PropOp52
 70
     0
102
RTVSPost2010Prop53
 90
        2
102
RTVSPost2010PropOp53
 70
     1
102
RTVSPost2010Prop54
  1
strokes_ogs.tif
102
RTVSPost2010PropOp54
 70
     1
102
RTVSPost2010Prop55
280
     0
102
RTVSPost2010PropOp55
 70
     1
102
RTVSPost2010Prop56
140
1.0
102
RTVSPost2010PropOp56
 70
     1
102
RTVSPost2010Prop57
140
1.0
102
RTVSPost2010PropOp57
 70
     1
  0
XRECORD
  5
E0E00001CD04
102
{ACAD_REACTORS
330
E0E00001CD03
102
}
330
E0E00001CD03
100
AcDbXrecord
280
     1
102
RTVSPropertyOp0
 70
     1
102
RTVSPropertyOp1
 70
     1
102
RTVSPropertyOp2
 70
     1
102
RTVSPropertyOp3
 70
     1
102
RTVSPropertyOp4
 70
     1
102
RTVSPropertyOp5
 70
     1
102
RTVSPropertyOp6
 70
     1
102
RTVSPropertyOp7
 70
     1
102
RTVSPropertyOp8
 70
     1
102
RTVSPropertyOp9
 70
     1
102
RTVSPropertyOp10
 70
     1
102
RTVSPropertyOp11
 70
     1
102
RTVSPropertyOp12
 70
     1
102
RTVSPropertyOp13
 70
     1
102
RTVSPropertyOp14
 70
     1
102
RTVSPropertyOp15
 70
     1
102
RTVSPropertyOp16
 70
     1
102
RTVSPropertyOp17
 70
     1
102
RTVSPropertyOp18
 70
     1
102
RTVSPropertyOp19
 70
     1
102
RTVSPropertyOp20
 70
     1
102
RTVSPropertyOp21
 70
     1
102
RTVSPropertyOp22
 70
     1
102
RTVSPropertyOp23
 70
     1
102
RTVSPropertyOp24
 70
     1
102
RTVSPropertyOp25
 70
     1
102
RTVSPropertyOp26
 70
     1
102
RTVSPropertyOp27
 70
     1
102
RTVSPropertyOp28
 70
     1
102
RTVSPropertyOp29
 70
     1
102
RTVSPropertyOp30
 70
     1
102
RTVSPropertyOp31
 70
     1
102
RTVSPropertyOp32
 70
     1
102
RTVSPropertyOp33
 70
     1
102
RTVSPropertyOp34
 70
     1
102
RTVSPropertyOp35
 70
     1
102
RTVSPropertyOp36
 70
     1
102
RTVSPropertyOp37
 70
     1
102
RTVSPropertyOp38
 70
     1
102
RTVSPropertyOp39
 70
     1
102
RTVSPropertyOp40
 70
     1
102
RTVSPropertyOp41
 70
     1
102
RTVSPropertyOp42
 70
     1
102
RTVSPropertyOp43
 70
     1
102
RTVSPropertyOp44
 70
     1
102
RTVSPropertyOp45
 70
     1
102
RTVSPropertyOp46
 70
     1
102
RTVSPropertyOp47
 70
     1
102
RTVSPropertyOp48
 70
     1
102
RTVSPropertyOp49
 70
     1
102
RTVSPropertyOp50
 70
     1
102
RTVSPropertyOp51
 70
     0
102
RTVSPropertyOp52
 70
     0
102
RTVSPropertyOp53
 70
     1
102
RTVSPropertyOp54
 70
     1
102
RTVSPropertyOp55
 70
     1
102
RTVSPropertyOp56
 70
     1
102
RTVSPropertyOp57
 70
     1
102
RTVSPost2010Prop28
280
     0
102
RTVSPost2010PropOp28
 70
     1
102
RTVSPost2010Prop29
280
     1
102
RTVSPost2010PropOp29
 70
     1
102
RTVSPost2010Prop30
280
     1
102
RTVSPost2010PropOp30
 70
     1
102
RTVSPost2010Prop31
280
     0
102
RTVSPost2010PropOp31
 70
     1
102
RTVSPost2010Prop32
280
     0
102
RTVSPost2010PropOp32
 70
     1
102
RTVSPost2010Prop33
280
     0
102
RTVSPost2010PropOp33
 70
     1
102
RTVSPost2010Prop34
280
     0
102
RTVSPost2010PropOp34
 70
     1
102
RTVSPost2010Prop35
280
     0
102
RTVSPost2010PropOp35
 70
     1
102
RTVSPost2010Prop36
280
     0
102
RTVSPost2010PropOp36
 70
     1
102
RTVSPost2010Prop37
 90
       50
102
RTVSPost2010PropOp37
 70
     1
102
RTVSPost2010Prop38
140
0.0
102
RTVSPost2010PropOp38
 70
     1
102
RTVSPost2010Prop39
140
1.0
102
RTVSPost2010PropOp39
 70
     1
102
RTVSPost2010Prop40
 90
        0
102
RTVSPost2010PropOp40
 70
     1
102
RTVSPost2010Prop41ColorIndex
 90
       18
102
RTVSPost2010Prop41ColorRGB
 90
        0
102
RTVSPost2010PropOp41
 70
     1
102
RTVSPost2010Prop42
 90
       50
102
RTVSPost2010PropOp42
 70
     1
102
RTVSPost2010Prop43
 90
        3
102
RTVSPost2010PropOp43
 70
     1
102
RTVSPost2010Prop44ColorIndex
 90
        5
102
RTVSPost2010Prop44ColorRGB
 90
      255
102
RTVSPost2010PropOp44
 70
     1
102
RTVSPost2010Prop45
280
     0
102
RTVSPost2010PropOp45
 70
     1
102
RTVSPost2010Prop46
 90
       50
102
RTVSPost2010PropOp46
 70
     1
102
RTVSPost2010Prop47
 90
       50
102
RTVSPost2010PropOp47
 70
     1
102
RTVSPost2010Prop48
 90
       50
102
RTVSPost2010PropOp48
 70
     1
102
RTVSPost2010Prop49
280
     0
102
RTVSPost2010PropOp49
 70
     1
102
RTVSPost2010Prop50
 90
       50
102
RTVSPost2010PropOp50
 70
     1
102
RTVSPost2010Prop51ColorIndex
 90
      256
102
RTVSPost2010Prop51ColorRGB
 90
-16777216
102
RTVSPost2010PropOp51
 70
     0
102
RTVSPost2010Prop52
140
1.0
102
RTVSPost2010PropOp52
 70
     0
102
RTVSPost2010Prop53
 90
        2
102
RTVSPost2010PropOp53
 70
     1
102
RTVSPost2010Prop54
  1
strokes_ogs.tif
102
RTVSPost2010PropOp54
 70
     1
102
RTVSPost2010Prop55
280
     0
102
RTVSPost2010PropOp55
 70
     1
102
RTVSPost2010Prop56
140
1.0
102
RTVSPost2010PropOp56
 70
     1
102
RTVSPost2010Prop57
140
1.0
102
RTVSPost2010PropOp57
 70
     1
  0
XRECORD
  5
E0E00001CCF6
102
{ACAD_REACTORS
330
E0E00001CCF5
102
}
330
E0E00001CCF5
100
AcDbXrecord
280
     1
102
RTVSPropertyOp0
 70
     1
102
RTVSPropertyOp1
 70
     1
102
RTVSPropertyOp2
 70
     1
102
RTVSPropertyOp3
 70
     1
102
RTVSPropertyOp4
 70
     1
102
RTVSPropertyOp5
 70
     1
102
RTVSPropertyOp6
 70
     1
102
RTVSPropertyOp7
 70
     1
102
RTVSPropertyOp8
 70
     1
102
RTVSPropertyOp9
 70
     1
102
RTVSPropertyOp10
 70
     1
102
RTVSPropertyOp11
 70
     1
102
RTVSPropertyOp12
 70
     1
102
RTVSPropertyOp13
 70
     1
102
RTVSPropertyOp14
 70
     1
102
RTVSPropertyOp15
 70
     1
102
RTVSPropertyOp16
 70
     1
102
RTVSPropertyOp17
 70
     1
102
RTVSPropertyOp18
 70
     1
102
RTVSPropertyOp19
 70
     1
102
RTVSPropertyOp20
 70
     1
102
RTVSPropertyOp21
 70
     1
102
RTVSPropertyOp22
 70
     1
102
RTVSPropertyOp23
 70
     1
102
RTVSPropertyOp24
 70
     1
102
RTVSPropertyOp25
 70
     1
102
RTVSPropertyOp26
 70
     1
102
RTVSPropertyOp27
 70
     1
102
RTVSPropertyOp28
 70
     1
102
RTVSPropertyOp29
 70
     1
102
RTVSPropertyOp30
 70
     1
102
RTVSPropertyOp31
 70
     1
102
RTVSPropertyOp32
 70
     1
102
RTVSPropertyOp33
 70
     1
102
RTVSPropertyOp34
 70
     1
102
RTVSPropertyOp35
 70
     1
102
RTVSPropertyOp36
 70
     1
102
RTVSPropertyOp37
 70
     1
102
RTVSPropertyOp38
 70
     1
102
RTVSPropertyOp39
 70
     1
102
RTVSPropertyOp40
 70
     1
102
RTVSPropertyOp41
 70
     1
102
RTVSPropertyOp42
 70
     1
102
RTVSPropertyOp43
 70
     1
102
RTVSPropertyOp44
 70
     1
102
RTVSPropertyOp45
 70
     1
102
RTVSPropertyOp46
 70
     1
102
RTVSPropertyOp47
 70
     1
102
RTVSPropertyOp48
 70
     1
102
RTVSPropertyOp49
 70
     1
102
RTVSPropertyOp50
 70
     1
102
RTVSPropertyOp51
 70
     0
102
RTVSPropertyOp52
 70
     0
102
RTVSPropertyOp53
 70
     1
102
RTVSPropertyOp54
 70
     1
102
RTVSPropertyOp55
 70
     1
102
RTVSPropertyOp56
 70
     1
102
RTVSPropertyOp57
 70
     1
102
RTVSPost2010Prop28
280
     0
102
RTVSPost2010PropOp28
 70
     1
102
RTVSPost2010Prop29
280
     1
102
RTVSPost2010PropOp29
 70
     1
102
RTVSPost2010Prop30
280
     1
102
RTVSPost2010PropOp30
 70
     1
102
RTVSPost2010Prop31
280
     0
102
RTVSPost2010PropOp31
 70
     1
102
RTVSPost2010Prop32
280
     0
102
RTVSPost2010PropOp32
 70
     1
102
RTVSPost2010Prop33
280
     0
102
RTVSPost2010PropOp33
 70
     1
102
RTVSPost2010Prop34
280
     0
102
RTVSPost2010PropOp34
 70
     1
102
RTVSPost2010Prop35
280
     0
102
RTVSPost2010PropOp35
 70
     1
102
RTVSPost2010Prop36
280
     0
102
RTVSPost2010PropOp36
 70
     1
102
RTVSPost2010Prop37
 90
       50
102
RTVSPost2010PropOp37
 70
     1
102
RTVSPost2010Prop38
140
0.0
102
RTVSPost2010PropOp38
 70
     1
102
RTVSPost2010Prop39
140
1.0
102
RTVSPost2010PropOp39
 70
     1
102
RTVSPost2010Prop40
 90
        0
102
RTVSPost2010PropOp40
 70
     1
102
RTVSPost2010Prop41ColorIndex
 90
       18
102
RTVSPost2010Prop41ColorRGB
 90
        0
102
RTVSPost2010PropOp41
 70
     1
102
RTVSPost2010Prop42
 90
       50
102
RTVSPost2010PropOp42
 70
     1
102
RTVSPost2010Prop43
 90
        3
102
RTVSPost2010PropOp43
 70
     1
102
RTVSPost2010Prop44ColorIndex
 90
        5
102
RTVSPost2010Prop44ColorRGB
 90
      255
102
RTVSPost2010PropOp44
 70
     1
102
RTVSPost2010Prop45
280
     0
102
RTVSPost2010PropOp45
 70
     1
102
RTVSPost2010Prop46
 90
       50
102
RTVSPost2010PropOp46
 70
     1
102
RTVSPost2010Prop47
 90
       50
102
RTVSPost2010PropOp47
 70
     1
102
RTVSPost2010Prop48
 90
       50
102
RTVSPost2010PropOp48
 70
     1
102
RTVSPost2010Prop49
280
     0
102
RTVSPost2010PropOp49
 70
     1
102
RTVSPost2010Prop50
 90
       50
102
RTVSPost2010PropOp50
 70
     1
102
RTVSPost2010Prop51ColorIndex
 90
      256
102
RTVSPost2010Prop51ColorRGB
 90
-16777216
102
RTVSPost2010PropOp51
 70
     0
102
RTVSPost2010Prop52
140
1.0
102
RTVSPost2010PropOp52
 70
     0
102
RTVSPost2010Prop53
 90
        2
102
RTVSPost2010PropOp53
 70
     1
102
RTVSPost2010Prop54
  1
strokes_ogs.tif
102
RTVSPost2010PropOp54
 70
     1
102
RTVSPost2010Prop55
280
     0
102
RTVSPost2010PropOp55
 70
     1
102
RTVSPost2010Prop56
140
1.0
102
RTVSPost2010PropOp56
 70
     1
102
RTVSPost2010Prop57
140
1.0
102
RTVSPost2010PropOp57
 70
     1
  0
XRECORD
  5
E0E00001CCF8
102
{ACAD_REACTORS
330
E0E00001CCF7
102
}
330
E0E00001CCF7
100
AcDbXrecord
280
     1
102
RTVSPropertyOp0
 70
     1
102
RTVSPropertyOp1
 70
     1
102
RTVSPropertyOp2
 70
     1
102
RTVSPropertyOp3
 70
     1
102
RTVSPropertyOp4
 70
     1
102
RTVSPropertyOp5
 70
     1
102
RTVSPropertyOp6
 70
     1
102
RTVSPropertyOp7
 70
     1
102
RTVSPropertyOp8
 70
     1
102
RTVSPropertyOp9
 70
     1
102
RTVSPropertyOp10
 70
     1
102
RTVSPropertyOp11
 70
     1
102
RTVSPropertyOp12
 70
     1
102
RTVSPropertyOp13
 70
     1
102
RTVSPropertyOp14
 70
     1
102
RTVSPropertyOp15
 70
     1
102
RTVSPropertyOp16
 70
     1
102
RTVSPropertyOp17
 70
     1
102
RTVSPropertyOp18
 70
     1
102
RTVSPropertyOp19
 70
     1
102
RTVSPropertyOp20
 70
     1
102
RTVSPropertyOp21
 70
     1
102
RTVSPropertyOp22
 70
     1
102
RTVSPropertyOp23
 70
     1
102
RTVSPropertyOp24
 70
     1
102
RTVSPropertyOp25
 70
     1
102
RTVSPropertyOp26
 70
     1
102
RTVSPropertyOp27
 70
     1
102
RTVSPropertyOp28
 70
     1
102
RTVSPropertyOp29
 70
     1
102
RTVSPropertyOp30
 70
     1
102
RTVSPropertyOp31
 70
     1
102
RTVSPropertyOp32
 70
     1
102
RTVSPropertyOp33
 70
     1
102
RTVSPropertyOp34
 70
     1
102
RTVSPropertyOp35
 70
     1
102
RTVSPropertyOp36
 70
     1
102
RTVSPropertyOp37
 70
     1
102
RTVSPropertyOp38
 70
     1
102
RTVSPropertyOp39
 70
     1
102
RTVSPropertyOp40
 70
     1
102
RTVSPropertyOp41
 70
     1
102
RTVSPropertyOp42
 70
     1
102
RTVSPropertyOp43
 70
     1
102
RTVSPropertyOp44
 70
     1
102
RTVSPropertyOp45
 70
     1
102
RTVSPropertyOp46
 70
     1
102
RTVSPropertyOp47
 70
     1
102
RTVSPropertyOp48
 70
     1
102
RTVSPropertyOp49
 70
     1
102
RTVSPropertyOp50
 70
     1
102
RTVSPropertyOp51
 70
     0
102
RTVSPropertyOp52
 70
     0
102
RTVSPropertyOp53
 70
     1
102
RTVSPropertyOp54
 70
     1
102
RTVSPropertyOp55
 70
     1
102
RTVSPropertyOp56
 70
     1
102
RTVSPropertyOp57
 70
     1
102
RTVSPost2010Prop28
280
     0
102
RTVSPost2010PropOp28
 70
     1
102
RTVSPost2010Prop29
280
     1
102
RTVSPost2010PropOp29
 70
     1
102
RTVSPost2010Prop30
280
     1
102
RTVSPost2010PropOp30
 70
     1
102
RTVSPost2010Prop31
280
     0
102
RTVSPost2010PropOp31
 70
     1
102
RTVSPost2010Prop32
280
     0
102
RTVSPost2010PropOp32
 70
     1
102
RTVSPost2010Prop33
280
     0
102
RTVSPost2010PropOp33
 70
     1
102
RTVSPost2010Prop34
280
     0
102
RTVSPost2010PropOp34
 70
     1
102
RTVSPost2010Prop35
280
     0
102
RTVSPost2010PropOp35
 70
     1
102
RTVSPost2010Prop36
280
     0
102
RTVSPost2010PropOp36
 70
     1
102
RTVSPost2010Prop37
 90
       50
102
RTVSPost2010PropOp37
 70
     1
102
RTVSPost2010Prop38
140
0.0
102
RTVSPost2010PropOp38
 70
     1
102
RTVSPost2010Prop39
140
1.0
102
RTVSPost2010PropOp39
 70
     1
102
RTVSPost2010Prop40
 90
        0
102
RTVSPost2010PropOp40
 70
     1
102
RTVSPost2010Prop41ColorIndex
 90
       18
102
RTVSPost2010Prop41ColorRGB
 90
        0
102
RTVSPost2010PropOp41
 70
     1
102
RTVSPost2010Prop42
 90
       50
102
RTVSPost2010PropOp42
 70
     1
102
RTVSPost2010Prop43
 90
        3
102
RTVSPost2010PropOp43
 70
     1
102
RTVSPost2010Prop44ColorIndex
 90
        5
102
RTVSPost2010Prop44ColorRGB
 90
      255
102
RTVSPost2010PropOp44
 70
     1
102
RTVSPost2010Prop45
280
     0
102
RTVSPost2010PropOp45
 70
     1
102
RTVSPost2010Prop46
 90
       50
102
RTVSPost2010PropOp46
 70
     1
102
RTVSPost2010Prop47
 90
       50
102
RTVSPost2010PropOp47
 70
     1
102
RTVSPost2010Prop48
 90
       50
102
RTVSPost2010PropOp48
 70
     1
102
RTVSPost2010Prop49
280
     0
102
RTVSPost2010PropOp49
 70
     1
102
RTVSPost2010Prop50
 90
       50
102
RTVSPost2010PropOp50
 70
     1
102
RTVSPost2010Prop51ColorIndex
 90
      256
102
RTVSPost2010Prop51ColorRGB
 90
-16777216
102
RTVSPost2010PropOp51
 70
     0
102
RTVSPost2010Prop52
140
1.0
102
RTVSPost2010PropOp52
 70
     0
102
RTVSPost2010Prop53
 90
        2
102
RTVSPost2010PropOp53
 70
     1
102
RTVSPost2010Prop54
  1
strokes_ogs.tif
102
RTVSPost2010PropOp54
 70
     1
102
RTVSPost2010Prop55
280
     0
102
RTVSPost2010PropOp55
 70
     1
102
RTVSPost2010Prop56
140
1.0
102
RTVSPost2010PropOp56
 70
     1
102
RTVSPost2010Prop57
140
1.0
102
RTVSPost2010PropOp57
 70
     1
  0
XRECORD
  5
E0E00001CD06
102
{ACAD_REACTORS
330
E0E00001CD05
102
}
330
E0E00001CD05
100
AcDbXrecord
280
     1
102
RTVSPropertyOp0
 70
     1
102
RTVSPropertyOp1
 70
     1
102
RTVSPropertyOp2
 70
     1
102
RTVSPropertyOp3
 70
     1
102
RTVSPropertyOp4
 70
     1
102
RTVSPropertyOp5
 70
     1
102
RTVSPropertyOp6
 70
     1
102
RTVSPropertyOp7
 70
     1
102
RTVSPropertyOp8
 70
     1
102
RTVSPropertyOp9
 70
     1
102
RTVSPropertyOp10
 70
     1
102
RTVSPropertyOp11
 70
     1
102
RTVSPropertyOp12
 70
     1
102
RTVSPropertyOp13
 70
     1
102
RTVSPropertyOp14
 70
     1
102
RTVSPropertyOp15
 70
     1
102
RTVSPropertyOp16
 70
     1
102
RTVSPropertyOp17
 70
     1
102
RTVSPropertyOp18
 70
     1
102
RTVSPropertyOp19
 70
     1
102
RTVSPropertyOp20
 70
     1
102
RTVSPropertyOp21
 70
     1
102
RTVSPropertyOp22
 70
     1
102
RTVSPropertyOp23
 70
     1
102
RTVSPropertyOp24
 70
     1
102
RTVSPropertyOp25
 70
     1
102
RTVSPropertyOp26
 70
     1
102
RTVSPropertyOp27
 70
     1
102
RTVSPropertyOp28
 70
     1
102
RTVSPropertyOp29
 70
     1
102
RTVSPropertyOp30
 70
     1
102
RTVSPropertyOp31
 70
     1
102
RTVSPropertyOp32
 70
     1
102
RTVSPropertyOp33
 70
     1
102
RTVSPropertyOp34
 70
     1
102
RTVSPropertyOp35
 70
     1
102
RTVSPropertyOp36
 70
     1
102
RTVSPropertyOp37
 70
     1
102
RTVSPropertyOp38
 70
     1
102
RTVSPropertyOp39
 70
     1
102
RTVSPropertyOp40
 70
     1
102
RTVSPropertyOp41
 70
     1
102
RTVSPropertyOp42
 70
     1
102
RTVSPropertyOp43
 70
     1
102
RTVSPropertyOp44
 70
     1
102
RTVSPropertyOp45
 70
     1
102
RTVSPropertyOp46
 70
     1
102
RTVSPropertyOp47
 70
     1
102
RTVSPropertyOp48
 70
     1
102
RTVSPropertyOp49
 70
     1
102
RTVSPropertyOp50
 70
     1
102
RTVSPropertyOp51
 70
     0
102
RTVSPropertyOp52
 70
     0
102
RTVSPropertyOp53
 70
     1
102
RTVSPropertyOp54
 70
     1
102
RTVSPropertyOp55
 70
     1
102
RTVSPropertyOp56
 70
     1
102
RTVSPropertyOp57
 70
     1
102
RTVSPost2010Prop28
280
     0
102
RTVSPost2010PropOp28
 70
     1
102
RTVSPost2010Prop29
280
     1
102
RTVSPost2010PropOp29
 70
     1
102
RTVSPost2010Prop30
280
     1
102
RTVSPost2010PropOp30
 70
     1
102
RTVSPost2010Prop31
280
     0
102
RTVSPost2010PropOp31
 70
     1
102
RTVSPost2010Prop32
280
     0
102
RTVSPost2010PropOp32
 70
     1
102
RTVSPost2010Prop33
280
     0
102
RTVSPost2010PropOp33
 70
     1
102
RTVSPost2010Prop34
280
     0
102
RTVSPost2010PropOp34
 70
     1
102
RTVSPost2010Prop35
280
     0
102
RTVSPost2010PropOp35
 70
     1
102
RTVSPost2010Prop36
280
     0
102
RTVSPost2010PropOp36
 70
     1
102
RTVSPost2010Prop37
 90
       50
102
RTVSPost2010PropOp37
 70
     1
102
RTVSPost2010Prop38
140
0.0
102
RTVSPost2010PropOp38
 70
     1
102
RTVSPost2010Prop39
140
1.0
102
RTVSPost2010PropOp39
 70
     1
102
RTVSPost2010Prop40
 90
        0
102
RTVSPost2010PropOp40
 70
     1
102
RTVSPost2010Prop41ColorIndex
 90
       18
102
RTVSPost2010Prop41ColorRGB
 90
        0
102
RTVSPost2010PropOp41
 70
     1
102
RTVSPost2010Prop42
 90
       50
102
RTVSPost2010PropOp42
 70
     1
102
RTVSPost2010Prop43
 90
        3
102
RTVSPost2010PropOp43
 70
     1
102
RTVSPost2010Prop44ColorIndex
 90
        5
102
RTVSPost2010Prop44ColorRGB
 90
      255
102
RTVSPost2010PropOp44
 70
     1
102
RTVSPost2010Prop45
280
     0
102
RTVSPost2010PropOp45
 70
     1
102
RTVSPost2010Prop46
 90
       50
102
RTVSPost2010PropOp46
 70
     1
102
RTVSPost2010Prop47
 90
       50
102
RTVSPost2010PropOp47
 70
     1
102
RTVSPost2010Prop48
 90
       50
102
RTVSPost2010PropOp48
 70
     1
102
RTVSPost2010Prop49
280
     0
102
RTVSPost2010PropOp49
 70
     1
102
RTVSPost2010Prop50
 90
       50
102
RTVSPost2010PropOp50
 70
     1
102
RTVSPost2010Prop51ColorIndex
 90
      256
102
RTVSPost2010Prop51ColorRGB
 90
-16777216
102
RTVSPost2010PropOp51
 70
     0
102
RTVSPost2010Prop52
140
1.0
102
RTVSPost2010PropOp52
 70
     0
102
RTVSPost2010Prop53
 90
        2
102
RTVSPost2010PropOp53
 70
     1
102
RTVSPost2010Prop54
  1
strokes_ogs.tif
102
RTVSPost2010PropOp54
 70
     1
102
RTVSPost2010Prop55
280
     0
102
RTVSPost2010PropOp55
 70
     1
102
RTVSPost2010Prop56
140
1.0
102
RTVSPost2010PropOp56
 70
     1
102
RTVSPost2010Prop57
140
1.0
102
RTVSPost2010PropOp57
 70
     1
  0
ENDSEC
  0
EOF
