  0
SECTION
  2
HEADER
  9
$ACADVER
  1
AC1015
  9
$ACADMAINTVER
 70
     6
  9
$DWGCODEPAGE
  3
ANSI_1252
  9
$INSBASE
 10
0.0
 20
0.0
 30
0.0
  9
$EXTMIN
 10
-1903.745471514107
 20
-2212.94828515077
 30
0.0
  9
$EXTMAX
 10
-1748.733587043269
 20
-2073.513374461895
 30
0.0
  9
$LIMMIN
 10
-100.0
 20
-937.0
  9
$LIMMAX
 10
781.8584566516885
 20
220.6919114718445
  9
$ORTHOMODE
 70
     1
  9
$REGENMODE
 70
     1
  9
$FILLMODE
 70
     1
  9
$QTEXTMODE
 70
     0
  9
$MIRRTEXT
 70
     1
  9
$LTSCALE
 40
1.0
  9
$ATTMODE
 70
     1
  9
$TEXTSIZE
 40
0.2
  9
$TRACEWID
 40
0.05
  9
$TEXTSTYLE
  7
STANDARD
  9
$CLAYER
  8
todo
  9
$CELTYPE
  6
ByLayer
  9
$CECOLOR
 62
   256
  9
$CELTSCALE
 40
1.0
  9
$DISPSILH
 70
     0
  9
$DIMSCALE
 40
1.0
  9
$DIMASZ
 40
10.0
  9
$DIMEXO
 40
0.0625
  9
$DIMDLI
 40
0.38
  9
$DIMRND
 40
0.0
  9
$DIMDLE
 40
0.0
  9
$DIMEXE
 40
0.18
  9
$DIMTP
 40
0.0
  9
$DIMTM
 40
0.0
  9
$DIMTXT
 40
10.0
  9
$DIMCEN
 40
0.09
  9
$DIMTSZ
 40
0.0
  9
$DIMTOL
 70
     0
  9
$DIMLIM
 70
     0
  9
$DIMTIH
 70
     0
  9
$DIMTOH
 70
     1
  9
$DIMSE1
 70
     0
  9
$DIMSE2
 70
     0
  9
$DIMTAD
 70
     1
  9
$DIMZIN
 70
     0
  9
$DIMBLK
  1
VDDIM_DEFAULT
  9
$DIMASO
 70
     1
  9
$DIMSHO
 70
     1
  9
$DIMPOST
  1

  9
$DIMAPOST
  1

  9
$DIMALT
 70
     0
  9
$DIMALTD
 70
     2
  9
$DIMALTF
 40
25.4
  9
$DIMLFAC
 40
1.0
  9
$DIMTOFL
 70
     1
  9
$DIMTVP
 40
0.0
  9
$DIMTIX
 70
     1
  9
$DIMSOXD
 70
     0
  9
$DIMSAH
 70
     0
  9
$DIMBLK1
  1

  9
$DIMBLK2
  1

  9
$DIMSTYLE
  2
JESUS COTA
  9
$DIMCLRD
 70
     0
  9
$DIMCLRE
 70
     0
  9
$DIMCLRT
 70
     0
  9
$DIMTFAC
 40
1.0
  9
$DIMGAP
 40
0.01
  9
$DIMJUST
 70
     0
  9
$DIMSD1
 70
     0
  9
$DIMSD2
 70
     0
  9
$DIMTOLJ
 70
     1
  9
$DIMTZIN
 70
     0
  9
$DIMALTZ
 70
     0
  9
$DIMALTTZ
 70
     0
  9
$DIMUPT
 70
     0
  9
$DIMDEC
 70
     0
  9
$DIMTDEC
 70
     0
  9
$DIMALTU
 70
     2
  9
$DIMALTTD
 70
     2
  9
$DIMTXSTY
  7
STANDARD
  9
$DIMAUNIT
 70
     0
  9
$DIMADEC
 70
     0
  9
$DIMALTRND
 40
0.0
  9
$DIMAZIN
 70
     0
  9
$DIMDSEP
 70
    46
  9
$DIMATFIT
 70
     3
  9
$DIMFRAC
 70
     0
  9
$DIMLDRBLK
  1

  9
$DIMLUNIT
 70
     2
  9
$DIMLWD
 70
    -2
  9
$DIMLWE
 70
    -2
  9
$DIMTMOVE
 70
     0
  9
$LUNITS
 70
     2
  9
$LUPREC
 70
     4
  9
$SKETCHINC
 40
0.1
  9
$FILLETRAD
 40
0.5
  9
$AUNITS
 70
     0
  9
$AUPREC
 70
     0
  9
$MENU
  1
.
  9
$ELEVATION
 40
0.0
  9
$PELEVATION
 40
0.0
  9
$THICKNESS
 40
0.0
  9
$LIMCHECK
 70
     0
  9
$CHAMFERA
 40
0.5
  9
$CHAMFERB
 40
0.5
  9
$CHAMFERC
 40
1.0
  9
$CHAMFERD
 40
0.0
  9
$SKPOLY
 70
     0
  9
$TDCREATE
 40
2454476.527612824
  9
$TDUCREATE
 40
2454476.485946157
  9
$TDUPDATE
 40
2460301.661828565
  9
$TDUUPDATE
 40
2460301.620161898
  9
$TDINDWG
 40
0.3058284491
  9
$TDUSRTIMER
 40
0.3058284491
  9
$USRTIMER
 70
     1
  9
$ANGBASE
 50
0.0
  9
$ANGDIR
 70
     0
  9
$PDMODE
 70
     0
  9
$PDSIZE
 40
0.0
  9
$PLINEWID
 40
0.0
  9
$SPLFRAME
 70
     0
  9
$SPLINETYPE
 70
     6
  9
$SPLINESEGS
 70
     8
  9
$HANDSEED
  5
E0E00001C97D
  9
$SURFTAB1
 70
     6
  9
$SURFTAB2
 70
     6
  9
$SURFTYPE
 70
     6
  9
$SURFU
 70
     6
  9
$SURFV
 70
     6
  9
$UCSBASE
  2

  9
$UCSNAME
  2

  9
$UCSORG
 10
0.0
 20
0.0
 30
0.0
  9
$UCSXDIR
 10
1.0
 20
0.0
 30
0.0
  9
$UCSYDIR
 10
0.0
 20
1.0
 30
0.0
  9
$UCSORTHOREF
  2

  9
$UCSORTHOVIEW
 70
     0
  9
$UCSORGTOP
 10
0.0
 20
0.0
 30
0.0
  9
$UCSORGBOTTOM
 10
0.0
 20
0.0
 30
0.0
  9
$UCSORGLEFT
 10
0.0
 20
0.0
 30
0.0
  9
$UCSORGRIGHT
 10
0.0
 20
0.0
 30
0.0
  9
$UCSORGFRONT
 10
0.0
 20
0.0
 30
0.0
  9
$UCSORGBACK
 10
0.0
 20
0.0
 30
0.0
  9
$PUCSBASE
  2

  9
$PUCSNAME
  2

  9
$PUCSORG
 10
0.0
 20
0.0
 30
0.0
  9
$PUCSXDIR
 10
1.0
 20
0.0
 30
0.0
  9
$PUCSYDIR
 10
0.0
 20
1.0
 30
0.0
  9
$PUCSORTHOREF
  2

  9
$PUCSORTHOVIEW
 70
     0
  9
$PUCSORGTOP
 10
0.0
 20
0.0
 30
0.0
  9
$PUCSORGBOTTOM
 10
0.0
 20
0.0
 30
0.0
  9
$PUCSORGLEFT
 10
0.0
 20
0.0
 30
0.0
  9
$PUCSORGRIGHT
 10
0.0
 20
0.0
 30
0.0
  9
$PUCSORGFRONT
 10
0.0
 20
0.0
 30
0.0
  9
$PUCSORGBACK
 10
0.0
 20
0.0
 30
0.0
  9
$USERI1
 70
     0
  9
$USERI2
 70
     0
  9
$USERI3
 70
     0
  9
$USERI4
 70
     0
  9
$USERI5
 70
     0
  9
$USERR1
 40
0.0
  9
$USERR2
 40
0.0
  9
$USERR3
 40
0.0
  9
$USERR4
 40
0.0
  9
$USERR5
 40
0.0
  9
$WORLDVIEW
 70
     1
  9
$SHADEDGE
 70
     3
  9
$SHADEDIF
 70
    70
  9
$TILEMODE
 70
     1
  9
$MAXACTVP
 70
    64
  9
$PINSBASE
 10
0.0
 20
0.0
 30
0.0
  9
$PLIMCHECK
 70
     0
  9
$PEXTMIN
 10
1.000000000000000E+20
 20
1.000000000000000E+20
 30
1.000000000000000E+20
  9
$PEXTMAX
 10
-1.000000000000000E+20
 20
-1.000000000000000E+20
 30
-1.000000000000000E+20
  9
$PLIMMIN
 10
0.0
 20
0.0
  9
$PLIMMAX
 10
12.0
 20
9.0
  9
$UNITMODE
 70
     0
  9
$VISRETAIN
 70
     1
  9
$PLINEGEN
 70
     0
  9
$PSLTSCALE
 70
     1
  9
$TREEDEPTH
 70
  3020
  9
$CMLSTYLE
  2
Standard
  9
$CMLJUST
 70
     0
  9
$CMLSCALE
 40
1.0
  9
$PROXYGRAPHICS
 70
     1
  9
$MEASUREMENT
 70
     0
  9
$CELWEIGHT
370
    -1
  9
$ENDCAPS
280
     0
  9
$JOINSTYLE
280
     0
  9
$LWDISPLAY
290
     0
  9
$INSUNITS
 70
     1
  9
$HYPERLINKBASE
  1

  9
$STYLESHEET
  1

  9
$XEDIT
290
     1
  9
$CEPSNTYPE
380
     0
  9
$PSTYLEMODE
290
     0
  9
$FINGERPRINTGUID
  2
{FAEB1C30-E019-11D5-929B-00C0DF256EC4}
  9
$VERSIONGUID
  2
{0CA7C6CE-6814-4978-B04C-ECB634320399}
  9
$EXTNAMES
290
     1
  9
$PSVPSCALE
 40
0.0
  9
$OLESTARTUP
290
     0
  0
ENDSEC
  0
SECTION
  2
CLASSES
  0
CLASS
  1
ACDBDICTIONARYWDFLT
  2
AcDbDictionaryWithDefault
  3
ObjectDBX Classes
 90
        0
280
     0
281
     0
  0
CLASS
  1
ACDBPLACEHOLDER
  2
AcDbPlaceHolder
  3
ObjectDBX Classes
 90
        0
280
     0
281
     0
  0
CLASS
  1
LAYOUT
  2
AcDbLayout
  3
ObjectDBX Classes
 90
        0
280
     0
281
     0
  0
CLASS
  1
TABLESTYLE
  2
AcDbTableStyle
  3
ObjectDBX Classes
 90
     4095
280
     0
281
     0
  0
CLASS
  1
SORTENTSTABLE
  2
AcDbSortentsTable
  3
ObjectDBX Classes
 90
        0
280
     0
281
     0
  0
CLASS
  1
DICTIONARYVAR
  2
AcDbDictionaryVar
  3
ObjectDBX Classes
 90
        0
280
     0
281
     0
  0
CLASS
  1
MATERIAL
  2
AcDbMaterial
  3
ObjectDBX Classes
 90
     1153
280
     0
281
     0
  0
CLASS
  1
VISUALSTYLE
  2
AcDbVisualStyle
  3
ObjectDBX Classes
 90
     4095
280
     0
281
     0
  0
CLASS
  1
SCALE
  2
AcDbScale
  3
ObjectDBX Classes
 90
     1153
280
     0
281
     0
  0
CLASS
  1
MLEADERSTYLE
  2
AcDbMLeaderStyle
  3
ACDB_MLEADERSTYLE_CLASS
 90
     4095
280
     0
281
     0
  0
CLASS
  1
CELLSTYLEMAP
  2
AcDbCellStyleMap
  3
ObjectDBX Classes
 90
     1152
280
     0
281
     0
  0
CLASS
  1
ACDB_BLKREFOBJECTCONTEXTDATA_CLASS
  2
AcDbBlkRefObjectContextData
  3
ObjectDBX Classes
 90
     1153
280
     0
281
     0
  0
ENDSEC
  0
SECTION
  2
TABLES
  0
TABLE
  2
VPORT
  5
C345
102
{ACAD_XDICTIONARY
360
E0E00001C93F
102
}
330
0
100
AcDbSymbolTable
 70
     1
  0
VPORT
  5
E0E00001C91B
330
C345
100
AcDbSymbolTableRecord
100
AcDbViewportTableRecord
  2
*Active
 70
     0
 10
0.0
 20
0.0
 11
1.0
 21
1.0
 12
-1802.148709202869
 22
-2155.195315120388
 13
0.0
 23
0.0
 14
10.0
 24
10.0
 15
10.0
 25
10.0
 16
0.0
 26
0.0
 36
1.0
 17
0.0
 27
0.0
 37
0.0
 40
205.768800963258
 41
1.953349282296651
 42
50.0
 43
0.0
 44
0.0
 50
0.0
 51
360.0000000000008
 71
     0
 72
   100
 73
     1
 74
     3
 75
     0
 76
     0
 77
     0
 78
     0
281
     0
 65
     1
110
0.0
120
0.0
130
0.0
111
1.0
121
0.0
131
0.0
112
0.0
122
1.0
132
0.0
 79
     0
146
0.0
  0
ENDTAB
  0
TABLE
  2
LTYPE
  5
C342
330
0
100
AcDbSymbolTable
 70
     1
  0
LTYPE
  5
C351
330
C342
100
AcDbSymbolTableRecord
100
AcDbLinetypeTableRecord
  2
ByBlock
 70
     0
  3

 72
    65
 73
     0
 40
0.0
  0
LTYPE
  5
C352
330
C342
100
AcDbSymbolTableRecord
100
AcDbLinetypeTableRecord
  2
ByLayer
 70
     0
  3

 72
    65
 73
     0
 40
0.0
  0
LTYPE
  5
C353
330
C342
100
AcDbSymbolTableRecord
100
AcDbLinetypeTableRecord
  2
Continuous
 70
     0
  3
Solid line
 72
    65
 73
     0
 40
0.0
  0
ENDTAB
  0
TABLE
  2
LAYER
  5
C33F
102
{ACAD_XDICTIONARY
360
E0E00000F818
102
}
330
0
100
AcDbSymbolTable
 70
    17
  0
LAYER
  5
C34D
102
{ACAD_XDICTIONARY
360
E0E000011FBD
102
}
330
C33F
100
AcDbSymbolTableRecord
100
AcDbLayerTableRecord
  2
0
 70
     0
 62
     7
  6
Continuous
370
     0
390
C34C
  0
LAYER
  5
E0E00000F55B
102
{ACAD_XDICTIONARY
360
E0E00000F55C
102
}
330
C33F
100
AcDbSymbolTableRecord
100
AcDbLayerTableRecord
  2
STL(Z)1550_V_5
 70
     0
 62
     7
  6
Continuous
370
    -3
390
C34C
  0
LAYER
  5
E0E00000F55F
102
{ACAD_XDICTIONARY
360
E0E00000F560
102
}
330
C33F
100
AcDbSymbolTableRecord
100
AcDbLayerTableRecord
  2
AK(Z)-1550_5
 70
     0
 62
     7
  6
Continuous
370
    -3
390
C34C
  0
LAYER
  5
E0E00000F57F
102
{ACAD_XDICTIONARY
360
E0E00000F580
102
}
330
C33F
100
AcDbSymbolTableRecord
100
AcDbLayerTableRecord
  2
Predeterminado
 70
     0
 62
     7
  6
Continuous
370
    -3
390
C34C
  0
LAYER
  5
E0E00000F7E3
102
{ACAD_XDICTIONARY
360
E0E00000F7E4
102
}
330
C33F
100
AcDbSymbolTableRecord
100
AcDbLayerTableRecord
  2
SLTZ_960_V_3
 70
     0
 62
     7
  6
Continuous
370
    -3
390
C34C
  0
LAYER
  5
E0E00000F7E7
102
{ACAD_XDICTIONARY
360
E0E00000F7E8
102
}
330
C33F
100
AcDbSymbolTableRecord
100
AcDbLayerTableRecord
  2
AKZ_960_3
 70
     0
 62
     7
  6
Continuous
370
    -3
390
C34C
  0
LAYER
  5
E0E00000F7F3
102
{ACAD_XDICTIONARY
360
E0E00000F7F4
102
}
330
C33F
100
AcDbSymbolTableRecord
100
AcDbLayerTableRecord
  2
TAPÓN
 70
     0
 62
     7
  6
Continuous
370
    -3
390
C34C
  0
LAYER
  5
E0E00000F7FB
102
{ACAD_XDICTIONARY
360
E0E00000F7FC
102
}
330
C33F
100
AcDbSymbolTableRecord
100
AcDbLayerTableRecord
  2
PCB_4M_PER1_V
 70
     0
 62
     7
  6
Continuous
370
    -3
390
C34C
  0
LAYER
  5
E0E00000F7FF
102
{ACAD_XDICTIONARY
360
E0E00000F800
102
}
330
C33F
100
AcDbSymbolTableRecord
100
AcDbLayerTableRecord
  2
BASE_4_M
 70
     0
 62
     7
  6
Continuous
370
    -3
390
C34C
  0
LAYER
  5
E0E00000F803
102
{ACAD_XDICTIONARY
360
E0E00000F804
102
}
330
C33F
100
AcDbSymbolTableRecord
100
AcDbLayerTableRecord
  2
TAPA_4_M
 70
     0
 62
     7
  6
Continuous
370
    -3
390
C34C
  0
LAYER
  5
E0E000011F9B
330
C33F
100
AcDbSymbolTableRecord
100
AcDbLayerTableRecord
  2
Defpoints
 70
     0
 62
     7
  6
Continuous
290
     0
370
    -3
390
C34C
  0
LAYER
  5
E0E000014BC1
330
C33F
100
AcDbSymbolTableRecord
100
AcDbLayerTableRecord
  2
BASE_6_M
 70
     0
 62
     7
  6
Continuous
370
    -3
390
C34C
  0
LAYER
  5
E0E000014BD9
330
C33F
100
AcDbSymbolTableRecord
100
AcDbLayerTableRecord
  2
PCB_6M_I16_V
 70
     0
 62
     7
  6
Continuous
370
    -3
390
C34C
  0
LAYER
  5
E0E000014BDB
330
C33F
100
AcDbSymbolTableRecord
100
AcDbLayerTableRecord
  2
TAPA_6_M
 70
     0
 62
     7
  6
Continuous
370
    -3
390
C34C
  0
LAYER
  5
E0E000014BE3
330
C33F
100
AcDbSymbolTableRecord
100
AcDbLayerTableRecord
  2
STL(Z)-1550_3V
 70
     0
 62
     7
  6
Continuous
370
    -3
390
C34C
  0
LAYER
  5
E0E000014BE5
330
C33F
100
AcDbSymbolTableRecord
100
AcDbLayerTableRecord
  2
AK(Z)-1550_3
 70
     0
 62
     7
  6
Continuous
370
    -3
390
C34C
  0
LAYER
  5
E0E00001C8CB
330
C33F
100
AcDbSymbolTableRecord
100
AcDbLayerTableRecord
  2
todo
 70
     0
 62
     7
  6
Continuous
370
    -3
390
C34C
  0
ENDTAB
  0
TABLE
  2
STYLE
  5
C340
330
0
100
AcDbSymbolTable
 70
     2
  0
STYLE
  5
C34E
330
C340
100
AcDbSymbolTableRecord
100
AcDbTextStyleTableRecord
  2
STANDARD
 70
     0
 40
10.0
 41
1.0
 50
0.0
 71
     0
 42
0.2
  3
ARIAL.TTF
  4

1001
ACAD
1000
Arial
1071
       34
  0
STYLE
  5
E0E00000F583
330
C340
100
AcDbSymbolTableRecord
100
AcDbTextStyleTableRecord
  2
SEACAD_arial_ttfB
 70
     0
 40
0.2
 41
1.0
 50
0.0
 71
     0
 42
0.2
  3
ARIAL.TTF
  4

1001
ACAD
1000
Arial
1071
       34
  0
ENDTAB
  0
TABLE
  2
VIEW
  5
C343
330
0
100
AcDbSymbolTable
 70
     0
  0
ENDTAB
  0
TABLE
  2
UCS
  5
C344
330
0
100
AcDbSymbolTable
 70
     0
  0
ENDTAB
  0
TABLE
  2
APPID
  5
C346
330
0
100
AcDbSymbolTable
 70
    49
  0
APPID
  5
C34F
330
C346
100
AcDbSymbolTableRecord
100
AcDbRegAppTableRecord
  2
ACAD
 70
     0
  0
APPID
  5
C367
330
C346
100
AcDbSymbolTableRecord
100
AcDbRegAppTableRecord
  2
VD_INVISIBLE_NOT_FOR_READ
 70
     0
  0
APPID
  5
C368
330
C346
100
AcDbSymbolTableRecord
100
AcDbRegAppTableRecord
  2
VD_TEMPHATCH
 70
     0
  0
APPID
  5
C369
330
C346
100
AcDbSymbolTableRecord
100
AcDbRegAppTableRecord
  2
VDEXTRAPARAM
 70
     0
  0
APPID
  5
C36A
330
C346
100
AcDbSymbolTableRecord
100
AcDbRegAppTableRecord
  2
PE_URL
 70
     0
  0
APPID
  5
C36B
330
C346
100
AcDbSymbolTableRecord
100
AcDbRegAppTableRecord
  2
VD_UNKNOWN
 70
     0
  0
APPID
  5
E0E00000E1C6
330
C346
100
AcDbSymbolTableRecord
100
AcDbRegAppTableRecord
  2
Tipo
 70
     0
  0
APPID
  5
E0E00000E1C7
330
C346
100
AcDbSymbolTableRecord
100
AcDbRegAppTableRecord
  2
Descripción
 70
     0
  0
APPID
  5
E0E00000E1C8
330
C346
100
AcDbSymbolTableRecord
100
AcDbRegAppTableRecord
  2
Material
 70
     0
  0
APPID
  5
E0E00000E1C9
330
C346
100
AcDbSymbolTableRecord
100
AcDbRegAppTableRecord
  2
Vigi
 70
     0
  0
APPID
  5
E0E00000E1CA
330
C346
100
AcDbSymbolTableRecord
100
AcDbRegAppTableRecord
  2
Cabecera grupo
 70
     0
  0
APPID
  5
E0E00000E1CB
330
C346
100
AcDbSymbolTableRecord
100
AcDbRegAppTableRecord
  2
Calibre
 70
     0
  0
APPID
  5
E0E00000E1CC
330
C346
100
AcDbSymbolTableRecord
100
AcDbRegAppTableRecord
  2
Pasos
 70
     0
  0
APPID
  5
E0E00000E1CD
330
C346
100
AcDbSymbolTableRecord
100
AcDbRegAppTableRecord
  2
Polos
 70
     0
  0
APPID
  5
E0E00000E1CE
330
C346
100
AcDbSymbolTableRecord
100
AcDbRegAppTableRecord
  2
Tensión
 70
     0
  0
APPID
  5
E0E00000E1CF
330
C346
100
AcDbSymbolTableRecord
100
AcDbRegAppTableRecord
  2
Subfamilia
 70
     0
  0
APPID
  5
E0E00000E1D0
330
C346
100
AcDbSymbolTableRecord
100
AcDbRegAppTableRecord
  2
Referencia 1
 70
     0
  0
APPID
  5
E0E00000E1F2
330
C346
100
AcDbSymbolTableRecord
100
AcDbRegAppTableRecord
  2
Ref. distribución 1
 70
     0
  0
APPID
  5
E0E00000E1F5
330
C346
100
AcDbSymbolTableRecord
100
AcDbRegAppTableRecord
  2
Núm UF
 70
     0
  0
APPID
  5
E0E00000E1F6
330
C346
100
AcDbSymbolTableRecord
100
AcDbRegAppTableRecord
  2
Módulos verticales
 70
     0
  0
APPID
  5
E0E00000E1F7
330
C346
100
AcDbSymbolTableRecord
100
AcDbRegAppTableRecord
  2
Número pasos
 70
     0
  0
APPID
  5
E0E00000E1FC
330
C346
100
AcDbSymbolTableRecord
100
AcDbRegAppTableRecord
  2
Referencia
 70
     0
  0
APPID
  5
E0E00000E1FD
330
C346
100
AcDbSymbolTableRecord
100
AcDbRegAppTableRecord
  2
Núm Armario
 70
     0
  0
APPID
  5
E0E00000E1FE
330
C346
100
AcDbSymbolTableRecord
100
AcDbRegAppTableRecord
  2
Alto
 70
     0
  0
APPID
  5
E0E00000E1FF
330
C346
100
AcDbSymbolTableRecord
100
AcDbRegAppTableRecord
  2
Ancho
 70
     0
  0
APPID
  5
E0E00000E200
330
C346
100
AcDbSymbolTableRecord
100
AcDbRegAppTableRecord
  2
Grado IP
 70
     0
  0
APPID
  5
E0E00000E201
330
C346
100
AcDbSymbolTableRecord
100
AcDbRegAppTableRecord
  2
Zocalo
 70
     0
  0
APPID
  5
E0E00000E202
330
C346
100
AcDbSymbolTableRecord
100
AcDbRegAppTableRecord
  2
Junta estanqueidad
 70
     0
  0
APPID
  5
E0E00000E203
330
C346
100
AcDbSymbolTableRecord
100
AcDbRegAppTableRecord
  2
Tejado
 70
     0
  0
APPID
  5
E0E00000E204
330
C346
100
AcDbSymbolTableRecord
100
AcDbRegAppTableRecord
  2
Apertura
 70
     0
  0
APPID
  5
E0E00000E205
330
C346
100
AcDbSymbolTableRecord
100
AcDbRegAppTableRecord
  2
Tipo de envolvente
 70
     0
  0
APPID
  5
E0E00000E206
330
C346
100
AcDbSymbolTableRecord
100
AcDbRegAppTableRecord
  2
Gama armario
 70
     0
  0
APPID
  5
E0E00000E207
330
C346
100
AcDbSymbolTableRecord
100
AcDbRegAppTableRecord
  2
Tipo puerta
 70
     0
  0
APPID
  5
E0E00000E208
330
C346
100
AcDbSymbolTableRecord
100
AcDbRegAppTableRecord
  2
Referencia 2
 70
     0
  0
APPID
  5
E0E00000E209
330
C346
100
AcDbSymbolTableRecord
100
AcDbRegAppTableRecord
  2
Accesorio 1
 70
     0
  0
APPID
  5
E0E00000E20A
330
C346
100
AcDbSymbolTableRecord
100
AcDbRegAppTableRecord
  2
Accesorio 2
 70
     0
  0
APPID
  5
E0E00000ED8F
330
C346
100
AcDbSymbolTableRecord
100
AcDbRegAppTableRecord
  2
AcDbBlockRepETag
 70
     0
  0
APPID
  5
E0E00000ED90
330
C346
100
AcDbSymbolTableRecord
100
AcDbRegAppTableRecord
  2
AcDbAttr
 70
     0
  0
APPID
  5
E0E00000F584
330
C346
100
AcDbSymbolTableRecord
100
AcDbRegAppTableRecord
  2
ACAD_PSEXT
 70
     0
  0
APPID
  5
E0E000011C9B
330
C346
100
AcDbSymbolTableRecord
100
AcDbRegAppTableRecord
  2
ACAD_EXEMPT_FROM_CAD_STANDARDS
 70
     0
  0
APPID
  5
E0E000011F8B
330
C346
100
AcDbSymbolTableRecord
100
AcDbRegAppTableRecord
  2
ACAD_MLEADERVER
 70
     0
  0
APPID
  5
E0E000011FA0
330
C346
100
AcDbSymbolTableRecord
100
AcDbRegAppTableRecord
  2
AcadAnnotative
 70
     0
  0
APPID
  5
E0E000011FA1
330
C346
100
AcDbSymbolTableRecord
100
AcDbRegAppTableRecord
  2
AcAecLayerStandard
 70
     0
  0
APPID
  5
E0E00001C4A9
330
C346
100
AcDbSymbolTableRecord
100
AcDbRegAppTableRecord
  2
AcadAnnotativeDecomposition
 70
     0
  0
APPID
  5
E0E00001C51C
330
C346
100
AcDbSymbolTableRecord
100
AcDbRegAppTableRecord
  2
ACAD_DSTYLE_DIMJAG
 70
     0
  0
APPID
  5
E0E00001C51D
330
C346
100
AcDbSymbolTableRecord
100
AcDbRegAppTableRecord
  2
ACAD_DSTYLE_DIMBREAK
 70
     0
  0
APPID
  5
E0E00001C51E
330
C346
100
AcDbSymbolTableRecord
100
AcDbRegAppTableRecord
  2
AcadAnnoPO
 70
     0
  0
APPID
  5
E0E00001C51F
330
C346
100
AcDbSymbolTableRecord
100
AcDbRegAppTableRecord
  2
ACAD_DSTYLE_DIMTALN
 70
     0
  0
APPID
  5
E0E00001C8C2
330
C346
100
AcDbSymbolTableRecord
100
AcDbRegAppTableRecord
  2
ACAD_DSTYLE_DIMEXT_LENGTH
 70
     0
  0
ENDTAB
  0
TABLE
  2
DIMSTYLE
  5
C347
330
0
100
AcDbSymbolTable
 70
     2
100
AcDbDimStyleTable
  0
DIMSTYLE
105
C364
330
C347
100
AcDbSymbolTableRecord
100
AcDbDimStyleTableRecord
  2
STANDARD
 70
     0
 41
50.0
140
30.0
147
0.01
172
     1
174
     1
178
     0
288
     1
340
C34E
342
A619
  0
DIMSTYLE
105
E0E00001C520
330
C347
100
AcDbSymbolTableRecord
100
AcDbDimStyleTableRecord
  2
JESUS COTA
 70
     0
 41
10.0
 73
     0
 77
     1
140
10.0
147
0.01
172
     1
174
     1
178
     0
271
     0
272
     0
340
C34E
342
A619
1001
ACAD_DSTYLE_DIMBREAK
1070
   391
1040
0.125
1001
ACAD_DSTYLE_DIMJAG
1070
   388
1040
1.5
1001
ACAD_DSTYLE_DIMTALN
1070
   392
1070
     0
  0
ENDTAB
  0
TABLE
  2
BLOCK_RECORD
  5
C33E
330
0
100
AcDbSymbolTable
 70
     7
  0
BLOCK_RECORD
  5
C35C
102
{ACAD_XDICTIONARY
360
E0E00000E95E
102
}
330
C33E
100
AcDbSymbolTableRecord
100
AcDbBlockTableRecord
  2
*Model_Space
340
C35F
  0
BLOCK_RECORD
  5
C358
330
C33E
100
AcDbSymbolTableRecord
100
AcDbBlockTableRecord
  2
*Paper_Space
340
C35B
  0
BLOCK_RECORD
  5
C360
330
C33E
100
AcDbSymbolTableRecord
100
AcDbBlockTableRecord
  2
*Paper_Space0
340
C363
  0
BLOCK_RECORD
  5
A619
330
C33E
100
AcDbSymbolTableRecord
100
AcDbBlockTableRecord
  2
VDDIM_DEFAULT
340
0
102
{BLKREFS
331
E0E00001C90C
331
E0E00001C90D
331
E0E00001C915
331
E0E00001C916
331
E0E00001C92A
331
E0E00001C929
331
E0E00001C930
331
E0E00001C92F
102
}
  0
BLOCK_RECORD
  5
B507
330
C33E
100
AcDbSymbolTableRecord
100
AcDbBlockTableRecord
  2
COTE
340
0
102
{BLKREFS
331
E0E00000EA75
102
}
  0
BLOCK_RECORD
  5
B508
330
C33E
100
AcDbSymbolTableRecord
100
AcDbBlockTableRecord
  2
FOND
340
0
102
{BLKREFS
331
E0E00000EA76
102
}
  0
BLOCK_RECORD
  5
E0E0000189C8
330
C33E
100
AcDbSymbolTableRecord
100
AcDbBlockTableRecord
  2
PER 2
340
0
102
{BLKREFS
331
E0E00001C8EE
102
}
1001
ACAD
1000
DesignCenter Data
1002
{
1070
     1
1070
     1
1002
}
  0
BLOCK_RECORD
  5
E0E00001C8F1
330
C33E
100
AcDbSymbolTableRecord
100
AcDbBlockTableRecord
  2
*D10
340
0
  0
BLOCK_RECORD
  5
E0E00001C8FD
330
C33E
100
AcDbSymbolTableRecord
100
AcDbBlockTableRecord
  2
*D11
340
0
  0
ENDTAB
  0
ENDSEC
  0
SECTION
  2
BLOCKS
  0
BLOCK
  5
C35D
330
C35C
100
AcDbEntity
  8
0
100
AcDbBlockBegin
  2
*Model_Space
 70
     0
 10
0.0
 20
0.0
 30
0.0
  3
*Model_Space
  1

  0
ENDBLK
  5
C35E
330
C35C
100
AcDbEntity
  8
0
100
AcDbBlockEnd
  0
BLOCK
  5
C359
330
C358
100
AcDbEntity
 67
     1
  8
0
100
AcDbBlockBegin
  2
*Paper_Space
 70
     0
 10
0.0
 20
0.0
 30
0.0
  3
*Paper_Space
  1

  0
ENDBLK
  5
C35A
330
C358
100
AcDbEntity
 67
     1
  8
0
100
AcDbBlockEnd
  0
BLOCK
  5
C361
330
C360
100
AcDbEntity
  8
0
100
AcDbBlockBegin
  2
*Paper_Space0
 70
     0
 10
0.0
 20
0.0
 30
0.0
  3
*Paper_Space0
  1

  0
ENDBLK
  5
C362
330
C360
100
AcDbEntity
  8
0
100
AcDbBlockEnd
  0
BLOCK
  5
C386
330
A619
100
AcDbEntity
  8
0
100
AcDbBlockBegin
  2
VDDIM_DEFAULT
 70
     0
 10
0.0
 20
0.0
 30
0.0
  3
VDDIM_DEFAULT
  1

  0
LWPOLYLINE
  5
47A8
330
A619
100
AcDbEntity
  8
0
  6
Continuous
 62
     0
100
AcDbPolyline
 90
        4
 70
     0
 43
0.0
 10
0.0
 20
0.0
 10
-1.0
 20
-0.1665
 10
-1.0
 20
0.1665
 10
0.0
 20
0.0
1001
VDEXTRAPARAM
1071
        1
1071
        0
1071
        0
1040
1.0
1000

1000

1040
0.0
1040
0.0
  0
HATCH
  5
C3CC
330
A619
100
AcDbEntity
  8
0
  6
Continuous
 62
     0
100
AcDbHatch
 10
0.0
 20
0.0
 30
0.0
210
0.0
220
0.0
230
1.0
  2
SOLID
 70
     1
 71
     0
 91
        1
 92
        2
 72
     0
 73
     1
 93
        3
 10
0.0
 20
0.0
 10
-1.0
 20
-0.1665
 10
-1.0
 20
0.1665
 97
        0
 75
     0
 76
     1
 98
        1
 10
0.0
 20
0.0
1001
VDEXTRAPARAM
1071
        1
1071
        0
1071
        0
1040
1.0
1000

1000

1040
0.0
1040
0.0
1001
VD_TEMPHATCH
1000
VD_TEMPHATCH
  0
ENDBLK
  5
C387
330
A619
100
AcDbEntity
  8
0
100
AcDbBlockEnd
  0
BLOCK
  5
C38C
330
B507
100
AcDbEntity
  8
0
100
AcDbBlockBegin
  2
COTE
 70
     0
 10
0.0
 20
0.0
 30
0.0
  3
COTE
  1

  0
ENDBLK
  5
C38D
330
B507
100
AcDbEntity
  8
0
100
AcDbBlockEnd
  0
BLOCK
  5
C38E
330
B508
100
AcDbEntity
  8
0
100
AcDbBlockBegin
  2
FOND
 70
     0
 10
0.0
 20
0.0
 30
0.0
  3
FOND
  1

  0
ENDBLK
  5
C38F
330
B508
100
AcDbEntity
  8
0
100
AcDbBlockEnd
  0
BLOCK
  5
E0E0000189C9
330
E0E0000189C8
100
AcDbEntity
  8
0
100
AcDbBlockBegin
  2
PER 2
 70
     0
 10
0.0
 20
0.0
 30
0.0
  3
PER 2
  1

  0
TEXT
  5
E0E0000189CB
330
E0E0000189C8
100
AcDbEntity
  8
Predeterminado
  6
Continuous
 62
     7
 48
25.4
100
AcDbText
 10
41.98956323955281
 20
-2.637545396640855
 30
0.0
 40
5.001156947788042
  1
PER 2
  7
SEACAD_arial_ttfB
 11
41.98956323955281
 21
2.363611551147187
 31
0.0
100
AcDbText
 73
     3
  0
LINE
  5
E0E0000189CC
330
E0E0000189C8
100
AcDbEntity
  8
PCB_6M_I16_V
  6
Continuous
 62
     7
 48
25.4
100
AcDbLine
 10
102.2736595822612
 20
42.50983405618172
 30
0.0
 11
99.47301169150842
 21
42.50983405618172
 31
0.0
  0
LINE
  5
E0E0000189CD
330
E0E0000189C8
100
AcDbEntity
  8
PCB_6M_I16_V
  6
Continuous
 62
     7
 48
25.4
100
AcDbLine
 10
5.151191656216042
 20
42.50983405618172
 30
0.0
 11
2.750636321291495
 21
42.50983405618172
 31
0.0
  0
LINE
  5
E0E0000189CE
330
E0E0000189C8
100
AcDbEntity
  8
PCB_6M_I16_V
  6
Continuous
 62
     7
 48
25.4
100
AcDbLine
 10
102.2736595822612
 20
-35.50821432929934
 30
0.0
 11
102.2736595822612
 21
-31.00717307626428
 31
0.0
  0
LINE
  5
E0E0000189CF
330
E0E0000189C8
100
AcDbEntity
  8
PCB_6M_I16_V
  6
Continuous
 62
     7
 48
25.4
100
AcDbLine
 10
102.2736595822612
 20
31.00717307626473
 30
0.0
 11
102.2736595822612
 21
42.50983405618172
 31
0.0
  0
LINE
  5
E0E0000189D0
330
E0E0000189C8
100
AcDbEntity
  8
PCB_6M_I16_V
  6
Continuous
 62
     7
 48
25.4
100
AcDbLine
 10
2.750636321291495
 20
-42.50983405618126
 30
0.0
 11
4.120953324986431
 21
-42.50983405618126
 31
0.0
  0
LINE
  5
E0E0000189D1
330
E0E0000189C8
100
AcDbEntity
  8
PCB_6M_I16_V
  6
Continuous
 62
     7
 48
25.4
100
AcDbLine
 10
26.9862428902693
 20
-42.50983405618126
 30
0.0
 11
36.6830151296831
 21
-42.50983405618126
 31
0.0
  0
LINE
  5
E0E0000189D2
330
E0E0000189C8
100
AcDbEntity
  8
PCB_6M_I16_V
  6
Continuous
 62
     7
 48
25.4
100
AcDbLine
 10
2.750636321291495
 20
42.50983405618172
 30
0.0
 11
2.750636321291495
 21
31.00717307626473
 31
0.0
  0
LINE
  5
E0E0000189D3
330
E0E0000189C8
100
AcDbEntity
  8
PCB_6M_I16_V
  6
Continuous
 62
     7
 48
25.4
100
AcDbLine
 10
2.750636321291495
 20
-31.00717307626428
 30
0.0
 11
2.750636321291495
 21
-42.50983405618126
 31
0.0
  0
LINE
  5
E0E0000189D4
330
E0E0000189C8
100
AcDbEntity
  8
SLTZ_960_V_3
  6
Continuous
 62
     7
 48
25.4
100
AcDbLine
 10
26.9862428902693
 20
-43.00994975097819
 30
0.0
 11
26.9862428902693
 21
-42.50983405618126
 31
0.0
  0
LINE
  5
E0E0000189D5
330
E0E0000189C8
100
AcDbEntity
  8
SLTZ_960_V_3
  6
Continuous
 62
     7
 48
25.4
100
AcDbLine
 10
26.9862428902693
 20
-42.50983405618126
 30
0.0
 11
26.9862428902693
 21
-34.60800607867395
 31
0.0
  0
LINE
  5
E0E0000189D6
330
E0E0000189C8
100
AcDbEntity
  8
SLTZ_960_V_3
  6
Continuous
 62
     7
 48
25.4
100
AcDbLine
 10
4.120953324986431
 20
-42.50983405618126
 30
0.0
 11
4.120953324986431
 21
-34.60800607867395
 31
0.0
  0
LINE
  5
E0E0000189D7
330
E0E0000189C8
100
AcDbEntity
  8
SLTZ_960_V_3
  6
Continuous
 62
     7
 48
25.4
100
AcDbLine
 10
4.120953324986431
 20
-43.00994975097819
 30
0.0
 11
4.120953324986431
 21
-42.50983405618126
 31
0.0
  0
LINE
  5
E0E0000189D8
330
E0E0000189C8
100
AcDbEntity
  8
SLTZ_960_V_3
  6
Continuous
 62
     7
 48
25.4
100
AcDbLine
 10
26.9862428902693
 20
-34.60800607867395
 30
0.0
 11
25.9860115006984
 21
-34.60800607867395
 31
0.0
  0
LINE
  5
E0E0000189D9
330
E0E0000189C8
100
AcDbEntity
  8
SLTZ_960_V_3
  6
Continuous
 62
     7
 48
25.4
100
AcDbLine
 10
5.121184714534593
 20
-34.60800607867395
 30
0.0
 11
4.120953324986431
 21
-34.60800607867395
 31
0.0
  0
LINE
  5
E0E0000189DA
330
E0E0000189C8
100
AcDbEntity
  8
SLTZ_960_V_3
  6
Continuous
 62
     7
 48
25.4
100
AcDbLine
 10
26.9862428902693
 20
-42.50983405618126
 30
0.0
 11
25.9860115006984
 21
-42.50983405618126
 31
0.0
  0
LINE
  5
E0E0000189DB
330
E0E0000189C8
100
AcDbEntity
  8
SLTZ_960_V_3
  6
Continuous
 62
     7
 48
25.4
100
AcDbLine
 10
5.121184714534593
 20
-42.50983405618126
 30
0.0
 11
4.120953324986431
 21
-42.50983405618126
 31
0.0
  0
LINE
  5
E0E0000189DC
330
E0E0000189C8
100
AcDbEntity
  8
SLTZ_960_V_3
  6
Continuous
 62
     7
 48
25.4
100
AcDbLine
 10
26.9862428902693
 20
-43.00994975097819
 30
0.0
 11
25.9860115006984
 21
-43.00994975097819
 31
0.0
  0
LINE
  5
E0E0000189DD
330
E0E0000189C8
100
AcDbEntity
  8
SLTZ_960_V_3
  6
Continuous
 62
     7
 48
25.4
100
AcDbLine
 10
5.121184714534593
 20
-43.00994975097819
 30
0.0
 11
4.120953324986431
 21
-43.00994975097819
 31
0.0
  0
LINE
  5
E0E0000189DE
330
E0E0000189C8
100
AcDbEntity
  8
AKZ_960_3
  6
Continuous
 62
     7
 48
25.4
100
AcDbLine
 10
5.121184714534593
 20
-50.61002725045
 30
0.0
 11
5.121184714534593
 21
-50.10991155569855
 31
0.0
  0
LINE
  5
E0E0000189DF
330
E0E0000189C8
100
AcDbEntity
  8
AKZ_960_3
  6
Continuous
 62
     7
 48
25.4
100
AcDbLine
 10
5.121184714534593
 20
-50.10991155569855
 30
0.0
 11
5.121184714534593
 21
-49.9231529356457
 31
0.0
  0
LINE
  5
E0E0000189E0
330
E0E0000189C8
100
AcDbEntity
  8
AKZ_960_3
  6
Continuous
 62
     7
 48
25.4
100
AcDbLine
 10
5.121184714534593
 20
-49.9231529356457
 30
0.0
 11
5.121184714534593
 21
-43.9101580015581
 31
0.0
  0
LINE
  5
E0E0000189E1
330
E0E0000189C8
100
AcDbEntity
  8
AKZ_960_3
  6
Continuous
 62
     7
 48
25.4
100
AcDbLine
 10
5.121184714534593
 20
-43.9101580015581
 30
0.0
 11
5.121184714534593
 21
-34.60800607867395
 31
0.0
  0
LINE
  5
E0E0000189E2
330
E0E0000189C8
100
AcDbEntity
  8
AKZ_960_3
  6
Continuous
 62
     7
 48
25.4
100
AcDbLine
 10
25.9860115006984
 20
-43.9101580015581
 30
0.0
 11
25.9860115006984
 21
-34.60800607867395
 31
0.0
  0
LINE
  5
E0E0000189E3
330
E0E0000189C8
100
AcDbEntity
  8
AKZ_960_3
  6
Continuous
 62
     7
 48
25.4
100
AcDbLine
 10
25.9860115006984
 20
-49.9231529356457
 30
0.0
 11
25.9860115006984
 21
-43.9101580015581
 31
0.0
  0
LINE
  5
E0E0000189E4
330
E0E0000189C8
100
AcDbEntity
  8
AKZ_960_3
  6
Continuous
 62
     7
 48
25.4
100
AcDbLine
 10
25.9860115006984
 20
-50.10991155569855
 30
0.0
 11
25.9860115006984
 21
-49.9231529356457
 31
0.0
  0
LINE
  5
E0E0000189E5
330
E0E0000189C8
100
AcDbEntity
  8
AKZ_960_3
  6
Continuous
 62
     7
 48
25.4
100
AcDbLine
 10
25.9860115006984
 20
-50.61002725045
 30
0.0
 11
25.9860115006984
 21
-50.10991155569855
 31
0.0
  0
LINE
  5
E0E0000189E6
330
E0E0000189C8
100
AcDbEntity
  8
AKZ_960_3
  6
Continuous
 62
     7
 48
25.4
100
AcDbLine
 10
5.121184714534593
 20
-34.60800607867395
 30
0.0
 11
25.9860115006984
 21
-34.60800607867395
 31
0.0
  0
LINE
  5
E0E0000189E7
330
E0E0000189C8
100
AcDbEntity
  8
AKZ_960_3
  6
Continuous
 62
     7
 48
25.4
100
AcDbLine
 10
5.121184714534593
 20
-43.9101580015581
 30
0.0
 11
25.9860115006984
 21
-43.9101580015581
 31
0.0
  0
LINE
  5
E0E0000189E8
330
E0E0000189C8
100
AcDbEntity
  8
AKZ_960_3
  6
Continuous
 62
     7
 48
25.4
100
AcDbLine
 10
5.121184714534593
 20
-49.9231529356457
 30
0.0
 11
25.9860115006984
 21
-49.9231529356457
 31
0.0
  0
LINE
  5
E0E0000189E9
330
E0E0000189C8
100
AcDbEntity
  8
AKZ_960_3
  6
Continuous
 62
     7
 48
25.4
100
AcDbLine
 10
5.121184714534593
 20
-50.10991155569855
 30
0.0
 11
25.9860115006984
 21
-50.10991155569855
 31
0.0
  0
LINE
  5
E0E0000189EA
330
E0E0000189C8
100
AcDbEntity
  8
AKZ_960_3
  6
Continuous
 62
     7
 48
25.4
100
AcDbLine
 10
5.121184714534593
 20
-50.61002725045
 30
0.0
 11
25.9860115006984
 21
-50.61002725045
 31
0.0
  0
LINE
  5
E0E0000189EB
330
E0E0000189C8
100
AcDbEntity
  8
AKZ_960_3
  6
Continuous
 62
     7
 48
25.4
100
AcDbLine
 10
25.17582407516306
 20
-43.76012329312789
 30
0.0
 11
21.17489851692517
 21
-43.76012329312789
 31
0.0
  0
LINE
  5
E0E0000189EC
330
E0E0000189C8
100
AcDbEntity
  8
AKZ_960_3
  6
Continuous
 62
     7
 48
25.4
100
AcDbLine
 10
21.17489851692517
 20
-35.05811020400915
 30
0.0
 11
25.17582407516306
 21
-35.05811020400915
 31
0.0
  0
LINE
  5
E0E0000189ED
330
E0E0000189C8
100
AcDbEntity
  8
AKZ_960_3
  6
Continuous
 62
     7
 48
25.4
100
AcDbLine
 10
24.47566210247487
 20
-38.05880437265387
 30
0.0
 11
21.8750604896361
 21
-38.05880437265387
 31
0.0
  0
LINE
  5
E0E0000189EE
330
E0E0000189C8
100
AcDbEntity
  8
AKZ_960_3
  6
Continuous
 62
     7
 48
25.4
100
AcDbLine
 10
21.8750604896361
 20
-40.75942912448363
 30
0.0
 11
24.47566210247487
 21
-40.75942912448363
 31
0.0
  0
LINE
  5
E0E0000189EF
330
E0E0000189C8
100
AcDbEntity
  8
AKZ_960_3
  6
Continuous
 62
     7
 48
25.4
100
AcDbLine
 10
21.17489851692517
 20
-43.76012329312789
 30
0.0
 11
21.17489851692517
 21
-35.05811020400915
 31
0.0
  0
LINE
  5
E0E0000189F0
330
E0E0000189C8
100
AcDbEntity
  8
AKZ_960_3
  6
Continuous
 62
     7
 48
25.4
100
AcDbLine
 10
25.17582407516306
 20
-35.05811020400915
 30
0.0
 11
25.17582407516306
 21
-43.76012329312789
 31
0.0
  0
LINE
  5
E0E0000189F1
330
E0E0000189C8
100
AcDbEntity
  8
AKZ_960_3
  6
Continuous
 62
     7
 48
25.4
100
AcDbLine
 10
24.47566210247487
 20
-40.75942912448363
 30
0.0
 11
24.47566210247487
 21
-38.05880437265387
 31
0.0
  0
LINE
  5
E0E0000189F2
330
E0E0000189C8
100
AcDbEntity
  8
AKZ_960_3
  6
Continuous
 62
     7
 48
25.4
100
AcDbLine
 10
21.8750604896361
 20
-38.05880437265387
 30
0.0
 11
21.8750604896361
 21
-40.75942912448363
 31
0.0
  0
LINE
  5
E0E0000189F3
330
E0E0000189C8
100
AcDbEntity
  8
AKZ_960_3
  6
Continuous
 62
     7
 48
25.4
100
AcDbLine
 10
25.17582407516306
 20
-43.76012329312789
 30
0.0
 11
24.47566210247487
 21
-40.75942912448363
 31
0.0
  0
LINE
  5
E0E0000189F4
330
E0E0000189C8
100
AcDbEntity
  8
AKZ_960_3
  6
Continuous
 62
     7
 48
25.4
100
AcDbLine
 10
24.47566210247487
 20
-38.05880437265387
 30
0.0
 11
25.17582407516306
 21
-35.05811020400915
 31
0.0
  0
LINE
  5
E0E0000189F5
330
E0E0000189C8
100
AcDbEntity
  8
AKZ_960_3
  6
Continuous
 62
     7
 48
25.4
100
AcDbLine
 10
21.17489851692517
 20
-35.05811020400915
 30
0.0
 11
21.8750604896361
 21
-38.05880437265387
 31
0.0
  0
LINE
  5
E0E0000189F6
330
E0E0000189C8
100
AcDbEntity
  8
AKZ_960_3
  6
Continuous
 62
     7
 48
25.4
100
AcDbLine
 10
21.8750604896361
 20
-40.75942912448363
 30
0.0
 11
21.17489851692517
 21
-43.76012329312789
 31
0.0
  0
LINE
  5
E0E0000189F7
330
E0E0000189C8
100
AcDbEntity
  8
AKZ_960_3
  6
Continuous
 62
     7
 48
25.4
100
AcDbLine
 10
17.55406088673544
 20
-43.76012329312789
 30
0.0
 11
13.55313532849755
 21
-43.76012329312789
 31
0.0
  0
LINE
  5
E0E0000189F8
330
E0E0000189C8
100
AcDbEntity
  8
AKZ_960_3
  6
Continuous
 62
     7
 48
25.4
100
AcDbLine
 10
13.55313532849755
 20
-35.05811020400915
 30
0.0
 11
17.55406088673544
 21
-35.05811020400915
 31
0.0
  0
LINE
  5
E0E0000189F9
330
E0E0000189C8
100
AcDbEntity
  8
AKZ_960_3
  6
Continuous
 62
     7
 48
25.4
100
AcDbLine
 10
16.85389891404725
 20
-38.05880437265387
 30
0.0
 11
14.25329730118574
 21
-38.05880437265387
 31
0.0
  0
LINE
  5
E0E0000189FA
330
E0E0000189C8
100
AcDbEntity
  8
AKZ_960_3
  6
Continuous
 62
     7
 48
25.4
100
AcDbLine
 10
14.25329730118574
 20
-40.75942912448363
 30
0.0
 11
16.85389891404725
 21
-40.75942912448363
 31
0.0
  0
LINE
  5
E0E0000189FB
330
E0E0000189C8
100
AcDbEntity
  8
AKZ_960_3
  6
Continuous
 62
     7
 48
25.4
100
AcDbLine
 10
13.55313532849755
 20
-43.76012329312789
 30
0.0
 11
13.55313532849755
 21
-35.05811020400915
 31
0.0
  0
LINE
  5
E0E0000189FC
330
E0E0000189C8
100
AcDbEntity
  8
AKZ_960_3
  6
Continuous
 62
     7
 48
25.4
100
AcDbLine
 10
17.55406088673544
 20
-35.05811020400915
 30
0.0
 11
17.55406088673544
 21
-43.76012329312789
 31
0.0
  0
LINE
  5
E0E0000189FD
330
E0E0000189C8
100
AcDbEntity
  8
AKZ_960_3
  6
Continuous
 62
     7
 48
25.4
100
AcDbLine
 10
16.85389891404725
 20
-40.75942912448363
 30
0.0
 11
16.85389891404725
 21
-38.05880437265387
 31
0.0
  0
LINE
  5
E0E0000189FE
330
E0E0000189C8
100
AcDbEntity
  8
AKZ_960_3
  6
Continuous
 62
     7
 48
25.4
100
AcDbLine
 10
14.25329730118574
 20
-38.05880437265387
 30
0.0
 11
14.25329730118574
 21
-40.75942912448363
 31
0.0
  0
LINE
  5
E0E0000189FF
330
E0E0000189C8
100
AcDbEntity
  8
AKZ_960_3
  6
Continuous
 62
     7
 48
25.4
100
AcDbLine
 10
17.55406088673544
 20
-43.76012329312789
 30
0.0
 11
16.85389891404725
 21
-40.75942912448363
 31
0.0
  0
LINE
  5
E0E000018A00
330
E0E0000189C8
100
AcDbEntity
  8
AKZ_960_3
  6
Continuous
 62
     7
 48
25.4
100
AcDbLine
 10
16.85389891404725
 20
-38.05880437265387
 30
0.0
 11
17.55406088673544
 21
-35.05811020400915
 31
0.0
  0
LINE
  5
E0E000018A01
330
E0E0000189C8
100
AcDbEntity
  8
AKZ_960_3
  6
Continuous
 62
     7
 48
25.4
100
AcDbLine
 10
13.55313532849755
 20
-35.05811020400915
 30
0.0
 11
14.25329730118574
 21
-38.05880437265387
 31
0.0
  0
LINE
  5
E0E000018A02
330
E0E0000189C8
100
AcDbEntity
  8
AKZ_960_3
  6
Continuous
 62
     7
 48
25.4
100
AcDbLine
 10
14.25329730118574
 20
-40.75942912448363
 30
0.0
 11
13.55313532849755
 21
-43.76012329312789
 31
0.0
  0
LINE
  5
E0E000018A03
330
E0E0000189C8
100
AcDbEntity
  8
AKZ_960_3
  6
Continuous
 62
     7
 48
25.4
100
AcDbLine
 10
9.93229769830782
 20
-43.76012329312789
 30
0.0
 11
5.931372140069925
 21
-43.76012329312789
 31
0.0
  0
LINE
  5
E0E000018A04
330
E0E0000189C8
100
AcDbEntity
  8
AKZ_960_3
  6
Continuous
 62
     7
 48
25.4
100
AcDbLine
 10
5.931372140069925
 20
-35.05811020400915
 30
0.0
 11
9.93229769830782
 21
-35.05811020400915
 31
0.0
  0
LINE
  5
E0E000018A05
330
E0E0000189C8
100
AcDbEntity
  8
AKZ_960_3
  6
Continuous
 62
     7
 48
25.4
100
AcDbLine
 10
9.232135725619628
 20
-38.05880437265387
 30
0.0
 11
6.631534112758118
 21
-38.05880437265387
 31
0.0
  0
LINE
  5
E0E000018A06
330
E0E0000189C8
100
AcDbEntity
  8
AKZ_960_3
  6
Continuous
 62
     7
 48
25.4
100
AcDbLine
 10
6.631534112758118
 20
-40.75942912448363
 30
0.0
 11
9.232135725619628
 21
-40.75942912448363
 31
0.0
  0
LINE
  5
E0E000018A07
330
E0E0000189C8
100
AcDbEntity
  8
AKZ_960_3
  6
Continuous
 62
     7
 48
25.4
100
AcDbLine
 10
5.931372140069925
 20
-43.76012329312789
 30
0.0
 11
5.931372140069925
 21
-35.05811020400915
 31
0.0
  0
LINE
  5
E0E000018A08
330
E0E0000189C8
100
AcDbEntity
  8
AKZ_960_3
  6
Continuous
 62
     7
 48
25.4
100
AcDbLine
 10
9.93229769830782
 20
-35.05811020400915
 30
0.0
 11
9.93229769830782
 21
-43.76012329312789
 31
0.0
  0
LINE
  5
E0E000018A09
330
E0E0000189C8
100
AcDbEntity
  8
AKZ_960_3
  6
Continuous
 62
     7
 48
25.4
100
AcDbLine
 10
9.232135725619628
 20
-40.75942912448363
 30
0.0
 11
9.232135725619628
 21
-38.05880437265387
 31
0.0
  0
LINE
  5
E0E000018A0A
330
E0E0000189C8
100
AcDbEntity
  8
AKZ_960_3
  6
Continuous
 62
     7
 48
25.4
100
AcDbLine
 10
6.631534112758118
 20
-38.05880437265387
 30
0.0
 11
6.631534112758118
 21
-40.75942912448363
 31
0.0
  0
LINE
  5
E0E000018A0B
330
E0E0000189C8
100
AcDbEntity
  8
AKZ_960_3
  6
Continuous
 62
     7
 48
25.4
100
AcDbLine
 10
9.93229769830782
 20
-43.76012329312789
 30
0.0
 11
9.232135725619628
 21
-40.75942912448363
 31
0.0
  0
LINE
  5
E0E000018A0C
330
E0E0000189C8
100
AcDbEntity
  8
AKZ_960_3
  6
Continuous
 62
     7
 48
25.4
100
AcDbLine
 10
9.232135725619628
 20
-38.05880437265387
 30
0.0
 11
9.93229769830782
 21
-35.05811020400915
 31
0.0
  0
LINE
  5
E0E000018A0D
330
E0E0000189C8
100
AcDbEntity
  8
AKZ_960_3
  6
Continuous
 62
     7
 48
25.4
100
AcDbLine
 10
5.931372140069925
 20
-35.05811020400915
 30
0.0
 11
6.631534112758118
 21
-38.05880437265387
 31
0.0
  0
LINE
  5
E0E000018A0E
330
E0E0000189C8
100
AcDbEntity
  8
AKZ_960_3
  6
Continuous
 62
     7
 48
25.4
100
AcDbLine
 10
6.631534112758118
 20
-40.75942912448363
 30
0.0
 11
5.931372140069925
 21
-43.76012329312789
 31
0.0
  0
LINE
  5
E0E000018A0F
330
E0E0000189C8
100
AcDbEntity
  8
BASE_6_M
  6
Continuous
 62
     7
 48
25.4
100
AcDbLine
 10
36.6830151296831
 20
-42.62021907280496
 30
0.0
 11
26.9862428902693
 21
-42.62021907280496
 31
0.0
  0
LINE
  5
E0E000018A10
330
E0E0000189C8
100
AcDbEntity
  8
BASE_6_M
  6
Continuous
 62
     7
 48
25.4
100
AcDbLine
 10
4.120953324986431
 20
-42.62021907280496
 30
0.0
 11
4.111790867666741
 21
-42.62021907280496
 31
0.0
  0
LINE
  5
E0E000018A11
330
E0E0000189C8
100
AcDbEntity
  8
BASE_6_M
  6
Continuous
 62
     7
 48
25.4
100
AcDbLine
 10
36.6830151296831
 20
-42.75989190357996
 30
0.0
 11
26.9862428902693
 21
-42.75989190357996
 31
0.0
  0
LINE
  5
E0E000018A12
330
E0E0000189C8
100
AcDbEntity
  8
BASE_6_M
  6
Continuous
 62
     7
 48
25.4
100
AcDbLine
 10
4.120953324986431
 20
-42.75989190357996
 30
0.0
 11
2.500578473893029
 21
-42.75989190357996
 31
0.0
  0
LINE
  5
E0E000018A13
330
E0E0000189C8
100
AcDbEntity
  8
BASE_6_M
  6
Continuous
 62
     7
 48
25.4
100
AcDbLine
 10
4.111790867666741
 20
42.62021907280496
 30
0.0
 11
5.151191656216042
 21
42.62021907280496
 31
0.0
  0
LINE
  5
E0E000018A14
330
E0E0000189C8
100
AcDbEntity
  8
BASE_6_M
  6
Continuous
 62
     7
 48
25.4
100
AcDbLine
 10
2.500578473893029
 20
42.75989190357996
 30
0.0
 11
5.151191656216042
 21
42.75989190357996
 31
0.0
  0
LINE
  5
E0E000018A15
330
E0E0000189C8
100
AcDbEntity
  8
BASE_6_M
  6
Continuous
 62
     7
 48
25.4
100
AcDbLine
 10
101.073381914799
 20
42.75989190357996
 30
0.0
 11
102.5237174296597
 21
42.75989190357996
 31
0.0
  0
LINE
  5
E0E000018A16
330
E0E0000189C8
100
AcDbEntity
  8
BASE_6_M
  6
Continuous
 62
     7
 48
25.4
100
AcDbLine
 10
2.000158098955353
 20
-45.01041253007452
 30
0.0
 11
5.121184714534593
 21
-45.01041253007452
 31
0.0
  0
LINE
  5
E0E000018A17
330
E0E0000189C8
100
AcDbEntity
  8
BASE_6_M
  6
Continuous
 62
     7
 48
25.4
100
AcDbLine
 10
25.9860115006984
 20
-45.01041253007452
 30
0.0
 11
103.0241378045973
 21
-45.01041253007452
 31
0.0
  0
LINE
  5
E0E000018A18
330
E0E0000189C8
100
AcDbEntity
  8
BASE_6_M
  6
Continuous
 62
     7
 48
25.4
100
AcDbLine
 10
103.0241378045973
 20
45.01041253007452
 30
0.0
 11
2.000158098955353
 21
45.01041253007452
 31
0.0
  0
ELLIPSE
  5
E0E000018A19
330
E0E0000189C8
100
AcDbEntity
  8
BASE_6_M
  6
Continuous
 62
     7
 48
25.4
100
AcDbEllipse
 10
2.000767505687463
 20
43.00964502438683
 30
0.0
 11
1.414971712276034
 21
-1.414971712276035
 31
0.0
210
0.0
220
0.0
230
1.0
 40
0.9996954598818877
 41
2.356346783439924
 42
3.926838523739669
  0
LINE
  5
E0E000018A1A
330
E0E0000189C8
100
AcDbEntity
  8
BASE_6_M
  6
Continuous
 62
     7
 48
25.4
100
AcDbLine
 10
0.0
 20
43.01025443116441
 30
0.0
 11
0.0
 21
41.15952168031208
 31
0.0
  0
LINE
  5
E0E000018A1B
330
E0E0000189C8
100
AcDbEntity
  8
BASE_6_M
  6
Continuous
 62
     7
 48
25.4
100
AcDbLine
 10
0.0
 20
31.15720778473997
 30
0.0
 11
0.0
 21
5.751330489935754
 31
0.0
  0
LINE
  5
E0E000018A1C
330
E0E0000189C8
100
AcDbEntity
  8
BASE_6_M
  6
Continuous
 62
     7
 48
25.4
100
AcDbLine
 10
0.0
 20
-5.751330489935754
 30
0.0
 11
0.0
 21
-31.15720778473997
 31
0.0
  0
LINE
  5
E0E000018A1D
330
E0E0000189C8
100
AcDbEntity
  8
BASE_6_M
  6
Continuous
 62
     7
 48
25.4
100
AcDbLine
 10
2.500578473893029
 20
31.15720778473997
 30
0.0
 11
2.500578473893029
 21
31.00717307626473
 31
0.0
  0
LINE
  5
E0E000018A1E
330
E0E0000189C8
100
AcDbEntity
  8
BASE_6_M
  6
Continuous
 62
     7
 48
25.4
100
AcDbLine
 10
2.529385995238954
 20
31.00717307626473
 30
0.0
 11
2.529385995238954
 21
42.73108438223426
 31
0.0
  0
LINE
  5
E0E000018A1F
330
E0E0000189C8
100
AcDbEntity
  8
BASE_6_M
  6
Continuous
 62
     7
 48
25.4
100
AcDbLine
 10
2.529385995238954
 20
42.73108438223426
 30
0.0
 11
2.500578473893029
 21
42.75989190357996
 31
0.0
  0
LINE
  5
E0E000018A20
330
E0E0000189C8
100
AcDbEntity
  8
BASE_6_M
  6
Continuous
 62
     7
 48
25.4
100
AcDbLine
 10
2.500578473893029
 20
42.75989190357996
 30
0.0
 11
2.500578473893029
 21
41.15952168031208
 31
0.0
  0
ELLIPSE
  5
E0E000018A21
330
E0E0000189C8
100
AcDbEntity
  8
BASE_6_M
  6
Continuous
 62
     7
 48
25.4
100
AcDbEllipse
 10
2.43074205850553
 20
41.15952168031208
 30
0.0
 11
0.0
 21
4.000925558230333
 31
0.0
210
0.0
220
0.0
230
1.0
 40
0.0174550649282516
 41
4.450923000097518
 42
4.712388980384711
  0
LINE
  5
E0E000018A22
330
E0E0000189C8
100
AcDbEntity
  8
BASE_6_M
  6
Continuous
 62
     7
 48
25.4
100
AcDbLine
 10
2.498204878344723
 20
40.12529449109707
 30
0.0
 11
2.465660266188024
 21
33.15767056383629
 31
0.0
  0
LINE
  5
E0E000018A23
330
E0E0000189C8
100
AcDbEntity
  8
BASE_6_M
  6
Continuous
 62
     7
 48
25.4
100
AcDbLine
 10
2.465660266188024
 20
31.19212599242201
 30
0.0
 11
2.500578473893029
 21
31.15720778473997
 31
0.0
  0
LINE
  5
E0E000018A24
330
E0E0000189C8
100
AcDbEntity
  8
BASE_6_M
  6
Continuous
 62
     7
 48
25.4
100
AcDbLine
 10
2.500578473893029
 20
-31.00717307626428
 30
0.0
 11
2.500578473893029
 21
-31.15720778473997
 31
0.0
  0
LINE
  5
E0E000018A25
330
E0E0000189C8
100
AcDbEntity
  8
BASE_6_M
  6
Continuous
 62
     7
 48
25.4
100
AcDbLine
 10
2.465660266188024
 20
-33.15767056383629
 30
0.0
 11
2.498204878344723
 21
-40.12529449109707
 31
0.0
  0
ELLIPSE
  5
E0E000018A26
330
E0E0000189C8
100
AcDbEntity
  8
BASE_6_M
  6
Continuous
 62
     7
 48
25.4
100
AcDbEllipse
 10
2.43074205850553
 20
-41.15952168031208
 30
0.0
 11
0.0
 21
4.000925558230659
 31
0.0
210
0.0
220
0.0
230
1.0
 40
0.0174550649282531
 41
4.71238898038469
 42
4.973854960671876
  0
LINE
  5
E0E000018A27
330
E0E0000189C8
100
AcDbEntity
  8
BASE_6_M
  6
Continuous
 62
     7
 48
25.4
100
AcDbLine
 10
2.500578473893029
 20
-41.15952168031208
 30
0.0
 11
2.500578473893029
 21
-42.75989190357996
 31
0.0
  0
LINE
  5
E0E000018A28
330
E0E0000189C8
100
AcDbEntity
  8
BASE_6_M
  6
Continuous
 62
     7
 48
25.4
100
AcDbLine
 10
2.500578473893029
 20
-42.75989190357996
 30
0.0
 11
2.529385995238954
 21
-42.7310843822338
 31
0.0
  0
LINE
  5
E0E000018A29
330
E0E0000189C8
100
AcDbEntity
  8
BASE_6_M
  6
Continuous
 62
     7
 48
25.4
100
AcDbLine
 10
2.529385995238954
 20
-42.7310843822338
 30
0.0
 11
2.529385995238954
 21
-31.00717307626428
 31
0.0
  0
LINE
  5
E0E000018A2A
330
E0E0000189C8
100
AcDbEntity
  8
BASE_6_M
  6
Continuous
 62
     7
 48
25.4
100
AcDbLine
 10
0.0
 20
-41.15952168031208
 30
0.0
 11
0.0
 21
-43.01025443116441
 31
0.0
  0
ELLIPSE
  5
E0E000018A2B
330
E0E0000189C8
100
AcDbEntity
  8
BASE_6_M
  6
Continuous
 62
     7
 48
25.4
100
AcDbEllipse
 10
2.000767505687463
 20
-43.00964502438683
 30
0.0
 11
1.414971712276034
 21
1.414971712276035
 31
0.0
210
0.0
220
0.0
230
1.0
 40
0.9996954598818877
 41
2.356346783439927
 42
3.926838523739641
  0
LINE
  5
E0E000018A2C
330
E0E0000189C8
100
AcDbEntity
  8
BASE_6_M
  6
Continuous
 62
     7
 48
25.4
100
AcDbLine
 10
4.111790867666741
 20
42.62021907280496
 30
0.0
 11
4.111790867666741
 21
42.50983405618172
 31
0.0
  0
LINE
  5
E0E000018A2D
330
E0E0000189C8
100
AcDbEntity
  8
BASE_6_M
  6
Continuous
 62
     7
 48
25.4
100
AcDbLine
 10
4.111790867666741
 20
-42.50983405618126
 30
0.0
 11
4.111790867666741
 21
-42.62021907280496
 31
0.0
  0
LINE
  5
E0E000018A2E
330
E0E0000189C8
100
AcDbEntity
  8
BASE_6_M
  6
Continuous
 62
     7
 48
25.4
100
AcDbLine
 10
4.000925558237896
 20
-42.50983405618126
 30
0.0
 11
4.000925558237896
 21
-42.7310843822338
 31
0.0
  0
LINE
  5
E0E000018A2F
330
E0E0000189C8
100
AcDbEntity
  8
BASE_6_M
  6
Continuous
 62
     7
 48
25.4
100
AcDbLine
 10
4.000925558237896
 20
-42.7310843822338
 30
0.0
 11
4.111790867666741
 21
-42.62021907280496
 31
0.0
  0
LINE
  5
E0E000018A30
330
E0E0000189C8
100
AcDbEntity
  8
BASE_6_M
  6
Continuous
 62
     7
 48
25.4
100
AcDbLine
 10
0.100023138945744
 20
5.001156947786058
 30
0.0
 11
0.100023138945744
 21
-5.001156947786058
 31
0.0
  0
LINE
  5
E0E000018A31
330
E0E0000189C8
100
AcDbEntity
  8
BASE_6_M
  6
Continuous
 62
     7
 48
25.4
100
AcDbLine
 10
0.100023138945744
 20
5.001156947786058
 30
0.0
 11
0.1467407999168699
 21
5.001156947786058
 31
0.0
  0
LINE
  5
E0E000018A32
330
E0E0000189C8
100
AcDbEntity
  8
BASE_6_M
  6
Continuous
 62
     7
 48
25.4
100
AcDbLine
 10
0.1467407999168699
 20
-5.001156947786058
 30
0.0
 11
0.100023138945744
 21
-5.001156947786058
 31
0.0
  0
LINE
  5
E0E000018A33
330
E0E0000189C8
100
AcDbEntity
  8
BASE_6_M
  6
Continuous
 62
     7
 48
25.4
100
AcDbLine
 10
4.000925558237896
 20
42.73108438223426
 30
0.0
 11
4.000925558237896
 21
42.50983405618172
 31
0.0
  0
LINE
  5
E0E000018A34
330
E0E0000189C8
100
AcDbEntity
  8
BASE_6_M
  6
Continuous
 62
     7
 48
25.4
100
AcDbLine
 10
4.111790867666741
 20
42.62021907280496
 30
0.0
 11
4.000925558237896
 21
42.73108438223426
 31
0.0
  0
LINE
  5
E0E000018A35
330
E0E0000189C8
100
AcDbEntity
  8
BASE_6_M
  6
Continuous
 62
     7
 48
25.4
100
AcDbLine
 10
2.529385995238954
 20
42.73108438223426
 30
0.0
 11
4.000925558237896
 21
42.73108438223426
 31
0.0
  0
LINE
  5
E0E000018A36
330
E0E0000189C8
100
AcDbEntity
  8
BASE_6_M
  6
Continuous
 62
     7
 48
25.4
100
AcDbLine
 10
4.000925558237896
 20
-42.7310843822338
 30
0.0
 11
2.529385995238954
 21
-42.7310843822338
 31
0.0
  0
LINE
  5
E0E000018A37
330
E0E0000189C8
100
AcDbEntity
  8
BASE_6_M
  6
Continuous
 62
     7
 48
25.4
100
AcDbLine
 10
0.0
 20
41.15952168031208
 30
0.0
 11
0.0
 21
31.15720778473997
 31
0.0
  0
LINE
  5
E0E000018A38
330
E0E0000189C8
100
AcDbEntity
  8
BASE_6_M
  6
Continuous
 62
     7
 48
25.4
100
AcDbLine
 10
0.0
 20
31.15720778473997
 30
0.0
 11
2.500578473893029
 21
31.15720778473997
 31
0.0
  0
LINE
  5
E0E000018A39
330
E0E0000189C8
100
AcDbEntity
  8
BASE_6_M
  6
Continuous
 62
     7
 48
25.4
100
AcDbLine
 10
0.0349182077050045
 20
31.19212599242201
 30
0.0
 11
0.0
 21
31.15720778473997
 31
0.0
  0
LINE
  5
E0E000018A3A
330
E0E0000189C8
100
AcDbEntity
  8
BASE_6_M
  6
Continuous
 62
     7
 48
25.4
100
AcDbLine
 10
0.0349182077050045
 20
33.15767056383629
 30
0.0
 11
0.0349182077050045
 21
31.19212599242201
 31
0.0
  0
LINE
  5
E0E000018A3B
330
E0E0000189C8
100
AcDbEntity
  8
BASE_6_M
  6
Continuous
 62
     7
 48
25.4
100
AcDbLine
 10
0.0349182077050045
 20
31.19212599242201
 30
0.0
 11
2.465660266188024
 21
31.19212599242201
 31
0.0
  0
LINE
  5
E0E000018A3C
330
E0E0000189C8
100
AcDbEntity
  8
BASE_6_M
  6
Continuous
 62
     7
 48
25.4
100
AcDbLine
 10
2.465660266188024
 20
31.19212599242201
 30
0.0
 11
2.465660266188024
 21
33.15767056383629
 31
0.0
  0
LINE
  5
E0E000018A3D
330
E0E0000189C8
100
AcDbEntity
  8
BASE_6_M
  6
Continuous
 62
     7
 48
25.4
100
AcDbLine
 10
2.500578473893029
 20
41.15952168031208
 30
0.0
 11
0.0
 21
41.15952168031208
 31
0.0
  0
ELLIPSE
  5
E0E000018A3E
330
E0E0000189C8
100
AcDbEntity
  8
BASE_6_M
  6
Continuous
 62
     7
 48
25.4
100
AcDbEllipse
 10
0.0698364153872717
 20
41.15952168031208
 30
0.0
 11
0.0
 21
-4.00092555823118
 31
0.0
210
0.0
220
0.0
230
1.0
 40
0.0174550649282552
 41
4.712388980384725
 42
4.973854960671841
  0
LINE
  5
E0E000018A3F
330
E0E0000189C8
100
AcDbEntity
  8
BASE_6_M
  6
Continuous
 62
     7
 48
25.4
100
AcDbLine
 10
2.498204878344723
 20
40.12529449109707
 30
0.0
 11
0.0023735955483062
 21
40.12529449109707
 31
0.0
  0
LINE
  5
E0E000018A40
330
E0E0000189C8
100
AcDbEntity
  8
BASE_6_M
  6
Continuous
 62
     7
 48
25.4
100
AcDbLine
 10
0.0023735955483062
 20
40.12529449109707
 30
0.0
 11
0.0349182077050045
 21
33.15767056383629
 31
0.0
  0
LINE
  5
E0E000018A41
330
E0E0000189C8
100
AcDbEntity
  8
BASE_6_M
  6
Continuous
 62
     7
 48
25.4
100
AcDbLine
 10
0.0349182077050045
 20
33.15767056383629
 30
0.0
 11
2.465660266188024
 21
33.15767056383629
 31
0.0
  0
LINE
  5
E0E000018A42
330
E0E0000189C8
100
AcDbEntity
  8
BASE_6_M
  6
Continuous
 62
     7
 48
25.4
100
AcDbLine
 10
2.500578473893029
 20
-31.15720778473997
 30
0.0
 11
0.0
 21
-31.15720778473997
 31
0.0
  0
LINE
  5
E0E000018A43
330
E0E0000189C8
100
AcDbEntity
  8
BASE_6_M
  6
Continuous
 62
     7
 48
25.4
100
AcDbLine
 10
2.465660266188024
 20
-31.19212599242201
 30
0.0
 11
2.500578473893029
 21
-31.15720778473997
 31
0.0
  0
LINE
  5
E0E000018A44
330
E0E0000189C8
100
AcDbEntity
  8
BASE_6_M
  6
Continuous
 62
     7
 48
25.4
100
AcDbLine
 10
0.0349182077050045
 20
-31.19212599242201
 30
0.0
 11
0.0
 21
-31.15720778473997
 31
0.0
  0
LINE
  5
E0E000018A45
330
E0E0000189C8
100
AcDbEntity
  8
BASE_6_M
  6
Continuous
 62
     7
 48
25.4
100
AcDbLine
 10
0.0
 20
-31.15720778473997
 30
0.0
 11
0.0
 21
-41.15952168031208
 31
0.0
  0
LINE
  5
E0E000018A46
330
E0E0000189C8
100
AcDbEntity
  8
BASE_6_M
  6
Continuous
 62
     7
 48
25.4
100
AcDbLine
 10
2.465660266188024
 20
-33.15767056383629
 30
0.0
 11
2.465660266188024
 21
-31.19212599242201
 31
0.0
  0
LINE
  5
E0E000018A47
330
E0E0000189C8
100
AcDbEntity
  8
BASE_6_M
  6
Continuous
 62
     7
 48
25.4
100
AcDbLine
 10
2.465660266188024
 20
-31.19212599242201
 30
0.0
 11
0.0349182077050045
 21
-31.19212599242201
 31
0.0
  0
LINE
  5
E0E000018A48
330
E0E0000189C8
100
AcDbEntity
  8
BASE_6_M
  6
Continuous
 62
     7
 48
25.4
100
AcDbLine
 10
0.0349182077050045
 20
-31.19212599242201
 30
0.0
 11
0.0349182077050045
 21
-33.15767056383629
 31
0.0
  0
LINE
  5
E0E000018A49
330
E0E0000189C8
100
AcDbEntity
  8
BASE_6_M
  6
Continuous
 62
     7
 48
25.4
100
AcDbLine
 10
2.465660266188024
 20
-33.15767056383629
 30
0.0
 11
0.0349182077050045
 21
-33.15767056383629
 31
0.0
  0
LINE
  5
E0E000018A4A
330
E0E0000189C8
100
AcDbEntity
  8
BASE_6_M
  6
Continuous
 62
     7
 48
25.4
100
AcDbLine
 10
0.0349182077050045
 20
-33.15767056383629
 30
0.0
 11
0.0023735955483062
 21
-40.12529449109707
 31
0.0
  0
LINE
  5
E0E000018A4B
330
E0E0000189C8
100
AcDbEntity
  8
BASE_6_M
  6
Continuous
 62
     7
 48
25.4
100
AcDbLine
 10
2.498204878344723
 20
-40.12529449109707
 30
0.0
 11
0.0023735955483062
 21
-40.12529449109707
 31
0.0
  0
ELLIPSE
  5
E0E000018A4C
330
E0E0000189C8
100
AcDbEntity
  8
BASE_6_M
  6
Continuous
 62
     7
 48
25.4
100
AcDbEllipse
 10
0.0698364153872717
 20
-41.15952168031208
 30
0.0
 11
-6.940499491497941E-15
 21
4.00092555823136
 31
0.0
210
0.0
220
0.0
230
1.0
 40
0.0174550649281852
 41
1.309330346508706
 42
1.570796326794811
  0
LINE
  5
E0E000018A4D
330
E0E0000189C8
100
AcDbEntity
  8
BASE_6_M
  6
Continuous
 62
     7
 48
25.4
100
AcDbLine
 10
0.0
 20
-41.15952168031208
 30
0.0
 11
2.500578473893029
 21
-41.15952168031208
 31
0.0
  0
ELLIPSE
  5
E0E000018A4E
330
E0E0000189C8
100
AcDbEntity
  8
BASE_6_M
  6
Continuous
 62
     7
 48
25.4
100
AcDbEllipse
 10
103.0235283978425
 20
-43.00964502438683
 30
0.0
 11
-1.414971712276034
 21
1.414971712276035
 31
0.0
210
0.0
220
0.0
230
1.0
 40
0.9996954598818877
 41
2.356346783439906
 42
3.926838523739652
  0
LINE
  5
E0E000018A4F
330
E0E0000189C8
100
AcDbEntity
  8
BASE_6_M
  6
Continuous
 62
     7
 48
25.4
100
AcDbLine
 10
105.0242959035527
 20
-43.01025443116441
 30
0.0
 11
105.0242959035527
 21
-41.15952168031208
 31
0.0
  0
LINE
  5
E0E000018A50
330
E0E0000189C8
100
AcDbEntity
  8
BASE_6_M
  6
Continuous
 62
     7
 48
25.4
100
AcDbLine
 10
105.0242959035527
 20
5.751330489935754
 30
0.0
 11
105.0242959035527
 21
31.15720778473997
 31
0.0
  0
LINE
  5
E0E000018A51
330
E0E0000189C8
100
AcDbEntity
  8
BASE_6_M
  6
Continuous
 62
     7
 48
25.4
100
AcDbLine
 10
105.0242959035527
 20
-31.15720778473997
 30
0.0
 11
105.0242959035527
 21
-5.751330489935754
 31
0.0
  0
LINE
  5
E0E000018A52
330
E0E0000189C8
100
AcDbEntity
  8
BASE_6_M
  6
Continuous
 62
     7
 48
25.4
100
AcDbLine
 10
105.0242959035527
 20
41.15952168031208
 30
0.0
 11
105.0242959035527
 21
43.01025443116441
 31
0.0
  0
ELLIPSE
  5
E0E000018A53
330
E0E0000189C8
100
AcDbEntity
  8
BASE_6_M
  6
Continuous
 62
     7
 48
25.4
100
AcDbEllipse
 10
103.0235283978425
 20
43.00964502438683
 30
0.0
 11
-1.414971712276034
 21
-1.414971712276035
 31
0.0
210
0.0
220
0.0
230
1.0
 40
0.9996954598818877
 41
2.35634678343992
 42
3.926838523739666
  0
LINE
  5
E0E000018A54
330
E0E0000189C8
100
AcDbEntity
  8
BASE_6_M
  6
Continuous
 62
     7
 48
25.4
100
AcDbLine
 10
102.5237174296597
 20
-31.15720778473997
 30
0.0
 11
102.5237174296597
 21
-31.00717307626428
 31
0.0
  0
LINE
  5
E0E000018A55
330
E0E0000189C8
100
AcDbEntity
  8
BASE_6_M
  6
Continuous
 62
     7
 48
25.4
100
AcDbLine
 10
102.4949099083137
 20
-31.00717307626428
 30
0.0
 11
102.4949099083137
 21
-42.7310843822338
 31
0.0
  0
LINE
  5
E0E000018A56
330
E0E0000189C8
100
AcDbEntity
  8
BASE_6_M
  6
Continuous
 62
     7
 48
25.4
100
AcDbLine
 10
102.5586356373419
 20
-31.19212599242201
 30
0.0
 11
102.5237174296597
 21
-31.15720778473997
 31
0.0
  0
LINE
  5
E0E000018A57
330
E0E0000189C8
100
AcDbEntity
  8
BASE_6_M
  6
Continuous
 62
     7
 48
25.4
100
AcDbLine
 10
102.5237174296597
 20
31.00717307626473
 30
0.0
 11
102.5237174296597
 21
31.15720778473997
 31
0.0
  0
LINE
  5
E0E000018A58
330
E0E0000189C8
100
AcDbEntity
  8
BASE_6_M
  6
Continuous
 62
     7
 48
25.4
100
AcDbLine
 10
102.5586356373419
 20
33.15767056383629
 30
0.0
 11
102.526091025208
 21
40.12529449109707
 31
0.0
  0
ELLIPSE
  5
E0E000018A59
330
E0E0000189C8
100
AcDbEntity
  8
BASE_6_M
  6
Continuous
 62
     7
 48
25.4
100
AcDbEllipse
 10
102.5935538450469
 20
41.15952168031208
 30
0.0
 11
0.0
 21
-4.000925558231352
 31
0.0
210
0.0
220
0.0
230
1.0
 40
0.017455064928256
 41
4.712388980384732
 42
4.973854960671837
  0
LINE
  5
E0E000018A5A
330
E0E0000189C8
100
AcDbEntity
  8
BASE_6_M
  6
Continuous
 62
     7
 48
25.4
100
AcDbLine
 10
102.5237174296597
 20
41.15952168031208
 30
0.0
 11
102.5237174296597
 21
42.75989190357996
 31
0.0
  0
LINE
  5
E0E000018A5B
330
E0E0000189C8
100
AcDbEntity
  8
BASE_6_M
  6
Continuous
 62
     7
 48
25.4
100
AcDbLine
 10
102.5237174296597
 20
42.75989190357996
 30
0.0
 11
102.4949099083137
 21
42.73108438223426
 31
0.0
  0
LINE
  5
E0E000018A5C
330
E0E0000189C8
100
AcDbEntity
  8
BASE_6_M
  6
Continuous
 62
     7
 48
25.4
100
AcDbLine
 10
102.4949099083137
 20
42.73108438223426
 30
0.0
 11
102.4949099083137
 21
31.00717307626473
 31
0.0
  0
LINE
  5
E0E000018A5D
330
E0E0000189C8
100
AcDbEntity
  8
BASE_6_M
  6
Continuous
 62
     7
 48
25.4
100
AcDbLine
 10
104.9242727645842
 20
5.001156947786058
 30
0.0
 11
104.9242727645842
 21
-5.001156947786058
 31
0.0
  0
LINE
  5
E0E000018A5E
330
E0E0000189C8
100
AcDbEntity
  8
BASE_6_M
  6
Continuous
 62
     7
 48
25.4
100
AcDbLine
 10
104.8775551036131
 20
5.001156947786058
 30
0.0
 11
104.9242727645842
 21
5.001156947786058
 31
0.0
  0
LINE
  5
E0E000018A5F
330
E0E0000189C8
100
AcDbEntity
  8
BASE_6_M
  6
Continuous
 62
     7
 48
25.4
100
AcDbLine
 10
104.9242727645842
 20
-5.001156947786058
 30
0.0
 11
104.8775551036131
 21
-5.001156947786058
 31
0.0
  0
LINE
  5
E0E000018A60
330
E0E0000189C8
100
AcDbEntity
  8
BASE_6_M
  6
Continuous
 62
     7
 48
25.4
100
AcDbLine
 10
99.47301169150842
 20
42.73108438223426
 30
0.0
 11
102.4949099083137
 21
42.73108438223426
 31
0.0
  0
LINE
  5
E0E000018A61
330
E0E0000189C8
100
AcDbEntity
  8
BASE_6_M
  6
Continuous
 62
     7
 48
25.4
100
AcDbLine
 10
102.5237174296597
 20
31.15720778473997
 30
0.0
 11
105.0242959035527
 21
31.15720778473997
 31
0.0
  0
LINE
  5
E0E000018A62
330
E0E0000189C8
100
AcDbEntity
  8
BASE_6_M
  6
Continuous
 62
     7
 48
25.4
100
AcDbLine
 10
102.5586356373419
 20
31.19212599242201
 30
0.0
 11
102.5237174296597
 21
31.15720778473997
 31
0.0
  0
LINE
  5
E0E000018A63
330
E0E0000189C8
100
AcDbEntity
  8
BASE_6_M
  6
Continuous
 62
     7
 48
25.4
100
AcDbLine
 10
104.9893776958477
 20
31.19212599242201
 30
0.0
 11
105.0242959035527
 21
31.15720778473997
 31
0.0
  0
LINE
  5
E0E000018A64
330
E0E0000189C8
100
AcDbEntity
  8
BASE_6_M
  6
Continuous
 62
     7
 48
25.4
100
AcDbLine
 10
105.0242959035527
 20
31.15720778473997
 30
0.0
 11
105.0242959035527
 21
41.15952168031208
 31
0.0
  0
LINE
  5
E0E000018A65
330
E0E0000189C8
100
AcDbEntity
  8
BASE_6_M
  6
Continuous
 62
     7
 48
25.4
100
AcDbLine
 10
102.5586356373419
 20
33.15767056383629
 30
0.0
 11
102.5586356373419
 21
31.19212599242201
 31
0.0
  0
LINE
  5
E0E000018A66
330
E0E0000189C8
100
AcDbEntity
  8
BASE_6_M
  6
Continuous
 62
     7
 48
25.4
100
AcDbLine
 10
102.5586356373419
 20
31.19212599242201
 30
0.0
 11
104.9893776958477
 21
31.19212599242201
 31
0.0
  0
LINE
  5
E0E000018A67
330
E0E0000189C8
100
AcDbEntity
  8
BASE_6_M
  6
Continuous
 62
     7
 48
25.4
100
AcDbLine
 10
104.9893776958477
 20
31.19212599242201
 30
0.0
 11
104.9893776958477
 21
33.15767056383629
 31
0.0
  0
LINE
  5
E0E000018A68
330
E0E0000189C8
100
AcDbEntity
  8
BASE_6_M
  6
Continuous
 62
     7
 48
25.4
100
AcDbLine
 10
102.5586356373419
 20
33.15767056383629
 30
0.0
 11
104.9893776958477
 21
33.15767056383629
 31
0.0
  0
LINE
  5
E0E000018A69
330
E0E0000189C8
100
AcDbEntity
  8
BASE_6_M
  6
Continuous
 62
     7
 48
25.4
100
AcDbLine
 10
104.9893776958477
 20
33.15767056383629
 30
0.0
 11
105.0219223079816
 21
40.12529449109707
 31
0.0
  0
LINE
  5
E0E000018A6A
330
E0E0000189C8
100
AcDbEntity
  8
BASE_6_M
  6
Continuous
 62
     7
 48
25.4
100
AcDbLine
 10
102.526091025208
 20
40.12529449109707
 30
0.0
 11
105.0219223079816
 21
40.12529449109707
 31
0.0
  0
ELLIPSE
  5
E0E000018A6B
330
E0E0000189C8
100
AcDbEntity
  8
BASE_6_M
  6
Continuous
 62
     7
 48
25.4
100
AcDbEllipse
 10
104.9544594881652
 20
41.15952168031208
 30
0.0
 11
1.388099898299589E-14
 21
-4.000925558234282
 31
0.0
210
0.0
220
0.0
230
1.0
 40
0.0174550649282683
 41
1.309330346507747
 42
1.570796326794655
  0
LINE
  5
E0E000018A6C
330
E0E0000189C8
100
AcDbEntity
  8
BASE_6_M
  6
Continuous
 62
     7
 48
25.4
100
AcDbLine
 10
105.0242959035527
 20
41.15952168031208
 30
0.0
 11
102.5237174296597
 21
41.15952168031208
 31
0.0
  0
LINE
  5
E0E000018A6D
330
E0E0000189C8
100
AcDbEntity
  8
BASE_6_M
  6
Continuous
 62
     7
 48
25.4
100
AcDbLine
 10
105.0242959035527
 20
-41.15952168031208
 30
0.0
 11
105.0242959035527
 21
-31.15720778473997
 31
0.0
  0
LINE
  5
E0E000018A6E
330
E0E0000189C8
100
AcDbEntity
  8
BASE_6_M
  6
Continuous
 62
     7
 48
25.4
100
AcDbLine
 10
105.0242959035527
 20
-31.15720778473997
 30
0.0
 11
102.5237174296597
 21
-31.15720778473997
 31
0.0
  0
LINE
  5
E0E000018A6F
330
E0E0000189C8
100
AcDbEntity
  8
BASE_6_M
  6
Continuous
 62
     7
 48
25.4
100
AcDbLine
 10
104.9893776958477
 20
-31.19212599242201
 30
0.0
 11
105.0242959035527
 21
-31.15720778473997
 31
0.0
  0
LINE
  5
E0E000018A70
330
E0E0000189C8
100
AcDbEntity
  8
BASE_6_M
  6
Continuous
 62
     7
 48
25.4
100
AcDbLine
 10
104.9893776958477
 20
-33.15767056383629
 30
0.0
 11
104.9893776958477
 21
-31.19212599242201
 31
0.0
  0
LINE
  5
E0E000018A71
330
E0E0000189C8
100
AcDbEntity
  8
BASE_6_M
  6
Continuous
 62
     7
 48
25.4
100
AcDbLine
 10
104.9893776958477
 20
-31.19212599242201
 30
0.0
 11
102.5586356373419
 21
-31.19212599242201
 31
0.0
  0
LINE
  5
E0E000018A72
330
E0E0000189C8
100
AcDbEntity
  8
BASE_6_M
  6
Continuous
 62
     7
 48
25.4
100
AcDbLine
 10
102.5586356373419
 20
-31.19212599242201
 30
0.0
 11
102.5586356373419
 21
-33.15767056383629
 31
0.0
  0
LINE
  5
E0E000018A73
330
E0E0000189C8
100
AcDbEntity
  8
BASE_6_M
  6
Continuous
 62
     7
 48
25.4
100
AcDbLine
 10
102.5237174296597
 20
-41.15952168031208
 30
0.0
 11
105.0242959035527
 21
-41.15952168031208
 31
0.0
  0
ELLIPSE
  5
E0E000018A74
330
E0E0000189C8
100
AcDbEntity
  8
BASE_6_M
  6
Continuous
 62
     7
 48
25.4
100
AcDbEllipse
 10
104.9544594881652
 20
-41.15952168031208
 30
0.0
 11
0.0
 21
4.000925558231533
 31
0.0
210
0.0
220
0.0
230
1.0
 40
0.0174550649282567
 41
4.712388980384739
 42
4.973854960671884
  0
LINE
  5
E0E000018A75
330
E0E0000189C8
100
AcDbEntity
  8
BASE_6_M
  6
Continuous
 62
     7
 48
25.4
100
AcDbLine
 10
102.526091025208
 20
-40.12529449109707
 30
0.0
 11
105.0219223079816
 21
-40.12529449109707
 31
0.0
  0
LINE
  5
E0E000018A76
330
E0E0000189C8
100
AcDbEntity
  8
BASE_6_M
  6
Continuous
 62
     7
 48
25.4
100
AcDbLine
 10
105.0219223079816
 20
-40.12529449109707
 30
0.0
 11
104.9893776958477
 21
-33.15767056383629
 31
0.0
  0
LINE
  5
E0E000018A77
330
E0E0000189C8
100
AcDbEntity
  8
BASE_6_M
  6
Continuous
 62
     7
 48
25.4
100
AcDbLine
 10
104.9893776958477
 20
-33.15767056383629
 30
0.0
 11
102.5586356373419
 21
-33.15767056383629
 31
0.0
  0
LINE
  5
E0E000018A78
330
E0E0000189C8
100
AcDbEntity
  8
TAPA_6_M
  6
Continuous
 62
     7
 48
25.4
100
AcDbLine
 10
0.0
 20
30.00709402680968
 30
0.0
 11
0.0
 21
-30.00709402680968
 31
0.0
  0
LINE
  5
E0E000018A79
330
E0E0000189C8
100
AcDbEntity
  8
TAPA_6_M
  6
Continuous
 62
     7
 48
25.4
100
AcDbLine
 10
0.0
 20
-30.00709402680968
 30
0.0
 11
0.6637506496028891
 21
-29.34334337720657
 31
0.0
  0
LINE
  5
E0E000018A7A
330
E0E0000189C8
100
AcDbEntity
  8
TAPA_6_M
  6
Continuous
 62
     7
 48
25.4
100
AcDbLine
 10
0.6637506496028891
 20
-29.34334337720657
 30
0.0
 11
0.6637506496028891
 21
-23.98824660883656
 31
0.0
  0
ELLIPSE
  5
E0E000018A7B
330
E0E0000189C8
100
AcDbEntity
  8
TAPA_6_M
  6
Continuous
 62
     7
 48
25.4
100
AcDbEllipse
 10
0.6986688572853836
 20
-23.98824660883656
 30
0.0
 11
0.0
 21
2.000462779115218
 31
0.0
210
0.0
220
0.0
230
1.0
 40
0.0174550649282187
 41
0.0174532925208703
 42
1.570796326794897
  0
LINE
  5
E0E000018A7C
330
E0E0000189C8
100
AcDbEntity
  8
TAPA_6_M
  6
Continuous
 62
     7
 48
25.4
100
AcDbLine
 10
0.6980594505530462
 20
-21.98808850988144
 30
0.0
 11
0.8208825842416445
 21
-21.86526537619284
 31
0.0
  0
LINE
  5
E0E000018A7D
330
E0E0000189C8
100
AcDbEntity
  8
TAPA_6_M
  6
Continuous
 62
     7
 48
25.4
100
AcDbLine
 10
0.8208825842416445
 20
-21.86526537619284
 30
0.0
 11
0.8208825842416445
 21
21.86526537619284
 31
0.0
  0
LINE
  5
E0E000018A7E
330
E0E0000189C8
100
AcDbEntity
  8
TAPA_6_M
  6
Continuous
 62
     7
 48
25.4
100
AcDbLine
 10
0.8208825842416445
 20
21.86526537619284
 30
0.0
 11
0.6980594505530462
 21
21.98808850988144
 31
0.0
  0
ELLIPSE
  5
E0E000018A7F
330
E0E0000189C8
100
AcDbEntity
  8
TAPA_6_M
  6
Continuous
 62
     7
 48
25.4
100
AcDbEllipse
 10
0.6986688572853836
 20
23.98824660883656
 30
0.0
 11
0.0
 21
-2.000462779115218
 31
0.0
210
0.0
220
0.0
230
1.0
 40
0.0174550649282188
 41
4.71238898038469
 42
6.26573201465953
  0
LINE
  5
E0E000018A80
330
E0E0000189C8
100
AcDbEntity
  8
TAPA_6_M
  6
Continuous
 62
     7
 48
25.4
100
AcDbLine
 10
0.6637506496028891
 20
23.98824660883656
 30
0.0
 11
0.6637506496028891
 21
29.34334337720657
 31
0.0
  0
LINE
  5
E0E000018A81
330
E0E0000189C8
100
AcDbEntity
  8
TAPA_6_M
  6
Continuous
 62
     7
 48
25.4
100
AcDbLine
 10
0.6637506496028891
 20
29.34334337720657
 30
0.0
 11
0.0
 21
30.00709402680968
 31
0.0
  0
ELLIPSE
  5
E0E000018A82
330
E0E0000189C8
100
AcDbEntity
  8
TAPA_6_M
  6
Continuous
 62
     7
 48
25.4
100
AcDbEllipse
 10
1.000383752843845
 20
-30.00678932344317
 30
0.0
 11
0.7074858561380454
 21
0.7074858561379934
 31
0.0
210
0.0
220
0.0
230
0.9999999999999998
 40
0.999695459881887
 41
2.35634678343994
 42
3.926838523739677
  0
ELLIPSE
  5
E0E000018A83
330
E0E0000189C8
100
AcDbEntity
  8
TAPA_6_M
  6
Continuous
 62
     7
 48
25.4
100
AcDbEllipse
 10
1.000383752843845
 20
30.00678932344363
 30
0.0
 11
0.7074858561380454
 21
-0.7074858561379934
 31
0.0
210
0.0
220
0.0
230
0.9999999999999998
 40
0.999695459881887
 41
2.356346783439895
 42
3.926838523739618
  0
LINE
  5
E0E000018A84
330
E0E0000189C8
100
AcDbEntity
  8
TAPA_6_M
  6
Continuous
 62
     7
 48
25.4
100
AcDbLine
 10
1.663829699080679
 20
30.34342242670709
 30
0.0
 11
103.360466204472
 21
30.34342242670709
 31
0.0
  0
LINE
  5
E0E000018A85
330
E0E0000189C8
100
AcDbEntity
  8
TAPA_6_M
  6
Continuous
 62
     7
 48
25.4
100
AcDbLine
 10
1.000079049477563
 20
31.00717307626473
 30
0.0
 11
1.663829699080679
 21
30.34342242670709
 31
0.0
  0
LINE
  5
E0E000018A86
330
E0E0000189C8
100
AcDbEntity
  8
TAPA_6_M
  6
Continuous
 62
     7
 48
25.4
100
AcDbLine
 10
1.663829699080679
 20
30.34342242670709
 30
0.0
 11
1.663829699080679
 21
29.34334337720657
 31
0.0
  0
LINE
  5
E0E000018A87
330
E0E0000189C8
100
AcDbEntity
  8
TAPA_6_M
  6
Continuous
 62
     7
 48
25.4
100
AcDbLine
 10
1.663829699080679
 20
23.98824660883656
 30
0.0
 11
103.360466204472
 21
23.98824660883656
 31
0.0
  0
LINE
  5
E0E000018A88
330
E0E0000189C8
100
AcDbEntity
  8
TAPA_6_M
  6
Continuous
 62
     7
 48
25.4
100
AcDbLine
 10
1.663829699080679
 20
29.34334337720657
 30
0.0
 11
1.663829699080679
 21
23.98824660883656
 31
0.0
  0
ELLIPSE
  5
E0E000018A89
330
E0E0000189C8
100
AcDbEntity
  8
TAPA_6_M
  6
Continuous
 62
     7
 48
25.4
100
AcDbEllipse
 10
1.698747906762947
 20
23.98824660883656
 30
0.0
 11
0.0
 21
1.000231389557602
 31
0.0
210
0.0
220
0.0
230
1.0
 40
0.0349101298564311
 41
1.570796326794897
 42
3.124139361069317
  0
LINE
  5
E0E000018A8A
330
E0E0000189C8
100
AcDbEntity
  8
TAPA_6_M
  6
Continuous
 62
     7
 48
25.4
100
AcDbLine
 10
1.820961633696697
 20
22.86534442564789
 30
0.0
 11
103.203334269856
 21
22.86534442564789
 31
0.0
  0
LINE
  5
E0E000018A8B
330
E0E0000189C8
100
AcDbEntity
  8
TAPA_6_M
  6
Continuous
 62
     7
 48
25.4
100
AcDbLine
 10
1.698138500008099
 20
22.98816755933649
 30
0.0
 11
1.820961633696697
 21
22.86534442564789
 31
0.0
  0
LINE
  5
E0E000018A8C
330
E0E0000189C8
100
AcDbEntity
  8
TAPA_6_M
  6
Continuous
 62
     7
 48
25.4
100
AcDbLine
 10
1.820961633696697
 20
22.86534442564789
 30
0.0
 11
1.820961633696697
 21
21.86526537619284
 31
0.0
  0
LINE
  5
E0E000018A8D
330
E0E0000189C8
100
AcDbEntity
  8
TAPA_6_M
  6
Continuous
 62
     7
 48
25.4
100
AcDbLine
 10
1.820961633696697
 20
-21.86526537619284
 30
0.0
 11
103.203334269856
 21
-21.86526537619284
 31
0.0
  0
LINE
  5
E0E000018A8E
330
E0E0000189C8
100
AcDbEntity
  8
TAPA_6_M
  6
Continuous
 62
     7
 48
25.4
100
AcDbLine
 10
1.820961633696697
 20
21.86526537619284
 30
0.0
 11
1.820961633696697
 21
-21.86526537619284
 31
0.0
  0
LINE
  5
E0E000018A8F
330
E0E0000189C8
100
AcDbEntity
  8
TAPA_6_M
  6
Continuous
 62
     7
 48
25.4
100
AcDbLine
 10
1.820961633696697
 20
-21.86526537619284
 30
0.0
 11
1.820961633696697
 21
-22.86534442564789
 31
0.0
  0
LINE
  5
E0E000018A90
330
E0E0000189C8
100
AcDbEntity
  8
TAPA_6_M
  6
Continuous
 62
     7
 48
25.4
100
AcDbLine
 10
1.698138500008099
 20
-22.98816755933603
 30
0.0
 11
103.3261574035446
 21
-22.98816755933603
 31
0.0
  0
LINE
  5
E0E000018A91
330
E0E0000189C8
100
AcDbEntity
  8
TAPA_6_M
  6
Continuous
 62
     7
 48
25.4
100
AcDbLine
 10
1.820961633696697
 20
-22.86534442564789
 30
0.0
 11
1.698138500008099
 21
-22.98816755933603
 31
0.0
  0
ELLIPSE
  5
E0E000018A92
330
E0E0000189C8
100
AcDbEntity
  8
TAPA_6_M
  6
Continuous
 62
     7
 48
25.4
100
AcDbEllipse
 10
1.698747906762947
 20
-23.98824660883656
 30
0.0
 11
0.0
 21
1.000231389557609
 31
0.0
210
0.0
220
0.0
230
1.0
 40
0.0349101298564303
 41
0.0174532925224988
 42
1.570796326794897
  0
LINE
  5
E0E000018A93
330
E0E0000189C8
100
AcDbEntity
  8
TAPA_6_M
  6
Continuous
 62
     7
 48
25.4
100
AcDbLine
 10
1.663829699080679
 20
-29.34334337720657
 30
0.0
 11
103.360466204472
 21
-29.34334337720657
 31
0.0
  0
LINE
  5
E0E000018A94
330
E0E0000189C8
100
AcDbEntity
  8
TAPA_6_M
  6
Continuous
 62
     7
 48
25.4
100
AcDbLine
 10
1.663829699080679
 20
-23.98824660883656
 30
0.0
 11
1.663829699080679
 21
-29.34334337720657
 31
0.0
  0
LINE
  5
E0E000018A95
330
E0E0000189C8
100
AcDbEntity
  8
TAPA_6_M
  6
Continuous
 62
     7
 48
25.4
100
AcDbLine
 10
1.663829699080679
 20
-29.34334337720657
 30
0.0
 11
1.663829699080679
 21
-30.34342242670664
 31
0.0
  0
LINE
  5
E0E000018A96
330
E0E0000189C8
100
AcDbEntity
  8
TAPA_6_M
  6
Continuous
 62
     7
 48
25.4
100
AcDbLine
 10
1.663829699080679
 20
-30.34342242670664
 30
0.0
 11
1.000079049477563
 21
-31.00717307626428
 31
0.0
  0
ELLIPSE
  5
E0E000018A97
330
E0E0000189C8
100
AcDbEntity
  8
TAPA_6_M
  6
Continuous
 62
     7
 48
25.4
100
AcDbEllipse
 10
1.663829699080679
 20
-29.34334337720657
 30
0.0
 11
-0.7072703988223408
 21
0.7072703978016154
 31
0.0
210
0.0
220
0.0
230
1.0
 40
0.9996954598814639
 41
0.785550455923647
 42
2.356042196222956
  0
LINE
  5
E0E000018A98
330
E0E0000189C8
100
AcDbEntity
  8
TAPA_6_M
  6
Continuous
 62
     7
 48
25.4
100
AcDbLine
 10
0.6637506496028891
 20
-29.34334337720657
 30
0.0
 11
1.663829699080679
 21
-29.34334337720657
 31
0.0
  0
LINE
  5
E0E000018A99
330
E0E0000189C8
100
AcDbEntity
  8
TAPA_6_M
  6
Continuous
 62
     7
 48
25.4
100
AcDbLine
 10
0.6637506496028891
 20
-23.98824660883656
 30
0.0
 11
1.663829699080679
 21
-23.98824660883656
 31
0.0
  0
ELLIPSE
  5
E0E000018A9A
330
E0E0000189C8
100
AcDbEntity
  8
TAPA_6_M
  6
Continuous
 62
     7
 48
25.4
100
AcDbEllipse
 10
1.698138500008099
 20
-21.98808850988144
 30
0.0
 11
-0.7072703974231296
 21
0.7072703992010599
 31
0.0
210
0.0
220
0.0
230
0.9999999999999998
 40
0.9996954598811315
 41
0.7855504579023037
 42
2.35604219820124
  0
ELLIPSE
  5
E0E000018A9B
330
E0E0000189C8
100
AcDbEntity
  8
TAPA_6_M
  6
Continuous
 62
     7
 48
25.4
100
AcDbEllipse
 10
1.820961633696697
 20
-21.86526537619284
 30
0.0
 11
-0.7072703988223408
 21
0.7072703978016154
 31
0.0
210
0.0
220
0.0
230
1.0
 40
0.9996954598814639
 41
0.785550455923647
 42
2.356042196222963
  0
LINE
  5
E0E000018A9C
330
E0E0000189C8
100
AcDbEntity
  8
TAPA_6_M
  6
Continuous
 62
     7
 48
25.4
100
AcDbLine
 10
0.8208825842416445
 20
-21.86526537619284
 30
0.0
 11
1.820961633696697
 21
-21.86526537619284
 31
0.0
  0
LINE
  5
E0E000018A9D
330
E0E0000189C8
100
AcDbEntity
  8
TAPA_6_M
  6
Continuous
 62
     7
 48
25.4
100
AcDbLine
 10
0.8208825842416445
 20
21.86526537619284
 30
0.0
 11
1.820961633696697
 21
21.86526537619284
 31
0.0
  0
ELLIPSE
  5
E0E000018A9E
330
E0E0000189C8
100
AcDbEntity
  8
TAPA_6_M
  6
Continuous
 62
     7
 48
25.4
100
AcDbEllipse
 10
1.820961633696697
 20
21.86526537619284
 30
0.0
 11
-0.7072703980337826
 21
-0.7072703985897024
 31
0.0
210
0.0
220
0.0
230
1.0
 40
0.9996954598821284
 41
3.927143109841683
 42
5.497634850141672
  0
ELLIPSE
  5
E0E000018A9F
330
E0E0000189C8
100
AcDbEntity
  8
TAPA_6_M
  6
Continuous
 62
     7
 48
25.4
100
AcDbEllipse
 10
1.698138500008099
 20
21.98808850988144
 30
0.0
 11
-0.7072703985977878
 21
-0.7072703980256895
 31
0.0
210
0.0
220
0.0
230
0.9999999999999998
 40
0.999695459882128
 41
3.927143110639136
 42
5.497634850939128
  0
LINE
  5
E0E000018AA0
330
E0E0000189C8
100
AcDbEntity
  8
TAPA_6_M
  6
Continuous
 62
     7
 48
25.4
100
AcDbLine
 10
0.6637506496028891
 20
23.98824660883656
 30
0.0
 11
1.663829699080679
 21
23.98824660883656
 31
0.0
  0
LINE
  5
E0E000018AA1
330
E0E0000189C8
100
AcDbEntity
  8
TAPA_6_M
  6
Continuous
 62
     7
 48
25.4
100
AcDbLine
 10
0.6637506496028891
 20
29.34334337720657
 30
0.0
 11
1.663829699080679
 21
29.34334337720657
 31
0.0
  0
ELLIPSE
  5
E0E000018AA2
330
E0E0000189C8
100
AcDbEntity
  8
TAPA_6_M
  6
Continuous
 62
     7
 48
25.4
100
AcDbEllipse
 10
1.663829699080679
 20
29.34334337720657
 30
0.0
 11
-0.7072703985808602
 21
-0.7072703980426278
 31
0.0
210
0.0
220
0.0
230
1.0
 40
0.9996954598821279
 41
3.92714311061523
 42
5.497634850915144
  0
LINE
  5
E0E000018AA3
330
E0E0000189C8
100
AcDbEntity
  8
TAPA_6_M
  6
Continuous
 62
     7
 48
25.4
100
AcDbLine
 10
0.0672175498145862
 20
-5.151191656215815
 30
0.0
 11
0.1467407999168699
 21
-5.151191656215815
 31
0.0
  0
LINE
  5
E0E000018AA4
330
E0E0000189C8
100
AcDbEntity
  8
TAPA_6_M
  6
Continuous
 62
     7
 48
25.4
100
AcDbLine
 10
0.1467407999168699
 20
-5.151191656215815
 30
0.0
 11
0.1467407999168699
 21
5.15119165621627
 31
0.0
  0
LINE
  5
E0E000018AA5
330
E0E0000189C8
100
AcDbEntity
  8
TAPA_6_M
  6
Continuous
 62
     7
 48
25.4
100
AcDbLine
 10
0.1467407999168699
 20
5.15119165621627
 30
0.0
 11
0.0672175498145862
 21
5.15119165621627
 31
0.0
  0
LINE
  5
E0E000018AA6
330
E0E0000189C8
100
AcDbEntity
  8
TAPA_6_M
  6
Continuous
 62
     7
 48
25.4
100
AcDbLine
 10
0.0672175498145862
 20
5.15119165621627
 30
0.0
 11
0.0672175498145862
 21
-5.151191656215815
 31
0.0
  0
LINE
  5
E0E000018AA7
330
E0E0000189C8
100
AcDbEntity
  8
TAPA_6_M
  6
Continuous
 62
     7
 48
25.4
100
AcDbLine
 10
2.274013929729108
 20
20.88590872959048
 30
0.0
 11
2.261792557033459
 21
20.88590872959048
 31
0.0
  0
LINE
  5
E0E000018AA8
330
E0E0000189C8
100
AcDbEntity
  8
TAPA_6_M
  6
Continuous
 62
     7
 48
25.4
100
AcDbLine
 10
2.800318280299052
 20
21.42443445283334
 30
0.0
 11
102.2239776232536
 21
21.42443445283334
 31
0.0
  0
LINE
  5
E0E000018AA9
330
E0E0000189C8
100
AcDbEntity
  8
TAPA_6_M
  6
Continuous
 62
     7
 48
25.4
100
AcDbLine
 10
2.800318280299052
 20
21.4122130801602
 30
0.0
 11
102.2239776232536
 21
21.4122130801602
 31
0.0
  0
LINE
  5
E0E000018AAA
330
E0E0000189C8
100
AcDbEntity
  8
TAPA_6_M
  6
Continuous
 62
     7
 48
25.4
100
AcDbLine
 10
2.800318280299052
 20
21.42443445283334
 30
0.0
 11
2.800318280299052
 21
21.4122130801602
 31
0.0
  0
ARC
  5
E0E000018AAB
330
E0E0000189C8
100
AcDbEntity
  8
TAPA_6_M
  6
Continuous
 62
     7
 48
25.4
100
AcDbCircle
 10
2.800318280299052
 20
20.88590872959048
 30
0.0
 40
0.5263043505507549
100
AcDbArc
 50
90.0
 51
180.0
  0
ARC
  5
E0E000018AAC
330
E0E0000189C8
100
AcDbEntity
  8
TAPA_6_M
  6
Continuous
 62
     7
 48
25.4
100
AcDbCircle
 10
2.800318280299052
 20
20.88590872959048
 30
0.0
 40
0.5385257232443373
100
AcDbArc
 50
90.0
 51
180.0
  0
LINE
  5
E0E000018AAD
330
E0E0000189C8
100
AcDbEntity
  8
TAPA_6_M
  6
Continuous
 62
     7
 48
25.4
100
AcDbLine
 10
2.800318280299052
 20
-21.4122130801602
 30
0.0
 11
2.800318280299052
 21
-21.42443445283334
 31
0.0
  0
LINE
  5
E0E000018AAE
330
E0E0000189C8
100
AcDbEntity
  8
TAPA_6_M
  6
Continuous
 62
     7
 48
25.4
100
AcDbLine
 10
2.274013929729108
 20
-20.88590872959048
 30
0.0
 11
2.274013929729108
 21
-1.776593587516345
 31
0.0
  0
LINE
  5
E0E000018AAF
330
E0E0000189C8
100
AcDbEntity
  8
TAPA_6_M
  6
Continuous
 62
     7
 48
25.4
100
AcDbLine
 10
2.261792557033459
 20
-20.88590872959048
 30
0.0
 11
2.261792557033459
 21
20.88590872959048
 31
0.0
  0
LINE
  5
E0E000018AB0
330
E0E0000189C8
100
AcDbEntity
  8
TAPA_6_M
  6
Continuous
 62
     7
 48
25.4
100
AcDbLine
 10
2.261792557033459
 20
-20.88590872959048
 30
0.0
 11
2.274013929729108
 21
-20.88590872959048
 31
0.0
  0
ARC
  5
E0E000018AB1
330
E0E0000189C8
100
AcDbEntity
  8
TAPA_6_M
  6
Continuous
 62
     7
 48
25.4
100
AcDbCircle
 10
2.800318280299052
 20
-20.88590872959048
 30
0.0
 40
0.5263043505507619
100
AcDbArc
 50
180.0
 51
270.0
  0
ARC
  5
E0E000018AB2
330
E0E0000189C8
100
AcDbEntity
  8
TAPA_6_M
  6
Continuous
 62
     7
 48
25.4
100
AcDbCircle
 10
2.800318280299052
 20
-20.88590872959048
 30
0.0
 40
0.5385257232443373
100
AcDbArc
 50
180.0
 51
270.0
  0
LINE
  5
E0E000018AB3
330
E0E0000189C8
100
AcDbEntity
  8
TAPA_6_M
  6
Continuous
 62
     7
 48
25.4
100
AcDbLine
 10
2.274013929729108
 20
1.776593587516345
 30
0.0
 11
2.274013929729108
 21
20.88590872959048
 31
0.0
  0
LINE
  5
E0E000018AB4
330
E0E0000189C8
100
AcDbEntity
  8
TAPA_6_M
  6
Continuous
 62
     7
 48
25.4
100
AcDbLine
 10
2.275196800771482
 20
-1.775410716451461
 30
0.0
 11
2.274013929729108
 21
-1.776593587516345
 31
0.0
  0
LINE
  5
E0E000018AB5
330
E0E0000189C8
100
AcDbEntity
  8
TAPA_6_M
  6
Continuous
 62
     7
 48
25.4
100
AcDbLine
 10
2.275196800771482
 20
1.775410716451461
 30
0.0
 11
2.274013929729108
 21
1.776593587516345
 31
0.0
  0
LINE
  5
E0E000018AB6
330
E0E0000189C8
100
AcDbEntity
  8
TAPA_6_M
  6
Continuous
 62
     7
 48
25.4
100
AcDbLine
 10
2.274013929729108
 20
1.776593587516345
 30
0.0
 11
2.275196800771482
 21
1.776593587516345
 31
0.0
  0
LINE
  5
E0E000018AB7
330
E0E0000189C8
100
AcDbEntity
  8
TAPA_6_M
  6
Continuous
 62
     7
 48
25.4
100
AcDbLine
 10
2.275196800771482
 20
-1.776593587516345
 30
0.0
 11
2.274013929729108
 21
-1.776593587516345
 31
0.0
  0
LINE
  5
E0E000018AB8
330
E0E0000189C8
100
AcDbEntity
  8
TAPA_6_M
  6
Continuous
 62
     7
 48
25.4
100
AcDbLine
 10
3.500809863441191
 20
-31.00717307626428
 30
0.0
 11
1.000079049477563
 21
-31.00717307626428
 31
0.0
  0
LINE
  5
E0E000018AB9
330
E0E0000189C8
100
AcDbEntity
  8
TAPA_6_M
  6
Continuous
 62
     7
 48
25.4
100
AcDbLine
 10
3.508041661060361
 20
-30.98971397244577
 30
0.0
 11
101.6405281342068
 21
-30.98971397244577
 31
0.0
  0
LINE
  5
E0E000018ABA
330
E0E0000189C8
100
AcDbEntity
  8
TAPA_6_M
  6
Continuous
 62
     7
 48
25.4
100
AcDbLine
 10
3.500809863441191
 20
-31.00717307626428
 30
0.0
 11
4.413166341453234
 21
-31.91952955429906
 31
0.0
  0
LINE
  5
E0E000018ABB
330
E0E0000189C8
100
AcDbEntity
  8
TAPA_6_M
  6
Continuous
 62
     7
 48
25.4
100
AcDbLine
 10
3.508041661060361
 20
-30.98971397244577
 30
0.0
 11
3.500809863441191
 21
-31.00717307626428
 31
0.0
  0
LINE
  5
E0E000018ABC
330
E0E0000189C8
100
AcDbEntity
  8
TAPA_6_M
  6
Continuous
 62
     7
 48
25.4
100
AcDbLine
 10
4.625315144726528
 20
-32.00740446585814
 30
0.0
 11
30.04336520714287
 21
-32.00740446585814
 31
0.0
  0
LINE
  5
E0E000018ABD
330
E0E0000189C8
100
AcDbEntity
  8
TAPA_6_M
  6
Continuous
 62
     7
 48
25.4
100
AcDbLine
 10
4.632546942322961
 20
-31.98994536199416
 30
0.0
 11
37.37817594542048
 21
-31.98994536199416
 31
0.0
  0
LINE
  5
E0E000018ABE
330
E0E0000189C8
100
AcDbEntity
  8
TAPA_6_M
  6
Continuous
 62
     7
 48
25.4
100
AcDbLine
 10
4.632546942322961
 20
-31.98994536199416
 30
0.0
 11
4.625315144726528
 21
-32.00740446585814
 31
0.0
  0
ELLIPSE
  5
E0E000018ABF
330
E0E0000189C8
100
AcDbEntity
  8
TAPA_6_M
  6
Continuous
 62
     7
 48
25.4
100
AcDbEllipse
 10
4.62535300841887
 20
-31.70728934000726
 30
0.0
 11
0.1148520873640777
 21
0.277277466981216
 31
0.0
210
0.0
220
0.0
230
1.0
 40
0.9998215707699756
 41
2.748956657798742
 42
3.53422864938072
  0
LINE
  5
E0E000018AC0
330
E0E0000189C8
100
AcDbEntity
  8
TAPA_6_M
  6
Continuous
 62
     7
 48
25.4
100
AcDbLine
 10
4.420398139049894
 20
-31.90207045043553
 30
0.0
 11
3.508041661060361
 21
-30.98971397244577
 31
0.0
  0
LINE
  5
E0E000018AC1
330
E0E0000189C8
100
AcDbEntity
  8
TAPA_6_M
  6
Continuous
 62
     7
 48
25.4
100
AcDbLine
 10
4.413166341453234
 20
-31.91952955429906
 30
0.0
 11
4.420398139049894
 21
-31.90207045043553
 31
0.0
  0
ELLIPSE
  5
E0E000018AC2
330
E0E0000189C8
100
AcDbEntity
  8
TAPA_6_M
  6
Continuous
 62
     7
 48
25.4
100
AcDbEllipse
 10
4.632584806015529
 20
-31.68983023614328
 30
0.0
 11
0.1148520873640777
 21
0.277277466981216
 31
0.0
210
0.0
220
0.0
230
1.0
 40
0.9998215707699756
 41
2.748956657798608
 42
3.53422864938109
  0
LINE
  5
E0E000018AC3
330
E0E0000189C8
100
AcDbEntity
  8
TAPA_6_M
  6
Continuous
 62
     7
 48
25.4
100
AcDbLine
 10
3.500809863441191
 20
31.00717307626473
 30
0.0
 11
1.000079049477563
 21
31.00717307626473
 31
0.0
  0
LINE
  5
E0E000018AC4
330
E0E0000189C8
100
AcDbEntity
  8
TAPA_6_M
  6
Continuous
 62
     7
 48
25.4
100
AcDbLine
 10
3.508041661060361
 20
30.98971397244622
 30
0.0
 11
3.500809863441191
 21
31.00717307626473
 31
0.0
  0
LINE
  5
E0E000018AC5
330
E0E0000189C8
100
AcDbEntity
  8
TAPA_6_M
  6
Continuous
 62
     7
 48
25.4
100
AcDbLine
 10
4.420398139049894
 20
31.90207045043553
 30
0.0
 11
3.508041661060361
 21
30.98971397244622
 31
0.0
  0
LINE
  5
E0E000018AC6
330
E0E0000189C8
100
AcDbEntity
  8
TAPA_6_M
  6
Continuous
 62
     7
 48
25.4
100
AcDbLine
 10
4.413166341453234
 20
31.91952955429952
 30
0.0
 11
3.500809863441191
 21
31.00717307626473
 31
0.0
  0
LINE
  5
E0E000018AC7
330
E0E0000189C8
100
AcDbEntity
  8
TAPA_6_M
  6
Continuous
 62
     7
 48
25.4
100
AcDbLine
 10
4.420398139049894
 20
31.90207045043553
 30
0.0
 11
4.413166341453234
 21
31.91952955429952
 31
0.0
  0
ELLIPSE
  5
E0E000018AC8
330
E0E0000189C8
100
AcDbEntity
  8
TAPA_6_M
  6
Continuous
 62
     7
 48
25.4
100
AcDbEllipse
 10
4.62535300841887
 20
31.70728934000726
 30
0.0
 11
0.1148520873640777
 21
-0.277277466981216
 31
0.0
210
0.0
220
0.0
230
1.0
 40
0.9998215707699756
 41
2.748956657798677
 42
3.534228649380907
  0
LINE
  5
E0E000018AC9
330
E0E0000189C8
100
AcDbEntity
  8
TAPA_6_M
  6
Continuous
 62
     7
 48
25.4
100
AcDbLine
 10
4.625315144726528
 20
32.00740446585814
 30
0.0
 11
4.632546942322961
 21
31.98994536199416
 31
0.0
  0
ELLIPSE
  5
E0E000018ACA
330
E0E0000189C8
100
AcDbEntity
  8
TAPA_6_M
  6
Continuous
 62
     7
 48
25.4
100
AcDbEllipse
 10
4.632584806015529
 20
31.68983023614328
 30
0.0
 11
0.1148520873640777
 21
-0.277277466981216
 31
0.0
210
0.0
220
0.0
230
1.0
 40
0.9998215707699756
 41
2.74895665779889
 42
3.534228649380725
  0
LINE
  5
E0E000018ACB
330
E0E0000189C8
100
AcDbEntity
  8
TAPA_6_M
  6
Continuous
 62
     7
 48
25.4
100
AcDbLine
 10
101.6405281342068
 20
30.98971397244622
 30
0.0
 11
3.508041661060361
 21
30.98971397244622
 31
0.0
  0
LINE
  5
E0E000018ACC
330
E0E0000189C8
100
AcDbEntity
  8
TAPA_6_M
  6
Continuous
 62
     7
 48
25.4
100
AcDbLine
 10
102.2239776232536
 20
-21.42443445283334
 30
0.0
 11
2.800318280299052
 21
-21.42443445283334
 31
0.0
  0
LINE
  5
E0E000018ACD
330
E0E0000189C8
100
AcDbEntity
  8
TAPA_6_M
  6
Continuous
 62
     7
 48
25.4
100
AcDbLine
 10
102.2239776232536
 20
-21.4122130801602
 30
0.0
 11
2.800318280299052
 21
-21.4122130801602
 31
0.0
  0
LINE
  5
E0E000018ACE
330
E0E0000189C8
100
AcDbEntity
  8
TAPA_6_M
  6
Continuous
 62
     7
 48
25.4
100
AcDbLine
 10
103.203334269856
 20
-22.86534442564789
 30
0.0
 11
1.820961633696697
 21
-22.86534442564789
 31
0.0
  0
LINE
  5
E0E000018ACF
330
E0E0000189C8
100
AcDbEntity
  8
TAPA_6_M
  6
Continuous
 62
     7
 48
25.4
100
AcDbLine
 10
103.360466204472
 20
-23.98824660883656
 30
0.0
 11
1.663829699080679
 21
-23.98824660883656
 31
0.0
  0
LINE
  5
E0E000018AD0
330
E0E0000189C8
100
AcDbEntity
  8
TAPA_6_M
  6
Continuous
 62
     7
 48
25.4
100
AcDbLine
 10
103.360466204472
 20
-30.34342242670664
 30
0.0
 11
1.663829699080679
 21
-30.34342242670664
 31
0.0
  0
LINE
  5
E0E000018AD1
330
E0E0000189C8
100
AcDbEntity
  8
TAPA_6_M
  6
Continuous
 62
     7
 48
25.4
100
AcDbLine
 10
103.203334269856
 20
21.86526537619284
 30
0.0
 11
1.820961633696697
 21
21.86526537619284
 31
0.0
  0
LINE
  5
E0E000018AD2
330
E0E0000189C8
100
AcDbEntity
  8
TAPA_6_M
  6
Continuous
 62
     7
 48
25.4
100
AcDbLine
 10
103.360466204472
 20
29.34334337720657
 30
0.0
 11
1.663829699080679
 21
29.34334337720657
 31
0.0
  0
LINE
  5
E0E000018AD3
330
E0E0000189C8
100
AcDbEntity
  8
TAPA_6_M
  6
Continuous
 62
     7
 48
25.4
100
AcDbLine
 10
103.3261574035446
 20
22.98816755933649
 30
0.0
 11
1.698138500008099
 21
22.98816755933649
 31
0.0
  0
LINE
  5
E0E000018AD4
330
E0E0000189C8
100
AcDbEntity
  8
TAPA_6_M
  6
Continuous
 62
     7
 48
25.4
100
AcDbLine
 10
103.360466204472
 20
30.34342242670709
 30
0.0
 11
104.0242168540749
 21
31.00717307626473
 31
0.0
  0
LINE
  5
E0E000018AD5
330
E0E0000189C8
100
AcDbEntity
  8
TAPA_6_M
  6
Continuous
 62
     7
 48
25.4
100
AcDbLine
 10
104.0242168540749
 20
31.00717307626473
 30
0.0
 11
101.6477599318259
 21
31.00717307626473
 31
0.0
  0
LINE
  5
E0E000018AD6
330
E0E0000189C8
100
AcDbEntity
  8
TAPA_6_M
  6
Continuous
 62
     7
 48
25.4
100
AcDbLine
 10
101.6477599318259
 20
31.00717307626473
 30
0.0
 11
101.6405281342068
 21
30.98971397244622
 31
0.0
  0
LINE
  5
E0E000018AD7
330
E0E0000189C8
100
AcDbEntity
  8
TAPA_6_M
  6
Continuous
 62
     7
 48
25.4
100
AcDbLine
 10
101.6405281342068
 20
-30.98971397244577
 30
0.0
 11
101.6477599318259
 21
-31.00717307626428
 31
0.0
  0
LINE
  5
E0E000018AD8
330
E0E0000189C8
100
AcDbEntity
  8
TAPA_6_M
  6
Continuous
 62
     7
 48
25.4
100
AcDbLine
 10
104.0242168540749
 20
-31.00717307626428
 30
0.0
 11
103.360466204472
 21
-30.34342242670664
 31
0.0
  0
ARC
  5
E0E000018AD9
330
E0E0000189C8
100
AcDbEntity
  8
TAPA_6_M
  6
Continuous
 62
     7
 48
25.4
100
AcDbCircle
 10
102.2239776232536
 20
-20.88590872959048
 30
0.0
 40
0.5263043505507549
100
AcDbArc
 50
270.0
 51
0.0
  0
LINE
  5
E0E000018ADA
330
E0E0000189C8
100
AcDbEntity
  8
TAPA_6_M
  6
Continuous
 62
     7
 48
25.4
100
AcDbLine
 10
102.7502819738008
 20
-1.776593587516345
 30
0.0
 11
102.7490991027812
 21
-1.776593587516345
 31
0.0
  0
LINE
  5
E0E000018ADB
330
E0E0000189C8
100
AcDbEntity
  8
TAPA_6_M
  6
Continuous
 62
     7
 48
25.4
100
AcDbLine
 10
102.7490991027812
 20
1.776593587516345
 30
0.0
 11
102.7502819738008
 21
1.776593587516345
 31
0.0
  0
ARC
  5
E0E000018ADC
330
E0E0000189C8
100
AcDbEntity
  8
TAPA_6_M
  6
Continuous
 62
     7
 48
25.4
100
AcDbCircle
 10
102.2239776232536
 20
20.88590872959048
 30
0.0
 40
0.5263043505507619
100
AcDbArc
 50
0.0
 51
90.0
  0
LINE
  5
E0E000018ADD
330
E0E0000189C8
100
AcDbEntity
  8
TAPA_6_M
  6
Continuous
 62
     7
 48
25.4
100
AcDbLine
 10
103.360466204472
 20
29.34334337720657
 30
0.0
 11
103.360466204472
 21
30.34342242670709
 31
0.0
  0
LINE
  5
E0E000018ADE
330
E0E0000189C8
100
AcDbEntity
  8
TAPA_6_M
  6
Continuous
 62
     7
 48
25.4
100
AcDbLine
 10
103.203334269856
 20
22.86534442564789
 30
0.0
 11
103.3261574035446
 21
22.98816755933649
 31
0.0
  0
ELLIPSE
  5
E0E000018ADF
330
E0E0000189C8
100
AcDbEntity
  8
TAPA_6_M
  6
Continuous
 62
     7
 48
25.4
100
AcDbEllipse
 10
103.3255479967897
 20
23.98824660883656
 30
0.0
 11
0.0
 21
-1.000231389557609
 31
0.0
210
0.0
220
0.0
230
1.0
 40
0.0349101298564305
 41
0.0174532925208703
 42
1.570796326794897
  0
LINE
  5
E0E000018AE0
330
E0E0000189C8
100
AcDbEntity
  8
TAPA_6_M
  6
Continuous
 62
     7
 48
25.4
100
AcDbLine
 10
103.360466204472
 20
23.98824660883656
 30
0.0
 11
103.360466204472
 21
29.34334337720657
 31
0.0
  0
LINE
  5
E0E000018AE1
330
E0E0000189C8
100
AcDbEntity
  8
TAPA_6_M
  6
Continuous
 62
     7
 48
25.4
100
AcDbLine
 10
103.360466204472
 20
29.34334337720657
 30
0.0
 11
104.3605452539496
 21
29.34334337720657
 31
0.0
  0
LINE
  5
E0E000018AE2
330
E0E0000189C8
100
AcDbEntity
  8
TAPA_6_M
  6
Continuous
 62
     7
 48
25.4
100
AcDbLine
 10
103.203334269856
 20
21.86526537619284
 30
0.0
 11
103.203334269856
 21
22.86534442564789
 31
0.0
  0
LINE
  5
E0E000018AE3
330
E0E0000189C8
100
AcDbEntity
  8
TAPA_6_M
  6
Continuous
 62
     7
 48
25.4
100
AcDbLine
 10
104.9570783537381
 20
5.15119165621627
 30
0.0
 11
104.8775551036131
 21
5.15119165621627
 31
0.0
  0
LINE
  5
E0E000018AE4
330
E0E0000189C8
100
AcDbEntity
  8
TAPA_6_M
  6
Continuous
 62
     7
 48
25.4
100
AcDbLine
 10
104.8775551036131
 20
5.15119165621627
 30
0.0
 11
104.8775551036131
 21
-5.151191656215815
 31
0.0
  0
LINE
  5
E0E000018AE5
330
E0E0000189C8
100
AcDbEntity
  8
TAPA_6_M
  6
Continuous
 62
     7
 48
25.4
100
AcDbLine
 10
104.8775551036131
 20
-5.151191656215815
 30
0.0
 11
104.9570783537381
 21
-5.151191656215815
 31
0.0
  0
LINE
  5
E0E000018AE6
330
E0E0000189C8
100
AcDbEntity
  8
TAPA_6_M
  6
Continuous
 62
     7
 48
25.4
100
AcDbLine
 10
104.9570783537381
 20
-5.151191656215815
 30
0.0
 11
104.9570783537381
 21
5.15119165621627
 31
0.0
  0
ELLIPSE
  5
E0E000018AE7
330
E0E0000189C8
100
AcDbEntity
  8
TAPA_6_M
  6
Continuous
 62
     7
 48
25.4
100
AcDbEllipse
 10
103.203334269856
 20
21.86526537619284
 30
0.0
 11
-0.7072703989719367
 21
0.707270397651326
 31
0.0
210
0.0
220
0.0
230
1.0
 40
0.9996954598824608
 41
3.927143109300934
 42
5.497634849601224
  0
ELLIPSE
  5
E0E000018AE8
330
E0E0000189C8
100
AcDbEntity
  8
TAPA_6_M
  6
Continuous
 62
     7
 48
25.4
100
AcDbEllipse
 10
103.3261574035446
 20
21.98808850988144
 30
0.0
 11
-0.7072703982083219
 21
0.707270398415399
 31
0.0
210
0.0
220
0.0
230
1.0
 40
0.9996954598817958
 41
3.927143110381315
 42
5.4976348506809
  0
LINE
  5
E0E000018AE9
330
E0E0000189C8
100
AcDbEntity
  8
TAPA_6_M
  6
Continuous
 62
     7
 48
25.4
100
AcDbLine
 10
103.360466204472
 20
23.98824660883656
 30
0.0
 11
104.3605452539496
 21
23.98824660883656
 31
0.0
  0
ELLIPSE
  5
E0E000018AEA
330
E0E0000189C8
100
AcDbEntity
  8
TAPA_6_M
  6
Continuous
 62
     7
 48
25.4
100
AcDbEllipse
 10
103.360466204472
 20
29.34334337720657
 30
0.0
 11
-0.7072703978065431
 21
0.7072703988174163
 31
0.0
210
0.0
220
0.0
230
0.9999999999999998
 40
0.9996954598814639
 41
3.927143110949663
 42
5.497634851248939
  0
ELLIPSE
  5
E0E000018AEB
330
E0E0000189C8
100
AcDbEntity
  8
TAPA_6_M
  6
Continuous
 62
     7
 48
25.4
100
AcDbEllipse
 10
101.6477977954958
 20
31.30728820216063
 30
0.0
 11
0.1148520873641022
 21
0.2772774669812057
 31
0.0
210
0.0
220
0.0
230
0.9999999999999998
 40
0.9998215707699756
 41
2.748956657798657
 42
3.534228649381226
  0
ELLIPSE
  5
E0E000018AEC
330
E0E0000189C8
100
AcDbEntity
  8
TAPA_6_M
  6
Continuous
 62
     7
 48
25.4
100
AcDbEllipse
 10
104.0239121507088
 20
30.00678932344363
 30
0.0
 11
-0.7074858561380454
 21
-0.7074858561379934
 31
0.0
210
0.0
220
0.0
230
0.9999999999999998
 40
0.999695459881887
 41
2.356346783439955
 42
3.926838523739677
  0
LINE
  5
E0E000018AED
330
E0E0000189C8
100
AcDbEntity
  8
TAPA_6_M
  6
Continuous
 62
     7
 48
25.4
100
AcDbLine
 10
105.0242959035527
 20
30.00709402680968
 30
0.0
 11
105.0242959035527
 21
-30.00709402680968
 31
0.0
  0
ELLIPSE
  5
E0E000018AEE
330
E0E0000189C8
100
AcDbEntity
  8
TAPA_6_M
  6
Continuous
 62
     7
 48
25.4
100
AcDbEllipse
 10
104.0239121507088
 20
-30.00678932344317
 30
0.0
 11
-0.7074858561380454
 21
0.7074858561379934
 31
0.0
210
0.0
220
0.0
230
0.9999999999999998
 40
0.999695459881887
 41
2.356346783439852
 42
3.926838523739632
  0
LINE
  5
E0E000018AEF
330
E0E0000189C8
100
AcDbEntity
  8
TAPA_6_M
  6
Continuous
 62
     7
 48
25.4
100
AcDbLine
 10
104.0242168540749
 20
-31.00717307626428
 30
0.0
 11
101.6477599318259
 21
-31.00717307626428
 31
0.0
  0
ELLIPSE
  5
E0E000018AF0
330
E0E0000189C8
100
AcDbEntity
  8
TAPA_6_M
  6
Continuous
 62
     7
 48
25.4
100
AcDbEllipse
 10
101.6477977954958
 20
-31.30728820216063
 30
0.0
 11
0.1148520873641022
 21
-0.2772774669812057
 31
0.0
210
0.0
220
0.0
230
0.9999999999999998
 40
0.9998215707699756
 41
2.748956657798494
 42
3.534228649380795
  0
LINE
  5
E0E000018AF1
330
E0E0000189C8
100
AcDbEntity
  8
TAPA_6_M
  6
Continuous
 62
     7
 48
25.4
100
AcDbLine
 10
103.203334269856
 20
-21.86526537619284
 30
0.0
 11
103.203334269856
 21
21.86526537619284
 31
0.0
  0
ARC
  5
E0E000018AF2
330
E0E0000189C8
100
AcDbEntity
  8
TAPA_6_M
  6
Continuous
 62
     7
 48
25.4
100
AcDbCircle
 10
102.2239776232536
 20
20.88590872959048
 30
0.0
 40
0.5385257232443373
100
AcDbArc
 50
0.0
 51
90.0
  0
LINE
  5
E0E000018AF3
330
E0E0000189C8
100
AcDbEntity
  8
TAPA_6_M
  6
Continuous
 62
     7
 48
25.4
100
AcDbLine
 10
102.7625033464965
 20
20.88590872959048
 30
0.0
 11
102.7625033464965
 21
-20.88590872959048
 31
0.0
  0
ARC
  5
E0E000018AF4
330
E0E0000189C8
100
AcDbEntity
  8
TAPA_6_M
  6
Continuous
 62
     7
 48
25.4
100
AcDbCircle
 10
102.2239776232536
 20
-20.88590872959048
 30
0.0
 40
0.5385257232443373
100
AcDbArc
 50
270.0
 51
0.0
  0
LINE
  5
E0E000018AF5
330
E0E0000189C8
100
AcDbEntity
  8
TAPA_6_M
  6
Continuous
 62
     7
 48
25.4
100
AcDbLine
 10
102.2239776232536
 20
21.4122130801602
 30
0.0
 11
102.2239776232536
 21
21.42443445283334
 31
0.0
  0
LINE
  5
E0E000018AF6
330
E0E0000189C8
100
AcDbEntity
  8
TAPA_6_M
  6
Continuous
 62
     7
 48
25.4
100
AcDbLine
 10
102.7502819738008
 20
20.88590872959048
 30
0.0
 11
102.7502819738008
 21
1.776593587516345
 31
0.0
  0
LINE
  5
E0E000018AF7
330
E0E0000189C8
100
AcDbEntity
  8
TAPA_6_M
  6
Continuous
 62
     7
 48
25.4
100
AcDbLine
 10
102.7490991027812
 20
-1.775410716451461
 30
0.0
 11
102.7502819738008
 21
-1.776593587516345
 31
0.0
  0
LINE
  5
E0E000018AF8
330
E0E0000189C8
100
AcDbEntity
  8
TAPA_6_M
  6
Continuous
 62
     7
 48
25.4
100
AcDbLine
 10
102.7502819738008
 20
-1.776593587516345
 30
0.0
 11
102.7502819738008
 21
-20.88590872959048
 31
0.0
  0
LINE
  5
E0E000018AF9
330
E0E0000189C8
100
AcDbEntity
  8
TAPA_6_M
  6
Continuous
 62
     7
 48
25.4
100
AcDbLine
 10
102.7502819738008
 20
-20.88590872959048
 30
0.0
 11
102.7625033464965
 21
-20.88590872959048
 31
0.0
  0
LINE
  5
E0E000018AFA
330
E0E0000189C8
100
AcDbEntity
  8
TAPA_6_M
  6
Continuous
 62
     7
 48
25.4
100
AcDbLine
 10
102.7625033464965
 20
20.88590872959048
 30
0.0
 11
102.7502819738008
 21
20.88590872959048
 31
0.0
  0
LINE
  5
E0E000018AFB
330
E0E0000189C8
100
AcDbEntity
  8
TAPA_6_M
  6
Continuous
 62
     7
 48
25.4
100
AcDbLine
 10
103.203334269856
 20
21.86526537619284
 30
0.0
 11
104.203413319311
 21
21.86526537619284
 31
0.0
  0
LINE
  5
E0E000018AFC
330
E0E0000189C8
100
AcDbEntity
  8
TAPA_6_M
  6
Continuous
 62
     7
 48
25.4
100
AcDbLine
 10
104.3605452539496
 20
-29.34334337720657
 30
0.0
 11
105.0242959035527
 21
-30.00709402680968
 31
0.0
  0
LINE
  5
E0E000018AFD
330
E0E0000189C8
100
AcDbEntity
  8
TAPA_6_M
  6
Continuous
 62
     7
 48
25.4
100
AcDbLine
 10
105.0242959035527
 20
30.00709402680968
 30
0.0
 11
104.3605452539496
 21
29.34334337720657
 31
0.0
  0
LINE
  5
E0E000018AFE
330
E0E0000189C8
100
AcDbEntity
  8
TAPA_6_M
  6
Continuous
 62
     7
 48
25.4
100
AcDbLine
 10
104.3605452539496
 20
29.34334337720657
 30
0.0
 11
104.3605452539496
 21
23.98824660883656
 31
0.0
  0
ELLIPSE
  5
E0E000018AFF
330
E0E0000189C8
100
AcDbEntity
  8
TAPA_6_M
  6
Continuous
 62
     7
 48
25.4
100
AcDbEllipse
 10
104.3256270462446
 20
23.98824660883656
 30
0.0
 11
0.0
 21
-2.000462779115218
 31
0.0
210
0.0
220
0.0
230
1.0
 40
0.0174550649282187
 41
0.0174532925200561
 42
1.570796326794897
  0
LINE
  5
E0E000018B00
330
E0E0000189C8
100
AcDbEntity
  8
TAPA_6_M
  6
Continuous
 62
     7
 48
25.4
100
AcDbLine
 10
104.3262364529996
 20
21.98808850988144
 30
0.0
 11
104.203413319311
 21
21.86526537619284
 31
0.0
  0
LINE
  5
E0E000018B01
330
E0E0000189C8
100
AcDbEntity
  8
TAPA_6_M
  6
Continuous
 62
     7
 48
25.4
100
AcDbLine
 10
104.203413319311
 20
21.86526537619284
 30
0.0
 11
104.203413319311
 21
-21.86526537619284
 31
0.0
  0
LINE
  5
E0E000018B02
330
E0E0000189C8
100
AcDbEntity
  8
TAPA_6_M
  6
Continuous
 62
     7
 48
25.4
100
AcDbLine
 10
104.203413319311
 20
-21.86526537619284
 30
0.0
 11
104.3262364529996
 21
-21.98808850988144
 31
0.0
  0
ELLIPSE
  5
E0E000018B03
330
E0E0000189C8
100
AcDbEntity
  8
TAPA_6_M
  6
Continuous
 62
     7
 48
25.4
100
AcDbEllipse
 10
104.3256270462446
 20
-23.98824660883656
 30
0.0
 11
-6.940499491497943E-15
 21
2.000462779115218
 31
0.0
210
0.0
220
0.0
230
1.0
 40
0.0174550649282152
 41
4.71238898038469
 42
6.26573201465953
  0
LINE
  5
E0E000018B04
330
E0E0000189C8
100
AcDbEntity
  8
TAPA_6_M
  6
Continuous
 62
     7
 48
25.4
100
AcDbLine
 10
104.3605452539496
 20
-23.98824660883656
 30
0.0
 11
104.3605452539496
 21
-29.34334337720657
 31
0.0
  0
LINE
  5
E0E000018B05
330
E0E0000189C8
100
AcDbEntity
  8
TAPA_6_M
  6
Continuous
 62
     7
 48
25.4
100
AcDbLine
 10
103.203334269856
 20
-21.86526537619284
 30
0.0
 11
104.203413319311
 21
-21.86526537619284
 31
0.0
  0
LINE
  5
E0E000018B06
330
E0E0000189C8
100
AcDbEntity
  8
TAPA_6_M
  6
Continuous
 62
     7
 48
25.4
100
AcDbLine
 10
103.360466204472
 20
-30.34342242670664
 30
0.0
 11
103.360466204472
 21
-29.34334337720657
 31
0.0
  0
ELLIPSE
  5
E0E000018B07
330
E0E0000189C8
100
AcDbEntity
  8
TAPA_6_M
  6
Continuous
 62
     7
 48
25.4
100
AcDbEllipse
 10
103.360466204472
 20
-29.34334337720657
 30
0.0
 11
-0.7072703978065431
 21
-0.7072703988174163
 31
0.0
210
0.0
220
0.0
230
0.9999999999999998
 40
0.9996954598814639
 41
0.785550455930591
 42
2.356042196229923
  0
LINE
  5
E0E000018B08
330
E0E0000189C8
100
AcDbEntity
  8
TAPA_6_M
  6
Continuous
 62
     7
 48
25.4
100
AcDbLine
 10
103.3261574035446
 20
-22.98816755933603
 30
0.0
 11
103.203334269856
 21
-22.86534442564789
 31
0.0
  0
ELLIPSE
  5
E0E000018B09
330
E0E0000189C8
100
AcDbEntity
  8
TAPA_6_M
  6
Continuous
 62
     7
 48
25.4
100
AcDbEllipse
 10
103.3255479967897
 20
-23.98824660883656
 30
0.0
 11
0.0
 21
1.000231389557609
 31
0.0
210
0.0
220
0.0
230
1.0
 40
0.0349101298564302
 41
4.71238898038469
 42
6.265732014658716
  0
LINE
  5
E0E000018B0A
330
E0E0000189C8
100
AcDbEntity
  8
TAPA_6_M
  6
Continuous
 62
     7
 48
25.4
100
AcDbLine
 10
103.360466204472
 20
-29.34334337720657
 30
0.0
 11
103.360466204472
 21
-23.98824660883656
 31
0.0
  0
LINE
  5
E0E000018B0B
330
E0E0000189C8
100
AcDbEntity
  8
TAPA_6_M
  6
Continuous
 62
     7
 48
25.4
100
AcDbLine
 10
103.360466204472
 20
-29.34334337720657
 30
0.0
 11
104.3605452539496
 21
-29.34334337720657
 31
0.0
  0
LINE
  5
E0E000018B0C
330
E0E0000189C8
100
AcDbEntity
  8
TAPA_6_M
  6
Continuous
 62
     7
 48
25.4
100
AcDbLine
 10
103.360466204472
 20
-23.98824660883656
 30
0.0
 11
104.3605452539496
 21
-23.98824660883656
 31
0.0
  0
ELLIPSE
  5
E0E000018B0D
330
E0E0000189C8
100
AcDbEntity
  8
TAPA_6_M
  6
Continuous
 62
     7
 48
25.4
100
AcDbEllipse
 10
103.3261574035446
 20
-21.98808850988144
 30
0.0
 11
-0.7072703982083219
 21
-0.707270398415399
 31
0.0
210
0.0
220
0.0
230
1.0
 40
0.9996954598817958
 41
0.7855504564986578
 42
2.356042196798356
  0
LINE
  5
E0E000018B0E
330
E0E0000189C8
100
AcDbEntity
  8
TAPA_6_M
  6
Continuous
 62
     7
 48
25.4
100
AcDbLine
 10
103.203334269856
 20
-22.86534442564789
 30
0.0
 11
103.203334269856
 21
-21.86526537619284
 31
0.0
  0
ELLIPSE
  5
E0E000018B0F
330
E0E0000189C8
100
AcDbEntity
  8
TAPA_6_M
  6
Continuous
 62
     7
 48
25.4
100
AcDbEllipse
 10
103.203334269856
 20
-21.86526537619284
 30
0.0
 11
-0.7072703982083219
 21
-0.707270398415399
 31
0.0
210
0.0
220
0.0
230
1.0
 40
0.9996954598817958
 41
0.7855504564986578
 42
2.356042196798328
  0
LINE
  5
E0E000018B10
330
E0E0000189C8
100
AcDbEntity
  8
TAPA_6_M
  6
Continuous
 62
     7
 48
25.4
100
AcDbLine
 10
102.2239776232536
 20
-21.42443445283334
 30
0.0
 11
102.2239776232536
 21
-21.4122130801602
 31
0.0
  0
LINE
  5
E0E000018B11
330
E0E0000189C8
100
AcDbEntity
  8
TAPA_6_M
  6
Continuous
 62
     7
 48
25.4
100
AcDbLine
 10
102.7490991027812
 20
1.775410716451461
 30
0.0
 11
102.7502819738008
 21
1.776593587516345
 31
0.0
  0
LINE
  5
E0E000018B12
330
E0E0000189C8
100
AcDbEntity
  8
TAPA_6_M
  6
Continuous
 62
     7
 48
25.4
100
AcDbLine
 10
100.9617202795578
 20
-31.56893883681823
 30
0.0
 11
101.4356111285301
 21
-31.09504798786838
 31
0.0
  0
LINE
  5
E0E000018B13
330
E0E0000189C8
100
AcDbEntity
  8
TAPA_6_M
  6
Continuous
 62
     7
 48
25.4
100
AcDbLine
 10
101.4356111285301
 20
-31.09504798786838
 30
0.0
 11
101.4283793309335
 21
-31.07758888400485
 31
0.0
  0
LINE
  5
E0E000018B14
330
E0E0000189C8
100
AcDbEntity
  8
TAPA_6_M
  6
Continuous
 62
     7
 48
25.4
100
AcDbLine
 10
100.9370293781201
 20
-31.56893883681823
 30
0.0
 11
101.4283793309335
 21
-31.07758888400485
 31
0.0
  0
ELLIPSE
  5
E0E000018B15
330
E0E0000189C8
100
AcDbEntity
  8
TAPA_6_M
  6
Continuous
 62
     7
 48
25.4
100
AcDbEllipse
 10
101.6405659978991
 20
-31.28982909829665
 30
0.0
 11
0.1148520873641022
 21
-0.2772774669812057
 31
0.0
210
0.0
220
0.0
230
0.9999999999999998
 40
0.9998215707699756
 41
2.74895665779855
 42
3.534228649380527
  0
ELLIPSE
  5
E0E000018B16
330
E0E0000189C8
100
AcDbEntity
  8
TAPA_6_M
  6
Continuous
 62
     7
 48
25.4
100
AcDbEllipse
 10
101.6405659978991
 20
31.2898290982971
 30
0.0
 11
0.1148520873641022
 21
0.2772774669812057
 31
0.0
210
0.0
220
0.0
230
0.9999999999999998
 40
0.9998215707699756
 41
2.74895665779883
 42
3.534228649381037
  0
LINE
  5
E0E000018B17
330
E0E0000189C8
100
AcDbEntity
  8
TAPA_6_M
  6
Continuous
 62
     7
 48
25.4
100
AcDbLine
 10
101.4283793309335
 20
31.07758888400485
 30
0.0
 11
100.6038977645028
 21
31.90207045043553
 31
0.0
  0
LINE
  5
E0E000018B18
330
E0E0000189C8
100
AcDbEntity
  8
TAPA_6_M
  6
Continuous
 62
     7
 48
25.4
100
AcDbLine
 10
101.4356111285301
 20
31.09504798786884
 30
0.0
 11
100.6111295620994
 21
31.91952955429952
 31
0.0
  0
LINE
  5
E0E000018B19
330
E0E0000189C8
100
AcDbEntity
  8
TAPA_6_M
  6
Continuous
 62
     7
 48
25.4
100
AcDbLine
 10
101.4283793309335
 20
31.07758888400485
 30
0.0
 11
101.4356111285301
 21
31.09504798786884
 31
0.0
  0
ARC
  5
E0E000018B1A
330
E0E0000189C8
100
AcDbEntity
  8
TAPÓN
  6
Continuous
 62
     7
 48
25.4
100
AcDbCircle
 10
3.30043397507302
 20
0.0
 30
0.0
 40
2.775642106022363
100
AcDbArc
 50
270.0
 51
329.3853915130973
  0
LINE
  5
E0E000018B1B
330
E0E0000189C8
100
AcDbEntity
  8
TAPÓN
  6
Continuous
 62
     7
 48
25.4
100
AcDbLine
 10
2.275196800771482
 20
-2.775642105999395
 30
0.0
 11
3.30043397507302
 21
-2.775642105999395
 31
0.0
  0
LINE
  5
E0E000018B1C
330
E0E0000189C8
100
AcDbEntity
  8
TAPÓN
  6
Continuous
 62
     7
 48
25.4
100
AcDbLine
 10
2.275196800771482
 20
2.77564210604487
 30
0.0
 11
2.275196800771482
 21
-2.775642105999395
 31
0.0
  0
LINE
  5
E0E000018B1D
330
E0E0000189C8
100
AcDbEntity
  8
TAPÓN
  6
Continuous
 62
     7
 48
25.4
100
AcDbLine
 10
3.30043397507302
 20
2.77564210604487
 30
0.0
 11
2.275196800771482
 21
2.77564210604487
 31
0.0
  0
ARC
  5
E0E000018B1E
330
E0E0000189C8
100
AcDbEntity
  8
TAPÓN
  6
Continuous
 62
     7
 48
25.4
100
AcDbCircle
 10
3.30043397507302
 20
0.0
 30
0.0
 40
2.775642106022362
100
AcDbArc
 50
30.61460848690267
 51
90.0
  0
ARC
  5
E0E000018B1F
330
E0E0000189C8
100
AcDbEntity
  8
TAPÓN
  6
Continuous
 62
     7
 48
25.4
100
AcDbCircle
 10
3.30043397507302
 20
0.0
 30
0.0
 40
2.76691255409838
100
AcDbArc
 50
329.9929025707473
 51
30.00709742925272
  0
ARC
  5
E0E000018B20
330
E0E0000189C8
100
AcDbEntity
  8
TAPÓN
  6
Continuous
 62
     7
 48
25.4
100
AcDbCircle
 10
2.37900911820725
 20
0.5868292281425056
 30
0.0
 40
3.411846245227118
100
AcDbArc
 50
13.50767110696759
 51
14.0224373114004
  0
ARC
  5
E0E000018B21
330
E0E0000189C8
100
AcDbEntity
  8
TAPÓN
  6
Continuous
 62
     7
 48
25.4
100
AcDbCircle
 10
2.379009118229988
 20
-0.5868292281425056
 30
0.0
 40
3.41184627830787
100
AcDbArc
 50
345.9775626885996
 51
346.4923288930324
  0
LINE
  5
E0E000018B22
330
E0E0000189C8
100
AcDbEntity
  8
TAPÓN
  6
Continuous
 62
     7
 48
25.4
100
AcDbLine
 10
2.587533299318011
 20
2.463305607475831
 30
0.0
 11
2.587533299318011
 21
-2.463305607475831
 31
0.0
  0
LINE
  5
E0E000018B23
330
E0E0000189C8
100
AcDbEntity
  8
TAPÓN
  6
Continuous
 62
     7
 48
25.4
100
AcDbLine
 10
3.30043397507302
 20
2.463305607475831
 30
0.0
 11
2.587533299318011
 21
2.463305607475831
 31
0.0
  0
LINE
  5
E0E000018B24
330
E0E0000189C8
100
AcDbEntity
  8
TAPÓN
  6
Continuous
 62
     7
 48
25.4
100
AcDbLine
 10
2.587533299318011
 20
-2.463305607475831
 30
0.0
 11
3.30043397507302
 21
-2.463305607475831
 31
0.0
  0
ARC
  5
E0E000018B25
330
E0E0000189C8
100
AcDbEntity
  8
TAPÓN
  6
Continuous
 62
     7
 48
25.4
100
AcDbCircle
 10
3.30043397507302
 20
0.0
 30
0.0
 40
2.463305607474195
100
AcDbArc
 50
270.0
 51
90.0
  0
LINE
  5
E0E000018B26
330
E0E0000189C8
100
AcDbEntity
  8
TAPÓN
  6
Continuous
 62
     7
 48
25.4
100
AcDbLine
 10
3.30043397507302
 20
2.763329322330264
 30
0.0
 11
3.30043397507302
 21
2.77564210604487
 31
0.0
  0
LINE
  5
E0E000018B27
330
E0E0000189C8
100
AcDbEntity
  8
TAPÓN
  6
Continuous
 62
     7
 48
25.4
100
AcDbLine
 10
3.30043397507302
 20
-2.763329322330264
 30
0.0
 11
3.30043397507302
 21
-2.775642105999395
 31
0.0
  0
ARC
  5
E0E000018B28
330
E0E0000189C8
100
AcDbEntity
  8
TAPÓN
  6
Continuous
 62
     7
 48
25.4
100
AcDbCircle
 10
3.30043397507302
 20
0.0
 30
0.0
 40
2.763329322315871
100
AcDbArc
 50
270.0
 51
90.0
  0
LINE
  5
E0E000018B29
330
E0E0000189C8
100
AcDbEntity
  8
TAPÓN
  6
Continuous
 62
     7
 48
25.4
100
AcDbLine
 10
2.287509584486088
 20
-2.763329322330264
 30
0.0
 11
2.275196800771482
 21
-2.775642105999395
 31
0.0
  0
LINE
  5
E0E000018B2A
330
E0E0000189C8
100
AcDbEntity
  8
TAPÓN
  6
Continuous
 62
     7
 48
25.4
100
AcDbLine
 10
3.30043397507302
 20
-2.763329322330264
 30
0.0
 11
2.287509584486088
 21
-2.763329322330264
 31
0.0
  0
LINE
  5
E0E000018B2B
330
E0E0000189C8
100
AcDbEntity
  8
TAPÓN
  6
Continuous
 62
     7
 48
25.4
100
AcDbLine
 10
2.287509584486088
 20
2.763329322330264
 30
0.0
 11
2.275196800771482
 21
2.77564210604487
 31
0.0
  0
LINE
  5
E0E000018B2C
330
E0E0000189C8
100
AcDbEntity
  8
TAPÓN
  6
Continuous
 62
     7
 48
25.4
100
AcDbLine
 10
2.287509584486088
 20
2.763329322330264
 30
0.0
 11
3.30043397507302
 21
2.763329322330264
 31
0.0
  0
LINE
  5
E0E000018B2D
330
E0E0000189C8
100
AcDbEntity
  8
TAPÓN
  6
Continuous
 62
     7
 48
25.4
100
AcDbLine
 10
2.287509584486088
 20
-2.763329322330264
 30
0.0
 11
2.287509584486088
 21
2.763329322330264
 31
0.0
  0
LINE
  5
E0E000018B2E
330
E0E0000189C8
100
AcDbEntity
  8
TAPÓN
  6
Continuous
 62
     7
 48
25.4
100
AcDbLine
 10
2.587533299318011
 20
-2.463305607475831
 30
0.0
 11
2.287509584486088
 21
-2.763329322330264
 31
0.0
  0
LINE
  5
E0E000018B2F
330
E0E0000189C8
100
AcDbEntity
  8
TAPÓN
  6
Continuous
 62
     7
 48
25.4
100
AcDbLine
 10
2.287509584486088
 20
2.763329322330264
 30
0.0
 11
2.587533299318011
 21
2.463305607475831
 31
0.0
  0
LINE
  5
E0E000018B30
330
E0E0000189C8
100
AcDbEntity
  8
TAPÓN
  6
Continuous
 62
     7
 48
25.4
100
AcDbLine
 10
3.30043397507302
 20
-2.463305607475831
 30
0.0
 11
3.30043397507302
 21
-2.763329322330264
 31
0.0
  0
LINE
  5
E0E000018B31
330
E0E0000189C8
100
AcDbEntity
  8
TAPÓN
  6
Continuous
 62
     7
 48
25.4
100
AcDbLine
 10
3.30043397507302
 20
2.763329322330264
 30
0.0
 11
3.30043397507302
 21
2.463305607475831
 31
0.0
  0
ARC
  5
E0E000018B32
330
E0E0000189C8
100
AcDbEntity
  8
TAPÓN
  6
Continuous
 62
     7
 48
25.4
100
AcDbCircle
 10
101.7238619284794
 20
0.0
 30
0.0
 40
2.775642106022362
100
AcDbArc
 50
90.0
 51
149.3853915130973
  0
LINE
  5
E0E000018B33
330
E0E0000189C8
100
AcDbEntity
  8
TAPÓN
  6
Continuous
 62
     7
 48
25.4
100
AcDbLine
 10
102.7490991027812
 20
2.77564210604487
 30
0.0
 11
101.7238619284794
 21
2.77564210604487
 31
0.0
  0
LINE
  5
E0E000018B34
330
E0E0000189C8
100
AcDbEntity
  8
TAPÓN
  6
Continuous
 62
     7
 48
25.4
100
AcDbLine
 10
102.7490991027812
 20
-2.775642105999395
 30
0.0
 11
102.7490991027812
 21
2.77564210604487
 31
0.0
  0
LINE
  5
E0E000018B35
330
E0E0000189C8
100
AcDbEntity
  8
TAPÓN
  6
Continuous
 62
     7
 48
25.4
100
AcDbLine
 10
101.7238619284794
 20
-2.775642105999395
 30
0.0
 11
102.7490991027812
 21
-2.775642105999395
 31
0.0
  0
ARC
  5
E0E000018B36
330
E0E0000189C8
100
AcDbEntity
  8
TAPÓN
  6
Continuous
 62
     7
 48
25.4
100
AcDbCircle
 10
101.7238619284794
 20
0.0
 30
0.0
 40
2.775642106022362
100
AcDbArc
 50
210.6146084869027
 51
270.0
  0
ARC
  5
E0E000018B37
330
E0E0000189C8
100
AcDbEntity
  8
TAPÓN
  6
Continuous
 62
     7
 48
25.4
100
AcDbCircle
 10
101.7238619284794
 20
0.0
 30
0.0
 40
2.76691255409838
100
AcDbArc
 50
149.9929025707473
 51
210.0070974292527
  0
ARC
  5
E0E000018B38
330
E0E0000189C8
100
AcDbEntity
  8
TAPÓN
  6
Continuous
 62
     7
 48
25.4
100
AcDbCircle
 10
102.6452867853454
 20
-0.5868292281425056
 30
0.0
 40
3.411846245226551
100
AcDbArc
 50
193.5076711069676
 51
194.0224373114004
  0
ARC
  5
E0E000018B39
330
E0E0000189C8
100
AcDbEntity
  8
TAPÓN
  6
Continuous
 62
     7
 48
25.4
100
AcDbCircle
 10
102.645286785232
 20
0.5868292281425056
 30
0.0
 40
3.411846278227106
100
AcDbArc
 50
165.9775626885996
 51
166.4923288930324
  0
LINE
  5
E0E000018B3A
330
E0E0000189C8
100
AcDbEntity
  8
TAPÓN
  6
Continuous
 62
     7
 48
25.4
100
AcDbLine
 10
102.4367626042347
 20
-2.463305607475831
 30
0.0
 11
102.4367626042347
 21
2.463305607475831
 31
0.0
  0
LINE
  5
E0E000018B3B
330
E0E0000189C8
100
AcDbEntity
  8
TAPÓN
  6
Continuous
 62
     7
 48
25.4
100
AcDbLine
 10
101.7238619284794
 20
-2.463305607475831
 30
0.0
 11
102.4367626042347
 21
-2.463305607475831
 31
0.0
  0
LINE
  5
E0E000018B3C
330
E0E0000189C8
100
AcDbEntity
  8
TAPÓN
  6
Continuous
 62
     7
 48
25.4
100
AcDbLine
 10
102.4367626042347
 20
2.463305607475831
 30
0.0
 11
101.7238619284794
 21
2.463305607475831
 31
0.0
  0
ARC
  5
E0E000018B3D
330
E0E0000189C8
100
AcDbEntity
  8
TAPÓN
  6
Continuous
 62
     7
 48
25.4
100
AcDbCircle
 10
101.7238619284794
 20
0.0
 30
0.0
 40
2.463305607474194
100
AcDbArc
 50
90.0
 51
270.0
  0
LINE
  5
E0E000018B3E
330
E0E0000189C8
100
AcDbEntity
  8
TAPÓN
  6
Continuous
 62
     7
 48
25.4
100
AcDbLine
 10
101.7238619284794
 20
-2.763329322330264
 30
0.0
 11
101.7238619284794
 21
-2.775642105999395
 31
0.0
  0
LINE
  5
E0E000018B3F
330
E0E0000189C8
100
AcDbEntity
  8
TAPÓN
  6
Continuous
 62
     7
 48
25.4
100
AcDbLine
 10
101.7238619284794
 20
2.763329322330264
 30
0.0
 11
101.7238619284794
 21
2.77564210604487
 31
0.0
  0
ARC
  5
E0E000018B40
330
E0E0000189C8
100
AcDbEntity
  8
TAPÓN
  6
Continuous
 62
     7
 48
25.4
100
AcDbCircle
 10
101.7238619284794
 20
0.0
 30
0.0
 40
2.76332932231587
100
AcDbArc
 50
90.0
 51
270.0
  0
LINE
  5
E0E000018B41
330
E0E0000189C8
100
AcDbEntity
  8
TAPÓN
  6
Continuous
 62
     7
 48
25.4
100
AcDbLine
 10
102.7367863190666
 20
2.763329322330264
 30
0.0
 11
102.7490991027812
 21
2.77564210604487
 31
0.0
  0
LINE
  5
E0E000018B42
330
E0E0000189C8
100
AcDbEntity
  8
TAPÓN
  6
Continuous
 62
     7
 48
25.4
100
AcDbLine
 10
101.7238619284794
 20
2.763329322330264
 30
0.0
 11
102.7367863190666
 21
2.763329322330264
 31
0.0
  0
LINE
  5
E0E000018B43
330
E0E0000189C8
100
AcDbEntity
  8
TAPÓN
  6
Continuous
 62
     7
 48
25.4
100
AcDbLine
 10
102.7367863190666
 20
-2.763329322330264
 30
0.0
 11
102.7490991027812
 21
-2.775642105999395
 31
0.0
  0
LINE
  5
E0E000018B44
330
E0E0000189C8
100
AcDbEntity
  8
TAPÓN
  6
Continuous
 62
     7
 48
25.4
100
AcDbLine
 10
102.7367863190666
 20
-2.763329322330264
 30
0.0
 11
101.7238619284794
 21
-2.763329322330264
 31
0.0
  0
LINE
  5
E0E000018B45
330
E0E0000189C8
100
AcDbEntity
  8
TAPÓN
  6
Continuous
 62
     7
 48
25.4
100
AcDbLine
 10
102.7367863190666
 20
2.763329322330264
 30
0.0
 11
102.7367863190666
 21
-2.763329322330264
 31
0.0
  0
LINE
  5
E0E000018B46
330
E0E0000189C8
100
AcDbEntity
  8
TAPÓN
  6
Continuous
 62
     7
 48
25.4
100
AcDbLine
 10
102.4367626042347
 20
2.463305607475831
 30
0.0
 11
102.7367863190666
 21
2.763329322330264
 31
0.0
  0
LINE
  5
E0E000018B47
330
E0E0000189C8
100
AcDbEntity
  8
TAPÓN
  6
Continuous
 62
     7
 48
25.4
100
AcDbLine
 10
102.7367863190666
 20
-2.763329322330264
 30
0.0
 11
102.4367626042347
 21
-2.463305607475831
 31
0.0
  0
LINE
  5
E0E000018B48
330
E0E0000189C8
100
AcDbEntity
  8
TAPÓN
  6
Continuous
 62
     7
 48
25.4
100
AcDbLine
 10
101.7238619284794
 20
2.463305607475831
 30
0.0
 11
101.7238619284794
 21
2.763329322330264
 31
0.0
  0
LINE
  5
E0E000018B49
330
E0E0000189C8
100
AcDbEntity
  8
TAPÓN
  6
Continuous
 62
     7
 48
25.4
100
AcDbLine
 10
101.7238619284794
 20
-2.763329322330264
 30
0.0
 11
101.7238619284794
 21
-2.463305607475831
 31
0.0
  0
LINE
  5
E0E000018B4A
330
E0E0000189C8
100
AcDbEntity
  8
TAPA_4_M
  6
Continuous
 62
     7
 48
25.4
100
AcDbLine
 10
65.38365032670458
 20
31.98994536199416
 30
0.0
 11
4.632546942322961
 21
31.98994536199416
 31
0.0
  0
LINE
  5
E0E000018B4B
330
E0E0000189C8
100
AcDbEntity
  8
TAPA_6_M
  6
Continuous
 62
     7
 48
25.4
100
AcDbLine
 10
100.6038977645028
 20
31.90207045043553
 30
0.0
 11
100.6111295620994
 21
31.91952955429952
 31
0.0
  0
ELLIPSE
  5
E0E000018B4C
330
E0E0000189C8
100
AcDbEntity
  8
TAPA_6_M
  6
Continuous
 62
     7
 48
25.4
100
AcDbEllipse
 10
100.3989428951338
 20
31.70728934000726
 30
0.0
 11
-0.1148520873640655
 21
-0.277277466981221
 31
0.0
210
0.0
220
0.0
230
-1.0
 40
0.9998215707699756
 41
2.748956657798677
 42
3.534228649380907
  0
LINE
  5
E0E000018B4D
330
E0E0000189C8
100
AcDbEntity
  8
TAPA_6_M
  6
Continuous
 62
     7
 48
25.4
100
AcDbLine
 10
100.3989807588262
 20
32.00740446585814
 30
0.0
 11
100.391748961207
 21
31.98994536199416
 31
0.0
  0
ELLIPSE
  5
E0E000018B4E
330
E0E0000189C8
100
AcDbEntity
  8
TAPA_6_M
  6
Continuous
 62
     7
 48
25.4
100
AcDbEllipse
 10
100.3917110975372
 20
31.68983023614328
 30
0.0
 11
-0.1148520873640655
 21
-0.277277466981221
 31
0.0
210
0.0
220
0.0
230
-1.0
 40
0.9998215707699756
 41
2.74895665779889
 42
3.534228649380725
  0
LINE
  5
E0E000018B4F
330
E0E0000189C8
100
AcDbEntity
  8
TAPA_4_M
  6
Continuous
 62
     7
 48
25.4
100
AcDbLine
 10
39.6406455768481
 20
31.98994536199416
 30
0.0
 11
100.3917489612297
 21
31.98994536199416
 31
0.0
  0
LINE
  5
E0E000018B50
330
E0E0000189C8
100
AcDbEntity
  8
SLTZ_960_V_3
  6
Continuous
 62
     7
 48
25.4
100
AcDbLine
 10
76.60772212622555
 20
43.00994975097819
 30
0.0
 11
76.60772212622555
 21
42.50983405618172
 31
0.0
  0
LINE
  5
E0E000018B51
330
E0E0000189C8
100
AcDbEntity
  8
SLTZ_960_V_3
  6
Continuous
 62
     7
 48
25.4
100
AcDbLine
 10
76.60772212622555
 20
42.50983405618172
 30
0.0
 11
76.60772212622555
 21
34.60800607867395
 31
0.0
  0
LINE
  5
E0E000018B52
330
E0E0000189C8
100
AcDbEntity
  8
SLTZ_960_V_3
  6
Continuous
 62
     7
 48
25.4
100
AcDbLine
 10
99.47301169150842
 20
42.50983405618172
 30
0.0
 11
99.47301169150842
 21
34.60800607867395
 31
0.0
  0
LINE
  5
E0E000018B53
330
E0E0000189C8
100
AcDbEntity
  8
SLTZ_960_V_3
  6
Continuous
 62
     7
 48
25.4
100
AcDbLine
 10
99.47301169150842
 20
43.00994975097819
 30
0.0
 11
99.47301169150842
 21
42.50983405618172
 31
0.0
  0
LINE
  5
E0E000018B54
330
E0E0000189C8
100
AcDbEntity
  8
SLTZ_960_V_3
  6
Continuous
 62
     7
 48
25.4
100
AcDbLine
 10
76.60772212622555
 20
34.60800607867395
 30
0.0
 11
77.60795351577372
 21
34.60800607867395
 31
0.0
  0
LINE
  5
E0E000018B55
330
E0E0000189C8
100
AcDbEntity
  8
SLTZ_960_V_3
  6
Continuous
 62
     7
 48
25.4
100
AcDbLine
 10
98.47278030193752
 20
34.60800607867395
 30
0.0
 11
99.47301169150842
 21
34.60800607867395
 31
0.0
  0
LINE
  5
E0E000018B56
330
E0E0000189C8
100
AcDbEntity
  8
SLTZ_960_V_3
  6
Continuous
 62
     7
 48
25.4
100
AcDbLine
 10
76.60772212622555
 20
42.50983405618172
 30
0.0
 11
77.60795351577372
 21
42.50983405618172
 31
0.0
  0
LINE
  5
E0E000018B57
330
E0E0000189C8
100
AcDbEntity
  8
SLTZ_960_V_3
  6
Continuous
 62
     7
 48
25.4
100
AcDbLine
 10
98.47278030193752
 20
42.50983405618172
 30
0.0
 11
99.47301169150842
 21
42.50983405618172
 31
0.0
  0
LINE
  5
E0E000018B58
330
E0E0000189C8
100
AcDbEntity
  8
SLTZ_960_V_3
  6
Continuous
 62
     7
 48
25.4
100
AcDbLine
 10
76.60772212622555
 20
43.00994975097819
 30
0.0
 11
77.60795351577372
 21
43.00994975097819
 31
0.0
  0
LINE
  5
E0E000018B59
330
E0E0000189C8
100
AcDbEntity
  8
SLTZ_960_V_3
  6
Continuous
 62
     7
 48
25.4
100
AcDbLine
 10
98.47278030193752
 20
43.00994975097819
 30
0.0
 11
99.47301169150842
 21
43.00994975097819
 31
0.0
  0
LINE
  5
E0E000018B5A
330
E0E0000189C8
100
AcDbEntity
  8
AKZ_960_3
  6
Continuous
 62
     7
 48
25.4
100
AcDbLine
 10
98.47278030193752
 20
50.61002725045
 30
0.0
 11
98.47278030193752
 21
50.10991155569855
 31
0.0
  0
LINE
  5
E0E000018B5B
330
E0E0000189C8
100
AcDbEntity
  8
AKZ_960_3
  6
Continuous
 62
     7
 48
25.4
100
AcDbLine
 10
98.47278030193752
 20
50.10991155569855
 30
0.0
 11
98.47278030193752
 21
49.9231529356457
 31
0.0
  0
LINE
  5
E0E000018B5C
330
E0E0000189C8
100
AcDbEntity
  8
AKZ_960_3
  6
Continuous
 62
     7
 48
25.4
100
AcDbLine
 10
98.47278030193752
 20
49.9231529356457
 30
0.0
 11
98.47278030193752
 21
43.9101580015581
 31
0.0
  0
LINE
  5
E0E000018B5D
330
E0E0000189C8
100
AcDbEntity
  8
AKZ_960_3
  6
Continuous
 62
     7
 48
25.4
100
AcDbLine
 10
98.47278030193752
 20
43.9101580015581
 30
0.0
 11
98.47278030193752
 21
34.60800607867395
 31
0.0
  0
LINE
  5
E0E000018B5E
330
E0E0000189C8
100
AcDbEntity
  8
AKZ_960_3
  6
Continuous
 62
     7
 48
25.4
100
AcDbLine
 10
77.60795351577372
 20
43.9101580015581
 30
0.0
 11
77.60795351577372
 21
34.60800607867395
 31
0.0
  0
LINE
  5
E0E000018B5F
330
E0E0000189C8
100
AcDbEntity
  8
AKZ_960_3
  6
Continuous
 62
     7
 48
25.4
100
AcDbLine
 10
77.60795351577372
 20
49.9231529356457
 30
0.0
 11
77.60795351577372
 21
43.9101580015581
 31
0.0
  0
LINE
  5
E0E000018B60
330
E0E0000189C8
100
AcDbEntity
  8
AKZ_960_3
  6
Continuous
 62
     7
 48
25.4
100
AcDbLine
 10
77.60795351577372
 20
50.10991155569855
 30
0.0
 11
77.60795351577372
 21
49.9231529356457
 31
0.0
  0
LINE
  5
E0E000018B61
330
E0E0000189C8
100
AcDbEntity
  8
AKZ_960_3
  6
Continuous
 62
     7
 48
25.4
100
AcDbLine
 10
77.60795351577372
 20
50.61002725045
 30
0.0
 11
77.60795351577372
 21
50.10991155569855
 31
0.0
  0
LINE
  5
E0E000018B62
330
E0E0000189C8
100
AcDbEntity
  8
AKZ_960_3
  6
Continuous
 62
     7
 48
25.4
100
AcDbLine
 10
98.47278030193752
 20
34.60800607867395
 30
0.0
 11
77.60795351577372
 21
34.60800607867395
 31
0.0
  0
LINE
  5
E0E000018B63
330
E0E0000189C8
100
AcDbEntity
  8
AKZ_960_3
  6
Continuous
 62
     7
 48
25.4
100
AcDbLine
 10
98.47278030193752
 20
43.9101580015581
 30
0.0
 11
77.60795351577372
 21
43.9101580015581
 31
0.0
  0
LINE
  5
E0E000018B64
330
E0E0000189C8
100
AcDbEntity
  8
AKZ_960_3
  6
Continuous
 62
     7
 48
25.4
100
AcDbLine
 10
98.47278030193752
 20
49.9231529356457
 30
0.0
 11
77.60795351577372
 21
49.9231529356457
 31
0.0
  0
LINE
  5
E0E000018B65
330
E0E0000189C8
100
AcDbEntity
  8
AKZ_960_3
  6
Continuous
 62
     7
 48
25.4
100
AcDbLine
 10
98.47278030193752
 20
50.10991155569855
 30
0.0
 11
77.60795351577372
 21
50.10991155569855
 31
0.0
  0
LINE
  5
E0E000018B66
330
E0E0000189C8
100
AcDbEntity
  8
AKZ_960_3
  6
Continuous
 62
     7
 48
25.4
100
AcDbLine
 10
98.47278030193752
 20
50.61002725045
 30
0.0
 11
77.60795351577372
 21
50.61002725045
 31
0.0
  0
LINE
  5
E0E000018B67
330
E0E0000189C8
100
AcDbEntity
  8
AKZ_960_3
  6
Continuous
 62
     7
 48
25.4
100
AcDbLine
 10
78.41814094130905
 20
43.76012329312789
 30
0.0
 11
82.41906649954694
 21
43.76012329312789
 31
0.0
  0
LINE
  5
E0E000018B68
330
E0E0000189C8
100
AcDbEntity
  8
AKZ_960_3
  6
Continuous
 62
     7
 48
25.4
100
AcDbLine
 10
82.41906649954694
 20
35.05811020400915
 30
0.0
 11
78.41814094130905
 21
35.05811020400915
 31
0.0
  0
LINE
  5
E0E000018B69
330
E0E0000189C8
100
AcDbEntity
  8
AKZ_960_3
  6
Continuous
 62
     7
 48
25.4
100
AcDbLine
 10
79.11830291399724
 20
38.05880437265387
 30
0.0
 11
81.71890452685875
 21
38.05880437265387
 31
0.0
  0
LINE
  5
E0E000018B6A
330
E0E0000189C8
100
AcDbEntity
  8
AKZ_960_3
  6
Continuous
 62
     7
 48
25.4
100
AcDbLine
 10
81.71890452685875
 20
40.75942912448363
 30
0.0
 11
79.11830291399724
 21
40.75942912448363
 31
0.0
  0
LINE
  5
E0E000018B6B
330
E0E0000189C8
100
AcDbEntity
  8
AKZ_960_3
  6
Continuous
 62
     7
 48
25.4
100
AcDbLine
 10
82.41906649954694
 20
43.76012329312789
 30
0.0
 11
82.41906649954694
 21
35.05811020400915
 31
0.0
  0
LINE
  5
E0E000018B6C
330
E0E0000189C8
100
AcDbEntity
  8
AKZ_960_3
  6
Continuous
 62
     7
 48
25.4
100
AcDbLine
 10
78.41814094130905
 20
35.05811020400915
 30
0.0
 11
78.41814094130905
 21
43.76012329312789
 31
0.0
  0
LINE
  5
E0E000018B6D
330
E0E0000189C8
100
AcDbEntity
  8
AKZ_960_3
  6
Continuous
 62
     7
 48
25.4
100
AcDbLine
 10
79.11830291399724
 20
40.75942912448363
 30
0.0
 11
79.11830291399724
 21
38.05880437265387
 31
0.0
  0
LINE
  5
E0E000018B6E
330
E0E0000189C8
100
AcDbEntity
  8
AKZ_960_3
  6
Continuous
 62
     7
 48
25.4
100
AcDbLine
 10
81.71890452685875
 20
38.05880437265387
 30
0.0
 11
81.71890452685875
 21
40.75942912448363
 31
0.0
  0
LINE
  5
E0E000018B6F
330
E0E0000189C8
100
AcDbEntity
  8
AKZ_960_3
  6
Continuous
 62
     7
 48
25.4
100
AcDbLine
 10
78.41814094130905
 20
43.76012329312789
 30
0.0
 11
79.11830291399724
 21
40.75942912448363
 31
0.0
  0
LINE
  5
E0E000018B70
330
E0E0000189C8
100
AcDbEntity
  8
AKZ_960_3
  6
Continuous
 62
     7
 48
25.4
100
AcDbLine
 10
79.11830291399724
 20
38.05880437265387
 30
0.0
 11
78.41814094130905
 21
35.05811020400915
 31
0.0
  0
LINE
  5
E0E000018B71
330
E0E0000189C8
100
AcDbEntity
  8
AKZ_960_3
  6
Continuous
 62
     7
 48
25.4
100
AcDbLine
 10
82.41906649954694
 20
35.05811020400915
 30
0.0
 11
81.71890452685875
 21
38.05880437265387
 31
0.0
  0
LINE
  5
E0E000018B72
330
E0E0000189C8
100
AcDbEntity
  8
AKZ_960_3
  6
Continuous
 62
     7
 48
25.4
100
AcDbLine
 10
81.71890452685875
 20
40.75942912448363
 30
0.0
 11
82.41906649954694
 21
43.76012329312789
 31
0.0
  0
LINE
  5
E0E000018B73
330
E0E0000189C8
100
AcDbEntity
  8
AKZ_960_3
  6
Continuous
 62
     7
 48
25.4
100
AcDbLine
 10
86.03990412973667
 20
43.76012329312789
 30
0.0
 11
90.04082968797456
 21
43.76012329312789
 31
0.0
  0
LINE
  5
E0E000018B74
330
E0E0000189C8
100
AcDbEntity
  8
AKZ_960_3
  6
Continuous
 62
     7
 48
25.4
100
AcDbLine
 10
90.04082968797456
 20
35.05811020400915
 30
0.0
 11
86.03990412973667
 21
35.05811020400915
 31
0.0
  0
LINE
  5
E0E000018B75
330
E0E0000189C8
100
AcDbEntity
  8
AKZ_960_3
  6
Continuous
 62
     7
 48
25.4
100
AcDbLine
 10
86.74006610242486
 20
38.05880437265387
 30
0.0
 11
89.34066771528637
 21
38.05880437265387
 31
0.0
  0
LINE
  5
E0E000018B76
330
E0E0000189C8
100
AcDbEntity
  8
AKZ_960_3
  6
Continuous
 62
     7
 48
25.4
100
AcDbLine
 10
89.34066771528637
 20
40.75942912448363
 30
0.0
 11
86.74006610242486
 21
40.75942912448363
 31
0.0
  0
LINE
  5
E0E000018B77
330
E0E0000189C8
100
AcDbEntity
  8
AKZ_960_3
  6
Continuous
 62
     7
 48
25.4
100
AcDbLine
 10
90.04082968797456
 20
43.76012329312789
 30
0.0
 11
90.04082968797456
 21
35.05811020400915
 31
0.0
  0
LINE
  5
E0E000018B78
330
E0E0000189C8
100
AcDbEntity
  8
AKZ_960_3
  6
Continuous
 62
     7
 48
25.4
100
AcDbLine
 10
86.03990412973667
 20
35.05811020400915
 30
0.0
 11
86.03990412973667
 21
43.76012329312789
 31
0.0
  0
LINE
  5
E0E000018B79
330
E0E0000189C8
100
AcDbEntity
  8
AKZ_960_3
  6
Continuous
 62
     7
 48
25.4
100
AcDbLine
 10
86.74006610242486
 20
40.75942912448363
 30
0.0
 11
86.74006610242486
 21
38.05880437265387
 31
0.0
  0
LINE
  5
E0E000018B7A
330
E0E0000189C8
100
AcDbEntity
  8
AKZ_960_3
  6
Continuous
 62
     7
 48
25.4
100
AcDbLine
 10
89.34066771528637
 20
38.05880437265387
 30
0.0
 11
89.34066771528637
 21
40.75942912448363
 31
0.0
  0
LINE
  5
E0E000018B7B
330
E0E0000189C8
100
AcDbEntity
  8
AKZ_960_3
  6
Continuous
 62
     7
 48
25.4
100
AcDbLine
 10
86.03990412973667
 20
43.76012329312789
 30
0.0
 11
86.74006610242486
 21
40.75942912448363
 31
0.0
  0
LINE
  5
E0E000018B7C
330
E0E0000189C8
100
AcDbEntity
  8
AKZ_960_3
  6
Continuous
 62
     7
 48
25.4
100
AcDbLine
 10
86.74006610242486
 20
38.05880437265387
 30
0.0
 11
86.03990412973667
 21
35.05811020400915
 31
0.0
  0
LINE
  5
E0E000018B7D
330
E0E0000189C8
100
AcDbEntity
  8
AKZ_960_3
  6
Continuous
 62
     7
 48
25.4
100
AcDbLine
 10
90.04082968797456
 20
35.05811020400915
 30
0.0
 11
89.34066771528637
 21
38.05880437265387
 31
0.0
  0
LINE
  5
E0E000018B7E
330
E0E0000189C8
100
AcDbEntity
  8
AKZ_960_3
  6
Continuous
 62
     7
 48
25.4
100
AcDbLine
 10
89.34066771528637
 20
40.75942912448363
 30
0.0
 11
90.04082968797456
 21
43.76012329312789
 31
0.0
  0
LINE
  5
E0E000018B7F
330
E0E0000189C8
100
AcDbEntity
  8
AKZ_960_3
  6
Continuous
 62
     7
 48
25.4
100
AcDbLine
 10
93.66166731816429
 20
43.76012329312789
 30
0.0
 11
97.66259287640219
 21
43.76012329312789
 31
0.0
  0
LINE
  5
E0E000018B80
330
E0E0000189C8
100
AcDbEntity
  8
AKZ_960_3
  6
Continuous
 62
     7
 48
25.4
100
AcDbLine
 10
97.66259287640219
 20
35.05811020400915
 30
0.0
 11
93.66166731816429
 21
35.05811020400915
 31
0.0
  0
LINE
  5
E0E000018B81
330
E0E0000189C8
100
AcDbEntity
  8
AKZ_960_3
  6
Continuous
 62
     7
 48
25.4
100
AcDbLine
 10
94.36182929087522
 20
38.05880437265387
 30
0.0
 11
96.962430903714
 21
38.05880437265387
 31
0.0
  0
LINE
  5
E0E000018B82
330
E0E0000189C8
100
AcDbEntity
  8
AKZ_960_3
  6
Continuous
 62
     7
 48
25.4
100
AcDbLine
 10
96.962430903714
 20
40.75942912448363
 30
0.0
 11
94.36182929087522
 21
40.75942912448363
 31
0.0
  0
LINE
  5
E0E000018B83
330
E0E0000189C8
100
AcDbEntity
  8
AKZ_960_3
  6
Continuous
 62
     7
 48
25.4
100
AcDbLine
 10
97.66259287640219
 20
43.76012329312789
 30
0.0
 11
97.66259287640219
 21
35.05811020400915
 31
0.0
  0
LINE
  5
E0E000018B84
330
E0E0000189C8
100
AcDbEntity
  8
AKZ_960_3
  6
Continuous
 62
     7
 48
25.4
100
AcDbLine
 10
93.66166731816429
 20
35.05811020400915
 30
0.0
 11
93.66166731816429
 21
43.76012329312789
 31
0.0
  0
LINE
  5
E0E000018B85
330
E0E0000189C8
100
AcDbEntity
  8
AKZ_960_3
  6
Continuous
 62
     7
 48
25.4
100
AcDbLine
 10
94.36182929087522
 20
40.75942912448363
 30
0.0
 11
94.36182929087522
 21
38.05880437265387
 31
0.0
  0
LINE
  5
E0E000018B86
330
E0E0000189C8
100
AcDbEntity
  8
AKZ_960_3
  6
Continuous
 62
     7
 48
25.4
100
AcDbLine
 10
96.962430903714
 20
38.05880437265387
 30
0.0
 11
96.962430903714
 21
40.75942912448363
 31
0.0
  0
LINE
  5
E0E000018B87
330
E0E0000189C8
100
AcDbEntity
  8
AKZ_960_3
  6
Continuous
 62
     7
 48
25.4
100
AcDbLine
 10
93.66166731816429
 20
43.76012329312789
 30
0.0
 11
94.36182929087522
 21
40.75942912448363
 31
0.0
  0
LINE
  5
E0E000018B88
330
E0E0000189C8
100
AcDbEntity
  8
AKZ_960_3
  6
Continuous
 62
     7
 48
25.4
100
AcDbLine
 10
94.36182929087522
 20
38.05880437265387
 30
0.0
 11
93.66166731816429
 21
35.05811020400915
 31
0.0
  0
LINE
  5
E0E000018B89
330
E0E0000189C8
100
AcDbEntity
  8
AKZ_960_3
  6
Continuous
 62
     7
 48
25.4
100
AcDbLine
 10
97.66259287640219
 20
35.05811020400915
 30
0.0
 11
96.962430903714
 21
38.05880437265387
 31
0.0
  0
LINE
  5
E0E000018B8A
330
E0E0000189C8
100
AcDbEntity
  8
AKZ_960_3
  6
Continuous
 62
     7
 48
25.4
100
AcDbLine
 10
96.962430903714
 20
40.75942912448363
 30
0.0
 11
97.66259287640219
 21
43.76012329312789
 31
0.0
  0
LINE
  5
E0E000018B8B
330
E0E0000189C8
100
AcDbEntity
  8
SLTZ_960_V_3
  6
Continuous
 62
     7
 48
25.4
100
AcDbLine
 10
28.41657377732713
 20
43.00994975097819
 30
0.0
 11
28.41657377732713
 21
42.50983405618172
 31
0.0
  0
LINE
  5
E0E000018B8C
330
E0E0000189C8
100
AcDbEntity
  8
SLTZ_960_V_3
  6
Continuous
 62
     7
 48
25.4
100
AcDbLine
 10
28.41657377732713
 20
42.50983405618172
 30
0.0
 11
28.41657377732713
 21
34.60800607867395
 31
0.0
  0
LINE
  5
E0E000018B8D
330
E0E0000189C8
100
AcDbEntity
  8
SLTZ_960_V_3
  6
Continuous
 62
     7
 48
25.4
100
AcDbLine
 10
5.551284212044266
 20
42.50983405618172
 30
0.0
 11
5.551284212044266
 21
34.60800607867395
 31
0.0
  0
LINE
  5
E0E000018B8E
330
E0E0000189C8
100
AcDbEntity
  8
SLTZ_960_V_3
  6
Continuous
 62
     7
 48
25.4
100
AcDbLine
 10
5.551284212044266
 20
43.00994975097819
 30
0.0
 11
5.551284212044266
 21
42.50983405618172
 31
0.0
  0
LINE
  5
E0E000018B8F
330
E0E0000189C8
100
AcDbEntity
  8
SLTZ_960_V_3
  6
Continuous
 62
     7
 48
25.4
100
AcDbLine
 10
28.41657377732713
 20
34.60800607867395
 30
0.0
 11
27.41634238777897
 21
34.60800607867395
 31
0.0
  0
LINE
  5
E0E000018B90
330
E0E0000189C8
100
AcDbEntity
  8
SLTZ_960_V_3
  6
Continuous
 62
     7
 48
25.4
100
AcDbLine
 10
6.551515601592428
 20
34.60800607867395
 30
0.0
 11
5.551284212044266
 21
34.60800607867395
 31
0.0
  0
LINE
  5
E0E000018B91
330
E0E0000189C8
100
AcDbEntity
  8
SLTZ_960_V_3
  6
Continuous
 62
     7
 48
25.4
100
AcDbLine
 10
28.41657377732713
 20
42.50983405618172
 30
0.0
 11
27.41634238777897
 21
42.50983405618172
 31
0.0
  0
LINE
  5
E0E000018B92
330
E0E0000189C8
100
AcDbEntity
  8
SLTZ_960_V_3
  6
Continuous
 62
     7
 48
25.4
100
AcDbLine
 10
6.551515601592428
 20
42.50983405618172
 30
0.0
 11
5.551284212044266
 21
42.50983405618172
 31
0.0
  0
LINE
  5
E0E000018B93
330
E0E0000189C8
100
AcDbEntity
  8
SLTZ_960_V_3
  6
Continuous
 62
     7
 48
25.4
100
AcDbLine
 10
28.41657377732713
 20
43.00994975097819
 30
0.0
 11
27.41634238777897
 21
43.00994975097819
 31
0.0
  0
LINE
  5
E0E000018B94
330
E0E0000189C8
100
AcDbEntity
  8
SLTZ_960_V_3
  6
Continuous
 62
     7
 48
25.4
100
AcDbLine
 10
6.551515601592428
 20
43.00994975097819
 30
0.0
 11
5.551284212044266
 21
43.00994975097819
 31
0.0
  0
LINE
  5
E0E000018B95
330
E0E0000189C8
100
AcDbEntity
  8
AKZ_960_3
  6
Continuous
 62
     7
 48
25.4
100
AcDbLine
 10
6.551515601592428
 20
50.61002725045
 30
0.0
 11
6.551515601592428
 21
50.10991155569855
 31
0.0
  0
LINE
  5
E0E000018B96
330
E0E0000189C8
100
AcDbEntity
  8
AKZ_960_3
  6
Continuous
 62
     7
 48
25.4
100
AcDbLine
 10
6.551515601592428
 20
50.10991155569855
 30
0.0
 11
6.551515601592428
 21
49.9231529356457
 31
0.0
  0
LINE
  5
E0E000018B97
330
E0E0000189C8
100
AcDbEntity
  8
AKZ_960_3
  6
Continuous
 62
     7
 48
25.4
100
AcDbLine
 10
6.551515601592428
 20
49.9231529356457
 30
0.0
 11
6.551515601592428
 21
43.9101580015581
 31
0.0
  0
LINE
  5
E0E000018B98
330
E0E0000189C8
100
AcDbEntity
  8
AKZ_960_3
  6
Continuous
 62
     7
 48
25.4
100
AcDbLine
 10
6.551515601592428
 20
43.9101580015581
 30
0.0
 11
6.551515601592428
 21
34.60800607867395
 31
0.0
  0
LINE
  5
E0E000018B99
330
E0E0000189C8
100
AcDbEntity
  8
AKZ_960_3
  6
Continuous
 62
     7
 48
25.4
100
AcDbLine
 10
27.41634238777897
 20
43.9101580015581
 30
0.0
 11
27.41634238777897
 21
34.60800607867395
 31
0.0
  0
LINE
  5
E0E000018B9A
330
E0E0000189C8
100
AcDbEntity
  8
AKZ_960_3
  6
Continuous
 62
     7
 48
25.4
100
AcDbLine
 10
27.41634238777897
 20
49.9231529356457
 30
0.0
 11
27.41634238777897
 21
43.9101580015581
 31
0.0
  0
LINE
  5
E0E000018B9B
330
E0E0000189C8
100
AcDbEntity
  8
AKZ_960_3
  6
Continuous
 62
     7
 48
25.4
100
AcDbLine
 10
27.41634238777897
 20
50.10991155569855
 30
0.0
 11
27.41634238777897
 21
49.9231529356457
 31
0.0
  0
LINE
  5
E0E000018B9C
330
E0E0000189C8
100
AcDbEntity
  8
AKZ_960_3
  6
Continuous
 62
     7
 48
25.4
100
AcDbLine
 10
27.41634238777897
 20
50.61002725045
 30
0.0
 11
27.41634238777897
 21
50.10991155569855
 31
0.0
  0
LINE
  5
E0E000018B9D
330
E0E0000189C8
100
AcDbEntity
  8
AKZ_960_3
  6
Continuous
 62
     7
 48
25.4
100
AcDbLine
 10
6.551515601592428
 20
34.60800607867395
 30
0.0
 11
27.41634238777897
 21
34.60800607867395
 31
0.0
  0
LINE
  5
E0E000018B9E
330
E0E0000189C8
100
AcDbEntity
  8
AKZ_960_3
  6
Continuous
 62
     7
 48
25.4
100
AcDbLine
 10
6.551515601592428
 20
43.9101580015581
 30
0.0
 11
27.41634238777897
 21
43.9101580015581
 31
0.0
  0
LINE
  5
E0E000018B9F
330
E0E0000189C8
100
AcDbEntity
  8
AKZ_960_3
  6
Continuous
 62
     7
 48
25.4
100
AcDbLine
 10
6.551515601592428
 20
49.9231529356457
 30
0.0
 11
27.41634238777897
 21
49.9231529356457
 31
0.0
  0
LINE
  5
E0E000018BA0
330
E0E0000189C8
100
AcDbEntity
  8
AKZ_960_3
  6
Continuous
 62
     7
 48
25.4
100
AcDbLine
 10
6.551515601592428
 20
50.10991155569855
 30
0.0
 11
27.41634238777897
 21
50.10991155569855
 31
0.0
  0
LINE
  5
E0E000018BA1
330
E0E0000189C8
100
AcDbEntity
  8
AKZ_960_3
  6
Continuous
 62
     7
 48
25.4
100
AcDbLine
 10
6.551515601592428
 20
50.61002725045
 30
0.0
 11
27.41634238777897
 21
50.61002725045
 31
0.0
  0
LINE
  5
E0E000018BA2
330
E0E0000189C8
100
AcDbEntity
  8
AKZ_960_3
  6
Continuous
 62
     7
 48
25.4
100
AcDbLine
 10
26.60615496224364
 20
43.76012329312789
 30
0.0
 11
22.60522940400574
 21
43.76012329312789
 31
0.0
  0
LINE
  5
E0E000018BA3
330
E0E0000189C8
100
AcDbEntity
  8
AKZ_960_3
  6
Continuous
 62
     7
 48
25.4
100
AcDbLine
 10
22.60522940400574
 20
35.05811020400915
 30
0.0
 11
26.60615496224364
 21
35.05811020400915
 31
0.0
  0
LINE
  5
E0E000018BA4
330
E0E0000189C8
100
AcDbEntity
  8
AKZ_960_3
  6
Continuous
 62
     7
 48
25.4
100
AcDbLine
 10
25.90599298953271
 20
38.05880437265387
 30
0.0
 11
23.30539137669393
 21
38.05880437265387
 31
0.0
  0
LINE
  5
E0E000018BA5
330
E0E0000189C8
100
AcDbEntity
  8
AKZ_960_3
  6
Continuous
 62
     7
 48
25.4
100
AcDbLine
 10
23.30539137669393
 20
40.75942912448363
 30
0.0
 11
25.90599298953271
 21
40.75942912448363
 31
0.0
  0
LINE
  5
E0E000018BA6
330
E0E0000189C8
100
AcDbEntity
  8
AKZ_960_3
  6
Continuous
 62
     7
 48
25.4
100
AcDbLine
 10
22.60522940400574
 20
43.76012329312789
 30
0.0
 11
22.60522940400574
 21
35.05811020400915
 31
0.0
  0
LINE
  5
E0E000018BA7
330
E0E0000189C8
100
AcDbEntity
  8
AKZ_960_3
  6
Continuous
 62
     7
 48
25.4
100
AcDbLine
 10
26.60615496224364
 20
35.05811020400915
 30
0.0
 11
26.60615496224364
 21
43.76012329312789
 31
0.0
  0
LINE
  5
E0E000018BA8
330
E0E0000189C8
100
AcDbEntity
  8
AKZ_960_3
  6
Continuous
 62
     7
 48
25.4
100
AcDbLine
 10
25.90599298953271
 20
40.75942912448363
 30
0.0
 11
25.90599298953271
 21
38.05880437265387
 31
0.0
  0
LINE
  5
E0E000018BA9
330
E0E0000189C8
100
AcDbEntity
  8
AKZ_960_3
  6
Continuous
 62
     7
 48
25.4
100
AcDbLine
 10
23.30539137669393
 20
38.05880437265387
 30
0.0
 11
23.30539137669393
 21
40.75942912448363
 31
0.0
  0
LINE
  5
E0E000018BAA
330
E0E0000189C8
100
AcDbEntity
  8
AKZ_960_3
  6
Continuous
 62
     7
 48
25.4
100
AcDbLine
 10
26.60615496224364
 20
43.76012329312789
 30
0.0
 11
25.90599298953271
 21
40.75942912448363
 31
0.0
  0
LINE
  5
E0E000018BAB
330
E0E0000189C8
100
AcDbEntity
  8
AKZ_960_3
  6
Continuous
 62
     7
 48
25.4
100
AcDbLine
 10
25.90599298953271
 20
38.05880437265387
 30
0.0
 11
26.60615496224364
 21
35.05811020400915
 31
0.0
  0
LINE
  5
E0E000018BAC
330
E0E0000189C8
100
AcDbEntity
  8
AKZ_960_3
  6
Continuous
 62
     7
 48
25.4
100
AcDbLine
 10
22.60522940400574
 20
35.05811020400915
 30
0.0
 11
23.30539137669393
 21
38.05880437265387
 31
0.0
  0
LINE
  5
E0E000018BAD
330
E0E0000189C8
100
AcDbEntity
  8
AKZ_960_3
  6
Continuous
 62
     7
 48
25.4
100
AcDbLine
 10
23.30539137669393
 20
40.75942912448363
 30
0.0
 11
22.60522940400574
 21
43.76012329312789
 31
0.0
  0
LINE
  5
E0E000018BAE
330
E0E0000189C8
100
AcDbEntity
  8
AKZ_960_3
  6
Continuous
 62
     7
 48
25.4
100
AcDbLine
 10
18.98439177379328
 20
43.76012329312789
 30
0.0
 11
14.98346621557812
 21
43.76012329312789
 31
0.0
  0
LINE
  5
E0E000018BAF
330
E0E0000189C8
100
AcDbEntity
  8
AKZ_960_3
  6
Continuous
 62
     7
 48
25.4
100
AcDbLine
 10
14.98346621557812
 20
35.05811020400915
 30
0.0
 11
18.98439177379328
 21
35.05811020400915
 31
0.0
  0
LINE
  5
E0E000018BB0
330
E0E0000189C8
100
AcDbEntity
  8
AKZ_960_3
  6
Continuous
 62
     7
 48
25.4
100
AcDbLine
 10
18.28422980110508
 20
38.05880437265387
 30
0.0
 11
15.68362818826631
 21
38.05880437265387
 31
0.0
  0
LINE
  5
E0E000018BB1
330
E0E0000189C8
100
AcDbEntity
  8
AKZ_960_3
  6
Continuous
 62
     7
 48
25.4
100
AcDbLine
 10
15.68362818826631
 20
40.75942912448363
 30
0.0
 11
18.28422980110508
 21
40.75942912448363
 31
0.0
  0
LINE
  5
E0E000018BB2
330
E0E0000189C8
100
AcDbEntity
  8
AKZ_960_3
  6
Continuous
 62
     7
 48
25.4
100
AcDbLine
 10
14.98346621557812
 20
43.76012329312789
 30
0.0
 11
14.98346621557812
 21
35.05811020400915
 31
0.0
  0
LINE
  5
E0E000018BB3
330
E0E0000189C8
100
AcDbEntity
  8
AKZ_960_3
  6
Continuous
 62
     7
 48
25.4
100
AcDbLine
 10
18.98439177379328
 20
35.05811020400915
 30
0.0
 11
18.98439177379328
 21
43.76012329312789
 31
0.0
  0
LINE
  5
E0E000018BB4
330
E0E0000189C8
100
AcDbEntity
  8
AKZ_960_3
  6
Continuous
 62
     7
 48
25.4
100
AcDbLine
 10
18.28422980110508
 20
40.75942912448363
 30
0.0
 11
18.28422980110508
 21
38.05880437265387
 31
0.0
  0
LINE
  5
E0E000018BB5
330
E0E0000189C8
100
AcDbEntity
  8
AKZ_960_3
  6
Continuous
 62
     7
 48
25.4
100
AcDbLine
 10
15.68362818826631
 20
38.05880437265387
 30
0.0
 11
15.68362818826631
 21
40.75942912448363
 31
0.0
  0
LINE
  5
E0E000018BB6
330
E0E0000189C8
100
AcDbEntity
  8
AKZ_960_3
  6
Continuous
 62
     7
 48
25.4
100
AcDbLine
 10
18.98439177379328
 20
43.76012329312789
 30
0.0
 11
18.28422980110508
 21
40.75942912448363
 31
0.0
  0
LINE
  5
E0E000018BB7
330
E0E0000189C8
100
AcDbEntity
  8
AKZ_960_3
  6
Continuous
 62
     7
 48
25.4
100
AcDbLine
 10
18.28422980110508
 20
38.05880437265387
 30
0.0
 11
18.98439177379328
 21
35.05811020400915
 31
0.0
  0
LINE
  5
E0E000018BB8
330
E0E0000189C8
100
AcDbEntity
  8
AKZ_960_3
  6
Continuous
 62
     7
 48
25.4
100
AcDbLine
 10
14.98346621557812
 20
35.05811020400915
 30
0.0
 11
15.68362818826631
 21
38.05880437265387
 31
0.0
  0
LINE
  5
E0E000018BB9
330
E0E0000189C8
100
AcDbEntity
  8
AKZ_960_3
  6
Continuous
 62
     7
 48
25.4
100
AcDbLine
 10
15.68362818826631
 20
40.75942912448363
 30
0.0
 11
14.98346621557812
 21
43.76012329312789
 31
0.0
  0
LINE
  5
E0E000018BBA
330
E0E0000189C8
100
AcDbEntity
  8
AKZ_960_3
  6
Continuous
 62
     7
 48
25.4
100
AcDbLine
 10
11.36262858536566
 20
43.76012329312789
 30
0.0
 11
7.361703027150497
 21
43.76012329312789
 31
0.0
  0
LINE
  5
E0E000018BBB
330
E0E0000189C8
100
AcDbEntity
  8
AKZ_960_3
  6
Continuous
 62
     7
 48
25.4
100
AcDbLine
 10
7.361703027150497
 20
35.05811020400915
 30
0.0
 11
11.36262858536566
 21
35.05811020400915
 31
0.0
  0
LINE
  5
E0E000018BBC
330
E0E0000189C8
100
AcDbEntity
  8
AKZ_960_3
  6
Continuous
 62
     7
 48
25.4
100
AcDbLine
 10
10.66246661267746
 20
38.05880437265387
 30
0.0
 11
8.06186499983869
 21
38.05880437265387
 31
0.0
  0
LINE
  5
E0E000018BBD
330
E0E0000189C8
100
AcDbEntity
  8
AKZ_960_3
  6
Continuous
 62
     7
 48
25.4
100
AcDbLine
 10
8.06186499983869
 20
40.75942912448363
 30
0.0
 11
10.66246661267746
 21
40.75942912448363
 31
0.0
  0
LINE
  5
E0E000018BBE
330
E0E0000189C8
100
AcDbEntity
  8
AKZ_960_3
  6
Continuous
 62
     7
 48
25.4
100
AcDbLine
 10
7.361703027150497
 20
43.76012329312789
 30
0.0
 11
7.361703027150497
 21
35.05811020400915
 31
0.0
  0
LINE
  5
E0E000018BBF
330
E0E0000189C8
100
AcDbEntity
  8
AKZ_960_3
  6
Continuous
 62
     7
 48
25.4
100
AcDbLine
 10
11.36262858536566
 20
35.05811020400915
 30
0.0
 11
11.36262858536566
 21
43.76012329312789
 31
0.0
  0
LINE
  5
E0E000018BC0
330
E0E0000189C8
100
AcDbEntity
  8
AKZ_960_3
  6
Continuous
 62
     7
 48
25.4
100
AcDbLine
 10
10.66246661267746
 20
40.75942912448363
 30
0.0
 11
10.66246661267746
 21
38.05880437265387
 31
0.0
  0
LINE
  5
E0E000018BC1
330
E0E0000189C8
100
AcDbEntity
  8
AKZ_960_3
  6
Continuous
 62
     7
 48
25.4
100
AcDbLine
 10
8.06186499983869
 20
38.05880437265387
 30
0.0
 11
8.06186499983869
 21
40.75942912448363
 31
0.0
  0
LINE
  5
E0E000018BC2
330
E0E0000189C8
100
AcDbEntity
  8
AKZ_960_3
  6
Continuous
 62
     7
 48
25.4
100
AcDbLine
 10
11.36262858536566
 20
43.76012329312789
 30
0.0
 11
10.66246661267746
 21
40.75942912448363
 31
0.0
  0
LINE
  5
E0E000018BC3
330
E0E0000189C8
100
AcDbEntity
  8
AKZ_960_3
  6
Continuous
 62
     7
 48
25.4
100
AcDbLine
 10
10.66246661267746
 20
38.05880437265387
 30
0.0
 11
11.36262858536566
 21
35.05811020400915
 31
0.0
  0
LINE
  5
E0E000018BC4
330
E0E0000189C8
100
AcDbEntity
  8
AKZ_960_3
  6
Continuous
 62
     7
 48
25.4
100
AcDbLine
 10
7.361703027150497
 20
35.05811020400915
 30
0.0
 11
8.06186499983869
 21
38.05880437265387
 31
0.0
  0
LINE
  5
E0E000018BC5
330
E0E0000189C8
100
AcDbEntity
  8
AKZ_960_3
  6
Continuous
 62
     7
 48
25.4
100
AcDbLine
 10
8.06186499983869
 20
40.75942912448363
 30
0.0
 11
7.361703027150497
 21
43.76012329312789
 31
0.0
  0
LINE
  5
E0E000018BC6
330
E0E0000189C8
100
AcDbEntity
  8
PCB_6M_I16_V
  6
Continuous
 62
     7
 48
25.4
100
AcDbLine
 10
76.60772212622555
 20
42.50983405618172
 30
0.0
 11
28.41657377732713
 21
42.50983405618172
 31
0.0
  0
LINE
  5
E0E000018BC7
330
E0E0000189C8
100
AcDbEntity
  8
BASE_6_M
  6
Continuous
 62
     7
 48
25.4
100
AcDbLine
 10
28.41657377732713
 20
42.73108438223426
 30
0.0
 11
76.60772212622555
 21
42.73108438223426
 31
0.0
  0
LINE
  5
E0E000018BC8
330
E0E0000189C8
100
AcDbEntity
  8
PCB_4M_PER1_V
  6
Continuous
 62
     7
 48
25.4
100
AcDbLine
 10
80.73987718542617
 20
-42.48102653483556
 30
0.0
 11
69.88251485223896
 21
-42.48102653483556
 31
0.0
  0
LINE
  5
E0E000018BC9
330
E0E0000189C8
100
AcDbEntity
  8
STL(Z)1550_V_5
  6
Continuous
 62
     7
 48
25.4
100
AcDbLine
 10
101.1846067879817
 20
-42.48102653483556
 30
0.0
 11
100.8845373711217
 21
-42.48102653483556
 31
0.0
  0
LINE
  5
E0E000018BCA
330
E0E0000189C8
100
AcDbEntity
  8
STL(Z)1550_V_5
  6
Continuous
 62
     7
 48
25.4
100
AcDbLine
 10
81.03994660228614
 20
-42.48102653483556
 30
0.0
 11
80.73987718542617
 21
-42.48102653483556
 31
0.0
  0
LINE
  5
E0E000018BCB
330
E0E0000189C8
100
AcDbEntity
  8
STL(Z)1550_V_5
  6
Continuous
 62
     7
 48
25.4
100
AcDbLine
 10
101.1846067879817
 20
-35.47940680795318
 30
0.0
 11
101.1846067879817
 21
-42.48102653483556
 31
0.0
  0
LINE
  5
E0E000018BCC
330
E0E0000189C8
100
AcDbEntity
  8
STL(Z)1550_V_5
  6
Continuous
 62
     7
 48
25.4
100
AcDbLine
 10
101.1846067879817
 20
-42.9811422296325
 30
0.0
 11
101.1846067879817
 21
-42.48102653483556
 31
0.0
  0
LINE
  5
E0E000018BCD
330
E0E0000189C8
100
AcDbEntity
  8
STL(Z)1550_V_5
  6
Continuous
 62
     7
 48
25.4
100
AcDbLine
 10
80.73987718542617
 20
-42.9811422296325
 30
0.0
 11
101.1846067879817
 21
-42.9811422296325
 31
0.0
  0
LINE
  5
E0E000018BCE
330
E0E0000189C8
100
AcDbEntity
  8
STL(Z)1550_V_5
  6
Continuous
 62
     7
 48
25.4
100
AcDbLine
 10
80.73987718542617
 20
-35.47940680795318
 30
0.0
 11
81.03994660228614
 21
-35.47940680795318
 31
0.0
  0
LINE
  5
E0E000018BCF
330
E0E0000189C8
100
AcDbEntity
  8
STL(Z)1550_V_5
  6
Continuous
 62
     7
 48
25.4
100
AcDbLine
 10
100.8845373711217
 20
-35.47940680795318
 30
0.0
 11
101.1846067879817
 21
-35.47940680795318
 31
0.0
  0
LINE
  5
E0E000018BD0
330
E0E0000189C8
100
AcDbEntity
  8
STL(Z)1550_V_5
  6
Continuous
 62
     7
 48
25.4
100
AcDbLine
 10
80.73987718542617
 20
-42.9811422296325
 30
0.0
 11
80.73987718542617
 21
-42.48102653483556
 31
0.0
  0
LINE
  5
E0E000018BD1
330
E0E0000189C8
100
AcDbEntity
  8
STL(Z)1550_V_5
  6
Continuous
 62
     7
 48
25.4
100
AcDbLine
 10
80.73987718542617
 20
-42.48102653483556
 30
0.0
 11
80.73987718542617
 21
-35.47940680795318
 31
0.0
  0
LINE
  5
E0E000018BD2
330
E0E0000189C8
100
AcDbEntity
  8
AK(Z)-1550_5
  6
Continuous
 62
     7
 48
25.4
100
AcDbLine
 10
81.03994660228614
 20
-31.54013131547208
 30
0.0
 11
100.8845373711217
 21
-31.54013131547208
 31
0.0
  0
LINE
  5
E0E000018BD3
330
E0E0000189C8
100
AcDbEntity
  8
AK(Z)-1550_5
  6
Continuous
 62
     7
 48
25.4
100
AcDbLine
 10
81.03994660228614
 20
-38.63598979236122
 30
0.0
 11
81.03994660228614
 21
-31.54013131547208
 31
0.0
  0
LINE
  5
E0E000018BD4
330
E0E0000189C8
100
AcDbEntity
  8
AK(Z)-1550_5
  6
Continuous
 62
     7
 48
25.4
100
AcDbLine
 10
81.03994660228614
 20
-38.63598979236122
 30
0.0
 11
81.03994660228614
 21
-42.32128979265508
 31
0.0
  0
LINE
  5
E0E000018BD5
330
E0E0000189C8
100
AcDbEntity
  8
AK(Z)-1550_5
  6
Continuous
 62
     7
 48
25.4
100
AcDbLine
 10
81.03994660228614
 20
-42.32128979265508
 30
0.0
 11
81.03994660228614
 21
-42.64269973956107
 31
0.0
  0
LINE
  5
E0E000018BD6
330
E0E0000189C8
100
AcDbEntity
  8
AK(Z)-1550_5
  6
Continuous
 62
     7
 48
25.4
100
AcDbLine
 10
81.03994660228614
 20
-42.32128979265508
 30
0.0
 11
100.8845373711217
 21
-42.32128979265508
 31
0.0
  0
LINE
  5
E0E000018BD7
330
E0E0000189C8
100
AcDbEntity
  8
AK(Z)-1550_5
  6
Continuous
 62
     7
 48
25.4
100
AcDbLine
 10
81.03994660228614
 20
-42.64269973956107
 30
0.0
 11
100.8845373711217
 21
-42.64269973956107
 31
0.0
  0
LINE
  5
E0E000018BD8
330
E0E0000189C8
100
AcDbEntity
  8
AK(Z)-1550_5
  6
Continuous
 62
     7
 48
25.4
100
AcDbLine
 10
82.19021270028702
 20
-37.40036579873095
 30
0.0
 11
82.19021270028702
 21
-32.14384497811352
 31
0.0
  0
LINE
  5
E0E000018BD9
330
E0E0000189C8
100
AcDbEntity
  8
AK(Z)-1550_5
  6
Continuous
 62
     7
 48
25.4
100
AcDbLine
 10
82.19021270028702
 20
-32.14384497811352
 30
0.0
 11
84.49074489626582
 21
-32.14384497811352
 31
0.0
  0
LINE
  5
E0E000018BDA
330
E0E0000189C8
100
AcDbEntity
  8
AK(Z)-1550_5
  6
Continuous
 62
     7
 48
25.4
100
AcDbLine
 10
84.49074489626582
 20
-32.14384497811352
 30
0.0
 11
84.49074489626582
 21
-37.40036579873095
 31
0.0
  0
LINE
  5
E0E000018BDB
330
E0E0000189C8
100
AcDbEntity
  8
AK(Z)-1550_5
  6
Continuous
 62
     7
 48
25.4
100
AcDbLine
 10
84.49074489626582
 20
-37.40036579873095
 30
0.0
 11
82.19021270028702
 21
-37.40036579873095
 31
0.0
  0
LINE
  5
E0E000018BDC
330
E0E0000189C8
100
AcDbEntity
  8
AK(Z)-1550_5
  6
Continuous
 62
     7
 48
25.4
100
AcDbLine
 10
81.835130556992
 20
-38.23589723653276
 30
0.0
 11
82.19021270028702
 21
-37.40036579873095
 31
0.0
  0
LINE
  5
E0E000018BDD
330
E0E0000189C8
100
AcDbEntity
  8
AK(Z)-1550_5
  6
Continuous
 62
     7
 48
25.4
100
AcDbLine
 10
84.84582703956062
 20
-38.23589723653276
 30
0.0
 11
81.835130556992
 21
-38.23589723653276
 31
0.0
  0
LINE
  5
E0E000018BDE
330
E0E0000189C8
100
AcDbEntity
  8
AK(Z)-1550_5
  6
Continuous
 62
     7
 48
25.4
100
AcDbLine
 10
81.835130556992
 20
-31.94022387130053
 30
0.0
 11
82.19021270028702
 21
-32.14384497811352
 31
0.0
  0
LINE
  5
E0E000018BDF
330
E0E0000189C8
100
AcDbEntity
  8
AK(Z)-1550_5
  6
Continuous
 62
     7
 48
25.4
100
AcDbLine
 10
81.835130556992
 20
-38.23589723653276
 30
0.0
 11
81.835130556992
 21
-31.94022387130053
 31
0.0
  0
LINE
  5
E0E000018BE0
330
E0E0000189C8
100
AcDbEntity
  8
AK(Z)-1550_5
  6
Continuous
 62
     7
 48
25.4
100
AcDbLine
 10
84.84582703956062
 20
-31.94022387130053
 30
0.0
 11
84.49074489626582
 21
-32.14384497811352
 31
0.0
  0
LINE
  5
E0E000018BE1
330
E0E0000189C8
100
AcDbEntity
  8
AK(Z)-1550_5
  6
Continuous
 62
     7
 48
25.4
100
AcDbLine
 10
81.835130556992
 20
-31.94022387130053
 30
0.0
 11
84.84582703956062
 21
-31.94022387130053
 31
0.0
  0
LINE
  5
E0E000018BE2
330
E0E0000189C8
100
AcDbEntity
  8
AK(Z)-1550_5
  6
Continuous
 62
     7
 48
25.4
100
AcDbLine
 10
84.84582703956062
 20
-31.94022387130053
 30
0.0
 11
84.84582703956062
 21
-38.23589723653276
 31
0.0
  0
LINE
  5
E0E000018BE3
330
E0E0000189C8
100
AcDbEntity
  8
AK(Z)-1550_5
  6
Continuous
 62
     7
 48
25.4
100
AcDbLine
 10
84.84582703956062
 20
-38.23589723653276
 30
0.0
 11
84.49074489626582
 21
-37.40036579873095
 31
0.0
  0
LINE
  5
E0E000018BE4
330
E0E0000189C8
100
AcDbEntity
  8
AK(Z)-1550_5
  6
Continuous
 62
     7
 48
25.4
100
AcDbLine
 10
88.30162649049089
 20
-37.40036579873095
 30
0.0
 11
86.00109429448935
 21
-37.40036579873095
 31
0.0
  0
LINE
  5
E0E000018BE5
330
E0E0000189C8
100
AcDbEntity
  8
AK(Z)-1550_5
  6
Continuous
 62
     7
 48
25.4
100
AcDbLine
 10
86.00109429448935
 20
-37.40036579873095
 30
0.0
 11
86.00109429448935
 21
-32.14384497811352
 31
0.0
  0
LINE
  5
E0E000018BE6
330
E0E0000189C8
100
AcDbEntity
  8
AK(Z)-1550_5
  6
Continuous
 62
     7
 48
25.4
100
AcDbLine
 10
86.00109429448935
 20
-32.14384497811352
 30
0.0
 11
88.30162649049089
 21
-32.14384497811352
 31
0.0
  0
LINE
  5
E0E000018BE7
330
E0E0000189C8
100
AcDbEntity
  8
AK(Z)-1550_5
  6
Continuous
 62
     7
 48
25.4
100
AcDbLine
 10
88.30162649049089
 20
-32.14384497811352
 30
0.0
 11
88.30162649049089
 21
-37.40036579873095
 31
0.0
  0
LINE
  5
E0E000018BE8
330
E0E0000189C8
100
AcDbEntity
  8
AK(Z)-1550_5
  6
Continuous
 62
     7
 48
25.4
100
AcDbLine
 10
85.64601215121729
 20
-31.94022387130053
 30
0.0
 11
86.00109429448935
 21
-32.14384497811352
 31
0.0
  0
LINE
  5
E0E000018BE9
330
E0E0000189C8
100
AcDbEntity
  8
AK(Z)-1550_5
  6
Continuous
 62
     7
 48
25.4
100
AcDbLine
 10
85.64601215121729
 20
-38.23589723653276
 30
0.0
 11
85.64601215121729
 21
-31.94022387130053
 31
0.0
  0
LINE
  5
E0E000018BEA
330
E0E0000189C8
100
AcDbEntity
  8
AK(Z)-1550_5
  6
Continuous
 62
     7
 48
25.4
100
AcDbLine
 10
88.65670863378568
 20
-31.94022387130053
 30
0.0
 11
88.30162649049089
 21
-32.14384497811352
 31
0.0
  0
LINE
  5
E0E000018BEB
330
E0E0000189C8
100
AcDbEntity
  8
AK(Z)-1550_5
  6
Continuous
 62
     7
 48
25.4
100
AcDbLine
 10
85.64601215121729
 20
-31.94022387130053
 30
0.0
 11
88.65670863378568
 21
-31.94022387130053
 31
0.0
  0
LINE
  5
E0E000018BEC
330
E0E0000189C8
100
AcDbEntity
  8
AK(Z)-1550_5
  6
Continuous
 62
     7
 48
25.4
100
AcDbLine
 10
88.65670863378568
 20
-38.23589723653276
 30
0.0
 11
88.30162649049089
 21
-37.40036579873095
 31
0.0
  0
LINE
  5
E0E000018BED
330
E0E0000189C8
100
AcDbEntity
  8
AK(Z)-1550_5
  6
Continuous
 62
     7
 48
25.4
100
AcDbLine
 10
88.65670863378568
 20
-31.94022387130053
 30
0.0
 11
88.65670863378568
 21
-38.23589723653276
 31
0.0
  0
LINE
  5
E0E000018BEE
330
E0E0000189C8
100
AcDbEntity
  8
AK(Z)-1550_5
  6
Continuous
 62
     7
 48
25.4
100
AcDbLine
 10
88.65670863378568
 20
-38.23589723653276
 30
0.0
 11
85.64601215121729
 21
-38.23589723653276
 31
0.0
  0
LINE
  5
E0E000018BEF
330
E0E0000189C8
100
AcDbEntity
  8
AK(Z)-1550_5
  6
Continuous
 62
     7
 48
25.4
100
AcDbLine
 10
85.64601215121729
 20
-38.23589723653276
 30
0.0
 11
86.00109429448935
 21
-37.40036579873095
 31
0.0
  0
LINE
  5
E0E000018BF0
330
E0E0000189C8
100
AcDbEntity
  8
AK(Z)-1550_5
  6
Continuous
 62
     7
 48
25.4
100
AcDbLine
 10
96.2784718222133
 20
-38.23589723653276
 30
0.0
 11
95.92338967891851
 21
-37.40036579873095
 31
0.0
  0
LINE
  5
E0E000018BF1
330
E0E0000189C8
100
AcDbEntity
  8
AK(Z)-1550_5
  6
Continuous
 62
     7
 48
25.4
100
AcDbLine
 10
93.26777533964491
 20
-38.23589723653276
 30
0.0
 11
96.2784718222133
 21
-38.23589723653276
 31
0.0
  0
LINE
  5
E0E000018BF2
330
E0E0000189C8
100
AcDbEntity
  8
AK(Z)-1550_5
  6
Continuous
 62
     7
 48
25.4
100
AcDbLine
 10
96.2784718222133
 20
-31.94022387130053
 30
0.0
 11
95.92338967891851
 21
-32.14384497811352
 31
0.0
  0
LINE
  5
E0E000018BF3
330
E0E0000189C8
100
AcDbEntity
  8
AK(Z)-1550_5
  6
Continuous
 62
     7
 48
25.4
100
AcDbLine
 10
96.2784718222133
 20
-38.23589723653276
 30
0.0
 11
96.2784718222133
 21
-31.94022387130053
 31
0.0
  0
LINE
  5
E0E000018BF4
330
E0E0000189C8
100
AcDbEntity
  8
AK(Z)-1550_5
  6
Continuous
 62
     7
 48
25.4
100
AcDbLine
 10
93.26777533964491
 20
-31.94022387130053
 30
0.0
 11
93.62285748293971
 21
-32.14384497811352
 31
0.0
  0
LINE
  5
E0E000018BF5
330
E0E0000189C8
100
AcDbEntity
  8
AK(Z)-1550_5
  6
Continuous
 62
     7
 48
25.4
100
AcDbLine
 10
96.2784718222133
 20
-31.94022387130053
 30
0.0
 11
93.26777533964491
 21
-31.94022387130053
 31
0.0
  0
LINE
  5
E0E000018BF6
330
E0E0000189C8
100
AcDbEntity
  8
AK(Z)-1550_5
  6
Continuous
 62
     7
 48
25.4
100
AcDbLine
 10
93.26777533964491
 20
-31.94022387130053
 30
0.0
 11
93.26777533964491
 21
-38.23589723653276
 31
0.0
  0
LINE
  5
E0E000018BF7
330
E0E0000189C8
100
AcDbEntity
  8
AK(Z)-1550_5
  6
Continuous
 62
     7
 48
25.4
100
AcDbLine
 10
93.26777533964491
 20
-38.23589723653276
 30
0.0
 11
93.62285748293971
 21
-37.40036579873095
 31
0.0
  0
LINE
  5
E0E000018BF8
330
E0E0000189C8
100
AcDbEntity
  8
AK(Z)-1550_5
  6
Continuous
 62
     7
 48
25.4
100
AcDbLine
 10
93.62285748293971
 20
-32.14384497811352
 30
0.0
 11
93.62285748293971
 21
-37.40036579873095
 31
0.0
  0
LINE
  5
E0E000018BF9
330
E0E0000189C8
100
AcDbEntity
  8
AK(Z)-1550_5
  6
Continuous
 62
     7
 48
25.4
100
AcDbLine
 10
93.62285748293971
 20
-37.40036579873095
 30
0.0
 11
95.92338967891851
 21
-37.40036579873095
 31
0.0
  0
LINE
  5
E0E000018BFA
330
E0E0000189C8
100
AcDbEntity
  8
AK(Z)-1550_5
  6
Continuous
 62
     7
 48
25.4
100
AcDbLine
 10
95.92338967891851
 20
-37.40036579873095
 30
0.0
 11
95.92338967891851
 21
-32.14384497811352
 31
0.0
  0
LINE
  5
E0E000018BFB
330
E0E0000189C8
100
AcDbEntity
  8
AK(Z)-1550_5
  6
Continuous
 62
     7
 48
25.4
100
AcDbLine
 10
95.92338967891851
 20
-32.14384497811352
 30
0.0
 11
93.62285748293971
 21
-32.14384497811352
 31
0.0
  0
LINE
  5
E0E000018BFC
330
E0E0000189C8
100
AcDbEntity
  8
AK(Z)-1550_5
  6
Continuous
 62
     7
 48
25.4
100
AcDbLine
 10
92.46759022798824
 20
-31.94022387130053
 30
0.0
 11
92.11250808469345
 21
-32.14384497811352
 31
0.0
  0
LINE
  5
E0E000018BFD
330
E0E0000189C8
100
AcDbEntity
  8
AK(Z)-1550_5
  6
Continuous
 62
     7
 48
25.4
100
AcDbLine
 10
92.46759022798824
 20
-38.23589723653276
 30
0.0
 11
92.46759022798824
 21
-31.94022387130053
 31
0.0
  0
LINE
  5
E0E000018BFE
330
E0E0000189C8
100
AcDbEntity
  8
AK(Z)-1550_5
  6
Continuous
 62
     7
 48
25.4
100
AcDbLine
 10
89.45689374541962
 20
-31.94022387130053
 30
0.0
 11
89.81197588871441
 21
-32.14384497811352
 31
0.0
  0
LINE
  5
E0E000018BFF
330
E0E0000189C8
100
AcDbEntity
  8
AK(Z)-1550_5
  6
Continuous
 62
     7
 48
25.4
100
AcDbLine
 10
92.46759022798824
 20
-31.94022387130053
 30
0.0
 11
89.45689374541962
 21
-31.94022387130053
 31
0.0
  0
LINE
  5
E0E000018C00
330
E0E0000189C8
100
AcDbEntity
  8
AK(Z)-1550_5
  6
Continuous
 62
     7
 48
25.4
100
AcDbLine
 10
89.45689374541962
 20
-38.23589723653276
 30
0.0
 11
89.81197588871441
 21
-37.40036579873095
 31
0.0
  0
LINE
  5
E0E000018C01
330
E0E0000189C8
100
AcDbEntity
  8
AK(Z)-1550_5
  6
Continuous
 62
     7
 48
25.4
100
AcDbLine
 10
89.45689374541962
 20
-31.94022387130053
 30
0.0
 11
89.45689374541962
 21
-38.23589723653276
 31
0.0
  0
LINE
  5
E0E000018C02
330
E0E0000189C8
100
AcDbEntity
  8
AK(Z)-1550_5
  6
Continuous
 62
     7
 48
25.4
100
AcDbLine
 10
89.45689374541962
 20
-38.23589723653276
 30
0.0
 11
92.46759022798824
 21
-38.23589723653276
 31
0.0
  0
LINE
  5
E0E000018C03
330
E0E0000189C8
100
AcDbEntity
  8
AK(Z)-1550_5
  6
Continuous
 62
     7
 48
25.4
100
AcDbLine
 10
92.46759022798824
 20
-38.23589723653276
 30
0.0
 11
92.11250808469345
 21
-37.40036579873095
 31
0.0
  0
LINE
  5
E0E000018C04
330
E0E0000189C8
100
AcDbEntity
  8
AK(Z)-1550_5
  6
Continuous
 62
     7
 48
25.4
100
AcDbLine
 10
89.81197588871441
 20
-37.40036579873095
 30
0.0
 11
92.11250808469345
 21
-37.40036579873095
 31
0.0
  0
LINE
  5
E0E000018C05
330
E0E0000189C8
100
AcDbEntity
  8
AK(Z)-1550_5
  6
Continuous
 62
     7
 48
25.4
100
AcDbLine
 10
92.11250808469345
 20
-37.40036579873095
 30
0.0
 11
92.11250808469345
 21
-32.14384497811352
 31
0.0
  0
LINE
  5
E0E000018C06
330
E0E0000189C8
100
AcDbEntity
  8
AK(Z)-1550_5
  6
Continuous
 62
     7
 48
25.4
100
AcDbLine
 10
92.11250808469345
 20
-32.14384497811352
 30
0.0
 11
89.81197588871441
 21
-32.14384497811352
 31
0.0
  0
LINE
  5
E0E000018C07
330
E0E0000189C8
100
AcDbEntity
  8
AK(Z)-1550_5
  6
Continuous
 62
     7
 48
25.4
100
AcDbLine
 10
89.81197588871441
 20
-32.14384497811352
 30
0.0
 11
89.81197588871441
 21
-37.40036579873095
 31
0.0
  0
LINE
  5
E0E000018C08
330
E0E0000189C8
100
AcDbEntity
  8
AK(Z)-1550_5
  6
Continuous
 62
     7
 48
25.4
100
AcDbLine
 10
100.0893534164159
 20
-38.23589723653276
 30
0.0
 11
97.07865693384724
 21
-38.23589723653276
 31
0.0
  0
LINE
  5
E0E000018C09
330
E0E0000189C8
100
AcDbEntity
  8
AK(Z)-1550_5
  6
Continuous
 62
     7
 48
25.4
100
AcDbLine
 10
97.07865693384724
 20
-38.23589723653276
 30
0.0
 11
97.07865693384724
 21
-31.94022387130053
 31
0.0
  0
LINE
  5
E0E000018C0A
330
E0E0000189C8
100
AcDbEntity
  8
AK(Z)-1550_5
  6
Continuous
 62
     7
 48
25.4
100
AcDbLine
 10
97.07865693384724
 20
-31.94022387130053
 30
0.0
 11
100.0893534164159
 21
-31.94022387130053
 31
0.0
  0
LINE
  5
E0E000018C0B
330
E0E0000189C8
100
AcDbEntity
  8
AK(Z)-1550_5
  6
Continuous
 62
     7
 48
25.4
100
AcDbLine
 10
100.0893534164159
 20
-31.94022387130053
 30
0.0
 11
100.0893534164159
 21
-38.23589723653276
 31
0.0
  0
LINE
  5
E0E000018C0C
330
E0E0000189C8
100
AcDbEntity
  8
AK(Z)-1550_5
  6
Continuous
 62
     7
 48
25.4
100
AcDbLine
 10
100.0893534164159
 20
-38.23589723653276
 30
0.0
 11
99.73427127312107
 21
-37.40036579873095
 31
0.0
  0
LINE
  5
E0E000018C0D
330
E0E0000189C8
100
AcDbEntity
  8
AK(Z)-1550_5
  6
Continuous
 62
     7
 48
25.4
100
AcDbLine
 10
99.73427127312107
 20
-37.40036579873095
 30
0.0
 11
97.43373907714204
 21
-37.40036579873095
 31
0.0
  0
LINE
  5
E0E000018C0E
330
E0E0000189C8
100
AcDbEntity
  8
AK(Z)-1550_5
  6
Continuous
 62
     7
 48
25.4
100
AcDbLine
 10
97.07865693384724
 20
-38.23589723653276
 30
0.0
 11
97.43373907714204
 21
-37.40036579873095
 31
0.0
  0
LINE
  5
E0E000018C0F
330
E0E0000189C8
100
AcDbEntity
  8
AK(Z)-1550_5
  6
Continuous
 62
     7
 48
25.4
100
AcDbLine
 10
97.43373907714204
 20
-37.40036579873095
 30
0.0
 11
97.43373907714204
 21
-32.14384497811352
 31
0.0
  0
LINE
  5
E0E000018C10
330
E0E0000189C8
100
AcDbEntity
  8
AK(Z)-1550_5
  6
Continuous
 62
     7
 48
25.4
100
AcDbLine
 10
97.07865693384724
 20
-31.94022387130053
 30
0.0
 11
97.43373907714204
 21
-32.14384497811352
 31
0.0
  0
LINE
  5
E0E000018C11
330
E0E0000189C8
100
AcDbEntity
  8
AK(Z)-1550_5
  6
Continuous
 62
     7
 48
25.4
100
AcDbLine
 10
97.43373907714204
 20
-32.14384497811352
 30
0.0
 11
99.73427127312107
 21
-32.14384497811352
 31
0.0
  0
LINE
  5
E0E000018C12
330
E0E0000189C8
100
AcDbEntity
  8
AK(Z)-1550_5
  6
Continuous
 62
     7
 48
25.4
100
AcDbLine
 10
99.73427127312107
 20
-32.14384497811352
 30
0.0
 11
99.73427127312107
 21
-37.40036579873095
 31
0.0
  0
LINE
  5
E0E000018C13
330
E0E0000189C8
100
AcDbEntity
  8
AK(Z)-1550_5
  6
Continuous
 62
     7
 48
25.4
100
AcDbLine
 10
100.0893534164159
 20
-31.94022387130053
 30
0.0
 11
99.73427127312107
 21
-32.14384497811352
 31
0.0
  0
LINE
  5
E0E000018C14
330
E0E0000189C8
100
AcDbEntity
  8
AK(Z)-1550_5
  6
Continuous
 62
     7
 48
25.4
100
AcDbLine
 10
100.8845373711217
 20
-38.63598979236122
 30
0.0
 11
81.03994660228614
 21
-38.63598979236122
 31
0.0
  0
LINE
  5
E0E000018C15
330
E0E0000189C8
100
AcDbEntity
  8
AK(Z)-1550_5
  6
Continuous
 62
     7
 48
25.4
100
AcDbLine
 10
100.8845373711217
 20
-31.54013131547208
 30
0.0
 11
100.8845373711217
 21
-38.63598979236122
 31
0.0
  0
LINE
  5
E0E000018C16
330
E0E0000189C8
100
AcDbEntity
  8
AK(Z)-1550_5
  6
Continuous
 62
     7
 48
25.4
100
AcDbLine
 10
100.8845373711217
 20
-38.63598979236122
 30
0.0
 11
100.8845373711217
 21
-42.32128979265508
 31
0.0
  0
LINE
  5
E0E000018C17
330
E0E0000189C8
100
AcDbEntity
  8
AK(Z)-1550_5
  6
Continuous
 62
     7
 48
25.4
100
AcDbLine
 10
100.8845373711217
 20
-42.32128979265508
 30
0.0
 11
100.8845373711217
 21
-42.64269973956107
 31
0.0
  0
LINE
  5
E0E000018C18
330
E0E0000189C8
100
AcDbEntity
  8
STL(Z)-1550_3V
  6
Continuous
 62
     7
 48
25.4
100
AcDbLine
 10
69.88251485223896
 20
-42.23096868743733
 30
0.0
 11
69.18735403650135
 21
-42.23096868743733
 31
0.0
  0
LINE
  5
E0E000018C19
330
E0E0000189C8
100
AcDbEntity
  8
STL(Z)-1550_3V
  6
Continuous
 62
     7
 48
25.4
100
AcDbLine
 10
57.75470925384866
 20
-42.23096868743733
 30
0.0
 11
57.05954843811105
 21
-42.23096868743733
 31
0.0
  0
LINE
  5
E0E000018C1A
330
E0E0000189C8
100
AcDbEntity
  8
STL(Z)-1550_3V
  6
Continuous
 62
     7
 48
25.4
100
AcDbLine
 10
69.88251485223896
 20
-35.22934896055494
 30
0.0
 11
69.88251485223896
 21
-42.23096868743733
 31
0.0
  0
LINE
  5
E0E000018C1B
330
E0E0000189C8
100
AcDbEntity
  8
STL(Z)-1550_3V
  6
Continuous
 62
     7
 48
25.4
100
AcDbLine
 10
69.88251485223896
 20
-42.7310843822338
 30
0.0
 11
69.88251485223896
 21
-42.23096868743733
 31
0.0
  0
LINE
  5
E0E000018C1C
330
E0E0000189C8
100
AcDbEntity
  8
STL(Z)-1550_3V
  6
Continuous
 62
     7
 48
25.4
100
AcDbLine
 10
57.05954843811105
 20
-42.7310843822338
 30
0.0
 11
69.88251485223896
 21
-42.7310843822338
 31
0.0
  0
LINE
  5
E0E000018C1D
330
E0E0000189C8
100
AcDbEntity
  8
STL(Z)-1550_3V
  6
Continuous
 62
     7
 48
25.4
100
AcDbLine
 10
57.05954843811105
 20
-35.22934896055494
 30
0.0
 11
57.75470925384866
 21
-35.22934896055494
 31
0.0
  0
LINE
  5
E0E000018C1E
330
E0E0000189C8
100
AcDbEntity
  8
STL(Z)-1550_3V
  6
Continuous
 62
     7
 48
25.4
100
AcDbLine
 10
69.18735403650135
 20
-35.22934896055494
 30
0.0
 11
69.88251485223896
 21
-35.22934896055494
 31
0.0
  0
LINE
  5
E0E000018C1F
330
E0E0000189C8
100
AcDbEntity
  8
STL(Z)-1550_3V
  6
Continuous
 62
     7
 48
25.4
100
AcDbLine
 10
57.05954843811105
 20
-42.7310843822338
 30
0.0
 11
57.05954843811105
 21
-42.23096868743733
 31
0.0
  0
LINE
  5
E0E000018C20
330
E0E0000189C8
100
AcDbEntity
  8
STL(Z)-1550_3V
  6
Continuous
 62
     7
 48
25.4
100
AcDbLine
 10
57.05954843811105
 20
-42.23096868743733
 30
0.0
 11
57.05954843811105
 21
-35.22934896055494
 31
0.0
  0
LINE
  5
E0E000018C21
330
E0E0000189C8
100
AcDbEntity
  8
BASE_4_M
  6
Continuous
 62
     7
 48
25.4
100
AcDbLine
 10
80.73987718542617
 20
-42.59141155145926
 30
0.0
 11
69.88251485223896
 21
-42.59141155145926
 31
0.0
  0
LINE
  5
E0E000018C22
330
E0E0000189C8
100
AcDbEntity
  8
BASE_4_M
  6
Continuous
 62
     7
 48
25.4
100
AcDbLine
 10
80.73987718542617
 20
-42.7310843822338
 30
0.0
 11
69.88251485223896
 21
-42.7310843822338
 31
0.0
  0
LINE
  5
E0E000018C23
330
E0E0000189C8
100
AcDbEntity
  8
TAPA_4_M
  6
Continuous
 62
     7
 48
25.4
100
AcDbLine
 10
79.76465158060887
 20
-31.96113784064846
 30
0.0
 11
81.03994660228614
 21
-31.96113784064846
 31
0.0
  0
LINE
  5
E0E000018C24
330
E0E0000189C8
100
AcDbEntity
  8
TAPA_4_M
  6
Continuous
 62
     7
 48
25.4
100
AcDbLine
 10
69.18735403650135
 20
-31.97859694451199
 30
0.0
 11
81.03994660228614
 21
-31.97859694451199
 31
0.0
  0
LINE
  5
E0E000018C25
330
E0E0000189C8
100
AcDbEntity
  8
AK(Z)-1550_3
  6
Continuous
 62
     7
 48
25.4
100
AcDbLine
 10
57.75470925384866
 20
-31.29007346807384
 30
0.0
 11
69.18735403650135
 21
-31.29007346807384
 31
0.0
  0
LINE
  5
E0E000018C26
330
E0E0000189C8
100
AcDbEntity
  8
AK(Z)-1550_3
  6
Continuous
 62
     7
 48
25.4
100
AcDbLine
 10
57.75470925384866
 20
-38.38593194496252
 30
0.0
 11
57.75470925384866
 21
-31.29007346807384
 31
0.0
  0
LINE
  5
E0E000018C27
330
E0E0000189C8
100
AcDbEntity
  8
AK(Z)-1550_3
  6
Continuous
 62
     7
 48
25.4
100
AcDbLine
 10
57.75470925384866
 20
-38.38593194496252
 30
0.0
 11
57.75470925384866
 21
-42.07123194525684
 31
0.0
  0
LINE
  5
E0E000018C28
330
E0E0000189C8
100
AcDbEntity
  8
AK(Z)-1550_3
  6
Continuous
 62
     7
 48
25.4
100
AcDbLine
 10
57.75470925384866
 20
-42.07123194525684
 30
0.0
 11
57.75470925384866
 21
-42.39264189216237
 31
0.0
  0
LINE
  5
E0E000018C29
330
E0E0000189C8
100
AcDbEntity
  8
AK(Z)-1550_3
  6
Continuous
 62
     7
 48
25.4
100
AcDbLine
 10
57.75470925384866
 20
-42.07123194525684
 30
0.0
 11
69.18735403650135
 21
-42.07123194525684
 31
0.0
  0
LINE
  5
E0E000018C2A
330
E0E0000189C8
100
AcDbEntity
  8
AK(Z)-1550_3
  6
Continuous
 62
     7
 48
25.4
100
AcDbLine
 10
57.75470925384866
 20
-42.39264189216237
 30
0.0
 11
69.18735403650135
 21
-42.39264189216237
 31
0.0
  0
LINE
  5
E0E000018C2B
330
E0E0000189C8
100
AcDbEntity
  8
AK(Z)-1550_3
  6
Continuous
 62
     7
 48
25.4
100
AcDbLine
 10
58.50988395297168
 20
-37.15030795137818
 30
0.0
 11
58.50988395297168
 21
-31.89378713071483
 31
0.0
  0
LINE
  5
E0E000018C2C
330
E0E0000189C8
100
AcDbEntity
  8
AK(Z)-1550_3
  6
Continuous
 62
     7
 48
25.4
100
AcDbLine
 10
58.50988395297168
 20
-31.89378713071483
 30
0.0
 11
60.61287044951177
 21
-31.89378713071483
 31
0.0
  0
LINE
  5
E0E000018C2D
330
E0E0000189C8
100
AcDbEntity
  8
AK(Z)-1550_3
  6
Continuous
 62
     7
 48
25.4
100
AcDbLine
 10
60.81041614895071
 20
-31.89378713071483
 30
0.0
 11
60.81041614895071
 21
-37.15030795137818
 31
0.0
  0
LINE
  5
E0E000018C2E
330
E0E0000189C8
100
AcDbEntity
  8
AK(Z)-1550_3
  6
Continuous
 62
     7
 48
25.4
100
AcDbLine
 10
60.81041614895071
 20
-37.15030795137818
 30
0.0
 11
60.61287044951177
 21
-37.15030795137818
 31
0.0
  0
LINE
  5
E0E000018C2F
330
E0E0000189C8
100
AcDbEntity
  8
AK(Z)-1550_3
  6
Continuous
 62
     7
 48
25.4
100
AcDbLine
 10
57.95725611023818
 20
-37.98583938913453
 30
0.0
 11
58.50988395297168
 21
-37.15030795137818
 31
0.0
  0
LINE
  5
E0E000018C30
330
E0E0000189C8
100
AcDbEntity
  8
AK(Z)-1550_3
  6
Continuous
 62
     7
 48
25.4
100
AcDbLine
 10
61.36304399168421
 20
-37.98583938913453
 30
0.0
 11
57.95725611023818
 21
-37.98583938913453
 31
0.0
  0
LINE
  5
E0E000018C31
330
E0E0000189C8
100
AcDbEntity
  8
AK(Z)-1550_3
  6
Continuous
 62
     7
 48
25.4
100
AcDbLine
 10
57.95725611023818
 20
-31.69016602390229
 30
0.0
 11
58.50988395297168
 21
-31.89378713071483
 31
0.0
  0
LINE
  5
E0E000018C32
330
E0E0000189C8
100
AcDbEntity
  8
AK(Z)-1550_3
  6
Continuous
 62
     7
 48
25.4
100
AcDbLine
 10
57.95725611023818
 20
-37.98583938913453
 30
0.0
 11
57.95725611023818
 21
-31.69016602390229
 31
0.0
  0
LINE
  5
E0E000018C33
330
E0E0000189C8
100
AcDbEntity
  8
AK(Z)-1550_3
  6
Continuous
 62
     7
 48
25.4
100
AcDbLine
 10
61.36304399168421
 20
-31.69016602390229
 30
0.0
 11
60.81041614895071
 21
-31.89378713071483
 31
0.0
  0
LINE
  5
E0E000018C34
330
E0E0000189C8
100
AcDbEntity
  8
AK(Z)-1550_3
  6
Continuous
 62
     7
 48
25.4
100
AcDbLine
 10
57.95725611023818
 20
-31.69016602390229
 30
0.0
 11
61.36304399168421
 21
-31.69016602390229
 31
0.0
  0
LINE
  5
E0E000018C35
330
E0E0000189C8
100
AcDbEntity
  8
AK(Z)-1550_3
  6
Continuous
 62
     7
 48
25.4
100
AcDbLine
 10
61.36304399168421
 20
-31.69016602390229
 30
0.0
 11
61.36304399168421
 21
-37.98583938913453
 31
0.0
  0
LINE
  5
E0E000018C36
330
E0E0000189C8
100
AcDbEntity
  8
AK(Z)-1550_3
  6
Continuous
 62
     7
 48
25.4
100
AcDbLine
 10
61.36304399168421
 20
-37.98583938913453
 30
0.0
 11
60.81041614895071
 21
-37.15030795137818
 31
0.0
  0
LINE
  5
E0E000018C37
330
E0E0000189C8
100
AcDbEntity
  8
AK(Z)-1550_3
  6
Continuous
 62
     7
 48
25.4
100
AcDbLine
 10
60.61287044951177
 20
-31.89378713071483
 30
0.0
 11
60.81041614895071
 21
-31.89378713071483
 31
0.0
  0
LINE
  5
E0E000018C38
330
E0E0000189C8
100
AcDbEntity
  8
AK(Z)-1550_3
  6
Continuous
 62
     7
 48
25.4
100
AcDbLine
 10
60.61287044951177
 20
-31.89378713071483
 30
0.0
 11
60.61287044951177
 21
-37.15030795137818
 31
0.0
  0
LINE
  5
E0E000018C39
330
E0E0000189C8
100
AcDbEntity
  8
AK(Z)-1550_3
  6
Continuous
 62
     7
 48
25.4
100
AcDbLine
 10
60.61287044951177
 20
-37.15030795137818
 30
0.0
 11
58.50988395297168
 21
-37.15030795137818
 31
0.0
  0
LINE
  5
E0E000018C3A
330
E0E0000189C8
100
AcDbEntity
  8
AK(Z)-1550_3
  6
Continuous
 62
     7
 48
25.4
100
AcDbLine
 10
64.62129774315304
 20
-37.15030795137818
 30
0.0
 11
62.51831124661294
 21
-37.15030795137818
 31
0.0
  0
LINE
  5
E0E000018C3B
330
E0E0000189C8
100
AcDbEntity
  8
AK(Z)-1550_3
  6
Continuous
 62
     7
 48
25.4
100
AcDbLine
 10
62.32076554717423
 20
-37.15030795137818
 30
0.0
 11
62.32076554717423
 21
-31.89378713071483
 31
0.0
  0
LINE
  5
E0E000018C3C
330
E0E0000189C8
100
AcDbEntity
  8
AK(Z)-1550_3
  6
Continuous
 62
     7
 48
25.4
100
AcDbLine
 10
62.32076554717423
 20
-31.89378713071483
 30
0.0
 11
62.51831124661294
 21
-31.89378713071483
 31
0.0
  0
LINE
  5
E0E000018C3D
330
E0E0000189C8
100
AcDbEntity
  8
AK(Z)-1550_3
  6
Continuous
 62
     7
 48
25.4
100
AcDbLine
 10
64.62129774315304
 20
-31.89378713071483
 30
0.0
 11
64.62129774315304
 21
-37.15030795137818
 31
0.0
  0
LINE
  5
E0E000018C3E
330
E0E0000189C8
100
AcDbEntity
  8
AK(Z)-1550_3
  6
Continuous
 62
     7
 48
25.4
100
AcDbLine
 10
61.76813770444051
 20
-31.69016602390229
 30
0.0
 11
62.32076554717423
 21
-31.89378713071483
 31
0.0
  0
LINE
  5
E0E000018C3F
330
E0E0000189C8
100
AcDbEntity
  8
AK(Z)-1550_3
  6
Continuous
 62
     7
 48
25.4
100
AcDbLine
 10
61.76813770444051
 20
-37.98583938913453
 30
0.0
 11
61.76813770444051
 21
-31.69016602390229
 31
0.0
  0
LINE
  5
E0E000018C40
330
E0E0000189C8
100
AcDbEntity
  8
AK(Z)-1550_3
  6
Continuous
 62
     7
 48
25.4
100
AcDbLine
 10
65.17392558588676
 20
-31.69016602390229
 30
0.0
 11
64.62129774315304
 21
-31.89378713071483
 31
0.0
  0
LINE
  5
E0E000018C41
330
E0E0000189C8
100
AcDbEntity
  8
AK(Z)-1550_3
  6
Continuous
 62
     7
 48
25.4
100
AcDbLine
 10
61.76813770444051
 20
-31.69016602390229
 30
0.0
 11
65.17392558588676
 21
-31.69016602390229
 31
0.0
  0
LINE
  5
E0E000018C42
330
E0E0000189C8
100
AcDbEntity
  8
AK(Z)-1550_3
  6
Continuous
 62
     7
 48
25.4
100
AcDbLine
 10
65.17392558588676
 20
-37.98583938913453
 30
0.0
 11
64.62129774315304
 21
-37.15030795137818
 31
0.0
  0
LINE
  5
E0E000018C43
330
E0E0000189C8
100
AcDbEntity
  8
AK(Z)-1550_3
  6
Continuous
 62
     7
 48
25.4
100
AcDbLine
 10
65.17392558588676
 20
-31.69016602390229
 30
0.0
 11
65.17392558588676
 21
-37.98583938913453
 31
0.0
  0
LINE
  5
E0E000018C44
330
E0E0000189C8
100
AcDbEntity
  8
AK(Z)-1550_3
  6
Continuous
 62
     7
 48
25.4
100
AcDbLine
 10
65.17392558588676
 20
-37.98583938913453
 30
0.0
 11
61.76813770444051
 21
-37.98583938913453
 31
0.0
  0
LINE
  5
E0E000018C45
330
E0E0000189C8
100
AcDbEntity
  8
AK(Z)-1550_3
  6
Continuous
 62
     7
 48
25.4
100
AcDbLine
 10
61.76813770444051
 20
-37.98583938913453
 30
0.0
 11
62.32076554717423
 21
-37.15030795137818
 31
0.0
  0
LINE
  5
E0E000018C46
330
E0E0000189C8
100
AcDbEntity
  8
AK(Z)-1550_3
  6
Continuous
 62
     7
 48
25.4
100
AcDbLine
 10
62.51831124661294
 20
-37.15030795137818
 30
0.0
 11
62.32076554717423
 21
-37.15030795137818
 31
0.0
  0
LINE
  5
E0E000018C47
330
E0E0000189C8
100
AcDbEntity
  8
AK(Z)-1550_3
  6
Continuous
 62
     7
 48
25.4
100
AcDbLine
 10
62.51831124661294
 20
-37.15030795137818
 30
0.0
 11
62.51831124661294
 21
-31.89378713071483
 31
0.0
  0
LINE
  5
E0E000018C48
330
E0E0000189C8
100
AcDbEntity
  8
AK(Z)-1550_3
  6
Continuous
 62
     7
 48
25.4
100
AcDbLine
 10
64.62129774315304
 20
-31.89378713071483
 30
0.0
 11
62.51831124661294
 21
-31.89378713071483
 31
0.0
  0
LINE
  5
E0E000018C49
330
E0E0000189C8
100
AcDbEntity
  8
AK(Z)-1550_3
  6
Continuous
 62
     7
 48
25.4
100
AcDbLine
 10
68.2346336379394
 20
-37.15030795137818
 30
0.0
 11
68.43217933737833
 21
-37.15030795137818
 31
0.0
  0
LINE
  5
E0E000018C4A
330
E0E0000189C8
100
AcDbEntity
  8
AK(Z)-1550_3
  6
Continuous
 62
     7
 48
25.4
100
AcDbLine
 10
68.43217933737833
 20
-37.15030795137818
 30
0.0
 11
68.43217933737833
 21
-31.89378713071483
 31
0.0
  0
LINE
  5
E0E000018C4B
330
E0E0000189C8
100
AcDbEntity
  8
AK(Z)-1550_3
  6
Continuous
 62
     7
 48
25.4
100
AcDbLine
 10
68.43217933737833
 20
-31.89378713071483
 30
0.0
 11
68.2346336379394
 21
-31.89378713071483
 31
0.0
  0
LINE
  5
E0E000018C4C
330
E0E0000189C8
100
AcDbEntity
  8
AK(Z)-1550_3
  6
Continuous
 62
     7
 48
25.4
100
AcDbLine
 10
68.98480718011183
 20
-31.69016602390229
 30
0.0
 11
68.43217933737833
 21
-31.89378713071483
 31
0.0
  0
LINE
  5
E0E000018C4D
330
E0E0000189C8
100
AcDbEntity
  8
AK(Z)-1550_3
  6
Continuous
 62
     7
 48
25.4
100
AcDbLine
 10
68.98480718011183
 20
-37.98583938913453
 30
0.0
 11
68.98480718011183
 21
-31.69016602390229
 31
0.0
  0
LINE
  5
E0E000018C4E
330
E0E0000189C8
100
AcDbEntity
  8
AK(Z)-1550_3
  6
Continuous
 62
     7
 48
25.4
100
AcDbLine
 10
65.5790192986658
 20
-31.69016602390229
 30
0.0
 11
66.1316471413993
 21
-31.89378713071483
 31
0.0
  0
LINE
  5
E0E000018C4F
330
E0E0000189C8
100
AcDbEntity
  8
AK(Z)-1550_3
  6
Continuous
 62
     7
 48
25.4
100
AcDbLine
 10
66.1316471413993
 20
-31.89378713071483
 30
0.0
 11
68.2346336379394
 21
-31.89378713071483
 31
0.0
  0
LINE
  5
E0E000018C50
330
E0E0000189C8
100
AcDbEntity
  8
AK(Z)-1550_3
  6
Continuous
 62
     7
 48
25.4
100
AcDbLine
 10
68.98480718011183
 20
-31.69016602390229
 30
0.0
 11
65.5790192986658
 21
-31.69016602390229
 31
0.0
  0
LINE
  5
E0E000018C51
330
E0E0000189C8
100
AcDbEntity
  8
AK(Z)-1550_3
  6
Continuous
 62
     7
 48
25.4
100
AcDbLine
 10
65.5790192986658
 20
-37.98583938913453
 30
0.0
 11
66.1316471413993
 21
-37.15030795137818
 31
0.0
  0
LINE
  5
E0E000018C52
330
E0E0000189C8
100
AcDbEntity
  8
AK(Z)-1550_3
  6
Continuous
 62
     7
 48
25.4
100
AcDbLine
 10
65.5790192986658
 20
-31.69016602390229
 30
0.0
 11
65.5790192986658
 21
-37.98583938913453
 31
0.0
  0
LINE
  5
E0E000018C53
330
E0E0000189C8
100
AcDbEntity
  8
AK(Z)-1550_3
  6
Continuous
 62
     7
 48
25.4
100
AcDbLine
 10
65.5790192986658
 20
-37.98583938913453
 30
0.0
 11
68.98480718011183
 21
-37.98583938913453
 31
0.0
  0
LINE
  5
E0E000018C54
330
E0E0000189C8
100
AcDbEntity
  8
AK(Z)-1550_3
  6
Continuous
 62
     7
 48
25.4
100
AcDbLine
 10
68.98480718011183
 20
-37.98583938913453
 30
0.0
 11
68.43217933737833
 21
-37.15030795137818
 31
0.0
  0
LINE
  5
E0E000018C55
330
E0E0000189C8
100
AcDbEntity
  8
AK(Z)-1550_3
  6
Continuous
 62
     7
 48
25.4
100
AcDbLine
 10
66.1316471413993
 20
-31.89378713071483
 30
0.0
 11
66.1316471413993
 21
-37.15030795137818
 31
0.0
  0
LINE
  5
E0E000018C56
330
E0E0000189C8
100
AcDbEntity
  8
AK(Z)-1550_3
  6
Continuous
 62
     7
 48
25.4
100
AcDbLine
 10
66.1316471413993
 20
-37.15030795137818
 30
0.0
 11
68.2346336379394
 21
-37.15030795137818
 31
0.0
  0
LINE
  5
E0E000018C57
330
E0E0000189C8
100
AcDbEntity
  8
AK(Z)-1550_3
  6
Continuous
 62
     7
 48
25.4
100
AcDbLine
 10
68.2346336379394
 20
-37.15030795137818
 30
0.0
 11
68.2346336379394
 21
-31.89378713071483
 31
0.0
  0
LINE
  5
E0E000018C58
330
E0E0000189C8
100
AcDbEntity
  8
AK(Z)-1550_3
  6
Continuous
 62
     7
 48
25.4
100
AcDbLine
 10
69.18735403650135
 20
-38.38593194496252
 30
0.0
 11
57.75470925384866
 21
-38.38593194496252
 31
0.0
  0
LINE
  5
E0E000018C59
330
E0E0000189C8
100
AcDbEntity
  8
AK(Z)-1550_3
  6
Continuous
 62
     7
 48
25.4
100
AcDbLine
 10
69.18735403650135
 20
-38.38593194496252
 30
0.0
 11
69.18735403650135
 21
-31.29007346807384
 31
0.0
  0
LINE
  5
E0E000018C5A
330
E0E0000189C8
100
AcDbEntity
  8
AK(Z)-1550_3
  6
Continuous
 62
     7
 48
25.4
100
AcDbLine
 10
69.18735403650135
 20
-38.38593194496252
 30
0.0
 11
69.18735403650135
 21
-42.07123194525684
 31
0.0
  0
LINE
  5
E0E000018C5B
330
E0E0000189C8
100
AcDbEntity
  8
AK(Z)-1550_3
  6
Continuous
 62
     7
 48
25.4
100
AcDbLine
 10
69.18735403650135
 20
-42.07123194525684
 30
0.0
 11
69.18735403650135
 21
-42.39264189216237
 31
0.0
  0
LINE
  5
E0E000018C5C
330
E0E0000189C8
100
AcDbEntity
  8
STL(Z)-1550_3V
  6
Continuous
 62
     7
 48
25.4
100
AcDbLine
 10
49.50598154381078
 20
-42.48102653483556
 30
0.0
 11
48.81082072805066
 21
-42.48102653483556
 31
0.0
  0
LINE
  5
E0E000018C5D
330
E0E0000189C8
100
AcDbEntity
  8
STL(Z)-1550_3V
  6
Continuous
 62
     7
 48
25.4
100
AcDbLine
 10
37.37817594542048
 20
-42.48102653483556
 30
0.0
 11
36.6830151296831
 21
-42.48102653483556
 31
0.0
  0
LINE
  5
E0E000018C5E
330
E0E0000189C8
100
AcDbEntity
  8
STL(Z)-1550_3V
  6
Continuous
 62
     7
 48
25.4
100
AcDbLine
 10
49.50598154381078
 20
-35.47940680795318
 30
0.0
 11
49.50598154381078
 21
-42.48102653483556
 31
0.0
  0
LINE
  5
E0E000018C5F
330
E0E0000189C8
100
AcDbEntity
  8
STL(Z)-1550_3V
  6
Continuous
 62
     7
 48
25.4
100
AcDbLine
 10
49.50598154381078
 20
-42.9811422296325
 30
0.0
 11
49.50598154381078
 21
-42.48102653483556
 31
0.0
  0
LINE
  5
E0E000018C60
330
E0E0000189C8
100
AcDbEntity
  8
STL(Z)-1550_3V
  6
Continuous
 62
     7
 48
25.4
100
AcDbLine
 10
36.6830151296831
 20
-42.9811422296325
 30
0.0
 11
49.50598154381078
 21
-42.9811422296325
 31
0.0
  0
LINE
  5
E0E000018C61
330
E0E0000189C8
100
AcDbEntity
  8
STL(Z)-1550_3V
  6
Continuous
 62
     7
 48
25.4
100
AcDbLine
 10
36.6830151296831
 20
-35.47940680795318
 30
0.0
 11
37.37817594542048
 21
-35.47940680795318
 31
0.0
  0
LINE
  5
E0E000018C62
330
E0E0000189C8
100
AcDbEntity
  8
STL(Z)-1550_3V
  6
Continuous
 62
     7
 48
25.4
100
AcDbLine
 10
48.81082072805066
 20
-35.47940680795318
 30
0.0
 11
49.50598154381078
 21
-35.47940680795318
 31
0.0
  0
LINE
  5
E0E000018C63
330
E0E0000189C8
100
AcDbEntity
  8
STL(Z)-1550_3V
  6
Continuous
 62
     7
 48
25.4
100
AcDbLine
 10
36.6830151296831
 20
-42.9811422296325
 30
0.0
 11
36.6830151296831
 21
-42.48102653483556
 31
0.0
  0
LINE
  5
E0E000018C64
330
E0E0000189C8
100
AcDbEntity
  8
STL(Z)-1550_3V
  6
Continuous
 62
     7
 48
25.4
100
AcDbLine
 10
36.6830151296831
 20
-42.48102653483556
 30
0.0
 11
36.6830151296831
 21
-35.47940680795318
 31
0.0
  0
LINE
  5
E0E000018C65
330
E0E0000189C8
100
AcDbEntity
  8
AK(Z)-1550_3
  6
Continuous
 62
     7
 48
25.4
100
AcDbLine
 10
37.37817594542048
 20
-31.54013131547208
 30
0.0
 11
48.81082072805066
 21
-31.54013131547208
 31
0.0
  0
LINE
  5
E0E000018C66
330
E0E0000189C8
100
AcDbEntity
  8
AK(Z)-1550_3
  6
Continuous
 62
     7
 48
25.4
100
AcDbLine
 10
37.37817594542048
 20
-38.63598979236122
 30
0.0
 11
37.37817594542048
 21
-31.54013131547208
 31
0.0
  0
LINE
  5
E0E000018C67
330
E0E0000189C8
100
AcDbEntity
  8
AK(Z)-1550_3
  6
Continuous
 62
     7
 48
25.4
100
AcDbLine
 10
37.37817594542048
 20
-38.63598979236122
 30
0.0
 11
37.37817594542048
 21
-42.32128979265508
 31
0.0
  0
LINE
  5
E0E000018C68
330
E0E0000189C8
100
AcDbEntity
  8
AK(Z)-1550_3
  6
Continuous
 62
     7
 48
25.4
100
AcDbLine
 10
37.37817594542048
 20
-42.32128979265508
 30
0.0
 11
37.37817594542048
 21
-42.64269973956107
 31
0.0
  0
LINE
  5
E0E000018C69
330
E0E0000189C8
100
AcDbEntity
  8
AK(Z)-1550_3
  6
Continuous
 62
     7
 48
25.4
100
AcDbLine
 10
37.37817594542048
 20
-42.32128979265508
 30
0.0
 11
48.81082072805066
 21
-42.32128979265508
 31
0.0
  0
LINE
  5
E0E000018C6A
330
E0E0000189C8
100
AcDbEntity
  8
AK(Z)-1550_3
  6
Continuous
 62
     7
 48
25.4
100
AcDbLine
 10
37.37817594542048
 20
-42.64269973956107
 30
0.0
 11
48.81082072805066
 21
-42.64269973956107
 31
0.0
  0
LINE
  5
E0E000018C6B
330
E0E0000189C8
100
AcDbEntity
  8
AK(Z)-1550_3
  6
Continuous
 62
     7
 48
25.4
100
AcDbLine
 10
38.13335064454373
 20
-37.40036579873095
 30
0.0
 11
38.13335064454373
 21
-32.14384497811352
 31
0.0
  0
LINE
  5
E0E000018C6C
330
E0E0000189C8
100
AcDbEntity
  8
AK(Z)-1550_3
  6
Continuous
 62
     7
 48
25.4
100
AcDbLine
 10
38.13335064454373
 20
-32.14384497811352
 30
0.0
 11
40.23633714108382
 21
-32.14384497811352
 31
0.0
  0
LINE
  5
E0E000018C6D
330
E0E0000189C8
100
AcDbEntity
  8
AK(Z)-1550_3
  6
Continuous
 62
     7
 48
25.4
100
AcDbLine
 10
40.43388284052253
 20
-32.14384497811352
 30
0.0
 11
40.43388284052253
 21
-37.40036579873095
 31
0.0
  0
LINE
  5
E0E000018C6E
330
E0E0000189C8
100
AcDbEntity
  8
AK(Z)-1550_3
  6
Continuous
 62
     7
 48
25.4
100
AcDbLine
 10
40.43388284052253
 20
-37.40036579873095
 30
0.0
 11
40.23633714108382
 21
-37.40036579873095
 31
0.0
  0
LINE
  5
E0E000018C6F
330
E0E0000189C8
100
AcDbEntity
  8
AK(Z)-1550_3
  6
Continuous
 62
     7
 48
25.4
100
AcDbLine
 10
37.58072280181
 20
-38.23589723653276
 30
0.0
 11
38.13335064454373
 21
-37.40036579873095
 31
0.0
  0
LINE
  5
E0E000018C70
330
E0E0000189C8
100
AcDbEntity
  8
AK(Z)-1550_3
  6
Continuous
 62
     7
 48
25.4
100
AcDbLine
 10
40.98651068325626
 20
-38.23589723653276
 30
0.0
 11
37.58072280181
 21
-38.23589723653276
 31
0.0
  0
LINE
  5
E0E000018C71
330
E0E0000189C8
100
AcDbEntity
  8
AK(Z)-1550_3
  6
Continuous
 62
     7
 48
25.4
100
AcDbLine
 10
37.58072280181
 20
-31.94022387130053
 30
0.0
 11
38.13335064454373
 21
-32.14384497811352
 31
0.0
  0
LINE
  5
E0E000018C72
330
E0E0000189C8
100
AcDbEntity
  8
AK(Z)-1550_3
  6
Continuous
 62
     7
 48
25.4
100
AcDbLine
 10
37.58072280181
 20
-38.23589723653276
 30
0.0
 11
37.58072280181
 21
-31.94022387130053
 31
0.0
  0
LINE
  5
E0E000018C73
330
E0E0000189C8
100
AcDbEntity
  8
AK(Z)-1550_3
  6
Continuous
 62
     7
 48
25.4
100
AcDbLine
 10
40.98651068325626
 20
-31.94022387130053
 30
0.0
 11
40.43388284052253
 21
-32.14384497811352
 31
0.0
  0
LINE
  5
E0E000018C74
330
E0E0000189C8
100
AcDbEntity
  8
AK(Z)-1550_3
  6
Continuous
 62
     7
 48
25.4
100
AcDbLine
 10
37.58072280181
 20
-31.94022387130053
 30
0.0
 11
40.98651068325626
 21
-31.94022387130053
 31
0.0
  0
LINE
  5
E0E000018C75
330
E0E0000189C8
100
AcDbEntity
  8
AK(Z)-1550_3
  6
Continuous
 62
     7
 48
25.4
100
AcDbLine
 10
40.98651068325626
 20
-31.94022387130053
 30
0.0
 11
40.98651068325626
 21
-38.23589723653276
 31
0.0
  0
LINE
  5
E0E000018C76
330
E0E0000189C8
100
AcDbEntity
  8
AK(Z)-1550_3
  6
Continuous
 62
     7
 48
25.4
100
AcDbLine
 10
40.98651068325626
 20
-38.23589723653276
 30
0.0
 11
40.43388284052253
 21
-37.40036579873095
 31
0.0
  0
LINE
  5
E0E000018C77
330
E0E0000189C8
100
AcDbEntity
  8
AK(Z)-1550_3
  6
Continuous
 62
     7
 48
25.4
100
AcDbLine
 10
40.23633714108382
 20
-32.14384497811352
 30
0.0
 11
40.43388284052253
 21
-32.14384497811352
 31
0.0
  0
LINE
  5
E0E000018C78
330
E0E0000189C8
100
AcDbEntity
  8
AK(Z)-1550_3
  6
Continuous
 62
     7
 48
25.4
100
AcDbLine
 10
40.23633714108382
 20
-32.14384497811352
 30
0.0
 11
40.23633714108382
 21
-37.40036579873095
 31
0.0
  0
LINE
  5
E0E000018C79
330
E0E0000189C8
100
AcDbEntity
  8
AK(Z)-1550_3
  6
Continuous
 62
     7
 48
25.4
100
AcDbLine
 10
40.23633714108382
 20
-37.40036579873095
 30
0.0
 11
38.13335064454373
 21
-37.40036579873095
 31
0.0
  0
LINE
  5
E0E000018C7A
330
E0E0000189C8
100
AcDbEntity
  8
AK(Z)-1550_3
  6
Continuous
 62
     7
 48
25.4
100
AcDbLine
 10
44.24476443472508
 20
-37.40036579873095
 30
0.0
 11
42.14177793818499
 21
-37.40036579873095
 31
0.0
  0
LINE
  5
E0E000018C7B
330
E0E0000189C8
100
AcDbEntity
  8
AK(Z)-1550_3
  6
Continuous
 62
     7
 48
25.4
100
AcDbLine
 10
41.94423223874605
 20
-37.40036579873095
 30
0.0
 11
41.94423223874605
 21
-32.14384497811352
 31
0.0
  0
LINE
  5
E0E000018C7C
330
E0E0000189C8
100
AcDbEntity
  8
AK(Z)-1550_3
  6
Continuous
 62
     7
 48
25.4
100
AcDbLine
 10
41.94423223874605
 20
-32.14384497811352
 30
0.0
 11
42.14177793818499
 21
-32.14384497811352
 31
0.0
  0
LINE
  5
E0E000018C7D
330
E0E0000189C8
100
AcDbEntity
  8
AK(Z)-1550_3
  6
Continuous
 62
     7
 48
25.4
100
AcDbLine
 10
44.24476443472508
 20
-32.14384497811352
 30
0.0
 11
44.24476443472508
 21
-37.40036579873095
 31
0.0
  0
LINE
  5
E0E000018C7E
330
E0E0000189C8
100
AcDbEntity
  8
AK(Z)-1550_3
  6
Continuous
 62
     7
 48
25.4
100
AcDbLine
 10
41.39160439601255
 20
-31.94022387130053
 30
0.0
 11
41.94423223874605
 21
-32.14384497811352
 31
0.0
  0
LINE
  5
E0E000018C7F
330
E0E0000189C8
100
AcDbEntity
  8
AK(Z)-1550_3
  6
Continuous
 62
     7
 48
25.4
100
AcDbLine
 10
41.39160439601255
 20
-38.23589723653276
 30
0.0
 11
41.39160439601255
 21
-31.94022387130053
 31
0.0
  0
LINE
  5
E0E000018C80
330
E0E0000189C8
100
AcDbEntity
  8
AK(Z)-1550_3
  6
Continuous
 62
     7
 48
25.4
100
AcDbLine
 10
44.79739227745858
 20
-31.94022387130053
 30
0.0
 11
44.24476443472508
 21
-32.14384497811352
 31
0.0
  0
LINE
  5
E0E000018C81
330
E0E0000189C8
100
AcDbEntity
  8
AK(Z)-1550_3
  6
Continuous
 62
     7
 48
25.4
100
AcDbLine
 10
41.39160439601255
 20
-31.94022387130053
 30
0.0
 11
44.79739227745858
 21
-31.94022387130053
 31
0.0
  0
LINE
  5
E0E000018C82
330
E0E0000189C8
100
AcDbEntity
  8
AK(Z)-1550_3
  6
Continuous
 62
     7
 48
25.4
100
AcDbLine
 10
44.79739227745858
 20
-38.23589723653276
 30
0.0
 11
44.24476443472508
 21
-37.40036579873095
 31
0.0
  0
LINE
  5
E0E000018C83
330
E0E0000189C8
100
AcDbEntity
  8
AK(Z)-1550_3
  6
Continuous
 62
     7
 48
25.4
100
AcDbLine
 10
44.79739227745858
 20
-31.94022387130053
 30
0.0
 11
44.79739227745858
 21
-38.23589723653276
 31
0.0
  0
LINE
  5
E0E000018C84
330
E0E0000189C8
100
AcDbEntity
  8
AK(Z)-1550_3
  6
Continuous
 62
     7
 48
25.4
100
AcDbLine
 10
44.79739227745858
 20
-38.23589723653276
 30
0.0
 11
41.39160439601255
 21
-38.23589723653276
 31
0.0
  0
LINE
  5
E0E000018C85
330
E0E0000189C8
100
AcDbEntity
  8
AK(Z)-1550_3
  6
Continuous
 62
     7
 48
25.4
100
AcDbLine
 10
41.39160439601255
 20
-38.23589723653276
 30
0.0
 11
41.94423223874605
 21
-37.40036579873095
 31
0.0
  0
LINE
  5
E0E000018C86
330
E0E0000189C8
100
AcDbEntity
  8
AK(Z)-1550_3
  6
Continuous
 62
     7
 48
25.4
100
AcDbLine
 10
42.14177793818499
 20
-37.40036579873095
 30
0.0
 11
41.94423223874605
 21
-37.40036579873095
 31
0.0
  0
LINE
  5
E0E000018C87
330
E0E0000189C8
100
AcDbEntity
  8
AK(Z)-1550_3
  6
Continuous
 62
     7
 48
25.4
100
AcDbLine
 10
42.14177793818499
 20
-37.40036579873095
 30
0.0
 11
42.14177793818499
 21
-32.14384497811352
 31
0.0
  0
LINE
  5
E0E000018C88
330
E0E0000189C8
100
AcDbEntity
  8
AK(Z)-1550_3
  6
Continuous
 62
     7
 48
25.4
100
AcDbLine
 10
44.24476443472508
 20
-32.14384497811352
 30
0.0
 11
42.14177793818499
 21
-32.14384497811352
 31
0.0
  0
LINE
  5
E0E000018C89
330
E0E0000189C8
100
AcDbEntity
  8
AK(Z)-1550_3
  6
Continuous
 62
     7
 48
25.4
100
AcDbLine
 10
47.85810032951144
 20
-37.40036579873095
 30
0.0
 11
48.05564602895015
 21
-37.40036579873095
 31
0.0
  0
LINE
  5
E0E000018C8A
330
E0E0000189C8
100
AcDbEntity
  8
AK(Z)-1550_3
  6
Continuous
 62
     7
 48
25.4
100
AcDbLine
 10
48.05564602895015
 20
-37.40036579873095
 30
0.0
 11
48.05564602895015
 21
-32.14384497811352
 31
0.0
  0
LINE
  5
E0E000018C8B
330
E0E0000189C8
100
AcDbEntity
  8
AK(Z)-1550_3
  6
Continuous
 62
     7
 48
25.4
100
AcDbLine
 10
48.05564602895015
 20
-32.14384497811352
 30
0.0
 11
47.85810032951144
 21
-32.14384497811352
 31
0.0
  0
LINE
  5
E0E000018C8C
330
E0E0000189C8
100
AcDbEntity
  8
AK(Z)-1550_3
  6
Continuous
 62
     7
 48
25.4
100
AcDbLine
 10
48.60827387168388
 20
-31.94022387130053
 30
0.0
 11
48.05564602895015
 21
-32.14384497811352
 31
0.0
  0
LINE
  5
E0E000018C8D
330
E0E0000189C8
100
AcDbEntity
  8
AK(Z)-1550_3
  6
Continuous
 62
     7
 48
25.4
100
AcDbLine
 10
48.60827387168388
 20
-38.23589723653276
 30
0.0
 11
48.60827387168388
 21
-31.94022387130053
 31
0.0
  0
LINE
  5
E0E000018C8E
330
E0E0000189C8
100
AcDbEntity
  8
AK(Z)-1550_3
  6
Continuous
 62
     7
 48
25.4
100
AcDbLine
 10
45.20248599023762
 20
-31.94022387130053
 30
0.0
 11
45.75511383297135
 21
-32.14384497811352
 31
0.0
  0
LINE
  5
E0E000018C8F
330
E0E0000189C8
100
AcDbEntity
  8
AK(Z)-1550_3
  6
Continuous
 62
     7
 48
25.4
100
AcDbLine
 10
45.75511383297135
 20
-32.14384497811352
 30
0.0
 11
47.85810032951144
 21
-32.14384497811352
 31
0.0
  0
LINE
  5
E0E000018C90
330
E0E0000189C8
100
AcDbEntity
  8
AK(Z)-1550_3
  6
Continuous
 62
     7
 48
25.4
100
AcDbLine
 10
48.60827387168388
 20
-31.94022387130053
 30
0.0
 11
45.20248599023762
 21
-31.94022387130053
 31
0.0
  0
LINE
  5
E0E000018C91
330
E0E0000189C8
100
AcDbEntity
  8
AK(Z)-1550_3
  6
Continuous
 62
     7
 48
25.4
100
AcDbLine
 10
45.20248599023762
 20
-38.23589723653276
 30
0.0
 11
45.75511383297135
 21
-37.40036579873095
 31
0.0
  0
LINE
  5
E0E000018C92
330
E0E0000189C8
100
AcDbEntity
  8
AK(Z)-1550_3
  6
Continuous
 62
     7
 48
25.4
100
AcDbLine
 10
45.20248599023762
 20
-31.94022387130053
 30
0.0
 11
45.20248599023762
 21
-38.23589723653276
 31
0.0
  0
LINE
  5
E0E000018C93
330
E0E0000189C8
100
AcDbEntity
  8
AK(Z)-1550_3
  6
Continuous
 62
     7
 48
25.4
100
AcDbLine
 10
45.20248599023762
 20
-38.23589723653276
 30
0.0
 11
48.60827387168388
 21
-38.23589723653276
 31
0.0
  0
LINE
  5
E0E000018C94
330
E0E0000189C8
100
AcDbEntity
  8
AK(Z)-1550_3
  6
Continuous
 62
     7
 48
25.4
100
AcDbLine
 10
48.60827387168388
 20
-38.23589723653276
 30
0.0
 11
48.05564602895015
 21
-37.40036579873095
 31
0.0
  0
LINE
  5
E0E000018C95
330
E0E0000189C8
100
AcDbEntity
  8
AK(Z)-1550_3
  6
Continuous
 62
     7
 48
25.4
100
AcDbLine
 10
45.75511383297135
 20
-32.14384497811352
 30
0.0
 11
45.75511383297135
 21
-37.40036579873095
 31
0.0
  0
LINE
  5
E0E000018C96
330
E0E0000189C8
100
AcDbEntity
  8
AK(Z)-1550_3
  6
Continuous
 62
     7
 48
25.4
100
AcDbLine
 10
45.75511383297135
 20
-37.40036579873095
 30
0.0
 11
47.85810032951144
 21
-37.40036579873095
 31
0.0
  0
LINE
  5
E0E000018C97
330
E0E0000189C8
100
AcDbEntity
  8
AK(Z)-1550_3
  6
Continuous
 62
     7
 48
25.4
100
AcDbLine
 10
47.85810032951144
 20
-37.40036579873095
 30
0.0
 11
47.85810032951144
 21
-32.14384497811352
 31
0.0
  0
LINE
  5
E0E000018C98
330
E0E0000189C8
100
AcDbEntity
  8
AK(Z)-1550_3
  6
Continuous
 62
     7
 48
25.4
100
AcDbLine
 10
48.81082072805066
 20
-38.63598979236122
 30
0.0
 11
37.37817594542048
 21
-38.63598979236122
 31
0.0
  0
LINE
  5
E0E000018C99
330
E0E0000189C8
100
AcDbEntity
  8
AK(Z)-1550_3
  6
Continuous
 62
     7
 48
25.4
100
AcDbLine
 10
48.81082072805066
 20
-38.63598979236122
 30
0.0
 11
48.81082072805066
 21
-31.54013131547208
 31
0.0
  0
LINE
  5
E0E000018C9A
330
E0E0000189C8
100
AcDbEntity
  8
AK(Z)-1550_3
  6
Continuous
 62
     7
 48
25.4
100
AcDbLine
 10
48.81082072805066
 20
-38.63598979236122
 30
0.0
 11
48.81082072805066
 21
-42.32128979265508
 31
0.0
  0
LINE
  5
E0E000018C9B
330
E0E0000189C8
100
AcDbEntity
  8
AK(Z)-1550_3
  6
Continuous
 62
     7
 48
25.4
100
AcDbLine
 10
48.81082072805066
 20
-42.32128979265508
 30
0.0
 11
48.81082072805066
 21
-42.64269973956107
 31
0.0
  0
LINE
  5
E0E000018C9C
330
E0E0000189C8
100
AcDbEntity
  8
TAPA_4_M
  6
Continuous
 62
     7
 48
25.4
100
AcDbLine
 10
48.81082072805066
 20
-31.97859694451199
 30
0.0
 11
57.75470925384866
 21
-31.97859694451199
 31
0.0
  0
LINE
  5
E0E000018C9D
330
E0E0000189C8
100
AcDbEntity
  8
PCB_4M_PER1_V
  6
Continuous
 62
     7
 48
25.4
100
AcDbLine
 10
57.05954843811105
 20
-42.48102653483556
 30
0.0
 11
49.50598154381078
 21
-42.48102653483556
 31
0.0
  0
LINE
  5
E0E000018C9E
330
E0E0000189C8
100
AcDbEntity
  8
BASE_4_M
  6
Continuous
 62
     7
 48
25.4
100
AcDbLine
 10
57.05954843811105
 20
-42.59141155145926
 30
0.0
 11
49.50598154381078
 21
-42.59141155145926
 31
0.0
  0
LINE
  5
E0E000018C9F
330
E0E0000189C8
100
AcDbEntity
  8
BASE_4_M
  6
Continuous
 62
     7
 48
25.4
100
AcDbLine
 10
57.05954843811105
 20
-42.7310843822338
 30
0.0
 11
49.50598154381078
 21
-42.7310843822338
 31
0.0
  0
ENDBLK
  5
E0E0000189CA
330
E0E0000189C8
100
AcDbEntity
  8
0
100
AcDbBlockEnd
  0
BLOCK
  5
E0E00001C8FB
330
E0E00001C8F1
100
AcDbEntity
  8
0
100
AcDbBlockBegin
  2
*D10
 70
     1
 10
0.0
 20
0.0
 30
0.0
  3
*D10
  1

  0
LINE
  5
E0E00001C909
330
E0E00001C8F1
100
AcDbEntity
  8
0
 62
     0
370
    -2
100
AcDbLine
 10
-1853.757882946831
 20
-2106.87709875982
 30
0.0
 11
-1853.757882946831
 21
-2086.075298063533
 31
0.0
  0
LINE
  5
E0E00001C90A
330
E0E00001C8F1
100
AcDbEntity
  8
0
 62
     0
370
    -2
100
AcDbLine
 10
-1748.803423458661
 20
-2106.87709875982
 30
0.0
 11
-1748.803423458661
 21
-2086.075298063533
 31
0.0
  0
LINE
  5
E0E00001C90B
330
E0E00001C8F1
100
AcDbEntity
  8
0
 62
     0
370
    -2
100
AcDbLine
 10
-1843.757882946831
 20
-2086.255298063533
 30
0.0
 11
-1758.803423458661
 21
-2086.255298063533
 31
0.0
  0
INSERT
  5
E0E00001C90C
330
E0E00001C8F1
100
AcDbEntity
  8
0
 62
     0
370
    -2
100
AcDbBlockReference
  2
VDDIM_DEFAULT
 10
-1853.757882946831
 20
-2086.255298063533
 30
0.0
 41
10.0
 42
10.0
 43
10.0
 50
180.0
  0
INSERT
  5
E0E00001C90D
330
E0E00001C8F1
100
AcDbEntity
  8
0
 62
     0
370
    -2
100
AcDbBlockReference
  2
VDDIM_DEFAULT
 10
-1748.803423458661
 20
-2086.255298063533
 30
0.0
 41
10.0
 42
10.0
 43
10.0
  0
MTEXT
  5
E0E00001C90E
330
E0E00001C8F1
100
AcDbEntity
  8
0
 62
     0
100
AcDbMText
 10
-1801.24573499505
 20
-2081.245298063533
 30
0.0
 40
10.0
 41
0.0
 71
     5
 72
     1
  1
\A1;105
 73
     1
 44
1.0
  0
POINT
  5
E0E00001C90F
330
E0E00001C8F1
100
AcDbEntity
  8
Defpoints
 62
     0
100
AcDbPoint
 10
-1853.757882946831
 20
-2106.93959875982
 30
0.0
  0
POINT
  5
E0E00001C910
330
E0E00001C8F1
100
AcDbEntity
  8
Defpoints
 62
     0
100
AcDbPoint
 10
-1748.803423458661
 20
-2106.93959875982
 30
0.0
  0
POINT
  5
E0E00001C911
330
E0E00001C8F1
100
AcDbEntity
  8
Defpoints
 62
     0
100
AcDbPoint
 10
-1748.803423458661
 20
-2086.255298063533
 30
0.0
  0
ENDBLK
  5
E0E00001C8FC
330
E0E00001C8F1
100
AcDbEntity
  8
0
100
AcDbBlockEnd
  0
BLOCK
  5
E0E00001C907
330
E0E00001C8FD
100
AcDbEntity
  8
0
100
AcDbBlockBegin
  2
*D11
 70
     1
 10
0.0
 20
0.0
 30
0.0
  3
*D11
  1

  0
LINE
  5
E0E00001C912
330
E0E00001C8FD
100
AcDbEntity
  8
0
 62
     0
370
    -2
100
AcDbLine
 10
-1851.820224847871
 20
-2103.088707910058
 30
0.0
 11
-1871.293520279585
 21
-2103.088707910058
 31
0.0
  0
LINE
  5
E0E00001C913
330
E0E00001C8FD
100
AcDbEntity
  8
0
 62
     0
370
    -2
100
AcDbLine
 10
-1851.820224847892
 20
-2193.109532970216
 30
0.0
 11
-1871.293520279585
 21
-2193.109532970216
 31
0.0
  0
LINE
  5
E0E00001C914
330
E0E00001C8FD
100
AcDbEntity
  8
0
 62
     0
370
    -2
100
AcDbLine
 10
-1871.113520279585
 20
-2113.088707910058
 30
0.0
 11
-1871.113520279585
 21
-2183.109532970216
 31
0.0
  0
INSERT
  5
E0E00001C915
330
E0E00001C8FD
100
AcDbEntity
  8
0
 62
     0
370
    -2
100
AcDbBlockReference
  2
VDDIM_DEFAULT
 10
-1871.113520279585
 20
-2103.088707910058
 30
0.0
 41
10.0
 42
10.0
 43
10.0
 50
90.0
  0
INSERT
  5
E0E00001C916
330
E0E00001C8FD
100
AcDbEntity
  8
0
 62
     0
370
    -2
100
AcDbBlockReference
  2
VDDIM_DEFAULT
 10
-1871.113520279585
 20
-2193.109532970216
 30
0.0
 41
10.0
 42
10.0
 43
10.0
 50
270.0
  0
MTEXT
  5
E0E00001C917
330
E0E00001C8FD
100
AcDbEntity
  8
0
 62
     0
100
AcDbMText
 10
-1876.123520279584
 20
-2148.040239744369
 30
0.0
 40
10.0
 41
0.0
 71
     5
 72
     1
  1
\A1;90
 11
6.123031769111886E-17
 21
1.0
 31
0.0
 73
     1
 44
1.0
  0
POINT
  5
E0E00001C918
330
E0E00001C8FD
100
AcDbEntity
  8
Defpoints
 62
     0
100
AcDbPoint
 10
-1851.757724847871
 20
-2103.088707910058
 30
0.0
  0
POINT
  5
E0E00001C919
330
E0E00001C8FD
100
AcDbEntity
  8
Defpoints
 62
     0
100
AcDbPoint
 10
-1851.757724847892
 20
-2193.109532970216
 30
0.0
  0
POINT
  5
E0E00001C91A
330
E0E00001C8FD
100
AcDbEntity
  8
Defpoints
 62
     0
100
AcDbPoint
 10
-1871.113520279585
 20
-2193.109532970216
 30
0.0
  0
ENDBLK
  5
E0E00001C908
330
E0E00001C8FD
100
AcDbEntity
  8
0
100
AcDbBlockEnd
  0
ENDSEC
  0
SECTION
  2
ENTITIES
  0
INSERT
  5
E0E00000EA75
330
C35C
100
AcDbEntity
  8
0
100
AcDbBlockReference
  2
COTE
 10
-1173.998722688419
 20
-1677.095146853732
 30
0.0
  0
INSERT
  5
E0E00000EA76
330
C35C
100
AcDbEntity
  8
0
100
AcDbBlockReference
  2
FOND
 10
-1173.998722688419
 20
-1677.095146853732
 30
0.0
  0
INSERT
  5
E0E00001C8EE
330
C35C
100
AcDbEntity
  8
0
100
AcDbBlockReference
  2
PER 2
 10
-1853.757882946827
 20
-2148.099120440132
 30
0.0
  0
LINE
  5
E0E00001C926
330
C35C
100
AcDbEntity
  8
0
100
AcDbLine
 10
-1853.757882946831
 20
-2106.87709875982
 30
0.0
 11
-1853.757882946831
 21
-2086.075298063533
 31
0.0
  0
LINE
  5
E0E00001C927
330
C35C
100
AcDbEntity
  8
0
100
AcDbLine
 10
-1748.803423458661
 20
-2106.87709875982
 30
0.0
 11
-1748.803423458661
 21
-2086.075298063533
 31
0.0
  0
LINE
  5
E0E00001C928
330
C35C
100
AcDbEntity
  8
0
100
AcDbLine
 10
-1843.757882946831
 20
-2086.255298063533
 30
0.0
 11
-1758.803423458661
 21
-2086.255298063533
 31
0.0
  0
INSERT
  5
E0E00001C929
330
C35C
100
AcDbEntity
  8
0
100
AcDbBlockReference
  2
VDDIM_DEFAULT
 10
-1853.757882946831
 20
-2086.255298063533
 30
0.0
 41
10.0
 42
10.0
 43
10.0
 50
180.0
  0
INSERT
  5
E0E00001C92A
330
C35C
100
AcDbEntity
  8
0
100
AcDbBlockReference
  2
VDDIM_DEFAULT
 10
-1748.803423458661
 20
-2086.255298063533
 30
0.0
 41
10.0
 42
10.0
 43
10.0
  0
MTEXT
  5
E0E00001C92B
330
C35C
100
AcDbEntity
  8
0
100
AcDbMText
 10
-1801.24573499505
 20
-2081.245298063533
 30
0.0
 40
10.0
 41
0.0
 71
     5
 72
     1
  1
\A1;105
 73
     1
 44
1.0
  0
LINE
  5
E0E00001C92C
330
C35C
100
AcDbEntity
  8
0
100
AcDbLine
 10
-1851.820224847871
 20
-2103.088707910058
 30
0.0
 11
-1871.293520279585
 21
-2103.088707910058
 31
0.0
  0
LINE
  5
E0E00001C92D
330
C35C
100
AcDbEntity
  8
0
100
AcDbLine
 10
-1851.820224847892
 20
-2193.109532970216
 30
0.0
 11
-1871.293520279585
 21
-2193.109532970216
 31
0.0
  0
LINE
  5
E0E00001C92E
330
C35C
100
AcDbEntity
  8
0
100
AcDbLine
 10
-1871.113520279585
 20
-2113.088707910058
 30
0.0
 11
-1871.113520279585
 21
-2183.109532970216
 31
0.0
  0
INSERT
  5
E0E00001C92F
330
C35C
100
AcDbEntity
  8
0
100
AcDbBlockReference
  2
VDDIM_DEFAULT
 10
-1871.113520279585
 20
-2103.088707910058
 30
0.0
 41
10.0
 42
10.0
 43
10.0
 50
90.0
  0
INSERT
  5
E0E00001C930
330
C35C
100
AcDbEntity
  8
0
100
AcDbBlockReference
  2
VDDIM_DEFAULT
 10
-1871.113520279585
 20
-2193.109532970216
 30
0.0
 41
10.0
 42
10.0
 43
10.0
 50
270.0
  0
MTEXT
  5
E0E00001C931
330
C35C
100
AcDbEntity
  8
0
100
AcDbMText
 10
-1876.123520279584
 20
-2148.040239744369
 30
0.0
 40
10.0
 41
0.0
 71
     5
 72
     1
  1
\A1;90
 11
6.123031769111886E-17
 21
1.0
 31
0.0
 73
     1
 44
1.0
  0
VIEWPORT
  5
E0E00000E20F
102
{ACAD_XDICTIONARY
360
E0E00001C93B
102
}
330
C358
100
AcDbEntity
 67
     1
  8
0
 60
     1
100
AcDbViewport
 10
210.0
 20
148.5
 30
0.0
 40
297.0
 41
297.0
 69
     1
 12
210.0
 22
148.5
 13
0.0
 23
0.0
 14
1.0
 24
1.0
 15
0.0
 25
0.0
 16
0.0
 26
0.0
 36
1.0
 17
0.0
 27
0.0
 37
0.0
 42
0.0
 43
0.0
 44
0.0
 45
297.0
 50
0.0
 51
360.0000000000008
 72
   100
 90
   163872
  1

281
     0
 71
     0
 74
     0
110
0.0
120
0.0
130
0.0
111
1.0
121
0.0
131
0.0
112
0.0
122
1.0
132
0.0
 79
     0
146
0.0
1001
VD_INVISIBLE_NOT_FOR_READ
1000
VD_INVISIBLE_NOT_FOR_READ
  0
VIEWPORT
  5
E0E00000E210
102
{ACAD_XDICTIONARY
360
E0E00001C93D
102
}
330
C358
100
AcDbEntity
 67
     1
  8
0
 60
     1
100
AcDbViewport
 10
210.0
 20
148.5
 30
0.0
 40
297.0
 41
297.0
 69
    -1
 12
210.0
 22
148.5
 13
0.0
 23
0.0
 14
1.0
 24
1.0
 15
0.0
 25
0.0
 16
0.0
 26
0.0
 36
1.0
 17
0.0
 27
0.0
 37
0.0
 42
0.0
 43
0.0
 44
0.0
 45
297.0
 50
0.0
 51
360.0000000000008
 72
   100
 90
   163872
  1

281
     0
 71
     0
 74
     0
110
0.0
120
0.0
130
0.0
111
1.0
121
0.0
131
0.0
112
0.0
122
1.0
132
0.0
 79
     0
146
0.0
1001
VD_INVISIBLE_NOT_FOR_READ
1000
VD_INVISIBLE_NOT_FOR_READ
  0
ENDSEC
  0
SECTION
  2
OBJECTS
  0
DICTIONARY
  5
C349
330
0
100
AcDbDictionary
281
     1
  3
ACAD_COLOR
350
E0E00000E216
  3
ACAD_GROUP
350
C34A
  3
ACAD_LAYOUT
350
C357
  3
ACAD_MATERIAL
350
E0E00000E215
  3
ACAD_MLEADERSTYLE
350
E0E000011F89
  3
ACAD_MLINESTYLE
350
C354
  3
ACAD_PLOTSETTINGS
350
C356
  3
ACAD_PLOTSTYLENAME
350
C34B
  3
ACAD_SCALELIST
350
E0E000011F67
  3
ACAD_TABLESTYLE
350
E0E00000E217
  3
ACAD_VISUALSTYLE
350
E0E000011F56
  3
ACDBHEADERROUNDTRIPXREC
350
E0E00001C937
  3
AcDbVariableDictionary
350
E0E00000EADD
  3
DWGPROPS
350
E0E00001C93A
  3
VECTORDRAW_OBJECTS
350
C36C
  0
DICTIONARY
  5
E0E00001C93F
330
C345
100
AcDbDictionary
280
     1
281
     1
  3
ACAD_XREC_ROUNDTRIP
360
E0E00001C940
  0
DICTIONARY
  5
E0E00000F818
330
C33F
100
AcDbDictionary
280
     1
281
     1
  3
ACAD_LAYERFILTERS
360
E0E00001C8CA
  3
ACAD_LAYERSTATES
360
E0E00000F819
  0
DICTIONARY
  5
E0E000011FBD
330
C34D
100
AcDbDictionary
280
     1
281
     1
  3
ADSK_XREC_LAYER_RECONCILED
360
E0E000011FBE
  0
DICTIONARY
  5
E0E00000F55C
330
E0E00000F55B
100
AcDbDictionary
280
     1
281
     1
  3
ADSK_XREC_LAYER_RECONCILED
360
E0E00000F55E
  0
DICTIONARY
  5
E0E00000F560
330
E0E00000F55F
100
AcDbDictionary
280
     1
281
     1
  3
ADSK_XREC_LAYER_RECONCILED
360
E0E00000F562
  0
DICTIONARY
  5
E0E00000F580
330
E0E00000F57F
100
AcDbDictionary
280
     1
281
     1
  3
ADSK_XREC_LAYER_RECONCILED
360
E0E00000F582
  0
DICTIONARY
  5
E0E00000F7E4
330
E0E00000F7E3
100
AcDbDictionary
280
     1
281
     1
  3
ADSK_XREC_LAYER_RECONCILED
360
E0E00000F7E6
  0
DICTIONARY
  5
E0E00000F7E8
330
E0E00000F7E7
100
AcDbDictionary
280
     1
281
     1
  3
ADSK_XREC_LAYER_RECONCILED
360
E0E00000F7EA
  0
DICTIONARY
  5
E0E00000F7F4
330
E0E00000F7F3
100
AcDbDictionary
280
     1
281
     1
  3
ADSK_XREC_LAYER_RECONCILED
360
E0E00000F7F6
  0
DICTIONARY
  5
E0E00000F7FC
330
E0E00000F7FB
100
AcDbDictionary
280
     1
281
     1
  3
ADSK_XREC_LAYER_RECONCILED
360
E0E00000F7FE
  0
DICTIONARY
  5
E0E00000F800
330
E0E00000F7FF
100
AcDbDictionary
280
     1
281
     1
  3
ADSK_XREC_LAYER_RECONCILED
360
E0E00000F802
  0
DICTIONARY
  5
E0E00000F804
330
E0E00000F803
100
AcDbDictionary
280
     1
281
     1
  3
ADSK_XREC_LAYER_RECONCILED
360
E0E00000F806
  0
DICTIONARY
  5
E0E00000E95E
330
C35C
100
AcDbDictionary
280
     1
281
     1
  3
ACAD_SORTENTS
360
E0E00000E95F
  0
DICTIONARY
  5
E0E00001C93B
330
E0E00000E20F
100
AcDbDictionary
280
     1
281
     1
  3
ACAD_XREC_ROUNDTRIP
360
E0E00001C93C
  0
DICTIONARY
  5
E0E00001C93D
330
E0E00000E210
100
AcDbDictionary
280
     1
281
     1
  3
ACAD_XREC_ROUNDTRIP
360
E0E00001C93E
  0
DICTIONARY
  5
E0E00000E216
102
{ACAD_REACTORS
330
C349
102
}
330
C349
100
AcDbDictionary
281
     1
  0
DICTIONARY
  5
C34A
102
{ACAD_REACTORS
330
C349
102
}
330
C349
100
AcDbDictionary
281
     1
  0
DICTIONARY
  5
C357
102
{ACAD_REACTORS
330
C349
102
}
330
C349
100
AcDbDictionary
281
     1
  3
Layout2
350
C363
  3
Model
350
C35F
  3
Presentación1
350
C35B
  0
DICTIONARY
  5
E0E00000E215
102
{ACAD_REACTORS
330
C349
102
}
330
C349
100
AcDbDictionary
281
     1
  3
ByBlock
350
E0E000011F4E
  3
ByLayer
350
E0E000011F46
  3
Global
350
E0E00000ED91
  0
DICTIONARY
  5
E0E000011F89
102
{ACAD_REACTORS
330
C349
102
}
330
C349
100
AcDbDictionary
281
     1
  3
Standard
350
E0E000011F8A
  0
DICTIONARY
  5
C354
102
{ACAD_REACTORS
330
C349
102
}
330
C349
100
AcDbDictionary
281
     1
  3
Standard
350
C355
  0
DICTIONARY
  5
C356
102
{ACAD_REACTORS
330
C349
102
}
330
C349
100
AcDbDictionary
281
     1
  0
ACDBDICTIONARYWDFLT
  5
C34B
102
{ACAD_REACTORS
330
C349
102
}
330
C349
100
AcDbDictionary
281
     1
  3
Normal
350
C34C
100
AcDbDictionaryWithDefault
340
C34C
  0
DICTIONARY
  5
E0E000011F67
102
{ACAD_REACTORS
330
C349
102
}
330
C349
100
AcDbDictionary
281
     1
  3
A0
350
E0E000011F68
  3
A1
350
E0E000011F69
  3
A2
350
E0E000011F6A
  3
A3
350
E0E000011F6B
  3
A4
350
E0E000011F6C
  3
A5
350
E0E000011F6D
  3
A6
350
E0E000011F6E
  3
A7
350
E0E000011F6F
  3
A8
350
E0E000011F70
  3
A9
350
E0E000011F71
  3
B0
350
E0E000011F72
  3
B1
350
E0E000011F73
  3
B2
350
E0E000011F74
  3
B3
350
E0E000011F75
  3
B4
350
E0E000011F76
  3
B5
350
E0E000011F77
  3
B6
350
E0E000011F78
  3
B7
350
E0E000011F79
  3
B8
350
E0E000011F7A
  3
B9
350
E0E000011F7B
  3
C0
350
E0E000011F7C
  3
C1
350
E0E000011F7D
  3
C2
350
E0E000011F7E
  3
C3
350
E0E000011F7F
  3
C4
350
E0E000011F80
  3
C5
350
E0E000011F81
  3
C6
350
E0E000011F82
  3
C7
350
E0E000011F83
  3
C8
350
E0E000011F84
  3
C9
350
E0E000011F85
  3
D0
350
E0E000011F86
  3
D1
350
E0E000011F87
  3
D2
350
E0E000011F88
  0
DICTIONARY
  5
E0E00000E217
102
{ACAD_REACTORS
330
C349
102
}
330
C349
100
AcDbDictionary
281
     1
  3
Standard
350
E0E00000E218
  0
DICTIONARY
  5
E0E000011F56
102
{ACAD_REACTORS
330
C349
102
}
330
C349
100
AcDbDictionary
281
     1
  3
2dWireframe
350
E0E000011F5C
  3
3D Hidden
350
E0E000011F5E
  3
3dWireframe
350
E0E000011F5D
  3
Basic
350
E0E000011F5B
  3
Brighten
350
E0E000011F62
  3
ColorChange
350
E0E000011F66
  3
Conceptual
350
E0E000011F5F
  3
Dim
350
E0E000011F61
  3
EdgeColorOff
350
E0E00001C920
  3
Facepattern
350
E0E000011F65
  3
Flat
350
E0E000011F57
  3
FlatWithEdges
350
E0E000011F58
  3
Gouraud
350
E0E000011F59
  3
GouraudWithEdges
350
E0E000011F5A
  3
Hidden
350
E0E00001C91D
  3
JitterOff
350
E0E00001C91E
  3
Linepattern
350
E0E000011F64
  3
OverhangOff
350
E0E00001C91F
  3
Realistic
350
E0E000011F60
  3
Shaded
350
E0E00001C925
  3
Shaded with edges
350
E0E00001C924
  3
Shades of Gray
350
E0E00001C921
  3
Sketchy
350
E0E00001C922
  3
Thicken
350
E0E000011F63
  3
Wireframe
350
E0E00001C91C
  3
X-Ray
350
E0E00001C923
  0
DICTIONARY
  5
E0E00001C937
102
{ACAD_REACTORS
330
C349
102
}
330
C349
100
AcDbDictionary
281
     1
  3
COLORDICT
350
E0E00001C938
  3
MATERIALDICT
350
E0E00001C939
  0
DICTIONARY
  5
E0E00000EADD
102
{ACAD_REACTORS
330
C349
102
}
330
C349
100
AcDbDictionary
281
     1
  3
CANNOSCALE
350
E0E0000120B9
  3
CMLEADERSTYLE
350
E0E0000120B8
  3
CTABLESTYLE
350
E0E00000EADE
  3
DIMASSOC
350
E0E000011E77
  3
HIDETEXT
350
E0E00001C933
  3
MSLTSCALE
350
E0E00001C932
  3
PROJECTNAME
350
E0E000011E78
  3
XCLIPFRAME
350
E0E00001C934
  0
XRECORD
  5
E0E00001C93A
102
{ACAD_REACTORS
330
C349
102
}
330
C349
100
AcDbXrecord
280
     1
  1
DWGPROPS COOKIE
  2

  3

  4

  6

  7

  8
acae2
  9

300
=
301
=
302
=
303
=
304
=
305
=
306
=
307
=
308
=
309
=
 40
0.0
 41
2454476.485946157
 42
2460301.620161898
  1

 90
        0
  0
DICTIONARY
  5
C36C
102
{ACAD_REACTORS
330
C349
102
}
330
C349
100
AcDbDictionary
281
     1
  3
SERIALNO
350
C36D
  0
XRECORD
  5
E0E00001C940
102
{ACAD_REACTORS
330
E0E00001C93F
102
}
330
E0E00001C93F
100
AcDbXrecord
280
     1
102
VTR_0.000_0.000_1.000_1.000_VISUALSTYLE
340
E0E000011F5C
102
VTR_0.000_0.000_1.000_1.000_GRIDDISPLAY
 70
     3
102
VTR_0.000_0.000_1.000_1.000_GRIDMAJOR
 70
     5
102
VTR_0.000_0.000_1.000_1.000_DEFAULTLIGHTING
280
     1
102
VTR_0.000_0.000_1.000_1.000_DEFAULTLIGHTINGTYPE
 70
     1
102
VTR_0.000_0.000_1.000_1.000_BRIGHTNESS
141
0.0
102
VTR_0.000_0.000_1.000_1.000_CONTRAST
142
0.0
  0
DICTIONARY
  5
E0E00001C8CA
102
{ACAD_REACTORS
330
E0E00000F818
102
}
330
E0E00000F818
100
AcDbDictionary
281
     1
  0
DICTIONARY
  5
E0E00000F819
102
{ACAD_REACTORS
330
E0E00000F818
102
}
330
E0E00000F818
100
AcDbDictionary
281
     1
  0
XRECORD
  5
E0E000011FBE
102
{ACAD_REACTORS
330
E0E000011FBD
102
}
330
E0E000011FBD
100
AcDbXrecord
280
     1
290
     1
  0
XRECORD
  5
E0E00000F55E
102
{ACAD_REACTORS
330
E0E00000F55C
102
}
330
E0E00000F55C
100
AcDbXrecord
280
     1
290
     1
  0
XRECORD
  5
E0E00000F562
102
{ACAD_REACTORS
330
E0E00000F560
102
}
330
E0E00000F560
100
AcDbXrecord
280
     1
290
     1
  0
XRECORD
  5
E0E00000F582
102
{ACAD_REACTORS
330
E0E00000F580
102
}
330
E0E00000F580
100
AcDbXrecord
280
     1
290
     1
  0
XRECORD
  5
E0E00000F7E6
102
{ACAD_REACTORS
330
E0E00000F7E4
102
}
330
E0E00000F7E4
100
AcDbXrecord
280
     1
290
     1
  0
XRECORD
  5
E0E00000F7EA
102
{ACAD_REACTORS
330
E0E00000F7E8
102
}
330
E0E00000F7E8
100
AcDbXrecord
280
     1
290
     1
  0
XRECORD
  5
E0E00000F7F6
102
{ACAD_REACTORS
330
E0E00000F7F4
102
}
330
E0E00000F7F4
100
AcDbXrecord
280
     1
290
     1
  0
XRECORD
  5
E0E00000F7FE
102
{ACAD_REACTORS
330
E0E00000F7FC
102
}
330
E0E00000F7FC
100
AcDbXrecord
280
     1
290
     1
  0
XRECORD
  5
E0E00000F802
102
{ACAD_REACTORS
330
E0E00000F800
102
}
330
E0E00000F800
100
AcDbXrecord
280
     1
290
     1
  0
XRECORD
  5
E0E00000F806
102
{ACAD_REACTORS
330
E0E00000F804
102
}
330
E0E00000F804
100
AcDbXrecord
280
     1
290
     1
  0
SORTENTSTABLE
  5
E0E00000E95F
102
{ACAD_REACTORS
330
E0E00000E95E
102
}
330
E0E00000E95E
100
AcDbSortentsTable
330
C35C
331
0
  5
E0E000018F35
331
E0E00000EA75
  5
B5B0
331
E0E00000EA76
  5
E0E00000F7AB
  0
XRECORD
  5
E0E00001C93C
102
{ACAD_REACTORS
330
E0E00001C93B
102
}
330
E0E00001C93B
100
AcDbXrecord
280
     1
102
VISUALSTYLE
340
E0E000011F5C
102
GRIDDISPLAY
 70
     0
102
GRIDMAJOR
 70
     5
102
DEFAULTLIGHTING
280
     1
102
DEFAULTLIGHTINGTYPE
 70
     1
102
BRIGHTNESS
141
0.0
102
CONTRAST
142
0.0
  0
XRECORD
  5
E0E00001C93E
102
{ACAD_REACTORS
330
E0E00001C93D
102
}
330
E0E00001C93D
100
AcDbXrecord
280
     1
102
VISUALSTYLE
340
E0E000011F5C
102
GRIDDISPLAY
 70
     0
102
GRIDMAJOR
 70
     5
102
DEFAULTLIGHTING
280
     1
102
DEFAULTLIGHTINGTYPE
 70
     1
102
BRIGHTNESS
141
0.0
102
CONTRAST
142
0.0
  0
LAYOUT
  5
C363
102
{ACAD_REACTORS
330
C357
102
}
330
C357
100
AcDbPlotSettings
  1

  2

  4

  6

 40
0.0
 41
0.0
 42
0.0
 43
0.0
 44
0.0
 45
0.0
 46
0.0
 47
0.0
 48
0.0
 49
0.0
140
0.0
141
0.0
142
1.0
143
1.0
 70
   688
 72
     0
 73
     0
 74
     5
  7

 75
    16
147
1.0
148
0.0
149
0.0
100
AcDbLayout
  1
Layout2
 70
     1
 71
     2
 10
0.0
 20
0.0
 11
0.0
 21
0.0
 12
0.0
 22
0.0
 32
0.0
 14
0.0
 24
0.0
 34
0.0
 15
0.0
 25
0.0
 35
0.0
146
0.0
 13
0.0
 23
0.0
 33
0.0
 16
1.0
 26
0.0
 36
0.0
 17
0.0
 27
1.0
 37
0.0
 76
     0
330
C360
  0
LAYOUT
  5
C35F
102
{ACAD_REACTORS
330
C357
102
}
330
C357
100
AcDbPlotSettings
  1
VectorDraw Printer Drawing
  2
Adobe PDF
  4
A4
  6

 40
3.174999952316284
 41
3.174999952316284
 42
3.175003051757812
 43
3.17498779296875
 44
209.9733276367188
 45
297.0318298339844
 46
0.0
 47
0.0
 48
0.0
 49
0.0
140
0.0
141
0.0
142
1.0
143
1.958075487974208
 70
 11952
 72
     0
 73
     1
 74
     0
  7

 75
     0
147
0.5107055402826085
148
21785.31336441393
149
12075.2757316998
100
AcDbLayout
  1
Model
 70
     1
 71
     0
 10
-100.0
 20
-937.0
 11
781.8584566516885
 21
220.6919114718445
 12
0.0
 22
0.0
 32
0.0
 14
0.0
 24
-837.0
 34
-1.0
 15
681.8584566516885
 25
120.6919114718445
 35
1.0
146
0.0
 13
0.0
 23
0.0
 33
0.0
 16
1.0
 26
0.0
 36
0.0
 17
0.0
 27
1.0
 37
0.0
 76
     0
330
C35C
331
E0E00001C91B
1001
ACAD_PSEXT
1000
Adobe PDF
1000
Adobe PDF Converter
1000
Mis documentos
1000

1070
     0
  0
LAYOUT
  5
C35B
102
{ACAD_REACTORS
330
C357
102
}
330
C357
100
AcDbPlotSettings
  1
VectorDraw Printer Drawing
  2

  4

  6

 40
0.0
 41
0.0
 42
0.0
 43
0.0
 44
0.0
 45
0.0
 46
0.0
 47
0.0
 48
0.0
 49
0.0
140
0.0
141
0.0
142
1.0
143
1.0
 70
   688
 72
     0
 73
     0
 74
     5
  7

 75
    16
147
1.0
148
0.0
149
0.0
100
AcDbLayout
  1
Presentación1
 70
     1
 71
     1
 10
0.0
 20
0.0
 11
12.0
 21
9.0
 12
0.0
 22
0.0
 32
0.0
 14
1.000000000000000E+20
 24
1.000000000000000E+20
 34
1.000000000000000E+20
 15
-1.000000000000000E+20
 25
-1.000000000000000E+20
 35
-1.000000000000000E+20
146
0.0
 13
0.0
 23
0.0
 33
0.0
 16
1.0
 26
0.0
 36
0.0
 17
0.0
 27
1.0
 37
0.0
 76
     0
330
C358
331
E0E00000E20F
  0
MATERIAL
  5
E0E000011F4E
102
{ACAD_REACTORS
330
E0E00000E215
102
}
102
{ACAD_XDICTIONARY
360
E0E00001C941
102
}
330
E0E00000E215
100
AcDbMaterial
  1
ByBlock
 72
     0
 73
     2
 43
0.0208333333333333
 43
0.0
 43
0.0
 43
0.0
 43
0.0
 43
0.0208333333333333
 43
0.0
 43
0.0
 43
0.0
 43
0.0
 43
1.0
 43
0.0
 43
0.0
 43
0.0
 43
0.0
 43
1.0
 77
     0
 78
     2
 47
0.0208333333333333
 47
0.0
 47
0.0
 47
0.0
 47
0.0
 47
0.0208333333333333
 47
0.0
 47
0.0
 47
0.0
 47
0.0
 47
1.0
 47
0.0
 47
0.0
 47
0.0
 47
0.0
 47
1.0
171
     0
172
     2
 49
0.0208333333333333
 49
0.0
 49
0.0
 49
0.0
 49
0.0
 49
0.0208333333333333
 49
0.0
 49
0.0
 49
0.0
 49
0.0
 49
1.0
 49
0.0
 49
0.0
 49
0.0
 49
0.0
 49
1.0
175
     0
176
     2
142
0.0208333333333333
142
0.0
142
0.0
142
0.0
142
0.0
142
0.0208333333333333
142
0.0
142
0.0
142
0.0
142
0.0
142
1.0
142
0.0
142
0.0
142
0.0
142
0.0
142
1.0
179
     0
270
     2
144
0.0208333333333333
144
0.0
144
0.0
144
0.0
144
0.0
144
0.0208333333333333
144
0.0
144
0.0
144
0.0
144
0.0
144
1.0
144
0.0
144
0.0
144
0.0
144
0.0
144
1.0
274
     2
147
0.0208333333333333
147
0.0
147
0.0
147
0.0
147
0.0
147
0.0208333333333333
147
0.0
147
0.0
147
0.0
147
0.0
147
1.0
147
0.0
147
0.0
147
0.0
147
0.0
147
1.0
  0
MATERIAL
  5
E0E000011F46
102
{ACAD_REACTORS
330
E0E00000E215
102
}
102
{ACAD_XDICTIONARY
360
E0E00001C943
102
}
330
E0E00000E215
100
AcDbMaterial
  1
ByLayer
 72
     0
 73
     2
 43
0.0208333333333333
 43
0.0
 43
0.0
 43
0.0
 43
0.0
 43
0.0208333333333333
 43
0.0
 43
0.0
 43
0.0
 43
0.0
 43
1.0
 43
0.0
 43
0.0
 43
0.0
 43
0.0
 43
1.0
 77
     0
 78
     2
 47
0.0208333333333333
 47
0.0
 47
0.0
 47
0.0
 47
0.0
 47
0.0208333333333333
 47
0.0
 47
0.0
 47
0.0
 47
0.0
 47
1.0
 47
0.0
 47
0.0
 47
0.0
 47
0.0
 47
1.0
171
     0
172
     2
 49
0.0208333333333333
 49
0.0
 49
0.0
 49
0.0
 49
0.0
 49
0.0208333333333333
 49
0.0
 49
0.0
 49
0.0
 49
0.0
 49
1.0
 49
0.0
 49
0.0
 49
0.0
 49
0.0
 49
1.0
175
     0
176
     2
142
0.0208333333333333
142
0.0
142
0.0
142
0.0
142
0.0
142
0.0208333333333333
142
0.0
142
0.0
142
0.0
142
0.0
142
1.0
142
0.0
142
0.0
142
0.0
142
0.0
142
1.0
179
     0
270
     2
144
0.0208333333333333
144
0.0
144
0.0
144
0.0
144
0.0
144
0.0208333333333333
144
0.0
144
0.0
144
0.0
144
0.0
144
1.0
144
0.0
144
0.0
144
0.0
144
0.0
144
1.0
274
     2
147
0.0208333333333333
147
0.0
147
0.0
147
0.0
147
0.0
147
0.0208333333333333
147
0.0
147
0.0
147
0.0
147
0.0
147
1.0
147
0.0
147
0.0
147
0.0
147
0.0
147
1.0
  0
MATERIAL
  5
E0E00000ED91
102
{ACAD_REACTORS
330
E0E00000E215
102
}
102
{ACAD_XDICTIONARY
360
E0E00001C945
102
}
330
E0E00000E215
100
AcDbMaterial
  1
Global
 72
     0
 73
     2
 43
0.0008202099737533
 43
0.0
 43
0.0
 43
0.0
 43
0.0
 43
0.0008202099737533
 43
0.0
 43
0.0
 43
0.0
 43
0.0
 43
1.0
 43
0.0
 43
0.0
 43
0.0
 43
0.0
 43
1.0
 77
     0
 78
     2
 47
0.0008202099737533
 47
0.0
 47
0.0
 47
0.0
 47
0.0
 47
0.0008202099737533
 47
0.0
 47
0.0
 47
0.0
 47
0.0
 47
1.0
 47
0.0
 47
0.0
 47
0.0
 47
0.0
 47
1.0
171
     0
172
     2
 49
0.0008202099737533
 49
0.0
 49
0.0
 49
0.0
 49
0.0
 49
0.0008202099737533
 49
0.0
 49
0.0
 49
0.0
 49
0.0
 49
1.0
 49
0.0
 49
0.0
 49
0.0
 49
0.0
 49
1.0
175
     0
176
     2
142
0.0008202099737533
142
0.0
142
0.0
142
0.0
142
0.0
142
0.0008202099737533
142
0.0
142
0.0
142
0.0
142
0.0
142
1.0
142
0.0
142
0.0
142
0.0
142
0.0
142
1.0
179
     0
270
     2
144
0.0008202099737533
144
0.0
144
0.0
144
0.0
144
0.0
144
0.0008202099737533
144
0.0
144
0.0
144
0.0
144
0.0
144
1.0
144
0.0
144
0.0
144
0.0
144
0.0
144
1.0
274
     2
147
0.0008202099737533
147
0.0
147
0.0
147
0.0
147
0.0
147
0.0008202099737533
147
0.0
147
0.0
147
0.0
147
0.0
147
1.0
147
0.0
147
0.0
147
0.0
147
0.0
147
1.0
  0
MLEADERSTYLE
  5
E0E000011F8A
102
{ACAD_REACTORS
330
E0E000011F89
102
}
102
{ACAD_XDICTIONARY
360
E0E00001C947
102
}
330
E0E000011F89
100
AcDbMLeaderStyle
170
     2
171
     1
172
     0
 90
        2
 40
0.0
 41
0.0
173
     1
 91
-1056964608
340
C351
 92
       -2
290
     1
 42
0.09
291
     1
 43
0.36
  3
Standard
341
0
 44
0.18
300

342
C34E
174
     1
178
     6
175
     1
176
     0
 93
-1056964608
 45
0.18
292
     0
297
     0
 46
0.18
343
0
 94
-1056964608
 47
1.0
 49
1.0
140
1.0
293
     1
141
0.0
294
     1
177
     0
142
1.0
295
     0
296
     0
143
0.125
1001
ACAD_MLEADERVER
1070
     2
  0
MLINESTYLE
  5
C355
102
{ACAD_REACTORS
330
C354
102
}
330
C354
100
AcDbMlineStyle
  2
STANDARD
 70
     0
  3

 62
   256
 51
90.0
 52
90.0
 71
     2
 49
0.5
 62
   256
  6
BYLAYER
 49
-0.5
 62
   256
  6
BYLAYER
  0
ACDBPLACEHOLDER
  5
C34C
102
{ACAD_REACTORS
330
C34B
102
}
330
C34B
  0
SCALE
  5
E0E000011F68
102
{ACAD_REACTORS
330
E0E000011F67
102
}
330
E0E000011F67
100
AcDbScale
 70
     0
300
1:1
140
1.0
141
1.0
290
     1
  0
SCALE
  5
E0E000011F69
102
{ACAD_REACTORS
330
E0E000011F67
102
}
330
E0E000011F67
100
AcDbScale
 70
     0
300
1:2
140
1.0
141
2.0
290
     0
  0
SCALE
  5
E0E000011F6A
102
{ACAD_REACTORS
330
E0E000011F67
102
}
330
E0E000011F67
100
AcDbScale
 70
     0
300
1:4
140
1.0
141
4.0
290
     0
  0
SCALE
  5
E0E000011F6B
102
{ACAD_REACTORS
330
E0E000011F67
102
}
330
E0E000011F67
100
AcDbScale
 70
     0
300
1:5
140
1.0
141
5.0
290
     0
  0
SCALE
  5
E0E000011F6C
102
{ACAD_REACTORS
330
E0E000011F67
102
}
330
E0E000011F67
100
AcDbScale
 70
     0
300
1:8
140
1.0
141
8.0
290
     0
  0
SCALE
  5
E0E000011F6D
102
{ACAD_REACTORS
330
E0E000011F67
102
}
330
E0E000011F67
100
AcDbScale
 70
     0
300
1:10
140
1.0
141
10.0
290
     0
  0
SCALE
  5
E0E000011F6E
102
{ACAD_REACTORS
330
E0E000011F67
102
}
330
E0E000011F67
100
AcDbScale
 70
     0
300
1:16
140
1.0
141
16.0
290
     0
  0
SCALE
  5
E0E000011F6F
102
{ACAD_REACTORS
330
E0E000011F67
102
}
330
E0E000011F67
100
AcDbScale
 70
     0
300
1:20
140
1.0
141
20.0
290
     0
  0
SCALE
  5
E0E000011F70
102
{ACAD_REACTORS
330
E0E000011F67
102
}
330
E0E000011F67
100
AcDbScale
 70
     0
300
1:30
140
1.0
141
30.0
290
     0
  0
SCALE
  5
E0E000011F71
102
{ACAD_REACTORS
330
E0E000011F67
102
}
330
E0E000011F67
100
AcDbScale
 70
     0
300
1:40
140
1.0
141
40.0
290
     0
  0
SCALE
  5
E0E000011F72
102
{ACAD_REACTORS
330
E0E000011F67
102
}
330
E0E000011F67
100
AcDbScale
 70
     0
300
1:50
140
1.0
141
50.0
290
     0
  0
SCALE
  5
E0E000011F73
102
{ACAD_REACTORS
330
E0E000011F67
102
}
330
E0E000011F67
100
AcDbScale
 70
     0
300
1:100
140
1.0
141
100.0
290
     0
  0
SCALE
  5
E0E000011F74
102
{ACAD_REACTORS
330
E0E000011F67
102
}
330
E0E000011F67
100
AcDbScale
 70
     0
300
2:1
140
2.0
141
1.0
290
     0
  0
SCALE
  5
E0E000011F75
102
{ACAD_REACTORS
330
E0E000011F67
102
}
330
E0E000011F67
100
AcDbScale
 70
     0
300
4:1
140
4.0
141
1.0
290
     0
  0
SCALE
  5
E0E000011F76
102
{ACAD_REACTORS
330
E0E000011F67
102
}
330
E0E000011F67
100
AcDbScale
 70
     0
300
8:1
140
8.0
141
1.0
290
     0
  0
SCALE
  5
E0E000011F77
102
{ACAD_REACTORS
330
E0E000011F67
102
}
330
E0E000011F67
100
AcDbScale
 70
     0
300
10:1
140
10.0
141
1.0
290
     0
  0
SCALE
  5
E0E000011F78
102
{ACAD_REACTORS
330
E0E000011F67
102
}
330
E0E000011F67
100
AcDbScale
 70
     0
300
100:1
140
100.0
141
1.0
290
     0
  0
SCALE
  5
E0E000011F79
102
{ACAD_REACTORS
330
E0E000011F67
102
}
330
E0E000011F67
100
AcDbScale
 70
     0
300
1/128" = 1'-0"
140
0.0078125
141
12.0
290
     0
  0
SCALE
  5
E0E000011F7A
102
{ACAD_REACTORS
330
E0E000011F67
102
}
330
E0E000011F67
100
AcDbScale
 70
     0
300
1/64" = 1'-0"
140
0.015625
141
12.0
290
     0
  0
SCALE
  5
E0E000011F7B
102
{ACAD_REACTORS
330
E0E000011F67
102
}
330
E0E000011F67
100
AcDbScale
 70
     0
300
1/32" = 1'-0"
140
0.03125
141
12.0
290
     0
  0
SCALE
  5
E0E000011F7C
102
{ACAD_REACTORS
330
E0E000011F67
102
}
330
E0E000011F67
100
AcDbScale
 70
     0
300
1/16" = 1'-0"
140
0.0625
141
12.0
290
     0
  0
SCALE
  5
E0E000011F7D
102
{ACAD_REACTORS
330
E0E000011F67
102
}
330
E0E000011F67
100
AcDbScale
 70
     0
300
3/32" = 1'-0"
140
0.09375
141
12.0
290
     0
  0
SCALE
  5
E0E000011F7E
102
{ACAD_REACTORS
330
E0E000011F67
102
}
330
E0E000011F67
100
AcDbScale
 70
     0
300
1/8" = 1'-0"
140
0.125
141
12.0
290
     0
  0
SCALE
  5
E0E000011F7F
102
{ACAD_REACTORS
330
E0E000011F67
102
}
330
E0E000011F67
100
AcDbScale
 70
     0
300
3/16" = 1'-0"
140
0.1875
141
12.0
290
     0
  0
SCALE
  5
E0E000011F80
102
{ACAD_REACTORS
330
E0E000011F67
102
}
330
E0E000011F67
100
AcDbScale
 70
     0
300
1/4" = 1'-0"
140
0.25
141
12.0
290
     0
  0
SCALE
  5
E0E000011F81
102
{ACAD_REACTORS
330
E0E000011F67
102
}
330
E0E000011F67
100
AcDbScale
 70
     0
300
3/8" = 1'-0"
140
0.375
141
12.0
290
     0
  0
SCALE
  5
E0E000011F82
102
{ACAD_REACTORS
330
E0E000011F67
102
}
330
E0E000011F67
100
AcDbScale
 70
     0
300
1/2" = 1'-0"
140
0.5
141
12.0
290
     0
  0
SCALE
  5
E0E000011F83
102
{ACAD_REACTORS
330
E0E000011F67
102
}
330
E0E000011F67
100
AcDbScale
 70
     0
300
3/4" = 1'-0"
140
0.75
141
12.0
290
     0
  0
SCALE
  5
E0E000011F84
102
{ACAD_REACTORS
330
E0E000011F67
102
}
330
E0E000011F67
100
AcDbScale
 70
     0
300
1" = 1'-0"
140
1.0
141
12.0
290
     0
  0
SCALE
  5
E0E000011F85
102
{ACAD_REACTORS
330
E0E000011F67
102
}
330
E0E000011F67
100
AcDbScale
 70
     0
300
1-1/2" = 1'-0"
140
1.5
141
12.0
290
     0
  0
SCALE
  5
E0E000011F86
102
{ACAD_REACTORS
330
E0E000011F67
102
}
330
E0E000011F67
100
AcDbScale
 70
     0
300
3" = 1'-0"
140
3.0
141
12.0
290
     0
  0
SCALE
  5
E0E000011F87
102
{ACAD_REACTORS
330
E0E000011F67
102
}
330
E0E000011F67
100
AcDbScale
 70
     0
300
6" = 1'-0"
140
6.0
141
12.0
290
     0
  0
SCALE
  5
E0E000011F88
102
{ACAD_REACTORS
330
E0E000011F67
102
}
330
E0E000011F67
100
AcDbScale
 70
     0
300
1'-0" = 1'-0"
140
12.0
141
12.0
290
     0
  0
TABLESTYLE
  5
E0E00000E218
102
{ACAD_REACTORS
330
E0E00000E217
102
}
330
E0E00000E217
100
AcDbTableStyle
  3
Standard
 70
     0
 71
     0
 40
0.06
 41
0.06
280
     0
281
     0
  7
STANDARD
140
0.18
170
     2
 62
     0
 63
   257
283
     0
274
    -2
284
     1
 64
     0
275
    -2
285
     1
 65
     0
276
    -2
286
     1
 66
     0
277
    -2
287
     1
 67
     0
278
    -2
288
     1
 68
     0
279
    -2
289
     1
 69
     0
  7
STANDARD
140
0.25
170
     5
 62
     0
 63
   257
283
     0
274
    -2
284
     1
 64
     0
275
    -2
285
     1
 65
     0
276
    -2
286
     1
 66
     0
277
    -2
287
     1
 67
     0
278
    -2
288
     1
 68
     0
279
    -2
289
     1
 69
     0
  7
STANDARD
140
0.18
170
     5
 62
     0
 63
   257
283
     0
274
    -2
284
     1
 64
     0
275
    -2
285
     1
 65
     0
276
    -2
286
     1
 66
     0
277
    -2
287
     1
 67
     0
278
    -2
288
     1
 68
     0
279
    -2
289
     1
 69
     0
  0
VISUALSTYLE
  5
E0E000011F5C
102
{ACAD_REACTORS
330
E0E000011F56
102
}
102
{ACAD_XDICTIONARY
360
E0E00001C949
102
}
330
E0E000011F56
100
AcDbVisualStyle
  2
2dWireframe
 70
     4
 71
     0
 72
     2
 73
     0
 90
        0
 40
-0.6
 41
-30.0
 62
     5
 63
     7
 74
     1
 91
        4
 64
     7
 65
   257
 75
     1
175
     1
 42
1.0
 92
        0
 66
   257
 43
1.0
 76
     1
 77
     6
 78
     2
 67
     7
 79
     5
170
     0
171
     0
290
     0
174
     0
 93
        1
 44
0.0
173
     0
291
     0
 45
0.0
1001
ACAD
1000
AcDbSavedByObjectVersion
1070
     0
  0
VISUALSTYLE
  5
E0E000011F5E
102
{ACAD_REACTORS
330
E0E000011F56
102
}
102
{ACAD_XDICTIONARY
360
E0E00001C94B
102
}
330
E0E000011F56
100
AcDbVisualStyle
  2
3D Hidden
 70
     6
 71
     1
 72
     2
 73
     2
 90
        0
 40
-0.6
 41
-30.0
 62
     5
 63
     7
 74
     2
 91
        2
 64
     7
 65
   257
 75
     2
175
     1
 42
40.0
 92
        0
 66
   257
 43
1.0
 76
     1
 77
     6
 78
     2
 67
     7
 79
     3
170
     0
171
     0
290
     0
174
     0
 93
        1
 44
0.0
173
     0
291
     0
 45
0.0
1001
ACAD
1000
AcDbSavedByObjectVersion
1070
     0
  0
VISUALSTYLE
  5
E0E000011F5D
102
{ACAD_REACTORS
330
E0E000011F56
102
}
102
{ACAD_XDICTIONARY
360
E0E00001C94D
102
}
330
E0E000011F56
100
AcDbVisualStyle
  2
3dWireframe
 70
     5
 71
     0
 72
     2
 73
     0
 90
        0
 40
-0.6
 41
-30.0
 62
     5
 63
     7
 74
     1
 91
        4
 64
     7
 65
   257
 75
     1
175
     1
 42
1.0
 92
        0
 66
   257
 43
1.0
 76
     1
 77
     6
 78
     2
 67
     7
 79
     5
170
     0
171
     0
290
     0
174
     0
 93
        1
 44
0.0
173
     0
291
     0
 45
0.0
1001
ACAD
1000
AcDbSavedByObjectVersion
1070
     0
  0
VISUALSTYLE
  5
E0E000011F5B
102
{ACAD_REACTORS
330
E0E000011F56
102
}
102
{ACAD_XDICTIONARY
360
E0E00001C94F
102
}
330
E0E000011F56
100
AcDbVisualStyle
  2
Basic
 70
     7
 71
     1
 72
     0
 73
     1
 90
        0
 40
-0.6
 41
-30.0
 62
     5
 63
     7
 74
     0
 91
        4
 64
     7
 65
   257
 75
     1
175
     1
 42
1.0
 92
        8
 66
     7
 43
1.0
 76
     1
 77
     6
 78
     2
 67
     7
 79
     5
170
     0
171
     0
290
     0
174
     0
 93
        1
 44
0.0
173
     0
291
     1
 45
0.0
1001
ACAD
1000
AcDbSavedByObjectVersion
1070
     0
  0
VISUALSTYLE
  5
E0E000011F62
102
{ACAD_REACTORS
330
E0E000011F56
102
}
102
{ACAD_XDICTIONARY
360
E0E00001C951
102
}
330
E0E000011F56
100
AcDbVisualStyle
  2
Brighten
 70
    12
 71
     2
 72
     2
 73
     0
 90
        0
 40
-0.6
 41
-30.0
 62
     5
 63
     7
 74
     1
 91
        4
 64
     7
 65
   257
 75
     1
175
     1
 42
1.0
 92
        8
 66
     7
 43
1.0
 76
     1
 77
     6
 78
     2
 67
     7
 79
     5
170
     0
171
     0
290
     0
174
     0
 93
        1
 44
50.0
173
     0
291
     1
 45
0.0
1001
ACAD
1000
AcDbSavedByObjectVersion
1070
     0
  0
VISUALSTYLE
  5
E0E000011F66
102
{ACAD_REACTORS
330
E0E000011F56
102
}
102
{ACAD_XDICTIONARY
360
E0E00001C953
102
}
330
E0E000011F56
100
AcDbVisualStyle
  2
ColorChange
 70
    16
 71
     2
 72
     2
 73
     3
 90
        0
 40
-0.6
 41
-30.0
 62
     5
 63
     8
 74
     1
 91
        4
 64
     7
 65
   257
 75
     1
175
     1
 42
1.0
 92
        8
 66
     8
 43
1.0
 76
     1
 77
     6
 78
     2
 67
     7
 79
     5
170
     0
171
     0
290
     0
174
     0
 93
        1
 44
0.0
173
     0
291
     1
 45
0.0
1001
ACAD
1000
AcDbSavedByObjectVersion
1070
     0
  0
VISUALSTYLE
  5
E0E000011F5F
102
{ACAD_REACTORS
330
E0E000011F56
102
}
102
{ACAD_XDICTIONARY
360
E0E00001C955
102
}
330
E0E000011F56
100
AcDbVisualStyle
  2
Conceptual
 70
     9
 71
     3
 72
     2
 73
     0
 90
        0
 40
-0.6
 41
-30.0
 62
     5
 63
     7
 74
     2
 91
        2
 64
     7
 65
   257
 75
     1
175
     1
 42
40.0
 92
        8
 66
     7
 43
1.0
 76
     1
 77
     6
 78
     2
 67
     7
 79
     3
170
     0
171
     0
290
     0
174
     0
 93
        1
 44
0.0
173
     0
291
     0
 45
0.0
1001
ACAD
1000
AcDbSavedByObjectVersion
1070
     0
  0
VISUALSTYLE
  5
E0E000011F61
102
{ACAD_REACTORS
330
E0E000011F56
102
}
102
{ACAD_XDICTIONARY
360
E0E00001C957
102
}
330
E0E000011F56
100
AcDbVisualStyle
  2
Dim
 70
    11
 71
     2
 72
     2
 73
     0
 90
        0
 40
-0.6
 41
-30.0
 62
     5
 63
     7
 74
     1
 91
        4
 64
     7
 65
   257
 75
     1
175
     1
 42
1.0
 92
        8
 66
     7
 43
1.0
 76
     1
 77
     6
 78
     2
 67
     7
 79
     5
170
     0
171
     0
290
     0
174
     0
 93
        1
 44
-50.0
173
     0
291
     1
 45
0.0
1001
ACAD
1000
AcDbSavedByObjectVersion
1070
     0
  0
VISUALSTYLE
  5
E0E00001C920
102
{ACAD_REACTORS
330
E0E000011F56
102
}
102
{ACAD_XDICTIONARY
360
E0E00001C971
102
}
330
E0E000011F56
100
AcDbVisualStyle
  2
EdgeColorOff
 70
    22
 71
     2
 72
     2
 73
     0
 90
        0
 40
0.6
 41
30.0
 62
     5
 63
     7
 74
     1
 91
        4
 64
     7
 65
   257
 75
     1
175
     1
 42
1.0
 92
        8
 66
     7
 43
1.0
 76
     1
 77
     6
 78
     2
 67
     7
 79
     5
170
     0
171
     0
290
     0
174
     0
 93
        1
 44
0.0
173
     0
291
     1
 45
0.0
1001
ACAD
1000
AcDbSavedByObjectVersion
1070
     0
  0
VISUALSTYLE
  5
E0E000011F65
102
{ACAD_REACTORS
330
E0E000011F56
102
}
102
{ACAD_XDICTIONARY
360
E0E00001C959
102
}
330
E0E000011F56
100
AcDbVisualStyle
  2
Facepattern
 70
    15
 71
     2
 72
     2
 73
     0
 90
        0
 40
-0.6
 41
-30.0
 62
     5
 63
     7
 74
     1
 91
        4
 64
     7
 65
   257
 75
     1
175
     1
 42
1.0
 92
        8
 66
     7
 43
1.0
 76
     1
 77
     6
 78
     2
 67
     7
 79
     5
170
     0
171
     0
290
     0
174
     0
 93
        1
 44
0.0
173
     0
291
     1
 45
0.0
1001
ACAD
1000
AcDbSavedByObjectVersion
1070
     0
  0
VISUALSTYLE
  5
E0E000011F57
102
{ACAD_REACTORS
330
E0E000011F56
102
}
102
{ACAD_XDICTIONARY
360
E0E00001C95B
102
}
330
E0E000011F56
100
AcDbVisualStyle
  2
Flat
 70
     0
 71
     2
 72
     1
 73
     1
 90
        2
 40
-0.6
 41
30.0
 62
     5
 63
     7
 74
     0
 91
        4
 64
     7
 65
   257
 75
     1
175
     1
 42
1.0
 92
        8
 66
     7
 43
1.0
 76
     1
 77
     6
 78
     2
 67
     7
 79
     5
170
     0
171
     0
290
     0
174
     0
 93
       13
 44
0.0
173
     0
291
     1
 45
0.0
1001
ACAD
1000
AcDbSavedByObjectVersion
1070
     0
  0
VISUALSTYLE
  5
E0E000011F58
102
{ACAD_REACTORS
330
E0E000011F56
102
}
102
{ACAD_XDICTIONARY
360
E0E00001C95D
102
}
330
E0E000011F56
100
AcDbVisualStyle
  2
FlatWithEdges
 70
     1
 71
     2
 72
     1
 73
     1
 90
        2
 40
-0.6
 41
30.0
 62
     5
 63
     7
 74
     1
 91
        4
 64
     7
 65
   257
 75
     1
175
     1
 42
1.0
 92
        0
 66
   257
 43
1.0
 76
     1
 77
     6
 78
     2
 67
     7
 79
     5
170
     0
171
     0
290
     0
174
     0
 93
       13
 44
0.0
173
     0
291
     1
 45
0.0
1001
ACAD
1000
AcDbSavedByObjectVersion
1070
     0
  0
VISUALSTYLE
  5
E0E000011F59
102
{ACAD_REACTORS
330
E0E000011F56
102
}
102
{ACAD_XDICTIONARY
360
E0E00001C95F
102
}
330
E0E000011F56
100
AcDbVisualStyle
  2
Gouraud
 70
     2
 71
     2
 72
     2
 73
     1
 90
        2
 40
-0.6
 41
30.0
 62
     5
 63
     7
 74
     0
 91
        4
 64
     7
 65
   257
 75
     1
175
     1
 42
1.0
 92
        0
 66
     7
 43
1.0
 76
     1
 77
     6
 78
     2
 67
     7
 79
     5
170
     0
171
     0
290
     0
174
     0
 93
       13
 44
0.0
173
     0
291
     1
 45
0.0
1001
ACAD
1000
AcDbSavedByObjectVersion
1070
     0
  0
VISUALSTYLE
  5
E0E000011F5A
102
{ACAD_REACTORS
330
E0E000011F56
102
}
102
{ACAD_XDICTIONARY
360
E0E00001C961
102
}
330
E0E000011F56
100
AcDbVisualStyle
  2
GouraudWithEdges
 70
     3
 71
     2
 72
     2
 73
     1
 90
        2
 40
-0.6
 41
30.0
 62
     5
 63
     7
 74
     1
 91
        4
 64
     7
 65
   257
 75
     1
175
     1
 42
1.0
 92
        0
 66
   257
 43
1.0
 76
     1
 77
     6
 78
     2
 67
     7
 79
     5
170
     0
171
     0
290
     0
174
     0
 93
       13
 44
0.0
173
     0
291
     1
 45
0.0
1001
ACAD
1000
AcDbSavedByObjectVersion
1070
     0
  0
VISUALSTYLE
  5
E0E00001C91D
102
{ACAD_REACTORS
330
E0E000011F56
102
}
102
{ACAD_XDICTIONARY
360
E0E00001C96B
102
}
330
E0E000011F56
100
AcDbVisualStyle
  2
Hidden
 70
     6
 71
     1
 72
     2
 73
     2
 90
        0
 40
0.6
 41
30.0
 62
     5
 63
     7
 74
     2
 91
        2
 64
     7
 65
   257
 75
     2
175
     1
 42
40.0
 92
        0
 66
   257
 43
1.0
 76
     1
 77
     6
 78
     2
 67
     7
 79
     3
170
     0
171
     0
290
     0
174
     0
 93
        1
 44
0.0
173
     0
291
     0
 45
0.0
1001
ACAD
1000
AcDbSavedByObjectVersion
1070
     0
  0
VISUALSTYLE
  5
E0E00001C91E
102
{ACAD_REACTORS
330
E0E000011F56
102
}
102
{ACAD_XDICTIONARY
360
E0E00001C96D
102
}
330
E0E000011F56
100
AcDbVisualStyle
  2
JitterOff
 70
    20
 71
     2
 72
     2
 73
     0
 90
        0
 40
0.6
 41
30.0
 62
     5
 63
     7
 74
     1
 91
        4
 64
     7
 65
   257
 75
     1
175
     1
 42
1.0
 92
       10
 66
     7
 43
1.0
 76
     1
 77
     6
 78
     2
 67
     7
 79
     5
170
     0
171
     0
290
     0
174
     0
 93
        1
 44
0.0
173
     0
291
     1
 45
0.0
1001
ACAD
1000
AcDbSavedByObjectVersion
1070
     0
  0
VISUALSTYLE
  5
E0E000011F64
102
{ACAD_REACTORS
330
E0E000011F56
102
}
102
{ACAD_XDICTIONARY
360
E0E00001C963
102
}
330
E0E000011F56
100
AcDbVisualStyle
  2
Linepattern
 70
    14
 71
     2
 72
     2
 73
     0
 90
        0
 40
-0.6
 41
-30.0
 62
     5
 63
     7
 74
     1
 91
        4
 64
     7
 65
   257
 75
     7
175
     7
 42
1.0
 92
        8
 66
     7
 43
1.0
 76
     1
 77
     6
 78
     2
 67
     7
 79
     5
170
     0
171
     0
290
     0
174
     0
 93
        1
 44
0.0
173
     0
291
     1
 45
0.0
1001
ACAD
1000
AcDbSavedByObjectVersion
1070
     0
  0
VISUALSTYLE
  5
E0E00001C91F
102
{ACAD_REACTORS
330
E0E000011F56
102
}
102
{ACAD_XDICTIONARY
360
E0E00001C96F
102
}
330
E0E000011F56
100
AcDbVisualStyle
  2
OverhangOff
 70
    21
 71
     2
 72
     2
 73
     0
 90
        0
 40
0.6
 41
30.0
 62
     5
 63
     7
 74
     1
 91
        4
 64
     7
 65
   257
 75
     1
175
     1
 42
1.0
 92
        9
 66
     7
 43
1.0
 76
     1
 77
     6
 78
     2
 67
     7
 79
     5
170
     0
171
     0
290
     0
174
     0
 93
        1
 44
0.0
173
     0
291
     1
 45
0.0
1001
ACAD
1000
AcDbSavedByObjectVersion
1070
     0
  0
VISUALSTYLE
  5
E0E000011F60
102
{ACAD_REACTORS
330
E0E000011F56
102
}
102
{ACAD_XDICTIONARY
360
E0E00001C965
102
}
330
E0E000011F56
100
AcDbVisualStyle
  2
Realistic
 70
     8
 71
     2
 72
     2
 73
     0
 90
        0
 40
-0.6
 41
-30.0
 62
     5
 63
     7
 74
     1
 91
        0
 64
     7
 65
   257
 75
     1
175
     1
 42
1.0
 92
        8
 66
     8
 43
1.0
 76
     1
 77
     6
 78
     2
 67
     7
 79
     5
170
     0
171
     0
290
     0
174
     0
 93
       13
 44
0.0
173
     0
291
     0
 45
0.0
1001
ACAD
1000
AcDbSavedByObjectVersion
1070
     0
  0
VISUALSTYLE
  5
E0E00001C925
102
{ACAD_REACTORS
330
E0E000011F56
102
}
102
{ACAD_XDICTIONARY
360
E0E00001C97B
102
}
330
E0E000011F56
100
AcDbVisualStyle
  2
Shaded
 70
    27
 71
     2
 72
     2
 73
     1
 90
        2
 40
0.6
 41
30.0
 62
     5
 63
     7
 74
     0
 91
        4
 64
     7
 65
   257
 75
     1
175
     1
 42
1.0
 92
        8
 66
   257
 43
1.0
 76
     1
 77
     6
 78
     2
 67
     8
 79
     3
170
     0
171
     0
290
     0
174
     0
 93
        5
 44
0.0
173
     0
291
     0
 45
0.0
1001
ACAD
1000
AcDbSavedByObjectVersion
1070
     0
  0
VISUALSTYLE
  5
E0E00001C924
102
{ACAD_REACTORS
330
E0E000011F56
102
}
102
{ACAD_XDICTIONARY
360
E0E00001C979
102
}
330
E0E000011F56
100
AcDbVisualStyle
  2
Shaded with edges
 70
    26
 71
     2
 72
     2
 73
     1
 90
        2
 40
0.6
 41
30.0
 62
     5
 63
     7
 74
     1
 91
       10
 64
     7
 65
   257
 75
     2
175
     1
 42
1.0
 92
        8
 66
   257
 43
1.0
 76
     1
 77
     6
 78
     2
 67
     7
 79
     3
170
     0
171
     0
290
     0
174
     0
 93
        5
 44
0.0
173
     0
291
     0
 45
0.0
1001
ACAD
1000
AcDbSavedByObjectVersion
1070
     0
  0
VISUALSTYLE
  5
E0E00001C921
102
{ACAD_REACTORS
330
E0E000011F56
102
}
102
{ACAD_XDICTIONARY
360
E0E00001C973
102
}
330
E0E000011F56
100
AcDbVisualStyle
  2
Shades of Gray
 70
    23
 71
     2
 72
     2
 73
     3
 90
        0
 40
0.6
 41
30.0
 62
     5
 63
     7
 74
     2
 91
        2
 64
     7
 65
     7
 75
     1
175
     1
 42
40.0
 92
        8
 66
     7
 43
1.0
 76
     1
 77
     6
 78
     2
 67
     7
 79
     3
170
     0
171
     0
290
     0
174
     0
 93
        1
 44
0.0
173
     0
291
     0
 45
0.0
1001
ACAD
1000
AcDbSavedByObjectVersion
1070
     0
  0
VISUALSTYLE
  5
E0E00001C922
102
{ACAD_REACTORS
330
E0E000011F56
102
}
102
{ACAD_XDICTIONARY
360
E0E00001C975
102
}
330
E0E000011F56
100
AcDbVisualStyle
  2
Sketchy
 70
    24
 71
     1
 72
     2
 73
     2
 90
        0
 40
0.6
 41
30.0
 62
     5
 63
     7
 74
     2
 91
        2
 64
     7
 65
     7
 75
     1
175
     1
 42
40.0
 92
       11
 66
     7
 43
1.0
 76
     1
 77
     6
 78
     2
 67
     7
 79
     6
170
     0
171
     0
290
     0
174
     0
 93
        1
 44
0.0
173
     0
291
     0
 45
0.0
1001
ACAD
1000
AcDbSavedByObjectVersion
1070
     0
  0
VISUALSTYLE
  5
E0E000011F63
102
{ACAD_REACTORS
330
E0E000011F56
102
}
102
{ACAD_XDICTIONARY
360
E0E00001C967
102
}
330
E0E000011F56
100
AcDbVisualStyle
  2
Thicken
 70
    13
 71
     2
 72
     2
 73
     0
 90
        0
 40
-0.6
 41
-30.0
 62
     5
 63
     7
 74
     1
 91
        4
 64
     7
 65
   257
 75
     1
175
     1
 42
1.0
 92
       12
 66
     7
 43
1.0
 76
     1
 77
     6
 78
     2
 67
     7
 79
     5
170
     0
171
     0
290
     0
174
     0
 93
        1
 44
0.0
173
     0
291
     1
 45
0.0
1001
ACAD
1000
AcDbSavedByObjectVersion
1070
     0
  0
VISUALSTYLE
  5
E0E00001C91C
102
{ACAD_REACTORS
330
E0E000011F56
102
}
102
{ACAD_XDICTIONARY
360
E0E00001C969
102
}
330
E0E000011F56
100
AcDbVisualStyle
  2
Wireframe
 70
     5
 71
     0
 72
     2
 73
     0
 90
        0
 40
0.6
 41
30.0
 62
     5
 63
     7
 74
     1
 91
        4
 64
     7
 65
   257
 75
     1
175
     1
 42
1.0
 92
        0
 66
   257
 43
1.0
 76
     1
 77
     6
 78
     2
 67
     7
 79
     3
170
     0
171
     0
290
     0
174
     0
 93
        1
 44
0.0
173
     0
291
     0
 45
0.0
1001
ACAD
1000
AcDbSavedByObjectVersion
1070
     0
  0
VISUALSTYLE
  5
E0E00001C923
102
{ACAD_REACTORS
330
E0E000011F56
102
}
102
{ACAD_XDICTIONARY
360
E0E00001C977
102
}
330
E0E000011F56
100
AcDbVisualStyle
  2
X-Ray
 70
    25
 71
     2
 72
     2
 73
     1
 90
        1
 40
0.5
 41
30.0
 62
     5
 63
     7
 74
     1
 91
        0
 64
     7
 65
   257
 75
     1
175
     1
 42
1.0
 92
        8
 66
     7
 43
1.0
 76
     1
 77
     6
 78
     2
 67
     7
 79
     3
170
     0
171
     0
290
     0
174
     0
 93
       13
 44
0.0
173
     0
291
     0
 45
0.0
1001
ACAD
1000
AcDbSavedByObjectVersion
1070
     0
  0
XRECORD
  5
E0E00001C938
102
{ACAD_REACTORS
330
E0E00001C937
102
}
330
E0E00001C937
100
AcDbXrecord
280
     1
340
E0E00000E216
  0
XRECORD
  5
E0E00001C939
102
{ACAD_REACTORS
330
E0E00001C937
102
}
330
E0E00001C937
100
AcDbXrecord
280
     1
340
E0E00000E215
  0
DICTIONARYVAR
  5
E0E0000120B9
102
{ACAD_REACTORS
330
E0E00000EADD
102
}
330
E0E00000EADD
100
DictionaryVariables
280
     0
  1
1:1
  0
DICTIONARYVAR
  5
E0E0000120B8
102
{ACAD_REACTORS
330
E0E00000EADD
102
}
330
E0E00000EADD
100
DictionaryVariables
280
     0
  1
Standard
  0
DICTIONARYVAR
  5
E0E00000EADE
102
{ACAD_REACTORS
330
E0E00000EADD
102
}
330
E0E00000EADD
100
DictionaryVariables
280
     0
  1
Standard
  0
DICTIONARYVAR
  5
E0E000011E77
102
{ACAD_REACTORS
330
E0E00000EADD
102
}
330
E0E00000EADD
100
DictionaryVariables
280
     0
  1
1
  0
DICTIONARYVAR
  5
E0E00001C933
102
{ACAD_REACTORS
330
E0E00000EADD
102
}
330
E0E00000EADD
100
DictionaryVariables
280
     0
  1
0
  0
DICTIONARYVAR
  5
E0E00001C932
102
{ACAD_REACTORS
330
E0E00000EADD
102
}
330
E0E00000EADD
100
DictionaryVariables
280
     0
  1
0
  0
DICTIONARYVAR
  5
E0E000011E78
102
{ACAD_REACTORS
330
E0E00000EADD
102
}
330
E0E00000EADD
100
DictionaryVariables
280
     0
  1

  0
DICTIONARYVAR
  5
E0E00001C934
102
{ACAD_REACTORS
330
E0E00000EADD
102
}
330
E0E00000EADD
100
DictionaryVariables
280
     0
  1
0
  0
XRECORD
  5
C36D
102
{ACAD_REACTORS
330
C36C
102
}
330
C36C
100
AcDbXrecord
280
     1
1000
F79QCx7rc7TXb9PZRVfDqKyB6
1070
     4
1070
     6
  0
DICTIONARY
  5
E0E00001C941
330
E0E000011F4E
100
AcDbDictionary
280
     1
281
     1
  3
ACAD_XREC_ROUNDTRIP
360
E0E00001C942
  0
DICTIONARY
  5
E0E00001C943
330
E0E000011F46
100
AcDbDictionary
280
     1
281
     1
  3
ACAD_XREC_ROUNDTRIP
360
E0E00001C944
  0
DICTIONARY
  5
E0E00001C945
330
E0E00000ED91
100
AcDbDictionary
280
     1
281
     1
  3
ACAD_XREC_ROUNDTRIP
360
E0E00001C946
  0
DICTIONARY
  5
E0E00001C947
330
E0E000011F8A
100
AcDbDictionary
280
     1
281
     1
  3
ACAD_XREC_ROUNDTRIP
360
E0E00001C948
  0
DICTIONARY
  5
E0E00001C949
330
E0E000011F5C
100
AcDbDictionary
280
     1
281
     1
  3
ACAD_XREC_ROUNDTRIP
360
E0E00001C94A
  0
DICTIONARY
  5
E0E00001C94B
330
E0E000011F5E
100
AcDbDictionary
280
     1
281
     1
  3
ACAD_XREC_ROUNDTRIP
360
E0E00001C94C
  0
DICTIONARY
  5
E0E00001C94D
330
E0E000011F5D
100
AcDbDictionary
280
     1
281
     1
  3
ACAD_XREC_ROUNDTRIP
360
E0E00001C94E
  0
DICTIONARY
  5
E0E00001C94F
330
E0E000011F5B
100
AcDbDictionary
280
     1
281
     1
  3
ACAD_XREC_ROUNDTRIP
360
E0E00001C950
  0
DICTIONARY
  5
E0E00001C951
330
E0E000011F62
100
AcDbDictionary
280
     1
281
     1
  3
ACAD_XREC_ROUNDTRIP
360
E0E00001C952
  0
DICTIONARY
  5
E0E00001C953
330
E0E000011F66
100
AcDbDictionary
280
     1
281
     1
  3
ACAD_XREC_ROUNDTRIP
360
E0E00001C954
  0
DICTIONARY
  5
E0E00001C955
330
E0E000011F5F
100
AcDbDictionary
280
     1
281
     1
  3
ACAD_XREC_ROUNDTRIP
360
E0E00001C956
  0
DICTIONARY
  5
E0E00001C957
330
E0E000011F61
100
AcDbDictionary
280
     1
281
     1
  3
ACAD_XREC_ROUNDTRIP
360
E0E00001C958
  0
DICTIONARY
  5
E0E00001C971
330
E0E00001C920
100
AcDbDictionary
280
     1
281
     1
  3
ACAD_XREC_ROUNDTRIP
360
E0E00001C972
  0
DICTIONARY
  5
E0E00001C959
330
E0E000011F65
100
AcDbDictionary
280
     1
281
     1
  3
ACAD_XREC_ROUNDTRIP
360
E0E00001C95A
  0
DICTIONARY
  5
E0E00001C95B
330
E0E000011F57
100
AcDbDictionary
280
     1
281
     1
  3
ACAD_XREC_ROUNDTRIP
360
E0E00001C95C
  0
DICTIONARY
  5
E0E00001C95D
330
E0E000011F58
100
AcDbDictionary
280
     1
281
     1
  3
ACAD_XREC_ROUNDTRIP
360
E0E00001C95E
  0
DICTIONARY
  5
E0E00001C95F
330
E0E000011F59
100
AcDbDictionary
280
     1
281
     1
  3
ACAD_XREC_ROUNDTRIP
360
E0E00001C960
  0
DICTIONARY
  5
E0E00001C961
330
E0E000011F5A
100
AcDbDictionary
280
     1
281
     1
  3
ACAD_XREC_ROUNDTRIP
360
E0E00001C962
  0
DICTIONARY
  5
E0E00001C96B
330
E0E00001C91D
100
AcDbDictionary
280
     1
281
     1
  3
ACAD_XREC_ROUNDTRIP
360
E0E00001C96C
  0
DICTIONARY
  5
E0E00001C96D
330
E0E00001C91E
100
AcDbDictionary
280
     1
281
     1
  3
ACAD_XREC_ROUNDTRIP
360
E0E00001C96E
  0
DICTIONARY
  5
E0E00001C963
330
E0E000011F64
100
AcDbDictionary
280
     1
281
     1
  3
ACAD_XREC_ROUNDTRIP
360
E0E00001C964
  0
DICTIONARY
  5
E0E00001C96F
330
E0E00001C91F
100
AcDbDictionary
280
     1
281
     1
  3
ACAD_XREC_ROUNDTRIP
360
E0E00001C970
  0
DICTIONARY
  5
E0E00001C965
330
E0E000011F60
100
AcDbDictionary
280
     1
281
     1
  3
ACAD_XREC_ROUNDTRIP
360
E0E00001C966
  0
DICTIONARY
  5
E0E00001C97B
330
E0E00001C925
100
AcDbDictionary
280
     1
281
     1
  3
ACAD_XREC_ROUNDTRIP
360
E0E00001C97C
  0
DICTIONARY
  5
E0E00001C979
330
E0E00001C924
100
AcDbDictionary
280
     1
281
     1
  3
ACAD_XREC_ROUNDTRIP
360
E0E00001C97A
  0
DICTIONARY
  5
E0E00001C973
330
E0E00001C921
100
AcDbDictionary
280
     1
281
     1
  3
ACAD_XREC_ROUNDTRIP
360
E0E00001C974
  0
DICTIONARY
  5
E0E00001C975
330
E0E00001C922
100
AcDbDictionary
280
     1
281
     1
  3
ACAD_XREC_ROUNDTRIP
360
E0E00001C976
  0
DICTIONARY
  5
E0E00001C967
330
E0E000011F63
100
AcDbDictionary
280
     1
281
     1
  3
ACAD_XREC_ROUNDTRIP
360
E0E00001C968
  0
DICTIONARY
  5
E0E00001C969
330
E0E00001C91C
100
AcDbDictionary
280
     1
281
     1
  3
ACAD_XREC_ROUNDTRIP
360
E0E00001C96A
  0
DICTIONARY
  5
E0E00001C977
330
E0E00001C923
100
AcDbDictionary
280
     1
281
     1
  3
ACAD_XREC_ROUNDTRIP
360
E0E00001C978
  0
XRECORD
  5
E0E00001C942
102
{ACAD_REACTORS
330
E0E00001C941
102
}
330
E0E00001C941
100
AcDbXrecord
280
     1
102
MATERIAL
148
0.0
149
0.0
149
0.0
 93
        0
 94
      127
282
     0
 72
     0
 77
     0
171
     0
175
     0
179
     0
273
     0
  0
XRECORD
  5
E0E00001C944
102
{ACAD_REACTORS
330
E0E00001C943
102
}
330
E0E00001C943
100
AcDbXrecord
280
     1
102
MATERIAL
148
0.0
149
0.0
149
0.0
 93
        0
 94
      127
282
     0
 72
     0
 77
     0
171
     0
175
     0
179
     0
273
     0
  0
XRECORD
  5
E0E00001C946
102
{ACAD_REACTORS
330
E0E00001C945
102
}
330
E0E00001C945
100
AcDbXrecord
280
     1
102
MATERIAL
148
0.0
149
0.0
149
0.0
 93
        0
 94
      127
282
     0
 72
     0
 77
     0
171
     0
175
     0
179
     0
273
     0
  0
XRECORD
  5
E0E00001C948
102
{ACAD_REACTORS
330
E0E00001C947
102
}
330
E0E00001C947
100
AcDbXrecord
280
     1
102
ACAD_ROUNDTRIP_2010_MLEADER_STYLE
  0
XRECORD
  5
E0E00001C94A
102
{ACAD_REACTORS
330
E0E00001C949
102
}
330
E0E00001C949
100
AcDbXrecord
280
     1
102
RTVSPropertyOp0
 70
     1
102
RTVSPropertyOp1
 70
     1
102
RTVSPropertyOp2
 70
     1
102
RTVSPropertyOp3
 70
     1
102
RTVSPropertyOp4
 70
     1
102
RTVSPropertyOp5
 70
     1
102
RTVSPropertyOp6
 70
     1
102
RTVSPropertyOp7
 70
     1
102
RTVSPropertyOp8
 70
     1
102
RTVSPropertyOp9
 70
     1
102
RTVSPropertyOp10
 70
     1
102
RTVSPropertyOp11
 70
     1
102
RTVSPropertyOp12
 70
     1
102
RTVSPropertyOp13
 70
     1
102
RTVSPropertyOp14
 70
     1
102
RTVSPropertyOp15
 70
     1
102
RTVSPropertyOp16
 70
     1
102
RTVSPropertyOp17
 70
     1
102
RTVSPropertyOp18
 70
     1
102
RTVSPropertyOp19
 70
     1
102
RTVSPropertyOp20
 70
     1
102
RTVSPropertyOp21
 70
     1
102
RTVSPropertyOp22
 70
     1
102
RTVSPropertyOp23
 70
     1
102
RTVSPropertyOp24
 70
     1
102
RTVSPropertyOp25
 70
     1
102
RTVSPropertyOp26
 70
     1
102
RTVSPropertyOp27
 70
     1
102
RTVSPropertyOp28
 70
     1
102
RTVSPropertyOp29
 70
     1
102
RTVSPropertyOp30
 70
     1
102
RTVSPropertyOp31
 70
     1
102
RTVSPropertyOp32
 70
     1
102
RTVSPropertyOp33
 70
     1
102
RTVSPropertyOp34
 70
     1
102
RTVSPropertyOp35
 70
     1
102
RTVSPropertyOp36
 70
     1
102
RTVSPropertyOp37
 70
     1
102
RTVSPropertyOp38
 70
     1
102
RTVSPropertyOp39
 70
     1
102
RTVSPropertyOp40
 70
     1
102
RTVSPropertyOp41
 70
     1
102
RTVSPropertyOp42
 70
     1
102
RTVSPropertyOp43
 70
     1
102
RTVSPropertyOp44
 70
     1
102
RTVSPropertyOp45
 70
     1
102
RTVSPropertyOp46
 70
     1
102
RTVSPropertyOp47
 70
     1
102
RTVSPropertyOp48
 70
     1
102
RTVSPropertyOp49
 70
     1
102
RTVSPropertyOp50
 70
     1
102
RTVSPropertyOp51
 70
     0
102
RTVSPropertyOp52
 70
     0
102
RTVSPropertyOp53
 70
     1
102
RTVSPropertyOp54
 70
     1
102
RTVSPropertyOp55
 70
     1
102
RTVSPropertyOp56
 70
     1
102
RTVSPropertyOp57
 70
     1
102
RTVSPost2010Prop28
280
     1
102
RTVSPost2010PropOp28
 70
     1
102
RTVSPost2010Prop29
280
     1
102
RTVSPost2010PropOp29
 70
     1
102
RTVSPost2010Prop30
280
     0
102
RTVSPost2010PropOp30
 70
     1
102
RTVSPost2010Prop31
280
     0
102
RTVSPost2010PropOp31
 70
     1
102
RTVSPost2010Prop32
280
     0
102
RTVSPost2010PropOp32
 70
     1
102
RTVSPost2010Prop33
280
     0
102
RTVSPost2010PropOp33
 70
     1
102
RTVSPost2010Prop34
280
     0
102
RTVSPost2010PropOp34
 70
     1
102
RTVSPost2010Prop35
280
     0
102
RTVSPost2010PropOp35
 70
     1
102
RTVSPost2010Prop36
280
     0
102
RTVSPost2010PropOp36
 70
     1
102
RTVSPost2010Prop37
 90
       50
102
RTVSPost2010PropOp37
 70
     1
102
RTVSPost2010Prop38
140
0.0
102
RTVSPost2010PropOp38
 70
     1
102
RTVSPost2010Prop39
140
1.0
102
RTVSPost2010PropOp39
 70
     1
102
RTVSPost2010Prop40
 90
        0
102
RTVSPost2010PropOp40
 70
     1
102
RTVSPost2010Prop41ColorIndex
 90
       18
102
RTVSPost2010Prop41ColorRGB
 90
        0
102
RTVSPost2010PropOp41
 70
     1
102
RTVSPost2010Prop42
 90
       50
102
RTVSPost2010PropOp42
 70
     1
102
RTVSPost2010Prop43
 90
        3
102
RTVSPost2010PropOp43
 70
     1
102
RTVSPost2010Prop44ColorIndex
 90
        5
102
RTVSPost2010Prop44ColorRGB
 90
      255
102
RTVSPost2010PropOp44
 70
     1
102
RTVSPost2010Prop45
280
     0
102
RTVSPost2010PropOp45
 70
     1
102
RTVSPost2010Prop46
 90
       50
102
RTVSPost2010PropOp46
 70
     1
102
RTVSPost2010Prop47
 90
       50
102
RTVSPost2010PropOp47
 70
     1
102
RTVSPost2010Prop48
 90
       50
102
RTVSPost2010PropOp48
 70
     1
102
RTVSPost2010Prop49
280
     0
102
RTVSPost2010PropOp49
 70
     1
102
RTVSPost2010Prop50
 90
       50
102
RTVSPost2010PropOp50
 70
     1
102
RTVSPost2010Prop51ColorIndex
 90
      256
102
RTVSPost2010Prop51ColorRGB
 90
-16777216
102
RTVSPost2010PropOp51
 70
     0
102
RTVSPost2010Prop52
140
1.0
102
RTVSPost2010PropOp52
 70
     0
102
RTVSPost2010Prop53
 90
        2
102
RTVSPost2010PropOp53
 70
     1
102
RTVSPost2010Prop54
  1
strokes_ogs.tif
102
RTVSPost2010PropOp54
 70
     1
102
RTVSPost2010Prop55
280
     0
102
RTVSPost2010PropOp55
 70
     1
102
RTVSPost2010Prop56
140
1.0
102
RTVSPost2010PropOp56
 70
     1
102
RTVSPost2010Prop57
140
1.0
102
RTVSPost2010PropOp57
 70
     1
  0
XRECORD
  5
E0E00001C94C
102
{ACAD_REACTORS
330
E0E00001C94B
102
}
330
E0E00001C94B
100
AcDbXrecord
280
     1
102
RTVSPropertyOp0
 70
     1
102
RTVSPropertyOp1
 70
     1
102
RTVSPropertyOp2
 70
     1
102
RTVSPropertyOp3
 70
     1
102
RTVSPropertyOp4
 70
     1
102
RTVSPropertyOp5
 70
     1
102
RTVSPropertyOp6
 70
     1
102
RTVSPropertyOp7
 70
     1
102
RTVSPropertyOp8
 70
     1
102
RTVSPropertyOp9
 70
     1
102
RTVSPropertyOp10
 70
     1
102
RTVSPropertyOp11
 70
     1
102
RTVSPropertyOp12
 70
     1
102
RTVSPropertyOp13
 70
     1
102
RTVSPropertyOp14
 70
     1
102
RTVSPropertyOp15
 70
     1
102
RTVSPropertyOp16
 70
     1
102
RTVSPropertyOp17
 70
     1
102
RTVSPropertyOp18
 70
     1
102
RTVSPropertyOp19
 70
     1
102
RTVSPropertyOp20
 70
     1
102
RTVSPropertyOp21
 70
     1
102
RTVSPropertyOp22
 70
     1
102
RTVSPropertyOp23
 70
     1
102
RTVSPropertyOp24
 70
     1
102
RTVSPropertyOp25
 70
     1
102
RTVSPropertyOp26
 70
     1
102
RTVSPropertyOp27
 70
     1
102
RTVSPropertyOp28
 70
     1
102
RTVSPropertyOp29
 70
     1
102
RTVSPropertyOp30
 70
     1
102
RTVSPropertyOp31
 70
     1
102
RTVSPropertyOp32
 70
     1
102
RTVSPropertyOp33
 70
     1
102
RTVSPropertyOp34
 70
     1
102
RTVSPropertyOp35
 70
     1
102
RTVSPropertyOp36
 70
     1
102
RTVSPropertyOp37
 70
     1
102
RTVSPropertyOp38
 70
     1
102
RTVSPropertyOp39
 70
     1
102
RTVSPropertyOp40
 70
     1
102
RTVSPropertyOp41
 70
     1
102
RTVSPropertyOp42
 70
     1
102
RTVSPropertyOp43
 70
     1
102
RTVSPropertyOp44
 70
     1
102
RTVSPropertyOp45
 70
     1
102
RTVSPropertyOp46
 70
     1
102
RTVSPropertyOp47
 70
     1
102
RTVSPropertyOp48
 70
     1
102
RTVSPropertyOp49
 70
     1
102
RTVSPropertyOp50
 70
     1
102
RTVSPropertyOp51
 70
     0
102
RTVSPropertyOp52
 70
     0
102
RTVSPropertyOp53
 70
     1
102
RTVSPropertyOp54
 70
     1
102
RTVSPropertyOp55
 70
     1
102
RTVSPropertyOp56
 70
     1
102
RTVSPropertyOp57
 70
     1
102
RTVSPost2010Prop28
280
     0
102
RTVSPost2010PropOp28
 70
     1
102
RTVSPost2010Prop29
280
     1
102
RTVSPost2010PropOp29
 70
     1
102
RTVSPost2010Prop30
280
     1
102
RTVSPost2010PropOp30
 70
     1
102
RTVSPost2010Prop31
280
     0
102
RTVSPost2010PropOp31
 70
     1
102
RTVSPost2010Prop32
280
     0
102
RTVSPost2010PropOp32
 70
     1
102
RTVSPost2010Prop33
280
     0
102
RTVSPost2010PropOp33
 70
     1
102
RTVSPost2010Prop34
280
     0
102
RTVSPost2010PropOp34
 70
     1
102
RTVSPost2010Prop35
280
     0
102
RTVSPost2010PropOp35
 70
     1
102
RTVSPost2010Prop36
280
     0
102
RTVSPost2010PropOp36
 70
     1
102
RTVSPost2010Prop37
 90
       50
102
RTVSPost2010PropOp37
 70
     1
102
RTVSPost2010Prop38
140
0.0
102
RTVSPost2010PropOp38
 70
     1
102
RTVSPost2010Prop39
140
1.0
102
RTVSPost2010PropOp39
 70
     1
102
RTVSPost2010Prop40
 90
        0
102
RTVSPost2010PropOp40
 70
     1
102
RTVSPost2010Prop41ColorIndex
 90
       18
102
RTVSPost2010Prop41ColorRGB
 90
        0
102
RTVSPost2010PropOp41
 70
     1
102
RTVSPost2010Prop42
 90
       50
102
RTVSPost2010PropOp42
 70
     1
102
RTVSPost2010Prop43
 90
        3
102
RTVSPost2010PropOp43
 70
     1
102
RTVSPost2010Prop44ColorIndex
 90
        5
102
RTVSPost2010Prop44ColorRGB
 90
      255
102
RTVSPost2010PropOp44
 70
     1
102
RTVSPost2010Prop45
280
     0
102
RTVSPost2010PropOp45
 70
     1
102
RTVSPost2010Prop46
 90
       50
102
RTVSPost2010PropOp46
 70
     1
102
RTVSPost2010Prop47
 90
       50
102
RTVSPost2010PropOp47
 70
     1
102
RTVSPost2010Prop48
 90
       50
102
RTVSPost2010PropOp48
 70
     1
102
RTVSPost2010Prop49
280
     0
102
RTVSPost2010PropOp49
 70
     1
102
RTVSPost2010Prop50
 90
       50
102
RTVSPost2010PropOp50
 70
     1
102
RTVSPost2010Prop51ColorIndex
 90
      256
102
RTVSPost2010Prop51ColorRGB
 90
-16777216
102
RTVSPost2010PropOp51
 70
     0
102
RTVSPost2010Prop52
140
1.0
102
RTVSPost2010PropOp52
 70
     0
102
RTVSPost2010Prop53
 90
        2
102
RTVSPost2010PropOp53
 70
     1
102
RTVSPost2010Prop54
  1
strokes_ogs.tif
102
RTVSPost2010PropOp54
 70
     1
102
RTVSPost2010Prop55
280
     0
102
RTVSPost2010PropOp55
 70
     1
102
RTVSPost2010Prop56
140
1.0
102
RTVSPost2010PropOp56
 70
     1
102
RTVSPost2010Prop57
140
1.0
102
RTVSPost2010PropOp57
 70
     1
  0
XRECORD
  5
E0E00001C94E
102
{ACAD_REACTORS
330
E0E00001C94D
102
}
330
E0E00001C94D
100
AcDbXrecord
280
     1
102
RTVSPropertyOp0
 70
     1
102
RTVSPropertyOp1
 70
     1
102
RTVSPropertyOp2
 70
     1
102
RTVSPropertyOp3
 70
     1
102
RTVSPropertyOp4
 70
     1
102
RTVSPropertyOp5
 70
     1
102
RTVSPropertyOp6
 70
     1
102
RTVSPropertyOp7
 70
     1
102
RTVSPropertyOp8
 70
     1
102
RTVSPropertyOp9
 70
     1
102
RTVSPropertyOp10
 70
     1
102
RTVSPropertyOp11
 70
     1
102
RTVSPropertyOp12
 70
     1
102
RTVSPropertyOp13
 70
     1
102
RTVSPropertyOp14
 70
     1
102
RTVSPropertyOp15
 70
     1
102
RTVSPropertyOp16
 70
     1
102
RTVSPropertyOp17
 70
     1
102
RTVSPropertyOp18
 70
     1
102
RTVSPropertyOp19
 70
     1
102
RTVSPropertyOp20
 70
     1
102
RTVSPropertyOp21
 70
     1
102
RTVSPropertyOp22
 70
     1
102
RTVSPropertyOp23
 70
     1
102
RTVSPropertyOp24
 70
     1
102
RTVSPropertyOp25
 70
     1
102
RTVSPropertyOp26
 70
     1
102
RTVSPropertyOp27
 70
     1
102
RTVSPropertyOp28
 70
     1
102
RTVSPropertyOp29
 70
     1
102
RTVSPropertyOp30
 70
     1
102
RTVSPropertyOp31
 70
     1
102
RTVSPropertyOp32
 70
     1
102
RTVSPropertyOp33
 70
     1
102
RTVSPropertyOp34
 70
     1
102
RTVSPropertyOp35
 70
     1
102
RTVSPropertyOp36
 70
     1
102
RTVSPropertyOp37
 70
     1
102
RTVSPropertyOp38
 70
     1
102
RTVSPropertyOp39
 70
     1
102
RTVSPropertyOp40
 70
     1
102
RTVSPropertyOp41
 70
     1
102
RTVSPropertyOp42
 70
     1
102
RTVSPropertyOp43
 70
     1
102
RTVSPropertyOp44
 70
     1
102
RTVSPropertyOp45
 70
     1
102
RTVSPropertyOp46
 70
     1
102
RTVSPropertyOp47
 70
     1
102
RTVSPropertyOp48
 70
     1
102
RTVSPropertyOp49
 70
     1
102
RTVSPropertyOp50
 70
     1
102
RTVSPropertyOp51
 70
     0
102
RTVSPropertyOp52
 70
     0
102
RTVSPropertyOp53
 70
     1
102
RTVSPropertyOp54
 70
     1
102
RTVSPropertyOp55
 70
     1
102
RTVSPropertyOp56
 70
     1
102
RTVSPropertyOp57
 70
     1
102
RTVSPost2010Prop28
280
     0
102
RTVSPost2010PropOp28
 70
     1
102
RTVSPost2010Prop29
280
     1
102
RTVSPost2010PropOp29
 70
     1
102
RTVSPost2010Prop30
280
     1
102
RTVSPost2010PropOp30
 70
     1
102
RTVSPost2010Prop31
280
     0
102
RTVSPost2010PropOp31
 70
     1
102
RTVSPost2010Prop32
280
     0
102
RTVSPost2010PropOp32
 70
     1
102
RTVSPost2010Prop33
280
     0
102
RTVSPost2010PropOp33
 70
     1
102
RTVSPost2010Prop34
280
     0
102
RTVSPost2010PropOp34
 70
     1
102
RTVSPost2010Prop35
280
     0
102
RTVSPost2010PropOp35
 70
     1
102
RTVSPost2010Prop36
280
     0
102
RTVSPost2010PropOp36
 70
     1
102
RTVSPost2010Prop37
 90
       50
102
RTVSPost2010PropOp37
 70
     1
102
RTVSPost2010Prop38
140
0.0
102
RTVSPost2010PropOp38
 70
     1
102
RTVSPost2010Prop39
140
1.0
102
RTVSPost2010PropOp39
 70
     1
102
RTVSPost2010Prop40
 90
        0
102
RTVSPost2010PropOp40
 70
     1
102
RTVSPost2010Prop41ColorIndex
 90
       18
102
RTVSPost2010Prop41ColorRGB
 90
        0
102
RTVSPost2010PropOp41
 70
     1
102
RTVSPost2010Prop42
 90
       50
102
RTVSPost2010PropOp42
 70
     1
102
RTVSPost2010Prop43
 90
        3
102
RTVSPost2010PropOp43
 70
     1
102
RTVSPost2010Prop44ColorIndex
 90
        5
102
RTVSPost2010Prop44ColorRGB
 90
      255
102
RTVSPost2010PropOp44
 70
     1
102
RTVSPost2010Prop45
280
     0
102
RTVSPost2010PropOp45
 70
     1
102
RTVSPost2010Prop46
 90
       50
102
RTVSPost2010PropOp46
 70
     1
102
RTVSPost2010Prop47
 90
       50
102
RTVSPost2010PropOp47
 70
     1
102
RTVSPost2010Prop48
 90
       50
102
RTVSPost2010PropOp48
 70
     1
102
RTVSPost2010Prop49
280
     0
102
RTVSPost2010PropOp49
 70
     1
102
RTVSPost2010Prop50
 90
       50
102
RTVSPost2010PropOp50
 70
     1
102
RTVSPost2010Prop51ColorIndex
 90
      256
102
RTVSPost2010Prop51ColorRGB
 90
-16777216
102
RTVSPost2010PropOp51
 70
     0
102
RTVSPost2010Prop52
140
1.0
102
RTVSPost2010PropOp52
 70
     0
102
RTVSPost2010Prop53
 90
        2
102
RTVSPost2010PropOp53
 70
     1
102
RTVSPost2010Prop54
  1
strokes_ogs.tif
102
RTVSPost2010PropOp54
 70
     1
102
RTVSPost2010Prop55
280
     0
102
RTVSPost2010PropOp55
 70
     1
102
RTVSPost2010Prop56
140
1.0
102
RTVSPost2010PropOp56
 70
     1
102
RTVSPost2010Prop57
140
1.0
102
RTVSPost2010PropOp57
 70
     1
  0
XRECORD
  5
E0E00001C950
102
{ACAD_REACTORS
330
E0E00001C94F
102
}
330
E0E00001C94F
100
AcDbXrecord
280
     1
102
RTVSPropertyOp0
 70
     1
102
RTVSPropertyOp1
 70
     1
102
RTVSPropertyOp2
 70
     1
102
RTVSPropertyOp3
 70
     1
102
RTVSPropertyOp4
 70
     1
102
RTVSPropertyOp5
 70
     1
102
RTVSPropertyOp6
 70
     1
102
RTVSPropertyOp7
 70
     1
102
RTVSPropertyOp8
 70
     1
102
RTVSPropertyOp9
 70
     1
102
RTVSPropertyOp10
 70
     1
102
RTVSPropertyOp11
 70
     1
102
RTVSPropertyOp12
 70
     1
102
RTVSPropertyOp13
 70
     1
102
RTVSPropertyOp14
 70
     1
102
RTVSPropertyOp15
 70
     1
102
RTVSPropertyOp16
 70
     1
102
RTVSPropertyOp17
 70
     1
102
RTVSPropertyOp18
 70
     1
102
RTVSPropertyOp19
 70
     1
102
RTVSPropertyOp20
 70
     1
102
RTVSPropertyOp21
 70
     1
102
RTVSPropertyOp22
 70
     1
102
RTVSPropertyOp23
 70
     1
102
RTVSPropertyOp24
 70
     1
102
RTVSPropertyOp25
 70
     1
102
RTVSPropertyOp26
 70
     1
102
RTVSPropertyOp27
 70
     1
102
RTVSPropertyOp28
 70
     1
102
RTVSPropertyOp29
 70
     1
102
RTVSPropertyOp30
 70
     1
102
RTVSPropertyOp31
 70
     1
102
RTVSPropertyOp32
 70
     1
102
RTVSPropertyOp33
 70
     1
102
RTVSPropertyOp34
 70
     1
102
RTVSPropertyOp35
 70
     1
102
RTVSPropertyOp36
 70
     1
102
RTVSPropertyOp37
 70
     1
102
RTVSPropertyOp38
 70
     1
102
RTVSPropertyOp39
 70
     1
102
RTVSPropertyOp40
 70
     1
102
RTVSPropertyOp41
 70
     1
102
RTVSPropertyOp42
 70
     1
102
RTVSPropertyOp43
 70
     1
102
RTVSPropertyOp44
 70
     1
102
RTVSPropertyOp45
 70
     1
102
RTVSPropertyOp46
 70
     1
102
RTVSPropertyOp47
 70
     1
102
RTVSPropertyOp48
 70
     1
102
RTVSPropertyOp49
 70
     1
102
RTVSPropertyOp50
 70
     1
102
RTVSPropertyOp51
 70
     0
102
RTVSPropertyOp52
 70
     0
102
RTVSPropertyOp53
 70
     1
102
RTVSPropertyOp54
 70
     1
102
RTVSPropertyOp55
 70
     1
102
RTVSPropertyOp56
 70
     1
102
RTVSPropertyOp57
 70
     1
102
RTVSPost2010Prop28
280
     0
102
RTVSPost2010PropOp28
 70
     1
102
RTVSPost2010Prop29
280
     1
102
RTVSPost2010PropOp29
 70
     1
102
RTVSPost2010Prop30
280
     1
102
RTVSPost2010PropOp30
 70
     1
102
RTVSPost2010Prop31
280
     0
102
RTVSPost2010PropOp31
 70
     1
102
RTVSPost2010Prop32
280
     0
102
RTVSPost2010PropOp32
 70
     1
102
RTVSPost2010Prop33
280
     0
102
RTVSPost2010PropOp33
 70
     1
102
RTVSPost2010Prop34
280
     0
102
RTVSPost2010PropOp34
 70
     1
102
RTVSPost2010Prop35
280
     0
102
RTVSPost2010PropOp35
 70
     1
102
RTVSPost2010Prop36
280
     0
102
RTVSPost2010PropOp36
 70
     1
102
RTVSPost2010Prop37
 90
       50
102
RTVSPost2010PropOp37
 70
     1
102
RTVSPost2010Prop38
140
0.0
102
RTVSPost2010PropOp38
 70
     1
102
RTVSPost2010Prop39
140
1.0
102
RTVSPost2010PropOp39
 70
     1
102
RTVSPost2010Prop40
 90
        0
102
RTVSPost2010PropOp40
 70
     1
102
RTVSPost2010Prop41ColorIndex
 90
       18
102
RTVSPost2010Prop41ColorRGB
 90
        0
102
RTVSPost2010PropOp41
 70
     1
102
RTVSPost2010Prop42
 90
       50
102
RTVSPost2010PropOp42
 70
     1
102
RTVSPost2010Prop43
 90
        3
102
RTVSPost2010PropOp43
 70
     1
102
RTVSPost2010Prop44ColorIndex
 90
        5
102
RTVSPost2010Prop44ColorRGB
 90
      255
102
RTVSPost2010PropOp44
 70
     1
102
RTVSPost2010Prop45
280
     0
102
RTVSPost2010PropOp45
 70
     1
102
RTVSPost2010Prop46
 90
       50
102
RTVSPost2010PropOp46
 70
     1
102
RTVSPost2010Prop47
 90
       50
102
RTVSPost2010PropOp47
 70
     1
102
RTVSPost2010Prop48
 90
       50
102
RTVSPost2010PropOp48
 70
     1
102
RTVSPost2010Prop49
280
     0
102
RTVSPost2010PropOp49
 70
     1
102
RTVSPost2010Prop50
 90
       50
102
RTVSPost2010PropOp50
 70
     1
102
RTVSPost2010Prop51ColorIndex
 90
      256
102
RTVSPost2010Prop51ColorRGB
 90
-16777216
102
RTVSPost2010PropOp51
 70
     0
102
RTVSPost2010Prop52
140
1.0
102
RTVSPost2010PropOp52
 70
     0
102
RTVSPost2010Prop53
 90
        2
102
RTVSPost2010PropOp53
 70
     1
102
RTVSPost2010Prop54
  1
strokes_ogs.tif
102
RTVSPost2010PropOp54
 70
     1
102
RTVSPost2010Prop55
280
     0
102
RTVSPost2010PropOp55
 70
     1
102
RTVSPost2010Prop56
140
1.0
102
RTVSPost2010PropOp56
 70
     1
102
RTVSPost2010Prop57
140
1.0
102
RTVSPost2010PropOp57
 70
     1
  0
XRECORD
  5
E0E00001C952
102
{ACAD_REACTORS
330
E0E00001C951
102
}
330
E0E00001C951
100
AcDbXrecord
280
     1
102
RTVSPropertyOp0
 70
     1
102
RTVSPropertyOp1
 70
     1
102
RTVSPropertyOp2
 70
     1
102
RTVSPropertyOp3
 70
     1
102
RTVSPropertyOp4
 70
     1
102
RTVSPropertyOp5
 70
     1
102
RTVSPropertyOp6
 70
     1
102
RTVSPropertyOp7
 70
     1
102
RTVSPropertyOp8
 70
     1
102
RTVSPropertyOp9
 70
     1
102
RTVSPropertyOp10
 70
     1
102
RTVSPropertyOp11
 70
     1
102
RTVSPropertyOp12
 70
     1
102
RTVSPropertyOp13
 70
     1
102
RTVSPropertyOp14
 70
     1
102
RTVSPropertyOp15
 70
     1
102
RTVSPropertyOp16
 70
     1
102
RTVSPropertyOp17
 70
     1
102
RTVSPropertyOp18
 70
     1
102
RTVSPropertyOp19
 70
     1
102
RTVSPropertyOp20
 70
     1
102
RTVSPropertyOp21
 70
     1
102
RTVSPropertyOp22
 70
     1
102
RTVSPropertyOp23
 70
     1
102
RTVSPropertyOp24
 70
     1
102
RTVSPropertyOp25
 70
     1
102
RTVSPropertyOp26
 70
     1
102
RTVSPropertyOp27
 70
     1
102
RTVSPropertyOp28
 70
     1
102
RTVSPropertyOp29
 70
     1
102
RTVSPropertyOp30
 70
     1
102
RTVSPropertyOp31
 70
     1
102
RTVSPropertyOp32
 70
     1
102
RTVSPropertyOp33
 70
     1
102
RTVSPropertyOp34
 70
     1
102
RTVSPropertyOp35
 70
     1
102
RTVSPropertyOp36
 70
     1
102
RTVSPropertyOp37
 70
     1
102
RTVSPropertyOp38
 70
     1
102
RTVSPropertyOp39
 70
     1
102
RTVSPropertyOp40
 70
     1
102
RTVSPropertyOp41
 70
     1
102
RTVSPropertyOp42
 70
     1
102
RTVSPropertyOp43
 70
     1
102
RTVSPropertyOp44
 70
     1
102
RTVSPropertyOp45
 70
     1
102
RTVSPropertyOp46
 70
     1
102
RTVSPropertyOp47
 70
     1
102
RTVSPropertyOp48
 70
     1
102
RTVSPropertyOp49
 70
     1
102
RTVSPropertyOp50
 70
     1
102
RTVSPropertyOp51
 70
     0
102
RTVSPropertyOp52
 70
     0
102
RTVSPropertyOp53
 70
     1
102
RTVSPropertyOp54
 70
     1
102
RTVSPropertyOp55
 70
     1
102
RTVSPropertyOp56
 70
     1
102
RTVSPropertyOp57
 70
     1
102
RTVSPost2010Prop28
280
     0
102
RTVSPost2010PropOp28
 70
     1
102
RTVSPost2010Prop29
280
     1
102
RTVSPost2010PropOp29
 70
     1
102
RTVSPost2010Prop30
280
     1
102
RTVSPost2010PropOp30
 70
     1
102
RTVSPost2010Prop31
280
     0
102
RTVSPost2010PropOp31
 70
     1
102
RTVSPost2010Prop32
280
     0
102
RTVSPost2010PropOp32
 70
     1
102
RTVSPost2010Prop33
280
     0
102
RTVSPost2010PropOp33
 70
     1
102
RTVSPost2010Prop34
280
     0
102
RTVSPost2010PropOp34
 70
     1
102
RTVSPost2010Prop35
280
     0
102
RTVSPost2010PropOp35
 70
     1
102
RTVSPost2010Prop36
280
     0
102
RTVSPost2010PropOp36
 70
     1
102
RTVSPost2010Prop37
 90
       50
102
RTVSPost2010PropOp37
 70
     1
102
RTVSPost2010Prop38
140
0.0
102
RTVSPost2010PropOp38
 70
     1
102
RTVSPost2010Prop39
140
1.0
102
RTVSPost2010PropOp39
 70
     1
102
RTVSPost2010Prop40
 90
        0
102
RTVSPost2010PropOp40
 70
     1
102
RTVSPost2010Prop41ColorIndex
 90
       18
102
RTVSPost2010Prop41ColorRGB
 90
        0
102
RTVSPost2010PropOp41
 70
     1
102
RTVSPost2010Prop42
 90
       50
102
RTVSPost2010PropOp42
 70
     1
102
RTVSPost2010Prop43
 90
        3
102
RTVSPost2010PropOp43
 70
     1
102
RTVSPost2010Prop44ColorIndex
 90
        5
102
RTVSPost2010Prop44ColorRGB
 90
      255
102
RTVSPost2010PropOp44
 70
     1
102
RTVSPost2010Prop45
280
     0
102
RTVSPost2010PropOp45
 70
     1
102
RTVSPost2010Prop46
 90
       50
102
RTVSPost2010PropOp46
 70
     1
102
RTVSPost2010Prop47
 90
       50
102
RTVSPost2010PropOp47
 70
     1
102
RTVSPost2010Prop48
 90
       50
102
RTVSPost2010PropOp48
 70
     1
102
RTVSPost2010Prop49
280
     0
102
RTVSPost2010PropOp49
 70
     1
102
RTVSPost2010Prop50
 90
       50
102
RTVSPost2010PropOp50
 70
     1
102
RTVSPost2010Prop51ColorIndex
 90
      256
102
RTVSPost2010Prop51ColorRGB
 90
-16777216
102
RTVSPost2010PropOp51
 70
     0
102
RTVSPost2010Prop52
140
1.0
102
RTVSPost2010PropOp52
 70
     0
102
RTVSPost2010Prop53
 90
        2
102
RTVSPost2010PropOp53
 70
     1
102
RTVSPost2010Prop54
  1
strokes_ogs.tif
102
RTVSPost2010PropOp54
 70
     1
102
RTVSPost2010Prop55
280
     0
102
RTVSPost2010PropOp55
 70
     1
102
RTVSPost2010Prop56
140
1.0
102
RTVSPost2010PropOp56
 70
     1
102
RTVSPost2010Prop57
140
1.0
102
RTVSPost2010PropOp57
 70
     1
  0
XRECORD
  5
E0E00001C954
102
{ACAD_REACTORS
330
E0E00001C953
102
}
330
E0E00001C953
100
AcDbXrecord
280
     1
102
RTVSPropertyOp0
 70
     1
102
RTVSPropertyOp1
 70
     1
102
RTVSPropertyOp2
 70
     1
102
RTVSPropertyOp3
 70
     1
102
RTVSPropertyOp4
 70
     1
102
RTVSPropertyOp5
 70
     1
102
RTVSPropertyOp6
 70
     1
102
RTVSPropertyOp7
 70
     1
102
RTVSPropertyOp8
 70
     1
102
RTVSPropertyOp9
 70
     1
102
RTVSPropertyOp10
 70
     1
102
RTVSPropertyOp11
 70
     1
102
RTVSPropertyOp12
 70
     1
102
RTVSPropertyOp13
 70
     1
102
RTVSPropertyOp14
 70
     1
102
RTVSPropertyOp15
 70
     1
102
RTVSPropertyOp16
 70
     1
102
RTVSPropertyOp17
 70
     1
102
RTVSPropertyOp18
 70
     1
102
RTVSPropertyOp19
 70
     1
102
RTVSPropertyOp20
 70
     1
102
RTVSPropertyOp21
 70
     1
102
RTVSPropertyOp22
 70
     1
102
RTVSPropertyOp23
 70
     1
102
RTVSPropertyOp24
 70
     1
102
RTVSPropertyOp25
 70
     1
102
RTVSPropertyOp26
 70
     1
102
RTVSPropertyOp27
 70
     1
102
RTVSPropertyOp28
 70
     1
102
RTVSPropertyOp29
 70
     1
102
RTVSPropertyOp30
 70
     1
102
RTVSPropertyOp31
 70
     1
102
RTVSPropertyOp32
 70
     1
102
RTVSPropertyOp33
 70
     1
102
RTVSPropertyOp34
 70
     1
102
RTVSPropertyOp35
 70
     1
102
RTVSPropertyOp36
 70
     1
102
RTVSPropertyOp37
 70
     1
102
RTVSPropertyOp38
 70
     1
102
RTVSPropertyOp39
 70
     1
102
RTVSPropertyOp40
 70
     1
102
RTVSPropertyOp41
 70
     1
102
RTVSPropertyOp42
 70
     1
102
RTVSPropertyOp43
 70
     1
102
RTVSPropertyOp44
 70
     1
102
RTVSPropertyOp45
 70
     1
102
RTVSPropertyOp46
 70
     1
102
RTVSPropertyOp47
 70
     1
102
RTVSPropertyOp48
 70
     1
102
RTVSPropertyOp49
 70
     1
102
RTVSPropertyOp50
 70
     1
102
RTVSPropertyOp51
 70
     0
102
RTVSPropertyOp52
 70
     0
102
RTVSPropertyOp53
 70
     1
102
RTVSPropertyOp54
 70
     1
102
RTVSPropertyOp55
 70
     1
102
RTVSPropertyOp56
 70
     1
102
RTVSPropertyOp57
 70
     1
102
RTVSPost2010Prop28
280
     0
102
RTVSPost2010PropOp28
 70
     1
102
RTVSPost2010Prop29
280
     1
102
RTVSPost2010PropOp29
 70
     1
102
RTVSPost2010Prop30
280
     1
102
RTVSPost2010PropOp30
 70
     1
102
RTVSPost2010Prop31
280
     0
102
RTVSPost2010PropOp31
 70
     1
102
RTVSPost2010Prop32
280
     0
102
RTVSPost2010PropOp32
 70
     1
102
RTVSPost2010Prop33
280
     0
102
RTVSPost2010PropOp33
 70
     1
102
RTVSPost2010Prop34
280
     0
102
RTVSPost2010PropOp34
 70
     1
102
RTVSPost2010Prop35
280
     0
102
RTVSPost2010PropOp35
 70
     1
102
RTVSPost2010Prop36
280
     0
102
RTVSPost2010PropOp36
 70
     1
102
RTVSPost2010Prop37
 90
       50
102
RTVSPost2010PropOp37
 70
     1
102
RTVSPost2010Prop38
140
0.0
102
RTVSPost2010PropOp38
 70
     1
102
RTVSPost2010Prop39
140
1.0
102
RTVSPost2010PropOp39
 70
     1
102
RTVSPost2010Prop40
 90
        0
102
RTVSPost2010PropOp40
 70
     1
102
RTVSPost2010Prop41ColorIndex
 90
       18
102
RTVSPost2010Prop41ColorRGB
 90
        0
102
RTVSPost2010PropOp41
 70
     1
102
RTVSPost2010Prop42
 90
       50
102
RTVSPost2010PropOp42
 70
     1
102
RTVSPost2010Prop43
 90
        3
102
RTVSPost2010PropOp43
 70
     1
102
RTVSPost2010Prop44ColorIndex
 90
        5
102
RTVSPost2010Prop44ColorRGB
 90
      255
102
RTVSPost2010PropOp44
 70
     1
102
RTVSPost2010Prop45
280
     0
102
RTVSPost2010PropOp45
 70
     1
102
RTVSPost2010Prop46
 90
       50
102
RTVSPost2010PropOp46
 70
     1
102
RTVSPost2010Prop47
 90
       50
102
RTVSPost2010PropOp47
 70
     1
102
RTVSPost2010Prop48
 90
       50
102
RTVSPost2010PropOp48
 70
     1
102
RTVSPost2010Prop49
280
     0
102
RTVSPost2010PropOp49
 70
     1
102
RTVSPost2010Prop50
 90
       50
102
RTVSPost2010PropOp50
 70
     1
102
RTVSPost2010Prop51ColorIndex
 90
      256
102
RTVSPost2010Prop51ColorRGB
 90
-16777216
102
RTVSPost2010PropOp51
 70
     0
102
RTVSPost2010Prop52
140
1.0
102
RTVSPost2010PropOp52
 70
     0
102
RTVSPost2010Prop53
 90
        2
102
RTVSPost2010PropOp53
 70
     1
102
RTVSPost2010Prop54
  1
strokes_ogs.tif
102
RTVSPost2010PropOp54
 70
     1
102
RTVSPost2010Prop55
280
     0
102
RTVSPost2010PropOp55
 70
     1
102
RTVSPost2010Prop56
140
1.0
102
RTVSPost2010PropOp56
 70
     1
102
RTVSPost2010Prop57
140
1.0
102
RTVSPost2010PropOp57
 70
     1
  0
XRECORD
  5
E0E00001C956
102
{ACAD_REACTORS
330
E0E00001C955
102
}
330
E0E00001C955
100
AcDbXrecord
280
     1
102
RTVSPropertyOp0
 70
     1
102
RTVSPropertyOp1
 70
     1
102
RTVSPropertyOp2
 70
     1
102
RTVSPropertyOp3
 70
     1
102
RTVSPropertyOp4
 70
     1
102
RTVSPropertyOp5
 70
     1
102
RTVSPropertyOp6
 70
     1
102
RTVSPropertyOp7
 70
     1
102
RTVSPropertyOp8
 70
     1
102
RTVSPropertyOp9
 70
     1
102
RTVSPropertyOp10
 70
     1
102
RTVSPropertyOp11
 70
     1
102
RTVSPropertyOp12
 70
     1
102
RTVSPropertyOp13
 70
     1
102
RTVSPropertyOp14
 70
     1
102
RTVSPropertyOp15
 70
     1
102
RTVSPropertyOp16
 70
     1
102
RTVSPropertyOp17
 70
     1
102
RTVSPropertyOp18
 70
     1
102
RTVSPropertyOp19
 70
     1
102
RTVSPropertyOp20
 70
     1
102
RTVSPropertyOp21
 70
     1
102
RTVSPropertyOp22
 70
     1
102
RTVSPropertyOp23
 70
     1
102
RTVSPropertyOp24
 70
     1
102
RTVSPropertyOp25
 70
     1
102
RTVSPropertyOp26
 70
     1
102
RTVSPropertyOp27
 70
     1
102
RTVSPropertyOp28
 70
     1
102
RTVSPropertyOp29
 70
     1
102
RTVSPropertyOp30
 70
     1
102
RTVSPropertyOp31
 70
     1
102
RTVSPropertyOp32
 70
     1
102
RTVSPropertyOp33
 70
     1
102
RTVSPropertyOp34
 70
     1
102
RTVSPropertyOp35
 70
     1
102
RTVSPropertyOp36
 70
     1
102
RTVSPropertyOp37
 70
     1
102
RTVSPropertyOp38
 70
     1
102
RTVSPropertyOp39
 70
     1
102
RTVSPropertyOp40
 70
     1
102
RTVSPropertyOp41
 70
     1
102
RTVSPropertyOp42
 70
     1
102
RTVSPropertyOp43
 70
     1
102
RTVSPropertyOp44
 70
     1
102
RTVSPropertyOp45
 70
     1
102
RTVSPropertyOp46
 70
     1
102
RTVSPropertyOp47
 70
     1
102
RTVSPropertyOp48
 70
     1
102
RTVSPropertyOp49
 70
     1
102
RTVSPropertyOp50
 70
     1
102
RTVSPropertyOp51
 70
     0
102
RTVSPropertyOp52
 70
     0
102
RTVSPropertyOp53
 70
     1
102
RTVSPropertyOp54
 70
     1
102
RTVSPropertyOp55
 70
     1
102
RTVSPropertyOp56
 70
     1
102
RTVSPropertyOp57
 70
     1
102
RTVSPost2010Prop28
280
     0
102
RTVSPost2010PropOp28
 70
     1
102
RTVSPost2010Prop29
280
     1
102
RTVSPost2010PropOp29
 70
     1
102
RTVSPost2010Prop30
280
     1
102
RTVSPost2010PropOp30
 70
     1
102
RTVSPost2010Prop31
280
     0
102
RTVSPost2010PropOp31
 70
     1
102
RTVSPost2010Prop32
280
     0
102
RTVSPost2010PropOp32
 70
     1
102
RTVSPost2010Prop33
280
     0
102
RTVSPost2010PropOp33
 70
     1
102
RTVSPost2010Prop34
280
     0
102
RTVSPost2010PropOp34
 70
     1
102
RTVSPost2010Prop35
280
     0
102
RTVSPost2010PropOp35
 70
     1
102
RTVSPost2010Prop36
280
     0
102
RTVSPost2010PropOp36
 70
     1
102
RTVSPost2010Prop37
 90
       50
102
RTVSPost2010PropOp37
 70
     1
102
RTVSPost2010Prop38
140
0.0
102
RTVSPost2010PropOp38
 70
     1
102
RTVSPost2010Prop39
140
1.0
102
RTVSPost2010PropOp39
 70
     1
102
RTVSPost2010Prop40
 90
        0
102
RTVSPost2010PropOp40
 70
     1
102
RTVSPost2010Prop41ColorIndex
 90
       18
102
RTVSPost2010Prop41ColorRGB
 90
        0
102
RTVSPost2010PropOp41
 70
     1
102
RTVSPost2010Prop42
 90
       50
102
RTVSPost2010PropOp42
 70
     1
102
RTVSPost2010Prop43
 90
        3
102
RTVSPost2010PropOp43
 70
     1
102
RTVSPost2010Prop44ColorIndex
 90
        5
102
RTVSPost2010Prop44ColorRGB
 90
      255
102
RTVSPost2010PropOp44
 70
     1
102
RTVSPost2010Prop45
280
     0
102
RTVSPost2010PropOp45
 70
     1
102
RTVSPost2010Prop46
 90
       50
102
RTVSPost2010PropOp46
 70
     1
102
RTVSPost2010Prop47
 90
       50
102
RTVSPost2010PropOp47
 70
     1
102
RTVSPost2010Prop48
 90
       50
102
RTVSPost2010PropOp48
 70
     1
102
RTVSPost2010Prop49
280
     0
102
RTVSPost2010PropOp49
 70
     1
102
RTVSPost2010Prop50
 90
       50
102
RTVSPost2010PropOp50
 70
     1
102
RTVSPost2010Prop51ColorIndex
 90
      256
102
RTVSPost2010Prop51ColorRGB
 90
-16777216
102
RTVSPost2010PropOp51
 70
     0
102
RTVSPost2010Prop52
140
1.0
102
RTVSPost2010PropOp52
 70
     0
102
RTVSPost2010Prop53
 90
        2
102
RTVSPost2010PropOp53
 70
     1
102
RTVSPost2010Prop54
  1
strokes_ogs.tif
102
RTVSPost2010PropOp54
 70
     1
102
RTVSPost2010Prop55
280
     0
102
RTVSPost2010PropOp55
 70
     1
102
RTVSPost2010Prop56
140
1.0
102
RTVSPost2010PropOp56
 70
     1
102
RTVSPost2010Prop57
140
1.0
102
RTVSPost2010PropOp57
 70
     1
  0
XRECORD
  5
E0E00001C958
102
{ACAD_REACTORS
330
E0E00001C957
102
}
330
E0E00001C957
100
AcDbXrecord
280
     1
102
RTVSPropertyOp0
 70
     1
102
RTVSPropertyOp1
 70
     1
102
RTVSPropertyOp2
 70
     1
102
RTVSPropertyOp3
 70
     1
102
RTVSPropertyOp4
 70
     1
102
RTVSPropertyOp5
 70
     1
102
RTVSPropertyOp6
 70
     1
102
RTVSPropertyOp7
 70
     1
102
RTVSPropertyOp8
 70
     1
102
RTVSPropertyOp9
 70
     1
102
RTVSPropertyOp10
 70
     1
102
RTVSPropertyOp11
 70
     1
102
RTVSPropertyOp12
 70
     1
102
RTVSPropertyOp13
 70
     1
102
RTVSPropertyOp14
 70
     1
102
RTVSPropertyOp15
 70
     1
102
RTVSPropertyOp16
 70
     1
102
RTVSPropertyOp17
 70
     1
102
RTVSPropertyOp18
 70
     1
102
RTVSPropertyOp19
 70
     1
102
RTVSPropertyOp20
 70
     1
102
RTVSPropertyOp21
 70
     1
102
RTVSPropertyOp22
 70
     1
102
RTVSPropertyOp23
 70
     1
102
RTVSPropertyOp24
 70
     1
102
RTVSPropertyOp25
 70
     1
102
RTVSPropertyOp26
 70
     1
102
RTVSPropertyOp27
 70
     1
102
RTVSPropertyOp28
 70
     1
102
RTVSPropertyOp29
 70
     1
102
RTVSPropertyOp30
 70
     1
102
RTVSPropertyOp31
 70
     1
102
RTVSPropertyOp32
 70
     1
102
RTVSPropertyOp33
 70
     1
102
RTVSPropertyOp34
 70
     1
102
RTVSPropertyOp35
 70
     1
102
RTVSPropertyOp36
 70
     1
102
RTVSPropertyOp37
 70
     1
102
RTVSPropertyOp38
 70
     1
102
RTVSPropertyOp39
 70
     1
102
RTVSPropertyOp40
 70
     1
102
RTVSPropertyOp41
 70
     1
102
RTVSPropertyOp42
 70
     1
102
RTVSPropertyOp43
 70
     1
102
RTVSPropertyOp44
 70
     1
102
RTVSPropertyOp45
 70
     1
102
RTVSPropertyOp46
 70
     1
102
RTVSPropertyOp47
 70
     1
102
RTVSPropertyOp48
 70
     1
102
RTVSPropertyOp49
 70
     1
102
RTVSPropertyOp50
 70
     1
102
RTVSPropertyOp51
 70
     0
102
RTVSPropertyOp52
 70
     0
102
RTVSPropertyOp53
 70
     1
102
RTVSPropertyOp54
 70
     1
102
RTVSPropertyOp55
 70
     1
102
RTVSPropertyOp56
 70
     1
102
RTVSPropertyOp57
 70
     1
102
RTVSPost2010Prop28
280
     0
102
RTVSPost2010PropOp28
 70
     1
102
RTVSPost2010Prop29
280
     1
102
RTVSPost2010PropOp29
 70
     1
102
RTVSPost2010Prop30
280
     1
102
RTVSPost2010PropOp30
 70
     1
102
RTVSPost2010Prop31
280
     0
102
RTVSPost2010PropOp31
 70
     1
102
RTVSPost2010Prop32
280
     0
102
RTVSPost2010PropOp32
 70
     1
102
RTVSPost2010Prop33
280
     0
102
RTVSPost2010PropOp33
 70
     1
102
RTVSPost2010Prop34
280
     0
102
RTVSPost2010PropOp34
 70
     1
102
RTVSPost2010Prop35
280
     0
102
RTVSPost2010PropOp35
 70
     1
102
RTVSPost2010Prop36
280
     0
102
RTVSPost2010PropOp36
 70
     1
102
RTVSPost2010Prop37
 90
       50
102
RTVSPost2010PropOp37
 70
     1
102
RTVSPost2010Prop38
140
0.0
102
RTVSPost2010PropOp38
 70
     1
102
RTVSPost2010Prop39
140
1.0
102
RTVSPost2010PropOp39
 70
     1
102
RTVSPost2010Prop40
 90
        0
102
RTVSPost2010PropOp40
 70
     1
102
RTVSPost2010Prop41ColorIndex
 90
       18
102
RTVSPost2010Prop41ColorRGB
 90
        0
102
RTVSPost2010PropOp41
 70
     1
102
RTVSPost2010Prop42
 90
       50
102
RTVSPost2010PropOp42
 70
     1
102
RTVSPost2010Prop43
 90
        3
102
RTVSPost2010PropOp43
 70
     1
102
RTVSPost2010Prop44ColorIndex
 90
        5
102
RTVSPost2010Prop44ColorRGB
 90
      255
102
RTVSPost2010PropOp44
 70
     1
102
RTVSPost2010Prop45
280
     0
102
RTVSPost2010PropOp45
 70
     1
102
RTVSPost2010Prop46
 90
       50
102
RTVSPost2010PropOp46
 70
     1
102
RTVSPost2010Prop47
 90
       50
102
RTVSPost2010PropOp47
 70
     1
102
RTVSPost2010Prop48
 90
       50
102
RTVSPost2010PropOp48
 70
     1
102
RTVSPost2010Prop49
280
     0
102
RTVSPost2010PropOp49
 70
     1
102
RTVSPost2010Prop50
 90
       50
102
RTVSPost2010PropOp50
 70
     1
102
RTVSPost2010Prop51ColorIndex
 90
      256
102
RTVSPost2010Prop51ColorRGB
 90
-16777216
102
RTVSPost2010PropOp51
 70
     0
102
RTVSPost2010Prop52
140
1.0
102
RTVSPost2010PropOp52
 70
     0
102
RTVSPost2010Prop53
 90
        2
102
RTVSPost2010PropOp53
 70
     1
102
RTVSPost2010Prop54
  1
strokes_ogs.tif
102
RTVSPost2010PropOp54
 70
     1
102
RTVSPost2010Prop55
280
     0
102
RTVSPost2010PropOp55
 70
     1
102
RTVSPost2010Prop56
140
1.0
102
RTVSPost2010PropOp56
 70
     1
102
RTVSPost2010Prop57
140
1.0
102
RTVSPost2010PropOp57
 70
     1
  0
XRECORD
  5
E0E00001C972
102
{ACAD_REACTORS
330
E0E00001C971
102
}
330
E0E00001C971
100
AcDbXrecord
280
     1
102
RTVSPropertyOp0
 70
     0
102
RTVSPropertyOp1
 70
     0
102
RTVSPropertyOp2
 70
     0
102
RTVSPropertyOp3
 70
     0
102
RTVSPropertyOp4
 70
     0
102
RTVSPropertyOp5
 70
     0
102
RTVSPropertyOp6
 70
     0
102
RTVSPropertyOp7
 70
     0
102
RTVSPropertyOp8
 70
     0
102
RTVSPropertyOp9
 70
     0
102
RTVSPropertyOp10
 70
     0
102
RTVSPropertyOp11
 70
     0
102
RTVSPropertyOp12
 70
     0
102
RTVSPropertyOp13
 70
     0
102
RTVSPropertyOp14
 70
     2
102
RTVSPropertyOp15
 70
     0
102
RTVSPropertyOp16
 70
     0
102
RTVSPropertyOp17
 70
     0
102
RTVSPropertyOp18
 70
     0
102
RTVSPropertyOp19
 70
     0
102
RTVSPropertyOp20
 70
     0
102
RTVSPropertyOp21
 70
     0
102
RTVSPropertyOp22
 70
     0
102
RTVSPropertyOp23
 70
     0
102
RTVSPropertyOp24
 70
     0
102
RTVSPropertyOp25
 70
     0
102
RTVSPropertyOp26
 70
     0
102
RTVSPropertyOp27
 70
     0
102
RTVSPropertyOp28
 70
     0
102
RTVSPropertyOp29
 70
     0
102
RTVSPropertyOp30
 70
     0
102
RTVSPropertyOp31
 70
     0
102
RTVSPropertyOp32
 70
     0
102
RTVSPropertyOp33
 70
     0
102
RTVSPropertyOp34
 70
     0
102
RTVSPropertyOp35
 70
     0
102
RTVSPropertyOp36
 70
     0
102
RTVSPropertyOp37
 70
     0
102
RTVSPropertyOp38
 70
     0
102
RTVSPropertyOp39
 70
     0
102
RTVSPropertyOp40
 70
     0
102
RTVSPropertyOp41
 70
     0
102
RTVSPropertyOp42
 70
     0
102
RTVSPropertyOp43
 70
     0
102
RTVSPropertyOp44
 70
     0
102
RTVSPropertyOp45
 70
     0
102
RTVSPropertyOp46
 70
     0
102
RTVSPropertyOp47
 70
     0
102
RTVSPropertyOp48
 70
     0
102
RTVSPropertyOp49
 70
     0
102
RTVSPropertyOp50
 70
     0
102
RTVSPropertyOp51
 70
     0
102
RTVSPropertyOp52
 70
     0
102
RTVSPropertyOp53
 70
     0
102
RTVSPropertyOp54
 70
     0
102
RTVSPropertyOp55
 70
     0
102
RTVSPropertyOp56
 70
     0
102
RTVSPropertyOp57
 70
     0
102
RTVSPost2010Prop28
280
     0
102
RTVSPost2010PropOp28
 70
     0
102
RTVSPost2010Prop29
280
     1
102
RTVSPost2010PropOp29
 70
     0
102
RTVSPost2010Prop30
280
     1
102
RTVSPost2010PropOp30
 70
     0
102
RTVSPost2010Prop31
280
     0
102
RTVSPost2010PropOp31
 70
     0
102
RTVSPost2010Prop32
280
     0
102
RTVSPost2010PropOp32
 70
     0
102
RTVSPost2010Prop33
280
     0
102
RTVSPost2010PropOp33
 70
     0
102
RTVSPost2010Prop34
280
     0
102
RTVSPost2010PropOp34
 70
     0
102
RTVSPost2010Prop35
280
     0
102
RTVSPost2010PropOp35
 70
     0
102
RTVSPost2010Prop36
280
     0
102
RTVSPost2010PropOp36
 70
     0
102
RTVSPost2010Prop37
 90
       50
102
RTVSPost2010PropOp37
 70
     0
102
RTVSPost2010Prop38
140
0.0
102
RTVSPost2010PropOp38
 70
     0
102
RTVSPost2010Prop39
140
1.0
102
RTVSPost2010PropOp39
 70
     0
102
RTVSPost2010Prop40
 90
        0
102
RTVSPost2010PropOp40
 70
     0
102
RTVSPost2010Prop41ColorIndex
 90
       18
102
RTVSPost2010Prop41ColorRGB
 90
        0
102
RTVSPost2010PropOp41
 70
     0
102
RTVSPost2010Prop42
 90
       50
102
RTVSPost2010PropOp42
 70
     0
102
RTVSPost2010Prop43
 90
        3
102
RTVSPost2010PropOp43
 70
     0
102
RTVSPost2010Prop44ColorIndex
 90
        5
102
RTVSPost2010Prop44ColorRGB
 90
      255
102
RTVSPost2010PropOp44
 70
     0
102
RTVSPost2010Prop45
280
     0
102
RTVSPost2010PropOp45
 70
     0
102
RTVSPost2010Prop46
 90
       50
102
RTVSPost2010PropOp46
 70
     0
102
RTVSPost2010Prop47
 90
       50
102
RTVSPost2010PropOp47
 70
     0
102
RTVSPost2010Prop48
 90
       50
102
RTVSPost2010PropOp48
 70
     0
102
RTVSPost2010Prop49
280
     0
102
RTVSPost2010PropOp49
 70
     0
102
RTVSPost2010Prop50
 90
       50
102
RTVSPost2010PropOp50
 70
     0
102
RTVSPost2010Prop51ColorIndex
 90
      256
102
RTVSPost2010Prop51ColorRGB
 90
-16777216
102
RTVSPost2010PropOp51
 70
     0
102
RTVSPost2010Prop52
140
1.0
102
RTVSPost2010PropOp52
 70
     0
102
RTVSPost2010Prop53
 90
        2
102
RTVSPost2010PropOp53
 70
     0
102
RTVSPost2010Prop54
  1
strokes_ogs.tif
102
RTVSPost2010PropOp54
 70
     0
102
RTVSPost2010Prop55
280
     0
102
RTVSPost2010PropOp55
 70
     0
102
RTVSPost2010Prop56
140
1.0
102
RTVSPost2010PropOp56
 70
     0
102
RTVSPost2010Prop57
140
1.0
102
RTVSPost2010PropOp57
 70
     0
  0
XRECORD
  5
E0E00001C95A
102
{ACAD_REACTORS
330
E0E00001C959
102
}
330
E0E00001C959
100
AcDbXrecord
280
     1
102
RTVSPropertyOp0
 70
     1
102
RTVSPropertyOp1
 70
     1
102
RTVSPropertyOp2
 70
     1
102
RTVSPropertyOp3
 70
     1
102
RTVSPropertyOp4
 70
     1
102
RTVSPropertyOp5
 70
     1
102
RTVSPropertyOp6
 70
     1
102
RTVSPropertyOp7
 70
     1
102
RTVSPropertyOp8
 70
     1
102
RTVSPropertyOp9
 70
     1
102
RTVSPropertyOp10
 70
     1
102
RTVSPropertyOp11
 70
     1
102
RTVSPropertyOp12
 70
     1
102
RTVSPropertyOp13
 70
     1
102
RTVSPropertyOp14
 70
     1
102
RTVSPropertyOp15
 70
     1
102
RTVSPropertyOp16
 70
     1
102
RTVSPropertyOp17
 70
     1
102
RTVSPropertyOp18
 70
     1
102
RTVSPropertyOp19
 70
     1
102
RTVSPropertyOp20
 70
     1
102
RTVSPropertyOp21
 70
     1
102
RTVSPropertyOp22
 70
     1
102
RTVSPropertyOp23
 70
     1
102
RTVSPropertyOp24
 70
     1
102
RTVSPropertyOp25
 70
     1
102
RTVSPropertyOp26
 70
     1
102
RTVSPropertyOp27
 70
     1
102
RTVSPropertyOp28
 70
     1
102
RTVSPropertyOp29
 70
     1
102
RTVSPropertyOp30
 70
     1
102
RTVSPropertyOp31
 70
     1
102
RTVSPropertyOp32
 70
     1
102
RTVSPropertyOp33
 70
     1
102
RTVSPropertyOp34
 70
     1
102
RTVSPropertyOp35
 70
     1
102
RTVSPropertyOp36
 70
     1
102
RTVSPropertyOp37
 70
     1
102
RTVSPropertyOp38
 70
     1
102
RTVSPropertyOp39
 70
     1
102
RTVSPropertyOp40
 70
     1
102
RTVSPropertyOp41
 70
     1
102
RTVSPropertyOp42
 70
     1
102
RTVSPropertyOp43
 70
     1
102
RTVSPropertyOp44
 70
     1
102
RTVSPropertyOp45
 70
     1
102
RTVSPropertyOp46
 70
     1
102
RTVSPropertyOp47
 70
     1
102
RTVSPropertyOp48
 70
     1
102
RTVSPropertyOp49
 70
     1
102
RTVSPropertyOp50
 70
     1
102
RTVSPropertyOp51
 70
     0
102
RTVSPropertyOp52
 70
     0
102
RTVSPropertyOp53
 70
     1
102
RTVSPropertyOp54
 70
     1
102
RTVSPropertyOp55
 70
     1
102
RTVSPropertyOp56
 70
     1
102
RTVSPropertyOp57
 70
     1
102
RTVSPost2010Prop28
280
     0
102
RTVSPost2010PropOp28
 70
     1
102
RTVSPost2010Prop29
280
     1
102
RTVSPost2010PropOp29
 70
     1
102
RTVSPost2010Prop30
280
     1
102
RTVSPost2010PropOp30
 70
     1
102
RTVSPost2010Prop31
280
     0
102
RTVSPost2010PropOp31
 70
     1
102
RTVSPost2010Prop32
280
     0
102
RTVSPost2010PropOp32
 70
     1
102
RTVSPost2010Prop33
280
     0
102
RTVSPost2010PropOp33
 70
     1
102
RTVSPost2010Prop34
280
     0
102
RTVSPost2010PropOp34
 70
     1
102
RTVSPost2010Prop35
280
     0
102
RTVSPost2010PropOp35
 70
     1
102
RTVSPost2010Prop36
280
     0
102
RTVSPost2010PropOp36
 70
     1
102
RTVSPost2010Prop37
 90
       50
102
RTVSPost2010PropOp37
 70
     1
102
RTVSPost2010Prop38
140
0.0
102
RTVSPost2010PropOp38
 70
     1
102
RTVSPost2010Prop39
140
1.0
102
RTVSPost2010PropOp39
 70
     1
102
RTVSPost2010Prop40
 90
        0
102
RTVSPost2010PropOp40
 70
     1
102
RTVSPost2010Prop41ColorIndex
 90
       18
102
RTVSPost2010Prop41ColorRGB
 90
        0
102
RTVSPost2010PropOp41
 70
     1
102
RTVSPost2010Prop42
 90
       50
102
RTVSPost2010PropOp42
 70
     1
102
RTVSPost2010Prop43
 90
        3
102
RTVSPost2010PropOp43
 70
     1
102
RTVSPost2010Prop44ColorIndex
 90
        5
102
RTVSPost2010Prop44ColorRGB
 90
      255
102
RTVSPost2010PropOp44
 70
     1
102
RTVSPost2010Prop45
280
     0
102
RTVSPost2010PropOp45
 70
     1
102
RTVSPost2010Prop46
 90
       50
102
RTVSPost2010PropOp46
 70
     1
102
RTVSPost2010Prop47
 90
       50
102
RTVSPost2010PropOp47
 70
     1
102
RTVSPost2010Prop48
 90
       50
102
RTVSPost2010PropOp48
 70
     1
102
RTVSPost2010Prop49
280
     0
102
RTVSPost2010PropOp49
 70
     1
102
RTVSPost2010Prop50
 90
       50
102
RTVSPost2010PropOp50
 70
     1
102
RTVSPost2010Prop51ColorIndex
 90
      256
102
RTVSPost2010Prop51ColorRGB
 90
-16777216
102
RTVSPost2010PropOp51
 70
     0
102
RTVSPost2010Prop52
140
1.0
102
RTVSPost2010PropOp52
 70
     0
102
RTVSPost2010Prop53
 90
        2
102
RTVSPost2010PropOp53
 70
     1
102
RTVSPost2010Prop54
  1
strokes_ogs.tif
102
RTVSPost2010PropOp54
 70
     1
102
RTVSPost2010Prop55
280
     0
102
RTVSPost2010PropOp55
 70
     1
102
RTVSPost2010Prop56
140
1.0
102
RTVSPost2010PropOp56
 70
     1
102
RTVSPost2010Prop57
140
1.0
102
RTVSPost2010PropOp57
 70
     1
  0
XRECORD
  5
E0E00001C95C
102
{ACAD_REACTORS
330
E0E00001C95B
102
}
330
E0E00001C95B
100
AcDbXrecord
280
     1
102
RTVSPropertyOp0
 70
     1
102
RTVSPropertyOp1
 70
     1
102
RTVSPropertyOp2
 70
     1
102
RTVSPropertyOp3
 70
     1
102
RTVSPropertyOp4
 70
     1
102
RTVSPropertyOp5
 70
     1
102
RTVSPropertyOp6
 70
     1
102
RTVSPropertyOp7
 70
     1
102
RTVSPropertyOp8
 70
     1
102
RTVSPropertyOp9
 70
     1
102
RTVSPropertyOp10
 70
     1
102
RTVSPropertyOp11
 70
     1
102
RTVSPropertyOp12
 70
     1
102
RTVSPropertyOp13
 70
     1
102
RTVSPropertyOp14
 70
     1
102
RTVSPropertyOp15
 70
     1
102
RTVSPropertyOp16
 70
     1
102
RTVSPropertyOp17
 70
     1
102
RTVSPropertyOp18
 70
     1
102
RTVSPropertyOp19
 70
     1
102
RTVSPropertyOp20
 70
     1
102
RTVSPropertyOp21
 70
     1
102
RTVSPropertyOp22
 70
     1
102
RTVSPropertyOp23
 70
     1
102
RTVSPropertyOp24
 70
     1
102
RTVSPropertyOp25
 70
     1
102
RTVSPropertyOp26
 70
     1
102
RTVSPropertyOp27
 70
     1
102
RTVSPropertyOp28
 70
     1
102
RTVSPropertyOp29
 70
     1
102
RTVSPropertyOp30
 70
     1
102
RTVSPropertyOp31
 70
     1
102
RTVSPropertyOp32
 70
     1
102
RTVSPropertyOp33
 70
     1
102
RTVSPropertyOp34
 70
     1
102
RTVSPropertyOp35
 70
     1
102
RTVSPropertyOp36
 70
     1
102
RTVSPropertyOp37
 70
     1
102
RTVSPropertyOp38
 70
     1
102
RTVSPropertyOp39
 70
     1
102
RTVSPropertyOp40
 70
     1
102
RTVSPropertyOp41
 70
     1
102
RTVSPropertyOp42
 70
     1
102
RTVSPropertyOp43
 70
     1
102
RTVSPropertyOp44
 70
     1
102
RTVSPropertyOp45
 70
     1
102
RTVSPropertyOp46
 70
     1
102
RTVSPropertyOp47
 70
     1
102
RTVSPropertyOp48
 70
     1
102
RTVSPropertyOp49
 70
     1
102
RTVSPropertyOp50
 70
     1
102
RTVSPropertyOp51
 70
     0
102
RTVSPropertyOp52
 70
     0
102
RTVSPropertyOp53
 70
     1
102
RTVSPropertyOp54
 70
     1
102
RTVSPropertyOp55
 70
     1
102
RTVSPropertyOp56
 70
     1
102
RTVSPropertyOp57
 70
     1
102
RTVSPost2010Prop28
280
     0
102
RTVSPost2010PropOp28
 70
     1
102
RTVSPost2010Prop29
280
     1
102
RTVSPost2010PropOp29
 70
     1
102
RTVSPost2010Prop30
280
     1
102
RTVSPost2010PropOp30
 70
     1
102
RTVSPost2010Prop31
280
     0
102
RTVSPost2010PropOp31
 70
     1
102
RTVSPost2010Prop32
280
     0
102
RTVSPost2010PropOp32
 70
     1
102
RTVSPost2010Prop33
280
     0
102
RTVSPost2010PropOp33
 70
     1
102
RTVSPost2010Prop34
280
     0
102
RTVSPost2010PropOp34
 70
     1
102
RTVSPost2010Prop35
280
     0
102
RTVSPost2010PropOp35
 70
     1
102
RTVSPost2010Prop36
280
     0
102
RTVSPost2010PropOp36
 70
     1
102
RTVSPost2010Prop37
 90
       50
102
RTVSPost2010PropOp37
 70
     1
102
RTVSPost2010Prop38
140
0.0
102
RTVSPost2010PropOp38
 70
     1
102
RTVSPost2010Prop39
140
1.0
102
RTVSPost2010PropOp39
 70
     1
102
RTVSPost2010Prop40
 90
        0
102
RTVSPost2010PropOp40
 70
     1
102
RTVSPost2010Prop41ColorIndex
 90
       18
102
RTVSPost2010Prop41ColorRGB
 90
        0
102
RTVSPost2010PropOp41
 70
     1
102
RTVSPost2010Prop42
 90
       50
102
RTVSPost2010PropOp42
 70
     1
102
RTVSPost2010Prop43
 90
        3
102
RTVSPost2010PropOp43
 70
     1
102
RTVSPost2010Prop44ColorIndex
 90
        5
102
RTVSPost2010Prop44ColorRGB
 90
      255
102
RTVSPost2010PropOp44
 70
     1
102
RTVSPost2010Prop45
280
     0
102
RTVSPost2010PropOp45
 70
     1
102
RTVSPost2010Prop46
 90
       50
102
RTVSPost2010PropOp46
 70
     1
102
RTVSPost2010Prop47
 90
       50
102
RTVSPost2010PropOp47
 70
     1
102
RTVSPost2010Prop48
 90
       50
102
RTVSPost2010PropOp48
 70
     1
102
RTVSPost2010Prop49
280
     0
102
RTVSPost2010PropOp49
 70
     1
102
RTVSPost2010Prop50
 90
       50
102
RTVSPost2010PropOp50
 70
     1
102
RTVSPost2010Prop51ColorIndex
 90
      256
102
RTVSPost2010Prop51ColorRGB
 90
-16777216
102
RTVSPost2010PropOp51
 70
     0
102
RTVSPost2010Prop52
140
1.0
102
RTVSPost2010PropOp52
 70
     0
102
RTVSPost2010Prop53
 90
        2
102
RTVSPost2010PropOp53
 70
     1
102
RTVSPost2010Prop54
  1
strokes_ogs.tif
102
RTVSPost2010PropOp54
 70
     1
102
RTVSPost2010Prop55
280
     0
102
RTVSPost2010PropOp55
 70
     1
102
RTVSPost2010Prop56
140
1.0
102
RTVSPost2010PropOp56
 70
     1
102
RTVSPost2010Prop57
140
1.0
102
RTVSPost2010PropOp57
 70
     1
  0
XRECORD
  5
E0E00001C95E
102
{ACAD_REACTORS
330
E0E00001C95D
102
}
330
E0E00001C95D
100
AcDbXrecord
280
     1
102
RTVSPropertyOp0
 70
     1
102
RTVSPropertyOp1
 70
     1
102
RTVSPropertyOp2
 70
     1
102
RTVSPropertyOp3
 70
     1
102
RTVSPropertyOp4
 70
     1
102
RTVSPropertyOp5
 70
     1
102
RTVSPropertyOp6
 70
     1
102
RTVSPropertyOp7
 70
     1
102
RTVSPropertyOp8
 70
     1
102
RTVSPropertyOp9
 70
     1
102
RTVSPropertyOp10
 70
     1
102
RTVSPropertyOp11
 70
     1
102
RTVSPropertyOp12
 70
     1
102
RTVSPropertyOp13
 70
     1
102
RTVSPropertyOp14
 70
     1
102
RTVSPropertyOp15
 70
     1
102
RTVSPropertyOp16
 70
     1
102
RTVSPropertyOp17
 70
     1
102
RTVSPropertyOp18
 70
     1
102
RTVSPropertyOp19
 70
     1
102
RTVSPropertyOp20
 70
     1
102
RTVSPropertyOp21
 70
     1
102
RTVSPropertyOp22
 70
     1
102
RTVSPropertyOp23
 70
     1
102
RTVSPropertyOp24
 70
     1
102
RTVSPropertyOp25
 70
     1
102
RTVSPropertyOp26
 70
     1
102
RTVSPropertyOp27
 70
     1
102
RTVSPropertyOp28
 70
     1
102
RTVSPropertyOp29
 70
     1
102
RTVSPropertyOp30
 70
     1
102
RTVSPropertyOp31
 70
     1
102
RTVSPropertyOp32
 70
     1
102
RTVSPropertyOp33
 70
     1
102
RTVSPropertyOp34
 70
     1
102
RTVSPropertyOp35
 70
     1
102
RTVSPropertyOp36
 70
     1
102
RTVSPropertyOp37
 70
     1
102
RTVSPropertyOp38
 70
     1
102
RTVSPropertyOp39
 70
     1
102
RTVSPropertyOp40
 70
     1
102
RTVSPropertyOp41
 70
     1
102
RTVSPropertyOp42
 70
     1
102
RTVSPropertyOp43
 70
     1
102
RTVSPropertyOp44
 70
     1
102
RTVSPropertyOp45
 70
     1
102
RTVSPropertyOp46
 70
     1
102
RTVSPropertyOp47
 70
     1
102
RTVSPropertyOp48
 70
     1
102
RTVSPropertyOp49
 70
     1
102
RTVSPropertyOp50
 70
     1
102
RTVSPropertyOp51
 70
     0
102
RTVSPropertyOp52
 70
     0
102
RTVSPropertyOp53
 70
     1
102
RTVSPropertyOp54
 70
     1
102
RTVSPropertyOp55
 70
     1
102
RTVSPropertyOp56
 70
     1
102
RTVSPropertyOp57
 70
     1
102
RTVSPost2010Prop28
280
     0
102
RTVSPost2010PropOp28
 70
     1
102
RTVSPost2010Prop29
280
     1
102
RTVSPost2010PropOp29
 70
     1
102
RTVSPost2010Prop30
280
     1
102
RTVSPost2010PropOp30
 70
     1
102
RTVSPost2010Prop31
280
     0
102
RTVSPost2010PropOp31
 70
     1
102
RTVSPost2010Prop32
280
     0
102
RTVSPost2010PropOp32
 70
     1
102
RTVSPost2010Prop33
280
     0
102
RTVSPost2010PropOp33
 70
     1
102
RTVSPost2010Prop34
280
     0
102
RTVSPost2010PropOp34
 70
     1
102
RTVSPost2010Prop35
280
     0
102
RTVSPost2010PropOp35
 70
     1
102
RTVSPost2010Prop36
280
     0
102
RTVSPost2010PropOp36
 70
     1
102
RTVSPost2010Prop37
 90
       50
102
RTVSPost2010PropOp37
 70
     1
102
RTVSPost2010Prop38
140
0.0
102
RTVSPost2010PropOp38
 70
     1
102
RTVSPost2010Prop39
140
1.0
102
RTVSPost2010PropOp39
 70
     1
102
RTVSPost2010Prop40
 90
        0
102
RTVSPost2010PropOp40
 70
     1
102
RTVSPost2010Prop41ColorIndex
 90
       18
102
RTVSPost2010Prop41ColorRGB
 90
        0
102
RTVSPost2010PropOp41
 70
     1
102
RTVSPost2010Prop42
 90
       50
102
RTVSPost2010PropOp42
 70
     1
102
RTVSPost2010Prop43
 90
        3
102
RTVSPost2010PropOp43
 70
     1
102
RTVSPost2010Prop44ColorIndex
 90
        5
102
RTVSPost2010Prop44ColorRGB
 90
      255
102
RTVSPost2010PropOp44
 70
     1
102
RTVSPost2010Prop45
280
     0
102
RTVSPost2010PropOp45
 70
     1
102
RTVSPost2010Prop46
 90
       50
102
RTVSPost2010PropOp46
 70
     1
102
RTVSPost2010Prop47
 90
       50
102
RTVSPost2010PropOp47
 70
     1
102
RTVSPost2010Prop48
 90
       50
102
RTVSPost2010PropOp48
 70
     1
102
RTVSPost2010Prop49
280
     0
102
RTVSPost2010PropOp49
 70
     1
102
RTVSPost2010Prop50
 90
       50
102
RTVSPost2010PropOp50
 70
     1
102
RTVSPost2010Prop51ColorIndex
 90
      256
102
RTVSPost2010Prop51ColorRGB
 90
-16777216
102
RTVSPost2010PropOp51
 70
     0
102
RTVSPost2010Prop52
140
1.0
102
RTVSPost2010PropOp52
 70
     0
102
RTVSPost2010Prop53
 90
        2
102
RTVSPost2010PropOp53
 70
     1
102
RTVSPost2010Prop54
  1
strokes_ogs.tif
102
RTVSPost2010PropOp54
 70
     1
102
RTVSPost2010Prop55
280
     0
102
RTVSPost2010PropOp55
 70
     1
102
RTVSPost2010Prop56
140
1.0
102
RTVSPost2010PropOp56
 70
     1
102
RTVSPost2010Prop57
140
1.0
102
RTVSPost2010PropOp57
 70
     1
  0
XRECORD
  5
E0E00001C960
102
{ACAD_REACTORS
330
E0E00001C95F
102
}
330
E0E00001C95F
100
AcDbXrecord
280
     1
102
RTVSPropertyOp0
 70
     1
102
RTVSPropertyOp1
 70
     1
102
RTVSPropertyOp2
 70
     1
102
RTVSPropertyOp3
 70
     1
102
RTVSPropertyOp4
 70
     1
102
RTVSPropertyOp5
 70
     1
102
RTVSPropertyOp6
 70
     1
102
RTVSPropertyOp7
 70
     1
102
RTVSPropertyOp8
 70
     1
102
RTVSPropertyOp9
 70
     1
102
RTVSPropertyOp10
 70
     1
102
RTVSPropertyOp11
 70
     1
102
RTVSPropertyOp12
 70
     1
102
RTVSPropertyOp13
 70
     1
102
RTVSPropertyOp14
 70
     1
102
RTVSPropertyOp15
 70
     1
102
RTVSPropertyOp16
 70
     1
102
RTVSPropertyOp17
 70
     1
102
RTVSPropertyOp18
 70
     1
102
RTVSPropertyOp19
 70
     1
102
RTVSPropertyOp20
 70
     1
102
RTVSPropertyOp21
 70
     1
102
RTVSPropertyOp22
 70
     1
102
RTVSPropertyOp23
 70
     1
102
RTVSPropertyOp24
 70
     1
102
RTVSPropertyOp25
 70
     1
102
RTVSPropertyOp26
 70
     1
102
RTVSPropertyOp27
 70
     1
102
RTVSPropertyOp28
 70
     1
102
RTVSPropertyOp29
 70
     1
102
RTVSPropertyOp30
 70
     1
102
RTVSPropertyOp31
 70
     1
102
RTVSPropertyOp32
 70
     1
102
RTVSPropertyOp33
 70
     1
102
RTVSPropertyOp34
 70
     1
102
RTVSPropertyOp35
 70
     1
102
RTVSPropertyOp36
 70
     1
102
RTVSPropertyOp37
 70
     1
102
RTVSPropertyOp38
 70
     1
102
RTVSPropertyOp39
 70
     1
102
RTVSPropertyOp40
 70
     1
102
RTVSPropertyOp41
 70
     1
102
RTVSPropertyOp42
 70
     1
102
RTVSPropertyOp43
 70
     1
102
RTVSPropertyOp44
 70
     1
102
RTVSPropertyOp45
 70
     1
102
RTVSPropertyOp46
 70
     1
102
RTVSPropertyOp47
 70
     1
102
RTVSPropertyOp48
 70
     1
102
RTVSPropertyOp49
 70
     1
102
RTVSPropertyOp50
 70
     1
102
RTVSPropertyOp51
 70
     0
102
RTVSPropertyOp52
 70
     0
102
RTVSPropertyOp53
 70
     1
102
RTVSPropertyOp54
 70
     1
102
RTVSPropertyOp55
 70
     1
102
RTVSPropertyOp56
 70
     1
102
RTVSPropertyOp57
 70
     1
102
RTVSPost2010Prop28
280
     0
102
RTVSPost2010PropOp28
 70
     1
102
RTVSPost2010Prop29
280
     1
102
RTVSPost2010PropOp29
 70
     1
102
RTVSPost2010Prop30
280
     1
102
RTVSPost2010PropOp30
 70
     1
102
RTVSPost2010Prop31
280
     0
102
RTVSPost2010PropOp31
 70
     1
102
RTVSPost2010Prop32
280
     0
102
RTVSPost2010PropOp32
 70
     1
102
RTVSPost2010Prop33
280
     0
102
RTVSPost2010PropOp33
 70
     1
102
RTVSPost2010Prop34
280
     0
102
RTVSPost2010PropOp34
 70
     1
102
RTVSPost2010Prop35
280
     0
102
RTVSPost2010PropOp35
 70
     1
102
RTVSPost2010Prop36
280
     0
102
RTVSPost2010PropOp36
 70
     1
102
RTVSPost2010Prop37
 90
       50
102
RTVSPost2010PropOp37
 70
     1
102
RTVSPost2010Prop38
140
0.0
102
RTVSPost2010PropOp38
 70
     1
102
RTVSPost2010Prop39
140
1.0
102
RTVSPost2010PropOp39
 70
     1
102
RTVSPost2010Prop40
 90
        0
102
RTVSPost2010PropOp40
 70
     1
102
RTVSPost2010Prop41ColorIndex
 90
       18
102
RTVSPost2010Prop41ColorRGB
 90
        0
102
RTVSPost2010PropOp41
 70
     1
102
RTVSPost2010Prop42
 90
       50
102
RTVSPost2010PropOp42
 70
     1
102
RTVSPost2010Prop43
 90
        3
102
RTVSPost2010PropOp43
 70
     1
102
RTVSPost2010Prop44ColorIndex
 90
        5
102
RTVSPost2010Prop44ColorRGB
 90
      255
102
RTVSPost2010PropOp44
 70
     1
102
RTVSPost2010Prop45
280
     0
102
RTVSPost2010PropOp45
 70
     1
102
RTVSPost2010Prop46
 90
       50
102
RTVSPost2010PropOp46
 70
     1
102
RTVSPost2010Prop47
 90
       50
102
RTVSPost2010PropOp47
 70
     1
102
RTVSPost2010Prop48
 90
       50
102
RTVSPost2010PropOp48
 70
     1
102
RTVSPost2010Prop49
280
     0
102
RTVSPost2010PropOp49
 70
     1
102
RTVSPost2010Prop50
 90
       50
102
RTVSPost2010PropOp50
 70
     1
102
RTVSPost2010Prop51ColorIndex
 90
      256
102
RTVSPost2010Prop51ColorRGB
 90
-16777216
102
RTVSPost2010PropOp51
 70
     0
102
RTVSPost2010Prop52
140
1.0
102
RTVSPost2010PropOp52
 70
     0
102
RTVSPost2010Prop53
 90
        2
102
RTVSPost2010PropOp53
 70
     1
102
RTVSPost2010Prop54
  1
strokes_ogs.tif
102
RTVSPost2010PropOp54
 70
     1
102
RTVSPost2010Prop55
280
     0
102
RTVSPost2010PropOp55
 70
     1
102
RTVSPost2010Prop56
140
1.0
102
RTVSPost2010PropOp56
 70
     1
102
RTVSPost2010Prop57
140
1.0
102
RTVSPost2010PropOp57
 70
     1
  0
XRECORD
  5
E0E00001C962
102
{ACAD_REACTORS
330
E0E00001C961
102
}
330
E0E00001C961
100
AcDbXrecord
280
     1
102
RTVSPropertyOp0
 70
     1
102
RTVSPropertyOp1
 70
     1
102
RTVSPropertyOp2
 70
     1
102
RTVSPropertyOp3
 70
     1
102
RTVSPropertyOp4
 70
     1
102
RTVSPropertyOp5
 70
     1
102
RTVSPropertyOp6
 70
     1
102
RTVSPropertyOp7
 70
     1
102
RTVSPropertyOp8
 70
     1
102
RTVSPropertyOp9
 70
     1
102
RTVSPropertyOp10
 70
     1
102
RTVSPropertyOp11
 70
     1
102
RTVSPropertyOp12
 70
     1
102
RTVSPropertyOp13
 70
     1
102
RTVSPropertyOp14
 70
     1
102
RTVSPropertyOp15
 70
     1
102
RTVSPropertyOp16
 70
     1
102
RTVSPropertyOp17
 70
     1
102
RTVSPropertyOp18
 70
     1
102
RTVSPropertyOp19
 70
     1
102
RTVSPropertyOp20
 70
     1
102
RTVSPropertyOp21
 70
     1
102
RTVSPropertyOp22
 70
     1
102
RTVSPropertyOp23
 70
     1
102
RTVSPropertyOp24
 70
     1
102
RTVSPropertyOp25
 70
     1
102
RTVSPropertyOp26
 70
     1
102
RTVSPropertyOp27
 70
     1
102
RTVSPropertyOp28
 70
     1
102
RTVSPropertyOp29
 70
     1
102
RTVSPropertyOp30
 70
     1
102
RTVSPropertyOp31
 70
     1
102
RTVSPropertyOp32
 70
     1
102
RTVSPropertyOp33
 70
     1
102
RTVSPropertyOp34
 70
     1
102
RTVSPropertyOp35
 70
     1
102
RTVSPropertyOp36
 70
     1
102
RTVSPropertyOp37
 70
     1
102
RTVSPropertyOp38
 70
     1
102
RTVSPropertyOp39
 70
     1
102
RTVSPropertyOp40
 70
     1
102
RTVSPropertyOp41
 70
     1
102
RTVSPropertyOp42
 70
     1
102
RTVSPropertyOp43
 70
     1
102
RTVSPropertyOp44
 70
     1
102
RTVSPropertyOp45
 70
     1
102
RTVSPropertyOp46
 70
     1
102
RTVSPropertyOp47
 70
     1
102
RTVSPropertyOp48
 70
     1
102
RTVSPropertyOp49
 70
     1
102
RTVSPropertyOp50
 70
     1
102
RTVSPropertyOp51
 70
     0
102
RTVSPropertyOp52
 70
     0
102
RTVSPropertyOp53
 70
     1
102
RTVSPropertyOp54
 70
     1
102
RTVSPropertyOp55
 70
     1
102
RTVSPropertyOp56
 70
     1
102
RTVSPropertyOp57
 70
     1
102
RTVSPost2010Prop28
280
     0
102
RTVSPost2010PropOp28
 70
     1
102
RTVSPost2010Prop29
280
     1
102
RTVSPost2010PropOp29
 70
     1
102
RTVSPost2010Prop30
280
     1
102
RTVSPost2010PropOp30
 70
     1
102
RTVSPost2010Prop31
280
     0
102
RTVSPost2010PropOp31
 70
     1
102
RTVSPost2010Prop32
280
     0
102
RTVSPost2010PropOp32
 70
     1
102
RTVSPost2010Prop33
280
     0
102
RTVSPost2010PropOp33
 70
     1
102
RTVSPost2010Prop34
280
     0
102
RTVSPost2010PropOp34
 70
     1
102
RTVSPost2010Prop35
280
     0
102
RTVSPost2010PropOp35
 70
     1
102
RTVSPost2010Prop36
280
     0
102
RTVSPost2010PropOp36
 70
     1
102
RTVSPost2010Prop37
 90
       50
102
RTVSPost2010PropOp37
 70
     1
102
RTVSPost2010Prop38
140
0.0
102
RTVSPost2010PropOp38
 70
     1
102
RTVSPost2010Prop39
140
1.0
102
RTVSPost2010PropOp39
 70
     1
102
RTVSPost2010Prop40
 90
        0
102
RTVSPost2010PropOp40
 70
     1
102
RTVSPost2010Prop41ColorIndex
 90
       18
102
RTVSPost2010Prop41ColorRGB
 90
        0
102
RTVSPost2010PropOp41
 70
     1
102
RTVSPost2010Prop42
 90
       50
102
RTVSPost2010PropOp42
 70
     1
102
RTVSPost2010Prop43
 90
        3
102
RTVSPost2010PropOp43
 70
     1
102
RTVSPost2010Prop44ColorIndex
 90
        5
102
RTVSPost2010Prop44ColorRGB
 90
      255
102
RTVSPost2010PropOp44
 70
     1
102
RTVSPost2010Prop45
280
     0
102
RTVSPost2010PropOp45
 70
     1
102
RTVSPost2010Prop46
 90
       50
102
RTVSPost2010PropOp46
 70
     1
102
RTVSPost2010Prop47
 90
       50
102
RTVSPost2010PropOp47
 70
     1
102
RTVSPost2010Prop48
 90
       50
102
RTVSPost2010PropOp48
 70
     1
102
RTVSPost2010Prop49
280
     0
102
RTVSPost2010PropOp49
 70
     1
102
RTVSPost2010Prop50
 90
       50
102
RTVSPost2010PropOp50
 70
     1
102
RTVSPost2010Prop51ColorIndex
 90
      256
102
RTVSPost2010Prop51ColorRGB
 90
-16777216
102
RTVSPost2010PropOp51
 70
     0
102
RTVSPost2010Prop52
140
1.0
102
RTVSPost2010PropOp52
 70
     0
102
RTVSPost2010Prop53
 90
        2
102
RTVSPost2010PropOp53
 70
     1
102
RTVSPost2010Prop54
  1
strokes_ogs.tif
102
RTVSPost2010PropOp54
 70
     1
102
RTVSPost2010Prop55
280
     0
102
RTVSPost2010PropOp55
 70
     1
102
RTVSPost2010Prop56
140
1.0
102
RTVSPost2010PropOp56
 70
     1
102
RTVSPost2010Prop57
140
1.0
102
RTVSPost2010PropOp57
 70
     1
  0
XRECORD
  5
E0E00001C96C
102
{ACAD_REACTORS
330
E0E00001C96B
102
}
330
E0E00001C96B
100
AcDbXrecord
280
     1
102
RTVSPropertyOp0
 70
     1
102
RTVSPropertyOp1
 70
     1
102
RTVSPropertyOp2
 70
     1
102
RTVSPropertyOp3
 70
     1
102
RTVSPropertyOp4
 70
     1
102
RTVSPropertyOp5
 70
     1
102
RTVSPropertyOp6
 70
     1
102
RTVSPropertyOp7
 70
     1
102
RTVSPropertyOp8
 70
     1
102
RTVSPropertyOp9
 70
     1
102
RTVSPropertyOp10
 70
     1
102
RTVSPropertyOp11
 70
     1
102
RTVSPropertyOp12
 70
     1
102
RTVSPropertyOp13
 70
     1
102
RTVSPropertyOp14
 70
     1
102
RTVSPropertyOp15
 70
     1
102
RTVSPropertyOp16
 70
     1
102
RTVSPropertyOp17
 70
     1
102
RTVSPropertyOp18
 70
     1
102
RTVSPropertyOp19
 70
     1
102
RTVSPropertyOp20
 70
     1
102
RTVSPropertyOp21
 70
     1
102
RTVSPropertyOp22
 70
     1
102
RTVSPropertyOp23
 70
     1
102
RTVSPropertyOp24
 70
     1
102
RTVSPropertyOp25
 70
     1
102
RTVSPropertyOp26
 70
     1
102
RTVSPropertyOp27
 70
     1
102
RTVSPropertyOp28
 70
     1
102
RTVSPropertyOp29
 70
     1
102
RTVSPropertyOp30
 70
     1
102
RTVSPropertyOp31
 70
     1
102
RTVSPropertyOp32
 70
     1
102
RTVSPropertyOp33
 70
     1
102
RTVSPropertyOp34
 70
     1
102
RTVSPropertyOp35
 70
     1
102
RTVSPropertyOp36
 70
     1
102
RTVSPropertyOp37
 70
     1
102
RTVSPropertyOp38
 70
     1
102
RTVSPropertyOp39
 70
     1
102
RTVSPropertyOp40
 70
     1
102
RTVSPropertyOp41
 70
     1
102
RTVSPropertyOp42
 70
     1
102
RTVSPropertyOp43
 70
     1
102
RTVSPropertyOp44
 70
     1
102
RTVSPropertyOp45
 70
     1
102
RTVSPropertyOp46
 70
     1
102
RTVSPropertyOp47
 70
     1
102
RTVSPropertyOp48
 70
     1
102
RTVSPropertyOp49
 70
     1
102
RTVSPropertyOp50
 70
     1
102
RTVSPropertyOp51
 70
     0
102
RTVSPropertyOp52
 70
     0
102
RTVSPropertyOp53
 70
     1
102
RTVSPropertyOp54
 70
     1
102
RTVSPropertyOp55
 70
     1
102
RTVSPropertyOp56
 70
     1
102
RTVSPropertyOp57
 70
     1
102
RTVSPost2010Prop28
280
     0
102
RTVSPost2010PropOp28
 70
     1
102
RTVSPost2010Prop29
280
     1
102
RTVSPost2010PropOp29
 70
     1
102
RTVSPost2010Prop30
280
     1
102
RTVSPost2010PropOp30
 70
     1
102
RTVSPost2010Prop31
280
     0
102
RTVSPost2010PropOp31
 70
     1
102
RTVSPost2010Prop32
280
     0
102
RTVSPost2010PropOp32
 70
     1
102
RTVSPost2010Prop33
280
     0
102
RTVSPost2010PropOp33
 70
     1
102
RTVSPost2010Prop34
280
     0
102
RTVSPost2010PropOp34
 70
     1
102
RTVSPost2010Prop35
280
     0
102
RTVSPost2010PropOp35
 70
     1
102
RTVSPost2010Prop36
280
     0
102
RTVSPost2010PropOp36
 70
     1
102
RTVSPost2010Prop37
 90
       50
102
RTVSPost2010PropOp37
 70
     1
102
RTVSPost2010Prop38
140
0.0
102
RTVSPost2010PropOp38
 70
     1
102
RTVSPost2010Prop39
140
1.0
102
RTVSPost2010PropOp39
 70
     1
102
RTVSPost2010Prop40
 90
        0
102
RTVSPost2010PropOp40
 70
     1
102
RTVSPost2010Prop41ColorIndex
 90
       18
102
RTVSPost2010Prop41ColorRGB
 90
        0
102
RTVSPost2010PropOp41
 70
     1
102
RTVSPost2010Prop42
 90
       50
102
RTVSPost2010PropOp42
 70
     1
102
RTVSPost2010Prop43
 90
        3
102
RTVSPost2010PropOp43
 70
     1
102
RTVSPost2010Prop44ColorIndex
 90
        5
102
RTVSPost2010Prop44ColorRGB
 90
      255
102
RTVSPost2010PropOp44
 70
     1
102
RTVSPost2010Prop45
280
     0
102
RTVSPost2010PropOp45
 70
     1
102
RTVSPost2010Prop46
 90
       50
102
RTVSPost2010PropOp46
 70
     1
102
RTVSPost2010Prop47
 90
       50
102
RTVSPost2010PropOp47
 70
     1
102
RTVSPost2010Prop48
 90
       50
102
RTVSPost2010PropOp48
 70
     1
102
RTVSPost2010Prop49
280
     0
102
RTVSPost2010PropOp49
 70
     1
102
RTVSPost2010Prop50
 90
       50
102
RTVSPost2010PropOp50
 70
     1
102
RTVSPost2010Prop51ColorIndex
 90
      256
102
RTVSPost2010Prop51ColorRGB
 90
-16777216
102
RTVSPost2010PropOp51
 70
     0
102
RTVSPost2010Prop52
140
1.0
102
RTVSPost2010PropOp52
 70
     0
102
RTVSPost2010Prop53
 90
        2
102
RTVSPost2010PropOp53
 70
     1
102
RTVSPost2010Prop54
  1
strokes_ogs.tif
102
RTVSPost2010PropOp54
 70
     1
102
RTVSPost2010Prop55
280
     0
102
RTVSPost2010PropOp55
 70
     1
102
RTVSPost2010Prop56
140
1.0
102
RTVSPost2010PropOp56
 70
     1
102
RTVSPost2010Prop57
140
1.0
102
RTVSPost2010PropOp57
 70
     1
  0
XRECORD
  5
E0E00001C96E
102
{ACAD_REACTORS
330
E0E00001C96D
102
}
330
E0E00001C96D
100
AcDbXrecord
280
     1
102
RTVSPropertyOp0
 70
     0
102
RTVSPropertyOp1
 70
     0
102
RTVSPropertyOp2
 70
     0
102
RTVSPropertyOp3
 70
     0
102
RTVSPropertyOp4
 70
     0
102
RTVSPropertyOp5
 70
     0
102
RTVSPropertyOp6
 70
     0
102
RTVSPropertyOp7
 70
     0
102
RTVSPropertyOp8
 70
     0
102
RTVSPropertyOp9
 70
     0
102
RTVSPropertyOp10
 70
     0
102
RTVSPropertyOp11
 70
     0
102
RTVSPropertyOp12
 70
     0
102
RTVSPropertyOp13
 70
     0
102
RTVSPropertyOp14
 70
     2
102
RTVSPropertyOp15
 70
     0
102
RTVSPropertyOp16
 70
     0
102
RTVSPropertyOp17
 70
     0
102
RTVSPropertyOp18
 70
     0
102
RTVSPropertyOp19
 70
     0
102
RTVSPropertyOp20
 70
     0
102
RTVSPropertyOp21
 70
     0
102
RTVSPropertyOp22
 70
     0
102
RTVSPropertyOp23
 70
     0
102
RTVSPropertyOp24
 70
     0
102
RTVSPropertyOp25
 70
     0
102
RTVSPropertyOp26
 70
     0
102
RTVSPropertyOp27
 70
     0
102
RTVSPropertyOp28
 70
     0
102
RTVSPropertyOp29
 70
     0
102
RTVSPropertyOp30
 70
     0
102
RTVSPropertyOp31
 70
     0
102
RTVSPropertyOp32
 70
     0
102
RTVSPropertyOp33
 70
     0
102
RTVSPropertyOp34
 70
     0
102
RTVSPropertyOp35
 70
     0
102
RTVSPropertyOp36
 70
     0
102
RTVSPropertyOp37
 70
     0
102
RTVSPropertyOp38
 70
     0
102
RTVSPropertyOp39
 70
     0
102
RTVSPropertyOp40
 70
     0
102
RTVSPropertyOp41
 70
     0
102
RTVSPropertyOp42
 70
     0
102
RTVSPropertyOp43
 70
     0
102
RTVSPropertyOp44
 70
     0
102
RTVSPropertyOp45
 70
     0
102
RTVSPropertyOp46
 70
     0
102
RTVSPropertyOp47
 70
     0
102
RTVSPropertyOp48
 70
     0
102
RTVSPropertyOp49
 70
     0
102
RTVSPropertyOp50
 70
     0
102
RTVSPropertyOp51
 70
     0
102
RTVSPropertyOp52
 70
     0
102
RTVSPropertyOp53
 70
     0
102
RTVSPropertyOp54
 70
     0
102
RTVSPropertyOp55
 70
     0
102
RTVSPropertyOp56
 70
     0
102
RTVSPropertyOp57
 70
     0
102
RTVSPost2010Prop28
280
     0
102
RTVSPost2010PropOp28
 70
     0
102
RTVSPost2010Prop29
280
     1
102
RTVSPost2010PropOp29
 70
     0
102
RTVSPost2010Prop30
280
     1
102
RTVSPost2010PropOp30
 70
     0
102
RTVSPost2010Prop31
280
     0
102
RTVSPost2010PropOp31
 70
     0
102
RTVSPost2010Prop32
280
     0
102
RTVSPost2010PropOp32
 70
     0
102
RTVSPost2010Prop33
280
     0
102
RTVSPost2010PropOp33
 70
     0
102
RTVSPost2010Prop34
280
     0
102
RTVSPost2010PropOp34
 70
     0
102
RTVSPost2010Prop35
280
     0
102
RTVSPost2010PropOp35
 70
     0
102
RTVSPost2010Prop36
280
     0
102
RTVSPost2010PropOp36
 70
     0
102
RTVSPost2010Prop37
 90
       50
102
RTVSPost2010PropOp37
 70
     0
102
RTVSPost2010Prop38
140
0.0
102
RTVSPost2010PropOp38
 70
     0
102
RTVSPost2010Prop39
140
1.0
102
RTVSPost2010PropOp39
 70
     0
102
RTVSPost2010Prop40
 90
        0
102
RTVSPost2010PropOp40
 70
     0
102
RTVSPost2010Prop41ColorIndex
 90
       18
102
RTVSPost2010Prop41ColorRGB
 90
        0
102
RTVSPost2010PropOp41
 70
     0
102
RTVSPost2010Prop42
 90
       50
102
RTVSPost2010PropOp42
 70
     0
102
RTVSPost2010Prop43
 90
        3
102
RTVSPost2010PropOp43
 70
     0
102
RTVSPost2010Prop44ColorIndex
 90
        5
102
RTVSPost2010Prop44ColorRGB
 90
      255
102
RTVSPost2010PropOp44
 70
     0
102
RTVSPost2010Prop45
280
     0
102
RTVSPost2010PropOp45
 70
     0
102
RTVSPost2010Prop46
 90
       50
102
RTVSPost2010PropOp46
 70
     0
102
RTVSPost2010Prop47
 90
       50
102
RTVSPost2010PropOp47
 70
     0
102
RTVSPost2010Prop48
 90
       50
102
RTVSPost2010PropOp48
 70
     0
102
RTVSPost2010Prop49
280
     0
102
RTVSPost2010PropOp49
 70
     0
102
RTVSPost2010Prop50
 90
       50
102
RTVSPost2010PropOp50
 70
     0
102
RTVSPost2010Prop51ColorIndex
 90
      256
102
RTVSPost2010Prop51ColorRGB
 90
-16777216
102
RTVSPost2010PropOp51
 70
     0
102
RTVSPost2010Prop52
140
1.0
102
RTVSPost2010PropOp52
 70
     0
102
RTVSPost2010Prop53
 90
        2
102
RTVSPost2010PropOp53
 70
     0
102
RTVSPost2010Prop54
  1
strokes_ogs.tif
102
RTVSPost2010PropOp54
 70
     0
102
RTVSPost2010Prop55
280
     0
102
RTVSPost2010PropOp55
 70
     0
102
RTVSPost2010Prop56
140
1.0
102
RTVSPost2010PropOp56
 70
     0
102
RTVSPost2010Prop57
140
1.0
102
RTVSPost2010PropOp57
 70
     0
  0
XRECORD
  5
E0E00001C964
102
{ACAD_REACTORS
330
E0E00001C963
102
}
330
E0E00001C963
100
AcDbXrecord
280
     1
102
RTVSPropertyOp0
 70
     1
102
RTVSPropertyOp1
 70
     1
102
RTVSPropertyOp2
 70
     1
102
RTVSPropertyOp3
 70
     1
102
RTVSPropertyOp4
 70
     1
102
RTVSPropertyOp5
 70
     1
102
RTVSPropertyOp6
 70
     1
102
RTVSPropertyOp7
 70
     1
102
RTVSPropertyOp8
 70
     1
102
RTVSPropertyOp9
 70
     1
102
RTVSPropertyOp10
 70
     1
102
RTVSPropertyOp11
 70
     1
102
RTVSPropertyOp12
 70
     1
102
RTVSPropertyOp13
 70
     1
102
RTVSPropertyOp14
 70
     1
102
RTVSPropertyOp15
 70
     1
102
RTVSPropertyOp16
 70
     1
102
RTVSPropertyOp17
 70
     1
102
RTVSPropertyOp18
 70
     1
102
RTVSPropertyOp19
 70
     1
102
RTVSPropertyOp20
 70
     1
102
RTVSPropertyOp21
 70
     1
102
RTVSPropertyOp22
 70
     1
102
RTVSPropertyOp23
 70
     1
102
RTVSPropertyOp24
 70
     1
102
RTVSPropertyOp25
 70
     1
102
RTVSPropertyOp26
 70
     1
102
RTVSPropertyOp27
 70
     1
102
RTVSPropertyOp28
 70
     1
102
RTVSPropertyOp29
 70
     1
102
RTVSPropertyOp30
 70
     1
102
RTVSPropertyOp31
 70
     1
102
RTVSPropertyOp32
 70
     1
102
RTVSPropertyOp33
 70
     1
102
RTVSPropertyOp34
 70
     1
102
RTVSPropertyOp35
 70
     1
102
RTVSPropertyOp36
 70
     1
102
RTVSPropertyOp37
 70
     1
102
RTVSPropertyOp38
 70
     1
102
RTVSPropertyOp39
 70
     1
102
RTVSPropertyOp40
 70
     1
102
RTVSPropertyOp41
 70
     1
102
RTVSPropertyOp42
 70
     1
102
RTVSPropertyOp43
 70
     1
102
RTVSPropertyOp44
 70
     1
102
RTVSPropertyOp45
 70
     1
102
RTVSPropertyOp46
 70
     1
102
RTVSPropertyOp47
 70
     1
102
RTVSPropertyOp48
 70
     1
102
RTVSPropertyOp49
 70
     1
102
RTVSPropertyOp50
 70
     1
102
RTVSPropertyOp51
 70
     0
102
RTVSPropertyOp52
 70
     0
102
RTVSPropertyOp53
 70
     1
102
RTVSPropertyOp54
 70
     1
102
RTVSPropertyOp55
 70
     1
102
RTVSPropertyOp56
 70
     1
102
RTVSPropertyOp57
 70
     1
102
RTVSPost2010Prop28
280
     0
102
RTVSPost2010PropOp28
 70
     1
102
RTVSPost2010Prop29
280
     1
102
RTVSPost2010PropOp29
 70
     1
102
RTVSPost2010Prop30
280
     1
102
RTVSPost2010PropOp30
 70
     1
102
RTVSPost2010Prop31
280
     0
102
RTVSPost2010PropOp31
 70
     1
102
RTVSPost2010Prop32
280
     0
102
RTVSPost2010PropOp32
 70
     1
102
RTVSPost2010Prop33
280
     0
102
RTVSPost2010PropOp33
 70
     1
102
RTVSPost2010Prop34
280
     0
102
RTVSPost2010PropOp34
 70
     1
102
RTVSPost2010Prop35
280
     0
102
RTVSPost2010PropOp35
 70
     1
102
RTVSPost2010Prop36
280
     0
102
RTVSPost2010PropOp36
 70
     1
102
RTVSPost2010Prop37
 90
       50
102
RTVSPost2010PropOp37
 70
     1
102
RTVSPost2010Prop38
140
0.0
102
RTVSPost2010PropOp38
 70
     1
102
RTVSPost2010Prop39
140
1.0
102
RTVSPost2010PropOp39
 70
     1
102
RTVSPost2010Prop40
 90
        0
102
RTVSPost2010PropOp40
 70
     1
102
RTVSPost2010Prop41ColorIndex
 90
       18
102
RTVSPost2010Prop41ColorRGB
 90
        0
102
RTVSPost2010PropOp41
 70
     1
102
RTVSPost2010Prop42
 90
       50
102
RTVSPost2010PropOp42
 70
     1
102
RTVSPost2010Prop43
 90
        3
102
RTVSPost2010PropOp43
 70
     1
102
RTVSPost2010Prop44ColorIndex
 90
        5
102
RTVSPost2010Prop44ColorRGB
 90
      255
102
RTVSPost2010PropOp44
 70
     1
102
RTVSPost2010Prop45
280
     0
102
RTVSPost2010PropOp45
 70
     1
102
RTVSPost2010Prop46
 90
       50
102
RTVSPost2010PropOp46
 70
     1
102
RTVSPost2010Prop47
 90
       50
102
RTVSPost2010PropOp47
 70
     1
102
RTVSPost2010Prop48
 90
       50
102
RTVSPost2010PropOp48
 70
     1
102
RTVSPost2010Prop49
280
     0
102
RTVSPost2010PropOp49
 70
     1
102
RTVSPost2010Prop50
 90
       50
102
RTVSPost2010PropOp50
 70
     1
102
RTVSPost2010Prop51ColorIndex
 90
      256
102
RTVSPost2010Prop51ColorRGB
 90
-16777216
102
RTVSPost2010PropOp51
 70
     0
102
RTVSPost2010Prop52
140
1.0
102
RTVSPost2010PropOp52
 70
     0
102
RTVSPost2010Prop53
 90
        2
102
RTVSPost2010PropOp53
 70
     1
102
RTVSPost2010Prop54
  1
strokes_ogs.tif
102
RTVSPost2010PropOp54
 70
     1
102
RTVSPost2010Prop55
280
     0
102
RTVSPost2010PropOp55
 70
     1
102
RTVSPost2010Prop56
140
1.0
102
RTVSPost2010PropOp56
 70
     1
102
RTVSPost2010Prop57
140
1.0
102
RTVSPost2010PropOp57
 70
     1
  0
XRECORD
  5
E0E00001C970
102
{ACAD_REACTORS
330
E0E00001C96F
102
}
330
E0E00001C96F
100
AcDbXrecord
280
     1
102
RTVSPropertyOp0
 70
     0
102
RTVSPropertyOp1
 70
     0
102
RTVSPropertyOp2
 70
     0
102
RTVSPropertyOp3
 70
     0
102
RTVSPropertyOp4
 70
     0
102
RTVSPropertyOp5
 70
     0
102
RTVSPropertyOp6
 70
     0
102
RTVSPropertyOp7
 70
     0
102
RTVSPropertyOp8
 70
     0
102
RTVSPropertyOp9
 70
     0
102
RTVSPropertyOp10
 70
     0
102
RTVSPropertyOp11
 70
     0
102
RTVSPropertyOp12
 70
     0
102
RTVSPropertyOp13
 70
     0
102
RTVSPropertyOp14
 70
     2
102
RTVSPropertyOp15
 70
     0
102
RTVSPropertyOp16
 70
     0
102
RTVSPropertyOp17
 70
     0
102
RTVSPropertyOp18
 70
     0
102
RTVSPropertyOp19
 70
     0
102
RTVSPropertyOp20
 70
     0
102
RTVSPropertyOp21
 70
     0
102
RTVSPropertyOp22
 70
     0
102
RTVSPropertyOp23
 70
     0
102
RTVSPropertyOp24
 70
     0
102
RTVSPropertyOp25
 70
     0
102
RTVSPropertyOp26
 70
     0
102
RTVSPropertyOp27
 70
     0
102
RTVSPropertyOp28
 70
     0
102
RTVSPropertyOp29
 70
     0
102
RTVSPropertyOp30
 70
     0
102
RTVSPropertyOp31
 70
     0
102
RTVSPropertyOp32
 70
     0
102
RTVSPropertyOp33
 70
     0
102
RTVSPropertyOp34
 70
     0
102
RTVSPropertyOp35
 70
     0
102
RTVSPropertyOp36
 70
     0
102
RTVSPropertyOp37
 70
     0
102
RTVSPropertyOp38
 70
     0
102
RTVSPropertyOp39
 70
     0
102
RTVSPropertyOp40
 70
     0
102
RTVSPropertyOp41
 70
     0
102
RTVSPropertyOp42
 70
     0
102
RTVSPropertyOp43
 70
     0
102
RTVSPropertyOp44
 70
     0
102
RTVSPropertyOp45
 70
     0
102
RTVSPropertyOp46
 70
     0
102
RTVSPropertyOp47
 70
     0
102
RTVSPropertyOp48
 70
     0
102
RTVSPropertyOp49
 70
     0
102
RTVSPropertyOp50
 70
     0
102
RTVSPropertyOp51
 70
     0
102
RTVSPropertyOp52
 70
     0
102
RTVSPropertyOp53
 70
     0
102
RTVSPropertyOp54
 70
     0
102
RTVSPropertyOp55
 70
     0
102
RTVSPropertyOp56
 70
     0
102
RTVSPropertyOp57
 70
     0
102
RTVSPost2010Prop28
280
     0
102
RTVSPost2010PropOp28
 70
     0
102
RTVSPost2010Prop29
280
     1
102
RTVSPost2010PropOp29
 70
     0
102
RTVSPost2010Prop30
280
     1
102
RTVSPost2010PropOp30
 70
     0
102
RTVSPost2010Prop31
280
     0
102
RTVSPost2010PropOp31
 70
     0
102
RTVSPost2010Prop32
280
     0
102
RTVSPost2010PropOp32
 70
     0
102
RTVSPost2010Prop33
280
     0
102
RTVSPost2010PropOp33
 70
     0
102
RTVSPost2010Prop34
280
     0
102
RTVSPost2010PropOp34
 70
     0
102
RTVSPost2010Prop35
280
     0
102
RTVSPost2010PropOp35
 70
     0
102
RTVSPost2010Prop36
280
     0
102
RTVSPost2010PropOp36
 70
     0
102
RTVSPost2010Prop37
 90
       50
102
RTVSPost2010PropOp37
 70
     0
102
RTVSPost2010Prop38
140
0.0
102
RTVSPost2010PropOp38
 70
     0
102
RTVSPost2010Prop39
140
1.0
102
RTVSPost2010PropOp39
 70
     0
102
RTVSPost2010Prop40
 90
        0
102
RTVSPost2010PropOp40
 70
     0
102
RTVSPost2010Prop41ColorIndex
 90
       18
102
RTVSPost2010Prop41ColorRGB
 90
        0
102
RTVSPost2010PropOp41
 70
     0
102
RTVSPost2010Prop42
 90
       50
102
RTVSPost2010PropOp42
 70
     0
102
RTVSPost2010Prop43
 90
        3
102
RTVSPost2010PropOp43
 70
     0
102
RTVSPost2010Prop44ColorIndex
 90
        5
102
RTVSPost2010Prop44ColorRGB
 90
      255
102
RTVSPost2010PropOp44
 70
     0
102
RTVSPost2010Prop45
280
     0
102
RTVSPost2010PropOp45
 70
     0
102
RTVSPost2010Prop46
 90
       50
102
RTVSPost2010PropOp46
 70
     0
102
RTVSPost2010Prop47
 90
       50
102
RTVSPost2010PropOp47
 70
     0
102
RTVSPost2010Prop48
 90
       50
102
RTVSPost2010PropOp48
 70
     0
102
RTVSPost2010Prop49
280
     0
102
RTVSPost2010PropOp49
 70
     0
102
RTVSPost2010Prop50
 90
       50
102
RTVSPost2010PropOp50
 70
     0
102
RTVSPost2010Prop51ColorIndex
 90
      256
102
RTVSPost2010Prop51ColorRGB
 90
-16777216
102
RTVSPost2010PropOp51
 70
     0
102
RTVSPost2010Prop52
140
1.0
102
RTVSPost2010PropOp52
 70
     0
102
RTVSPost2010Prop53
 90
        2
102
RTVSPost2010PropOp53
 70
     0
102
RTVSPost2010Prop54
  1
strokes_ogs.tif
102
RTVSPost2010PropOp54
 70
     0
102
RTVSPost2010Prop55
280
     0
102
RTVSPost2010PropOp55
 70
     0
102
RTVSPost2010Prop56
140
1.0
102
RTVSPost2010PropOp56
 70
     0
102
RTVSPost2010Prop57
140
1.0
102
RTVSPost2010PropOp57
 70
     0
  0
XRECORD
  5
E0E00001C966
102
{ACAD_REACTORS
330
E0E00001C965
102
}
330
E0E00001C965
100
AcDbXrecord
280
     1
102
RTVSPropertyOp0
 70
     1
102
RTVSPropertyOp1
 70
     1
102
RTVSPropertyOp2
 70
     1
102
RTVSPropertyOp3
 70
     1
102
RTVSPropertyOp4
 70
     1
102
RTVSPropertyOp5
 70
     1
102
RTVSPropertyOp6
 70
     1
102
RTVSPropertyOp7
 70
     1
102
RTVSPropertyOp8
 70
     1
102
RTVSPropertyOp9
 70
     1
102
RTVSPropertyOp10
 70
     1
102
RTVSPropertyOp11
 70
     1
102
RTVSPropertyOp12
 70
     1
102
RTVSPropertyOp13
 70
     1
102
RTVSPropertyOp14
 70
     1
102
RTVSPropertyOp15
 70
     1
102
RTVSPropertyOp16
 70
     1
102
RTVSPropertyOp17
 70
     1
102
RTVSPropertyOp18
 70
     1
102
RTVSPropertyOp19
 70
     1
102
RTVSPropertyOp20
 70
     1
102
RTVSPropertyOp21
 70
     1
102
RTVSPropertyOp22
 70
     1
102
RTVSPropertyOp23
 70
     1
102
RTVSPropertyOp24
 70
     1
102
RTVSPropertyOp25
 70
     1
102
RTVSPropertyOp26
 70
     1
102
RTVSPropertyOp27
 70
     1
102
RTVSPropertyOp28
 70
     1
102
RTVSPropertyOp29
 70
     1
102
RTVSPropertyOp30
 70
     1
102
RTVSPropertyOp31
 70
     1
102
RTVSPropertyOp32
 70
     1
102
RTVSPropertyOp33
 70
     1
102
RTVSPropertyOp34
 70
     1
102
RTVSPropertyOp35
 70
     1
102
RTVSPropertyOp36
 70
     1
102
RTVSPropertyOp37
 70
     1
102
RTVSPropertyOp38
 70
     1
102
RTVSPropertyOp39
 70
     1
102
RTVSPropertyOp40
 70
     1
102
RTVSPropertyOp41
 70
     1
102
RTVSPropertyOp42
 70
     1
102
RTVSPropertyOp43
 70
     1
102
RTVSPropertyOp44
 70
     1
102
RTVSPropertyOp45
 70
     1
102
RTVSPropertyOp46
 70
     1
102
RTVSPropertyOp47
 70
     1
102
RTVSPropertyOp48
 70
     1
102
RTVSPropertyOp49
 70
     1
102
RTVSPropertyOp50
 70
     1
102
RTVSPropertyOp51
 70
     0
102
RTVSPropertyOp52
 70
     0
102
RTVSPropertyOp53
 70
     1
102
RTVSPropertyOp54
 70
     1
102
RTVSPropertyOp55
 70
     1
102
RTVSPropertyOp56
 70
     1
102
RTVSPropertyOp57
 70
     1
102
RTVSPost2010Prop28
280
     0
102
RTVSPost2010PropOp28
 70
     1
102
RTVSPost2010Prop29
280
     1
102
RTVSPost2010PropOp29
 70
     1
102
RTVSPost2010Prop30
280
     1
102
RTVSPost2010PropOp30
 70
     1
102
RTVSPost2010Prop31
280
     0
102
RTVSPost2010PropOp31
 70
     1
102
RTVSPost2010Prop32
280
     0
102
RTVSPost2010PropOp32
 70
     1
102
RTVSPost2010Prop33
280
     0
102
RTVSPost2010PropOp33
 70
     1
102
RTVSPost2010Prop34
280
     0
102
RTVSPost2010PropOp34
 70
     1
102
RTVSPost2010Prop35
280
     0
102
RTVSPost2010PropOp35
 70
     1
102
RTVSPost2010Prop36
280
     0
102
RTVSPost2010PropOp36
 70
     1
102
RTVSPost2010Prop37
 90
       50
102
RTVSPost2010PropOp37
 70
     1
102
RTVSPost2010Prop38
140
0.0
102
RTVSPost2010PropOp38
 70
     1
102
RTVSPost2010Prop39
140
1.0
102
RTVSPost2010PropOp39
 70
     1
102
RTVSPost2010Prop40
 90
        0
102
RTVSPost2010PropOp40
 70
     1
102
RTVSPost2010Prop41ColorIndex
 90
       18
102
RTVSPost2010Prop41ColorRGB
 90
        0
102
RTVSPost2010PropOp41
 70
     1
102
RTVSPost2010Prop42
 90
       50
102
RTVSPost2010PropOp42
 70
     1
102
RTVSPost2010Prop43
 90
        3
102
RTVSPost2010PropOp43
 70
     1
102
RTVSPost2010Prop44ColorIndex
 90
        5
102
RTVSPost2010Prop44ColorRGB
 90
      255
102
RTVSPost2010PropOp44
 70
     1
102
RTVSPost2010Prop45
280
     0
102
RTVSPost2010PropOp45
 70
     1
102
RTVSPost2010Prop46
 90
       50
102
RTVSPost2010PropOp46
 70
     1
102
RTVSPost2010Prop47
 90
       50
102
RTVSPost2010PropOp47
 70
     1
102
RTVSPost2010Prop48
 90
       50
102
RTVSPost2010PropOp48
 70
     1
102
RTVSPost2010Prop49
280
     0
102
RTVSPost2010PropOp49
 70
     1
102
RTVSPost2010Prop50
 90
       50
102
RTVSPost2010PropOp50
 70
     1
102
RTVSPost2010Prop51ColorIndex
 90
      256
102
RTVSPost2010Prop51ColorRGB
 90
-16777216
102
RTVSPost2010PropOp51
 70
     0
102
RTVSPost2010Prop52
140
1.0
102
RTVSPost2010PropOp52
 70
     0
102
RTVSPost2010Prop53
 90
        2
102
RTVSPost2010PropOp53
 70
     1
102
RTVSPost2010Prop54
  1
strokes_ogs.tif
102
RTVSPost2010PropOp54
 70
     1
102
RTVSPost2010Prop55
280
     0
102
RTVSPost2010PropOp55
 70
     1
102
RTVSPost2010Prop56
140
1.0
102
RTVSPost2010PropOp56
 70
     1
102
RTVSPost2010Prop57
140
1.0
102
RTVSPost2010PropOp57
 70
     1
  0
XRECORD
  5
E0E00001C97C
102
{ACAD_REACTORS
330
E0E00001C97B
102
}
330
E0E00001C97B
100
AcDbXrecord
280
     1
102
RTVSPropertyOp0
 70
     1
102
RTVSPropertyOp1
 70
     1
102
RTVSPropertyOp2
 70
     1
102
RTVSPropertyOp3
 70
     1
102
RTVSPropertyOp4
 70
     1
102
RTVSPropertyOp5
 70
     1
102
RTVSPropertyOp6
 70
     1
102
RTVSPropertyOp7
 70
     1
102
RTVSPropertyOp8
 70
     1
102
RTVSPropertyOp9
 70
     1
102
RTVSPropertyOp10
 70
     1
102
RTVSPropertyOp11
 70
     1
102
RTVSPropertyOp12
 70
     1
102
RTVSPropertyOp13
 70
     1
102
RTVSPropertyOp14
 70
     1
102
RTVSPropertyOp15
 70
     1
102
RTVSPropertyOp16
 70
     1
102
RTVSPropertyOp17
 70
     1
102
RTVSPropertyOp18
 70
     1
102
RTVSPropertyOp19
 70
     1
102
RTVSPropertyOp20
 70
     1
102
RTVSPropertyOp21
 70
     1
102
RTVSPropertyOp22
 70
     1
102
RTVSPropertyOp23
 70
     1
102
RTVSPropertyOp24
 70
     1
102
RTVSPropertyOp25
 70
     1
102
RTVSPropertyOp26
 70
     1
102
RTVSPropertyOp27
 70
     1
102
RTVSPropertyOp28
 70
     1
102
RTVSPropertyOp29
 70
     1
102
RTVSPropertyOp30
 70
     1
102
RTVSPropertyOp31
 70
     1
102
RTVSPropertyOp32
 70
     1
102
RTVSPropertyOp33
 70
     1
102
RTVSPropertyOp34
 70
     1
102
RTVSPropertyOp35
 70
     1
102
RTVSPropertyOp36
 70
     1
102
RTVSPropertyOp37
 70
     1
102
RTVSPropertyOp38
 70
     1
102
RTVSPropertyOp39
 70
     1
102
RTVSPropertyOp40
 70
     1
102
RTVSPropertyOp41
 70
     1
102
RTVSPropertyOp42
 70
     1
102
RTVSPropertyOp43
 70
     1
102
RTVSPropertyOp44
 70
     1
102
RTVSPropertyOp45
 70
     1
102
RTVSPropertyOp46
 70
     1
102
RTVSPropertyOp47
 70
     1
102
RTVSPropertyOp48
 70
     1
102
RTVSPropertyOp49
 70
     1
102
RTVSPropertyOp50
 70
     1
102
RTVSPropertyOp51
 70
     0
102
RTVSPropertyOp52
 70
     0
102
RTVSPropertyOp53
 70
     1
102
RTVSPropertyOp54
 70
     1
102
RTVSPropertyOp55
 70
     1
102
RTVSPropertyOp56
 70
     1
102
RTVSPropertyOp57
 70
     1
102
RTVSPost2010Prop28
280
     0
102
RTVSPost2010PropOp28
 70
     1
102
RTVSPost2010Prop29
280
     1
102
RTVSPost2010PropOp29
 70
     1
102
RTVSPost2010Prop30
280
     1
102
RTVSPost2010PropOp30
 70
     1
102
RTVSPost2010Prop31
280
     0
102
RTVSPost2010PropOp31
 70
     1
102
RTVSPost2010Prop32
280
     0
102
RTVSPost2010PropOp32
 70
     1
102
RTVSPost2010Prop33
280
     0
102
RTVSPost2010PropOp33
 70
     1
102
RTVSPost2010Prop34
280
     0
102
RTVSPost2010PropOp34
 70
     1
102
RTVSPost2010Prop35
280
     0
102
RTVSPost2010PropOp35
 70
     1
102
RTVSPost2010Prop36
280
     0
102
RTVSPost2010PropOp36
 70
     1
102
RTVSPost2010Prop37
 90
       50
102
RTVSPost2010PropOp37
 70
     1
102
RTVSPost2010Prop38
140
0.0
102
RTVSPost2010PropOp38
 70
     1
102
RTVSPost2010Prop39
140
1.0
102
RTVSPost2010PropOp39
 70
     1
102
RTVSPost2010Prop40
 90
        0
102
RTVSPost2010PropOp40
 70
     1
102
RTVSPost2010Prop41ColorIndex
 90
       18
102
RTVSPost2010Prop41ColorRGB
 90
        0
102
RTVSPost2010PropOp41
 70
     1
102
RTVSPost2010Prop42
 90
       50
102
RTVSPost2010PropOp42
 70
     1
102
RTVSPost2010Prop43
 90
        3
102
RTVSPost2010PropOp43
 70
     1
102
RTVSPost2010Prop44ColorIndex
 90
        5
102
RTVSPost2010Prop44ColorRGB
 90
      255
102
RTVSPost2010PropOp44
 70
     1
102
RTVSPost2010Prop45
280
     0
102
RTVSPost2010PropOp45
 70
     1
102
RTVSPost2010Prop46
 90
       50
102
RTVSPost2010PropOp46
 70
     1
102
RTVSPost2010Prop47
 90
       50
102
RTVSPost2010PropOp47
 70
     1
102
RTVSPost2010Prop48
 90
       50
102
RTVSPost2010PropOp48
 70
     1
102
RTVSPost2010Prop49
280
     0
102
RTVSPost2010PropOp49
 70
     1
102
RTVSPost2010Prop50
 90
       50
102
RTVSPost2010PropOp50
 70
     1
102
RTVSPost2010Prop51ColorIndex
 90
      256
102
RTVSPost2010Prop51ColorRGB
 90
-16777216
102
RTVSPost2010PropOp51
 70
     0
102
RTVSPost2010Prop52
140
1.0
102
RTVSPost2010PropOp52
 70
     0
102
RTVSPost2010Prop53
 90
        2
102
RTVSPost2010PropOp53
 70
     1
102
RTVSPost2010Prop54
  1
strokes_ogs.tif
102
RTVSPost2010PropOp54
 70
     1
102
RTVSPost2010Prop55
280
     0
102
RTVSPost2010PropOp55
 70
     1
102
RTVSPost2010Prop56
140
1.0
102
RTVSPost2010PropOp56
 70
     1
102
RTVSPost2010Prop57
140
1.0
102
RTVSPost2010PropOp57
 70
     1
  0
XRECORD
  5
E0E00001C97A
102
{ACAD_REACTORS
330
E0E00001C979
102
}
330
E0E00001C979
100
AcDbXrecord
280
     1
102
RTVSPropertyOp0
 70
     1
102
RTVSPropertyOp1
 70
     1
102
RTVSPropertyOp2
 70
     1
102
RTVSPropertyOp3
 70
     1
102
RTVSPropertyOp4
 70
     1
102
RTVSPropertyOp5
 70
     1
102
RTVSPropertyOp6
 70
     1
102
RTVSPropertyOp7
 70
     1
102
RTVSPropertyOp8
 70
     1
102
RTVSPropertyOp9
 70
     1
102
RTVSPropertyOp10
 70
     1
102
RTVSPropertyOp11
 70
     1
102
RTVSPropertyOp12
 70
     1
102
RTVSPropertyOp13
 70
     1
102
RTVSPropertyOp14
 70
     1
102
RTVSPropertyOp15
 70
     1
102
RTVSPropertyOp16
 70
     1
102
RTVSPropertyOp17
 70
     1
102
RTVSPropertyOp18
 70
     1
102
RTVSPropertyOp19
 70
     1
102
RTVSPropertyOp20
 70
     1
102
RTVSPropertyOp21
 70
     1
102
RTVSPropertyOp22
 70
     1
102
RTVSPropertyOp23
 70
     1
102
RTVSPropertyOp24
 70
     1
102
RTVSPropertyOp25
 70
     1
102
RTVSPropertyOp26
 70
     1
102
RTVSPropertyOp27
 70
     1
102
RTVSPropertyOp28
 70
     1
102
RTVSPropertyOp29
 70
     1
102
RTVSPropertyOp30
 70
     1
102
RTVSPropertyOp31
 70
     1
102
RTVSPropertyOp32
 70
     1
102
RTVSPropertyOp33
 70
     1
102
RTVSPropertyOp34
 70
     1
102
RTVSPropertyOp35
 70
     1
102
RTVSPropertyOp36
 70
     1
102
RTVSPropertyOp37
 70
     1
102
RTVSPropertyOp38
 70
     1
102
RTVSPropertyOp39
 70
     1
102
RTVSPropertyOp40
 70
     1
102
RTVSPropertyOp41
 70
     1
102
RTVSPropertyOp42
 70
     1
102
RTVSPropertyOp43
 70
     1
102
RTVSPropertyOp44
 70
     1
102
RTVSPropertyOp45
 70
     1
102
RTVSPropertyOp46
 70
     1
102
RTVSPropertyOp47
 70
     1
102
RTVSPropertyOp48
 70
     1
102
RTVSPropertyOp49
 70
     1
102
RTVSPropertyOp50
 70
     1
102
RTVSPropertyOp51
 70
     0
102
RTVSPropertyOp52
 70
     0
102
RTVSPropertyOp53
 70
     1
102
RTVSPropertyOp54
 70
     1
102
RTVSPropertyOp55
 70
     1
102
RTVSPropertyOp56
 70
     1
102
RTVSPropertyOp57
 70
     1
102
RTVSPost2010Prop28
280
     0
102
RTVSPost2010PropOp28
 70
     1
102
RTVSPost2010Prop29
280
     1
102
RTVSPost2010PropOp29
 70
     1
102
RTVSPost2010Prop30
280
     1
102
RTVSPost2010PropOp30
 70
     1
102
RTVSPost2010Prop31
280
     0
102
RTVSPost2010PropOp31
 70
     1
102
RTVSPost2010Prop32
280
     0
102
RTVSPost2010PropOp32
 70
     1
102
RTVSPost2010Prop33
280
     0
102
RTVSPost2010PropOp33
 70
     1
102
RTVSPost2010Prop34
280
     0
102
RTVSPost2010PropOp34
 70
     1
102
RTVSPost2010Prop35
280
     0
102
RTVSPost2010PropOp35
 70
     1
102
RTVSPost2010Prop36
280
     0
102
RTVSPost2010PropOp36
 70
     1
102
RTVSPost2010Prop37
 90
       50
102
RTVSPost2010PropOp37
 70
     1
102
RTVSPost2010Prop38
140
0.0
102
RTVSPost2010PropOp38
 70
     1
102
RTVSPost2010Prop39
140
1.0
102
RTVSPost2010PropOp39
 70
     1
102
RTVSPost2010Prop40
 90
        0
102
RTVSPost2010PropOp40
 70
     1
102
RTVSPost2010Prop41ColorIndex
 90
       18
102
RTVSPost2010Prop41ColorRGB
 90
        0
102
RTVSPost2010PropOp41
 70
     1
102
RTVSPost2010Prop42
 90
       50
102
RTVSPost2010PropOp42
 70
     1
102
RTVSPost2010Prop43
 90
        3
102
RTVSPost2010PropOp43
 70
     1
102
RTVSPost2010Prop44ColorIndex
 90
        5
102
RTVSPost2010Prop44ColorRGB
 90
      255
102
RTVSPost2010PropOp44
 70
     1
102
RTVSPost2010Prop45
280
     0
102
RTVSPost2010PropOp45
 70
     1
102
RTVSPost2010Prop46
 90
       50
102
RTVSPost2010PropOp46
 70
     1
102
RTVSPost2010Prop47
 90
       50
102
RTVSPost2010PropOp47
 70
     1
102
RTVSPost2010Prop48
 90
       50
102
RTVSPost2010PropOp48
 70
     1
102
RTVSPost2010Prop49
280
     0
102
RTVSPost2010PropOp49
 70
     1
102
RTVSPost2010Prop50
 90
       50
102
RTVSPost2010PropOp50
 70
     1
102
RTVSPost2010Prop51ColorIndex
 90
      256
102
RTVSPost2010Prop51ColorRGB
 90
-16777216
102
RTVSPost2010PropOp51
 70
     0
102
RTVSPost2010Prop52
140
1.0
102
RTVSPost2010PropOp52
 70
     0
102
RTVSPost2010Prop53
 90
        2
102
RTVSPost2010PropOp53
 70
     1
102
RTVSPost2010Prop54
  1
strokes_ogs.tif
102
RTVSPost2010PropOp54
 70
     1
102
RTVSPost2010Prop55
280
     0
102
RTVSPost2010PropOp55
 70
     1
102
RTVSPost2010Prop56
140
1.0
102
RTVSPost2010PropOp56
 70
     1
102
RTVSPost2010Prop57
140
1.0
102
RTVSPost2010PropOp57
 70
     1
  0
XRECORD
  5
E0E00001C974
102
{ACAD_REACTORS
330
E0E00001C973
102
}
330
E0E00001C973
100
AcDbXrecord
280
     1
102
RTVSPropertyOp0
 70
     1
102
RTVSPropertyOp1
 70
     1
102
RTVSPropertyOp2
 70
     1
102
RTVSPropertyOp3
 70
     1
102
RTVSPropertyOp4
 70
     1
102
RTVSPropertyOp5
 70
     1
102
RTVSPropertyOp6
 70
     1
102
RTVSPropertyOp7
 70
     1
102
RTVSPropertyOp8
 70
     1
102
RTVSPropertyOp9
 70
     1
102
RTVSPropertyOp10
 70
     1
102
RTVSPropertyOp11
 70
     1
102
RTVSPropertyOp12
 70
     1
102
RTVSPropertyOp13
 70
     1
102
RTVSPropertyOp14
 70
     1
102
RTVSPropertyOp15
 70
     1
102
RTVSPropertyOp16
 70
     1
102
RTVSPropertyOp17
 70
     1
102
RTVSPropertyOp18
 70
     1
102
RTVSPropertyOp19
 70
     1
102
RTVSPropertyOp20
 70
     1
102
RTVSPropertyOp21
 70
     1
102
RTVSPropertyOp22
 70
     1
102
RTVSPropertyOp23
 70
     1
102
RTVSPropertyOp24
 70
     1
102
RTVSPropertyOp25
 70
     1
102
RTVSPropertyOp26
 70
     1
102
RTVSPropertyOp27
 70
     1
102
RTVSPropertyOp28
 70
     1
102
RTVSPropertyOp29
 70
     1
102
RTVSPropertyOp30
 70
     1
102
RTVSPropertyOp31
 70
     1
102
RTVSPropertyOp32
 70
     1
102
RTVSPropertyOp33
 70
     1
102
RTVSPropertyOp34
 70
     1
102
RTVSPropertyOp35
 70
     1
102
RTVSPropertyOp36
 70
     1
102
RTVSPropertyOp37
 70
     1
102
RTVSPropertyOp38
 70
     1
102
RTVSPropertyOp39
 70
     1
102
RTVSPropertyOp40
 70
     1
102
RTVSPropertyOp41
 70
     1
102
RTVSPropertyOp42
 70
     1
102
RTVSPropertyOp43
 70
     1
102
RTVSPropertyOp44
 70
     1
102
RTVSPropertyOp45
 70
     1
102
RTVSPropertyOp46
 70
     1
102
RTVSPropertyOp47
 70
     1
102
RTVSPropertyOp48
 70
     1
102
RTVSPropertyOp49
 70
     1
102
RTVSPropertyOp50
 70
     1
102
RTVSPropertyOp51
 70
     0
102
RTVSPropertyOp52
 70
     0
102
RTVSPropertyOp53
 70
     1
102
RTVSPropertyOp54
 70
     1
102
RTVSPropertyOp55
 70
     1
102
RTVSPropertyOp56
 70
     1
102
RTVSPropertyOp57
 70
     1
102
RTVSPost2010Prop28
280
     0
102
RTVSPost2010PropOp28
 70
     1
102
RTVSPost2010Prop29
280
     1
102
RTVSPost2010PropOp29
 70
     1
102
RTVSPost2010Prop30
280
     1
102
RTVSPost2010PropOp30
 70
     1
102
RTVSPost2010Prop31
280
     0
102
RTVSPost2010PropOp31
 70
     1
102
RTVSPost2010Prop32
280
     0
102
RTVSPost2010PropOp32
 70
     1
102
RTVSPost2010Prop33
280
     0
102
RTVSPost2010PropOp33
 70
     1
102
RTVSPost2010Prop34
280
     0
102
RTVSPost2010PropOp34
 70
     1
102
RTVSPost2010Prop35
280
     0
102
RTVSPost2010PropOp35
 70
     1
102
RTVSPost2010Prop36
280
     0
102
RTVSPost2010PropOp36
 70
     1
102
RTVSPost2010Prop37
 90
       50
102
RTVSPost2010PropOp37
 70
     1
102
RTVSPost2010Prop38
140
0.0
102
RTVSPost2010PropOp38
 70
     1
102
RTVSPost2010Prop39
140
1.0
102
RTVSPost2010PropOp39
 70
     1
102
RTVSPost2010Prop40
 90
        0
102
RTVSPost2010PropOp40
 70
     1
102
RTVSPost2010Prop41ColorIndex
 90
       18
102
RTVSPost2010Prop41ColorRGB
 90
        0
102
RTVSPost2010PropOp41
 70
     1
102
RTVSPost2010Prop42
 90
       50
102
RTVSPost2010PropOp42
 70
     1
102
RTVSPost2010Prop43
 90
        3
102
RTVSPost2010PropOp43
 70
     1
102
RTVSPost2010Prop44ColorIndex
 90
        5
102
RTVSPost2010Prop44ColorRGB
 90
      255
102
RTVSPost2010PropOp44
 70
     1
102
RTVSPost2010Prop45
280
     0
102
RTVSPost2010PropOp45
 70
     1
102
RTVSPost2010Prop46
 90
       50
102
RTVSPost2010PropOp46
 70
     1
102
RTVSPost2010Prop47
 90
       50
102
RTVSPost2010PropOp47
 70
     1
102
RTVSPost2010Prop48
 90
       50
102
RTVSPost2010PropOp48
 70
     1
102
RTVSPost2010Prop49
280
     0
102
RTVSPost2010PropOp49
 70
     1
102
RTVSPost2010Prop50
 90
       50
102
RTVSPost2010PropOp50
 70
     1
102
RTVSPost2010Prop51ColorIndex
 90
      256
102
RTVSPost2010Prop51ColorRGB
 90
-16777216
102
RTVSPost2010PropOp51
 70
     0
102
RTVSPost2010Prop52
140
1.0
102
RTVSPost2010PropOp52
 70
     0
102
RTVSPost2010Prop53
 90
        2
102
RTVSPost2010PropOp53
 70
     1
102
RTVSPost2010Prop54
  1
strokes_ogs.tif
102
RTVSPost2010PropOp54
 70
     1
102
RTVSPost2010Prop55
280
     0
102
RTVSPost2010PropOp55
 70
     1
102
RTVSPost2010Prop56
140
1.0
102
RTVSPost2010PropOp56
 70
     1
102
RTVSPost2010Prop57
140
1.0
102
RTVSPost2010PropOp57
 70
     1
  0
XRECORD
  5
E0E00001C976
102
{ACAD_REACTORS
330
E0E00001C975
102
}
330
E0E00001C975
100
AcDbXrecord
280
     1
102
RTVSPropertyOp0
 70
     1
102
RTVSPropertyOp1
 70
     1
102
RTVSPropertyOp2
 70
     1
102
RTVSPropertyOp3
 70
     1
102
RTVSPropertyOp4
 70
     1
102
RTVSPropertyOp5
 70
     1
102
RTVSPropertyOp6
 70
     1
102
RTVSPropertyOp7
 70
     1
102
RTVSPropertyOp8
 70
     1
102
RTVSPropertyOp9
 70
     1
102
RTVSPropertyOp10
 70
     1
102
RTVSPropertyOp11
 70
     1
102
RTVSPropertyOp12
 70
     1
102
RTVSPropertyOp13
 70
     1
102
RTVSPropertyOp14
 70
     1
102
RTVSPropertyOp15
 70
     1
102
RTVSPropertyOp16
 70
     1
102
RTVSPropertyOp17
 70
     1
102
RTVSPropertyOp18
 70
     1
102
RTVSPropertyOp19
 70
     1
102
RTVSPropertyOp20
 70
     1
102
RTVSPropertyOp21
 70
     1
102
RTVSPropertyOp22
 70
     1
102
RTVSPropertyOp23
 70
     1
102
RTVSPropertyOp24
 70
     1
102
RTVSPropertyOp25
 70
     1
102
RTVSPropertyOp26
 70
     1
102
RTVSPropertyOp27
 70
     1
102
RTVSPropertyOp28
 70
     1
102
RTVSPropertyOp29
 70
     1
102
RTVSPropertyOp30
 70
     1
102
RTVSPropertyOp31
 70
     1
102
RTVSPropertyOp32
 70
     1
102
RTVSPropertyOp33
 70
     1
102
RTVSPropertyOp34
 70
     1
102
RTVSPropertyOp35
 70
     1
102
RTVSPropertyOp36
 70
     1
102
RTVSPropertyOp37
 70
     1
102
RTVSPropertyOp38
 70
     1
102
RTVSPropertyOp39
 70
     1
102
RTVSPropertyOp40
 70
     1
102
RTVSPropertyOp41
 70
     1
102
RTVSPropertyOp42
 70
     1
102
RTVSPropertyOp43
 70
     1
102
RTVSPropertyOp44
 70
     1
102
RTVSPropertyOp45
 70
     1
102
RTVSPropertyOp46
 70
     1
102
RTVSPropertyOp47
 70
     1
102
RTVSPropertyOp48
 70
     1
102
RTVSPropertyOp49
 70
     1
102
RTVSPropertyOp50
 70
     1
102
RTVSPropertyOp51
 70
     0
102
RTVSPropertyOp52
 70
     0
102
RTVSPropertyOp53
 70
     1
102
RTVSPropertyOp54
 70
     1
102
RTVSPropertyOp55
 70
     1
102
RTVSPropertyOp56
 70
     1
102
RTVSPropertyOp57
 70
     1
102
RTVSPost2010Prop28
280
     0
102
RTVSPost2010PropOp28
 70
     1
102
RTVSPost2010Prop29
280
     1
102
RTVSPost2010PropOp29
 70
     1
102
RTVSPost2010Prop30
280
     1
102
RTVSPost2010PropOp30
 70
     1
102
RTVSPost2010Prop31
280
     0
102
RTVSPost2010PropOp31
 70
     1
102
RTVSPost2010Prop32
280
     0
102
RTVSPost2010PropOp32
 70
     1
102
RTVSPost2010Prop33
280
     0
102
RTVSPost2010PropOp33
 70
     1
102
RTVSPost2010Prop34
280
     0
102
RTVSPost2010PropOp34
 70
     1
102
RTVSPost2010Prop35
280
     0
102
RTVSPost2010PropOp35
 70
     1
102
RTVSPost2010Prop36
280
     0
102
RTVSPost2010PropOp36
 70
     1
102
RTVSPost2010Prop37
 90
       50
102
RTVSPost2010PropOp37
 70
     1
102
RTVSPost2010Prop38
140
0.0
102
RTVSPost2010PropOp38
 70
     1
102
RTVSPost2010Prop39
140
1.0
102
RTVSPost2010PropOp39
 70
     1
102
RTVSPost2010Prop40
 90
        0
102
RTVSPost2010PropOp40
 70
     1
102
RTVSPost2010Prop41ColorIndex
 90
       18
102
RTVSPost2010Prop41ColorRGB
 90
        0
102
RTVSPost2010PropOp41
 70
     1
102
RTVSPost2010Prop42
 90
       50
102
RTVSPost2010PropOp42
 70
     1
102
RTVSPost2010Prop43
 90
        3
102
RTVSPost2010PropOp43
 70
     1
102
RTVSPost2010Prop44ColorIndex
 90
        5
102
RTVSPost2010Prop44ColorRGB
 90
      255
102
RTVSPost2010PropOp44
 70
     1
102
RTVSPost2010Prop45
280
     0
102
RTVSPost2010PropOp45
 70
     1
102
RTVSPost2010Prop46
 90
       50
102
RTVSPost2010PropOp46
 70
     1
102
RTVSPost2010Prop47
 90
       50
102
RTVSPost2010PropOp47
 70
     1
102
RTVSPost2010Prop48
 90
       50
102
RTVSPost2010PropOp48
 70
     1
102
RTVSPost2010Prop49
280
     0
102
RTVSPost2010PropOp49
 70
     1
102
RTVSPost2010Prop50
 90
       50
102
RTVSPost2010PropOp50
 70
     1
102
RTVSPost2010Prop51ColorIndex
 90
      256
102
RTVSPost2010Prop51ColorRGB
 90
-16777216
102
RTVSPost2010PropOp51
 70
     0
102
RTVSPost2010Prop52
140
1.0
102
RTVSPost2010PropOp52
 70
     0
102
RTVSPost2010Prop53
 90
        2
102
RTVSPost2010PropOp53
 70
     1
102
RTVSPost2010Prop54
  1
strokes_ogs.tif
102
RTVSPost2010PropOp54
 70
     1
102
RTVSPost2010Prop55
280
     0
102
RTVSPost2010PropOp55
 70
     1
102
RTVSPost2010Prop56
140
1.0
102
RTVSPost2010PropOp56
 70
     1
102
RTVSPost2010Prop57
140
1.0
102
RTVSPost2010PropOp57
 70
     1
  0
XRECORD
  5
E0E00001C968
102
{ACAD_REACTORS
330
E0E00001C967
102
}
330
E0E00001C967
100
AcDbXrecord
280
     1
102
RTVSPropertyOp0
 70
     1
102
RTVSPropertyOp1
 70
     1
102
RTVSPropertyOp2
 70
     1
102
RTVSPropertyOp3
 70
     1
102
RTVSPropertyOp4
 70
     1
102
RTVSPropertyOp5
 70
     1
102
RTVSPropertyOp6
 70
     1
102
RTVSPropertyOp7
 70
     1
102
RTVSPropertyOp8
 70
     1
102
RTVSPropertyOp9
 70
     1
102
RTVSPropertyOp10
 70
     1
102
RTVSPropertyOp11
 70
     1
102
RTVSPropertyOp12
 70
     1
102
RTVSPropertyOp13
 70
     1
102
RTVSPropertyOp14
 70
     1
102
RTVSPropertyOp15
 70
     1
102
RTVSPropertyOp16
 70
     1
102
RTVSPropertyOp17
 70
     1
102
RTVSPropertyOp18
 70
     1
102
RTVSPropertyOp19
 70
     1
102
RTVSPropertyOp20
 70
     1
102
RTVSPropertyOp21
 70
     1
102
RTVSPropertyOp22
 70
     1
102
RTVSPropertyOp23
 70
     1
102
RTVSPropertyOp24
 70
     1
102
RTVSPropertyOp25
 70
     1
102
RTVSPropertyOp26
 70
     1
102
RTVSPropertyOp27
 70
     1
102
RTVSPropertyOp28
 70
     1
102
RTVSPropertyOp29
 70
     1
102
RTVSPropertyOp30
 70
     1
102
RTVSPropertyOp31
 70
     1
102
RTVSPropertyOp32
 70
     1
102
RTVSPropertyOp33
 70
     1
102
RTVSPropertyOp34
 70
     1
102
RTVSPropertyOp35
 70
     1
102
RTVSPropertyOp36
 70
     1
102
RTVSPropertyOp37
 70
     1
102
RTVSPropertyOp38
 70
     1
102
RTVSPropertyOp39
 70
     1
102
RTVSPropertyOp40
 70
     1
102
RTVSPropertyOp41
 70
     1
102
RTVSPropertyOp42
 70
     1
102
RTVSPropertyOp43
 70
     1
102
RTVSPropertyOp44
 70
     1
102
RTVSPropertyOp45
 70
     1
102
RTVSPropertyOp46
 70
     1
102
RTVSPropertyOp47
 70
     1
102
RTVSPropertyOp48
 70
     1
102
RTVSPropertyOp49
 70
     1
102
RTVSPropertyOp50
 70
     1
102
RTVSPropertyOp51
 70
     0
102
RTVSPropertyOp52
 70
     0
102
RTVSPropertyOp53
 70
     1
102
RTVSPropertyOp54
 70
     1
102
RTVSPropertyOp55
 70
     1
102
RTVSPropertyOp56
 70
     1
102
RTVSPropertyOp57
 70
     1
102
RTVSPost2010Prop28
280
     0
102
RTVSPost2010PropOp28
 70
     1
102
RTVSPost2010Prop29
280
     1
102
RTVSPost2010PropOp29
 70
     1
102
RTVSPost2010Prop30
280
     1
102
RTVSPost2010PropOp30
 70
     1
102
RTVSPost2010Prop31
280
     0
102
RTVSPost2010PropOp31
 70
     1
102
RTVSPost2010Prop32
280
     0
102
RTVSPost2010PropOp32
 70
     1
102
RTVSPost2010Prop33
280
     0
102
RTVSPost2010PropOp33
 70
     1
102
RTVSPost2010Prop34
280
     0
102
RTVSPost2010PropOp34
 70
     1
102
RTVSPost2010Prop35
280
     0
102
RTVSPost2010PropOp35
 70
     1
102
RTVSPost2010Prop36
280
     0
102
RTVSPost2010PropOp36
 70
     1
102
RTVSPost2010Prop37
 90
       50
102
RTVSPost2010PropOp37
 70
     1
102
RTVSPost2010Prop38
140
0.0
102
RTVSPost2010PropOp38
 70
     1
102
RTVSPost2010Prop39
140
1.0
102
RTVSPost2010PropOp39
 70
     1
102
RTVSPost2010Prop40
 90
        0
102
RTVSPost2010PropOp40
 70
     1
102
RTVSPost2010Prop41ColorIndex
 90
       18
102
RTVSPost2010Prop41ColorRGB
 90
        0
102
RTVSPost2010PropOp41
 70
     1
102
RTVSPost2010Prop42
 90
       50
102
RTVSPost2010PropOp42
 70
     1
102
RTVSPost2010Prop43
 90
        3
102
RTVSPost2010PropOp43
 70
     1
102
RTVSPost2010Prop44ColorIndex
 90
        5
102
RTVSPost2010Prop44ColorRGB
 90
      255
102
RTVSPost2010PropOp44
 70
     1
102
RTVSPost2010Prop45
280
     0
102
RTVSPost2010PropOp45
 70
     1
102
RTVSPost2010Prop46
 90
       50
102
RTVSPost2010PropOp46
 70
     1
102
RTVSPost2010Prop47
 90
       50
102
RTVSPost2010PropOp47
 70
     1
102
RTVSPost2010Prop48
 90
       50
102
RTVSPost2010PropOp48
 70
     1
102
RTVSPost2010Prop49
280
     0
102
RTVSPost2010PropOp49
 70
     1
102
RTVSPost2010Prop50
 90
       50
102
RTVSPost2010PropOp50
 70
     1
102
RTVSPost2010Prop51ColorIndex
 90
      256
102
RTVSPost2010Prop51ColorRGB
 90
-16777216
102
RTVSPost2010PropOp51
 70
     0
102
RTVSPost2010Prop52
140
1.0
102
RTVSPost2010PropOp52
 70
     0
102
RTVSPost2010Prop53
 90
        2
102
RTVSPost2010PropOp53
 70
     1
102
RTVSPost2010Prop54
  1
strokes_ogs.tif
102
RTVSPost2010PropOp54
 70
     1
102
RTVSPost2010Prop55
280
     0
102
RTVSPost2010PropOp55
 70
     1
102
RTVSPost2010Prop56
140
1.0
102
RTVSPost2010PropOp56
 70
     1
102
RTVSPost2010Prop57
140
1.0
102
RTVSPost2010PropOp57
 70
     1
  0
XRECORD
  5
E0E00001C96A
102
{ACAD_REACTORS
330
E0E00001C969
102
}
330
E0E00001C969
100
AcDbXrecord
280
     1
102
RTVSPropertyOp0
 70
     1
102
RTVSPropertyOp1
 70
     1
102
RTVSPropertyOp2
 70
     1
102
RTVSPropertyOp3
 70
     1
102
RTVSPropertyOp4
 70
     1
102
RTVSPropertyOp5
 70
     1
102
RTVSPropertyOp6
 70
     1
102
RTVSPropertyOp7
 70
     1
102
RTVSPropertyOp8
 70
     1
102
RTVSPropertyOp9
 70
     1
102
RTVSPropertyOp10
 70
     1
102
RTVSPropertyOp11
 70
     1
102
RTVSPropertyOp12
 70
     1
102
RTVSPropertyOp13
 70
     1
102
RTVSPropertyOp14
 70
     1
102
RTVSPropertyOp15
 70
     1
102
RTVSPropertyOp16
 70
     1
102
RTVSPropertyOp17
 70
     1
102
RTVSPropertyOp18
 70
     1
102
RTVSPropertyOp19
 70
     1
102
RTVSPropertyOp20
 70
     1
102
RTVSPropertyOp21
 70
     1
102
RTVSPropertyOp22
 70
     1
102
RTVSPropertyOp23
 70
     1
102
RTVSPropertyOp24
 70
     1
102
RTVSPropertyOp25
 70
     1
102
RTVSPropertyOp26
 70
     1
102
RTVSPropertyOp27
 70
     1
102
RTVSPropertyOp28
 70
     1
102
RTVSPropertyOp29
 70
     1
102
RTVSPropertyOp30
 70
     1
102
RTVSPropertyOp31
 70
     1
102
RTVSPropertyOp32
 70
     1
102
RTVSPropertyOp33
 70
     1
102
RTVSPropertyOp34
 70
     1
102
RTVSPropertyOp35
 70
     1
102
RTVSPropertyOp36
 70
     1
102
RTVSPropertyOp37
 70
     1
102
RTVSPropertyOp38
 70
     1
102
RTVSPropertyOp39
 70
     1
102
RTVSPropertyOp40
 70
     1
102
RTVSPropertyOp41
 70
     1
102
RTVSPropertyOp42
 70
     1
102
RTVSPropertyOp43
 70
     1
102
RTVSPropertyOp44
 70
     1
102
RTVSPropertyOp45
 70
     1
102
RTVSPropertyOp46
 70
     1
102
RTVSPropertyOp47
 70
     1
102
RTVSPropertyOp48
 70
     1
102
RTVSPropertyOp49
 70
     1
102
RTVSPropertyOp50
 70
     1
102
RTVSPropertyOp51
 70
     0
102
RTVSPropertyOp52
 70
     0
102
RTVSPropertyOp53
 70
     1
102
RTVSPropertyOp54
 70
     1
102
RTVSPropertyOp55
 70
     1
102
RTVSPropertyOp56
 70
     1
102
RTVSPropertyOp57
 70
     1
102
RTVSPost2010Prop28
280
     0
102
RTVSPost2010PropOp28
 70
     1
102
RTVSPost2010Prop29
280
     1
102
RTVSPost2010PropOp29
 70
     1
102
RTVSPost2010Prop30
280
     1
102
RTVSPost2010PropOp30
 70
     1
102
RTVSPost2010Prop31
280
     0
102
RTVSPost2010PropOp31
 70
     1
102
RTVSPost2010Prop32
280
     0
102
RTVSPost2010PropOp32
 70
     1
102
RTVSPost2010Prop33
280
     0
102
RTVSPost2010PropOp33
 70
     1
102
RTVSPost2010Prop34
280
     0
102
RTVSPost2010PropOp34
 70
     1
102
RTVSPost2010Prop35
280
     0
102
RTVSPost2010PropOp35
 70
     1
102
RTVSPost2010Prop36
280
     0
102
RTVSPost2010PropOp36
 70
     1
102
RTVSPost2010Prop37
 90
       50
102
RTVSPost2010PropOp37
 70
     1
102
RTVSPost2010Prop38
140
0.0
102
RTVSPost2010PropOp38
 70
     1
102
RTVSPost2010Prop39
140
1.0
102
RTVSPost2010PropOp39
 70
     1
102
RTVSPost2010Prop40
 90
        0
102
RTVSPost2010PropOp40
 70
     1
102
RTVSPost2010Prop41ColorIndex
 90
       18
102
RTVSPost2010Prop41ColorRGB
 90
        0
102
RTVSPost2010PropOp41
 70
     1
102
RTVSPost2010Prop42
 90
       50
102
RTVSPost2010PropOp42
 70
     1
102
RTVSPost2010Prop43
 90
        3
102
RTVSPost2010PropOp43
 70
     1
102
RTVSPost2010Prop44ColorIndex
 90
        5
102
RTVSPost2010Prop44ColorRGB
 90
      255
102
RTVSPost2010PropOp44
 70
     1
102
RTVSPost2010Prop45
280
     0
102
RTVSPost2010PropOp45
 70
     1
102
RTVSPost2010Prop46
 90
       50
102
RTVSPost2010PropOp46
 70
     1
102
RTVSPost2010Prop47
 90
       50
102
RTVSPost2010PropOp47
 70
     1
102
RTVSPost2010Prop48
 90
       50
102
RTVSPost2010PropOp48
 70
     1
102
RTVSPost2010Prop49
280
     0
102
RTVSPost2010PropOp49
 70
     1
102
RTVSPost2010Prop50
 90
       50
102
RTVSPost2010PropOp50
 70
     1
102
RTVSPost2010Prop51ColorIndex
 90
      256
102
RTVSPost2010Prop51ColorRGB
 90
-16777216
102
RTVSPost2010PropOp51
 70
     0
102
RTVSPost2010Prop52
140
1.0
102
RTVSPost2010PropOp52
 70
     0
102
RTVSPost2010Prop53
 90
        2
102
RTVSPost2010PropOp53
 70
     1
102
RTVSPost2010Prop54
  1
strokes_ogs.tif
102
RTVSPost2010PropOp54
 70
     1
102
RTVSPost2010Prop55
280
     0
102
RTVSPost2010PropOp55
 70
     1
102
RTVSPost2010Prop56
140
1.0
102
RTVSPost2010PropOp56
 70
     1
102
RTVSPost2010Prop57
140
1.0
102
RTVSPost2010PropOp57
 70
     1
  0
XRECORD
  5
E0E00001C978
102
{ACAD_REACTORS
330
E0E00001C977
102
}
330
E0E00001C977
100
AcDbXrecord
280
     1
102
RTVSPropertyOp0
 70
     1
102
RTVSPropertyOp1
 70
     1
102
RTVSPropertyOp2
 70
     1
102
RTVSPropertyOp3
 70
     1
102
RTVSPropertyOp4
 70
     1
102
RTVSPropertyOp5
 70
     1
102
RTVSPropertyOp6
 70
     1
102
RTVSPropertyOp7
 70
     1
102
RTVSPropertyOp8
 70
     1
102
RTVSPropertyOp9
 70
     1
102
RTVSPropertyOp10
 70
     1
102
RTVSPropertyOp11
 70
     1
102
RTVSPropertyOp12
 70
     1
102
RTVSPropertyOp13
 70
     1
102
RTVSPropertyOp14
 70
     1
102
RTVSPropertyOp15
 70
     1
102
RTVSPropertyOp16
 70
     1
102
RTVSPropertyOp17
 70
     1
102
RTVSPropertyOp18
 70
     1
102
RTVSPropertyOp19
 70
     1
102
RTVSPropertyOp20
 70
     1
102
RTVSPropertyOp21
 70
     1
102
RTVSPropertyOp22
 70
     1
102
RTVSPropertyOp23
 70
     1
102
RTVSPropertyOp24
 70
     1
102
RTVSPropertyOp25
 70
     1
102
RTVSPropertyOp26
 70
     1
102
RTVSPropertyOp27
 70
     1
102
RTVSPropertyOp28
 70
     1
102
RTVSPropertyOp29
 70
     1
102
RTVSPropertyOp30
 70
     1
102
RTVSPropertyOp31
 70
     1
102
RTVSPropertyOp32
 70
     1
102
RTVSPropertyOp33
 70
     1
102
RTVSPropertyOp34
 70
     1
102
RTVSPropertyOp35
 70
     1
102
RTVSPropertyOp36
 70
     1
102
RTVSPropertyOp37
 70
     1
102
RTVSPropertyOp38
 70
     1
102
RTVSPropertyOp39
 70
     1
102
RTVSPropertyOp40
 70
     1
102
RTVSPropertyOp41
 70
     1
102
RTVSPropertyOp42
 70
     1
102
RTVSPropertyOp43
 70
     1
102
RTVSPropertyOp44
 70
     1
102
RTVSPropertyOp45
 70
     1
102
RTVSPropertyOp46
 70
     1
102
RTVSPropertyOp47
 70
     1
102
RTVSPropertyOp48
 70
     1
102
RTVSPropertyOp49
 70
     1
102
RTVSPropertyOp50
 70
     1
102
RTVSPropertyOp51
 70
     0
102
RTVSPropertyOp52
 70
     0
102
RTVSPropertyOp53
 70
     1
102
RTVSPropertyOp54
 70
     1
102
RTVSPropertyOp55
 70
     1
102
RTVSPropertyOp56
 70
     1
102
RTVSPropertyOp57
 70
     1
102
RTVSPost2010Prop28
280
     0
102
RTVSPost2010PropOp28
 70
     1
102
RTVSPost2010Prop29
280
     1
102
RTVSPost2010PropOp29
 70
     1
102
RTVSPost2010Prop30
280
     1
102
RTVSPost2010PropOp30
 70
     1
102
RTVSPost2010Prop31
280
     0
102
RTVSPost2010PropOp31
 70
     1
102
RTVSPost2010Prop32
280
     0
102
RTVSPost2010PropOp32
 70
     1
102
RTVSPost2010Prop33
280
     0
102
RTVSPost2010PropOp33
 70
     1
102
RTVSPost2010Prop34
280
     0
102
RTVSPost2010PropOp34
 70
     1
102
RTVSPost2010Prop35
280
     0
102
RTVSPost2010PropOp35
 70
     1
102
RTVSPost2010Prop36
280
     0
102
RTVSPost2010PropOp36
 70
     1
102
RTVSPost2010Prop37
 90
       50
102
RTVSPost2010PropOp37
 70
     1
102
RTVSPost2010Prop38
140
0.0
102
RTVSPost2010PropOp38
 70
     1
102
RTVSPost2010Prop39
140
1.0
102
RTVSPost2010PropOp39
 70
     1
102
RTVSPost2010Prop40
 90
        0
102
RTVSPost2010PropOp40
 70
     1
102
RTVSPost2010Prop41ColorIndex
 90
       18
102
RTVSPost2010Prop41ColorRGB
 90
        0
102
RTVSPost2010PropOp41
 70
     1
102
RTVSPost2010Prop42
 90
       50
102
RTVSPost2010PropOp42
 70
     1
102
RTVSPost2010Prop43
 90
        3
102
RTVSPost2010PropOp43
 70
     1
102
RTVSPost2010Prop44ColorIndex
 90
        5
102
RTVSPost2010Prop44ColorRGB
 90
      255
102
RTVSPost2010PropOp44
 70
     1
102
RTVSPost2010Prop45
280
     0
102
RTVSPost2010PropOp45
 70
     1
102
RTVSPost2010Prop46
 90
       50
102
RTVSPost2010PropOp46
 70
     1
102
RTVSPost2010Prop47
 90
       50
102
RTVSPost2010PropOp47
 70
     1
102
RTVSPost2010Prop48
 90
       50
102
RTVSPost2010PropOp48
 70
     1
102
RTVSPost2010Prop49
280
     0
102
RTVSPost2010PropOp49
 70
     1
102
RTVSPost2010Prop50
 90
       50
102
RTVSPost2010PropOp50
 70
     1
102
RTVSPost2010Prop51ColorIndex
 90
      256
102
RTVSPost2010Prop51ColorRGB
 90
-16777216
102
RTVSPost2010PropOp51
 70
     0
102
RTVSPost2010Prop52
140
1.0
102
RTVSPost2010PropOp52
 70
     0
102
RTVSPost2010Prop53
 90
        2
102
RTVSPost2010PropOp53
 70
     1
102
RTVSPost2010Prop54
  1
strokes_ogs.tif
102
RTVSPost2010PropOp54
 70
     1
102
RTVSPost2010Prop55
280
     0
102
RTVSPost2010PropOp55
 70
     1
102
RTVSPost2010Prop56
140
1.0
102
RTVSPost2010PropOp56
 70
     1
102
RTVSPost2010Prop57
140
1.0
102
RTVSPost2010PropOp57
 70
     1
  0
ENDSEC
  0
EOF
