  0
SECTION
  2
HEADER
  9
$ACADVER
  1
AC1015
  9
$ACADMAINTVER
 70
     6
  9
$DWGCODEPAGE
  3
ANSI_1252
  9
$INSBASE
 10
28076.96397904035
 20
-1836.627949591852
 30
0.0
  9
$EXTMIN
 10
27475.96057151388
 20
-1836.627949592102
 30
0.0
  9
$EXTMAX
 10
28076.96397904035
 20
-70.62795027765787
 30
0.0
  9
$LIMMIN
 10
0.0
 20
0.0
  9
$LIMMAX
 10
420.0
 20
297.0
  9
$ORTHOMODE
 70
     1
  9
$REGENMODE
 70
     1
  9
$FILLMODE
 70
     1
  9
$QTEXTMODE
 70
     0
  9
$MIRRTEXT
 70
     0
  9
$LTSCALE
 40
1.0
  9
$ATTMODE
 70
     1
  9
$TEXTSIZE
 40
13.64511660128801
  9
$TRACEWID
 40
1.0
  9
$TEXTSTYLE
  7
Standard
  9
$CLAYER
  8
0
  9
$CELTYPE
  6
ByLayer
  9
$CECOLOR
 62
   256
  9
$CELTSCALE
 40
1.0
  9
$DISPSILH
 70
     0
  9
$DIMSCALE
 40
25.0
  9
$DIMASZ
 40
2.5
  9
$DIMEXO
 40
0.625
  9
$DIMDLI
 40
3.75
  9
$DIMRND
 40
0.0
  9
$DIMDLE
 40
0.0
  9
$DIMEXE
 40
1.25
  9
$DIMTP
 40
0.0
  9
$DIMTM
 40
0.0
  9
$DIMTXT
 40
2.5
  9
$DIMCEN
 40
2.5
  9
$DIMTSZ
 40
0.0
  9
$DIMTOL
 70
     0
  9
$DIMLIM
 70
     0
  9
$DIMTIH
 70
     0
  9
$DIMTOH
 70
     0
  9
$DIMSE1
 70
     0
  9
$DIMSE2
 70
     0
  9
$DIMTAD
 70
     1
  9
$DIMZIN
 70
     8
  9
$DIMBLK
  1

  9
$DIMASO
 70
     1
  9
$DIMSHO
 70
     1
  9
$DIMPOST
  1

  9
$DIMAPOST
  1

  9
$DIMALT
 70
     0
  9
$DIMALTD
 70
     3
  9
$DIMALTF
 40
0.03937007874016
  9
$DIMLFAC
 40
1.0
  9
$DIMTOFL
 70
     1
  9
$DIMTVP
 40
0.0
  9
$DIMTIX
 70
     0
  9
$DIMSOXD
 70
     0
  9
$DIMSAH
 70
     0
  9
$DIMBLK1
  1

  9
$DIMBLK2
  1

  9
$DIMSTYLE
  2
ISO-25MW
  9
$DIMCLRD
 70
     5
  9
$DIMCLRE
 70
     5
  9
$DIMCLRT
 70
     3
  9
$DIMTFAC
 40
1.0
  9
$DIMGAP
 40
0.625
  9
$DIMJUST
 70
     0
  9
$DIMSD1
 70
     0
  9
$DIMSD2
 70
     0
  9
$DIMTOLJ
 70
     0
  9
$DIMTZIN
 70
     8
  9
$DIMALTZ
 70
     0
  9
$DIMALTTZ
 70
     0
  9
$DIMUPT
 70
     0
  9
$DIMDEC
 70
     2
  9
$DIMTDEC
 70
     2
  9
$DIMALTU
 70
     2
  9
$DIMALTTD
 70
     3
  9
$DIMTXSTY
  7
Standard
  9
$DIMAUNIT
 70
     0
  9
$DIMADEC
 70
     0
  9
$DIMALTRND
 40
0.0
  9
$DIMAZIN
 70
     0
  9
$DIMDSEP
 70
    44
  9
$DIMATFIT
 70
     3
  9
$DIMFRAC
 70
     0
  9
$DIMLDRBLK
  1

  9
$DIMLUNIT
 70
     2
  9
$DIMLWD
 70
    -2
  9
$DIMLWE
 70
    -2
  9
$DIMTMOVE
 70
     0
  9
$LUNITS
 70
     2
  9
$LUPREC
 70
     4
  9
$SKETCHINC
 40
1.0
  9
$FILLETRAD
 40
0.0
  9
$AUNITS
 70
     0
  9
$AUPREC
 70
     0
  9
$MENU
  1
.
  9
$ELEVATION
 40
0.0
  9
$PELEVATION
 40
0.0
  9
$THICKNESS
 40
0.0
  9
$LIMCHECK
 70
     0
  9
$CHAMFERA
 40
0.0
  9
$CHAMFERB
 40
0.0
  9
$CHAMFERC
 40
0.0
  9
$CHAMFERD
 40
0.0
  9
$SKPOLY
 70
     0
  9
$TDCREATE
 40
2454183.473353576
  9
$TDUCREATE
 40
2454183.43168691
  9
$TDUPDATE
 40
2460390.467768634
  9
$TDUUPDATE
 40
2460390.426101968
  9
$TDINDWG
 40
0.2344088194
  9
$TDUSRTIMER
 40
0.2344086458
  9
$USRTIMER
 70
     1
  9
$ANGBASE
 50
0.0
  9
$ANGDIR
 70
     0
  9
$PDMODE
 70
     0
  9
$PDSIZE
 40
0.0
  9
$PLINEWID
 40
0.0
  9
$SPLFRAME
 70
     0
  9
$SPLINETYPE
 70
     6
  9
$SPLINESEGS
 70
    10
  9
$HANDSEED
  5
29A
  9
$SURFTAB1
 70
     6
  9
$SURFTAB2
 70
     6
  9
$SURFTYPE
 70
     6
  9
$SURFU
 70
     6
  9
$SURFV
 70
     6
  9
$UCSBASE
  2

  9
$UCSNAME
  2

  9
$UCSORG
 10
0.0
 20
0.0
 30
0.0
  9
$UCSXDIR
 10
1.0
 20
0.0
 30
0.0
  9
$UCSYDIR
 10
0.0
 20
1.0
 30
0.0
  9
$UCSORTHOREF
  2

  9
$UCSORTHOVIEW
 70
     0
  9
$UCSORGTOP
 10
0.0
 20
0.0
 30
0.0
  9
$UCSORGBOTTOM
 10
0.0
 20
0.0
 30
0.0
  9
$UCSORGLEFT
 10
0.0
 20
0.0
 30
0.0
  9
$UCSORGRIGHT
 10
0.0
 20
0.0
 30
0.0
  9
$UCSORGFRONT
 10
0.0
 20
0.0
 30
0.0
  9
$UCSORGBACK
 10
0.0
 20
0.0
 30
0.0
  9
$PUCSBASE
  2

  9
$PUCSNAME
  2

  9
$PUCSORG
 10
0.0
 20
0.0
 30
0.0
  9
$PUCSXDIR
 10
1.0
 20
0.0
 30
0.0
  9
$PUCSYDIR
 10
0.0
 20
1.0
 30
0.0
  9
$PUCSORTHOREF
  2

  9
$PUCSORTHOVIEW
 70
     0
  9
$PUCSORGTOP
 10
0.0
 20
0.0
 30
0.0
  9
$PUCSORGBOTTOM
 10
0.0
 20
0.0
 30
0.0
  9
$PUCSORGLEFT
 10
0.0
 20
0.0
 30
0.0
  9
$PUCSORGRIGHT
 10
0.0
 20
0.0
 30
0.0
  9
$PUCSORGFRONT
 10
0.0
 20
0.0
 30
0.0
  9
$PUCSORGBACK
 10
0.0
 20
0.0
 30
0.0
  9
$USERI1
 70
     0
  9
$USERI2
 70
     0
  9
$USERI3
 70
     0
  9
$USERI4
 70
     0
  9
$USERI5
 70
     0
  9
$USERR1
 40
0.0
  9
$USERR2
 40
0.0
  9
$USERR3
 40
0.0
  9
$USERR4
 40
0.0
  9
$USERR5
 40
0.0
  9
$WORLDVIEW
 70
     1
  9
$SHADEDGE
 70
     3
  9
$SHADEDIF
 70
    70
  9
$TILEMODE
 70
     1
  9
$MAXACTVP
 70
    64
  9
$PINSBASE
 10
0.0
 20
0.0
 30
0.0
  9
$PLIMCHECK
 70
     0
  9
$PEXTMIN
 10
28.68718261718749
 20
19.6363175392151
 30
0.0
  9
$PEXTMAX
 10
258.1846435546875
 20
176.7268578529358
 30
0.0
  9
$PLIMMIN
 10
-5.027069091796875
 20
-6.805083274841309
  9
$PLIMMAX
 10
291.9835815429688
 20
203.2105875015259
  9
$UNITMODE
 70
     0
  9
$VISRETAIN
 70
     1
  9
$PLINEGEN
 70
     0
  9
$PSLTSCALE
 70
     1
  9
$TREEDEPTH
 70
  3020
  9
$CMLSTYLE
  2
Standard
  9
$CMLJUST
 70
     0
  9
$CMLSCALE
 40
20.0
  9
$PROXYGRAPHICS
 70
     1
  9
$MEASUREMENT
 70
     1
  9
$CELWEIGHT
370
    -1
  9
$ENDCAPS
280
     0
  9
$JOINSTYLE
280
     0
  9
$LWDISPLAY
290
     0
  9
$INSUNITS
 70
     4
  9
$HYPERLINKBASE
  1

  9
$STYLESHEET
  1

  9
$XEDIT
290
     1
  9
$CEPSNTYPE
380
     0
  9
$PSTYLEMODE
290
     1
  9
$FINGERPRINTGUID
  2
{9909FCED-3BB7-4FD6-AEF5-029B6342C0B2}
  9
$VERSIONGUID
  2
{00074914-134B-4B39-BD28-AD5E796A7C2C}
  9
$EXTNAMES
290
     1
  9
$PSVPSCALE
 40
0.0
  9
$OLESTARTUP
290
     0
  0
ENDSEC
  0
SECTION
  2
CLASSES
  0
CLASS
  1
ACDBDICTIONARYWDFLT
  2
AcDbDictionaryWithDefault
  3
ObjectDBX Classes
 90
        0
280
     0
281
     0
  0
CLASS
  1
MATERIAL
  2
AcDbMaterial
  3
ObjectDBX Classes
 90
     1153
280
     0
281
     0
  0
CLASS
  1
VISUALSTYLE
  2
AcDbVisualStyle
  3
ObjectDBX Classes
 90
     4095
280
     0
281
     0
  0
CLASS
  1
TABLESTYLE
  2
AcDbTableStyle
  3
ObjectDBX Classes
 90
     4095
280
     0
281
     0
  0
CLASS
  1
DIMASSOC
  2
AcDbDimAssoc
  3
"AcDbDimAssoc|Product Desc:     AcDim ARX App For Dimension|Company:          Autodesk, Inc.|WEB Address:      www.autodesk.com"
 90
        0
280
     0
281
     0
  0
CLASS
  1
SORTENTSTABLE
  2
AcDbSortentsTable
  3
ObjectDBX Classes
 90
        0
280
     0
281
     0
  0
CLASS
  1
DICTIONARYVAR
  2
AcDbDictionaryVar
  3
ObjectDBX Classes
 90
        0
280
     0
281
     0
  0
CLASS
  1
GRADIENT_BACKGROUND
  2
AcDbGradientBackground
  3
SCENEOE
 90
     4095
280
     0
281
     0
  0
CLASS
  1
ACSH_HISTORY_CLASS
  2
AcDbShHistory
  3
ObjectDBX Classes
 90
     1153
280
     1
281
     0
  0
CLASS
  1
ACAD_EVALUATION_GRAPH
  2
AcDbEvalGraph
  3
ObjectDBX Classes
 90
     1153
280
     1
281
     0
  0
CLASS
  1
MENTALRAYRENDERSETTINGS
  2
AcDbMentalRayRenderSettings
  3
SCENEOE
 90
     1024
280
     0
281
     0
  0
CLASS
  1
RENDERGLOBAL
  2
AcDbRenderGlobal
  3
SCENEOE
 90
     1024
280
     0
281
     0
  0
CLASS
  1
EXACXREFPANELOBJECT
  2
ExAcXREFPanelObject
  3
EXAC_ESW
 90
        0
280
     1
281
     0
  0
CLASS
  1
ACAECUSTOBJ
  2
AcAeEditorObj
  3
AcAeEditorObj
 90
     1024
280
     1
281
     0
  0
CLASS
  1
ACDB_DYNAMICBLOCKPURGEPREVENTER_VERSION
  2
AcDbDynamicBlockPurgePreventer
  3
ObjectDBX Classes
 90
     1153
280
     1
281
     0
  0
CLASS
  1
SOLID_BACKGROUND
  2
AcDbSolidBackground
  3
SCENEOE
 90
     4095
280
     0
281
     0
  0
CLASS
  1
NPOCOLLECTION
  2
AcDbImpNonPersistentObjectsCollection
  3
ObjectDBX Classes
 90
     1153
280
     1
281
     0
  0
CLASS
  1
ACDBPLACEHOLDER
  2
AcDbPlaceHolder
  3
ObjectDBX Classes
 90
        0
280
     0
281
     0
  0
CLASS
  1
LAYOUT
  2
AcDbLayout
  3
ObjectDBX Classes
 90
        0
280
     0
281
     0
  0
CLASS
  1
SCALE
  2
AcDbScale
  3
ObjectDBX Classes
 90
     1153
280
     0
281
     0
  0
CLASS
  1
MLEADERSTYLE
  2
AcDbMLeaderStyle
  3
ACDB_MLEADERSTYLE_CLASS
 90
     4095
280
     0
281
     0
  0
CLASS
  1
ACDBSECTIONVIEWSTYLE
  2
AcDbSectionViewStyle
  3
ObjectDBX Classes
 90
     1025
280
     0
281
     0
  0
CLASS
  1
ACDBDETAILVIEWSTYLE
  2
AcDbDetailViewStyle
  3
ObjectDBX Classes
 90
     1025
280
     0
281
     0
  0
ENDSEC
  0
SECTION
  2
TABLES
  0
TABLE
  2
VPORT
  5
26
102
{ACAD_XDICTIONARY
360
28
102
}
330
0
100
AcDbSymbolTable
 70
     1
  0
VPORT
  5
27
330
26
100
AcDbSymbolTableRecord
100
AcDbViewportTableRecord
  2
*Active
 70
     0
 10
0.0
 20
0.0
 11
1.0
 21
1.0
 12
3561.458382624224
 22
-6938.564551804431
 13
0.0
 23
0.0
 14
10.0
 24
10.0
 15
10.0
 25
10.0
 16
0.0
 26
0.0
 36
1.0
 17
24215.61165324722
 27
5985.022711346184
 37
0.0
 40
1779.886102936453
 41
1.85880829015544
 42
50.0
 43
0.0
 44
0.0
 50
0.0
 51
0.0
 71
     0
 72
  1000
 73
     1
 74
     3
 75
     0
 76
     0
 77
     0
 78
     0
281
     0
 65
     1
110
0.0
120
0.0
130
0.0
111
1.0
121
0.0
131
0.0
112
0.0
122
1.0
132
0.0
 79
     0
146
0.0
1001
ACAD_NAV_VCDISPLAY
1070
     3
  0
ENDTAB
  0
TABLE
  2
LTYPE
  5
21
330
0
100
AcDbSymbolTable
 70
     3
  0
LTYPE
  5
22
330
21
100
AcDbSymbolTableRecord
100
AcDbLinetypeTableRecord
  2
ByBlock
 70
     0
  3

 72
    65
 73
     0
 40
0.0
  0
LTYPE
  5
23
330
21
100
AcDbSymbolTableRecord
100
AcDbLinetypeTableRecord
  2
ByLayer
 70
     0
  3

 72
    65
 73
     0
 40
0.0
  0
LTYPE
  5
10
330
21
100
AcDbSymbolTableRecord
100
AcDbLinetypeTableRecord
  2
Continuous
 70
     0
  3
Solid line
 72
    65
 73
     0
 40
0.0
  0
LTYPE
  5
42
330
21
100
AcDbSymbolTableRecord
100
AcDbLinetypeTableRecord
  2
VERDECKT
 70
     0
  3
Verdeckt __ __ __ __ __ __ __ __ __ __ __ __ __
 72
    65
 73
     2
 40
0.375
 49
0.25
 74
     0
 49
-0.125
 74
     0
  0
LTYPE
  5
73
330
21
100
AcDbSymbolTableRecord
100
AcDbLinetypeTableRecord
  2
MITTE
 70
     0
  3
Mitte ____ _ ____ _ ____ _ ____ _ ____ _ ____
 72
    65
 73
     4
 40
50.8
 49
31.75
 74
     0
 49
-6.35
 74
     0
 49
6.35
 74
     0
 49
-6.35
 74
     0
  0
ENDTAB
  0
TABLE
  2
LAYER
  5
1B
102
{ACAD_XDICTIONARY
360
1C
102
}
330
0
100
AcDbSymbolTable
 70
     1
  0
LAYER
  5
6
102
{ACAD_XDICTIONARY
360
241
102
}
330
1B
100
AcDbSymbolTableRecord
100
AcDbLayerTableRecord
  2
0
 70
     0
 62
     7
  6
Continuous
370
    -3
390
E
  0
ENDTAB
  0
TABLE
  2
STYLE
  5
1E
330
0
100
AcDbSymbolTable
 70
     1
  0
STYLE
  5
1F
330
1E
100
AcDbSymbolTableRecord
100
AcDbTextStyleTableRecord
  2
Standard
 70
     0
 40
0.0
 41
1.0
 50
0.0
 71
     0
 42
13.64511660128801
  3
txt
  4

  0
ENDTAB
  0
TABLE
  2
VIEW
  5
24
330
0
100
AcDbSymbolTable
 70
     0
  0
ENDTAB
  0
TABLE
  2
UCS
  5
25
330
0
100
AcDbSymbolTable
 70
     0
  0
ENDTAB
  0
TABLE
  2
APPID
  5
2D
330
0
100
AcDbSymbolTable
 70
     4
  0
APPID
  5
2C
330
2D
100
AcDbSymbolTableRecord
100
AcDbRegAppTableRecord
  2
ACAD
 70
     0
  0
APPID
  5
1A
330
2D
100
AcDbSymbolTableRecord
100
AcDbRegAppTableRecord
  2
ACAD_PSEXT
 70
     0
  0
APPID
  5
226
330
2D
100
AcDbSymbolTableRecord
100
AcDbRegAppTableRecord
  2
ACAD_NAV_VCDISPLAY
 70
     0
  0
APPID
  5
266
330
2D
100
AcDbSymbolTableRecord
100
AcDbRegAppTableRecord
  2
ACAD_MLEADERVER
 70
     0
  0
ENDTAB
  0
TABLE
  2
DIMSTYLE
  5
2E
330
0
100
AcDbSymbolTable
 70
     2
100
AcDbDimStyleTable
  0
DIMSTYLE
105
2F
330
2E
100
AcDbSymbolTableRecord
100
AcDbDimStyleTableRecord
  2
ISO-25MW
 70
     0
 40
25.0
 41
2.5
 42
0.625
 43
3.75
 44
1.25
 73
     0
 74
     0
 77
     1
 78
     8
140
2.5
141
2.5
143
0.03937007874016
147
0.625
171
     3
172
     1
176
     5
177
     5
271
     2
178
     3
271
     2
272
     2
274
     3
278
    44
283
     0
284
     8
340
1F
  0
DIMSTYLE
105
30
330
2E
100
AcDbSymbolTableRecord
100
AcDbDimStyleTableRecord
  2
aISO-25MW
 70
     0
 40
25.0
 41
2.5
 42
0.625
 43
3.75
 44
1.25
 73
     0
 74
     0
 77
     1
 78
     8
140
2.5
141
2.5
143
0.03937007874016
147
0.625
171
     3
172
     1
176
     5
177
     5
271
     0
178
     3
271
     0
272
     0
274
     3
278
    44
283
     0
284
     8
340
1F
  0
ENDTAB
  0
TABLE
  2
BLOCK_RECORD
  5
1
330
0
100
AcDbSymbolTable
 70
     0
  0
BLOCK_RECORD
  5
2
102
{ACAD_XDICTIONARY
360
3
102
}
330
1
100
AcDbSymbolTableRecord
100
AcDbBlockTableRecord
  2
*Model_Space
340
12
  0
BLOCK_RECORD
  5
22C
330
1
100
AcDbSymbolTableRecord
100
AcDbBlockTableRecord
  2
*Paper_Space
340
22D
  0
ENDTAB
  0
ENDSEC
  0
SECTION
  2
BLOCKS
  0
BLOCK
  5
5
330
2
100
AcDbEntity
  8
0
100
AcDbBlockBegin
  2
*Model_Space
 70
     2
 10
0.0
 20
0.0
 30
0.0
  3
*Model_Space
  1

  0
ENDBLK
  5
11
330
2
100
AcDbEntity
  8
0
100
AcDbBlockEnd
  0
BLOCK
  5
22E
330
22C
100
AcDbEntity
 67
     1
  8
0
100
AcDbBlockBegin
  2
*Paper_Space
 70
     0
 10
0.0
 20
0.0
 30
0.0
  3
*Paper_Space
  1

  0
ENDBLK
  5
22F
330
22C
100
AcDbEntity
 67
     1
  8
0
100
AcDbBlockEnd
  0
ENDSEC
  0
SECTION
  2
ENTITIES
  0
ATTDEF
  5
37
330
2
100
AcDbEntity
  8
0
100
AcDbText
 10
27661.96397904035
 20
-1453.12794959185
 30
0.0
 40
1.25
  1

100
AcDbAttributeDefinition
  3

  2
BUD_PUMPE8
 70
     1
  0
ATTDEF
  5
38
330
2
100
AcDbEntity
  8
0
100
AcDbText
 10
27661.96397904035
 20
-1453.12794959185
 30
0.0
 40
1.25
  1

100
AcDbAttributeDefinition
  3

  2
BUD_PUMPE7
 70
     1
  0
ATTDEF
  5
39
330
2
100
AcDbEntity
  8
0
100
AcDbText
 10
27661.96397904035
 20
-1453.12794959185
 30
0.0
 40
1.25
  1

100
AcDbAttributeDefinition
  3

  2
BUD_PUMPE6
 70
     1
  0
ATTDEF
  5
3A
330
2
100
AcDbEntity
  8
0
100
AcDbText
 10
27661.96397904035
 20
-1453.12794959185
 30
0.0
 40
1.25
  1

100
AcDbAttributeDefinition
  3

  2
BUD_PUMPE5
 70
     1
  0
ATTDEF
  5
3B
330
2
100
AcDbEntity
  8
0
100
AcDbText
 10
27661.96397904035
 20
-1453.12794959185
 30
0.0
 40
1.25
  1

100
AcDbAttributeDefinition
  3

  2
BUD_PUMPE4
 70
     1
  0
ATTDEF
  5
3C
330
2
100
AcDbEntity
  8
0
100
AcDbText
 10
27661.96397904035
 20
-1453.12794959185
 30
0.0
 40
1.25
  1

100
AcDbAttributeDefinition
  3

  2
BUD_PUMPE3
 70
     1
  0
ATTDEF
  5
3D
330
2
100
AcDbEntity
  8
0
100
AcDbText
 10
27661.96397904035
 20
-1453.12794959185
 30
0.0
 40
1.25
  1

100
AcDbAttributeDefinition
  3

  2
BUD_PUMPE2
 70
     1
  0
ATTDEF
  5
3E
330
2
100
AcDbEntity
  8
0
100
AcDbText
 10
27661.96397904035
 20
-1453.12794959185
 30
0.0
 40
1.25
  1

100
AcDbAttributeDefinition
  3

  2
BUD_PUMPE1
 70
     1
  0
ATTDEF
  5
3F
330
2
100
AcDbEntity
  8
0
100
AcDbText
 10
27788.96057151388
 20
-123.2879502776577
 30
0.0
 40
1.25
  1

100
AcDbAttributeDefinition
  3

  2
BUD_ABGASS
 70
     1
  0
ATTDEF
  5
40
330
2
100
AcDbEntity
  8
0
100
AcDbText
 10
27674.66396956329
 20
-1744.44202041047
 30
0.0
 40
1.25
  1

100
AcDbAttributeDefinition
  3

  2
BUD_ANSCHLUSS
 70
     1
  0
LWPOLYLINE
  5
41
330
2
100
AcDbEntity
  8
0
  6
VERDECKT
 62
   140
 48
10.0
100
AcDbPolyline
 90
        6
 70
     1
 43
0.0
 10
27614.55989315839
 20
-1790.689690346728
 10
27602.55989315839
 20
-1797.617893577004
 10
27602.55989315839
 20
-1811.474300037557
 10
27614.55989315839
 20
-1818.402503267833
 10
27626.55989315839
 20
-1811.474300037557
 10
27626.55989315839
 20
-1797.617893577004
  0
CIRCLE
  5
43
330
2
100
AcDbEntity
  8
0
  6
VERDECKT
 62
   140
 48
10.0
100
AcDbCircle
 10
27614.55989315839
 20
-1804.54609680728
 30
0.0
 40
11.85640646055105
  0
CIRCLE
  5
44
330
2
100
AcDbEntity
  8
0
  6
VERDECKT
 62
   140
 48
10.0
100
AcDbCircle
 10
27614.55989315839
 20
-1804.54609680728
 30
0.0
 40
15.0
  0
LWPOLYLINE
  5
45
330
2
100
AcDbEntity
  8
0
  6
VERDECKT
 62
   140
 48
10.0
100
AcDbPolyline
 90
        6
 70
     1
 43
0.0
 10
27734.7680459682
 20
-1790.689690346728
 10
27722.7680459682
 20
-1797.617893577004
 10
27722.7680459682
 20
-1811.474300037557
 10
27734.7680459682
 20
-1818.402503267833
 10
27746.7680459682
 20
-1811.474300037557
 10
27746.7680459682
 20
-1797.617893577004
  0
CIRCLE
  5
46
330
2
100
AcDbEntity
  8
0
  6
VERDECKT
 62
   140
 48
10.0
100
AcDbCircle
 10
27734.7680459682
 20
-1804.54609680728
 30
0.0
 40
11.85640646055105
  0
CIRCLE
  5
47
330
2
100
AcDbEntity
  8
0
  6
VERDECKT
 62
   140
 48
10.0
100
AcDbCircle
 10
27734.7680459682
 20
-1804.54609680728
 30
0.0
 40
15.0
  0
LWPOLYLINE
  5
48
330
2
100
AcDbEntity
  8
0
  6
VERDECKT
 62
   140
 48
10.0
100
AcDbPolyline
 90
        6
 70
     1
 43
0.0
 10
27734.7680459682
 20
-1670.481537553111
 10
27722.7680459682
 20
-1677.409740783387
 10
27722.7680459682
 20
-1691.266147243939
 10
27734.7680459682
 20
-1698.194350474216
 10
27746.7680459682
 20
-1691.266147243939
 10
27746.7680459682
 20
-1677.409740783387
  0
CIRCLE
  5
49
330
2
100
AcDbEntity
  8
0
  6
VERDECKT
 62
   140
 48
10.0
100
AcDbCircle
 10
27734.7680459682
 20
-1684.337944013663
 30
0.0
 40
11.85640646055105
  0
CIRCLE
  5
4A
330
2
100
AcDbEntity
  8
0
  6
VERDECKT
 62
   140
 48
10.0
100
AcDbCircle
 10
27734.7680459682
 20
-1684.337944013663
 30
0.0
 40
15.0
  0
LWPOLYLINE
  5
4B
330
2
100
AcDbEntity
  8
0
  6
VERDECKT
 62
   140
 48
10.0
100
AcDbPolyline
 90
        6
 70
     1
 43
0.0
 10
27614.55989315839
 20
-1670.481537553111
 10
27602.55989315839
 20
-1677.409740783387
 10
27602.55989315839
 20
-1691.266147243939
 10
27614.55989315839
 20
-1698.194350474216
 10
27626.55989315839
 20
-1691.266147243939
 10
27626.55989315839
 20
-1677.409740783387
  0
LINE
  5
4C
330
2
100
AcDbEntity
  8
0
  6
VERDECKT
 62
   140
 48
10.0
100
AcDbLine
 10
27674.66397279912
 20
-1801.592020410473
 30
0.0
 11
27674.66396953117
 21
-1801.592020410473
 31
0.0
210
0.0
220
1.0
230
0.0
  0
LINE
  5
4D
330
2
100
AcDbEntity
  8
0
  6
VERDECKT
 62
   140
 48
10.0
100
AcDbLine
 10
27674.66397286337
 20
-1687.29202041047
 30
0.0
 11
27674.66396959542
 21
-1687.29202041047
 31
0.0
210
0.0
220
1.0
230
0.0
  0
LINE
  5
4E
330
2
100
AcDbEntity
  8
0
  6
VERDECKT
 62
   140
 48
10.0
100
AcDbLine
 10
27603.27770585005
 20
-1821.442020410472
 30
0.0
 11
27746.05025223064
 21
-1821.442020410472
 31
0.0
210
0.0
220
1.0
230
0.0
  0
ARC
  5
4F
330
2
100
AcDbEntity
  8
0
  6
VERDECKT
 62
   140
 48
10.0
100
AcDbCircle
 10
27674.66397904035
 20
-1744.442020410472
 30
0.0
 40
105.0
100
AcDbArc
 50
312.833428066047
 51
47.16657193395295
  0
LINE
  5
50
330
2
100
AcDbEntity
  8
0
  6
VERDECKT
 62
   140
 48
10.0
100
AcDbLine
 10
27746.05025223064
 20
-1667.442020410472
 30
0.0
 11
27603.27770585005
 21
-1667.442020410472
 31
0.0
210
0.0
220
1.0
230
0.0
  0
ARC
  5
51
330
2
100
AcDbEntity
  8
0
  6
VERDECKT
 62
   140
 48
10.0
100
AcDbCircle
 10
27674.66397904035
 20
-1744.442020410472
 30
0.0
 40
105.0
100
AcDbArc
 50
132.833428066047
 51
227.1665719339529
  0
CIRCLE
  5
52
330
2
100
AcDbEntity
  8
0
  6
VERDECKT
 62
   140
 48
10.0
100
AcDbCircle
 10
27674.66397904035
 20
-1744.442020410472
 30
0.0
 40
65.0
  0
ARC
  5
53
330
2
100
AcDbEntity
  8
0
  6
VERDECKT
 62
   140
 48
10.0
100
AcDbCircle
 10
27674.66398328868
 20
-1744.442020410472
 30
0.0
 40
105.0
100
AcDbArc
 50
312.833428066047
 51
47.16657193395295
  0
CIRCLE
  5
54
330
2
100
AcDbEntity
  8
0
  6
VERDECKT
 62
   140
 48
10.0
100
AcDbCircle
 10
27674.66396956329
 20
-1744.442020410472
 30
0.0
 40
57.15
  0
CIRCLE
  5
55
330
2
100
AcDbEntity
  8
0
  6
VERDECKT
 62
   140
 48
10.0
100
AcDbCircle
 10
27674.66396956329
 20
-1744.442020410472
 30
0.0
 40
53.55
  0
ARC
  5
56
330
2
100
AcDbEntity
  8
0
  6
VERDECKT
 62
   140
 48
10.0
100
AcDbCircle
 10
27674.66397283124
 20
-1744.442020410472
 30
0.0
 40
57.15
100
AcDbArc
 50
270.0
 51
89.99999996769168
  0
ARC
  5
57
330
2
100
AcDbEntity
  8
0
  6
VERDECKT
 62
   140
 48
10.0
100
AcDbCircle
 10
27674.66398426906
 20
-1744.442020410472
 30
0.0
 40
53.55
100
AcDbArc
 50
90.00000784216941
 51
269.999992093214
  0
CIRCLE
  5
58
330
2
100
AcDbEntity
  8
0
  6
VERDECKT
 62
   140
 48
10.0
100
AcDbCircle
 10
27614.55989315839
 20
-1684.337944013663
 30
0.0
 40
11.85640646055105
  0
CIRCLE
  5
59
330
2
100
AcDbEntity
  8
0
  6
VERDECKT
 62
   140
 48
10.0
100
AcDbCircle
 10
27614.55989315839
 20
-1684.337944013663
 30
0.0
 40
15.0
  0
LWPOLYLINE
  5
5A
330
2
100
AcDbEntity
  8
0
  6
VERDECKT
 62
   140
 48
10.0
100
AcDbPolyline
 90
        6
 70
     1
 43
0.0
 10
27614.55989315839
 20
-1635.725619527911
 10
27602.55989315839
 20
-1642.653822758188
 10
27602.55989315839
 20
-1656.51022921874
 10
27614.55989315839
 20
-1663.438432449017
 10
27626.55989315839
 20
-1656.51022921874
 10
27626.55989315839
 20
-1642.653822758188
  0
CIRCLE
  5
5B
330
2
100
AcDbEntity
  8
0
  6
VERDECKT
 62
   140
 48
10.0
100
AcDbCircle
 10
27614.55989315839
 20
-1649.582025988464
 30
0.0
 40
11.85640646055105
  0
CIRCLE
  5
5C
330
2
100
AcDbEntity
  8
0
  6
VERDECKT
 62
   140
 48
10.0
100
AcDbCircle
 10
27614.55989315839
 20
-1649.582025988464
 30
0.0
 40
15.0
  0
LWPOLYLINE
  5
5D
330
2
100
AcDbEntity
  8
0
  6
VERDECKT
 62
   140
 48
10.0
100
AcDbPolyline
 90
        6
 70
     1
 43
0.0
 10
27734.7680459682
 20
-1635.725619527911
 10
27722.7680459682
 20
-1642.653822758188
 10
27722.7680459682
 20
-1656.51022921874
 10
27734.7680459682
 20
-1663.438432449017
 10
27746.7680459682
 20
-1656.51022921874
 10
27746.7680459682
 20
-1642.653822758188
  0
CIRCLE
  5
5E
330
2
100
AcDbEntity
  8
0
  6
VERDECKT
 62
   140
 48
10.0
100
AcDbCircle
 10
27734.7680459682
 20
-1649.582025988464
 30
0.0
 40
11.85640646055105
  0
CIRCLE
  5
5F
330
2
100
AcDbEntity
  8
0
  6
VERDECKT
 62
   140
 48
10.0
100
AcDbCircle
 10
27734.7680459682
 20
-1649.582025988464
 30
0.0
 40
15.0
  0
LWPOLYLINE
  5
60
330
2
100
AcDbEntity
  8
0
  6
VERDECKT
 62
   140
 48
10.0
100
AcDbPolyline
 90
        6
 70
     1
 43
0.0
 10
27734.7680459682
 20
-1515.517466734294
 10
27722.7680459682
 20
-1522.445669964571
 10
27722.7680459682
 20
-1536.302076425123
 10
27734.7680459682
 20
-1543.230279655399
 10
27746.7680459682
 20
-1536.302076425123
 10
27746.7680459682
 20
-1522.445669964571
  0
CIRCLE
  5
61
330
2
100
AcDbEntity
  8
0
  6
VERDECKT
 62
   140
 48
10.0
100
AcDbCircle
 10
27734.7680459682
 20
-1529.373873194847
 30
0.0
 40
11.85640646055105
  0
CIRCLE
  5
62
330
2
100
AcDbEntity
  8
0
  6
VERDECKT
 62
   140
 48
10.0
100
AcDbCircle
 10
27734.7680459682
 20
-1529.373873194847
 30
0.0
 40
15.0
  0
LWPOLYLINE
  5
63
330
2
100
AcDbEntity
  8
0
  6
VERDECKT
 62
   140
 48
10.0
100
AcDbPolyline
 90
        6
 70
     1
 43
0.0
 10
27614.55989315839
 20
-1515.517466734294
 10
27602.55989315839
 20
-1522.445669964571
 10
27602.55989315839
 20
-1536.302076425123
 10
27614.55989315839
 20
-1543.230279655399
 10
27626.55989315839
 20
-1536.302076425123
 10
27626.55989315839
 20
-1522.445669964571
  0
LINE
  5
64
330
2
100
AcDbEntity
  8
0
  6
VERDECKT
 62
   140
 48
10.0
100
AcDbLine
 10
27674.66397279912
 20
-1646.627949591657
 30
0.0
 11
27674.66396953117
 21
-1646.627949591657
 31
0.0
210
0.0
220
1.0
230
0.0
  0
LINE
  5
65
330
2
100
AcDbEntity
  8
0
  6
VERDECKT
 62
   140
 48
10.0
100
AcDbLine
 10
27674.66397286337
 20
-1532.327949591654
 30
0.0
 11
27674.66396959542
 21
-1532.327949591654
 31
0.0
210
0.0
220
1.0
230
0.0
  0
LINE
  5
66
330
2
100
AcDbEntity
  8
0
  6
VERDECKT
 62
   140
 48
10.0
100
AcDbLine
 10
27603.27770585005
 20
-1666.477949591655
 30
0.0
 11
27746.05025223064
 21
-1666.477949591655
 31
0.0
210
0.0
220
1.0
230
0.0
  0
ARC
  5
67
330
2
100
AcDbEntity
  8
0
  6
VERDECKT
 62
   140
 48
10.0
100
AcDbCircle
 10
27674.66397904035
 20
-1589.477949591655
 30
0.0
 40
105.0
100
AcDbArc
 50
312.833428066047
 51
47.16657193395295
  0
LINE
  5
68
330
2
100
AcDbEntity
  8
0
  6
VERDECKT
 62
   140
 48
10.0
100
AcDbLine
 10
27746.05025223064
 20
-1512.477949591655
 30
0.0
 11
27603.27770585005
 21
-1512.477949591655
 31
0.0
210
0.0
220
1.0
230
0.0
  0
ARC
  5
69
330
2
100
AcDbEntity
  8
0
  6
VERDECKT
 62
   140
 48
10.0
100
AcDbCircle
 10
27674.66397904035
 20
-1589.477949591655
 30
0.0
 40
105.0
100
AcDbArc
 50
132.833428066047
 51
227.1665719339529
  0
CIRCLE
  5
6A
330
2
100
AcDbEntity
  8
0
  6
VERDECKT
 62
   140
 48
10.0
100
AcDbCircle
 10
27674.66397904035
 20
-1589.477949591655
 30
0.0
 40
65.0
  0
ARC
  5
6B
330
2
100
AcDbEntity
  8
0
  6
VERDECKT
 62
   140
 48
10.0
100
AcDbCircle
 10
27674.66398328868
 20
-1589.477949591655
 30
0.0
 40
105.0
100
AcDbArc
 50
312.833428066047
 51
47.16657193395295
  0
CIRCLE
  5
6C
330
2
100
AcDbEntity
  8
0
  6
VERDECKT
 62
   140
 48
10.0
100
AcDbCircle
 10
27674.66396956329
 20
-1589.477949591655
 30
0.0
 40
57.15
  0
CIRCLE
  5
6D
330
2
100
AcDbEntity
  8
0
  6
VERDECKT
 62
   140
 48
10.0
100
AcDbCircle
 10
27674.66396956329
 20
-1589.477949591655
 30
0.0
 40
53.55
  0
ARC
  5
6E
330
2
100
AcDbEntity
  8
0
  6
VERDECKT
 62
   140
 48
10.0
100
AcDbCircle
 10
27674.66397283124
 20
-1589.477949591655
 30
0.0
 40
57.15
100
AcDbArc
 50
270.0
 51
89.99999996769168
  0
ARC
  5
6F
330
2
100
AcDbEntity
  8
0
  6
VERDECKT
 62
   140
 48
10.0
100
AcDbCircle
 10
27674.66398426906
 20
-1589.477949591655
 30
0.0
 40
53.55
100
AcDbArc
 50
90.00000784216941
 51
269.999992093214
  0
CIRCLE
  5
70
330
2
100
AcDbEntity
  8
0
  6
VERDECKT
 62
   140
 48
10.0
100
AcDbCircle
 10
27614.55989315839
 20
-1529.373873194847
 30
0.0
 40
11.85640646055105
  0
CIRCLE
  5
71
330
2
100
AcDbEntity
  8
0
  6
VERDECKT
 62
   140
 48
10.0
100
AcDbCircle
 10
27614.55989315839
 20
-1529.373873194847
 30
0.0
 40
15.0
  0
LINE
  5
72
330
2
100
AcDbEntity
  8
0
  6
MITTE
 62
     1
 48
0.5
100
AcDbLine
 10
27930.61397904034
 20
-1508.627949591852
 30
0.0
 11
27863.31397904034
 21
-1508.627949591852
 31
0.0
  0
LINE
  5
74
330
2
100
AcDbEntity
  8
0
  6
MITTE
 62
     1
 48
0.5
100
AcDbLine
 10
27896.96397904035
 20
-1454.127949591851
 30
0.0
 11
27896.96397904035
 21
-1542.277949591851
 31
0.0
  0
LINE
  5
75
330
2
100
AcDbEntity
  8
0
  6
MITTE
 62
     1
 48
0.5
100
AcDbLine
 10
27971.96397904035
 20
-107.1279495918516
 30
0.0
 11
27971.96397904035
 21
-1806.627949591852
 31
0.0
  0
LINE
  5
76
330
2
100
AcDbEntity
  8
0
  6
VERDECKT
 62
   140
 48
10.0
100
AcDbLine
 10
27728.99081590622
 20
-80.07351741863022
 30
0.0
 11
27728.99081590621
 21
-174.1279495916533
 31
0.0
  0
LINE
  5
77
330
2
100
AcDbEntity
  8
0
  6
VERDECKT
 62
   140
 48
10.0
100
AcDbLine
 10
27848.93032712154
 20
-80.07351741863022
 30
0.0
 11
27848.93032712154
 21
-174.1279495916533
 31
0.0
  0
LINE
  5
78
330
2
100
AcDbEntity
  8
0
  6
MITTE
 62
     1
 48
0.1
100
AcDbLine
 10
27788.96057151388
 20
-70.62795027765787
 30
0.0
 11
27788.96057151388
 21
-174.1279495916551
 31
0.0
  0
LINE
  5
79
330
2
100
AcDbEntity
  8
0
  6
MITTE
 62
     1
 48
0.1
100
AcDbLine
 10
27674.66397904035
 20
-1512.477949591655
 30
0.0
 11
27674.66397904035
 21
-1821.442020410472
 31
0.0
  0
LINE
  5
7A
330
2
100
AcDbEntity
  8
0
  6
MITTE
 62
     1
 48
0.1
100
AcDbLine
 10
27817.51397904034
 20
-1454.127949591654
 30
0.0
 11
27817.51397904034
 21
-1744.442020410472
 31
0.0
  0
LINE
  5
7B
330
2
100
AcDbEntity
  8
0
  6
MITTE
 62
     1
 48
0.1
100
AcDbLine
 10
27817.51397904034
 20
-1589.477949591655
 30
0.0
 11
27569.66397904035
 21
-1589.477949591655
 31
0.0
210
0.0
220
1.0
230
0.0
  0
LINE
  5
7C
330
2
100
AcDbEntity
  8
0
  6
MITTE
 62
     1
 48
0.1
100
AcDbLine
 10
27817.51397904034
 20
-1744.442020410472
 30
0.0
 11
27569.66397904035
 21
-1744.442020410472
 31
0.0
210
0.0
220
1.0
230
0.0
  0
LINE
  5
7D
330
2
100
AcDbEntity
  8
0
  6
VERDECKT
 62
   140
 48
10.0
100
AcDbLine
 10
27797.51397904035
 20
-1569.477949591655
 30
0.0
 11
27791.51397904035
 21
-1569.477949591655
 31
0.0
210
0.0
220
1.0
230
0.0
  0
LINE
  5
7E
330
2
100
AcDbEntity
  8
0
  6
VERDECKT
 62
   140
 48
10.0
100
AcDbLine
 10
27806.11866997437
 20
-1609.477949591655
 30
0.0
 11
27791.51397904035
 21
-1609.477949591655
 31
0.0
210
0.0
220
1.0
230
0.0
  0
LINE
  5
7F
330
2
100
AcDbEntity
  8
0
  6
VERDECKT
 62
   140
 48
10.0
100
AcDbLine
 10
27786.51397904035
 20
-1566.477949591655
 30
0.0
 11
27768.51397904035
 21
-1566.477949591655
 31
0.0
210
0.0
220
1.0
230
0.0
  0
LINE
  5
80
330
2
100
AcDbEntity
  8
0
  6
VERDECKT
 62
   140
 48
10.0
100
AcDbLine
 10
27786.51397904035
 20
-1612.477949591655
 30
0.0
 11
27768.51397904035
 21
-1612.477949591655
 31
0.0
210
0.0
220
1.0
230
0.0
  0
LINE
  5
81
330
2
100
AcDbEntity
  8
0
  6
VERDECKT
 62
   140
 48
10.0
100
AcDbLine
 10
27791.51397904035
 20
-1568.477949591655
 30
0.0
 11
27786.51397904035
 21
-1568.477949591655
 31
0.0
210
0.0
220
1.0
230
0.0
  0
LINE
  5
82
330
2
100
AcDbEntity
  8
0
  6
VERDECKT
 62
   140
 48
10.0
100
AcDbLine
 10
27791.51397904035
 20
-1610.477949591655
 30
0.0
 11
27786.51397904035
 21
-1610.477949591655
 31
0.0
210
0.0
220
1.0
230
0.0
  0
LINE
  5
83
330
2
100
AcDbEntity
  8
0
  6
VERDECKT
 62
   140
 48
10.0
100
AcDbLine
 10
27768.51397904035
 20
-1612.477949591655
 30
0.0
 11
27768.51397904035
 21
-1566.477949591655
 31
0.0
210
0.0
220
1.0
230
0.0
  0
LINE
  5
84
330
2
100
AcDbEntity
  8
0
  6
VERDECKT
 62
   140
 48
10.0
100
AcDbLine
 10
27770.66397904035
 20
-1612.477949591655
 30
0.0
 11
27770.66397904035
 21
-1566.477949591655
 31
0.0
210
0.0
220
1.0
230
0.0
  0
LINE
  5
85
330
2
100
AcDbEntity
  8
0
  6
VERDECKT
 62
   140
 48
10.0
100
AcDbLine
 10
27784.66397904035
 20
-1566.477949591655
 30
0.0
 11
27784.66397904035
 21
-1612.477949591655
 31
0.0
210
0.0
220
1.0
230
0.0
  0
LINE
  5
86
330
2
100
AcDbEntity
  8
0
  6
VERDECKT
 62
   140
 48
10.0
100
AcDbLine
 10
27784.66397904035
 20
-1589.477949591655
 30
0.0
 11
27770.66397904035
 21
-1589.477949591655
 31
0.0
210
0.0
220
1.0
230
0.0
  0
LINE
  5
87
330
2
100
AcDbEntity
  8
0
  6
VERDECKT
 62
   140
 48
10.0
100
AcDbLine
 10
27786.51397904035
 20
-1612.477949591655
 30
0.0
 11
27786.51397904035
 21
-1566.477949591655
 31
0.0
210
0.0
220
1.0
230
0.0
  0
LINE
  5
88
330
2
100
AcDbEntity
  8
0
  6
VERDECKT
 62
   140
 48
10.0
100
AcDbLine
 10
27791.51397904035
 20
-1568.477949591655
 30
0.0
 11
27791.51397904035
 21
-1610.477949591655
 31
0.0
210
0.0
220
1.0
230
0.0
  0
LINE
  5
89
330
2
100
AcDbEntity
  8
0
  6
VERDECKT
 62
   140
 48
10.0
100
AcDbLine
 10
27837.51397904035
 20
-1569.127949591653
 30
0.0
 11
27837.51397904035
 21
-1558.477949591655
 31
0.0
210
0.0
220
1.0
230
0.0
  0
LINE
  5
8A
330
2
100
AcDbEntity
  8
0
  6
VERDECKT
 62
   140
 48
10.0
100
AcDbLine
 10
27797.51397904035
 20
-1569.477949591655
 30
0.0
 11
27797.51397904035
 21
-1558.477949591655
 31
0.0
210
0.0
220
1.0
230
0.0
  0
LINE
  5
8B
330
2
100
AcDbEntity
  8
0
  6
VERDECKT
 62
   140
 48
10.0
100
AcDbLine
 10
27794.51397904035
 20
-1556.327949591654
 30
0.0
 11
27794.51397904035
 21
-1558.477949591655
 31
0.0
210
0.0
220
1.0
230
0.0
  0
LINE
  5
8C
330
2
100
AcDbEntity
  8
0
  6
VERDECKT
 62
   140
 48
10.0
100
AcDbLine
 10
27840.51397904035
 20
-1556.327949591654
 30
0.0
 11
27840.51397904035
 21
-1558.477949591655
 31
0.0
210
0.0
220
1.0
230
0.0
  0
LINE
  5
8D
330
2
100
AcDbEntity
  8
0
  6
VERDECKT
 62
   140
 48
10.0
100
AcDbLine
 10
27794.51397904035
 20
-1540.477949591655
 30
0.0
 11
27794.51397904035
 21
-1542.327949591654
 31
0.0
210
0.0
220
1.0
230
0.0
  0
LINE
  5
8E
330
2
100
AcDbEntity
  8
0
  6
VERDECKT
 62
   140
 48
10.0
100
AcDbLine
 10
27840.51397904035
 20
-1540.477949591655
 30
0.0
 11
27840.51397904035
 21
-1542.327949591654
 31
0.0
210
0.0
220
1.0
230
0.0
  0
LINE
  5
8F
330
2
100
AcDbEntity
  8
0
  6
VERDECKT
 62
   140
 48
10.0
100
AcDbLine
 10
27797.51397904035
 20
-1724.477949591655
 30
0.0
 11
27791.51397904035
 21
-1724.477949591655
 31
0.0
210
0.0
220
1.0
230
0.0
  0
LINE
  5
90
330
2
100
AcDbEntity
  8
0
  6
VERDECKT
 62
   140
 48
10.0
100
AcDbLine
 10
27806.11866997437
 20
-1764.477949591655
 30
0.0
 11
27791.51397904035
 21
-1764.477949591655
 31
0.0
210
0.0
220
1.0
230
0.0
  0
LINE
  5
91
330
2
100
AcDbEntity
  8
0
  6
VERDECKT
 62
   140
 48
10.0
100
AcDbLine
 10
27797.51397904035
 20
-1724.477949591655
 30
0.0
 11
27797.51397904035
 21
-1713.477949591655
 31
0.0
210
0.0
220
1.0
230
0.0
  0
LINE
  5
92
330
2
100
AcDbEntity
  8
0
  6
VERDECKT
 62
   140
 48
10.0
100
AcDbLine
 10
27800.01397904035
 20
-1691.905226506118
 30
0.0
 11
27800.01397904035
 21
-1695.477949591655
 31
0.0
210
0.0
220
1.0
230
0.0
  0
LINE
  5
93
330
2
100
AcDbEntity
  8
0
  6
VERDECKT
 62
   140
 48
10.0
100
AcDbLine
 10
27800.01397904034
 20
-1529.422859119019
 30
0.0
 11
27800.01397904035
 21
-1641.453414836353
 31
0.0
210
0.0
220
1.0
230
0.0
  0
LINE
  5
94
330
2
100
AcDbEntity
  8
0
  6
VERDECKT
 62
   140
 48
10.0
100
AcDbLine
 10
27835.01397904034
 20
-1509.127949591653
 30
0.0
 11
27835.01397904034
 21
-1569.12794959185
 31
0.0
210
0.0
220
1.0
230
0.0
  0
LINE
  5
95
330
2
100
AcDbEntity
  8
0
  6
VERDECKT
 62
   140
 48
10.0
100
AcDbLine
 10
27786.51397904035
 20
-1721.477949591655
 30
0.0
 11
27768.51397904035
 21
-1721.477949591655
 31
0.0
210
0.0
220
1.0
230
0.0
  0
LINE
  5
96
330
2
100
AcDbEntity
  8
0
  6
VERDECKT
 62
   140
 48
10.0
100
AcDbLine
 10
27786.51397904035
 20
-1767.477949591655
 30
0.0
 11
27768.51397904035
 21
-1767.477949591655
 31
0.0
210
0.0
220
1.0
230
0.0
  0
LINE
  5
97
330
2
100
AcDbEntity
  8
0
  6
VERDECKT
 62
   140
 48
10.0
100
AcDbLine
 10
27794.51397904035
 20
-1711.327949591654
 30
0.0
 11
27794.51397904035
 21
-1713.477949591655
 31
0.0
210
0.0
220
1.0
230
0.0
  0
LINE
  5
98
330
2
100
AcDbEntity
  8
0
  6
VERDECKT
 62
   140
 48
10.0
100
AcDbLine
 10
27794.51397904035
 20
-1695.477949591655
 30
0.0
 11
27794.51397904035
 21
-1697.327949591654
 31
0.0
210
0.0
220
1.0
230
0.0
  0
LINE
  5
99
330
2
100
AcDbEntity
  8
0
  6
VERDECKT
 62
   140
 48
10.0
100
AcDbLine
 10
27729.06868931436
 20
-1761.977949591655
 30
0.0
 11
27768.51397904035
 21
-1761.977949591655
 31
0.0
210
0.0
220
1.0
230
0.0
  0
LINE
  5
9A
330
2
100
AcDbEntity
  8
0
  6
VERDECKT
 62
   140
 48
10.0
100
AcDbLine
 10
27729.06868931436
 20
-1726.977949591655
 30
0.0
 11
27768.51397904035
 21
-1726.977949591655
 31
0.0
210
0.0
220
1.0
230
0.0
  0
LINE
  5
9B
330
2
100
AcDbEntity
  8
0
  6
VERDECKT
 62
   140
 48
10.0
100
AcDbLine
 10
27791.51397904035
 20
-1723.477949591655
 30
0.0
 11
27786.51397904035
 21
-1723.477949591655
 31
0.0
210
0.0
220
1.0
230
0.0
  0
LINE
  5
9C
330
2
100
AcDbEntity
  8
0
  6
VERDECKT
 62
   140
 48
10.0
100
AcDbLine
 10
27791.51397904035
 20
-1765.477949591655
 30
0.0
 11
27786.51397904035
 21
-1765.477949591655
 31
0.0
210
0.0
220
1.0
230
0.0
  0
LINE
  5
9D
330
2
100
AcDbEntity
  8
0
  6
VERDECKT
 62
   140
 48
10.0
100
AcDbLine
 10
27806.6692322023
 20
-1578.633202753612
 30
0.0
 11
27797.51397904035
 21
-1569.477949591655
 31
0.0
210
0.0
220
1.0
230
0.0
  0
LINE
  5
9E
330
2
100
AcDbEntity
  8
0
  6
VERDECKT
 62
   140
 48
10.0
100
AcDbLine
 10
27805.22037807375
 20
-1558.477949591655
 30
0.0
 11
27794.51397904035
 21
-1558.477949591655
 31
0.0
210
0.0
220
1.0
230
0.0
  0
LINE
  5
9F
330
2
100
AcDbEntity
  8
0
  6
VERDECKT
 62
   140
 48
10.0
100
AcDbLine
 10
27820.81180717817
 20
-1558.477949591655
 30
0.0
 11
27811.96397904035
 21
-1558.477949591655
 31
0.0
210
0.0
220
1.0
230
0.0
  0
LINE
  5
A0
330
2
100
AcDbEntity
  8
0
  6
VERDECKT
 62
   140
 48
10.0
100
AcDbLine
 10
27840.51397904035
 20
-1558.477949591655
 30
0.0
 11
27823.11615090253
 21
-1558.477949591655
 31
0.0
210
0.0
220
1.0
230
0.0
  0
LINE
  5
A1
330
2
100
AcDbEntity
  8
0
  6
VERDECKT
 62
   140
 48
10.0
100
AcDbLine
 10
27825.88953632562
 20
-1556.327949591654
 30
0.0
 11
27844.07209142307
 21
-1556.327949591654
 31
0.0
210
0.0
220
1.0
230
0.0
  0
LINE
  5
A2
330
2
100
AcDbEntity
  8
0
  6
VERDECKT
 62
   140
 48
10.0
100
AcDbLine
 10
27818.03842175507
 20
-1556.327949591654
 30
0.0
 11
27811.96397904035
 21
-1556.327949591654
 31
0.0
210
0.0
220
1.0
230
0.0
  0
LINE
  5
A3
330
2
100
AcDbEntity
  8
0
  6
VERDECKT
 62
   140
 48
10.0
100
AcDbLine
 10
27804.96279302757
 20
-1556.327949591654
 30
0.0
 11
27790.95586665762
 21
-1556.327949591654
 31
0.0
210
0.0
220
1.0
230
0.0
  0
LINE
  5
A4
330
2
100
AcDbEntity
  8
0
  6
VERDECKT
 62
   140
 48
10.0
100
AcDbLine
 10
27844.07209142307
 20
-1542.327949591654
 30
0.0
 11
27844.07209142307
 21
-1556.327949591654
 31
0.0
210
0.0
220
1.0
230
0.0
  0
LINE
  5
A5
330
2
100
AcDbEntity
  8
0
  6
VERDECKT
 62
   140
 48
10.0
100
AcDbLine
 10
27830.79303523171
 20
-1542.327949591654
 30
0.0
 11
27830.79303523171
 21
-1556.327949591654
 31
0.0
210
0.0
220
1.0
230
0.0
  0
LINE
  5
A6
330
2
100
AcDbEntity
  8
0
  6
VERDECKT
 62
   140
 48
10.0
100
AcDbLine
 10
27790.95586665762
 20
-1542.327949591654
 30
0.0
 11
27802.79110890215
 21
-1542.327949591654
 31
0.0
210
0.0
220
1.0
230
0.0
  0
LINE
  5
A7
330
2
100
AcDbEntity
  8
0
  6
VERDECKT
 62
   140
 48
10.0
100
AcDbLine
 10
27811.96397904035
 20
-1542.327949591654
 30
0.0
 11
27844.07209142307
 21
-1542.327949591654
 31
0.0
210
0.0
220
1.0
230
0.0
  0
LINE
  5
A8
330
2
100
AcDbEntity
  8
0
  6
VERDECKT
 62
   140
 48
10.0
100
AcDbLine
 10
27804.23492284899
 20
-1550.980435079444
 30
0.0
 11
27804.23492284899
 21
-1556.327949591654
 31
0.0
210
0.0
220
1.0
230
0.0
  0
LINE
  5
A9
330
2
100
AcDbEntity
  8
0
  6
VERDECKT
 62
   140
 48
10.0
100
AcDbLine
 10
27790.95586665762
 20
-1542.327949591654
 30
0.0
 11
27790.95586665762
 21
-1556.327949591654
 31
0.0
210
0.0
220
1.0
230
0.0
  0
LINE
  5
AA
330
2
100
AcDbEntity
  8
0
  6
VERDECKT
 62
   140
 48
10.0
100
AcDbLine
 10
27840.51397904035
 20
-1540.477949591655
 30
0.0
 11
27811.96397904035
 21
-1540.477949591655
 31
0.0
210
0.0
220
1.0
230
0.0
  0
LINE
  5
AB
330
2
100
AcDbEntity
  8
0
  6
VERDECKT
 62
   140
 48
10.0
100
AcDbLine
 10
27802.43924813372
 20
-1540.477949591655
 30
0.0
 11
27794.51397904035
 21
-1540.477949591655
 31
0.0
210
0.0
220
1.0
230
0.0
  0
LINE
  5
AC
330
2
100
AcDbEntity
  8
0
  6
VERDECKT
 62
   140
 48
10.0
100
AcDbLine
 10
27806.4130541517
 20
-1733.377024703008
 30
0.0
 11
27797.51397904035
 21
-1724.477949591655
 31
0.0
210
0.0
220
1.0
230
0.0
  0
LINE
  5
AD
330
2
100
AcDbEntity
  8
0
  6
VERDECKT
 62
   140
 48
10.0
100
AcDbLine
 10
27768.51397904035
 20
-1767.477949591655
 30
0.0
 11
27768.51397904035
 21
-1721.477949591655
 31
0.0
210
0.0
220
1.0
230
0.0
  0
LINE
  5
AE
330
2
100
AcDbEntity
  8
0
  6
VERDECKT
 62
   140
 48
10.0
100
AcDbLine
 10
27770.66397904035
 20
-1767.477949591655
 30
0.0
 11
27770.66397904035
 21
-1721.477949591655
 31
0.0
210
0.0
220
1.0
230
0.0
  0
LINE
  5
AF
330
2
100
AcDbEntity
  8
0
  6
VERDECKT
 62
   140
 48
10.0
100
AcDbLine
 10
27784.66397904035
 20
-1721.477949591655
 30
0.0
 11
27784.66397904035
 21
-1767.477949591655
 31
0.0
210
0.0
220
1.0
230
0.0
  0
LINE
  5
B0
330
2
100
AcDbEntity
  8
0
  6
VERDECKT
 62
   140
 48
10.0
100
AcDbLine
 10
27784.66397904035
 20
-1744.477949591655
 30
0.0
 11
27770.66397904035
 21
-1744.477949591655
 31
0.0
210
0.0
220
1.0
230
0.0
  0
LINE
  5
B1
330
2
100
AcDbEntity
  8
0
  6
VERDECKT
 62
   140
 48
10.0
100
AcDbLine
 10
27786.51397904035
 20
-1767.477949591655
 30
0.0
 11
27786.51397904035
 21
-1721.477949591655
 31
0.0
210
0.0
220
1.0
230
0.0
  0
LINE
  5
B2
330
2
100
AcDbEntity
  8
0
  6
VERDECKT
 62
   140
 48
10.0
100
AcDbLine
 10
27804.33239260422
 20
-1713.477949591655
 30
0.0
 11
27794.51397904035
 21
-1713.477949591655
 31
0.0
210
0.0
220
1.0
230
0.0
  0
LINE
  5
B3
330
2
100
AcDbEntity
  8
0
  6
VERDECKT
 62
   140
 48
10.0
100
AcDbLine
 10
27803.99976700839
 20
-1711.327949591654
 30
0.0
 11
27790.95586665762
 21
-1711.327949591654
 31
0.0
210
0.0
220
1.0
230
0.0
  0
LINE
  5
B4
330
2
100
AcDbEntity
  8
0
  6
VERDECKT
 62
   140
 48
10.0
100
AcDbLine
 10
27790.95586665762
 20
-1697.327949591654
 30
0.0
 11
27801.30708684781
 21
-1697.327949591654
 31
0.0
210
0.0
220
1.0
230
0.0
  0
LINE
  5
B5
330
2
100
AcDbEntity
  8
0
  6
VERDECKT
 62
   140
 48
10.0
100
AcDbLine
 10
27790.95586665762
 20
-1697.327949591654
 30
0.0
 11
27790.95586665762
 21
-1711.327949591654
 31
0.0
210
0.0
220
1.0
230
0.0
  0
LINE
  5
B6
330
2
100
AcDbEntity
  8
0
  6
VERDECKT
 62
   140
 48
10.0
100
AcDbLine
 10
27800.88187804652
 20
-1695.477949591655
 30
0.0
 11
27794.51397904035
 21
-1695.477949591655
 31
0.0
210
0.0
220
1.0
230
0.0
  0
LINE
  5
B7
330
2
100
AcDbEntity
  8
0
  6
VERDECKT
 62
   140
 48
10.0
100
AcDbLine
 10
27791.51397904035
 20
-1723.477949591655
 30
0.0
 11
27791.51397904035
 21
-1765.477949591655
 31
0.0
210
0.0
220
1.0
230
0.0
  0
LINE
  5
B8
330
2
100
AcDbEntity
  8
0
100
AcDbLine
 10
27488.02469057006
 20
-1152.12794959185
 30
0.0
 11
27489.84791338393
 21
-1154.12794959185
 31
0.0
  0
LINE
  5
B9
330
2
100
AcDbEntity
  8
0
100
AcDbLine
 10
27481.78329634909
 20
-1152.12794959185
 30
0.0
 11
27483.91727034081
 21
-1154.12794959185
 31
0.0
  0
LINE
  5
BA
330
2
100
AcDbEntity
  8
0
100
AcDbLine
 10
27487.30706586336
 20
-1001.678490896217
 30
0.0
 11
27487.39705412762
 21
-1001.760728791404
 31
0.0
  0
LINE
  5
BB
330
2
100
AcDbEntity
  8
0
100
AcDbLine
 10
27487.30706586336
 20
-982.6784908962172
 30
0.0
 11
27487.39705412762
 21
-982.5962530010302
 31
0.0
  0
ARC
  5
BC
330
2
100
AcDbEntity
  8
0
100
AcDbCircle
 10
27648.82808256913
 20
-1412.127947678206
 30
0.0
 40
2.00000191364507
100
AcDbArc
 50
180.0000548218147
 51
269.9999451781853
  0
ARC
  5
BD
330
2
100
AcDbEntity
  8
0
100
AcDbCircle
 10
27648.82808256913
 20
-1391.127951505496
 30
0.0
 40
2.000001913646889
100
AcDbArc
 50
90.00005482181469
 51
179.9999451780811
  0
ARC
  5
BE
330
2
100
AcDbEntity
  8
0
100
AcDbCircle
 10
27648.82808256913
 20
-1268.877947678209
 30
0.0
 40
2.00000191364507
100
AcDbArc
 50
180.0000548217104
 51
269.9999451781853
  0
ARC
  5
BF
330
2
100
AcDbEntity
  8
0
100
AcDbCircle
 10
27648.82808256913
 20
-1247.877951505496
 30
0.0
 40
2.000001913646889
100
AcDbArc
 50
90.00005482181469
 51
179.9999451781853
  0
LWPOLYLINE
  5
C0
330
2
100
AcDbEntity
  8
0
100
AcDbPolyline
 90
       12
 70
     0
 43
0.0
 10
27721.8537003918
 20
-157.3058113576099
 10
27730.41913138948
 20
-157.3058113576089
 42
0.0629069623876808
 10
27731.80963142195
 20
-157.1301720361098
 42
0.0705673377473979
 10
27733.54897455606
 20
-156.4107337721334
 42
0.0585009980032277
 10
27735.11359556479
 20
-155.221381711006
 42
0.0574232521487312
 10
27736.58756468661
 20
-153.4327102074012
 42
0.0415518816544473
 10
27737.53398163275
 20
-151.6645941915785
 42
0.0326062999838628
 10
27738.07370014589
 20
-150.1543044200052
 42
0.019465200113667
 10
27738.32775356563
 20
-149.1121001214651
 42
0.0178897195605305
 10
27738.47574906057
 20
-148.2200157006318
 42
0.0232641038683183
 10
27738.58256913087
 20
-146.9219348818169
 42
0.0092316590889852
 10
27738.59042906553
 20
-146.4629561288812
 42
-1.079256564172596
  0
LWPOLYLINE
  5
C1
330
2
100
AcDbEntity
  8
0
100
AcDbPolyline
 90
       12
 70
     0
 43
0.0
 10
27721.8537003918
 20
-135.6201009001525
 10
27730.41913138948
 20
-135.6201009001534
 42
-0.0629069623876808
 10
27731.80963142195
 20
-135.7957402216525
 42
-0.0705673377473979
 10
27733.54897455606
 20
-136.5151784856289
 42
-0.0585009980032277
 10
27735.11359556479
 20
-137.7045305467564
 42
-0.0574232521487312
 10
27736.58756468661
 20
-139.4932020503611
 42
-0.0415518816544473
 10
27737.53398163275
 20
-141.2613180661838
 42
-0.0326062999838628
 10
27738.07370014589
 20
-142.7716078377571
 42
-0.019465200113667
 10
27738.32775356563
 20
-143.8138121362972
 42
-0.0178897195605305
 10
27738.47574906057
 20
-144.7058965571305
 42
-0.0232641038683183
 10
27738.58256913087
 20
-146.0039773759454
 42
-0.0092316590889852
 10
27738.59042906553
 20
-146.4629561288812
 42
1.079256564172596
  0
LINE
  5
C2
330
2
100
AcDbEntity
  8
0
100
AcDbLine
 10
27873.71397904035
 20
-1467.977949591852
 30
0.0
 11
27873.71397904035
 21
-1454.12794959185
 31
0.0
210
0.0
220
1.0
230
0.0
  0
LINE
  5
C3
330
2
100
AcDbEntity
  8
0
100
AcDbLine
 10
27920.21397904035
 20
-1467.977949591852
 30
0.0
 11
27920.21397904035
 21
-1454.12794959185
 31
0.0
210
0.0
220
1.0
230
0.0
  0
LINE
  5
C4
330
2
100
AcDbEntity
  8
0
100
AcDbLine
 10
27877.21397904035
 20
-1481.383500615959
 30
0.0
 11
27877.21397904035
 21
-1467.977949591851
 31
0.0
210
0.0
220
1.0
230
0.0
  0
LINE
  5
C5
330
2
100
AcDbEntity
  8
0
100
AcDbLine
 10
27916.71397904035
 20
-1481.383500615959
 30
0.0
 11
27916.71397904035
 21
-1467.977949591851
 31
0.0
210
0.0
220
1.0
230
0.0
  0
LINE
  5
C6
330
2
100
AcDbEntity
  8
0
100
AcDbLine
 10
27837.51397904034
 20
-1589.477949591852
 30
0.0
 11
27837.51397904034
 21
-1569.127949591852
 31
0.0
210
0.0
220
1.0
230
0.0
  0
ARC
  5
C7
330
2
100
AcDbEntity
  8
0
100
AcDbCircle
 10
27817.51397904034
 20
-1589.477949591852
 30
0.0
 40
20.0
100
AcDbArc
 50
331.044975628094
 51
0.0
  0
LINE
  5
C8
330
2
100
AcDbEntity
  8
0
100
AcDbLine
 10
27817.51397904034
 20
-1764.477949591852
 30
0.0
 11
27806.11866997436
 21
-1764.477949591852
 31
0.0
210
0.0
220
1.0
230
0.0
  0
LINE
  5
C9
330
2
100
AcDbEntity
  8
0
100
AcDbLine
 10
27837.51397904034
 20
-1744.477949591852
 30
0.0
 11
27837.51397904034
 21
-1713.477949591852
 31
0.0
210
0.0
220
1.0
230
0.0
  0
ARC
  5
CA
330
2
100
AcDbEntity
  8
0
100
AcDbCircle
 10
27817.51397904034
 20
-1744.477949591852
 30
0.0
 40
20.0
100
AcDbArc
 50
270.0
 51
0.0
  0
LINE
  5
CB
330
2
100
AcDbEntity
  8
0
100
AcDbLine
 10
27835.01397904034
 20
-1569.127949591852
 30
0.0
 11
27835.01397904034
 21
-1695.477949591852
 31
0.0
210
0.0
220
1.0
230
0.0
  0
LINE
  5
CC
330
2
100
AcDbEntity
  8
0
100
AcDbLine
 10
27835.01397904034
 20
-1469.977949591852
 30
0.0
 11
27835.01397904034
 21
-1509.127949591852
 31
0.0
210
0.0
220
1.0
230
0.0
  0
LINE
  5
CD
330
2
100
AcDbEntity
  8
0
100
AcDbLine
 10
27800.01397904034
 20
-1641.45341483655
 30
0.0
 11
27800.01397904034
 21
-1691.905226506316
 31
0.0
210
0.0
220
1.0
230
0.0
  0
LINE
  5
CE
330
2
100
AcDbEntity
  8
0
100
AcDbLine
 10
27800.01397904034
 20
-1469.977949591852
 30
0.0
 11
27800.01397904034
 21
-1529.422859119215
 31
0.0
210
0.0
220
1.0
230
0.0
  0
LINE
  5
CF
330
2
100
AcDbEntity
  8
0
100
AcDbLine
 10
27840.51397904034
 20
-1711.327949591851
 30
0.0
 11
27840.51397904034
 21
-1713.477949591852
 31
0.0
210
0.0
220
1.0
230
0.0
  0
LINE
  5
D0
330
2
100
AcDbEntity
  8
0
100
AcDbLine
 10
27840.51397904034
 20
-1695.477949591852
 30
0.0
 11
27840.51397904034
 21
-1697.327949591851
 31
0.0
210
0.0
220
1.0
230
0.0
  0
LINE
  5
D1
330
2
100
AcDbEntity
  8
0
100
AcDbLine
 10
27476.96057151388
 20
-1154.12794959185
 30
0.0
 11
27476.96057151388
 21
-1073.441068558387
 31
0.0
210
0.0
220
1.0
230
0.0
  0
LINE
  5
D2
330
2
100
AcDbEntity
  8
0
100
AcDbLine
 10
27871.75067009866
 20
-123.2865107963498
 30
0.0
 11
27871.75067009866
 21
-174.1279495918498
 31
0.0
210
0.0
220
1.0
230
0.0
  0
LINE
  5
D3
330
2
100
AcDbEntity
  8
0
100
AcDbLine
 10
27706.1704729291
 20
-123.2865107963498
 30
0.0
 11
27706.1704729291
 21
-174.1279495918498
 31
0.0
210
0.0
220
1.0
230
0.0
  0
LINE
  5
D4
330
2
100
AcDbEntity
  8
0
100
AcDbLine
 10
27706.1704729291
 20
-123.2865107963498
 30
0.0
 11
27704.54740705728
 21
-119.1913277456715
 31
0.0
210
0.0
220
1.0
230
0.0
  0
LINE
  5
D5
330
2
100
AcDbEntity
  8
0
100
AcDbLine
 10
27871.75067009866
 20
-123.2865107963498
 30
0.0
 11
27873.37373597048
 21
-119.1913277456715
 31
0.0
210
0.0
220
1.0
230
0.0
  0
LINE
  5
D6
330
2
100
AcDbEntity
  8
0
100
AcDbLine
 10
27702.91945322866
 20
-86.85852988641636
 30
0.0
 11
27702.91918901477
 21
-80.07351741882667
 31
0.0
210
0.0
220
1.0
230
0.0
  0
LINE
  5
D7
330
2
100
AcDbEntity
  8
0
100
AcDbLine
 10
27875.0016897991
 20
-86.85852988641636
 30
0.0
 11
27875.00195401298
 21
-80.07351741882667
 31
0.0
210
0.0
220
1.0
230
0.0
  0
ARC
  5
D8
330
2
100
AcDbEntity
  8
0
100
AcDbCircle
 10
27703.84194584456
 20
-89.5219409892079
 30
0.0
 40
2.818643526392079
100
AcDbArc
 50
109.10391523998
 51
176.0317807112469
  0
ARC
  5
D9
330
2
100
AcDbEntity
  8
0
100
AcDbCircle
 10
27874.07919718319
 20
-89.5219409892079
 30
0.0
 40
2.818643526392079
100
AcDbArc
 50
3.968219288753096
 51
70.89608476002
  0
LINE
  5
DA
330
2
100
AcDbEntity
  8
0
100
AcDbLine
 10
27876.89108326311
 20
-89.32688201746532
 30
0.0
 11
27876.89108326311
 21
-100.0407548975581
 31
0.0
210
0.0
220
1.0
230
0.0
  0
LINE
  5
DB
330
2
100
AcDbEntity
  8
0
100
AcDbLine
 10
27701.03005976465
 20
-89.32688201746532
 30
0.0
 11
27701.03005976465
 21
-100.0407548975581
 31
0.0
210
0.0
220
1.0
230
0.0
  0
ARC
  5
DC
330
2
100
AcDbEntity
  8
0
100
AcDbCircle
 10
27702.9238127623
 20
-100.0407548975581
 30
0.0
 40
1.89375299765475
100
AcDbArc
 50
180.0
 51
270.0
  0
ARC
  5
DD
330
2
100
AcDbEntity
  8
0
100
AcDbCircle
 10
27874.99733026545
 20
-100.0407548975581
 30
0.0
 40
1.89375299765475
100
AcDbArc
 50
270.0
 51
0.0
  0
LINE
  5
DE
330
2
100
AcDbEntity
  8
0
100
AcDbLine
 10
27874.99733026545
 20
-101.9345078952138
 30
0.0
 11
27702.9238127623
 21
-101.9345078952138
 31
0.0
210
0.0
220
1.0
230
0.0
  0
LINE
  5
DF
330
2
100
AcDbEntity
  8
0
100
AcDbLine
 10
27704.54740705728
 20
-102.4756179191736
 30
0.0
 11
27702.92394486463
 21
-101.9345078906053
 31
0.0
210
0.0
220
1.0
230
0.0
  0
LINE
  5
E0
330
2
100
AcDbEntity
  8
0
100
AcDbLine
 10
27873.37373597048
 20
-102.4756179191736
 30
0.0
 11
27874.99719816312
 21
-101.9345078906053
 31
0.0
210
0.0
220
1.0
230
0.0
  0
LINE
  5
E1
330
2
100
AcDbEntity
  8
0
100
AcDbLine
 10
27873.37373597048
 20
-102.4756179191736
 30
0.0
 11
27873.37373597048
 21
-119.1913277456715
 31
0.0
210
0.0
220
1.0
230
0.0
  0
LINE
  5
E2
330
2
100
AcDbEntity
  8
0
100
AcDbLine
 10
27704.54740705728
 20
-102.4756179191736
 30
0.0
 11
27704.54740705728
 21
-119.1913277456715
 31
0.0
210
0.0
220
1.0
230
0.0
  0
LINE
  5
E3
330
2
100
AcDbEntity
  8
0
100
AcDbLine
 10
27848.93032712154
 20
-75.77208124794379
 30
0.0
 11
27848.93032712154
 21
-80.07351741882667
 31
0.0
210
0.0
220
1.0
230
0.0
  0
LINE
  5
E4
330
2
100
AcDbEntity
  8
0
100
AcDbLine
 10
27728.99081590622
 20
-75.77208124794379
 30
0.0
 11
27728.99081590622
 21
-80.07351741882667
 31
0.0
210
0.0
220
1.0
230
0.0
  0
LINE
  5
E5
330
2
100
AcDbEntity
  8
0
100
AcDbLine
 10
27843.96057151388
 20
-70.62795027785432
 30
0.0
 11
27843.96057151388
 21
-73.16858428603882
 31
0.0
210
0.0
220
1.0
230
0.0
  0
LINE
  5
E6
330
2
100
AcDbEntity
  8
0
100
AcDbLine
 10
27733.96057151388
 20
-70.62795027785432
 30
0.0
 11
27733.96057151388
 21
-73.16858428603882
 31
0.0
210
0.0
220
1.0
230
0.0
  0
ARC
  5
E7
330
2
100
AcDbEntity
  8
0
100
AcDbCircle
 10
27733.48712435376
 20
-73.16858428603882
 30
0.0
 40
0.4734471601241924
100
AcDbArc
 50
275.0000867878426
 51
0.0
  0
ARC
  5
E8
330
2
100
AcDbEntity
  8
0
100
AcDbCircle
 10
27844.434018674
 20
-73.16858428603882
 30
0.0
 40
0.4734471601241923
100
AcDbArc
 50
180.0
 51
264.9999132121574
  0
LINE
  5
E9
330
2
100
AcDbEntity
  8
0
100
AcDbLine
 10
27844.39275432069
 20
-73.64022977427794
 30
0.0
 11
27847.20228923568
 21
-73.88596152259015
 31
0.0
210
0.0
220
1.0
230
0.0
  0
LINE
  5
EA
330
2
100
AcDbEntity
  8
0
100
AcDbLine
 10
27733.52838870706
 20
-73.64022977427794
 30
0.0
 11
27730.71885379207
 21
-73.88596152259015
 31
0.0
210
0.0
220
1.0
230
0.0
  0
ARC
  5
EB
330
2
100
AcDbEntity
  8
0
100
AcDbCircle
 10
27730.8837902846
 20
-75.77173671315177
 30
0.0
 40
1.892974409732569
100
AcDbArc
 50
94.99856900817107
 51
180.0104282390006
  0
ARC
  5
EC
330
2
100
AcDbEntity
  8
0
100
AcDbCircle
 10
27847.03735274316
 20
-75.77173671315177
 30
0.0
 40
1.892974409732569
100
AcDbArc
 50
359.9895717609994
 51
85.00143099182893
  0
LINE
  5
ED
330
2
100
AcDbEntity
  8
0
100
AcDbLine
 10
27730.41913138948
 20
-157.3058113575235
 30
0.0
 11
27721.8537003918
 21
-157.3058113575225
 31
0.0
210
0.0
220
1.0
230
0.0
  0
LINE
  5
EE
330
2
100
AcDbEntity
  8
0
100
AcDbLine
 10
27730.41913138948
 20
-135.6201009001534
 30
0.0
 11
27721.8537003918
 21
-135.6201009001525
 31
0.0
210
0.0
220
1.0
230
0.0
  0
LINE
  5
EF
330
2
100
AcDbEntity
  8
0
100
AcDbLine
 10
27720.65687078402
 20
-136.160996903769
 30
0.0
 11
27721.85347006831
 21
-136.1609433987051
 31
0.0
210
0.0
220
1.0
230
0.0
  0
LINE
  5
F0
330
2
100
AcDbEntity
  8
0
100
AcDbLine
 10
27720.65687078402
 20
-156.7649153539069
 30
0.0
 11
27721.85347006831
 21
-156.7649688589718
 31
0.0
210
0.0
220
1.0
230
0.0
  0
LINE
  5
F1
330
2
100
AcDbEntity
  8
0
100
AcDbLine
 10
27719.9076946759
 20
-156.7648590691006
 30
0.0
 11
27718.13993929552
 21
-156.7649977614165
 31
0.0
210
0.0
220
1.0
230
0.0
  0
LINE
  5
F2
330
2
100
AcDbEntity
  8
0
100
AcDbLine
 10
27719.9076946759
 20
-136.1610531885763
 30
0.0
 11
27718.13993929552
 21
-136.1609144962595
 31
0.0
210
0.0
220
1.0
230
0.0
  0
LINE
  5
F3
330
2
100
AcDbEntity
  8
0
100
AcDbLine
 10
27476.46057151388
 20
-1002.178490896217
 30
0.0
 11
27475.96057151388
 21
-1002.678490896217
 31
0.0
210
0.0
220
1.0
230
0.0
  0
LINE
  5
F4
330
2
100
AcDbEntity
  8
0
100
AcDbLine
 10
27476.46057151388
 20
-982.1784908962172
 30
0.0
 11
27475.96057151388
 21
-981.6784908962172
 31
0.0
210
0.0
220
1.0
230
0.0
  0
LINE
  5
F5
330
2
100
AcDbEntity
  8
0
100
AcDbLine
 10
27475.96057151388
 20
-1073.441068558387
 30
0.0
 11
27475.96057151388
 21
-1002.678490896217
 31
0.0
210
0.0
220
1.0
230
0.0
  0
LINE
  5
F6
330
2
100
AcDbEntity
  8
0
100
AcDbLine
 10
27475.96057151388
 20
-981.6784908962172
 30
0.0
 11
27475.96057151388
 21
-174.1279495918498
 31
0.0
210
0.0
220
1.0
230
0.0
  0
LINE
  5
F7
330
2
100
AcDbEntity
  8
0
100
AcDbLine
 10
27476.46057151388
 20
-1002.178490896217
 30
0.0
 11
27475.96057151388
 21
-1001.678490896217
 31
0.0
210
0.0
220
1.0
230
0.0
  0
LINE
  5
F8
330
2
100
AcDbEntity
  8
0
100
AcDbLine
 10
27476.46057151388
 20
-982.1784908962172
 30
0.0
 11
27475.96057151388
 21
-982.6784908962172
 31
0.0
210
0.0
220
1.0
230
0.0
  0
LINE
  5
F9
330
2
100
AcDbEntity
  8
0
100
AcDbLine
 10
27475.96057151388
 20
-1001.678490896217
 30
0.0
 11
27475.96057151388
 21
-982.6784908962172
 31
0.0
210
0.0
220
1.0
230
0.0
  0
LINE
  5
FA
330
2
100
AcDbEntity
  8
0
100
AcDbLine
 10
27996.96397904035
 20
-1658.627949591852
 30
0.0
 11
27998.56397904034
 21
-1658.627949591852
 31
0.0
210
0.0
220
1.0
230
0.0
  0
LINE
  5
FB
330
2
100
AcDbEntity
  8
0
100
AcDbLine
 10
27996.96397904035
 20
-1674.627949591852
 30
0.0
 11
27998.56397904034
 21
-1674.627949591852
 31
0.0
210
0.0
220
1.0
230
0.0
  0
LINE
  5
FC
330
2
100
AcDbEntity
  8
0
100
AcDbLine
 10
28005.06397904034
 20
-1662.627949591852
 30
0.0
 11
28006.96397904035
 21
-1662.627949591852
 31
0.0
210
0.0
220
1.0
230
0.0
  0
LINE
  5
FD
330
2
100
AcDbEntity
  8
0
100
AcDbLine
 10
28005.06397904034
 20
-1670.627949591852
 30
0.0
 11
28006.96397904035
 21
-1670.627949591852
 31
0.0
210
0.0
220
1.0
230
0.0
  0
LINE
  5
FE
330
2
100
AcDbEntity
  8
0
100
AcDbLine
 10
27946.96397904035
 20
-1674.627949591852
 30
0.0
 11
27945.36397904034
 21
-1674.627949591852
 31
0.0
210
0.0
220
1.0
230
0.0
  0
LINE
  5
FF
330
2
100
AcDbEntity
  8
0
100
AcDbLine
 10
27946.96397904035
 20
-1658.627949591852
 30
0.0
 11
27945.36397904034
 21
-1658.627949591852
 31
0.0
210
0.0
220
1.0
230
0.0
  0
LINE
  5
100
330
2
100
AcDbEntity
  8
0
100
AcDbLine
 10
27919.46397904035
 20
-1661.627949591852
 30
0.0
 11
27938.86397904034
 21
-1661.627949591852
 31
0.0
210
0.0
220
1.0
230
0.0
  0
LINE
  5
101
330
2
100
AcDbEntity
  8
0
100
AcDbLine
 10
27910.46397904035
 20
-1661.627949591852
 30
0.0
 11
27912.96397904035
 21
-1661.627949591852
 31
0.0
210
0.0
220
1.0
230
0.0
  0
LINE
  5
102
330
2
100
AcDbEntity
  8
0
100
AcDbLine
 10
27898.49697736319
 20
-1661.627949591852
 30
0.0
 11
27903.96397904035
 21
-1661.627949591852
 31
0.0
210
0.0
220
1.0
230
0.0
  0
LINE
  5
103
330
2
100
AcDbEntity
  8
0
100
AcDbLine
 10
27919.46397904035
 20
-1671.627949591852
 30
0.0
 11
27938.86397904034
 21
-1671.627949591852
 31
0.0
210
0.0
220
1.0
230
0.0
  0
LINE
  5
104
330
2
100
AcDbEntity
  8
0
100
AcDbLine
 10
27910.46397904035
 20
-1671.627949591852
 30
0.0
 11
27912.96397904035
 21
-1671.627949591852
 31
0.0
210
0.0
220
1.0
230
0.0
  0
LINE
  5
105
330
2
100
AcDbEntity
  8
0
100
AcDbLine
 10
27898.49697736322
 20
-1671.627949591852
 30
0.0
 11
27903.96397904035
 21
-1671.627949591852
 31
0.0
210
0.0
220
1.0
230
0.0
  0
CIRCLE
  5
106
330
2
100
AcDbEntity
  8
0
100
AcDbCircle
 10
27674.66397904034
 20
-1744.477949591852
 30
0.0
 40
57.14999999999986
  0
CIRCLE
  5
107
330
2
100
AcDbEntity
  8
0
100
AcDbCircle
 10
27674.66397904034
 20
-1589.477949591852
 30
0.0
 40
57.14999999999986
  0
LINE
  5
108
330
2
100
AcDbEntity
  8
0
100
AcDbLine
 10
27873.71397904035
 20
-1467.977949591851
 30
0.0
 11
27920.21397904035
 21
-1467.977949591851
 31
0.0
210
0.0
220
1.0
230
0.0
  0
CIRCLE
  5
109
330
2
100
AcDbEntity
  8
0
100
AcDbCircle
 10
27896.96397904035
 20
-1508.627949591852
 30
0.0
 40
33.64999999999998
  0
CIRCLE
  5
10A
330
2
100
AcDbEntity
  8
0
100
AcDbCircle
 10
27821.96397904035
 20
-1524.127949591852
 30
0.0
 40
4.5
  0
CIRCLE
  5
10B
330
2
100
AcDbEntity
  8
0
100
AcDbCircle
 10
27821.96397904035
 20
-1554.127949591852
 30
0.0
 40
4.5
  0
LINE
  5
10C
330
2
100
AcDbEntity
  8
0
100
AcDbLine
 10
27811.96397904035
 20
-1509.127949591852
 30
0.0
 11
27811.96397904035
 21
-1569.127949591852
 31
0.0
210
0.0
220
1.0
230
0.0
  0
LINE
  5
10D
330
2
100
AcDbEntity
  8
0
100
AcDbLine
 10
27811.96397904035
 20
-1569.127949591852
 30
0.0
 11
27946.96397904035
 21
-1569.127949591852
 31
0.0
210
0.0
220
1.0
230
0.0
  0
LINE
  5
10E
330
2
100
AcDbEntity
  8
0
100
AcDbLine
 10
27863.31769395566
 20
-1509.127949591852
 30
0.0
 11
27811.96397904035
 21
-1509.127949591852
 31
0.0
210
0.0
220
1.0
230
0.0
  0
LINE
  5
10F
330
2
100
AcDbEntity
  8
0
100
AcDbLine
 10
27946.96397904035
 20
-1509.127949591852
 30
0.0
 11
27930.61026412503
 21
-1509.127949591852
 31
0.0
210
0.0
220
1.0
230
0.0
  0
CIRCLE
  5
110
330
2
100
AcDbEntity
  8
0
100
AcDbCircle
 10
27896.96397904035
 20
-1508.627949591852
 30
0.0
 40
33.65000000000001
  0
LINE
  5
111
330
2
100
AcDbEntity
  8
0
100
AcDbLine
 10
27806.41305415169
 20
-1733.377024703203
 30
0.0
 11
27817.51397904034
 21
-1744.477949591852
 31
0.0
210
0.0
220
1.0
230
0.0
  0
LINE
  5
112
330
2
100
AcDbEntity
  8
0
100
AcDbLine
 10
27845.01397904034
 20
-1469.977949591852
 30
0.0
 11
27845.01397904034
 21
-1454.12794959185
 31
0.0
210
0.0
220
1.0
230
0.0
  0
LINE
  5
113
330
2
100
AcDbEntity
  8
0
100
AcDbLine
 10
27828.9048520056
 20
-1469.977949591852
 30
0.0
 11
27828.9048520056
 21
-1454.12794959185
 31
0.0
210
0.0
220
1.0
230
0.0
  0
LINE
  5
114
330
2
100
AcDbEntity
  8
0
100
AcDbLine
 10
27790.01397904034
 20
-1469.977949591852
 30
0.0
 11
27845.01397904034
 21
-1469.977949591852
 31
0.0
210
0.0
220
1.0
230
0.0
  0
LINE
  5
115
330
2
100
AcDbEntity
  8
0
100
AcDbLine
 10
27806.12310607508
 20
-1469.977949591852
 30
0.0
 11
27806.12310607508
 21
-1454.12794959185
 31
0.0
210
0.0
220
1.0
230
0.0
  0
LINE
  5
116
330
2
100
AcDbEntity
  8
0
100
AcDbLine
 10
27790.01397904034
 20
-1469.977949591852
 30
0.0
 11
27790.01397904034
 21
-1454.12794959185
 31
0.0
210
0.0
220
1.0
230
0.0
  0
LINE
  5
117
330
2
100
AcDbEntity
  8
0
100
AcDbLine
 10
27804.33239260421
 20
-1713.477949591852
 30
0.0
 11
27840.51397904034
 21
-1713.477949591852
 31
0.0
210
0.0
220
1.0
230
0.0
  0
LINE
  5
118
330
2
100
AcDbEntity
  8
0
100
AcDbLine
 10
27844.07209142307
 20
-1711.327949591851
 30
0.0
 11
27803.99976700839
 21
-1711.327949591851
 31
0.0
210
0.0
220
1.0
230
0.0
  0
LINE
  5
119
330
2
100
AcDbEntity
  8
0
100
AcDbLine
 10
27830.79303523171
 20
-1697.327949591851
 30
0.0
 11
27830.79303523171
 21
-1711.327949591851
 31
0.0
210
0.0
220
1.0
230
0.0
  0
LINE
  5
11A
330
2
100
AcDbEntity
  8
0
100
AcDbLine
 10
27804.23492284898
 20
-1697.327949591851
 30
0.0
 11
27804.23492284898
 21
-1711.327949591851
 31
0.0
210
0.0
220
1.0
230
0.0
  0
LINE
  5
11B
330
2
100
AcDbEntity
  8
0
100
AcDbLine
 10
27844.07209142307
 20
-1697.327949591851
 30
0.0
 11
27844.07209142307
 21
-1711.327949591851
 31
0.0
210
0.0
220
1.0
230
0.0
  0
LINE
  5
11C
330
2
100
AcDbEntity
  8
0
100
AcDbLine
 10
27844.07209142307
 20
-1697.327949591851
 30
0.0
 11
27801.3070868478
 21
-1697.327949591851
 31
0.0
210
0.0
220
1.0
230
0.0
  0
LINE
  5
11D
330
2
100
AcDbEntity
  8
0
100
AcDbLine
 10
27800.88187804651
 20
-1695.477949591852
 30
0.0
 11
27840.51397904034
 21
-1695.477949591852
 31
0.0
210
0.0
220
1.0
230
0.0
  0
LINE
  5
11E
330
2
100
AcDbEntity
  8
0
100
AcDbLine
 10
27940.46397904035
 20
-1154.62794959185
 30
0.0
 11
27939.96397904035
 21
-1155.12794959185
 31
0.0
210
0.0
220
1.0
230
0.0
  0
LINE
  5
11F
330
2
100
AcDbEntity
  8
0
100
AcDbLine
 10
27939.96397904035
 20
-1155.12794959185
 30
0.0
 11
27939.96397904035
 21
-1205.12794959185
 31
0.0
210
0.0
220
1.0
230
0.0
  0
LINE
  5
120
330
2
100
AcDbEntity
  8
0
100
AcDbLine
 10
27939.96397904035
 20
-1205.12794959185
 30
0.0
 11
27940.46397904035
 21
-1205.62794959185
 31
0.0
210
0.0
220
1.0
230
0.0
  0
LINE
  5
121
330
2
100
AcDbEntity
  8
0
100
AcDbLine
 10
27940.96397904035
 20
-1205.12794959185
 30
0.0
 11
27939.96397904035
 21
-1206.12794959185
 31
0.0
210
0.0
220
1.0
230
0.0
  0
LINE
  5
122
330
2
100
AcDbEntity
  8
0
100
AcDbLine
 10
27940.96397904035
 20
-1205.12794959185
 30
0.0
 11
27940.96397904035
 21
-1155.12794959185
 31
0.0
210
0.0
220
1.0
230
0.0
  0
LINE
  5
123
330
2
100
AcDbEntity
  8
0
100
AcDbLine
 10
27940.96397904035
 20
-1155.12794959185
 30
0.0
 11
27939.96397904035
 21
-1154.12794959185
 31
0.0
210
0.0
220
1.0
230
0.0
  0
LINE
  5
124
330
2
100
AcDbEntity
  8
0
100
AcDbLine
 10
27939.96397904035
 20
-1205.12794959185
 30
0.0
 11
27574.21397904035
 21
-1205.12794959185
 31
0.0
210
0.0
220
1.0
230
0.0
  0
LINE
  5
125
330
2
100
AcDbEntity
  8
0
100
AcDbLine
 10
27575.62819260271
 20
-1206.12794959185
 30
0.0
 11
27575.21397904035
 21
-1205.12794959185
 31
0.0
210
0.0
220
1.0
230
0.0
  0
LINE
  5
126
330
2
100
AcDbEntity
  8
0
100
AcDbLine
 10
27575.21397904035
 20
-1206.12794959185
 30
0.0
 11
27574.21397904035
 21
-1205.12794959185
 31
0.0
210
0.0
220
1.0
230
0.0
  0
LINE
  5
127
330
2
100
AcDbEntity
  8
0
100
AcDbLine
 10
27939.96397904035
 20
-1155.12794959185
 30
0.0
 11
27574.21397904035
 21
-1155.12794959185
 31
0.0
210
0.0
220
1.0
230
0.0
  0
LINE
  5
128
330
2
100
AcDbEntity
  8
0
100
AcDbLine
 10
27575.21397904035
 20
-1205.12794959185
 30
0.0
 11
27575.21397904035
 21
-1155.12794959185
 31
0.0
210
0.0
220
1.0
230
0.0
  0
LINE
  5
129
330
2
100
AcDbEntity
  8
0
100
AcDbLine
 10
27940.95397904034
 20
-1154.12794959185
 30
0.0
 11
27532.09540209978
 21
-1154.12794959185
 31
0.0
210
0.0
220
1.0
230
0.0
  0
LINE
  5
12A
330
2
100
AcDbEntity
  8
0
100
AcDbLine
 10
27575.62819260271
 20
-1154.12794959185
 30
0.0
 11
27575.21397904035
 21
-1155.12794959185
 31
0.0
210
0.0
220
1.0
230
0.0
  0
LINE
  5
12B
330
2
100
AcDbEntity
  8
0
100
AcDbLine
 10
27575.21397904035
 20
-1154.12794959185
 30
0.0
 11
27574.21397904035
 21
-1155.12794959185
 31
0.0
210
0.0
220
1.0
230
0.0
  0
LINE
  5
12C
330
2
100
AcDbEntity
  8
0
100
AcDbLine
 10
27574.21397904035
 20
-1155.12794959185
 30
0.0
 11
27574.21397904035
 21
-1205.12794959185
 31
0.0
210
0.0
220
1.0
230
0.0
  0
ARC
  5
12D
330
2
100
AcDbEntity
  8
0
100
AcDbCircle
 10
27918.46397904035
 20
-1402.63498084185
 30
0.0
 40
20.00703125000005
100
AcDbArc
 50
90.0
 51
267.8516600031121
  0
LINE
  5
12E
330
2
100
AcDbEntity
  8
0
100
AcDbLine
 10
27918.46397904035
 20
-1382.62794959185
 30
0.0
 11
27940.96397904035
 21
-1382.62794959185
 31
0.0
210
0.0
220
1.0
230
0.0
  0
LINE
  5
12F
330
2
100
AcDbEntity
  8
0
100
AcDbLine
 10
27917.71397904035
 20
-1422.627949591851
 30
0.0
 11
27940.96397904035
 21
-1422.627949591851
 31
0.0
210
0.0
220
1.0
230
0.0
  0
ARC
  5
130
330
2
100
AcDbEntity
  8
0
100
AcDbCircle
 10
27918.46397904035
 20
-1252.63498084185
 30
0.0
 40
20.00703125000005
100
AcDbArc
 50
90.0
 51
267.8516600031121
  0
LINE
  5
131
330
2
100
AcDbEntity
  8
0
100
AcDbLine
 10
27918.46397904035
 20
-1232.62794959185
 30
0.0
 11
27940.96397904035
 21
-1232.62794959185
 31
0.0
210
0.0
220
1.0
230
0.0
  0
LINE
  5
132
330
2
100
AcDbEntity
  8
0
100
AcDbLine
 10
27917.71397904035
 20
-1272.627949591851
 30
0.0
 11
27940.96397904035
 21
-1272.627949591851
 31
0.0
210
0.0
220
1.0
230
0.0
  0
ARC
  5
133
330
2
100
AcDbEntity
  8
0
100
AcDbCircle
 10
27918.46397904035
 20
-1327.63498084185
 30
0.0
 40
20.00703125000005
100
AcDbArc
 50
90.0
 51
267.8516600031121
  0
LINE
  5
134
330
2
100
AcDbEntity
  8
0
100
AcDbLine
 10
27918.46397904035
 20
-1307.62794959185
 30
0.0
 11
27940.96397904035
 21
-1307.62794959185
 31
0.0
210
0.0
220
1.0
230
0.0
  0
LINE
  5
135
330
2
100
AcDbEntity
  8
0
100
AcDbLine
 10
27940.96397904035
 20
-1453.12794959185
 30
0.0
 11
27940.96397904035
 21
-1206.12794959185
 31
0.0
210
0.0
220
1.0
230
0.0
  0
LINE
  5
136
330
2
100
AcDbEntity
  8
0
100
AcDbLine
 10
27917.71397904035
 20
-1347.627949591851
 30
0.0
 11
27940.96397904035
 21
-1347.627949591851
 31
0.0
210
0.0
220
1.0
230
0.0
  0
LINE
  5
137
330
2
100
AcDbEntity
  8
0
100
AcDbLine
 10
27939.96397904035
 20
-1347.627949591851
 30
0.0
 11
27939.96397904035
 21
-1382.62794959185
 31
0.0
210
0.0
220
1.0
230
0.0
  0
LINE
  5
138
330
2
100
AcDbEntity
  8
0
100
AcDbLine
 10
27939.96397904035
 20
-1272.627949591851
 30
0.0
 11
27939.96397904035
 21
-1307.62794959185
 31
0.0
210
0.0
220
1.0
230
0.0
  0
LINE
  5
139
330
2
100
AcDbEntity
  8
0
100
AcDbLine
 10
27939.96397904035
 20
-1206.12794959185
 30
0.0
 11
27939.96397904035
 21
-1232.62794959185
 31
0.0
210
0.0
220
1.0
230
0.0
  0
LINE
  5
13A
330
2
100
AcDbEntity
  8
0
100
AcDbLine
 10
27575.21397904035
 20
-1206.12794959185
 30
0.0
 11
27940.96397904035
 21
-1206.12794959185
 31
0.0
210
0.0
220
1.0
230
0.0
  0
LINE
  5
13B
330
2
100
AcDbEntity
  8
0
100
AcDbLine
 10
27661.96397904035
 20
-1453.12794959185
 30
0.0
 11
27661.96397904035
 21
-1206.12794959185
 31
0.0
210
0.0
220
1.0
230
0.0
  0
LINE
  5
13C
330
2
100
AcDbEntity
  8
0
100
AcDbLine
 10
27939.96397904035
 20
-1453.12794959185
 30
0.0
 11
27661.96397904035
 21
-1453.12794959185
 31
0.0
210
0.0
220
1.0
230
0.0
  0
LINE
  5
13D
330
2
100
AcDbEntity
  8
0
100
AcDbLine
 10
27939.96397904035
 20
-1422.627949591851
 30
0.0
 11
27939.96397904035
 21
-1453.12794959185
 31
0.0
210
0.0
220
1.0
230
0.0
  0
LINE
  5
13E
330
2
100
AcDbEntity
  8
0
100
AcDbLine
 10
27939.96397904035
 20
-1453.12794959185
 30
0.0
 11
27940.46397904035
 21
-1453.62794959185
 31
0.0
210
0.0
220
1.0
230
0.0
  0
LINE
  5
13F
330
2
100
AcDbEntity
  8
0
100
AcDbLine
 10
27940.96397904035
 20
-1453.12794959185
 30
0.0
 11
27939.96397904035
 21
-1454.12794959185
 31
0.0
210
0.0
220
1.0
230
0.0
  0
LINE
  5
140
330
2
100
AcDbEntity
  8
0
100
AcDbLine
 10
27661.46397904035
 20
-1453.62794959185
 30
0.0
 11
27661.96397904035
 21
-1453.12794959185
 31
0.0
210
0.0
220
1.0
230
0.0
  0
LINE
  5
141
330
2
100
AcDbEntity
  8
0
100
AcDbLine
 10
27661.96397904035
 20
-1454.12794959185
 30
0.0
 11
27660.96397904035
 21
-1453.12794959185
 31
0.0
210
0.0
220
1.0
230
0.0
  0
LINE
  5
142
330
2
100
AcDbEntity
  8
0
100
AcDbLine
 10
27661.96397904035
 20
-1454.12794959185
 30
0.0
 11
27939.96397904035
 21
-1454.12794959185
 31
0.0
210
0.0
220
1.0
230
0.0
  0
LINE
  5
143
330
2
100
AcDbEntity
  8
0
100
AcDbLine
 10
27660.96397904035
 20
-1206.12794959185
 30
0.0
 11
27660.96397904035
 21
-1453.12794959185
 31
0.0
210
0.0
220
1.0
230
0.0
  0
LINE
  5
144
330
2
100
AcDbEntity
  8
0
100
AcDbLine
 10
27648.82808065548
 20
-1245.877949591851
 30
0.0
 11
27660.96397904035
 21
-1245.877949591851
 31
0.0
210
0.0
220
1.0
230
0.0
  0
LINE
  5
145
330
2
100
AcDbEntity
  8
0
100
AcDbLine
 10
27646.82808065548
 20
-1268.877949591851
 30
0.0
 11
27646.82808065548
 21
-1247.877949591851
 31
0.0
210
0.0
220
1.0
230
0.0
  0
LINE
  5
146
330
2
100
AcDbEntity
  8
0
100
AcDbLine
 10
27660.96397904035
 20
-1270.877949591851
 30
0.0
 11
27648.82808065548
 21
-1270.877949591851
 31
0.0
210
0.0
220
1.0
230
0.0
  0
LINE
  5
147
330
2
100
AcDbEntity
  8
0
100
AcDbLine
 10
27648.82808065548
 20
-1389.12794959185
 30
0.0
 11
27660.96397904035
 21
-1389.12794959185
 31
0.0
210
0.0
220
1.0
230
0.0
  0
LINE
  5
148
330
2
100
AcDbEntity
  8
0
100
AcDbLine
 10
27646.82808065548
 20
-1412.12794959185
 30
0.0
 11
27646.82808065548
 21
-1391.12794959185
 31
0.0
210
0.0
220
1.0
230
0.0
  0
LINE
  5
149
330
2
100
AcDbEntity
  8
0
100
AcDbLine
 10
27660.96397904035
 20
-1414.12794959185
 30
0.0
 11
27648.82808065548
 21
-1414.12794959185
 31
0.0
210
0.0
220
1.0
230
0.0
  0
LINE
  5
14A
330
2
100
AcDbEntity
  8
0
100
AcDbLine
 10
27476.96057151388
 20
-1154.12794959185
 30
0.0
 11
27530.09540209978
 21
-1154.12794959185
 31
0.0
210
0.0
220
1.0
230
0.0
  0
LINE
  5
14B
330
2
100
AcDbEntity
  8
0
100
AcDbLine
 10
27482.78329634909
 20
-1153.06535786261
 30
0.0
 11
27482.78329634909
 21
-1154.12794959185
 31
0.0
210
0.0
220
1.0
230
0.0
  0
LINE
  5
14C
330
2
100
AcDbEntity
  8
0
100
AcDbLine
 10
27871.75067009866
 20
-123.2865107963498
 30
0.0
 11
27706.1704729291
 21
-123.2865107963498
 31
0.0
210
0.0
220
1.0
230
0.0
  0
LINE
  5
14D
330
2
100
AcDbEntity
  8
0
100
AcDbLine
 10
27873.37373597048
 20
-119.1913277456715
 30
0.0
 11
27704.54740705728
 21
-119.1913277456715
 31
0.0
210
0.0
220
1.0
230
0.0
  0
LINE
  5
14E
330
2
100
AcDbEntity
  8
0
100
AcDbLine
 10
27875.00195401298
 20
-80.07351741882667
 30
0.0
 11
27702.91918901477
 21
-80.07351741882667
 31
0.0
210
0.0
220
1.0
230
0.0
  0
LINE
  5
14F
330
2
100
AcDbEntity
  8
0
100
AcDbLine
 10
27875.0016897991
 20
-86.85852988641636
 30
0.0
 11
27702.91945322866
 21
-86.85852988641636
 31
0.0
210
0.0
220
1.0
230
0.0
  0
LINE
  5
150
330
2
100
AcDbEntity
  8
0
100
AcDbLine
 10
27876.89108326311
 20
-89.32688201746532
 30
0.0
 11
27701.03005976465
 21
-89.32688201746532
 31
0.0
210
0.0
220
1.0
230
0.0
  0
LINE
  5
151
330
2
100
AcDbEntity
  8
0
100
AcDbLine
 10
27873.37373597048
 20
-102.4756179191736
 30
0.0
 11
27704.54740705728
 21
-102.4756179191736
 31
0.0
210
0.0
220
1.0
230
0.0
  0
LINE
  5
152
330
2
100
AcDbEntity
  8
0
100
AcDbLine
 10
27843.96057151388
 20
-70.62795027785432
 30
0.0
 11
27733.96057151388
 21
-70.62795027785432
 31
0.0
210
0.0
220
1.0
230
0.0
  0
ELLIPSE
  5
153
330
2
100
AcDbEntity
  8
0
100
AcDbEllipse
 10
27717.75692509174
 20
-146.4629561288384
 30
0.0
 11
-1.674715471601231E-13
 21
-9.075822420807638
 31
0.0
210
0.0
220
0.0
230
1.0
 40
0.7071067811865431
 41
0.0
 42
6.283185307179586
  0
ELLIPSE
  5
154
330
2
100
AcDbEntity
  8
0
100
AcDbEllipse
 10
27721.8537003918
 20
-146.4629561288384
 30
0.0
 11
-2.002232285591570E-13
 21
-10.84285522868503
 31
0.0
210
0.0
220
0.0
230
1.0
 40
0.707106781186543
 41
5.965987018574753
 42
9.424777960769376
  0
ELLIPSE
  5
155
330
2
100
AcDbEntity
  8
0
100
AcDbEllipse
 10
27721.8537003918
 20
-146.4629561288384
 30
0.0
 11
-2.002232285591570E-13
 21
-10.84285522868503
 31
0.0
210
0.0
220
0.0
230
1.0
 40
0.707106781186543
 41
3.14159265358979
 42
3.458790942194635
  0
ELLIPSE
  5
156
330
2
100
AcDbEntity
  8
0
100
AcDbEllipse
 10
27720.65710110632
 20
-146.4629561288384
 30
0.0
 11
-1.900803401062237E-13
 21
-10.30195923021792
 31
0.0
210
0.0
220
0.0
230
1.0
 40
0.7071067811865431
 41
6.231643858269334
 42
6.283185307179589
  0
ELLIPSE
  5
157
330
2
100
AcDbEntity
  8
0
100
AcDbEllipse
 10
27720.65710110632
 20
-146.4629561288384
 30
0.0
 11
-1.900803401062237E-13
 21
-10.30195923021792
 31
0.0
210
0.0
220
0.0
230
1.0
 40
0.7071067811865431
 41
0.0000000000000027
 42
3.193134102500043
  0
ELLIPSE
  5
158
330
2
100
AcDbEntity
  8
0
100
AcDbEllipse
 10
27721.8537003918
 20
-146.4629561288384
 30
0.0
 11
-1.899947490104530E-13
 21
-10.30201273528253
 31
0.0
210
0.0
220
0.0
230
1.0
 40
0.707106781186543
 41
3.141592653589796
 42
3.141624271353985
  0
ELLIPSE
  5
159
330
2
100
AcDbEntity
  8
0
100
AcDbEllipse
 10
27721.8537003918
 20
-146.4629561288384
 30
0.0
 11
-1.899947490104530E-13
 21
-10.30201273528253
 31
0.0
210
0.0
220
0.0
230
1.0
 40
0.707106781186543
 41
6.283153689415392
 42
9.424777960769383
  0
ELLIPSE
  5
15A
330
2
100
AcDbEntity
  8
0
100
AcDbEllipse
 10
27719.90729054906
 20
-146.4629561288384
 30
0.0
 11
-1.901611518572870E-13
 21
-10.30190295611541
 31
0.0
210
0.0
220
0.0
230
1.0
 40
0.7071067811865431
 41
0.0000554772897163
 42
3.141537176300028
  0
ELLIPSE
  5
15B
330
2
100
AcDbEntity
  8
0
100
AcDbEllipse
 10
27718.13953516324
 20
-146.4629561288384
 30
0.0
 11
-1.900854828423420E-13
 21
-10.3020416484321
 31
0.0
210
0.0
220
0.0
230
1.0
 40
0.7071067811865431
 41
0.0
 42
6.283185307179586
  0
ELLIPSE
  5
15C
330
2
100
AcDbEntity
  8
0
100
AcDbEllipse
 10
27717.75702751335
 20
-146.4629561288384
 30
0.0
 11
-1.801363276356270E-13
 21
-9.76096171955267
 31
0.0
210
0.0
220
0.0
230
1.0
 40
0.7071067811865431
 41
0.0
 42
6.283185307179586
  0
LINE
  5
15D
330
2
100
AcDbEntity
  8
0
100
AcDbLine
 10
27475.96057151388
 20
-1002.678490896217
 30
0.0
 11
27487.39705412762
 21
-1002.678490896217
 31
0.0
210
0.0
220
1.0
230
0.0
  0
LINE
  5
15E
330
2
100
AcDbEntity
  8
0
100
AcDbLine
 10
27487.39705412762
 20
-1002.178490896217
 30
0.0
 11
27476.46057151388
 21
-1002.178490896217
 31
0.0
210
0.0
220
1.0
230
0.0
  0
LINE
  5
15F
330
2
100
AcDbEntity
  8
0
100
AcDbLine
 10
27487.39705412762
 20
-981.6784908962172
 30
0.0
 11
27475.96057151388
 21
-981.6784908962172
 31
0.0
210
0.0
220
1.0
230
0.0
  0
LINE
  5
160
330
2
100
AcDbEntity
  8
0
100
AcDbLine
 10
27476.46057151388
 20
-982.1784908962172
 30
0.0
 11
27487.39705412762
 21
-982.1784908962172
 31
0.0
210
0.0
220
1.0
230
0.0
  0
LINE
  5
161
330
2
100
AcDbEntity
  8
0
100
AcDbLine
 10
27487.39705412762
 20
-1002.678490896217
 30
0.0
 11
27487.39705412762
 21
-981.6784908962172
 31
0.0
210
0.0
220
1.0
230
0.0
  0
LINE
  5
162
330
2
100
AcDbEntity
  8
0
100
AcDbLine
 10
27488.02469057006
 20
-174.1279495918498
 30
0.0
 11
27488.02469057006
 21
-1152.12794959185
 31
0.0
210
0.0
220
1.0
230
0.0
  0
LINE
  5
163
330
2
100
AcDbEntity
  8
0
100
AcDbLine
 10
27475.96057151388
 20
-174.1279495918498
 30
0.0
 11
27530.09540209978
 21
-174.1279495918498
 31
0.0
210
0.0
220
1.0
230
0.0
  0
LINE
  5
164
330
2
100
AcDbEntity
  8
0
100
AcDbLine
 10
27481.78329634909
 20
-1073.441068558387
 30
0.0
 11
27475.96057151388
 21
-1073.441068558387
 31
0.0
210
0.0
220
1.0
230
0.0
  0
LINE
  5
165
330
2
100
AcDbEntity
  8
0
100
AcDbLine
 10
27481.78329634909
 20
-1073.441068558387
 30
0.0
 11
27481.78329634909
 21
-1152.12794959185
 31
0.0
210
0.0
220
1.0
230
0.0
  0
LINE
  5
166
330
2
100
AcDbEntity
  8
0
100
AcDbLine
 10
27481.78329634909
 20
-1152.12794959185
 30
0.0
 11
27530.09540209978
 21
-1152.12794959185
 31
0.0
210
0.0
220
1.0
230
0.0
  0
LINE
  5
167
330
2
100
AcDbEntity
  8
0
100
AcDbLine
 10
27530.09540209978
 20
-174.1279495918498
 30
0.0
 11
27530.09540209978
 21
-1152.12794959185
 31
0.0
210
0.0
220
1.0
230
0.0
  0
LINE
  5
168
330
2
100
AcDbEntity
  8
0
100
AcDbLine
 10
27531.09540209978
 20
-1153.127949591851
 30
0.0
 11
27530.09540209978
 21
-1152.12794959185
 31
0.0
210
0.0
220
1.0
230
0.0
  0
LINE
  5
169
330
2
100
AcDbEntity
  8
0
100
AcDbLine
 10
27532.09540209978
 20
-1152.12794959185
 30
0.0
 11
27530.09540209978
 21
-1154.12794959185
 31
0.0
210
0.0
220
1.0
230
0.0
  0
LINE
  5
16A
330
2
100
AcDbEntity
  8
0
100
AcDbLine
 10
27532.09540209978
 20
-176.1279495918498
 30
0.0
 11
27532.09540209978
 21
-1154.12794959185
 31
0.0
210
0.0
220
1.0
230
0.0
  0
LINE
  5
16B
330
2
100
AcDbEntity
  8
0
100
AcDbLine
 10
27530.09540209978
 20
-174.1279495918498
 30
0.0
 11
27532.09540209978
 21
-176.1279495918498
 31
0.0
210
0.0
220
1.0
230
0.0
  0
LINE
  5
16C
330
2
100
AcDbEntity
  8
0
100
AcDbLine
 10
27532.09540209978
 20
-176.1279495918498
 30
0.0
 11
27534.09540209978
 21
-174.1279495918498
 31
0.0
210
0.0
220
1.0
230
0.0
  0
LINE
  5
16D
330
2
100
AcDbEntity
  8
0
100
AcDbLine
 10
27534.09540209978
 20
-1152.12794959185
 30
0.0
 11
27532.09540209978
 21
-1154.12794959185
 31
0.0
210
0.0
220
1.0
230
0.0
  0
LINE
  5
16E
330
2
100
AcDbEntity
  8
0
100
AcDbLine
 10
27940.95397904034
 20
-1154.12794959185
 30
0.0
 11
27940.95397904034
 21
-174.1279495918498
 31
0.0
210
0.0
220
1.0
230
0.0
  0
LINE
  5
16F
330
2
100
AcDbEntity
  8
0
100
AcDbLine
 10
27940.95397904034
 20
-1152.12794959185
 30
0.0
 11
27534.09540209978
 21
-1152.12794959185
 31
0.0
210
0.0
220
1.0
230
0.0
  0
LINE
  5
170
330
2
100
AcDbEntity
  8
0
100
AcDbLine
 10
27534.09540209978
 20
-1152.12794959185
 30
0.0
 11
27534.09540209978
 21
-174.1279495918498
 31
0.0
210
0.0
220
1.0
230
0.0
  0
LINE
  5
171
330
2
100
AcDbEntity
  8
0
100
AcDbLine
 10
27534.09540209978
 20
-174.1279495918498
 30
0.0
 11
27940.95397904034
 21
-174.1279495918498
 31
0.0
210
0.0
220
1.0
230
0.0
  0
LINE
  5
172
330
2
100
AcDbEntity
  8
0
100
AcDbLine
 10
27946.95397904034
 20
-271.9052789386742
 30
0.0
 11
27940.95397904034
 21
-271.9052789386742
 31
0.0
210
0.0
220
1.0
230
0.0
  0
LINE
  5
173
330
2
100
AcDbEntity
  8
0
100
AcDbLine
 10
27946.95397904034
 20
-329.1279960569391
 30
0.0
 11
27940.95397904034
 21
-329.1279960569391
 31
0.0
210
0.0
220
1.0
230
0.0
  0
LINE
  5
174
330
2
100
AcDbEntity
  8
0
100
AcDbLine
 10
27946.95397904034
 20
-329.1279960569391
 30
0.0
 11
27946.95397904034
 21
-271.9052789386742
 31
0.0
210
0.0
220
1.0
230
0.0
  0
LINE
  5
175
330
2
100
AcDbEntity
  8
0
100
AcDbLine
 10
27487.30706586336
 20
-1001.678490896217
 30
0.0
 11
27475.96057151388
 21
-1001.678490896217
 31
0.0
210
0.0
220
1.0
230
0.0
  0
LINE
  5
176
330
2
100
AcDbEntity
  8
0
100
AcDbLine
 10
27487.30706586336
 20
-982.6784908962172
 30
0.0
 11
27487.30706586336
 21
-1001.678490896217
 31
0.0
210
0.0
220
1.0
230
0.0
  0
LINE
  5
177
330
2
100
AcDbEntity
  8
0
100
AcDbLine
 10
27475.96057151388
 20
-982.6784908962172
 30
0.0
 11
27487.30706586336
 21
-982.6784908962172
 31
0.0
210
0.0
220
1.0
230
0.0
  0
LINE
  5
178
330
2
100
AcDbEntity
  8
0
100
AcDbLine
 10
27674.66397904034
 20
-1833.627949592049
 30
0.0
 11
27671.66397904034
 21
-1836.627949592049
 31
0.0
210
0.0
220
1.0
230
0.0
  0
LINE
  5
179
330
2
100
AcDbEntity
  8
0
100
AcDbLine
 10
27671.66397904034
 20
-1492.327949592051
 30
0.0
 11
27674.66397904034
 21
-1495.327949592051
 31
0.0
210
0.0
220
1.0
230
0.0
  0
LINE
  5
17A
330
2
100
AcDbEntity
  8
0
100
AcDbLine
 10
27674.66397904034
 20
-1495.327949592051
 30
0.0
 11
27674.66397904034
 21
-1532.327949591851
 31
0.0
210
0.0
220
1.0
230
0.0
  0
LINE
  5
17B
330
2
100
AcDbEntity
  8
0
100
AcDbLine
 10
27671.66397904034
 20
-1492.327949592051
 30
0.0
 11
27671.66397904034
 21
-1532.406744067524
 31
0.0
210
0.0
220
1.0
230
0.0
  0
LINE
  5
17C
330
2
100
AcDbEntity
  8
0
100
AcDbLine
 10
27674.66397904034
 20
-1687.327949591851
 30
0.0
 11
27674.66397904034
 21
-1646.627949591852
 31
0.0
210
0.0
220
1.0
230
0.0
  0
LINE
  5
17D
330
2
100
AcDbEntity
  8
0
100
AcDbLine
 10
27674.66397904034
 20
-1806.627949591852
 30
0.0
 11
27674.66397904034
 21
-1801.627949591852
 31
0.0
210
0.0
220
1.0
230
0.0
  0
LINE
  5
17E
330
2
100
AcDbEntity
  8
0
100
AcDbLine
 10
27674.66397904034
 20
-1833.627949592051
 30
0.0
 11
27674.66397904034
 21
-1831.627949591852
 31
0.0
210
0.0
220
1.0
230
0.0
  0
LINE
  5
17F
330
2
100
AcDbEntity
  8
0
100
AcDbLine
 10
27671.66397904034
 20
-1831.627949591852
 30
0.0
 11
27671.66397904034
 21
-1836.627949592049
 31
0.0
210
0.0
220
1.0
230
0.0
  0
LINE
  5
180
330
2
100
AcDbEntity
  8
0
100
AcDbLine
 10
27671.66397904034
 20
-1801.549155116179
 30
0.0
 11
27671.66397904034
 21
-1806.627949591852
 31
0.0
210
0.0
220
1.0
230
0.0
  0
LINE
  5
181
330
2
100
AcDbEntity
  8
0
100
AcDbLine
 10
27671.66397904034
 20
-1646.549155116179
 30
0.0
 11
27671.66397904034
 21
-1687.406744067524
 31
0.0
210
0.0
220
1.0
230
0.0
  0
LINE
  5
182
330
2
100
AcDbEntity
  8
0
100
AcDbLine
 10
27626.96397904035
 20
-1836.627949592049
 30
0.0
 11
27671.66397904034
 21
-1836.627949592049
 31
0.0
210
0.0
220
1.0
230
0.0
  0
LINE
  5
183
330
2
100
AcDbEntity
  8
0
100
AcDbLine
 10
27568.42120304704
 20
-1492.327949592051
 30
0.0
 11
27671.66397904034
 21
-1492.327949592051
 31
0.0
210
0.0
220
1.0
230
0.0
  0
ARC
  5
184
330
2
100
AcDbEntity
  8
0
100
AcDbCircle
 10
27568.42120304704
 20
-1502.327949592051
 30
0.0
 40
9.999999999999991
100
AcDbArc
 50
90.0
 51
158.3911883321553
  0
ARC
  5
185
330
2
100
AcDbEntity
  8
0
100
AcDbCircle
 10
27778.23929224689
 20
-1585.438136977882
 30
0.0
 40
235.6788288758702
100
AcDbArc
 50
158.3911883321553
 51
199.3638316521092
  0
ARC
  5
186
330
2
100
AcDbEntity
  8
0
100
AcDbCircle
 10
27546.22707799999
 20
-1666.977949592096
 30
0.0
 40
10.24475397236555
100
AcDbArc
 50
340.6361683480565
 51
19.36383165194358
  0
ARC
  5
187
330
2
100
AcDbEntity
  8
0
100
AcDbCircle
 10
27767.51397904081
 20
-1746.802949592097
 30
0.0
 40
225.0000000004612
100
AcDbArc
 50
160.1425690086222
 51
203.5295648348296
  0
LINE
  5
188
330
2
100
AcDbEntity
  8
0
100
AcDbLine
 10
27677.66397904034
 20
-1836.627949592049
 30
0.0
 11
27674.66397904034
 21
-1833.627949592051
 31
0.0
210
0.0
220
1.0
230
0.0
  0
LINE
  5
189
330
2
100
AcDbEntity
  8
0
100
AcDbLine
 10
27788.10617320923
 20
-1836.627949592102
 30
0.0
 11
27677.66397904034
 21
-1836.627949592049
 31
0.0
210
0.0
220
1.0
230
0.0
  0
LINE
  5
18A
330
2
100
AcDbEntity
  8
0
100
AcDbLine
 10
27674.66397904034
 20
-1495.327949592051
 30
0.0
 11
27677.66397904034
 21
-1492.327949592051
 31
0.0
210
0.0
220
1.0
230
0.0
  0
LINE
  5
18B
330
2
100
AcDbEntity
  8
0
100
AcDbLine
 10
27677.66397904034
 20
-1492.327949592051
 30
0.0
 11
27677.66397904034
 21
-1532.406744067524
 31
0.0
210
0.0
220
1.0
230
0.0
  0
LINE
  5
18C
330
2
100
AcDbEntity
  8
0
100
AcDbLine
 10
27677.66397904034
 20
-1687.406744067524
 30
0.0
 11
27677.66397904034
 21
-1646.549155116179
 31
0.0
210
0.0
220
1.0
230
0.0
  0
LINE
  5
18D
330
2
100
AcDbEntity
  8
0
100
AcDbLine
 10
27677.66397904034
 20
-1806.627949591852
 30
0.0
 11
27677.66397904034
 21
-1801.549155116179
 31
0.0
210
0.0
220
1.0
230
0.0
  0
LINE
  5
18E
330
2
100
AcDbEntity
  8
0
100
AcDbLine
 10
27677.66397904034
 20
-1836.627949592049
 30
0.0
 11
27677.66397904034
 21
-1831.627949591852
 31
0.0
210
0.0
220
1.0
230
0.0
  0
LINE
  5
18F
330
2
100
AcDbEntity
  8
0
100
AcDbLine
 10
27780.90675503364
 20
-1492.327949592051
 30
0.0
 11
27677.66397904034
 21
-1492.327949592051
 31
0.0
210
0.0
220
1.0
230
0.0
  0
ARC
  5
190
330
2
100
AcDbEntity
  8
0
100
AcDbCircle
 10
27780.90675503364
 20
-1502.327949592051
 30
0.0
 40
9.999999999999991
100
AcDbArc
 50
21.60881166784469
 51
90.0
  0
ARC
  5
191
330
2
100
AcDbEntity
  8
0
100
AcDbCircle
 10
27571.08866583379
 20
-1585.438136977882
 30
0.0
 40
235.6788288758702
100
AcDbArc
 50
340.6361683478908
 51
21.60881166784469
  0
ARC
  5
192
330
2
100
AcDbEntity
  8
0
100
AcDbCircle
 10
27803.1008800807
 20
-1666.977949592096
 30
0.0
 40
10.24475397236555
100
AcDbArc
 50
160.6361683480564
 51
199.3638316519436
  0
ARC
  5
193
330
2
100
AcDbEntity
  8
0
100
AcDbCircle
 10
27581.81397903987
 20
-1746.802949592097
 30
0.0
 40
225.0000000004612
100
AcDbArc
 50
336.4704351650847
 51
337.8520208986651
  0
ARC
  5
194
330
2
100
AcDbEntity
  8
0
100
AcDbCircle
 10
27581.81397903987
 20
-1746.802949592097
 30
0.0
 40
225.0000000004612
100
AcDbArc
 50
344.5802225967152
 51
19.85743099137782
  0
LINE
  5
195
330
2
100
AcDbEntity
  8
0
100
AcDbLine
 10
27626.96397904035
 20
-1836.627949591852
 30
0.0
 11
27561.22178487146
 21
-1836.627949592102
 31
0.0
210
0.0
220
1.0
230
0.0
  0
LINE
  5
196
330
2
100
AcDbEntity
  8
0
100
AcDbLine
 10
27566.96397904035
 20
-1836.627949591852
 30
0.0
 11
27566.96397904035
 21
-1831.627949591852
 31
0.0
210
0.0
220
1.0
230
0.0
  0
LINE
  5
197
330
2
100
AcDbEntity
  8
0
100
AcDbLine
 10
27626.96397904035
 20
-1836.627949591852
 30
0.0
 11
27626.96397904035
 21
-1831.627949591852
 31
0.0
210
0.0
220
1.0
230
0.0
  0
LINE
  5
198
330
2
100
AcDbEntity
  8
0
100
AcDbLine
 10
28076.96397904035
 20
-1836.627949591852
 30
0.0
 11
28076.96397904035
 21
-1831.627949591852
 31
0.0
210
0.0
220
1.0
230
0.0
  0
LINE
  5
199
330
2
100
AcDbEntity
  8
0
100
AcDbLine
 10
28076.96397904035
 20
-1831.627949591852
 30
0.0
 11
27566.96397904035
 21
-1831.627949591852
 31
0.0
210
0.0
220
1.0
230
0.0
  0
LINE
  5
19A
330
2
100
AcDbEntity
  8
0
100
AcDbLine
 10
28016.96397904035
 20
-1836.627949591852
 30
0.0
 11
28016.96397904035
 21
-1831.627949591852
 31
0.0
210
0.0
220
1.0
230
0.0
  0
LINE
  5
19B
330
2
100
AcDbEntity
  8
0
100
AcDbLine
 10
28076.96397904035
 20
-1836.627949591852
 30
0.0
 11
28016.96397904035
 21
-1836.627949591852
 31
0.0
210
0.0
220
1.0
230
0.0
  0
ARC
  5
19C
330
2
100
AcDbEntity
  8
0
100
AcDbCircle
 10
28042.96397904035
 20
-1827.627949591852
 30
0.0
 40
4.0
100
AcDbArc
 50
270.0
 51
0.0
  0
ARC
  5
19D
330
2
100
AcDbEntity
  8
0
100
AcDbCircle
 10
28042.96397904035
 20
-1810.627949591852
 30
0.0
 40
4.0
100
AcDbArc
 50
0.0
 51
90.0
  0
LINE
  5
19E
330
2
100
AcDbEntity
  8
0
100
AcDbLine
 10
28046.96397904035
 20
-1827.627949591852
 30
0.0
 11
28046.96397904035
 21
-1810.627949591852
 31
0.0
210
0.0
220
1.0
230
0.0
  0
CIRCLE
  5
19F
330
2
100
AcDbEntity
  8
0
100
AcDbCircle
 10
27621.96397904035
 20
-1819.127949591852
 30
0.0
 40
4.5
  0
CIRCLE
  5
1A0
330
2
100
AcDbEntity
  8
0
100
AcDbCircle
 10
27701.96397904035
 20
-1819.127949591852
 30
0.0
 40
4.5
  0
ARC
  5
1A1
330
2
100
AcDbEntity
  8
0
100
AcDbCircle
 10
27593.96397904035
 20
-1827.627949591852
 30
0.0
 40
4.0
100
AcDbArc
 50
180.0
 51
270.0
  0
LINE
  5
1A2
330
2
100
AcDbEntity
  8
0
100
AcDbLine
 10
27589.96397904035
 20
-1810.627949591852
 30
0.0
 11
27589.96397904035
 21
-1827.627949591852
 31
0.0
210
0.0
220
1.0
230
0.0
  0
ARC
  5
1A3
330
2
100
AcDbEntity
  8
0
100
AcDbCircle
 10
27593.96397904035
 20
-1810.627949591852
 30
0.0
 40
4.0
100
AcDbArc
 50
90.0
 51
180.0
  0
LINE
  5
1A4
330
2
100
AcDbEntity
  8
0
100
AcDbLine
 10
27593.96397904035
 20
-1806.627949591852
 30
0.0
 11
28042.96397904035
 21
-1806.627949591852
 31
0.0
210
0.0
220
1.0
230
0.0
  0
LINE
  5
1A5
330
2
100
AcDbEntity
  8
0
100
AcDbLine
 10
27998.56397904034
 20
-1674.627949591852
 30
0.0
 11
27998.56397904034
 21
-1658.627949591852
 31
0.0
210
0.0
220
1.0
230
0.0
  0
LINE
  5
1A6
330
2
100
AcDbEntity
  8
0
100
AcDbLine
 10
27821.96397904035
 20
-1806.627949591852
 30
0.0
 11
27946.96397904035
 21
-1681.627949591852
 31
0.0
210
0.0
220
1.0
230
0.0
  0
LINE
  5
1A7
330
2
100
AcDbEntity
  8
0
100
AcDbLine
 10
27946.96397904035
 20
-1752.338627710506
 30
0.0
 11
27892.674657159
 21
-1806.627949591852
 31
0.0
210
0.0
220
1.0
230
0.0
  0
LINE
  5
1A8
330
2
100
AcDbEntity
  8
0
100
AcDbLine
 10
28006.96397904035
 20
-1662.627949591852
 30
0.0
 11
28006.96397904035
 21
-1670.627949591852
 31
0.0
210
0.0
220
1.0
230
0.0
  0
ARC
  5
1A9
330
2
100
AcDbEntity
  8
0
100
AcDbCircle
 10
27950.96397904035
 20
-111.1279495918516
 30
0.0
 40
4.0
100
AcDbArc
 50
90.0
 51
180.0
  0
LINE
  5
1AA
330
2
100
AcDbEntity
  8
0
100
AcDbLine
 10
27992.96397904035
 20
-107.1279495918516
 30
0.0
 11
27950.96397904035
 21
-107.1279495918516
 31
0.0
210
0.0
220
1.0
230
0.0
  0
ARC
  5
1AB
330
2
100
AcDbEntity
  8
0
100
AcDbCircle
 10
27992.96397904035
 20
-111.1279495918516
 30
0.0
 40
4.0
100
AcDbArc
 50
0.0
 51
90.0
  0
LINE
  5
1AC
330
2
100
AcDbEntity
  8
0
100
AcDbLine
 10
27946.96397904035
 20
-111.1279495918516
 30
0.0
 11
27946.96397904035
 21
-1806.627949591852
 31
0.0
210
0.0
220
1.0
230
0.0
  0
LINE
  5
1AD
330
2
100
AcDbEntity
  8
0
100
AcDbLine
 10
27996.96397904035
 20
-111.1279495918516
 30
0.0
 11
27996.96397904035
 21
-1806.627949591852
 31
0.0
210
0.0
220
1.0
230
0.0
  0
CIRCLE
  5
1AE
330
2
100
AcDbEntity
  8
0
100
AcDbCircle
 10
27971.96397904035
 20
-349.1279495918516
 30
0.0
 40
4.5
  0
CIRCLE
  5
1AF
330
2
100
AcDbEntity
  8
0
100
AcDbCircle
 10
27971.96397904035
 20
-1524.127949591852
 30
0.0
 40
4.5
  0
CIRCLE
  5
1B0
330
2
100
AcDbEntity
  8
0
100
AcDbCircle
 10
27971.96397904035
 20
-1554.127949591852
 30
0.0
 40
4.5
  0
CIRCLE
  5
1B1
330
2
100
AcDbEntity
  8
0
100
AcDbCircle
 10
27971.96397904035
 20
-1093.627949591852
 30
0.0
 40
4.5
  0
LINE
  5
1B2
330
2
100
AcDbEntity
  8
0
100
AcDbLine
 10
27945.36397904034
 20
-1658.627949591852
 30
0.0
 11
27945.36397904034
 21
-1674.627949591852
 31
0.0
210
0.0
220
1.0
230
0.0
  0
LINE
  5
1B3
330
2
100
AcDbEntity
  8
0
100
AcDbLine
 10
27869.96397904035
 20
-1631.925889746214
 30
0.0
 11
27869.96397904035
 21
-1641.708078003097
 31
0.0
210
0.0
220
1.0
230
0.0
  0
LINE
  5
1B4
330
2
100
AcDbEntity
  8
0
100
AcDbLine
 10
27873.96397904035
 20
-1641.708078003097
 30
0.0
 11
27873.96397904035
 21
-1631.925889746214
 31
0.0
210
0.0
220
1.0
230
0.0
  0
LINE
  5
1B5
330
2
100
AcDbEntity
  8
0
100
AcDbLine
 10
27867.96397904035
 20
-1631.925889746214
 30
0.0
 11
27869.96397904035
 21
-1631.925889746214
 31
0.0
210
0.0
220
1.0
230
0.0
  0
LINE
  5
1B6
330
2
100
AcDbEntity
  8
0
100
AcDbLine
 10
27873.96397904035
 20
-1631.925889746214
 30
0.0
 11
27875.96397904035
 21
-1631.925889746214
 31
0.0
210
0.0
220
1.0
230
0.0
  0
ARC
  5
1B7
330
2
100
AcDbEntity
  8
0
100
AcDbCircle
 10
27871.96397904035
 20
-1666.627949591852
 30
0.0
 40
25.0
100
AcDbArc
 50
94.5885657358863
 51
85.4114342641137
  0
LINE
  5
1B8
330
2
100
AcDbEntity
  8
0
100
AcDbLine
 10
27875.96397904035
 20
-1631.925889746214
 30
0.0
 11
27875.96397904035
 21
-1639.925889746214
 31
0.0
210
0.0
220
1.0
230
0.0
  0
LINE
  5
1B9
330
2
100
AcDbEntity
  8
0
100
AcDbLine
 10
27867.96397904035
 20
-1639.925889746214
 30
0.0
 11
27867.96397904035
 21
-1631.925889746214
 31
0.0
210
0.0
220
1.0
230
0.0
  0
ARC
  5
1BA
330
2
100
AcDbEntity
  8
0
100
AcDbCircle
 10
27871.96397904035
 20
-1666.627949591852
 30
0.0
 40
27.0
100
AcDbArc
 50
98.51962425422916
 51
81.48037574577084
  0
LINE
  5
1BB
330
2
100
AcDbEntity
  8
0
100
AcDbLine
 10
28005.06397904034
 20
-1659.122396092386
 30
0.0
 11
28005.06397904034
 21
-1674.133503091317
 31
0.0
210
0.0
220
1.0
230
0.0
  0
LINE
  5
1BC
330
2
100
AcDbEntity
  8
0
100
AcDbLine
 10
28005.06397904034
 20
-1659.122396092386
 30
0.0
 11
27998.56397904034
 21
-1659.122396092386
 31
0.0
210
0.0
220
1.0
230
0.0
  0
LINE
  5
1BD
330
2
100
AcDbEntity
  8
0
100
AcDbLine
 10
28005.06397904034
 20
-1662.875172842119
 30
0.0
 11
27998.56397904034
 21
-1662.875172842119
 31
0.0
210
0.0
220
1.0
230
0.0
  0
LINE
  5
1BE
330
2
100
AcDbEntity
  8
0
100
AcDbLine
 10
28005.06397904034
 20
-1670.380726341585
 30
0.0
 11
27998.56397904034
 21
-1670.380726341585
 31
0.0
210
0.0
220
1.0
230
0.0
  0
LINE
  5
1BF
330
2
100
AcDbEntity
  8
0
100
AcDbLine
 10
28005.06397904034
 20
-1674.133503091316
 30
0.0
 11
27998.56397904034
 21
-1674.133503091316
 31
0.0
210
0.0
220
1.0
230
0.0
  0
LINE
  5
1C0
330
2
100
AcDbEntity
  8
0
100
AcDbLine
 10
27938.86397904034
 20
-1674.133503091317
 30
0.0
 11
27938.86397904034
 21
-1659.122396092386
 31
0.0
210
0.0
220
1.0
230
0.0
  0
LINE
  5
1C1
330
2
100
AcDbEntity
  8
0
100
AcDbLine
 10
27945.36397904034
 20
-1659.122396092386
 30
0.0
 11
27938.86397904034
 21
-1659.122396092386
 31
0.0
210
0.0
220
1.0
230
0.0
  0
LINE
  5
1C2
330
2
100
AcDbEntity
  8
0
100
AcDbLine
 10
27945.36397904034
 20
-1662.875172842119
 30
0.0
 11
27938.86397904034
 21
-1662.875172842119
 31
0.0
210
0.0
220
1.0
230
0.0
  0
LINE
  5
1C3
330
2
100
AcDbEntity
  8
0
100
AcDbLine
 10
27945.36397904034
 20
-1670.380726341585
 30
0.0
 11
27938.86397904034
 21
-1670.380726341585
 31
0.0
210
0.0
220
1.0
230
0.0
  0
LINE
  5
1C4
330
2
100
AcDbEntity
  8
0
100
AcDbLine
 10
27945.36397904034
 20
-1674.133503091316
 30
0.0
 11
27938.86397904034
 21
-1674.133503091316
 31
0.0
210
0.0
220
1.0
230
0.0
  0
LINE
  5
1C5
330
2
100
AcDbEntity
  8
0
100
AcDbLine
 10
27912.96397904035
 20
-1674.133503091317
 30
0.0
 11
27912.96397904035
 21
-1659.122396092386
 31
0.0
210
0.0
220
1.0
230
0.0
  0
LINE
  5
1C6
330
2
100
AcDbEntity
  8
0
100
AcDbLine
 10
27919.46397904035
 20
-1659.122396092386
 30
0.0
 11
27919.46397904035
 21
-1674.133503091317
 31
0.0
210
0.0
220
1.0
230
0.0
  0
LINE
  5
1C7
330
2
100
AcDbEntity
  8
0
100
AcDbLine
 10
27919.46397904035
 20
-1659.122396092386
 30
0.0
 11
27912.96397904035
 21
-1659.122396092386
 31
0.0
210
0.0
220
1.0
230
0.0
  0
LINE
  5
1C8
330
2
100
AcDbEntity
  8
0
100
AcDbLine
 10
27919.46397904035
 20
-1662.875172842119
 30
0.0
 11
27912.96397904035
 21
-1662.875172842119
 31
0.0
210
0.0
220
1.0
230
0.0
  0
LINE
  5
1C9
330
2
100
AcDbEntity
  8
0
100
AcDbLine
 10
27919.46397904035
 20
-1670.380726341585
 30
0.0
 11
27912.96397904035
 21
-1670.380726341585
 31
0.0
210
0.0
220
1.0
230
0.0
  0
LINE
  5
1CA
330
2
100
AcDbEntity
  8
0
100
AcDbLine
 10
27919.46397904035
 20
-1674.133503091316
 30
0.0
 11
27912.96397904035
 21
-1674.133503091316
 31
0.0
210
0.0
220
1.0
230
0.0
  0
LINE
  5
1CB
330
2
100
AcDbEntity
  8
0
100
AcDbLine
 10
27903.96397904035
 20
-1674.133503091317
 30
0.0
 11
27903.96397904035
 21
-1659.122396092386
 31
0.0
210
0.0
220
1.0
230
0.0
  0
LINE
  5
1CC
330
2
100
AcDbEntity
  8
0
100
AcDbLine
 10
27910.46397904035
 20
-1659.122396092386
 30
0.0
 11
27910.46397904035
 21
-1674.133503091317
 31
0.0
210
0.0
220
1.0
230
0.0
  0
LINE
  5
1CD
330
2
100
AcDbEntity
  8
0
100
AcDbLine
 10
27910.46397904035
 20
-1659.122396092386
 30
0.0
 11
27903.96397904035
 21
-1659.122396092386
 31
0.0
210
0.0
220
1.0
230
0.0
  0
LINE
  5
1CE
330
2
100
AcDbEntity
  8
0
100
AcDbLine
 10
27910.46397904035
 20
-1662.875172842119
 30
0.0
 11
27903.96397904035
 21
-1662.875172842119
 31
0.0
210
0.0
220
1.0
230
0.0
  0
LINE
  5
1CF
330
2
100
AcDbEntity
  8
0
100
AcDbLine
 10
27910.46397904035
 20
-1670.380726341585
 30
0.0
 11
27903.96397904035
 21
-1670.380726341585
 31
0.0
210
0.0
220
1.0
230
0.0
  0
LINE
  5
1D0
330
2
100
AcDbEntity
  8
0
100
AcDbLine
 10
27910.46397904035
 20
-1674.133503091316
 30
0.0
 11
27903.96397904035
 21
-1674.133503091316
 31
0.0
210
0.0
220
1.0
230
0.0
  0
VIEWPORT
  5
233
102
{ACAD_XDICTIONARY
360
234
102
}
330
22C
100
AcDbEntity
 67
     1
  8
0
100
AcDbViewport
 10
143.4359130859375
 20
98.18158769607544
 30
0.0
 40
294.2677021224711
 41
158.309871803866
 68
     1
 69
     1
 12
143.4359130859375
 22
98.18158769607544
 13
0.0
 23
0.0
 14
10.0
 24
10.0
 15
10.0
 25
10.0
 16
0.0
 26
0.0
 36
1.0
 17
0.0
 27
0.0
 37
0.0
 42
50.0
 43
0.0
 44
0.0
 45
158.309871803866
 50
0.0
 51
0.0
 72
  1000
 90
   819232
  1

281
     0
 71
     1
 74
     0
110
0.0
120
0.0
130
0.0
111
1.0
121
0.0
131
0.0
112
0.0
122
1.0
132
0.0
 79
     0
146
0.0
  0
VIEWPORT
  5
237
102
{ACAD_XDICTIONARY
360
238
102
}
330
22C
100
AcDbEntity
 67
     1
  8
0
100
AcDbViewport
 10
143.4359130859375
 20
98.18158769607544
 30
0.0
 40
229.4974609375
 41
157.0905403137207
 68
     2
 69
     2
 12
3561.458382624223
 22
-6938.564551804431
 13
0.0
 23
0.0
 14
10.0
 24
10.0
 15
10.0
 25
10.0
 16
0.0
 26
0.0
 36
1.0
 17
24215.61165324722
 27
5985.022711346184
 37
0.0
 42
50.0
 43
0.0
 44
0.0
 45
1785.621247237702
 50
0.0
 51
0.0
 72
  1000
 90
   819296
  1

281
     0
 71
     1
 74
     0
110
0.0
120
0.0
130
0.0
111
1.0
121
0.0
131
0.0
112
0.0
122
1.0
132
0.0
 79
     0
146
0.0
  0
ENDSEC
  0
SECTION
  2
OBJECTS
  0
DICTIONARY
  5
B
330
0
100
AcDbDictionary
281
     1
  3
ACAD_CIP_PREVIOUS_PRODUCT_INFO
350
21E
  3
ACAD_COLOR
350
35
  3
ACAD_DETAILVIEWSTYLE
350
21A
  3
ACAD_GROUP
350
32
  3
ACAD_LAYOUT
350
13
  3
ACAD_MATERIAL
350
A
  3
ACAD_MLEADERSTYLE
350
216
  3
ACAD_MLINESTYLE
350
33
  3
ACAD_PLOTSETTINGS
350
34
  3
ACAD_PLOTSTYLENAME
350
F
  3
ACAD_SCALELIST
350
204
  3
ACAD_SECTIONVIEWSTYLE
350
218
  3
ACAD_TABLESTYLE
350
202
  3
ACAD_VISUALSTYLE
350
2B
  3
ACDBHEADERROUNDTRIPXREC
350
258
  3
AcDbVariableDictionary
350
1D6
  3
DWGPROPS
350
25B
  0
DICTIONARY
  5
28
330
26
100
AcDbDictionary
280
     1
281
     1
  3
ACAD_XREC_ROUNDTRIP
360
25E
  0
DICTIONARY
  5
1C
330
1B
100
AcDbDictionary
280
     1
281
     1
  3
ACAD_LAYERSTATES
360
1D
  0
DICTIONARY
  5
241
330
6
100
AcDbDictionary
280
     1
281
     1
  3
ADSK_XREC_LAYER_RECONCILED
360
242
  0
DICTIONARY
  5
3
330
2
100
AcDbDictionary
280
     1
281
     1
  3
ACAD_SORTENTS
360
1D1
  0
DICTIONARY
  5
234
330
233
100
AcDbDictionary
280
     1
281
     1
  3
ACAD_XREC_ROUNDTRIP
360
25C
  3
ASDK_XREC_ANNOTATION_SCALE_INFO
360
235
  0
DICTIONARY
  5
238
330
237
100
AcDbDictionary
280
     1
281
     1
  3
ACAD_XREC_ROUNDTRIP
360
25D
  3
ASDK_XREC_ANNOTATION_SCALE_INFO
360
239
  0
XRECORD
  5
21E
102
{ACAD_REACTORS
330
B
102
}
330
B
100
AcDbXrecord
280
     1
300
ACD
300
2014
300
ACD_F_S
  0
DICTIONARY
  5
35
102
{ACAD_REACTORS
330
B
102
}
330
B
100
AcDbDictionary
281
     1
  0
DICTIONARY
  5
21A
102
{ACAD_REACTORS
330
B
102
}
330
B
100
AcDbDictionary
281
     1
  3
Metric50
350
21B
  0
DICTIONARY
  5
32
102
{ACAD_REACTORS
330
B
102
}
330
B
100
AcDbDictionary
281
     1
  0
DICTIONARY
  5
13
102
{ACAD_REACTORS
330
B
102
}
330
B
100
AcDbDictionary
281
     1
  3
Model
350
12
  3
Presentación1
350
22D
  0
DICTIONARY
  5
A
102
{ACAD_REACTORS
330
B
102
}
330
B
100
AcDbDictionary
281
     1
  3
ByBlock
350
1E3
  3
ByLayer
350
1DB
  3
Global
350
9
  0
DICTIONARY
  5
216
102
{ACAD_REACTORS
330
B
102
}
330
B
100
AcDbDictionary
281
     1
  3
Standard
350
217
  0
DICTIONARY
  5
33
102
{ACAD_REACTORS
330
B
102
}
330
B
100
AcDbDictionary
281
     1
  3
Standard
350
36
  0
DICTIONARY
  5
34
102
{ACAD_REACTORS
330
B
102
}
330
B
100
AcDbDictionary
281
     1
  0
ACDBDICTIONARYWDFLT
  5
F
102
{ACAD_REACTORS
330
B
102
}
330
B
100
AcDbDictionary
281
     1
  3
Normal
350
E
100
AcDbDictionaryWithDefault
340
E
  0
DICTIONARY
  5
204
102
{ACAD_REACTORS
330
B
102
}
330
B
100
AcDbDictionary
281
     1
  3
A0
350
205
  3
A1
350
206
  3
A2
350
207
  3
A3
350
208
  3
A4
350
209
  3
A5
350
20A
  3
A6
350
20B
  3
A7
350
20C
  3
A8
350
20D
  3
A9
350
20E
  3
B0
350
20F
  3
B1
350
210
  3
B2
350
211
  3
B3
350
212
  3
B4
350
213
  3
B5
350
214
  3
B6
350
215
  0
DICTIONARY
  5
218
102
{ACAD_REACTORS
330
B
102
}
330
B
100
AcDbDictionary
281
     1
  3
Metric50
350
219
  0
DICTIONARY
  5
202
102
{ACAD_REACTORS
330
B
102
}
330
B
100
AcDbDictionary
281
     1
  3
Standard
350
203
  0
DICTIONARY
  5
2B
102
{ACAD_REACTORS
330
B
102
}
330
B
100
AcDbDictionary
281
     1
  3
2dWireframe
350
2A
  3
Basic
350
1EF
  3
Brighten
350
1F5
  3
ColorChange
350
1F9
  3
Conceptual
350
1F2
  3
Dim
350
1F4
  3
EdgeColorOff
350
201
  3
Facepattern
350
1F8
  3
Flat
350
1EB
  3
FlatWithEdges
350
1EC
  3
Gouraud
350
1ED
  3
GouraudWithEdges
350
1EE
  3
Hidden
350
1F1
  3
JitterOff
350
1FF
  3
Linepattern
350
1F7
  3
OverhangOff
350
200
  3
Realistic
350
1F3
  3
Shaded
350
1FE
  3
Shaded with edges
350
1FD
  3
Shades of Gray
350
1FA
  3
Sketchy
350
1FB
  3
Thicken
350
1F6
  3
Wireframe
350
1F0
  3
X-Ray
350
1FC
  0
DICTIONARY
  5
258
102
{ACAD_REACTORS
330
B
102
}
330
B
100
AcDbDictionary
281
     1
  3
COLORDICT
350
259
  3
MATERIALDICT
350
25A
  0
DICTIONARY
  5
1D6
102
{ACAD_REACTORS
330
B
102
}
330
B
100
AcDbDictionary
281
     1
  3
CANNOSCALE
350
254
  3
CMLEADERSTYLE
350
250
  3
CTABLESTYLE
350
24F
  3
CVIEWDETAILSTYLE
350
251
  3
CVIEWSECTIONSTYLE
350
252
  3
DIMASSOC
350
1D8
  3
HIDETEXT
350
1D7
  3
LAYEREVAL
350
256
  3
LAYERNOTIFY
350
257
  3
LIGHTINGUNITS
350
255
  3
MSLTSCALE
350
253
  3
PROJECTNAME
350
1D9
  0
XRECORD
  5
25B
102
{ACAD_REACTORS
330
B
102
}
330
B
100
AcDbXrecord
280
     1
  1
DWGPROPS COOKIE
  2

  3

  4

  6

  7

  8
acae2
  9

300
=
301
=
302
=
303
=
304
=
305
=
306
=
307
=
308
=
309
=
 40
0.0
 41
2454183.43168691
 42
2460390.426101968
  1

 90
        0
  0
XRECORD
  5
25E
102
{ACAD_REACTORS
330
28
102
}
330
28
100
AcDbXrecord
280
     1
102
VTR_0.000_0.000_1.000_1.000_VISUALSTYLE
340
2A
102
VTR_0.000_0.000_1.000_1.000_GRIDDISPLAY
 70
     3
102
VTR_0.000_0.000_1.000_1.000_GRIDMAJOR
 70
     5
102
VTR_0.000_0.000_1.000_1.000_DEFAULTLIGHTING
280
     1
102
VTR_0.000_0.000_1.000_1.000_DEFAULTLIGHTINGTYPE
 70
     1
102
VTR_0.000_0.000_1.000_1.000_BRIGHTNESS
141
0.0
102
VTR_0.000_0.000_1.000_1.000_CONTRAST
142
0.0
  0
DICTIONARY
  5
1D
102
{ACAD_REACTORS
330
1C
102
}
330
1C
100
AcDbDictionary
281
     1
  0
XRECORD
  5
242
102
{ACAD_REACTORS
330
241
102
}
330
241
100
AcDbXrecord
280
     1
290
     1
  0
SORTENTSTABLE
  5
1D1
102
{ACAD_REACTORS
330
3
102
}
330
3
100
AcDbSortentsTable
330
2
331
37
  5
1D0
331
38
  5
1CF
331
39
  5
1CE
331
3A
  5
1CD
331
3B
  5
1CC
331
3C
  5
1CB
331
3D
  5
1CA
331
3E
  5
1C9
331
3F
  5
1C8
331
40
  5
1C7
331
41
  5
1C6
331
43
  5
1C5
331
44
  5
1C4
331
45
  5
1C3
331
46
  5
1C2
331
47
  5
1C1
331
48
  5
1C0
331
49
  5
1BF
331
4A
  5
1BE
331
4B
  5
1BD
331
4C
  5
1BC
331
4D
  5
1BB
331
4E
  5
1BA
331
4F
  5
1B9
331
50
  5
1B8
331
51
  5
1B7
331
52
  5
1B6
331
53
  5
1B5
331
54
  5
1B4
331
55
  5
1B3
331
56
  5
1B2
331
57
  5
1B1
331
58
  5
1B0
331
59
  5
1AF
331
5A
  5
1AE
331
5B
  5
1AD
331
5C
  5
1AC
331
5D
  5
1AB
331
5E
  5
1AA
331
5F
  5
1A9
331
60
  5
1A8
331
61
  5
1A7
331
62
  5
1A6
331
63
  5
1A5
331
64
  5
1A4
331
65
  5
1A3
331
66
  5
1A2
331
67
  5
1A1
331
68
  5
1A0
331
69
  5
19F
331
6A
  5
19E
331
6B
  5
19D
331
6C
  5
19C
331
6D
  5
19B
331
6E
  5
19A
331
6F
  5
199
331
70
  5
198
331
71
  5
197
331
72
  5
196
331
74
  5
195
331
75
  5
194
331
76
  5
193
331
77
  5
192
331
78
  5
191
331
79
  5
190
331
7A
  5
18F
331
7B
  5
18E
331
7C
  5
18D
331
7D
  5
18C
331
7E
  5
18B
331
7F
  5
18A
331
80
  5
189
331
81
  5
188
331
82
  5
187
331
83
  5
186
331
84
  5
185
331
85
  5
184
331
86
  5
183
331
87
  5
182
331
88
  5
181
331
89
  5
180
331
8A
  5
17F
331
8B
  5
17E
331
8C
  5
17D
331
8D
  5
17C
331
8E
  5
17B
331
8F
  5
17A
331
90
  5
179
331
91
  5
178
331
92
  5
177
331
93
  5
176
331
94
  5
175
331
95
  5
174
331
96
  5
173
331
97
  5
172
331
98
  5
171
331
99
  5
170
331
9A
  5
16F
331
9B
  5
16E
331
9C
  5
16D
331
9D
  5
16C
331
9E
  5
16B
331
9F
  5
16A
331
A0
  5
169
331
A1
  5
168
331
A2
  5
167
331
A3
  5
166
331
A4
  5
165
331
A5
  5
164
331
A6
  5
163
331
A7
  5
162
331
A8
  5
161
331
A9
  5
160
331
AA
  5
15F
331
AB
  5
15E
331
AC
  5
15D
331
AD
  5
15C
331
AE
  5
15B
331
AF
  5
15A
331
B0
  5
159
331
B1
  5
158
331
B2
  5
157
331
B3
  5
156
331
B4
  5
155
331
B5
  5
154
331
B6
  5
153
331
B7
  5
152
331
B8
  5
151
331
B9
  5
150
331
BA
  5
14F
331
BB
  5
14E
331
BC
  5
14D
331
BD
  5
14C
331
BE
  5
14B
331
BF
  5
14A
331
C0
  5
149
331
C1
  5
148
331
C2
  5
147
331
C3
  5
146
331
C4
  5
145
331
C5
  5
144
331
C6
  5
143
331
C7
  5
142
331
C8
  5
141
331
C9
  5
140
331
CA
  5
13F
331
CB
  5
13E
331
CC
  5
13D
331
CD
  5
13C
331
CE
  5
13B
331
CF
  5
13A
331
D0
  5
139
331
D1
  5
138
331
D2
  5
137
331
D3
  5
136
331
D4
  5
135
331
D5
  5
134
331
D6
  5
133
331
D7
  5
132
331
D8
  5
131
331
D9
  5
130
331
DA
  5
12F
331
DB
  5
12E
331
DC
  5
12D
331
DD
  5
12C
331
DE
  5
12B
331
DF
  5
12A
331
E0
  5
129
331
E1
  5
128
331
E2
  5
127
331
E3
  5
126
331
E4
  5
125
331
E5
  5
124
331
E6
  5
123
331
E7
  5
122
331
E8
  5
121
331
E9
  5
120
331
EA
  5
11F
331
EB
  5
11E
331
EC
  5
11D
331
ED
  5
11C
331
EE
  5
11B
331
EF
  5
11A
331
F0
  5
119
331
F1
  5
118
331
F2
  5
117
331
F3
  5
116
331
F4
  5
115
331
F5
  5
114
331
F6
  5
113
331
F7
  5
112
331
F8
  5
111
331
F9
  5
110
331
FA
  5
10F
331
FB
  5
10E
331
FC
  5
10D
331
FD
  5
10C
331
FE
  5
10B
331
FF
  5
10A
331
100
  5
109
331
101
  5
108
331
102
  5
107
331
103
  5
106
331
104
  5
105
331
105
  5
104
331
106
  5
103
331
107
  5
102
331
108
  5
101
331
109
  5
100
331
10A
  5
FF
331
10B
  5
FE
331
10C
  5
FD
331
10D
  5
FC
331
10E
  5
FB
331
10F
  5
FA
331
110
  5
F9
331
111
  5
F8
331
112
  5
F7
331
113
  5
F6
331
114
  5
F5
331
115
  5
F4
331
116
  5
F3
331
117
  5
F2
331
118
  5
F1
331
119
  5
F0
331
11A
  5
EF
331
11B
  5
EE
331
11C
  5
ED
331
11D
  5
EC
331
11E
  5
EB
331
11F
  5
EA
331
120
  5
E9
331
121
  5
E8
331
122
  5
E7
331
123
  5
E6
331
124
  5
E5
331
125
  5
E4
331
126
  5
E3
331
127
  5
E2
331
128
  5
E1
331
129
  5
E0
331
12A
  5
DF
331
12B
  5
DE
331
12C
  5
DD
331
12D
  5
DC
331
12E
  5
DB
331
12F
  5
DA
331
130
  5
D9
331
131
  5
D8
331
132
  5
D7
331
133
  5
D6
331
134
  5
D5
331
135
  5
D4
331
136
  5
D3
331
137
  5
D2
331
138
  5
D1
331
139
  5
D0
331
13A
  5
CF
331
13B
  5
CE
331
13C
  5
CD
331
13D
  5
CC
331
13E
  5
CB
331
13F
  5
CA
331
140
  5
C9
331
141
  5
C8
331
142
  5
C7
331
143
  5
C6
331
144
  5
C5
331
145
  5
C4
331
146
  5
C3
331
147
  5
C2
331
148
  5
C1
331
149
  5
C0
331
14A
  5
BF
331
14B
  5
BE
331
14C
  5
BD
331
14D
  5
BC
331
14E
  5
BB
331
14F
  5
BA
331
150
  5
B9
331
151
  5
B8
331
152
  5
B7
331
153
  5
B6
331
154
  5
B5
331
155
  5
B4
331
156
  5
B3
331
157
  5
B2
331
158
  5
B1
331
159
  5
B0
331
15A
  5
AF
331
15B
  5
AE
331
15C
  5
AD
331
15D
  5
AC
331
15E
  5
AB
331
15F
  5
AA
331
160
  5
A9
331
161
  5
A8
331
162
  5
A7
331
163
  5
A6
331
164
  5
A5
331
165
  5
A4
331
166
  5
A3
331
167
  5
A2
331
168
  5
A1
331
169
  5
A0
331
16A
  5
9F
331
16B
  5
9E
331
16C
  5
9D
331
16D
  5
9C
331
16E
  5
9B
331
16F
  5
9A
331
170
  5
99
331
171
  5
98
331
172
  5
97
331
173
  5
96
331
174
  5
95
331
175
  5
94
331
176
  5
93
331
177
  5
92
331
178
  5
91
331
179
  5
90
331
17A
  5
8F
331
17B
  5
8E
331
17C
  5
8D
331
17D
  5
8C
331
17E
  5
8B
331
17F
  5
8A
331
180
  5
89
331
181
  5
88
331
182
  5
87
331
183
  5
86
331
184
  5
85
331
185
  5
84
331
186
  5
83
331
187
  5
82
331
188
  5
81
331
189
  5
80
331
18A
  5
7F
331
18B
  5
7E
331
18C
  5
7D
331
18D
  5
7C
331
18E
  5
7B
331
18F
  5
7A
331
190
  5
79
331
191
  5
78
331
192
  5
77
331
193
  5
76
331
194
  5
75
331
195
  5
74
331
196
  5
72
331
197
  5
71
331
198
  5
70
331
199
  5
6F
331
19A
  5
6E
331
19B
  5
6D
331
19C
  5
6C
331
19D
  5
6B
331
19E
  5
6A
331
19F
  5
69
331
1A0
  5
68
331
1A1
  5
67
331
1A2
  5
66
331
1A3
  5
65
331
1A4
  5
64
331
1A5
  5
63
331
1A6
  5
62
331
1A7
  5
61
331
1A8
  5
60
331
1A9
  5
5F
331
1AA
  5
5E
331
1AB
  5
5D
331
1AC
  5
5C
331
1AD
  5
5B
331
1AE
  5
5A
331
1AF
  5
59
331
1B0
  5
58
331
1B1
  5
57
331
1B2
  5
56
331
1B3
  5
55
331
1B4
  5
54
331
1B5
  5
53
331
1B6
  5
52
331
1B7
  5
51
331
1B8
  5
50
331
1B9
  5
4F
331
1BA
  5
4E
331
1BB
  5
4D
331
1BC
  5
4C
331
1BD
  5
4B
331
1BE
  5
4A
331
1BF
  5
49
331
1C0
  5
48
331
1C1
  5
47
331
1C2
  5
46
331
1C3
  5
45
331
1C4
  5
44
331
1C5
  5
43
331
1C6
  5
41
331
1C7
  5
40
331
1C8
  5
3F
331
1C9
  5
3E
331
1CA
  5
3D
331
1CB
  5
3C
331
1CC
  5
3B
331
1CD
  5
3A
331
1CE
  5
39
331
1CF
  5
38
331
1D0
  5
37
  0
XRECORD
  5
25C
102
{ACAD_REACTORS
330
234
102
}
330
234
100
AcDbXrecord
280
     1
102
VISUALSTYLE
340
2A
102
GRIDDISPLAY
 70
     3
102
GRIDMAJOR
 70
     5
102
DEFAULTLIGHTING
280
     1
102
DEFAULTLIGHTINGTYPE
 70
     1
102
BRIGHTNESS
141
0.0
102
CONTRAST
142
0.0
  0
XRECORD
  5
235
102
{ACAD_REACTORS
330
234
102
}
330
234
100
AcDbXrecord
280
     1
 90
        1
340
205
  0
XRECORD
  5
25D
102
{ACAD_REACTORS
330
238
102
}
330
238
100
AcDbXrecord
280
     1
102
VISUALSTYLE
340
2A
102
GRIDDISPLAY
 70
     3
102
GRIDMAJOR
 70
     5
102
DEFAULTLIGHTING
280
     1
102
DEFAULTLIGHTINGTYPE
 70
     1
102
BRIGHTNESS
141
0.0
102
CONTRAST
142
0.0
  0
XRECORD
  5
239
102
{ACAD_REACTORS
330
238
102
}
330
238
100
AcDbXrecord
280
     1
 90
        1
340
205
  0
ACDBDETAILVIEWSTYLE
  5
21B
102
{ACAD_REACTORS
330
21A
102
}
102
{ACAD_XDICTIONARY
360
24C
102
}
330
21A
100
AcDbModelDocViewStyle
 70
     0
  3
Metric50
290
     0
100
AcDbDetailViewStyle
 70
     0
 71
     0
 90
        3
 71
     1
340
1F
 40
5.0
340
0
 40
5.0
300

 40
0.0
280
     1
 71
     2
340
10
 90
       25
 71
     3
340
1F
 40
5.0
 90
        0
 40
15.0
 90
        1
300
%<\AcVar ViewDetailId>% (%<\AcVar ViewScale \f "%sn">%)
 71
     4
340
10
 90
       25
340
10
 90
       25
280
     0
  0
LAYOUT
  5
12
102
{ACAD_REACTORS
330
13
102
}
330
13
100
AcDbPlotSettings
  1

  2
\\Zip250-dev\HP DesignJet 1050C by HP
  4

  6

 40
0.0
 41
0.0
 42
0.0
 43
0.0
 44
0.0
 45
0.0
 46
0.0
 47
0.0
 48
0.0
 49
0.0
140
0.0
141
0.0
142
1.0
143
1.0
 70
  1712
 72
     0
 73
     0
 74
     0
  7
C:\Dokumente und Einstellungen\mw\Anwendungsdaten\Autodesk\AutoCAD 2007\R17.0\deu\Plot Styles\mw.ctb
 75
     0
147
1.0
148
0.0
149
0.0
100
AcDbLayout
  1
Model
 70
     1
 71
     0
 10
0.0
 20
0.0
 11
12.0
 21
9.0
 12
0.0
 22
0.0
 32
0.0
 14
0.0
 24
0.0
 34
0.0
 15
0.0
 25
0.0
 35
0.0
146
0.0
 13
0.0
 23
0.0
 33
0.0
 16
1.0
 26
0.0
 36
0.0
 17
0.0
 27
1.0
 37
0.0
 76
     0
330
2
331
27
  0
LAYOUT
  5
22D
102
{ACAD_REACTORS
330
13
102
}
330
13
100
AcDbPlotSettings
  1

  2
Enviar a OneNote 2010
  4
A4
  6

 40
6.805083274841309
 41
5.11175537109375
 42
6.847412109375
 43
5.027069091796875
 44
210.0156707763672
 45
297.0106506347656
 46
0.0
 47
0.0
 48
0.0
 49
0.0
140
0.0
141
0.0
142
1.0
143
1.0
 70
   688
 72
     1
 73
     1
 74
     5
  7

 75
    16
147
1.0
148
0.0
149
0.0
100
AcDbLayout
  1
Presentación1
 70
     1
 71
     1
 10
-5.027069091796875
 20
-6.805083274841309
 11
291.9835815429688
 21
203.2105875015259
 12
0.0
 22
0.0
 32
0.0
 14
28.68718261718749
 24
19.6363175392151
 34
0.0
 15
258.1846435546875
 25
176.7268578529358
 35
0.0
146
0.0
 13
0.0
 23
0.0
 33
0.0
 16
1.0
 26
0.0
 36
0.0
 17
0.0
 27
1.0
 37
0.0
 76
     0
330
22C
331
233
1001
ACAD_PSEXT
1000
Enviar a OneNote 2010
1000
Send To Microsoft OneNote 2010 Driver
1000
nul:
1000

1070
     0
  0
MATERIAL
  5
1E3
102
{ACAD_REACTORS
330
A
102
}
102
{ACAD_XDICTIONARY
360
260
102
}
330
A
100
AcDbMaterial
  1
ByBlock
 72
     0
 73
     2
 43
0.0008202099737533
 43
0.0
 43
0.0
 43
0.0
 43
0.0
 43
0.0008202099737533
 43
0.0
 43
0.0
 43
0.0
 43
0.0
 43
1.0
 43
0.0
 43
0.0
 43
0.0
 43
0.0
 43
1.0
 77
     0
 78
     2
 47
0.0008202099737533
 47
0.0
 47
0.0
 47
0.0
 47
0.0
 47
0.0008202099737533
 47
0.0
 47
0.0
 47
0.0
 47
0.0
 47
1.0
 47
0.0
 47
0.0
 47
0.0
 47
0.0
 47
1.0
171
     0
172
     2
 49
0.0008202099737533
 49
0.0
 49
0.0
 49
0.0
 49
0.0
 49
0.0008202099737533
 49
0.0
 49
0.0
 49
0.0
 49
0.0
 49
1.0
 49
0.0
 49
0.0
 49
0.0
 49
0.0
 49
1.0
175
     0
176
     2
142
0.0008202099737533
142
0.0
142
0.0
142
0.0
142
0.0
142
0.0008202099737533
142
0.0
142
0.0
142
0.0
142
0.0
142
1.0
142
0.0
142
0.0
142
0.0
142
0.0
142
1.0
179
     0
270
     2
144
0.0008202099737533
144
0.0
144
0.0
144
0.0
144
0.0
144
0.0008202099737533
144
0.0
144
0.0
144
0.0
144
0.0
144
1.0
144
0.0
144
0.0
144
0.0
144
0.0
144
1.0
274
     2
147
0.0008202099737533
147
0.0
147
0.0
147
0.0
147
0.0
147
0.0008202099737533
147
0.0
147
0.0
147
0.0
147
0.0
147
1.0
147
0.0
147
0.0
147
0.0
147
0.0
147
1.0
  0
MATERIAL
  5
1DB
102
{ACAD_REACTORS
330
A
102
}
102
{ACAD_XDICTIONARY
360
262
102
}
330
A
100
AcDbMaterial
  1
ByLayer
 72
     0
 73
     2
 43
0.0008202099737533
 43
0.0
 43
0.0
 43
0.0
 43
0.0
 43
0.0008202099737533
 43
0.0
 43
0.0
 43
0.0
 43
0.0
 43
1.0
 43
0.0
 43
0.0
 43
0.0
 43
0.0
 43
1.0
 77
     0
 78
     2
 47
0.0008202099737533
 47
0.0
 47
0.0
 47
0.0
 47
0.0
 47
0.0008202099737533
 47
0.0
 47
0.0
 47
0.0
 47
0.0
 47
1.0
 47
0.0
 47
0.0
 47
0.0
 47
0.0
 47
1.0
171
     0
172
     2
 49
0.0008202099737533
 49
0.0
 49
0.0
 49
0.0
 49
0.0
 49
0.0008202099737533
 49
0.0
 49
0.0
 49
0.0
 49
0.0
 49
1.0
 49
0.0
 49
0.0
 49
0.0
 49
0.0
 49
1.0
175
     0
176
     2
142
0.0008202099737533
142
0.0
142
0.0
142
0.0
142
0.0
142
0.0008202099737533
142
0.0
142
0.0
142
0.0
142
0.0
142
1.0
142
0.0
142
0.0
142
0.0
142
0.0
142
1.0
179
     0
270
     2
144
0.0008202099737533
144
0.0
144
0.0
144
0.0
144
0.0
144
0.0008202099737533
144
0.0
144
0.0
144
0.0
144
0.0
144
1.0
144
0.0
144
0.0
144
0.0
144
0.0
144
1.0
274
     2
147
0.0008202099737533
147
0.0
147
0.0
147
0.0
147
0.0
147
0.0008202099737533
147
0.0
147
0.0
147
0.0
147
0.0
147
1.0
147
0.0
147
0.0
147
0.0
147
0.0
147
1.0
  0
MATERIAL
  5
9
102
{ACAD_REACTORS
330
A
102
}
102
{ACAD_XDICTIONARY
360
264
102
}
330
A
100
AcDbMaterial
  1
Global
  0
MLEADERSTYLE
  5
217
102
{ACAD_REACTORS
330
216
102
}
102
{ACAD_XDICTIONARY
360
267
102
}
330
216
100
AcDbMLeaderStyle
170
     2
171
     1
172
     0
 90
        2
 40
0.0
 41
0.0
173
     1
 91
-1056964608
340
22
 92
       -2
290
     1
 42
2.0
291
     1
 43
0.36
  3
Standard
341
0
 44
4.0
300

342
1F
174
     1
178
     6
175
     1
176
     0
 93
-1056964608
 45
4.0
292
     0
297
     0
 46
4.0
343
0
 94
-1056964608
 47
1.0
 49
1.0
140
1.0
293
     1
141
0.0
294
     1
177
     0
142
1.0
295
     1
296
     0
143
0.125
1001
ACAD_MLEADERVER
1070
     2
  0
MLINESTYLE
  5
36
102
{ACAD_REACTORS
330
33
102
}
330
33
100
AcDbMlineStyle
  2
STANDARD
 70
     0
  3

 62
   256
 51
90.0
 52
90.0
 71
     2
 49
0.5
 62
   256
  6
BYLAYER
 49
-0.5
 62
   256
  6
BYLAYER
  0
ACDBPLACEHOLDER
  5
E
102
{ACAD_REACTORS
330
F
102
}
330
F
  0
SCALE
  5
205
102
{ACAD_REACTORS
330
204
102
}
330
204
100
AcDbScale
 70
     0
300
1:1
140
1.0
141
1.0
290
     1
  0
SCALE
  5
206
102
{ACAD_REACTORS
330
204
102
}
330
204
100
AcDbScale
 70
     0
300
1:2
140
1.0
141
2.0
290
     0
  0
SCALE
  5
207
102
{ACAD_REACTORS
330
204
102
}
330
204
100
AcDbScale
 70
     0
300
1:4
140
1.0
141
4.0
290
     0
  0
SCALE
  5
208
102
{ACAD_REACTORS
330
204
102
}
330
204
100
AcDbScale
 70
     0
300
1:5
140
1.0
141
5.0
290
     0
  0
SCALE
  5
209
102
{ACAD_REACTORS
330
204
102
}
330
204
100
AcDbScale
 70
     0
300
1:8
140
1.0
141
8.0
290
     0
  0
SCALE
  5
20A
102
{ACAD_REACTORS
330
204
102
}
330
204
100
AcDbScale
 70
     0
300
1:10
140
1.0
141
10.0
290
     0
  0
SCALE
  5
20B
102
{ACAD_REACTORS
330
204
102
}
330
204
100
AcDbScale
 70
     0
300
1:16
140
1.0
141
16.0
290
     0
  0
SCALE
  5
20C
102
{ACAD_REACTORS
330
204
102
}
330
204
100
AcDbScale
 70
     0
300
1:20
140
1.0
141
20.0
290
     0
  0
SCALE
  5
20D
102
{ACAD_REACTORS
330
204
102
}
330
204
100
AcDbScale
 70
     0
300
1:30
140
1.0
141
30.0
290
     0
  0
SCALE
  5
20E
102
{ACAD_REACTORS
330
204
102
}
330
204
100
AcDbScale
 70
     0
300
1:40
140
1.0
141
40.0
290
     0
  0
SCALE
  5
20F
102
{ACAD_REACTORS
330
204
102
}
330
204
100
AcDbScale
 70
     0
300
1:50
140
1.0
141
50.0
290
     0
  0
SCALE
  5
210
102
{ACAD_REACTORS
330
204
102
}
330
204
100
AcDbScale
 70
     0
300
1:100
140
1.0
141
100.0
290
     0
  0
SCALE
  5
211
102
{ACAD_REACTORS
330
204
102
}
330
204
100
AcDbScale
 70
     0
300
2:1
140
2.0
141
1.0
290
     0
  0
SCALE
  5
212
102
{ACAD_REACTORS
330
204
102
}
330
204
100
AcDbScale
 70
     0
300
4:1
140
4.0
141
1.0
290
     0
  0
SCALE
  5
213
102
{ACAD_REACTORS
330
204
102
}
330
204
100
AcDbScale
 70
     0
300
8:1
140
8.0
141
1.0
290
     0
  0
SCALE
  5
214
102
{ACAD_REACTORS
330
204
102
}
330
204
100
AcDbScale
 70
     0
300
10:1
140
10.0
141
1.0
290
     0
  0
SCALE
  5
215
102
{ACAD_REACTORS
330
204
102
}
330
204
100
AcDbScale
 70
     0
300
100:1
140
100.0
141
1.0
290
     0
  0
ACDBSECTIONVIEWSTYLE
  5
219
102
{ACAD_REACTORS
330
218
102
}
102
{ACAD_XDICTIONARY
360
24A
102
}
330
218
100
AcDbModelDocViewStyle
 70
     0
  3
Metric50
290
     0
100
AcDbSectionViewStyle
 70
     0
 71
     0
 90
      102
 71
     1
340
1F
 40
5.0
340
0
340
0
 40
5.0
300
I, O, Q, S, X, Z
 40
10.0
 90
        0
 40
2.5
 90
        0
 71
     2
340
10
 90
       25
340
10
 90
       50
 40
5.0
 40
2.5
 40
5.0
 71
     3
340
1F
 40
5.0
 90
        0
 40
15.0
 90
        1
300
%<\AcVar ViewSectionStartId>%-%<\AcVar ViewSectionEndId>% (%<\AcVar ViewScale \f "%sn">%)
 71
     4
300
ANSI31
 40
1.0
 90
        0
290
     0
290
     0
 90
        6
 40
0.0
 40
1.570796326794897
 40
0.2617993877991494
 40
1.308996938995747
 40
-0.2617993877991494
 40
1.832595714594046
  0
TABLESTYLE
  5
203
102
{ACAD_REACTORS
330
202
102
}
330
202
100
AcDbTableStyle
  3
Standard
 70
     0
 71
     0
 40
1.5
 41
1.5
280
     0
281
     0
  7
Standard
140
4.5
170
     2
 62
     0
 63
   257
283
     0
274
    -2
284
     1
 64
     0
275
    -2
285
     1
 65
     0
276
    -2
286
     1
 66
     0
277
    -2
287
     1
 67
     0
278
    -2
288
     1
 68
     0
279
    -2
289
     1
 69
     0
  7
Standard
140
6.0
170
     5
 62
     0
 63
   257
283
     0
274
    -2
284
     1
 64
     0
275
    -2
285
     1
 65
     0
276
    -2
286
     1
 66
     0
277
    -2
287
     1
 67
     0
278
    -2
288
     1
 68
     0
279
    -2
289
     1
 69
     0
  7
Standard
140
4.5
170
     5
 62
     0
 63
   257
283
     0
274
    -2
284
     1
 64
     0
275
    -2
285
     1
 65
     0
276
    -2
286
     1
 66
     0
277
    -2
287
     1
 67
     0
278
    -2
288
     1
 68
     0
279
    -2
289
     1
 69
     0
  0
VISUALSTYLE
  5
2A
102
{ACAD_REACTORS
330
2B
102
}
102
{ACAD_XDICTIONARY
360
26A
102
}
330
2B
100
AcDbVisualStyle
  2
2dWireframe
 70
     4
 71
     0
 72
     2
 73
     0
 90
        0
 40
0.6
 41
30.0
 62
     5
 63
     7
 74
     1
 91
        4
 64
     7
 65
   257
 75
     1
175
     1
 42
1.0
 92
        0
 66
   257
 43
1.0
 76
     1
 77
     6
 78
     2
 67
     7
 79
     5
170
     0
171
     0
290
     0
174
     0
 93
        1
 44
0.0
173
     0
291
     0
 45
0.0
1001
ACAD
1000
AcRTDxfName
1000
VISUALSTYLE
1000
AcDbSavedByObjectVersion
1070
     0
  0
VISUALSTYLE
  5
1EF
102
{ACAD_REACTORS
330
2B
102
}
102
{ACAD_XDICTIONARY
360
26C
102
}
330
2B
100
AcDbVisualStyle
  2
Basic
 70
     7
 71
     1
 72
     0
 73
     1
 90
        0
 40
0.6
 41
30.0
 62
     5
 63
     7
 74
     0
 91
        4
 64
     7
 65
   257
 75
     1
175
     1
 42
1.0
 92
        8
 66
     7
 43
1.0
 76
     1
 77
     6
 78
     2
 67
     7
 79
     5
170
     0
171
     0
290
     0
174
     0
 93
        1
 44
0.0
173
     0
291
     1
 45
0.0
1001
ACAD
1000
AcDbSavedByObjectVersion
1070
     0
  0
VISUALSTYLE
  5
1F5
102
{ACAD_REACTORS
330
2B
102
}
102
{ACAD_XDICTIONARY
360
26E
102
}
330
2B
100
AcDbVisualStyle
  2
Brighten
 70
    12
 71
     2
 72
     2
 73
     0
 90
        0
 40
0.6
 41
30.0
 62
     5
 63
     7
 74
     1
 91
        4
 64
     7
 65
   257
 75
     1
175
     1
 42
1.0
 92
        8
 66
     7
 43
1.0
 76
     1
 77
     6
 78
     2
 67
     7
 79
     5
170
     0
171
     0
290
     0
174
     0
 93
        1
 44
50.0
173
     0
291
     1
 45
0.0
1001
ACAD
1000
AcDbSavedByObjectVersion
1070
     0
  0
VISUALSTYLE
  5
1F9
102
{ACAD_REACTORS
330
2B
102
}
102
{ACAD_XDICTIONARY
360
270
102
}
330
2B
100
AcDbVisualStyle
  2
ColorChange
 70
    16
 71
     2
 72
     2
 73
     3
 90
        0
 40
0.6
 41
30.0
 62
     5
 63
     8
 74
     1
 91
        4
 64
     7
 65
   257
 75
     1
175
     1
 42
1.0
 92
        8
 66
     8
 43
1.0
 76
     1
 77
     6
 78
     2
 67
     7
 79
     5
170
     0
171
     0
290
     0
174
     0
 93
        1
 44
0.0
173
     0
291
     1
 45
0.0
1001
ACAD
1000
AcDbSavedByObjectVersion
1070
     0
  0
VISUALSTYLE
  5
1F2
102
{ACAD_REACTORS
330
2B
102
}
102
{ACAD_XDICTIONARY
360
272
102
}
330
2B
100
AcDbVisualStyle
  2
Conceptual
 70
     9
 71
     3
 72
     2
 73
     0
 90
        0
 40
0.6
 41
30.0
 62
     5
 63
     7
 74
     2
 91
        2
 64
     7
 65
   257
 75
     1
175
     1
 42
179.0
 92
        8
 66
     7
 43
1.0
 76
     1
 77
     6
 78
     2
 67
     7
 79
     3
170
     0
171
     0
290
     0
174
     0
 93
        1
 44
0.0
173
     0
291
     0
 45
0.0
1001
ACAD
1000
AcDbSavedByObjectVersion
1070
     0
  0
VISUALSTYLE
  5
1F4
102
{ACAD_REACTORS
330
2B
102
}
102
{ACAD_XDICTIONARY
360
274
102
}
330
2B
100
AcDbVisualStyle
  2
Dim
 70
    11
 71
     2
 72
     2
 73
     0
 90
        0
 40
0.6
 41
30.0
 62
     5
 63
     7
 74
     1
 91
        4
 64
     7
 65
   257
 75
     1
175
     1
 42
1.0
 92
        8
 66
     7
 43
1.0
 76
     1
 77
     6
 78
     2
 67
     7
 79
     5
170
     0
171
     0
290
     0
174
     0
 93
        1
 44
-50.0
173
     0
291
     1
 45
0.0
1001
ACAD
1000
AcDbSavedByObjectVersion
1070
     0
  0
VISUALSTYLE
  5
201
102
{ACAD_REACTORS
330
2B
102
}
102
{ACAD_XDICTIONARY
360
276
102
}
330
2B
100
AcDbVisualStyle
  2
EdgeColorOff
 70
    22
 71
     2
 72
     2
 73
     0
 90
        0
 40
0.6
 41
30.0
 62
     5
 63
     7
 74
     1
 91
        4
 64
     7
 65
   257
 75
     1
175
     1
 42
1.0
 92
        8
 66
     7
 43
1.0
 76
     1
 77
     6
 78
     2
 67
     7
 79
     5
170
     0
171
     0
290
     0
174
     0
 93
        1
 44
0.0
173
     0
291
     1
 45
0.0
1001
ACAD
1000
AcDbSavedByObjectVersion
1070
     0
  0
VISUALSTYLE
  5
1F8
102
{ACAD_REACTORS
330
2B
102
}
102
{ACAD_XDICTIONARY
360
278
102
}
330
2B
100
AcDbVisualStyle
  2
Facepattern
 70
    15
 71
     2
 72
     2
 73
     0
 90
        0
 40
0.6
 41
30.0
 62
     5
 63
     7
 74
     1
 91
        4
 64
     7
 65
   257
 75
     1
175
     1
 42
1.0
 92
        8
 66
     7
 43
1.0
 76
     1
 77
     6
 78
     2
 67
     7
 79
     5
170
     0
171
     0
290
     0
174
     0
 93
        1
 44
0.0
173
     0
291
     1
 45
0.0
1001
ACAD
1000
AcDbSavedByObjectVersion
1070
     0
  0
VISUALSTYLE
  5
1EB
102
{ACAD_REACTORS
330
2B
102
}
102
{ACAD_XDICTIONARY
360
27A
102
}
330
2B
100
AcDbVisualStyle
  2
Flat
 70
     0
 71
     2
 72
     1
 73
     1
 90
        2
 40
0.6
 41
30.0
 62
     5
 63
     7
 74
     0
 91
        0
 64
     7
 65
   257
 75
     1
175
     1
 42
1.0
 92
        8
 66
     7
 43
1.0
 76
     1
 77
     6
 78
     2
 67
     7
 79
     5
170
     0
171
     0
290
     0
174
     0
 93
       13
 44
0.0
173
     0
291
     1
 45
0.0
1001
ACAD
1000
AcDbSavedByObjectVersion
1070
     0
  0
VISUALSTYLE
  5
1EC
102
{ACAD_REACTORS
330
2B
102
}
102
{ACAD_XDICTIONARY
360
27C
102
}
330
2B
100
AcDbVisualStyle
  2
FlatWithEdges
 70
     1
 71
     2
 72
     1
 73
     1
 90
        2
 40
0.6
 41
30.0
 62
     5
 63
     7
 74
     1
 91
        0
 64
     7
 65
   257
 75
     1
175
     1
 42
1.0
 92
        0
 66
   257
 43
1.0
 76
     1
 77
     6
 78
     2
 67
     7
 79
     5
170
     0
171
     0
290
     0
174
     0
 93
       13
 44
0.0
173
     0
291
     1
 45
0.0
1001
ACAD
1000
AcDbSavedByObjectVersion
1070
     0
  0
VISUALSTYLE
  5
1ED
102
{ACAD_REACTORS
330
2B
102
}
102
{ACAD_XDICTIONARY
360
27E
102
}
330
2B
100
AcDbVisualStyle
  2
Gouraud
 70
     2
 71
     2
 72
     2
 73
     1
 90
        2
 40
0.6
 41
30.0
 62
     5
 63
     7
 74
     0
 91
        0
 64
     7
 65
   257
 75
     1
175
     1
 42
1.0
 92
        0
 66
     7
 43
1.0
 76
     1
 77
     6
 78
     2
 67
     7
 79
     5
170
     0
171
     0
290
     0
174
     0
 93
       13
 44
0.0
173
     0
291
     1
 45
0.0
1001
ACAD
1000
AcDbSavedByObjectVersion
1070
     0
  0
VISUALSTYLE
  5
1EE
102
{ACAD_REACTORS
330
2B
102
}
102
{ACAD_XDICTIONARY
360
280
102
}
330
2B
100
AcDbVisualStyle
  2
GouraudWithEdges
 70
     3
 71
     2
 72
     2
 73
     1
 90
        2
 40
0.6
 41
30.0
 62
     5
 63
     7
 74
     1
 91
        0
 64
     7
 65
   257
 75
     1
175
     1
 42
1.0
 92
        0
 66
   257
 43
1.0
 76
     1
 77
     6
 78
     2
 67
     7
 79
     5
170
     0
171
     0
290
     0
174
     0
 93
       13
 44
0.0
173
     0
291
     1
 45
0.0
1001
ACAD
1000
AcDbSavedByObjectVersion
1070
     0
  0
VISUALSTYLE
  5
1F1
102
{ACAD_REACTORS
330
2B
102
}
102
{ACAD_XDICTIONARY
360
282
102
}
330
2B
100
AcDbVisualStyle
  2
Hidden
 70
     6
 71
     1
 72
     2
 73
     2
 90
        0
 40
0.6
 41
30.0
 62
     5
 63
     7
 74
     2
 91
        2
 64
     7
 65
   257
 75
     2
175
     1
 42
40.0
 92
        0
 66
   257
 43
1.0
 76
     1
 77
     6
 78
     2
 67
     7
 79
     3
170
     0
171
     0
290
     0
174
     0
 93
        1
 44
0.0
173
     0
291
     0
 45
0.0
1001
ACAD
1000
AcDbSavedByObjectVersion
1070
     0
  0
VISUALSTYLE
  5
1FF
102
{ACAD_REACTORS
330
2B
102
}
102
{ACAD_XDICTIONARY
360
284
102
}
330
2B
100
AcDbVisualStyle
  2
JitterOff
 70
    20
 71
     2
 72
     2
 73
     0
 90
        0
 40
0.6
 41
30.0
 62
     5
 63
     7
 74
     1
 91
        4
 64
     7
 65
   257
 75
     1
175
     1
 42
1.0
 92
       10
 66
     7
 43
1.0
 76
     1
 77
     6
 78
     2
 67
     7
 79
     5
170
     0
171
     0
290
     0
174
     0
 93
        1
 44
0.0
173
     0
291
     1
 45
0.0
1001
ACAD
1000
AcDbSavedByObjectVersion
1070
     0
  0
VISUALSTYLE
  5
1F7
102
{ACAD_REACTORS
330
2B
102
}
102
{ACAD_XDICTIONARY
360
286
102
}
330
2B
100
AcDbVisualStyle
  2
Linepattern
 70
    14
 71
     2
 72
     2
 73
     0
 90
        0
 40
0.6
 41
30.0
 62
     5
 63
     7
 74
     1
 91
        4
 64
     7
 65
   257
 75
     7
175
     7
 42
1.0
 92
        8
 66
     7
 43
1.0
 76
     1
 77
     6
 78
     2
 67
     7
 79
     5
170
     0
171
     0
290
     0
174
     0
 93
        1
 44
0.0
173
     0
291
     1
 45
0.0
1001
ACAD
1000
AcDbSavedByObjectVersion
1070
     0
  0
VISUALSTYLE
  5
200
102
{ACAD_REACTORS
330
2B
102
}
102
{ACAD_XDICTIONARY
360
288
102
}
330
2B
100
AcDbVisualStyle
  2
OverhangOff
 70
    21
 71
     2
 72
     2
 73
     0
 90
        0
 40
0.6
 41
30.0
 62
     5
 63
     7
 74
     1
 91
        4
 64
     7
 65
   257
 75
     1
175
     1
 42
1.0
 92
        9
 66
     7
 43
1.0
 76
     1
 77
     6
 78
     2
 67
     7
 79
     5
170
     0
171
     0
290
     0
174
     0
 93
        1
 44
0.0
173
     0
291
     1
 45
0.0
1001
ACAD
1000
AcDbSavedByObjectVersion
1070
     0
  0
VISUALSTYLE
  5
1F3
102
{ACAD_REACTORS
330
2B
102
}
102
{ACAD_XDICTIONARY
360
28A
102
}
330
2B
100
AcDbVisualStyle
  2
Realistic
 70
     8
 71
     2
 72
     3
 73
     0
 90
        2
 40
0.6
 41
30.0
 62
     5
 63
     7
 74
     0
 91
        0
 64
     7
 65
   257
 75
     1
175
     1
 42
1.0
 92
        8
 66
   257
 43
1.0
 76
     1
 77
     6
 78
     2
 67
     7
 79
     3
170
     0
171
     0
290
     0
174
     0
 93
       13
 44
0.0
173
     0
291
     0
 45
0.0
1001
ACAD
1000
AcDbSavedByObjectVersion
1070
     0
  0
VISUALSTYLE
  5
1FE
102
{ACAD_REACTORS
330
2B
102
}
102
{ACAD_XDICTIONARY
360
28C
102
}
330
2B
100
AcDbVisualStyle
  2
Shaded
 70
    27
 71
     2
 72
     2
 73
     1
 90
        2
 40
0.6
 41
30.0
 62
     5
 63
     7
 74
     0
 91
        4
 64
     7
 65
   257
 75
     1
175
     1
 42
1.0
 92
        8
 66
   257
 43
1.0
 76
     1
 77
     6
 78
     2
 67
     8
 79
     3
170
     0
171
     0
290
     0
174
     0
 93
        5
 44
0.0
173
     0
291
     0
 45
0.0
1001
ACAD
1000
AcDbSavedByObjectVersion
1070
     0
  0
VISUALSTYLE
  5
1FD
102
{ACAD_REACTORS
330
2B
102
}
102
{ACAD_XDICTIONARY
360
28E
102
}
330
2B
100
AcDbVisualStyle
  2
Shaded with edges
 70
    26
 71
     2
 72
     2
 73
     1
 90
        2
 40
0.6
 41
30.0
 62
     5
 63
     7
 74
     1
 91
       10
 64
     7
 65
   257
 75
     2
175
     1
 42
1.0
 92
        8
 66
   257
 43
1.0
 76
     1
 77
     6
 78
     2
 67
     7
 79
     3
170
     0
171
     0
290
     0
174
     0
 93
        5
 44
0.0
173
     0
291
     0
 45
0.0
1001
ACAD
1000
AcDbSavedByObjectVersion
1070
     0
  0
VISUALSTYLE
  5
1FA
102
{ACAD_REACTORS
330
2B
102
}
102
{ACAD_XDICTIONARY
360
290
102
}
330
2B
100
AcDbVisualStyle
  2
Shades of Gray
 70
    23
 71
     2
 72
     2
 73
     3
 90
        0
 40
0.6
 41
30.0
 62
     5
 63
     7
 74
     2
 91
        2
 64
     7
 65
     7
 75
     1
175
     1
 42
40.0
 92
        8
 66
     7
 43
1.0
 76
     1
 77
     6
 78
     2
 67
     7
 79
     3
170
     0
171
     0
290
     0
174
     0
 93
        1
 44
0.0
173
     0
291
     0
 45
0.0
1001
ACAD
1000
AcDbSavedByObjectVersion
1070
     0
  0
VISUALSTYLE
  5
1FB
102
{ACAD_REACTORS
330
2B
102
}
102
{ACAD_XDICTIONARY
360
292
102
}
330
2B
100
AcDbVisualStyle
  2
Sketchy
 70
    24
 71
     1
 72
     2
 73
     2
 90
        0
 40
0.6
 41
30.0
 62
     5
 63
     7
 74
     2
 91
        2
 64
     7
 65
     7
 75
     1
175
     1
 42
40.0
 92
       11
 66
     7
 43
1.0
 76
     1
 77
     6
 78
     2
 67
     7
 79
     6
170
     0
171
     0
290
     0
174
     0
 93
        1
 44
0.0
173
     0
291
     0
 45
0.0
1001
ACAD
1000
AcDbSavedByObjectVersion
1070
     0
  0
VISUALSTYLE
  5
1F6
102
{ACAD_REACTORS
330
2B
102
}
102
{ACAD_XDICTIONARY
360
294
102
}
330
2B
100
AcDbVisualStyle
  2
Thicken
 70
    13
 71
     2
 72
     2
 73
     0
 90
        0
 40
0.6
 41
30.0
 62
     5
 63
     7
 74
     1
 91
        4
 64
     7
 65
   257
 75
     1
175
     1
 42
1.0
 92
       12
 66
     7
 43
1.0
 76
     1
 77
     6
 78
     2
 67
     7
 79
     5
170
     0
171
     0
290
     0
174
     0
 93
        1
 44
0.0
173
     0
291
     1
 45
0.0
1001
ACAD
1000
AcDbSavedByObjectVersion
1070
     0
  0
VISUALSTYLE
  5
1F0
102
{ACAD_REACTORS
330
2B
102
}
102
{ACAD_XDICTIONARY
360
296
102
}
330
2B
100
AcDbVisualStyle
  2
Wireframe
 70
     5
 71
     0
 72
     2
 73
     0
 90
        0
 40
0.6
 41
30.0
 62
     5
 63
     7
 74
     1
 91
        4
 64
     7
 65
   257
 75
     1
175
     1
 42
1.0
 92
        0
 66
   257
 43
1.0
 76
     1
 77
     6
 78
     2
 67
     7
 79
     3
170
     0
171
     0
290
     0
174
     0
 93
        1
 44
0.0
173
     0
291
     0
 45
0.0
1001
ACAD
1000
AcDbSavedByObjectVersion
1070
     0
  0
VISUALSTYLE
  5
1FC
102
{ACAD_REACTORS
330
2B
102
}
102
{ACAD_XDICTIONARY
360
298
102
}
330
2B
100
AcDbVisualStyle
  2
X-Ray
 70
    25
 71
     2
 72
     2
 73
     1
 90
        1
 40
0.5
 41
30.0
 62
     5
 63
     7
 74
     1
 91
        0
 64
     7
 65
   257
 75
     1
175
     1
 42
1.0
 92
        8
 66
     7
 43
1.0
 76
     1
 77
     6
 78
     2
 67
     7
 79
     3
170
     0
171
     0
290
     0
174
     0
 93
       13
 44
0.0
173
     0
291
     0
 45
0.0
1001
ACAD
1000
AcDbSavedByObjectVersion
1070
     0
  0
XRECORD
  5
259
102
{ACAD_REACTORS
330
258
102
}
330
258
100
AcDbXrecord
280
     1
340
35
  0
XRECORD
  5
25A
102
{ACAD_REACTORS
330
258
102
}
330
258
100
AcDbXrecord
280
     1
340
A
  0
DICTIONARYVAR
  5
254
102
{ACAD_REACTORS
330
1D6
102
}
330
1D6
100
DictionaryVariables
280
     0
  1
1:1
  0
DICTIONARYVAR
  5
250
102
{ACAD_REACTORS
330
1D6
102
}
330
1D6
100
DictionaryVariables
280
     0
  1
Standard
  0
DICTIONARYVAR
  5
24F
102
{ACAD_REACTORS
330
1D6
102
}
330
1D6
100
DictionaryVariables
280
     0
  1
Standard
  0
DICTIONARYVAR
  5
251
102
{ACAD_REACTORS
330
1D6
102
}
330
1D6
100
DictionaryVariables
280
     0
  1
Metric50
  0
DICTIONARYVAR
  5
252
102
{ACAD_REACTORS
330
1D6
102
}
330
1D6
100
DictionaryVariables
280
     0
  1
Metric50
  0
DICTIONARYVAR
  5
1D8
102
{ACAD_REACTORS
330
1D6
102
}
330
1D6
100
DictionaryVariables
280
     0
  1
2
  0
DICTIONARYVAR
  5
1D7
102
{ACAD_REACTORS
330
1D6
102
}
330
1D6
100
DictionaryVariables
280
     0
  1
1
  0
DICTIONARYVAR
  5
256
102
{ACAD_REACTORS
330
1D6
102
}
330
1D6
100
DictionaryVariables
280
     0
  1
1
  0
DICTIONARYVAR
  5
257
102
{ACAD_REACTORS
330
1D6
102
}
330
1D6
100
DictionaryVariables
280
     0
  1
15
  0
DICTIONARYVAR
  5
255
102
{ACAD_REACTORS
330
1D6
102
}
330
1D6
100
DictionaryVariables
280
     0
  1
0
  0
DICTIONARYVAR
  5
253
102
{ACAD_REACTORS
330
1D6
102
}
330
1D6
100
DictionaryVariables
280
     0
  1
0
  0
DICTIONARYVAR
  5
1D9
102
{ACAD_REACTORS
330
1D6
102
}
330
1D6
100
DictionaryVariables
280
     0
  1

  0
DICTIONARY
  5
24C
330
21B
100
AcDbDictionary
280
     1
281
     1
  3
ACAD_XREC_ROUNDTRIP
360
25F
  0
DICTIONARY
  5
260
330
1E3
100
AcDbDictionary
280
     1
281
     1
  3
ACAD_XREC_ROUNDTRIP
360
261
  0
DICTIONARY
  5
262
330
1DB
100
AcDbDictionary
280
     1
281
     1
  3
ACAD_XREC_ROUNDTRIP
360
263
  0
DICTIONARY
  5
264
330
9
100
AcDbDictionary
280
     1
281
     1
  3
ACAD_XREC_ROUNDTRIP
360
265
  0
DICTIONARY
  5
267
330
217
100
AcDbDictionary
280
     1
281
     1
  3
ACAD_XREC_ROUNDTRIP
360
268
  0
DICTIONARY
  5
24A
330
219
100
AcDbDictionary
280
     1
281
     1
  3
ACAD_XREC_ROUNDTRIP
360
269
  0
DICTIONARY
  5
26A
330
2A
100
AcDbDictionary
280
     1
281
     1
  3
ACAD_XREC_ROUNDTRIP
360
26B
  0
DICTIONARY
  5
26C
330
1EF
100
AcDbDictionary
280
     1
281
     1
  3
ACAD_XREC_ROUNDTRIP
360
26D
  0
DICTIONARY
  5
26E
330
1F5
100
AcDbDictionary
280
     1
281
     1
  3
ACAD_XREC_ROUNDTRIP
360
26F
  0
DICTIONARY
  5
270
330
1F9
100
AcDbDictionary
280
     1
281
     1
  3
ACAD_XREC_ROUNDTRIP
360
271
  0
DICTIONARY
  5
272
330
1F2
100
AcDbDictionary
280
     1
281
     1
  3
ACAD_XREC_ROUNDTRIP
360
273
  0
DICTIONARY
  5
274
330
1F4
100
AcDbDictionary
280
     1
281
     1
  3
ACAD_XREC_ROUNDTRIP
360
275
  0
DICTIONARY
  5
276
330
201
100
AcDbDictionary
280
     1
281
     1
  3
ACAD_XREC_ROUNDTRIP
360
277
  0
DICTIONARY
  5
278
330
1F8
100
AcDbDictionary
280
     1
281
     1
  3
ACAD_XREC_ROUNDTRIP
360
279
  0
DICTIONARY
  5
27A
330
1EB
100
AcDbDictionary
280
     1
281
     1
  3
ACAD_XREC_ROUNDTRIP
360
27B
  0
DICTIONARY
  5
27C
330
1EC
100
AcDbDictionary
280
     1
281
     1
  3
ACAD_XREC_ROUNDTRIP
360
27D
  0
DICTIONARY
  5
27E
330
1ED
100
AcDbDictionary
280
     1
281
     1
  3
ACAD_XREC_ROUNDTRIP
360
27F
  0
DICTIONARY
  5
280
330
1EE
100
AcDbDictionary
280
     1
281
     1
  3
ACAD_XREC_ROUNDTRIP
360
281
  0
DICTIONARY
  5
282
330
1F1
100
AcDbDictionary
280
     1
281
     1
  3
ACAD_XREC_ROUNDTRIP
360
283
  0
DICTIONARY
  5
284
330
1FF
100
AcDbDictionary
280
     1
281
     1
  3
ACAD_XREC_ROUNDTRIP
360
285
  0
DICTIONARY
  5
286
330
1F7
100
AcDbDictionary
280
     1
281
     1
  3
ACAD_XREC_ROUNDTRIP
360
287
  0
DICTIONARY
  5
288
330
200
100
AcDbDictionary
280
     1
281
     1
  3
ACAD_XREC_ROUNDTRIP
360
289
  0
DICTIONARY
  5
28A
330
1F3
100
AcDbDictionary
280
     1
281
     1
  3
ACAD_XREC_ROUNDTRIP
360
28B
  0
DICTIONARY
  5
28C
330
1FE
100
AcDbDictionary
280
     1
281
     1
  3
ACAD_XREC_ROUNDTRIP
360
28D
  0
DICTIONARY
  5
28E
330
1FD
100
AcDbDictionary
280
     1
281
     1
  3
ACAD_XREC_ROUNDTRIP
360
28F
  0
DICTIONARY
  5
290
330
1FA
100
AcDbDictionary
280
     1
281
     1
  3
ACAD_XREC_ROUNDTRIP
360
291
  0
DICTIONARY
  5
292
330
1FB
100
AcDbDictionary
280
     1
281
     1
  3
ACAD_XREC_ROUNDTRIP
360
293
  0
DICTIONARY
  5
294
330
1F6
100
AcDbDictionary
280
     1
281
     1
  3
ACAD_XREC_ROUNDTRIP
360
295
  0
DICTIONARY
  5
296
330
1F0
100
AcDbDictionary
280
     1
281
     1
  3
ACAD_XREC_ROUNDTRIP
360
297
  0
DICTIONARY
  5
298
330
1FC
100
AcDbDictionary
280
     1
281
     1
  3
ACAD_XREC_ROUNDTRIP
360
299
  0
XRECORD
  5
25F
102
{ACAD_REACTORS
330
24C
102
}
330
24C
100
AcDbXrecord
280
     1
102
DISPLAYNAME
  1
Metric50
102
FLAGS
 90
        0
  0
XRECORD
  5
261
102
{ACAD_REACTORS
330
260
102
}
330
260
100
AcDbXrecord
280
     1
102
MATERIAL
148
0.0
149
0.0
149
0.0
 93
        0
 94
      127
282
     0
 72
     0
 77
     0
171
     0
175
     0
179
     0
273
     0
  0
XRECORD
  5
263
102
{ACAD_REACTORS
330
262
102
}
330
262
100
AcDbXrecord
280
     1
102
MATERIAL
148
0.0
149
0.0
149
0.0
 93
        0
 94
      127
282
     0
 72
     0
 77
     0
171
     0
175
     0
179
     0
273
     0
  0
XRECORD
  5
265
102
{ACAD_REACTORS
330
264
102
}
330
264
100
AcDbXrecord
280
     1
102
MATERIAL
148
0.0
149
0.0
149
0.0
 93
        0
 94
       63
282
     0
 72
     1
 77
     1
171
     1
175
     1
179
     1
273
     0
  0
XRECORD
  5
268
102
{ACAD_REACTORS
330
267
102
}
330
267
100
AcDbXrecord
280
     1
102
ACAD_ROUNDTRIP_2012_MLEADER_STYLE
298
     1
  0
XRECORD
  5
269
102
{ACAD_REACTORS
330
24A
102
}
330
24A
100
AcDbXrecord
280
     1
102
DISPLAYNAME
  1
Metric50
102
FLAGS
 90
        0
  0
XRECORD
  5
26B
102
{ACAD_REACTORS
330
26A
102
}
330
26A
100
AcDbXrecord
280
     1
102
RTVSPropertyOp0
 70
     1
102
RTVSPropertyOp1
 70
     1
102
RTVSPropertyOp2
 70
     1
102
RTVSPropertyOp3
 70
     1
102
RTVSPropertyOp4
 70
     1
102
RTVSPropertyOp5
 70
     1
102
RTVSPropertyOp6
 70
     1
102
RTVSPropertyOp7
 70
     1
102
RTVSPropertyOp8
 70
     1
102
RTVSPropertyOp9
 70
     1
102
RTVSPropertyOp10
 70
     1
102
RTVSPropertyOp11
 70
     1
102
RTVSPropertyOp12
 70
     1
102
RTVSPropertyOp13
 70
     1
102
RTVSPropertyOp14
 70
     1
102
RTVSPropertyOp15
 70
     1
102
RTVSPropertyOp16
 70
     1
102
RTVSPropertyOp17
 70
     1
102
RTVSPropertyOp18
 70
     1
102
RTVSPropertyOp19
 70
     1
102
RTVSPropertyOp20
 70
     1
102
RTVSPropertyOp21
 70
     1
102
RTVSPropertyOp22
 70
     1
102
RTVSPropertyOp23
 70
     1
102
RTVSPropertyOp24
 70
     1
102
RTVSPropertyOp25
 70
     1
102
RTVSPropertyOp26
 70
     1
102
RTVSPropertyOp27
 70
     1
102
RTVSPropertyOp28
 70
     1
102
RTVSPropertyOp29
 70
     1
102
RTVSPropertyOp30
 70
     1
102
RTVSPropertyOp31
 70
     1
102
RTVSPropertyOp32
 70
     1
102
RTVSPropertyOp33
 70
     1
102
RTVSPropertyOp34
 70
     1
102
RTVSPropertyOp35
 70
     1
102
RTVSPropertyOp36
 70
     1
102
RTVSPropertyOp37
 70
     1
102
RTVSPropertyOp38
 70
     1
102
RTVSPropertyOp39
 70
     1
102
RTVSPropertyOp40
 70
     1
102
RTVSPropertyOp41
 70
     1
102
RTVSPropertyOp42
 70
     1
102
RTVSPropertyOp43
 70
     1
102
RTVSPropertyOp44
 70
     1
102
RTVSPropertyOp45
 70
     1
102
RTVSPropertyOp46
 70
     1
102
RTVSPropertyOp47
 70
     1
102
RTVSPropertyOp48
 70
     1
102
RTVSPropertyOp49
 70
     1
102
RTVSPropertyOp50
 70
     1
102
RTVSPropertyOp51
 70
     0
102
RTVSPropertyOp52
 70
     0
102
RTVSPropertyOp53
 70
     1
102
RTVSPropertyOp54
 70
     1
102
RTVSPropertyOp55
 70
     1
102
RTVSPropertyOp56
 70
     1
102
RTVSPropertyOp57
 70
     1
102
RTVSPost2010Prop28
280
     1
102
RTVSPost2010PropOp28
 70
     1
102
RTVSPost2010Prop29
280
     1
102
RTVSPost2010PropOp29
 70
     1
102
RTVSPost2010Prop30
280
     0
102
RTVSPost2010PropOp30
 70
     1
102
RTVSPost2010Prop31
280
     0
102
RTVSPost2010PropOp31
 70
     1
102
RTVSPost2010Prop32
280
     0
102
RTVSPost2010PropOp32
 70
     1
102
RTVSPost2010Prop33
280
     0
102
RTVSPost2010PropOp33
 70
     1
102
RTVSPost2010Prop34
280
     0
102
RTVSPost2010PropOp34
 70
     1
102
RTVSPost2010Prop35
280
     0
102
RTVSPost2010PropOp35
 70
     1
102
RTVSPost2010Prop36
280
     0
102
RTVSPost2010PropOp36
 70
     1
102
RTVSPost2010Prop37
 90
       50
102
RTVSPost2010PropOp37
 70
     1
102
RTVSPost2010Prop38
140
0.0
102
RTVSPost2010PropOp38
 70
     1
102
RTVSPost2010Prop39
140
1.0
102
RTVSPost2010PropOp39
 70
     1
102
RTVSPost2010Prop40
 90
        0
102
RTVSPost2010PropOp40
 70
     1
102
RTVSPost2010Prop41ColorIndex
 90
       18
102
RTVSPost2010Prop41ColorRGB
 90
        0
102
RTVSPost2010PropOp41
 70
     1
102
RTVSPost2010Prop42
 90
       50
102
RTVSPost2010PropOp42
 70
     1
102
RTVSPost2010Prop43
 90
        3
102
RTVSPost2010PropOp43
 70
     1
102
RTVSPost2010Prop44ColorIndex
 90
        5
102
RTVSPost2010Prop44ColorRGB
 90
      255
102
RTVSPost2010PropOp44
 70
     1
102
RTVSPost2010Prop45
280
     0
102
RTVSPost2010PropOp45
 70
     1
102
RTVSPost2010Prop46
 90
       50
102
RTVSPost2010PropOp46
 70
     1
102
RTVSPost2010Prop47
 90
       50
102
RTVSPost2010PropOp47
 70
     1
102
RTVSPost2010Prop48
 90
       50
102
RTVSPost2010PropOp48
 70
     1
102
RTVSPost2010Prop49
280
     0
102
RTVSPost2010PropOp49
 70
     1
102
RTVSPost2010Prop50
 90
       50
102
RTVSPost2010PropOp50
 70
     1
102
RTVSPost2010Prop51ColorIndex
 90
      256
102
RTVSPost2010Prop51ColorRGB
 90
-16777216
102
RTVSPost2010PropOp51
 70
     0
102
RTVSPost2010Prop52
140
1.0
102
RTVSPost2010PropOp52
 70
     0
102
RTVSPost2010Prop53
 90
        2
102
RTVSPost2010PropOp53
 70
     1
102
RTVSPost2010Prop54
  1
strokes_ogs.tif
102
RTVSPost2010PropOp54
 70
     1
102
RTVSPost2010Prop55
280
     0
102
RTVSPost2010PropOp55
 70
     1
102
RTVSPost2010Prop56
140
1.0
102
RTVSPost2010PropOp56
 70
     1
102
RTVSPost2010Prop57
140
1.0
102
RTVSPost2010PropOp57
 70
     1
  0
XRECORD
  5
26D
102
{ACAD_REACTORS
330
26C
102
}
330
26C
100
AcDbXrecord
280
     1
102
RTVSPropertyOp0
 70
     1
102
RTVSPropertyOp1
 70
     1
102
RTVSPropertyOp2
 70
     1
102
RTVSPropertyOp3
 70
     1
102
RTVSPropertyOp4
 70
     1
102
RTVSPropertyOp5
 70
     1
102
RTVSPropertyOp6
 70
     1
102
RTVSPropertyOp7
 70
     1
102
RTVSPropertyOp8
 70
     1
102
RTVSPropertyOp9
 70
     1
102
RTVSPropertyOp10
 70
     1
102
RTVSPropertyOp11
 70
     1
102
RTVSPropertyOp12
 70
     1
102
RTVSPropertyOp13
 70
     1
102
RTVSPropertyOp14
 70
     1
102
RTVSPropertyOp15
 70
     1
102
RTVSPropertyOp16
 70
     1
102
RTVSPropertyOp17
 70
     1
102
RTVSPropertyOp18
 70
     1
102
RTVSPropertyOp19
 70
     1
102
RTVSPropertyOp20
 70
     1
102
RTVSPropertyOp21
 70
     1
102
RTVSPropertyOp22
 70
     1
102
RTVSPropertyOp23
 70
     1
102
RTVSPropertyOp24
 70
     1
102
RTVSPropertyOp25
 70
     1
102
RTVSPropertyOp26
 70
     1
102
RTVSPropertyOp27
 70
     1
102
RTVSPropertyOp28
 70
     1
102
RTVSPropertyOp29
 70
     1
102
RTVSPropertyOp30
 70
     1
102
RTVSPropertyOp31
 70
     1
102
RTVSPropertyOp32
 70
     1
102
RTVSPropertyOp33
 70
     1
102
RTVSPropertyOp34
 70
     1
102
RTVSPropertyOp35
 70
     1
102
RTVSPropertyOp36
 70
     1
102
RTVSPropertyOp37
 70
     1
102
RTVSPropertyOp38
 70
     1
102
RTVSPropertyOp39
 70
     1
102
RTVSPropertyOp40
 70
     1
102
RTVSPropertyOp41
 70
     1
102
RTVSPropertyOp42
 70
     1
102
RTVSPropertyOp43
 70
     1
102
RTVSPropertyOp44
 70
     1
102
RTVSPropertyOp45
 70
     1
102
RTVSPropertyOp46
 70
     1
102
RTVSPropertyOp47
 70
     1
102
RTVSPropertyOp48
 70
     1
102
RTVSPropertyOp49
 70
     1
102
RTVSPropertyOp50
 70
     1
102
RTVSPropertyOp51
 70
     0
102
RTVSPropertyOp52
 70
     0
102
RTVSPropertyOp53
 70
     1
102
RTVSPropertyOp54
 70
     1
102
RTVSPropertyOp55
 70
     1
102
RTVSPropertyOp56
 70
     1
102
RTVSPropertyOp57
 70
     1
102
RTVSPost2010Prop28
280
     0
102
RTVSPost2010PropOp28
 70
     1
102
RTVSPost2010Prop29
280
     1
102
RTVSPost2010PropOp29
 70
     1
102
RTVSPost2010Prop30
280
     1
102
RTVSPost2010PropOp30
 70
     1
102
RTVSPost2010Prop31
280
     0
102
RTVSPost2010PropOp31
 70
     1
102
RTVSPost2010Prop32
280
     0
102
RTVSPost2010PropOp32
 70
     1
102
RTVSPost2010Prop33
280
     0
102
RTVSPost2010PropOp33
 70
     1
102
RTVSPost2010Prop34
280
     0
102
RTVSPost2010PropOp34
 70
     1
102
RTVSPost2010Prop35
280
     0
102
RTVSPost2010PropOp35
 70
     1
102
RTVSPost2010Prop36
280
     0
102
RTVSPost2010PropOp36
 70
     1
102
RTVSPost2010Prop37
 90
       50
102
RTVSPost2010PropOp37
 70
     1
102
RTVSPost2010Prop38
140
0.0
102
RTVSPost2010PropOp38
 70
     1
102
RTVSPost2010Prop39
140
1.0
102
RTVSPost2010PropOp39
 70
     1
102
RTVSPost2010Prop40
 90
        0
102
RTVSPost2010PropOp40
 70
     1
102
RTVSPost2010Prop41ColorIndex
 90
       18
102
RTVSPost2010Prop41ColorRGB
 90
        0
102
RTVSPost2010PropOp41
 70
     1
102
RTVSPost2010Prop42
 90
       50
102
RTVSPost2010PropOp42
 70
     1
102
RTVSPost2010Prop43
 90
        3
102
RTVSPost2010PropOp43
 70
     1
102
RTVSPost2010Prop44ColorIndex
 90
        5
102
RTVSPost2010Prop44ColorRGB
 90
      255
102
RTVSPost2010PropOp44
 70
     1
102
RTVSPost2010Prop45
280
     0
102
RTVSPost2010PropOp45
 70
     1
102
RTVSPost2010Prop46
 90
       50
102
RTVSPost2010PropOp46
 70
     1
102
RTVSPost2010Prop47
 90
       50
102
RTVSPost2010PropOp47
 70
     1
102
RTVSPost2010Prop48
 90
       50
102
RTVSPost2010PropOp48
 70
     1
102
RTVSPost2010Prop49
280
     0
102
RTVSPost2010PropOp49
 70
     1
102
RTVSPost2010Prop50
 90
       50
102
RTVSPost2010PropOp50
 70
     1
102
RTVSPost2010Prop51ColorIndex
 90
      256
102
RTVSPost2010Prop51ColorRGB
 90
-16777216
102
RTVSPost2010PropOp51
 70
     0
102
RTVSPost2010Prop52
140
1.0
102
RTVSPost2010PropOp52
 70
     0
102
RTVSPost2010Prop53
 90
        2
102
RTVSPost2010PropOp53
 70
     1
102
RTVSPost2010Prop54
  1
strokes_ogs.tif
102
RTVSPost2010PropOp54
 70
     1
102
RTVSPost2010Prop55
280
     0
102
RTVSPost2010PropOp55
 70
     1
102
RTVSPost2010Prop56
140
1.0
102
RTVSPost2010PropOp56
 70
     1
102
RTVSPost2010Prop57
140
1.0
102
RTVSPost2010PropOp57
 70
     1
  0
XRECORD
  5
26F
102
{ACAD_REACTORS
330
26E
102
}
330
26E
100
AcDbXrecord
280
     1
102
RTVSPropertyOp0
 70
     1
102
RTVSPropertyOp1
 70
     1
102
RTVSPropertyOp2
 70
     1
102
RTVSPropertyOp3
 70
     1
102
RTVSPropertyOp4
 70
     1
102
RTVSPropertyOp5
 70
     1
102
RTVSPropertyOp6
 70
     1
102
RTVSPropertyOp7
 70
     1
102
RTVSPropertyOp8
 70
     1
102
RTVSPropertyOp9
 70
     1
102
RTVSPropertyOp10
 70
     1
102
RTVSPropertyOp11
 70
     1
102
RTVSPropertyOp12
 70
     1
102
RTVSPropertyOp13
 70
     1
102
RTVSPropertyOp14
 70
     1
102
RTVSPropertyOp15
 70
     1
102
RTVSPropertyOp16
 70
     1
102
RTVSPropertyOp17
 70
     1
102
RTVSPropertyOp18
 70
     1
102
RTVSPropertyOp19
 70
     1
102
RTVSPropertyOp20
 70
     1
102
RTVSPropertyOp21
 70
     1
102
RTVSPropertyOp22
 70
     1
102
RTVSPropertyOp23
 70
     1
102
RTVSPropertyOp24
 70
     1
102
RTVSPropertyOp25
 70
     1
102
RTVSPropertyOp26
 70
     1
102
RTVSPropertyOp27
 70
     1
102
RTVSPropertyOp28
 70
     1
102
RTVSPropertyOp29
 70
     1
102
RTVSPropertyOp30
 70
     1
102
RTVSPropertyOp31
 70
     1
102
RTVSPropertyOp32
 70
     1
102
RTVSPropertyOp33
 70
     1
102
RTVSPropertyOp34
 70
     1
102
RTVSPropertyOp35
 70
     1
102
RTVSPropertyOp36
 70
     1
102
RTVSPropertyOp37
 70
     1
102
RTVSPropertyOp38
 70
     1
102
RTVSPropertyOp39
 70
     1
102
RTVSPropertyOp40
 70
     1
102
RTVSPropertyOp41
 70
     1
102
RTVSPropertyOp42
 70
     1
102
RTVSPropertyOp43
 70
     1
102
RTVSPropertyOp44
 70
     1
102
RTVSPropertyOp45
 70
     1
102
RTVSPropertyOp46
 70
     1
102
RTVSPropertyOp47
 70
     1
102
RTVSPropertyOp48
 70
     1
102
RTVSPropertyOp49
 70
     1
102
RTVSPropertyOp50
 70
     1
102
RTVSPropertyOp51
 70
     0
102
RTVSPropertyOp52
 70
     0
102
RTVSPropertyOp53
 70
     1
102
RTVSPropertyOp54
 70
     1
102
RTVSPropertyOp55
 70
     1
102
RTVSPropertyOp56
 70
     1
102
RTVSPropertyOp57
 70
     1
102
RTVSPost2010Prop28
280
     0
102
RTVSPost2010PropOp28
 70
     1
102
RTVSPost2010Prop29
280
     1
102
RTVSPost2010PropOp29
 70
     1
102
RTVSPost2010Prop30
280
     1
102
RTVSPost2010PropOp30
 70
     1
102
RTVSPost2010Prop31
280
     0
102
RTVSPost2010PropOp31
 70
     1
102
RTVSPost2010Prop32
280
     0
102
RTVSPost2010PropOp32
 70
     1
102
RTVSPost2010Prop33
280
     0
102
RTVSPost2010PropOp33
 70
     1
102
RTVSPost2010Prop34
280
     0
102
RTVSPost2010PropOp34
 70
     1
102
RTVSPost2010Prop35
280
     0
102
RTVSPost2010PropOp35
 70
     1
102
RTVSPost2010Prop36
280
     0
102
RTVSPost2010PropOp36
 70
     1
102
RTVSPost2010Prop37
 90
       50
102
RTVSPost2010PropOp37
 70
     1
102
RTVSPost2010Prop38
140
0.0
102
RTVSPost2010PropOp38
 70
     1
102
RTVSPost2010Prop39
140
1.0
102
RTVSPost2010PropOp39
 70
     1
102
RTVSPost2010Prop40
 90
        0
102
RTVSPost2010PropOp40
 70
     1
102
RTVSPost2010Prop41ColorIndex
 90
       18
102
RTVSPost2010Prop41ColorRGB
 90
        0
102
RTVSPost2010PropOp41
 70
     1
102
RTVSPost2010Prop42
 90
       50
102
RTVSPost2010PropOp42
 70
     1
102
RTVSPost2010Prop43
 90
        3
102
RTVSPost2010PropOp43
 70
     1
102
RTVSPost2010Prop44ColorIndex
 90
        5
102
RTVSPost2010Prop44ColorRGB
 90
      255
102
RTVSPost2010PropOp44
 70
     1
102
RTVSPost2010Prop45
280
     0
102
RTVSPost2010PropOp45
 70
     1
102
RTVSPost2010Prop46
 90
       50
102
RTVSPost2010PropOp46
 70
     1
102
RTVSPost2010Prop47
 90
       50
102
RTVSPost2010PropOp47
 70
     1
102
RTVSPost2010Prop48
 90
       50
102
RTVSPost2010PropOp48
 70
     1
102
RTVSPost2010Prop49
280
     0
102
RTVSPost2010PropOp49
 70
     1
102
RTVSPost2010Prop50
 90
       50
102
RTVSPost2010PropOp50
 70
     1
102
RTVSPost2010Prop51ColorIndex
 90
      256
102
RTVSPost2010Prop51ColorRGB
 90
-16777216
102
RTVSPost2010PropOp51
 70
     0
102
RTVSPost2010Prop52
140
1.0
102
RTVSPost2010PropOp52
 70
     0
102
RTVSPost2010Prop53
 90
        2
102
RTVSPost2010PropOp53
 70
     1
102
RTVSPost2010Prop54
  1
strokes_ogs.tif
102
RTVSPost2010PropOp54
 70
     1
102
RTVSPost2010Prop55
280
     0
102
RTVSPost2010PropOp55
 70
     1
102
RTVSPost2010Prop56
140
1.0
102
RTVSPost2010PropOp56
 70
     1
102
RTVSPost2010Prop57
140
1.0
102
RTVSPost2010PropOp57
 70
     1
  0
XRECORD
  5
271
102
{ACAD_REACTORS
330
270
102
}
330
270
100
AcDbXrecord
280
     1
102
RTVSPropertyOp0
 70
     1
102
RTVSPropertyOp1
 70
     1
102
RTVSPropertyOp2
 70
     1
102
RTVSPropertyOp3
 70
     1
102
RTVSPropertyOp4
 70
     1
102
RTVSPropertyOp5
 70
     1
102
RTVSPropertyOp6
 70
     1
102
RTVSPropertyOp7
 70
     1
102
RTVSPropertyOp8
 70
     1
102
RTVSPropertyOp9
 70
     1
102
RTVSPropertyOp10
 70
     1
102
RTVSPropertyOp11
 70
     1
102
RTVSPropertyOp12
 70
     1
102
RTVSPropertyOp13
 70
     1
102
RTVSPropertyOp14
 70
     1
102
RTVSPropertyOp15
 70
     1
102
RTVSPropertyOp16
 70
     1
102
RTVSPropertyOp17
 70
     1
102
RTVSPropertyOp18
 70
     1
102
RTVSPropertyOp19
 70
     1
102
RTVSPropertyOp20
 70
     1
102
RTVSPropertyOp21
 70
     1
102
RTVSPropertyOp22
 70
     1
102
RTVSPropertyOp23
 70
     1
102
RTVSPropertyOp24
 70
     1
102
RTVSPropertyOp25
 70
     1
102
RTVSPropertyOp26
 70
     1
102
RTVSPropertyOp27
 70
     1
102
RTVSPropertyOp28
 70
     1
102
RTVSPropertyOp29
 70
     1
102
RTVSPropertyOp30
 70
     1
102
RTVSPropertyOp31
 70
     1
102
RTVSPropertyOp32
 70
     1
102
RTVSPropertyOp33
 70
     1
102
RTVSPropertyOp34
 70
     1
102
RTVSPropertyOp35
 70
     1
102
RTVSPropertyOp36
 70
     1
102
RTVSPropertyOp37
 70
     1
102
RTVSPropertyOp38
 70
     1
102
RTVSPropertyOp39
 70
     1
102
RTVSPropertyOp40
 70
     1
102
RTVSPropertyOp41
 70
     1
102
RTVSPropertyOp42
 70
     1
102
RTVSPropertyOp43
 70
     1
102
RTVSPropertyOp44
 70
     1
102
RTVSPropertyOp45
 70
     1
102
RTVSPropertyOp46
 70
     1
102
RTVSPropertyOp47
 70
     1
102
RTVSPropertyOp48
 70
     1
102
RTVSPropertyOp49
 70
     1
102
RTVSPropertyOp50
 70
     1
102
RTVSPropertyOp51
 70
     0
102
RTVSPropertyOp52
 70
     0
102
RTVSPropertyOp53
 70
     1
102
RTVSPropertyOp54
 70
     1
102
RTVSPropertyOp55
 70
     1
102
RTVSPropertyOp56
 70
     1
102
RTVSPropertyOp57
 70
     1
102
RTVSPost2010Prop28
280
     0
102
RTVSPost2010PropOp28
 70
     1
102
RTVSPost2010Prop29
280
     1
102
RTVSPost2010PropOp29
 70
     1
102
RTVSPost2010Prop30
280
     1
102
RTVSPost2010PropOp30
 70
     1
102
RTVSPost2010Prop31
280
     0
102
RTVSPost2010PropOp31
 70
     1
102
RTVSPost2010Prop32
280
     0
102
RTVSPost2010PropOp32
 70
     1
102
RTVSPost2010Prop33
280
     0
102
RTVSPost2010PropOp33
 70
     1
102
RTVSPost2010Prop34
280
     0
102
RTVSPost2010PropOp34
 70
     1
102
RTVSPost2010Prop35
280
     0
102
RTVSPost2010PropOp35
 70
     1
102
RTVSPost2010Prop36
280
     0
102
RTVSPost2010PropOp36
 70
     1
102
RTVSPost2010Prop37
 90
       50
102
RTVSPost2010PropOp37
 70
     1
102
RTVSPost2010Prop38
140
0.0
102
RTVSPost2010PropOp38
 70
     1
102
RTVSPost2010Prop39
140
1.0
102
RTVSPost2010PropOp39
 70
     1
102
RTVSPost2010Prop40
 90
        0
102
RTVSPost2010PropOp40
 70
     1
102
RTVSPost2010Prop41ColorIndex
 90
       18
102
RTVSPost2010Prop41ColorRGB
 90
        0
102
RTVSPost2010PropOp41
 70
     1
102
RTVSPost2010Prop42
 90
       50
102
RTVSPost2010PropOp42
 70
     1
102
RTVSPost2010Prop43
 90
        3
102
RTVSPost2010PropOp43
 70
     1
102
RTVSPost2010Prop44ColorIndex
 90
        5
102
RTVSPost2010Prop44ColorRGB
 90
      255
102
RTVSPost2010PropOp44
 70
     1
102
RTVSPost2010Prop45
280
     0
102
RTVSPost2010PropOp45
 70
     1
102
RTVSPost2010Prop46
 90
       50
102
RTVSPost2010PropOp46
 70
     1
102
RTVSPost2010Prop47
 90
       50
102
RTVSPost2010PropOp47
 70
     1
102
RTVSPost2010Prop48
 90
       50
102
RTVSPost2010PropOp48
 70
     1
102
RTVSPost2010Prop49
280
     0
102
RTVSPost2010PropOp49
 70
     1
102
RTVSPost2010Prop50
 90
       50
102
RTVSPost2010PropOp50
 70
     1
102
RTVSPost2010Prop51ColorIndex
 90
      256
102
RTVSPost2010Prop51ColorRGB
 90
-16777216
102
RTVSPost2010PropOp51
 70
     0
102
RTVSPost2010Prop52
140
1.0
102
RTVSPost2010PropOp52
 70
     0
102
RTVSPost2010Prop53
 90
        2
102
RTVSPost2010PropOp53
 70
     1
102
RTVSPost2010Prop54
  1
strokes_ogs.tif
102
RTVSPost2010PropOp54
 70
     1
102
RTVSPost2010Prop55
280
     0
102
RTVSPost2010PropOp55
 70
     1
102
RTVSPost2010Prop56
140
1.0
102
RTVSPost2010PropOp56
 70
     1
102
RTVSPost2010Prop57
140
1.0
102
RTVSPost2010PropOp57
 70
     1
  0
XRECORD
  5
273
102
{ACAD_REACTORS
330
272
102
}
330
272
100
AcDbXrecord
280
     1
102
RTVSPropertyOp0
 70
     1
102
RTVSPropertyOp1
 70
     1
102
RTVSPropertyOp2
 70
     1
102
RTVSPropertyOp3
 70
     1
102
RTVSPropertyOp4
 70
     1
102
RTVSPropertyOp5
 70
     1
102
RTVSPropertyOp6
 70
     1
102
RTVSPropertyOp7
 70
     1
102
RTVSPropertyOp8
 70
     1
102
RTVSPropertyOp9
 70
     1
102
RTVSPropertyOp10
 70
     1
102
RTVSPropertyOp11
 70
     1
102
RTVSPropertyOp12
 70
     1
102
RTVSPropertyOp13
 70
     1
102
RTVSPropertyOp14
 70
     1
102
RTVSPropertyOp15
 70
     1
102
RTVSPropertyOp16
 70
     1
102
RTVSPropertyOp17
 70
     1
102
RTVSPropertyOp18
 70
     1
102
RTVSPropertyOp19
 70
     1
102
RTVSPropertyOp20
 70
     1
102
RTVSPropertyOp21
 70
     1
102
RTVSPropertyOp22
 70
     1
102
RTVSPropertyOp23
 70
     1
102
RTVSPropertyOp24
 70
     1
102
RTVSPropertyOp25
 70
     1
102
RTVSPropertyOp26
 70
     1
102
RTVSPropertyOp27
 70
     1
102
RTVSPropertyOp28
 70
     1
102
RTVSPropertyOp29
 70
     1
102
RTVSPropertyOp30
 70
     1
102
RTVSPropertyOp31
 70
     1
102
RTVSPropertyOp32
 70
     1
102
RTVSPropertyOp33
 70
     1
102
RTVSPropertyOp34
 70
     1
102
RTVSPropertyOp35
 70
     1
102
RTVSPropertyOp36
 70
     1
102
RTVSPropertyOp37
 70
     1
102
RTVSPropertyOp38
 70
     1
102
RTVSPropertyOp39
 70
     1
102
RTVSPropertyOp40
 70
     1
102
RTVSPropertyOp41
 70
     1
102
RTVSPropertyOp42
 70
     1
102
RTVSPropertyOp43
 70
     1
102
RTVSPropertyOp44
 70
     1
102
RTVSPropertyOp45
 70
     1
102
RTVSPropertyOp46
 70
     1
102
RTVSPropertyOp47
 70
     1
102
RTVSPropertyOp48
 70
     1
102
RTVSPropertyOp49
 70
     1
102
RTVSPropertyOp50
 70
     1
102
RTVSPropertyOp51
 70
     0
102
RTVSPropertyOp52
 70
     0
102
RTVSPropertyOp53
 70
     1
102
RTVSPropertyOp54
 70
     1
102
RTVSPropertyOp55
 70
     1
102
RTVSPropertyOp56
 70
     1
102
RTVSPropertyOp57
 70
     1
102
RTVSPost2010Prop28
280
     0
102
RTVSPost2010PropOp28
 70
     1
102
RTVSPost2010Prop29
280
     1
102
RTVSPost2010PropOp29
 70
     1
102
RTVSPost2010Prop30
280
     1
102
RTVSPost2010PropOp30
 70
     1
102
RTVSPost2010Prop31
280
     0
102
RTVSPost2010PropOp31
 70
     1
102
RTVSPost2010Prop32
280
     0
102
RTVSPost2010PropOp32
 70
     1
102
RTVSPost2010Prop33
280
     0
102
RTVSPost2010PropOp33
 70
     1
102
RTVSPost2010Prop34
280
     0
102
RTVSPost2010PropOp34
 70
     1
102
RTVSPost2010Prop35
280
     0
102
RTVSPost2010PropOp35
 70
     1
102
RTVSPost2010Prop36
280
     0
102
RTVSPost2010PropOp36
 70
     1
102
RTVSPost2010Prop37
 90
       50
102
RTVSPost2010PropOp37
 70
     1
102
RTVSPost2010Prop38
140
0.0
102
RTVSPost2010PropOp38
 70
     1
102
RTVSPost2010Prop39
140
1.0
102
RTVSPost2010PropOp39
 70
     1
102
RTVSPost2010Prop40
 90
        0
102
RTVSPost2010PropOp40
 70
     1
102
RTVSPost2010Prop41ColorIndex
 90
       18
102
RTVSPost2010Prop41ColorRGB
 90
        0
102
RTVSPost2010PropOp41
 70
     1
102
RTVSPost2010Prop42
 90
       50
102
RTVSPost2010PropOp42
 70
     1
102
RTVSPost2010Prop43
 90
        3
102
RTVSPost2010PropOp43
 70
     1
102
RTVSPost2010Prop44ColorIndex
 90
        5
102
RTVSPost2010Prop44ColorRGB
 90
      255
102
RTVSPost2010PropOp44
 70
     1
102
RTVSPost2010Prop45
280
     0
102
RTVSPost2010PropOp45
 70
     1
102
RTVSPost2010Prop46
 90
       50
102
RTVSPost2010PropOp46
 70
     1
102
RTVSPost2010Prop47
 90
       50
102
RTVSPost2010PropOp47
 70
     1
102
RTVSPost2010Prop48
 90
       50
102
RTVSPost2010PropOp48
 70
     1
102
RTVSPost2010Prop49
280
     0
102
RTVSPost2010PropOp49
 70
     1
102
RTVSPost2010Prop50
 90
       50
102
RTVSPost2010PropOp50
 70
     1
102
RTVSPost2010Prop51ColorIndex
 90
      256
102
RTVSPost2010Prop51ColorRGB
 90
-16777216
102
RTVSPost2010PropOp51
 70
     0
102
RTVSPost2010Prop52
140
1.0
102
RTVSPost2010PropOp52
 70
     0
102
RTVSPost2010Prop53
 90
        2
102
RTVSPost2010PropOp53
 70
     1
102
RTVSPost2010Prop54
  1
strokes_ogs.tif
102
RTVSPost2010PropOp54
 70
     1
102
RTVSPost2010Prop55
280
     0
102
RTVSPost2010PropOp55
 70
     1
102
RTVSPost2010Prop56
140
1.0
102
RTVSPost2010PropOp56
 70
     1
102
RTVSPost2010Prop57
140
1.0
102
RTVSPost2010PropOp57
 70
     1
  0
XRECORD
  5
275
102
{ACAD_REACTORS
330
274
102
}
330
274
100
AcDbXrecord
280
     1
102
RTVSPropertyOp0
 70
     1
102
RTVSPropertyOp1
 70
     1
102
RTVSPropertyOp2
 70
     1
102
RTVSPropertyOp3
 70
     1
102
RTVSPropertyOp4
 70
     1
102
RTVSPropertyOp5
 70
     1
102
RTVSPropertyOp6
 70
     1
102
RTVSPropertyOp7
 70
     1
102
RTVSPropertyOp8
 70
     1
102
RTVSPropertyOp9
 70
     1
102
RTVSPropertyOp10
 70
     1
102
RTVSPropertyOp11
 70
     1
102
RTVSPropertyOp12
 70
     1
102
RTVSPropertyOp13
 70
     1
102
RTVSPropertyOp14
 70
     1
102
RTVSPropertyOp15
 70
     1
102
RTVSPropertyOp16
 70
     1
102
RTVSPropertyOp17
 70
     1
102
RTVSPropertyOp18
 70
     1
102
RTVSPropertyOp19
 70
     1
102
RTVSPropertyOp20
 70
     1
102
RTVSPropertyOp21
 70
     1
102
RTVSPropertyOp22
 70
     1
102
RTVSPropertyOp23
 70
     1
102
RTVSPropertyOp24
 70
     1
102
RTVSPropertyOp25
 70
     1
102
RTVSPropertyOp26
 70
     1
102
RTVSPropertyOp27
 70
     1
102
RTVSPropertyOp28
 70
     1
102
RTVSPropertyOp29
 70
     1
102
RTVSPropertyOp30
 70
     1
102
RTVSPropertyOp31
 70
     1
102
RTVSPropertyOp32
 70
     1
102
RTVSPropertyOp33
 70
     1
102
RTVSPropertyOp34
 70
     1
102
RTVSPropertyOp35
 70
     1
102
RTVSPropertyOp36
 70
     1
102
RTVSPropertyOp37
 70
     1
102
RTVSPropertyOp38
 70
     1
102
RTVSPropertyOp39
 70
     1
102
RTVSPropertyOp40
 70
     1
102
RTVSPropertyOp41
 70
     1
102
RTVSPropertyOp42
 70
     1
102
RTVSPropertyOp43
 70
     1
102
RTVSPropertyOp44
 70
     1
102
RTVSPropertyOp45
 70
     1
102
RTVSPropertyOp46
 70
     1
102
RTVSPropertyOp47
 70
     1
102
RTVSPropertyOp48
 70
     1
102
RTVSPropertyOp49
 70
     1
102
RTVSPropertyOp50
 70
     1
102
RTVSPropertyOp51
 70
     0
102
RTVSPropertyOp52
 70
     0
102
RTVSPropertyOp53
 70
     1
102
RTVSPropertyOp54
 70
     1
102
RTVSPropertyOp55
 70
     1
102
RTVSPropertyOp56
 70
     1
102
RTVSPropertyOp57
 70
     1
102
RTVSPost2010Prop28
280
     0
102
RTVSPost2010PropOp28
 70
     1
102
RTVSPost2010Prop29
280
     1
102
RTVSPost2010PropOp29
 70
     1
102
RTVSPost2010Prop30
280
     1
102
RTVSPost2010PropOp30
 70
     1
102
RTVSPost2010Prop31
280
     0
102
RTVSPost2010PropOp31
 70
     1
102
RTVSPost2010Prop32
280
     0
102
RTVSPost2010PropOp32
 70
     1
102
RTVSPost2010Prop33
280
     0
102
RTVSPost2010PropOp33
 70
     1
102
RTVSPost2010Prop34
280
     0
102
RTVSPost2010PropOp34
 70
     1
102
RTVSPost2010Prop35
280
     0
102
RTVSPost2010PropOp35
 70
     1
102
RTVSPost2010Prop36
280
     0
102
RTVSPost2010PropOp36
 70
     1
102
RTVSPost2010Prop37
 90
       50
102
RTVSPost2010PropOp37
 70
     1
102
RTVSPost2010Prop38
140
0.0
102
RTVSPost2010PropOp38
 70
     1
102
RTVSPost2010Prop39
140
1.0
102
RTVSPost2010PropOp39
 70
     1
102
RTVSPost2010Prop40
 90
        0
102
RTVSPost2010PropOp40
 70
     1
102
RTVSPost2010Prop41ColorIndex
 90
       18
102
RTVSPost2010Prop41ColorRGB
 90
        0
102
RTVSPost2010PropOp41
 70
     1
102
RTVSPost2010Prop42
 90
       50
102
RTVSPost2010PropOp42
 70
     1
102
RTVSPost2010Prop43
 90
        3
102
RTVSPost2010PropOp43
 70
     1
102
RTVSPost2010Prop44ColorIndex
 90
        5
102
RTVSPost2010Prop44ColorRGB
 90
      255
102
RTVSPost2010PropOp44
 70
     1
102
RTVSPost2010Prop45
280
     0
102
RTVSPost2010PropOp45
 70
     1
102
RTVSPost2010Prop46
 90
       50
102
RTVSPost2010PropOp46
 70
     1
102
RTVSPost2010Prop47
 90
       50
102
RTVSPost2010PropOp47
 70
     1
102
RTVSPost2010Prop48
 90
       50
102
RTVSPost2010PropOp48
 70
     1
102
RTVSPost2010Prop49
280
     0
102
RTVSPost2010PropOp49
 70
     1
102
RTVSPost2010Prop50
 90
       50
102
RTVSPost2010PropOp50
 70
     1
102
RTVSPost2010Prop51ColorIndex
 90
      256
102
RTVSPost2010Prop51ColorRGB
 90
-16777216
102
RTVSPost2010PropOp51
 70
     0
102
RTVSPost2010Prop52
140
1.0
102
RTVSPost2010PropOp52
 70
     0
102
RTVSPost2010Prop53
 90
        2
102
RTVSPost2010PropOp53
 70
     1
102
RTVSPost2010Prop54
  1
strokes_ogs.tif
102
RTVSPost2010PropOp54
 70
     1
102
RTVSPost2010Prop55
280
     0
102
RTVSPost2010PropOp55
 70
     1
102
RTVSPost2010Prop56
140
1.0
102
RTVSPost2010PropOp56
 70
     1
102
RTVSPost2010Prop57
140
1.0
102
RTVSPost2010PropOp57
 70
     1
  0
XRECORD
  5
277
102
{ACAD_REACTORS
330
276
102
}
330
276
100
AcDbXrecord
280
     1
102
RTVSPropertyOp0
 70
     0
102
RTVSPropertyOp1
 70
     0
102
RTVSPropertyOp2
 70
     0
102
RTVSPropertyOp3
 70
     0
102
RTVSPropertyOp4
 70
     0
102
RTVSPropertyOp5
 70
     0
102
RTVSPropertyOp6
 70
     0
102
RTVSPropertyOp7
 70
     0
102
RTVSPropertyOp8
 70
     0
102
RTVSPropertyOp9
 70
     0
102
RTVSPropertyOp10
 70
     0
102
RTVSPropertyOp11
 70
     0
102
RTVSPropertyOp12
 70
     0
102
RTVSPropertyOp13
 70
     0
102
RTVSPropertyOp14
 70
     2
102
RTVSPropertyOp15
 70
     0
102
RTVSPropertyOp16
 70
     0
102
RTVSPropertyOp17
 70
     0
102
RTVSPropertyOp18
 70
     0
102
RTVSPropertyOp19
 70
     0
102
RTVSPropertyOp20
 70
     0
102
RTVSPropertyOp21
 70
     0
102
RTVSPropertyOp22
 70
     0
102
RTVSPropertyOp23
 70
     0
102
RTVSPropertyOp24
 70
     0
102
RTVSPropertyOp25
 70
     0
102
RTVSPropertyOp26
 70
     0
102
RTVSPropertyOp27
 70
     0
102
RTVSPropertyOp28
 70
     0
102
RTVSPropertyOp29
 70
     0
102
RTVSPropertyOp30
 70
     0
102
RTVSPropertyOp31
 70
     0
102
RTVSPropertyOp32
 70
     0
102
RTVSPropertyOp33
 70
     0
102
RTVSPropertyOp34
 70
     0
102
RTVSPropertyOp35
 70
     0
102
RTVSPropertyOp36
 70
     0
102
RTVSPropertyOp37
 70
     0
102
RTVSPropertyOp38
 70
     0
102
RTVSPropertyOp39
 70
     0
102
RTVSPropertyOp40
 70
     0
102
RTVSPropertyOp41
 70
     0
102
RTVSPropertyOp42
 70
     0
102
RTVSPropertyOp43
 70
     0
102
RTVSPropertyOp44
 70
     0
102
RTVSPropertyOp45
 70
     0
102
RTVSPropertyOp46
 70
     0
102
RTVSPropertyOp47
 70
     0
102
RTVSPropertyOp48
 70
     0
102
RTVSPropertyOp49
 70
     0
102
RTVSPropertyOp50
 70
     0
102
RTVSPropertyOp51
 70
     0
102
RTVSPropertyOp52
 70
     0
102
RTVSPropertyOp53
 70
     0
102
RTVSPropertyOp54
 70
     0
102
RTVSPropertyOp55
 70
     0
102
RTVSPropertyOp56
 70
     0
102
RTVSPropertyOp57
 70
     0
102
RTVSPost2010Prop28
280
     0
102
RTVSPost2010PropOp28
 70
     0
102
RTVSPost2010Prop29
280
     1
102
RTVSPost2010PropOp29
 70
     0
102
RTVSPost2010Prop30
280
     1
102
RTVSPost2010PropOp30
 70
     0
102
RTVSPost2010Prop31
280
     0
102
RTVSPost2010PropOp31
 70
     0
102
RTVSPost2010Prop32
280
     0
102
RTVSPost2010PropOp32
 70
     0
102
RTVSPost2010Prop33
280
     0
102
RTVSPost2010PropOp33
 70
     0
102
RTVSPost2010Prop34
280
     0
102
RTVSPost2010PropOp34
 70
     0
102
RTVSPost2010Prop35
280
     0
102
RTVSPost2010PropOp35
 70
     0
102
RTVSPost2010Prop36
280
     0
102
RTVSPost2010PropOp36
 70
     0
102
RTVSPost2010Prop37
 90
       50
102
RTVSPost2010PropOp37
 70
     0
102
RTVSPost2010Prop38
140
0.0
102
RTVSPost2010PropOp38
 70
     0
102
RTVSPost2010Prop39
140
1.0
102
RTVSPost2010PropOp39
 70
     0
102
RTVSPost2010Prop40
 90
        0
102
RTVSPost2010PropOp40
 70
     0
102
RTVSPost2010Prop41ColorIndex
 90
       18
102
RTVSPost2010Prop41ColorRGB
 90
        0
102
RTVSPost2010PropOp41
 70
     0
102
RTVSPost2010Prop42
 90
       50
102
RTVSPost2010PropOp42
 70
     0
102
RTVSPost2010Prop43
 90
        3
102
RTVSPost2010PropOp43
 70
     0
102
RTVSPost2010Prop44ColorIndex
 90
        5
102
RTVSPost2010Prop44ColorRGB
 90
      255
102
RTVSPost2010PropOp44
 70
     0
102
RTVSPost2010Prop45
280
     0
102
RTVSPost2010PropOp45
 70
     0
102
RTVSPost2010Prop46
 90
       50
102
RTVSPost2010PropOp46
 70
     0
102
RTVSPost2010Prop47
 90
       50
102
RTVSPost2010PropOp47
 70
     0
102
RTVSPost2010Prop48
 90
       50
102
RTVSPost2010PropOp48
 70
     0
102
RTVSPost2010Prop49
280
     0
102
RTVSPost2010PropOp49
 70
     0
102
RTVSPost2010Prop50
 90
       50
102
RTVSPost2010PropOp50
 70
     0
102
RTVSPost2010Prop51ColorIndex
 90
      256
102
RTVSPost2010Prop51ColorRGB
 90
-16777216
102
RTVSPost2010PropOp51
 70
     0
102
RTVSPost2010Prop52
140
1.0
102
RTVSPost2010PropOp52
 70
     0
102
RTVSPost2010Prop53
 90
        2
102
RTVSPost2010PropOp53
 70
     0
102
RTVSPost2010Prop54
  1
strokes_ogs.tif
102
RTVSPost2010PropOp54
 70
     0
102
RTVSPost2010Prop55
280
     0
102
RTVSPost2010PropOp55
 70
     0
102
RTVSPost2010Prop56
140
1.0
102
RTVSPost2010PropOp56
 70
     0
102
RTVSPost2010Prop57
140
1.0
102
RTVSPost2010PropOp57
 70
     0
  0
XRECORD
  5
279
102
{ACAD_REACTORS
330
278
102
}
330
278
100
AcDbXrecord
280
     1
102
RTVSPropertyOp0
 70
     1
102
RTVSPropertyOp1
 70
     1
102
RTVSPropertyOp2
 70
     1
102
RTVSPropertyOp3
 70
     1
102
RTVSPropertyOp4
 70
     1
102
RTVSPropertyOp5
 70
     1
102
RTVSPropertyOp6
 70
     1
102
RTVSPropertyOp7
 70
     1
102
RTVSPropertyOp8
 70
     1
102
RTVSPropertyOp9
 70
     1
102
RTVSPropertyOp10
 70
     1
102
RTVSPropertyOp11
 70
     1
102
RTVSPropertyOp12
 70
     1
102
RTVSPropertyOp13
 70
     1
102
RTVSPropertyOp14
 70
     1
102
RTVSPropertyOp15
 70
     1
102
RTVSPropertyOp16
 70
     1
102
RTVSPropertyOp17
 70
     1
102
RTVSPropertyOp18
 70
     1
102
RTVSPropertyOp19
 70
     1
102
RTVSPropertyOp20
 70
     1
102
RTVSPropertyOp21
 70
     1
102
RTVSPropertyOp22
 70
     1
102
RTVSPropertyOp23
 70
     1
102
RTVSPropertyOp24
 70
     1
102
RTVSPropertyOp25
 70
     1
102
RTVSPropertyOp26
 70
     1
102
RTVSPropertyOp27
 70
     1
102
RTVSPropertyOp28
 70
     1
102
RTVSPropertyOp29
 70
     1
102
RTVSPropertyOp30
 70
     1
102
RTVSPropertyOp31
 70
     1
102
RTVSPropertyOp32
 70
     1
102
RTVSPropertyOp33
 70
     1
102
RTVSPropertyOp34
 70
     1
102
RTVSPropertyOp35
 70
     1
102
RTVSPropertyOp36
 70
     1
102
RTVSPropertyOp37
 70
     1
102
RTVSPropertyOp38
 70
     1
102
RTVSPropertyOp39
 70
     1
102
RTVSPropertyOp40
 70
     1
102
RTVSPropertyOp41
 70
     1
102
RTVSPropertyOp42
 70
     1
102
RTVSPropertyOp43
 70
     1
102
RTVSPropertyOp44
 70
     1
102
RTVSPropertyOp45
 70
     1
102
RTVSPropertyOp46
 70
     1
102
RTVSPropertyOp47
 70
     1
102
RTVSPropertyOp48
 70
     1
102
RTVSPropertyOp49
 70
     1
102
RTVSPropertyOp50
 70
     1
102
RTVSPropertyOp51
 70
     0
102
RTVSPropertyOp52
 70
     0
102
RTVSPropertyOp53
 70
     1
102
RTVSPropertyOp54
 70
     1
102
RTVSPropertyOp55
 70
     1
102
RTVSPropertyOp56
 70
     1
102
RTVSPropertyOp57
 70
     1
102
RTVSPost2010Prop28
280
     0
102
RTVSPost2010PropOp28
 70
     1
102
RTVSPost2010Prop29
280
     1
102
RTVSPost2010PropOp29
 70
     1
102
RTVSPost2010Prop30
280
     1
102
RTVSPost2010PropOp30
 70
     1
102
RTVSPost2010Prop31
280
     0
102
RTVSPost2010PropOp31
 70
     1
102
RTVSPost2010Prop32
280
     0
102
RTVSPost2010PropOp32
 70
     1
102
RTVSPost2010Prop33
280
     0
102
RTVSPost2010PropOp33
 70
     1
102
RTVSPost2010Prop34
280
     0
102
RTVSPost2010PropOp34
 70
     1
102
RTVSPost2010Prop35
280
     0
102
RTVSPost2010PropOp35
 70
     1
102
RTVSPost2010Prop36
280
     0
102
RTVSPost2010PropOp36
 70
     1
102
RTVSPost2010Prop37
 90
       50
102
RTVSPost2010PropOp37
 70
     1
102
RTVSPost2010Prop38
140
0.0
102
RTVSPost2010PropOp38
 70
     1
102
RTVSPost2010Prop39
140
1.0
102
RTVSPost2010PropOp39
 70
     1
102
RTVSPost2010Prop40
 90
        0
102
RTVSPost2010PropOp40
 70
     1
102
RTVSPost2010Prop41ColorIndex
 90
       18
102
RTVSPost2010Prop41ColorRGB
 90
        0
102
RTVSPost2010PropOp41
 70
     1
102
RTVSPost2010Prop42
 90
       50
102
RTVSPost2010PropOp42
 70
     1
102
RTVSPost2010Prop43
 90
        3
102
RTVSPost2010PropOp43
 70
     1
102
RTVSPost2010Prop44ColorIndex
 90
        5
102
RTVSPost2010Prop44ColorRGB
 90
      255
102
RTVSPost2010PropOp44
 70
     1
102
RTVSPost2010Prop45
280
     0
102
RTVSPost2010PropOp45
 70
     1
102
RTVSPost2010Prop46
 90
       50
102
RTVSPost2010PropOp46
 70
     1
102
RTVSPost2010Prop47
 90
       50
102
RTVSPost2010PropOp47
 70
     1
102
RTVSPost2010Prop48
 90
       50
102
RTVSPost2010PropOp48
 70
     1
102
RTVSPost2010Prop49
280
     0
102
RTVSPost2010PropOp49
 70
     1
102
RTVSPost2010Prop50
 90
       50
102
RTVSPost2010PropOp50
 70
     1
102
RTVSPost2010Prop51ColorIndex
 90
      256
102
RTVSPost2010Prop51ColorRGB
 90
-16777216
102
RTVSPost2010PropOp51
 70
     0
102
RTVSPost2010Prop52
140
1.0
102
RTVSPost2010PropOp52
 70
     0
102
RTVSPost2010Prop53
 90
        2
102
RTVSPost2010PropOp53
 70
     1
102
RTVSPost2010Prop54
  1
strokes_ogs.tif
102
RTVSPost2010PropOp54
 70
     1
102
RTVSPost2010Prop55
280
     0
102
RTVSPost2010PropOp55
 70
     1
102
RTVSPost2010Prop56
140
1.0
102
RTVSPost2010PropOp56
 70
     1
102
RTVSPost2010Prop57
140
1.0
102
RTVSPost2010PropOp57
 70
     1
  0
XRECORD
  5
27B
102
{ACAD_REACTORS
330
27A
102
}
330
27A
100
AcDbXrecord
280
     1
102
RTVSPropertyOp0
 70
     1
102
RTVSPropertyOp1
 70
     1
102
RTVSPropertyOp2
 70
     1
102
RTVSPropertyOp3
 70
     1
102
RTVSPropertyOp4
 70
     1
102
RTVSPropertyOp5
 70
     1
102
RTVSPropertyOp6
 70
     1
102
RTVSPropertyOp7
 70
     1
102
RTVSPropertyOp8
 70
     1
102
RTVSPropertyOp9
 70
     1
102
RTVSPropertyOp10
 70
     1
102
RTVSPropertyOp11
 70
     1
102
RTVSPropertyOp12
 70
     1
102
RTVSPropertyOp13
 70
     1
102
RTVSPropertyOp14
 70
     1
102
RTVSPropertyOp15
 70
     1
102
RTVSPropertyOp16
 70
     1
102
RTVSPropertyOp17
 70
     1
102
RTVSPropertyOp18
 70
     1
102
RTVSPropertyOp19
 70
     1
102
RTVSPropertyOp20
 70
     1
102
RTVSPropertyOp21
 70
     1
102
RTVSPropertyOp22
 70
     1
102
RTVSPropertyOp23
 70
     1
102
RTVSPropertyOp24
 70
     1
102
RTVSPropertyOp25
 70
     1
102
RTVSPropertyOp26
 70
     1
102
RTVSPropertyOp27
 70
     1
102
RTVSPropertyOp28
 70
     1
102
RTVSPropertyOp29
 70
     1
102
RTVSPropertyOp30
 70
     1
102
RTVSPropertyOp31
 70
     1
102
RTVSPropertyOp32
 70
     1
102
RTVSPropertyOp33
 70
     1
102
RTVSPropertyOp34
 70
     1
102
RTVSPropertyOp35
 70
     1
102
RTVSPropertyOp36
 70
     1
102
RTVSPropertyOp37
 70
     1
102
RTVSPropertyOp38
 70
     1
102
RTVSPropertyOp39
 70
     1
102
RTVSPropertyOp40
 70
     1
102
RTVSPropertyOp41
 70
     1
102
RTVSPropertyOp42
 70
     1
102
RTVSPropertyOp43
 70
     1
102
RTVSPropertyOp44
 70
     1
102
RTVSPropertyOp45
 70
     1
102
RTVSPropertyOp46
 70
     1
102
RTVSPropertyOp47
 70
     1
102
RTVSPropertyOp48
 70
     1
102
RTVSPropertyOp49
 70
     1
102
RTVSPropertyOp50
 70
     1
102
RTVSPropertyOp51
 70
     0
102
RTVSPropertyOp52
 70
     0
102
RTVSPropertyOp53
 70
     1
102
RTVSPropertyOp54
 70
     1
102
RTVSPropertyOp55
 70
     1
102
RTVSPropertyOp56
 70
     1
102
RTVSPropertyOp57
 70
     1
102
RTVSPost2010Prop28
280
     0
102
RTVSPost2010PropOp28
 70
     1
102
RTVSPost2010Prop29
280
     1
102
RTVSPost2010PropOp29
 70
     1
102
RTVSPost2010Prop30
280
     1
102
RTVSPost2010PropOp30
 70
     1
102
RTVSPost2010Prop31
280
     0
102
RTVSPost2010PropOp31
 70
     1
102
RTVSPost2010Prop32
280
     0
102
RTVSPost2010PropOp32
 70
     1
102
RTVSPost2010Prop33
280
     0
102
RTVSPost2010PropOp33
 70
     1
102
RTVSPost2010Prop34
280
     0
102
RTVSPost2010PropOp34
 70
     1
102
RTVSPost2010Prop35
280
     0
102
RTVSPost2010PropOp35
 70
     1
102
RTVSPost2010Prop36
280
     0
102
RTVSPost2010PropOp36
 70
     1
102
RTVSPost2010Prop37
 90
       50
102
RTVSPost2010PropOp37
 70
     1
102
RTVSPost2010Prop38
140
0.0
102
RTVSPost2010PropOp38
 70
     1
102
RTVSPost2010Prop39
140
1.0
102
RTVSPost2010PropOp39
 70
     1
102
RTVSPost2010Prop40
 90
        0
102
RTVSPost2010PropOp40
 70
     1
102
RTVSPost2010Prop41ColorIndex
 90
       18
102
RTVSPost2010Prop41ColorRGB
 90
        0
102
RTVSPost2010PropOp41
 70
     1
102
RTVSPost2010Prop42
 90
       50
102
RTVSPost2010PropOp42
 70
     1
102
RTVSPost2010Prop43
 90
        3
102
RTVSPost2010PropOp43
 70
     1
102
RTVSPost2010Prop44ColorIndex
 90
        5
102
RTVSPost2010Prop44ColorRGB
 90
      255
102
RTVSPost2010PropOp44
 70
     1
102
RTVSPost2010Prop45
280
     0
102
RTVSPost2010PropOp45
 70
     1
102
RTVSPost2010Prop46
 90
       50
102
RTVSPost2010PropOp46
 70
     1
102
RTVSPost2010Prop47
 90
       50
102
RTVSPost2010PropOp47
 70
     1
102
RTVSPost2010Prop48
 90
       50
102
RTVSPost2010PropOp48
 70
     1
102
RTVSPost2010Prop49
280
     0
102
RTVSPost2010PropOp49
 70
     1
102
RTVSPost2010Prop50
 90
       50
102
RTVSPost2010PropOp50
 70
     1
102
RTVSPost2010Prop51ColorIndex
 90
      256
102
RTVSPost2010Prop51ColorRGB
 90
-16777216
102
RTVSPost2010PropOp51
 70
     0
102
RTVSPost2010Prop52
140
1.0
102
RTVSPost2010PropOp52
 70
     0
102
RTVSPost2010Prop53
 90
        2
102
RTVSPost2010PropOp53
 70
     1
102
RTVSPost2010Prop54
  1
strokes_ogs.tif
102
RTVSPost2010PropOp54
 70
     1
102
RTVSPost2010Prop55
280
     0
102
RTVSPost2010PropOp55
 70
     1
102
RTVSPost2010Prop56
140
1.0
102
RTVSPost2010PropOp56
 70
     1
102
RTVSPost2010Prop57
140
1.0
102
RTVSPost2010PropOp57
 70
     1
  0
XRECORD
  5
27D
102
{ACAD_REACTORS
330
27C
102
}
330
27C
100
AcDbXrecord
280
     1
102
RTVSPropertyOp0
 70
     1
102
RTVSPropertyOp1
 70
     1
102
RTVSPropertyOp2
 70
     1
102
RTVSPropertyOp3
 70
     1
102
RTVSPropertyOp4
 70
     1
102
RTVSPropertyOp5
 70
     1
102
RTVSPropertyOp6
 70
     1
102
RTVSPropertyOp7
 70
     1
102
RTVSPropertyOp8
 70
     1
102
RTVSPropertyOp9
 70
     1
102
RTVSPropertyOp10
 70
     1
102
RTVSPropertyOp11
 70
     1
102
RTVSPropertyOp12
 70
     1
102
RTVSPropertyOp13
 70
     1
102
RTVSPropertyOp14
 70
     1
102
RTVSPropertyOp15
 70
     1
102
RTVSPropertyOp16
 70
     1
102
RTVSPropertyOp17
 70
     1
102
RTVSPropertyOp18
 70
     1
102
RTVSPropertyOp19
 70
     1
102
RTVSPropertyOp20
 70
     1
102
RTVSPropertyOp21
 70
     1
102
RTVSPropertyOp22
 70
     1
102
RTVSPropertyOp23
 70
     1
102
RTVSPropertyOp24
 70
     1
102
RTVSPropertyOp25
 70
     1
102
RTVSPropertyOp26
 70
     1
102
RTVSPropertyOp27
 70
     1
102
RTVSPropertyOp28
 70
     1
102
RTVSPropertyOp29
 70
     1
102
RTVSPropertyOp30
 70
     1
102
RTVSPropertyOp31
 70
     1
102
RTVSPropertyOp32
 70
     1
102
RTVSPropertyOp33
 70
     1
102
RTVSPropertyOp34
 70
     1
102
RTVSPropertyOp35
 70
     1
102
RTVSPropertyOp36
 70
     1
102
RTVSPropertyOp37
 70
     1
102
RTVSPropertyOp38
 70
     1
102
RTVSPropertyOp39
 70
     1
102
RTVSPropertyOp40
 70
     1
102
RTVSPropertyOp41
 70
     1
102
RTVSPropertyOp42
 70
     1
102
RTVSPropertyOp43
 70
     1
102
RTVSPropertyOp44
 70
     1
102
RTVSPropertyOp45
 70
     1
102
RTVSPropertyOp46
 70
     1
102
RTVSPropertyOp47
 70
     1
102
RTVSPropertyOp48
 70
     1
102
RTVSPropertyOp49
 70
     1
102
RTVSPropertyOp50
 70
     1
102
RTVSPropertyOp51
 70
     0
102
RTVSPropertyOp52
 70
     0
102
RTVSPropertyOp53
 70
     1
102
RTVSPropertyOp54
 70
     1
102
RTVSPropertyOp55
 70
     1
102
RTVSPropertyOp56
 70
     1
102
RTVSPropertyOp57
 70
     1
102
RTVSPost2010Prop28
280
     0
102
RTVSPost2010PropOp28
 70
     1
102
RTVSPost2010Prop29
280
     1
102
RTVSPost2010PropOp29
 70
     1
102
RTVSPost2010Prop30
280
     1
102
RTVSPost2010PropOp30
 70
     1
102
RTVSPost2010Prop31
280
     0
102
RTVSPost2010PropOp31
 70
     1
102
RTVSPost2010Prop32
280
     0
102
RTVSPost2010PropOp32
 70
     1
102
RTVSPost2010Prop33
280
     0
102
RTVSPost2010PropOp33
 70
     1
102
RTVSPost2010Prop34
280
     0
102
RTVSPost2010PropOp34
 70
     1
102
RTVSPost2010Prop35
280
     0
102
RTVSPost2010PropOp35
 70
     1
102
RTVSPost2010Prop36
280
     0
102
RTVSPost2010PropOp36
 70
     1
102
RTVSPost2010Prop37
 90
       50
102
RTVSPost2010PropOp37
 70
     1
102
RTVSPost2010Prop38
140
0.0
102
RTVSPost2010PropOp38
 70
     1
102
RTVSPost2010Prop39
140
1.0
102
RTVSPost2010PropOp39
 70
     1
102
RTVSPost2010Prop40
 90
        0
102
RTVSPost2010PropOp40
 70
     1
102
RTVSPost2010Prop41ColorIndex
 90
       18
102
RTVSPost2010Prop41ColorRGB
 90
        0
102
RTVSPost2010PropOp41
 70
     1
102
RTVSPost2010Prop42
 90
       50
102
RTVSPost2010PropOp42
 70
     1
102
RTVSPost2010Prop43
 90
        3
102
RTVSPost2010PropOp43
 70
     1
102
RTVSPost2010Prop44ColorIndex
 90
        5
102
RTVSPost2010Prop44ColorRGB
 90
      255
102
RTVSPost2010PropOp44
 70
     1
102
RTVSPost2010Prop45
280
     0
102
RTVSPost2010PropOp45
 70
     1
102
RTVSPost2010Prop46
 90
       50
102
RTVSPost2010PropOp46
 70
     1
102
RTVSPost2010Prop47
 90
       50
102
RTVSPost2010PropOp47
 70
     1
102
RTVSPost2010Prop48
 90
       50
102
RTVSPost2010PropOp48
 70
     1
102
RTVSPost2010Prop49
280
     0
102
RTVSPost2010PropOp49
 70
     1
102
RTVSPost2010Prop50
 90
       50
102
RTVSPost2010PropOp50
 70
     1
102
RTVSPost2010Prop51ColorIndex
 90
      256
102
RTVSPost2010Prop51ColorRGB
 90
-16777216
102
RTVSPost2010PropOp51
 70
     0
102
RTVSPost2010Prop52
140
1.0
102
RTVSPost2010PropOp52
 70
     0
102
RTVSPost2010Prop53
 90
        2
102
RTVSPost2010PropOp53
 70
     1
102
RTVSPost2010Prop54
  1
strokes_ogs.tif
102
RTVSPost2010PropOp54
 70
     1
102
RTVSPost2010Prop55
280
     0
102
RTVSPost2010PropOp55
 70
     1
102
RTVSPost2010Prop56
140
1.0
102
RTVSPost2010PropOp56
 70
     1
102
RTVSPost2010Prop57
140
1.0
102
RTVSPost2010PropOp57
 70
     1
  0
XRECORD
  5
27F
102
{ACAD_REACTORS
330
27E
102
}
330
27E
100
AcDbXrecord
280
     1
102
RTVSPropertyOp0
 70
     1
102
RTVSPropertyOp1
 70
     1
102
RTVSPropertyOp2
 70
     1
102
RTVSPropertyOp3
 70
     1
102
RTVSPropertyOp4
 70
     1
102
RTVSPropertyOp5
 70
     1
102
RTVSPropertyOp6
 70
     1
102
RTVSPropertyOp7
 70
     1
102
RTVSPropertyOp8
 70
     1
102
RTVSPropertyOp9
 70
     1
102
RTVSPropertyOp10
 70
     1
102
RTVSPropertyOp11
 70
     1
102
RTVSPropertyOp12
 70
     1
102
RTVSPropertyOp13
 70
     1
102
RTVSPropertyOp14
 70
     1
102
RTVSPropertyOp15
 70
     1
102
RTVSPropertyOp16
 70
     1
102
RTVSPropertyOp17
 70
     1
102
RTVSPropertyOp18
 70
     1
102
RTVSPropertyOp19
 70
     1
102
RTVSPropertyOp20
 70
     1
102
RTVSPropertyOp21
 70
     1
102
RTVSPropertyOp22
 70
     1
102
RTVSPropertyOp23
 70
     1
102
RTVSPropertyOp24
 70
     1
102
RTVSPropertyOp25
 70
     1
102
RTVSPropertyOp26
 70
     1
102
RTVSPropertyOp27
 70
     1
102
RTVSPropertyOp28
 70
     1
102
RTVSPropertyOp29
 70
     1
102
RTVSPropertyOp30
 70
     1
102
RTVSPropertyOp31
 70
     1
102
RTVSPropertyOp32
 70
     1
102
RTVSPropertyOp33
 70
     1
102
RTVSPropertyOp34
 70
     1
102
RTVSPropertyOp35
 70
     1
102
RTVSPropertyOp36
 70
     1
102
RTVSPropertyOp37
 70
     1
102
RTVSPropertyOp38
 70
     1
102
RTVSPropertyOp39
 70
     1
102
RTVSPropertyOp40
 70
     1
102
RTVSPropertyOp41
 70
     1
102
RTVSPropertyOp42
 70
     1
102
RTVSPropertyOp43
 70
     1
102
RTVSPropertyOp44
 70
     1
102
RTVSPropertyOp45
 70
     1
102
RTVSPropertyOp46
 70
     1
102
RTVSPropertyOp47
 70
     1
102
RTVSPropertyOp48
 70
     1
102
RTVSPropertyOp49
 70
     1
102
RTVSPropertyOp50
 70
     1
102
RTVSPropertyOp51
 70
     0
102
RTVSPropertyOp52
 70
     0
102
RTVSPropertyOp53
 70
     1
102
RTVSPropertyOp54
 70
     1
102
RTVSPropertyOp55
 70
     1
102
RTVSPropertyOp56
 70
     1
102
RTVSPropertyOp57
 70
     1
102
RTVSPost2010Prop28
280
     0
102
RTVSPost2010PropOp28
 70
     1
102
RTVSPost2010Prop29
280
     1
102
RTVSPost2010PropOp29
 70
     1
102
RTVSPost2010Prop30
280
     1
102
RTVSPost2010PropOp30
 70
     1
102
RTVSPost2010Prop31
280
     0
102
RTVSPost2010PropOp31
 70
     1
102
RTVSPost2010Prop32
280
     0
102
RTVSPost2010PropOp32
 70
     1
102
RTVSPost2010Prop33
280
     0
102
RTVSPost2010PropOp33
 70
     1
102
RTVSPost2010Prop34
280
     0
102
RTVSPost2010PropOp34
 70
     1
102
RTVSPost2010Prop35
280
     0
102
RTVSPost2010PropOp35
 70
     1
102
RTVSPost2010Prop36
280
     0
102
RTVSPost2010PropOp36
 70
     1
102
RTVSPost2010Prop37
 90
       50
102
RTVSPost2010PropOp37
 70
     1
102
RTVSPost2010Prop38
140
0.0
102
RTVSPost2010PropOp38
 70
     1
102
RTVSPost2010Prop39
140
1.0
102
RTVSPost2010PropOp39
 70
     1
102
RTVSPost2010Prop40
 90
        0
102
RTVSPost2010PropOp40
 70
     1
102
RTVSPost2010Prop41ColorIndex
 90
       18
102
RTVSPost2010Prop41ColorRGB
 90
        0
102
RTVSPost2010PropOp41
 70
     1
102
RTVSPost2010Prop42
 90
       50
102
RTVSPost2010PropOp42
 70
     1
102
RTVSPost2010Prop43
 90
        3
102
RTVSPost2010PropOp43
 70
     1
102
RTVSPost2010Prop44ColorIndex
 90
        5
102
RTVSPost2010Prop44ColorRGB
 90
      255
102
RTVSPost2010PropOp44
 70
     1
102
RTVSPost2010Prop45
280
     0
102
RTVSPost2010PropOp45
 70
     1
102
RTVSPost2010Prop46
 90
       50
102
RTVSPost2010PropOp46
 70
     1
102
RTVSPost2010Prop47
 90
       50
102
RTVSPost2010PropOp47
 70
     1
102
RTVSPost2010Prop48
 90
       50
102
RTVSPost2010PropOp48
 70
     1
102
RTVSPost2010Prop49
280
     0
102
RTVSPost2010PropOp49
 70
     1
102
RTVSPost2010Prop50
 90
       50
102
RTVSPost2010PropOp50
 70
     1
102
RTVSPost2010Prop51ColorIndex
 90
      256
102
RTVSPost2010Prop51ColorRGB
 90
-16777216
102
RTVSPost2010PropOp51
 70
     0
102
RTVSPost2010Prop52
140
1.0
102
RTVSPost2010PropOp52
 70
     0
102
RTVSPost2010Prop53
 90
        2
102
RTVSPost2010PropOp53
 70
     1
102
RTVSPost2010Prop54
  1
strokes_ogs.tif
102
RTVSPost2010PropOp54
 70
     1
102
RTVSPost2010Prop55
280
     0
102
RTVSPost2010PropOp55
 70
     1
102
RTVSPost2010Prop56
140
1.0
102
RTVSPost2010PropOp56
 70
     1
102
RTVSPost2010Prop57
140
1.0
102
RTVSPost2010PropOp57
 70
     1
  0
XRECORD
  5
281
102
{ACAD_REACTORS
330
280
102
}
330
280
100
AcDbXrecord
280
     1
102
RTVSPropertyOp0
 70
     1
102
RTVSPropertyOp1
 70
     1
102
RTVSPropertyOp2
 70
     1
102
RTVSPropertyOp3
 70
     1
102
RTVSPropertyOp4
 70
     1
102
RTVSPropertyOp5
 70
     1
102
RTVSPropertyOp6
 70
     1
102
RTVSPropertyOp7
 70
     1
102
RTVSPropertyOp8
 70
     1
102
RTVSPropertyOp9
 70
     1
102
RTVSPropertyOp10
 70
     1
102
RTVSPropertyOp11
 70
     1
102
RTVSPropertyOp12
 70
     1
102
RTVSPropertyOp13
 70
     1
102
RTVSPropertyOp14
 70
     1
102
RTVSPropertyOp15
 70
     1
102
RTVSPropertyOp16
 70
     1
102
RTVSPropertyOp17
 70
     1
102
RTVSPropertyOp18
 70
     1
102
RTVSPropertyOp19
 70
     1
102
RTVSPropertyOp20
 70
     1
102
RTVSPropertyOp21
 70
     1
102
RTVSPropertyOp22
 70
     1
102
RTVSPropertyOp23
 70
     1
102
RTVSPropertyOp24
 70
     1
102
RTVSPropertyOp25
 70
     1
102
RTVSPropertyOp26
 70
     1
102
RTVSPropertyOp27
 70
     1
102
RTVSPropertyOp28
 70
     1
102
RTVSPropertyOp29
 70
     1
102
RTVSPropertyOp30
 70
     1
102
RTVSPropertyOp31
 70
     1
102
RTVSPropertyOp32
 70
     1
102
RTVSPropertyOp33
 70
     1
102
RTVSPropertyOp34
 70
     1
102
RTVSPropertyOp35
 70
     1
102
RTVSPropertyOp36
 70
     1
102
RTVSPropertyOp37
 70
     1
102
RTVSPropertyOp38
 70
     1
102
RTVSPropertyOp39
 70
     1
102
RTVSPropertyOp40
 70
     1
102
RTVSPropertyOp41
 70
     1
102
RTVSPropertyOp42
 70
     1
102
RTVSPropertyOp43
 70
     1
102
RTVSPropertyOp44
 70
     1
102
RTVSPropertyOp45
 70
     1
102
RTVSPropertyOp46
 70
     1
102
RTVSPropertyOp47
 70
     1
102
RTVSPropertyOp48
 70
     1
102
RTVSPropertyOp49
 70
     1
102
RTVSPropertyOp50
 70
     1
102
RTVSPropertyOp51
 70
     0
102
RTVSPropertyOp52
 70
     0
102
RTVSPropertyOp53
 70
     1
102
RTVSPropertyOp54
 70
     1
102
RTVSPropertyOp55
 70
     1
102
RTVSPropertyOp56
 70
     1
102
RTVSPropertyOp57
 70
     1
102
RTVSPost2010Prop28
280
     0
102
RTVSPost2010PropOp28
 70
     1
102
RTVSPost2010Prop29
280
     1
102
RTVSPost2010PropOp29
 70
     1
102
RTVSPost2010Prop30
280
     1
102
RTVSPost2010PropOp30
 70
     1
102
RTVSPost2010Prop31
280
     0
102
RTVSPost2010PropOp31
 70
     1
102
RTVSPost2010Prop32
280
     0
102
RTVSPost2010PropOp32
 70
     1
102
RTVSPost2010Prop33
280
     0
102
RTVSPost2010PropOp33
 70
     1
102
RTVSPost2010Prop34
280
     0
102
RTVSPost2010PropOp34
 70
     1
102
RTVSPost2010Prop35
280
     0
102
RTVSPost2010PropOp35
 70
     1
102
RTVSPost2010Prop36
280
     0
102
RTVSPost2010PropOp36
 70
     1
102
RTVSPost2010Prop37
 90
       50
102
RTVSPost2010PropOp37
 70
     1
102
RTVSPost2010Prop38
140
0.0
102
RTVSPost2010PropOp38
 70
     1
102
RTVSPost2010Prop39
140
1.0
102
RTVSPost2010PropOp39
 70
     1
102
RTVSPost2010Prop40
 90
        0
102
RTVSPost2010PropOp40
 70
     1
102
RTVSPost2010Prop41ColorIndex
 90
       18
102
RTVSPost2010Prop41ColorRGB
 90
        0
102
RTVSPost2010PropOp41
 70
     1
102
RTVSPost2010Prop42
 90
       50
102
RTVSPost2010PropOp42
 70
     1
102
RTVSPost2010Prop43
 90
        3
102
RTVSPost2010PropOp43
 70
     1
102
RTVSPost2010Prop44ColorIndex
 90
        5
102
RTVSPost2010Prop44ColorRGB
 90
      255
102
RTVSPost2010PropOp44
 70
     1
102
RTVSPost2010Prop45
280
     0
102
RTVSPost2010PropOp45
 70
     1
102
RTVSPost2010Prop46
 90
       50
102
RTVSPost2010PropOp46
 70
     1
102
RTVSPost2010Prop47
 90
       50
102
RTVSPost2010PropOp47
 70
     1
102
RTVSPost2010Prop48
 90
       50
102
RTVSPost2010PropOp48
 70
     1
102
RTVSPost2010Prop49
280
     0
102
RTVSPost2010PropOp49
 70
     1
102
RTVSPost2010Prop50
 90
       50
102
RTVSPost2010PropOp50
 70
     1
102
RTVSPost2010Prop51ColorIndex
 90
      256
102
RTVSPost2010Prop51ColorRGB
 90
-16777216
102
RTVSPost2010PropOp51
 70
     0
102
RTVSPost2010Prop52
140
1.0
102
RTVSPost2010PropOp52
 70
     0
102
RTVSPost2010Prop53
 90
        2
102
RTVSPost2010PropOp53
 70
     1
102
RTVSPost2010Prop54
  1
strokes_ogs.tif
102
RTVSPost2010PropOp54
 70
     1
102
RTVSPost2010Prop55
280
     0
102
RTVSPost2010PropOp55
 70
     1
102
RTVSPost2010Prop56
140
1.0
102
RTVSPost2010PropOp56
 70
     1
102
RTVSPost2010Prop57
140
1.0
102
RTVSPost2010PropOp57
 70
     1
  0
XRECORD
  5
283
102
{ACAD_REACTORS
330
282
102
}
330
282
100
AcDbXrecord
280
     1
102
RTVSPropertyOp0
 70
     1
102
RTVSPropertyOp1
 70
     1
102
RTVSPropertyOp2
 70
     1
102
RTVSPropertyOp3
 70
     1
102
RTVSPropertyOp4
 70
     1
102
RTVSPropertyOp5
 70
     1
102
RTVSPropertyOp6
 70
     1
102
RTVSPropertyOp7
 70
     1
102
RTVSPropertyOp8
 70
     1
102
RTVSPropertyOp9
 70
     1
102
RTVSPropertyOp10
 70
     1
102
RTVSPropertyOp11
 70
     1
102
RTVSPropertyOp12
 70
     1
102
RTVSPropertyOp13
 70
     1
102
RTVSPropertyOp14
 70
     1
102
RTVSPropertyOp15
 70
     1
102
RTVSPropertyOp16
 70
     1
102
RTVSPropertyOp17
 70
     1
102
RTVSPropertyOp18
 70
     1
102
RTVSPropertyOp19
 70
     1
102
RTVSPropertyOp20
 70
     1
102
RTVSPropertyOp21
 70
     1
102
RTVSPropertyOp22
 70
     1
102
RTVSPropertyOp23
 70
     1
102
RTVSPropertyOp24
 70
     1
102
RTVSPropertyOp25
 70
     1
102
RTVSPropertyOp26
 70
     1
102
RTVSPropertyOp27
 70
     1
102
RTVSPropertyOp28
 70
     1
102
RTVSPropertyOp29
 70
     1
102
RTVSPropertyOp30
 70
     1
102
RTVSPropertyOp31
 70
     1
102
RTVSPropertyOp32
 70
     1
102
RTVSPropertyOp33
 70
     1
102
RTVSPropertyOp34
 70
     1
102
RTVSPropertyOp35
 70
     1
102
RTVSPropertyOp36
 70
     1
102
RTVSPropertyOp37
 70
     1
102
RTVSPropertyOp38
 70
     1
102
RTVSPropertyOp39
 70
     1
102
RTVSPropertyOp40
 70
     1
102
RTVSPropertyOp41
 70
     1
102
RTVSPropertyOp42
 70
     1
102
RTVSPropertyOp43
 70
     1
102
RTVSPropertyOp44
 70
     1
102
RTVSPropertyOp45
 70
     1
102
RTVSPropertyOp46
 70
     1
102
RTVSPropertyOp47
 70
     1
102
RTVSPropertyOp48
 70
     1
102
RTVSPropertyOp49
 70
     1
102
RTVSPropertyOp50
 70
     1
102
RTVSPropertyOp51
 70
     0
102
RTVSPropertyOp52
 70
     0
102
RTVSPropertyOp53
 70
     1
102
RTVSPropertyOp54
 70
     1
102
RTVSPropertyOp55
 70
     1
102
RTVSPropertyOp56
 70
     1
102
RTVSPropertyOp57
 70
     1
102
RTVSPost2010Prop28
280
     0
102
RTVSPost2010PropOp28
 70
     1
102
RTVSPost2010Prop29
280
     1
102
RTVSPost2010PropOp29
 70
     1
102
RTVSPost2010Prop30
280
     1
102
RTVSPost2010PropOp30
 70
     1
102
RTVSPost2010Prop31
280
     0
102
RTVSPost2010PropOp31
 70
     1
102
RTVSPost2010Prop32
280
     0
102
RTVSPost2010PropOp32
 70
     1
102
RTVSPost2010Prop33
280
     0
102
RTVSPost2010PropOp33
 70
     1
102
RTVSPost2010Prop34
280
     0
102
RTVSPost2010PropOp34
 70
     1
102
RTVSPost2010Prop35
280
     0
102
RTVSPost2010PropOp35
 70
     1
102
RTVSPost2010Prop36
280
     0
102
RTVSPost2010PropOp36
 70
     1
102
RTVSPost2010Prop37
 90
       50
102
RTVSPost2010PropOp37
 70
     1
102
RTVSPost2010Prop38
140
0.0
102
RTVSPost2010PropOp38
 70
     1
102
RTVSPost2010Prop39
140
1.0
102
RTVSPost2010PropOp39
 70
     1
102
RTVSPost2010Prop40
 90
        0
102
RTVSPost2010PropOp40
 70
     1
102
RTVSPost2010Prop41ColorIndex
 90
       18
102
RTVSPost2010Prop41ColorRGB
 90
        0
102
RTVSPost2010PropOp41
 70
     1
102
RTVSPost2010Prop42
 90
       50
102
RTVSPost2010PropOp42
 70
     1
102
RTVSPost2010Prop43
 90
        3
102
RTVSPost2010PropOp43
 70
     1
102
RTVSPost2010Prop44ColorIndex
 90
        5
102
RTVSPost2010Prop44ColorRGB
 90
      255
102
RTVSPost2010PropOp44
 70
     1
102
RTVSPost2010Prop45
280
     0
102
RTVSPost2010PropOp45
 70
     1
102
RTVSPost2010Prop46
 90
       50
102
RTVSPost2010PropOp46
 70
     1
102
RTVSPost2010Prop47
 90
       50
102
RTVSPost2010PropOp47
 70
     1
102
RTVSPost2010Prop48
 90
       50
102
RTVSPost2010PropOp48
 70
     1
102
RTVSPost2010Prop49
280
     0
102
RTVSPost2010PropOp49
 70
     1
102
RTVSPost2010Prop50
 90
       50
102
RTVSPost2010PropOp50
 70
     1
102
RTVSPost2010Prop51ColorIndex
 90
      256
102
RTVSPost2010Prop51ColorRGB
 90
-16777216
102
RTVSPost2010PropOp51
 70
     0
102
RTVSPost2010Prop52
140
1.0
102
RTVSPost2010PropOp52
 70
     0
102
RTVSPost2010Prop53
 90
        2
102
RTVSPost2010PropOp53
 70
     1
102
RTVSPost2010Prop54
  1
strokes_ogs.tif
102
RTVSPost2010PropOp54
 70
     1
102
RTVSPost2010Prop55
280
     0
102
RTVSPost2010PropOp55
 70
     1
102
RTVSPost2010Prop56
140
1.0
102
RTVSPost2010PropOp56
 70
     1
102
RTVSPost2010Prop57
140
1.0
102
RTVSPost2010PropOp57
 70
     1
  0
XRECORD
  5
285
102
{ACAD_REACTORS
330
284
102
}
330
284
100
AcDbXrecord
280
     1
102
RTVSPropertyOp0
 70
     0
102
RTVSPropertyOp1
 70
     0
102
RTVSPropertyOp2
 70
     0
102
RTVSPropertyOp3
 70
     0
102
RTVSPropertyOp4
 70
     0
102
RTVSPropertyOp5
 70
     0
102
RTVSPropertyOp6
 70
     0
102
RTVSPropertyOp7
 70
     0
102
RTVSPropertyOp8
 70
     0
102
RTVSPropertyOp9
 70
     0
102
RTVSPropertyOp10
 70
     0
102
RTVSPropertyOp11
 70
     0
102
RTVSPropertyOp12
 70
     0
102
RTVSPropertyOp13
 70
     0
102
RTVSPropertyOp14
 70
     2
102
RTVSPropertyOp15
 70
     0
102
RTVSPropertyOp16
 70
     0
102
RTVSPropertyOp17
 70
     0
102
RTVSPropertyOp18
 70
     0
102
RTVSPropertyOp19
 70
     0
102
RTVSPropertyOp20
 70
     0
102
RTVSPropertyOp21
 70
     0
102
RTVSPropertyOp22
 70
     0
102
RTVSPropertyOp23
 70
     0
102
RTVSPropertyOp24
 70
     0
102
RTVSPropertyOp25
 70
     0
102
RTVSPropertyOp26
 70
     0
102
RTVSPropertyOp27
 70
     0
102
RTVSPropertyOp28
 70
     0
102
RTVSPropertyOp29
 70
     0
102
RTVSPropertyOp30
 70
     0
102
RTVSPropertyOp31
 70
     0
102
RTVSPropertyOp32
 70
     0
102
RTVSPropertyOp33
 70
     0
102
RTVSPropertyOp34
 70
     0
102
RTVSPropertyOp35
 70
     0
102
RTVSPropertyOp36
 70
     0
102
RTVSPropertyOp37
 70
     0
102
RTVSPropertyOp38
 70
     0
102
RTVSPropertyOp39
 70
     0
102
RTVSPropertyOp40
 70
     0
102
RTVSPropertyOp41
 70
     0
102
RTVSPropertyOp42
 70
     0
102
RTVSPropertyOp43
 70
     0
102
RTVSPropertyOp44
 70
     0
102
RTVSPropertyOp45
 70
     0
102
RTVSPropertyOp46
 70
     0
102
RTVSPropertyOp47
 70
     0
102
RTVSPropertyOp48
 70
     0
102
RTVSPropertyOp49
 70
     0
102
RTVSPropertyOp50
 70
     0
102
RTVSPropertyOp51
 70
     0
102
RTVSPropertyOp52
 70
     0
102
RTVSPropertyOp53
 70
     0
102
RTVSPropertyOp54
 70
     0
102
RTVSPropertyOp55
 70
     0
102
RTVSPropertyOp56
 70
     0
102
RTVSPropertyOp57
 70
     0
102
RTVSPost2010Prop28
280
     0
102
RTVSPost2010PropOp28
 70
     0
102
RTVSPost2010Prop29
280
     1
102
RTVSPost2010PropOp29
 70
     0
102
RTVSPost2010Prop30
280
     1
102
RTVSPost2010PropOp30
 70
     0
102
RTVSPost2010Prop31
280
     0
102
RTVSPost2010PropOp31
 70
     0
102
RTVSPost2010Prop32
280
     0
102
RTVSPost2010PropOp32
 70
     0
102
RTVSPost2010Prop33
280
     0
102
RTVSPost2010PropOp33
 70
     0
102
RTVSPost2010Prop34
280
     0
102
RTVSPost2010PropOp34
 70
     0
102
RTVSPost2010Prop35
280
     0
102
RTVSPost2010PropOp35
 70
     0
102
RTVSPost2010Prop36
280
     0
102
RTVSPost2010PropOp36
 70
     0
102
RTVSPost2010Prop37
 90
       50
102
RTVSPost2010PropOp37
 70
     0
102
RTVSPost2010Prop38
140
0.0
102
RTVSPost2010PropOp38
 70
     0
102
RTVSPost2010Prop39
140
1.0
102
RTVSPost2010PropOp39
 70
     0
102
RTVSPost2010Prop40
 90
        0
102
RTVSPost2010PropOp40
 70
     0
102
RTVSPost2010Prop41ColorIndex
 90
       18
102
RTVSPost2010Prop41ColorRGB
 90
        0
102
RTVSPost2010PropOp41
 70
     0
102
RTVSPost2010Prop42
 90
       50
102
RTVSPost2010PropOp42
 70
     0
102
RTVSPost2010Prop43
 90
        3
102
RTVSPost2010PropOp43
 70
     0
102
RTVSPost2010Prop44ColorIndex
 90
        5
102
RTVSPost2010Prop44ColorRGB
 90
      255
102
RTVSPost2010PropOp44
 70
     0
102
RTVSPost2010Prop45
280
     0
102
RTVSPost2010PropOp45
 70
     0
102
RTVSPost2010Prop46
 90
       50
102
RTVSPost2010PropOp46
 70
     0
102
RTVSPost2010Prop47
 90
       50
102
RTVSPost2010PropOp47
 70
     0
102
RTVSPost2010Prop48
 90
       50
102
RTVSPost2010PropOp48
 70
     0
102
RTVSPost2010Prop49
280
     0
102
RTVSPost2010PropOp49
 70
     0
102
RTVSPost2010Prop50
 90
       50
102
RTVSPost2010PropOp50
 70
     0
102
RTVSPost2010Prop51ColorIndex
 90
      256
102
RTVSPost2010Prop51ColorRGB
 90
-16777216
102
RTVSPost2010PropOp51
 70
     0
102
RTVSPost2010Prop52
140
1.0
102
RTVSPost2010PropOp52
 70
     0
102
RTVSPost2010Prop53
 90
        2
102
RTVSPost2010PropOp53
 70
     0
102
RTVSPost2010Prop54
  1
strokes_ogs.tif
102
RTVSPost2010PropOp54
 70
     0
102
RTVSPost2010Prop55
280
     0
102
RTVSPost2010PropOp55
 70
     0
102
RTVSPost2010Prop56
140
1.0
102
RTVSPost2010PropOp56
 70
     0
102
RTVSPost2010Prop57
140
1.0
102
RTVSPost2010PropOp57
 70
     0
  0
XRECORD
  5
287
102
{ACAD_REACTORS
330
286
102
}
330
286
100
AcDbXrecord
280
     1
102
RTVSPropertyOp0
 70
     1
102
RTVSPropertyOp1
 70
     1
102
RTVSPropertyOp2
 70
     1
102
RTVSPropertyOp3
 70
     1
102
RTVSPropertyOp4
 70
     1
102
RTVSPropertyOp5
 70
     1
102
RTVSPropertyOp6
 70
     1
102
RTVSPropertyOp7
 70
     1
102
RTVSPropertyOp8
 70
     1
102
RTVSPropertyOp9
 70
     1
102
RTVSPropertyOp10
 70
     1
102
RTVSPropertyOp11
 70
     1
102
RTVSPropertyOp12
 70
     1
102
RTVSPropertyOp13
 70
     1
102
RTVSPropertyOp14
 70
     1
102
RTVSPropertyOp15
 70
     1
102
RTVSPropertyOp16
 70
     1
102
RTVSPropertyOp17
 70
     1
102
RTVSPropertyOp18
 70
     1
102
RTVSPropertyOp19
 70
     1
102
RTVSPropertyOp20
 70
     1
102
RTVSPropertyOp21
 70
     1
102
RTVSPropertyOp22
 70
     1
102
RTVSPropertyOp23
 70
     1
102
RTVSPropertyOp24
 70
     1
102
RTVSPropertyOp25
 70
     1
102
RTVSPropertyOp26
 70
     1
102
RTVSPropertyOp27
 70
     1
102
RTVSPropertyOp28
 70
     1
102
RTVSPropertyOp29
 70
     1
102
RTVSPropertyOp30
 70
     1
102
RTVSPropertyOp31
 70
     1
102
RTVSPropertyOp32
 70
     1
102
RTVSPropertyOp33
 70
     1
102
RTVSPropertyOp34
 70
     1
102
RTVSPropertyOp35
 70
     1
102
RTVSPropertyOp36
 70
     1
102
RTVSPropertyOp37
 70
     1
102
RTVSPropertyOp38
 70
     1
102
RTVSPropertyOp39
 70
     1
102
RTVSPropertyOp40
 70
     1
102
RTVSPropertyOp41
 70
     1
102
RTVSPropertyOp42
 70
     1
102
RTVSPropertyOp43
 70
     1
102
RTVSPropertyOp44
 70
     1
102
RTVSPropertyOp45
 70
     1
102
RTVSPropertyOp46
 70
     1
102
RTVSPropertyOp47
 70
     1
102
RTVSPropertyOp48
 70
     1
102
RTVSPropertyOp49
 70
     1
102
RTVSPropertyOp50
 70
     1
102
RTVSPropertyOp51
 70
     0
102
RTVSPropertyOp52
 70
     0
102
RTVSPropertyOp53
 70
     1
102
RTVSPropertyOp54
 70
     1
102
RTVSPropertyOp55
 70
     1
102
RTVSPropertyOp56
 70
     1
102
RTVSPropertyOp57
 70
     1
102
RTVSPost2010Prop28
280
     0
102
RTVSPost2010PropOp28
 70
     1
102
RTVSPost2010Prop29
280
     1
102
RTVSPost2010PropOp29
 70
     1
102
RTVSPost2010Prop30
280
     1
102
RTVSPost2010PropOp30
 70
     1
102
RTVSPost2010Prop31
280
     0
102
RTVSPost2010PropOp31
 70
     1
102
RTVSPost2010Prop32
280
     0
102
RTVSPost2010PropOp32
 70
     1
102
RTVSPost2010Prop33
280
     0
102
RTVSPost2010PropOp33
 70
     1
102
RTVSPost2010Prop34
280
     0
102
RTVSPost2010PropOp34
 70
     1
102
RTVSPost2010Prop35
280
     0
102
RTVSPost2010PropOp35
 70
     1
102
RTVSPost2010Prop36
280
     0
102
RTVSPost2010PropOp36
 70
     1
102
RTVSPost2010Prop37
 90
       50
102
RTVSPost2010PropOp37
 70
     1
102
RTVSPost2010Prop38
140
0.0
102
RTVSPost2010PropOp38
 70
     1
102
RTVSPost2010Prop39
140
1.0
102
RTVSPost2010PropOp39
 70
     1
102
RTVSPost2010Prop40
 90
        0
102
RTVSPost2010PropOp40
 70
     1
102
RTVSPost2010Prop41ColorIndex
 90
       18
102
RTVSPost2010Prop41ColorRGB
 90
        0
102
RTVSPost2010PropOp41
 70
     1
102
RTVSPost2010Prop42
 90
       50
102
RTVSPost2010PropOp42
 70
     1
102
RTVSPost2010Prop43
 90
        3
102
RTVSPost2010PropOp43
 70
     1
102
RTVSPost2010Prop44ColorIndex
 90
        5
102
RTVSPost2010Prop44ColorRGB
 90
      255
102
RTVSPost2010PropOp44
 70
     1
102
RTVSPost2010Prop45
280
     0
102
RTVSPost2010PropOp45
 70
     1
102
RTVSPost2010Prop46
 90
       50
102
RTVSPost2010PropOp46
 70
     1
102
RTVSPost2010Prop47
 90
       50
102
RTVSPost2010PropOp47
 70
     1
102
RTVSPost2010Prop48
 90
       50
102
RTVSPost2010PropOp48
 70
     1
102
RTVSPost2010Prop49
280
     0
102
RTVSPost2010PropOp49
 70
     1
102
RTVSPost2010Prop50
 90
       50
102
RTVSPost2010PropOp50
 70
     1
102
RTVSPost2010Prop51ColorIndex
 90
      256
102
RTVSPost2010Prop51ColorRGB
 90
-16777216
102
RTVSPost2010PropOp51
 70
     0
102
RTVSPost2010Prop52
140
1.0
102
RTVSPost2010PropOp52
 70
     0
102
RTVSPost2010Prop53
 90
        2
102
RTVSPost2010PropOp53
 70
     1
102
RTVSPost2010Prop54
  1
strokes_ogs.tif
102
RTVSPost2010PropOp54
 70
     1
102
RTVSPost2010Prop55
280
     0
102
RTVSPost2010PropOp55
 70
     1
102
RTVSPost2010Prop56
140
1.0
102
RTVSPost2010PropOp56
 70
     1
102
RTVSPost2010Prop57
140
1.0
102
RTVSPost2010PropOp57
 70
     1
  0
XRECORD
  5
289
102
{ACAD_REACTORS
330
288
102
}
330
288
100
AcDbXrecord
280
     1
102
RTVSPropertyOp0
 70
     0
102
RTVSPropertyOp1
 70
     0
102
RTVSPropertyOp2
 70
     0
102
RTVSPropertyOp3
 70
     0
102
RTVSPropertyOp4
 70
     0
102
RTVSPropertyOp5
 70
     0
102
RTVSPropertyOp6
 70
     0
102
RTVSPropertyOp7
 70
     0
102
RTVSPropertyOp8
 70
     0
102
RTVSPropertyOp9
 70
     0
102
RTVSPropertyOp10
 70
     0
102
RTVSPropertyOp11
 70
     0
102
RTVSPropertyOp12
 70
     0
102
RTVSPropertyOp13
 70
     0
102
RTVSPropertyOp14
 70
     2
102
RTVSPropertyOp15
 70
     0
102
RTVSPropertyOp16
 70
     0
102
RTVSPropertyOp17
 70
     0
102
RTVSPropertyOp18
 70
     0
102
RTVSPropertyOp19
 70
     0
102
RTVSPropertyOp20
 70
     0
102
RTVSPropertyOp21
 70
     0
102
RTVSPropertyOp22
 70
     0
102
RTVSPropertyOp23
 70
     0
102
RTVSPropertyOp24
 70
     0
102
RTVSPropertyOp25
 70
     0
102
RTVSPropertyOp26
 70
     0
102
RTVSPropertyOp27
 70
     0
102
RTVSPropertyOp28
 70
     0
102
RTVSPropertyOp29
 70
     0
102
RTVSPropertyOp30
 70
     0
102
RTVSPropertyOp31
 70
     0
102
RTVSPropertyOp32
 70
     0
102
RTVSPropertyOp33
 70
     0
102
RTVSPropertyOp34
 70
     0
102
RTVSPropertyOp35
 70
     0
102
RTVSPropertyOp36
 70
     0
102
RTVSPropertyOp37
 70
     0
102
RTVSPropertyOp38
 70
     0
102
RTVSPropertyOp39
 70
     0
102
RTVSPropertyOp40
 70
     0
102
RTVSPropertyOp41
 70
     0
102
RTVSPropertyOp42
 70
     0
102
RTVSPropertyOp43
 70
     0
102
RTVSPropertyOp44
 70
     0
102
RTVSPropertyOp45
 70
     0
102
RTVSPropertyOp46
 70
     0
102
RTVSPropertyOp47
 70
     0
102
RTVSPropertyOp48
 70
     0
102
RTVSPropertyOp49
 70
     0
102
RTVSPropertyOp50
 70
     0
102
RTVSPropertyOp51
 70
     0
102
RTVSPropertyOp52
 70
     0
102
RTVSPropertyOp53
 70
     0
102
RTVSPropertyOp54
 70
     0
102
RTVSPropertyOp55
 70
     0
102
RTVSPropertyOp56
 70
     0
102
RTVSPropertyOp57
 70
     0
102
RTVSPost2010Prop28
280
     0
102
RTVSPost2010PropOp28
 70
     0
102
RTVSPost2010Prop29
280
     1
102
RTVSPost2010PropOp29
 70
     0
102
RTVSPost2010Prop30
280
     1
102
RTVSPost2010PropOp30
 70
     0
102
RTVSPost2010Prop31
280
     0
102
RTVSPost2010PropOp31
 70
     0
102
RTVSPost2010Prop32
280
     0
102
RTVSPost2010PropOp32
 70
     0
102
RTVSPost2010Prop33
280
     0
102
RTVSPost2010PropOp33
 70
     0
102
RTVSPost2010Prop34
280
     0
102
RTVSPost2010PropOp34
 70
     0
102
RTVSPost2010Prop35
280
     0
102
RTVSPost2010PropOp35
 70
     0
102
RTVSPost2010Prop36
280
     0
102
RTVSPost2010PropOp36
 70
     0
102
RTVSPost2010Prop37
 90
       50
102
RTVSPost2010PropOp37
 70
     0
102
RTVSPost2010Prop38
140
0.0
102
RTVSPost2010PropOp38
 70
     0
102
RTVSPost2010Prop39
140
1.0
102
RTVSPost2010PropOp39
 70
     0
102
RTVSPost2010Prop40
 90
        0
102
RTVSPost2010PropOp40
 70
     0
102
RTVSPost2010Prop41ColorIndex
 90
       18
102
RTVSPost2010Prop41ColorRGB
 90
        0
102
RTVSPost2010PropOp41
 70
     0
102
RTVSPost2010Prop42
 90
       50
102
RTVSPost2010PropOp42
 70
     0
102
RTVSPost2010Prop43
 90
        3
102
RTVSPost2010PropOp43
 70
     0
102
RTVSPost2010Prop44ColorIndex
 90
        5
102
RTVSPost2010Prop44ColorRGB
 90
      255
102
RTVSPost2010PropOp44
 70
     0
102
RTVSPost2010Prop45
280
     0
102
RTVSPost2010PropOp45
 70
     0
102
RTVSPost2010Prop46
 90
       50
102
RTVSPost2010PropOp46
 70
     0
102
RTVSPost2010Prop47
 90
       50
102
RTVSPost2010PropOp47
 70
     0
102
RTVSPost2010Prop48
 90
       50
102
RTVSPost2010PropOp48
 70
     0
102
RTVSPost2010Prop49
280
     0
102
RTVSPost2010PropOp49
 70
     0
102
RTVSPost2010Prop50
 90
       50
102
RTVSPost2010PropOp50
 70
     0
102
RTVSPost2010Prop51ColorIndex
 90
      256
102
RTVSPost2010Prop51ColorRGB
 90
-16777216
102
RTVSPost2010PropOp51
 70
     0
102
RTVSPost2010Prop52
140
1.0
102
RTVSPost2010PropOp52
 70
     0
102
RTVSPost2010Prop53
 90
        2
102
RTVSPost2010PropOp53
 70
     0
102
RTVSPost2010Prop54
  1
strokes_ogs.tif
102
RTVSPost2010PropOp54
 70
     0
102
RTVSPost2010Prop55
280
     0
102
RTVSPost2010PropOp55
 70
     0
102
RTVSPost2010Prop56
140
1.0
102
RTVSPost2010PropOp56
 70
     0
102
RTVSPost2010Prop57
140
1.0
102
RTVSPost2010PropOp57
 70
     0
  0
XRECORD
  5
28B
102
{ACAD_REACTORS
330
28A
102
}
330
28A
100
AcDbXrecord
280
     1
102
RTVSPropertyOp0
 70
     1
102
RTVSPropertyOp1
 70
     1
102
RTVSPropertyOp2
 70
     1
102
RTVSPropertyOp3
 70
     1
102
RTVSPropertyOp4
 70
     1
102
RTVSPropertyOp5
 70
     1
102
RTVSPropertyOp6
 70
     1
102
RTVSPropertyOp7
 70
     1
102
RTVSPropertyOp8
 70
     1
102
RTVSPropertyOp9
 70
     1
102
RTVSPropertyOp10
 70
     1
102
RTVSPropertyOp11
 70
     1
102
RTVSPropertyOp12
 70
     1
102
RTVSPropertyOp13
 70
     1
102
RTVSPropertyOp14
 70
     1
102
RTVSPropertyOp15
 70
     1
102
RTVSPropertyOp16
 70
     1
102
RTVSPropertyOp17
 70
     1
102
RTVSPropertyOp18
 70
     1
102
RTVSPropertyOp19
 70
     1
102
RTVSPropertyOp20
 70
     1
102
RTVSPropertyOp21
 70
     1
102
RTVSPropertyOp22
 70
     1
102
RTVSPropertyOp23
 70
     1
102
RTVSPropertyOp24
 70
     1
102
RTVSPropertyOp25
 70
     1
102
RTVSPropertyOp26
 70
     1
102
RTVSPropertyOp27
 70
     1
102
RTVSPropertyOp28
 70
     1
102
RTVSPropertyOp29
 70
     1
102
RTVSPropertyOp30
 70
     1
102
RTVSPropertyOp31
 70
     1
102
RTVSPropertyOp32
 70
     1
102
RTVSPropertyOp33
 70
     1
102
RTVSPropertyOp34
 70
     1
102
RTVSPropertyOp35
 70
     1
102
RTVSPropertyOp36
 70
     1
102
RTVSPropertyOp37
 70
     1
102
RTVSPropertyOp38
 70
     1
102
RTVSPropertyOp39
 70
     1
102
RTVSPropertyOp40
 70
     1
102
RTVSPropertyOp41
 70
     1
102
RTVSPropertyOp42
 70
     1
102
RTVSPropertyOp43
 70
     1
102
RTVSPropertyOp44
 70
     1
102
RTVSPropertyOp45
 70
     1
102
RTVSPropertyOp46
 70
     1
102
RTVSPropertyOp47
 70
     1
102
RTVSPropertyOp48
 70
     1
102
RTVSPropertyOp49
 70
     1
102
RTVSPropertyOp50
 70
     1
102
RTVSPropertyOp51
 70
     0
102
RTVSPropertyOp52
 70
     0
102
RTVSPropertyOp53
 70
     1
102
RTVSPropertyOp54
 70
     1
102
RTVSPropertyOp55
 70
     1
102
RTVSPropertyOp56
 70
     1
102
RTVSPropertyOp57
 70
     1
102
RTVSPost2010Prop28
280
     0
102
RTVSPost2010PropOp28
 70
     1
102
RTVSPost2010Prop29
280
     1
102
RTVSPost2010PropOp29
 70
     1
102
RTVSPost2010Prop30
280
     1
102
RTVSPost2010PropOp30
 70
     1
102
RTVSPost2010Prop31
280
     0
102
RTVSPost2010PropOp31
 70
     1
102
RTVSPost2010Prop32
280
     0
102
RTVSPost2010PropOp32
 70
     1
102
RTVSPost2010Prop33
280
     0
102
RTVSPost2010PropOp33
 70
     1
102
RTVSPost2010Prop34
280
     0
102
RTVSPost2010PropOp34
 70
     1
102
RTVSPost2010Prop35
280
     0
102
RTVSPost2010PropOp35
 70
     1
102
RTVSPost2010Prop36
280
     0
102
RTVSPost2010PropOp36
 70
     1
102
RTVSPost2010Prop37
 90
       50
102
RTVSPost2010PropOp37
 70
     1
102
RTVSPost2010Prop38
140
0.0
102
RTVSPost2010PropOp38
 70
     1
102
RTVSPost2010Prop39
140
1.0
102
RTVSPost2010PropOp39
 70
     1
102
RTVSPost2010Prop40
 90
        0
102
RTVSPost2010PropOp40
 70
     1
102
RTVSPost2010Prop41ColorIndex
 90
       18
102
RTVSPost2010Prop41ColorRGB
 90
        0
102
RTVSPost2010PropOp41
 70
     1
102
RTVSPost2010Prop42
 90
       50
102
RTVSPost2010PropOp42
 70
     1
102
RTVSPost2010Prop43
 90
        3
102
RTVSPost2010PropOp43
 70
     1
102
RTVSPost2010Prop44ColorIndex
 90
        5
102
RTVSPost2010Prop44ColorRGB
 90
      255
102
RTVSPost2010PropOp44
 70
     1
102
RTVSPost2010Prop45
280
     0
102
RTVSPost2010PropOp45
 70
     1
102
RTVSPost2010Prop46
 90
       50
102
RTVSPost2010PropOp46
 70
     1
102
RTVSPost2010Prop47
 90
       50
102
RTVSPost2010PropOp47
 70
     1
102
RTVSPost2010Prop48
 90
       50
102
RTVSPost2010PropOp48
 70
     1
102
RTVSPost2010Prop49
280
     0
102
RTVSPost2010PropOp49
 70
     1
102
RTVSPost2010Prop50
 90
       50
102
RTVSPost2010PropOp50
 70
     1
102
RTVSPost2010Prop51ColorIndex
 90
      256
102
RTVSPost2010Prop51ColorRGB
 90
-16777216
102
RTVSPost2010PropOp51
 70
     0
102
RTVSPost2010Prop52
140
1.0
102
RTVSPost2010PropOp52
 70
     0
102
RTVSPost2010Prop53
 90
        2
102
RTVSPost2010PropOp53
 70
     1
102
RTVSPost2010Prop54
  1
strokes_ogs.tif
102
RTVSPost2010PropOp54
 70
     1
102
RTVSPost2010Prop55
280
     0
102
RTVSPost2010PropOp55
 70
     1
102
RTVSPost2010Prop56
140
1.0
102
RTVSPost2010PropOp56
 70
     1
102
RTVSPost2010Prop57
140
1.0
102
RTVSPost2010PropOp57
 70
     1
  0
XRECORD
  5
28D
102
{ACAD_REACTORS
330
28C
102
}
330
28C
100
AcDbXrecord
280
     1
102
RTVSPropertyOp0
 70
     1
102
RTVSPropertyOp1
 70
     1
102
RTVSPropertyOp2
 70
     1
102
RTVSPropertyOp3
 70
     1
102
RTVSPropertyOp4
 70
     1
102
RTVSPropertyOp5
 70
     1
102
RTVSPropertyOp6
 70
     1
102
RTVSPropertyOp7
 70
     1
102
RTVSPropertyOp8
 70
     1
102
RTVSPropertyOp9
 70
     1
102
RTVSPropertyOp10
 70
     1
102
RTVSPropertyOp11
 70
     1
102
RTVSPropertyOp12
 70
     1
102
RTVSPropertyOp13
 70
     1
102
RTVSPropertyOp14
 70
     1
102
RTVSPropertyOp15
 70
     1
102
RTVSPropertyOp16
 70
     1
102
RTVSPropertyOp17
 70
     1
102
RTVSPropertyOp18
 70
     1
102
RTVSPropertyOp19
 70
     1
102
RTVSPropertyOp20
 70
     1
102
RTVSPropertyOp21
 70
     1
102
RTVSPropertyOp22
 70
     1
102
RTVSPropertyOp23
 70
     1
102
RTVSPropertyOp24
 70
     1
102
RTVSPropertyOp25
 70
     1
102
RTVSPropertyOp26
 70
     1
102
RTVSPropertyOp27
 70
     1
102
RTVSPropertyOp28
 70
     1
102
RTVSPropertyOp29
 70
     1
102
RTVSPropertyOp30
 70
     1
102
RTVSPropertyOp31
 70
     1
102
RTVSPropertyOp32
 70
     1
102
RTVSPropertyOp33
 70
     1
102
RTVSPropertyOp34
 70
     1
102
RTVSPropertyOp35
 70
     1
102
RTVSPropertyOp36
 70
     1
102
RTVSPropertyOp37
 70
     1
102
RTVSPropertyOp38
 70
     1
102
RTVSPropertyOp39
 70
     1
102
RTVSPropertyOp40
 70
     1
102
RTVSPropertyOp41
 70
     1
102
RTVSPropertyOp42
 70
     1
102
RTVSPropertyOp43
 70
     1
102
RTVSPropertyOp44
 70
     1
102
RTVSPropertyOp45
 70
     1
102
RTVSPropertyOp46
 70
     1
102
RTVSPropertyOp47
 70
     1
102
RTVSPropertyOp48
 70
     1
102
RTVSPropertyOp49
 70
     1
102
RTVSPropertyOp50
 70
     1
102
RTVSPropertyOp51
 70
     0
102
RTVSPropertyOp52
 70
     0
102
RTVSPropertyOp53
 70
     1
102
RTVSPropertyOp54
 70
     1
102
RTVSPropertyOp55
 70
     1
102
RTVSPropertyOp56
 70
     1
102
RTVSPropertyOp57
 70
     1
102
RTVSPost2010Prop28
280
     0
102
RTVSPost2010PropOp28
 70
     1
102
RTVSPost2010Prop29
280
     1
102
RTVSPost2010PropOp29
 70
     1
102
RTVSPost2010Prop30
280
     1
102
RTVSPost2010PropOp30
 70
     1
102
RTVSPost2010Prop31
280
     0
102
RTVSPost2010PropOp31
 70
     1
102
RTVSPost2010Prop32
280
     0
102
RTVSPost2010PropOp32
 70
     1
102
RTVSPost2010Prop33
280
     0
102
RTVSPost2010PropOp33
 70
     1
102
RTVSPost2010Prop34
280
     0
102
RTVSPost2010PropOp34
 70
     1
102
RTVSPost2010Prop35
280
     0
102
RTVSPost2010PropOp35
 70
     1
102
RTVSPost2010Prop36
280
     0
102
RTVSPost2010PropOp36
 70
     1
102
RTVSPost2010Prop37
 90
       50
102
RTVSPost2010PropOp37
 70
     1
102
RTVSPost2010Prop38
140
0.0
102
RTVSPost2010PropOp38
 70
     1
102
RTVSPost2010Prop39
140
1.0
102
RTVSPost2010PropOp39
 70
     1
102
RTVSPost2010Prop40
 90
        0
102
RTVSPost2010PropOp40
 70
     1
102
RTVSPost2010Prop41ColorIndex
 90
       18
102
RTVSPost2010Prop41ColorRGB
 90
        0
102
RTVSPost2010PropOp41
 70
     1
102
RTVSPost2010Prop42
 90
       50
102
RTVSPost2010PropOp42
 70
     1
102
RTVSPost2010Prop43
 90
        3
102
RTVSPost2010PropOp43
 70
     1
102
RTVSPost2010Prop44ColorIndex
 90
        5
102
RTVSPost2010Prop44ColorRGB
 90
      255
102
RTVSPost2010PropOp44
 70
     1
102
RTVSPost2010Prop45
280
     0
102
RTVSPost2010PropOp45
 70
     1
102
RTVSPost2010Prop46
 90
       50
102
RTVSPost2010PropOp46
 70
     1
102
RTVSPost2010Prop47
 90
       50
102
RTVSPost2010PropOp47
 70
     1
102
RTVSPost2010Prop48
 90
       50
102
RTVSPost2010PropOp48
 70
     1
102
RTVSPost2010Prop49
280
     0
102
RTVSPost2010PropOp49
 70
     1
102
RTVSPost2010Prop50
 90
       50
102
RTVSPost2010PropOp50
 70
     1
102
RTVSPost2010Prop51ColorIndex
 90
      256
102
RTVSPost2010Prop51ColorRGB
 90
-16777216
102
RTVSPost2010PropOp51
 70
     0
102
RTVSPost2010Prop52
140
1.0
102
RTVSPost2010PropOp52
 70
     0
102
RTVSPost2010Prop53
 90
        2
102
RTVSPost2010PropOp53
 70
     1
102
RTVSPost2010Prop54
  1
strokes_ogs.tif
102
RTVSPost2010PropOp54
 70
     1
102
RTVSPost2010Prop55
280
     0
102
RTVSPost2010PropOp55
 70
     1
102
RTVSPost2010Prop56
140
1.0
102
RTVSPost2010PropOp56
 70
     1
102
RTVSPost2010Prop57
140
1.0
102
RTVSPost2010PropOp57
 70
     1
  0
XRECORD
  5
28F
102
{ACAD_REACTORS
330
28E
102
}
330
28E
100
AcDbXrecord
280
     1
102
RTVSPropertyOp0
 70
     1
102
RTVSPropertyOp1
 70
     1
102
RTVSPropertyOp2
 70
     1
102
RTVSPropertyOp3
 70
     1
102
RTVSPropertyOp4
 70
     1
102
RTVSPropertyOp5
 70
     1
102
RTVSPropertyOp6
 70
     1
102
RTVSPropertyOp7
 70
     1
102
RTVSPropertyOp8
 70
     1
102
RTVSPropertyOp9
 70
     1
102
RTVSPropertyOp10
 70
     1
102
RTVSPropertyOp11
 70
     1
102
RTVSPropertyOp12
 70
     1
102
RTVSPropertyOp13
 70
     1
102
RTVSPropertyOp14
 70
     1
102
RTVSPropertyOp15
 70
     1
102
RTVSPropertyOp16
 70
     1
102
RTVSPropertyOp17
 70
     1
102
RTVSPropertyOp18
 70
     1
102
RTVSPropertyOp19
 70
     1
102
RTVSPropertyOp20
 70
     1
102
RTVSPropertyOp21
 70
     1
102
RTVSPropertyOp22
 70
     1
102
RTVSPropertyOp23
 70
     1
102
RTVSPropertyOp24
 70
     1
102
RTVSPropertyOp25
 70
     1
102
RTVSPropertyOp26
 70
     1
102
RTVSPropertyOp27
 70
     1
102
RTVSPropertyOp28
 70
     1
102
RTVSPropertyOp29
 70
     1
102
RTVSPropertyOp30
 70
     1
102
RTVSPropertyOp31
 70
     1
102
RTVSPropertyOp32
 70
     1
102
RTVSPropertyOp33
 70
     1
102
RTVSPropertyOp34
 70
     1
102
RTVSPropertyOp35
 70
     1
102
RTVSPropertyOp36
 70
     1
102
RTVSPropertyOp37
 70
     1
102
RTVSPropertyOp38
 70
     1
102
RTVSPropertyOp39
 70
     1
102
RTVSPropertyOp40
 70
     1
102
RTVSPropertyOp41
 70
     1
102
RTVSPropertyOp42
 70
     1
102
RTVSPropertyOp43
 70
     1
102
RTVSPropertyOp44
 70
     1
102
RTVSPropertyOp45
 70
     1
102
RTVSPropertyOp46
 70
     1
102
RTVSPropertyOp47
 70
     1
102
RTVSPropertyOp48
 70
     1
102
RTVSPropertyOp49
 70
     1
102
RTVSPropertyOp50
 70
     1
102
RTVSPropertyOp51
 70
     0
102
RTVSPropertyOp52
 70
     0
102
RTVSPropertyOp53
 70
     1
102
RTVSPropertyOp54
 70
     1
102
RTVSPropertyOp55
 70
     1
102
RTVSPropertyOp56
 70
     1
102
RTVSPropertyOp57
 70
     1
102
RTVSPost2010Prop28
280
     0
102
RTVSPost2010PropOp28
 70
     1
102
RTVSPost2010Prop29
280
     1
102
RTVSPost2010PropOp29
 70
     1
102
RTVSPost2010Prop30
280
     1
102
RTVSPost2010PropOp30
 70
     1
102
RTVSPost2010Prop31
280
     0
102
RTVSPost2010PropOp31
 70
     1
102
RTVSPost2010Prop32
280
     0
102
RTVSPost2010PropOp32
 70
     1
102
RTVSPost2010Prop33
280
     0
102
RTVSPost2010PropOp33
 70
     1
102
RTVSPost2010Prop34
280
     0
102
RTVSPost2010PropOp34
 70
     1
102
RTVSPost2010Prop35
280
     0
102
RTVSPost2010PropOp35
 70
     1
102
RTVSPost2010Prop36
280
     0
102
RTVSPost2010PropOp36
 70
     1
102
RTVSPost2010Prop37
 90
       50
102
RTVSPost2010PropOp37
 70
     1
102
RTVSPost2010Prop38
140
0.0
102
RTVSPost2010PropOp38
 70
     1
102
RTVSPost2010Prop39
140
1.0
102
RTVSPost2010PropOp39
 70
     1
102
RTVSPost2010Prop40
 90
        0
102
RTVSPost2010PropOp40
 70
     1
102
RTVSPost2010Prop41ColorIndex
 90
       18
102
RTVSPost2010Prop41ColorRGB
 90
        0
102
RTVSPost2010PropOp41
 70
     1
102
RTVSPost2010Prop42
 90
       50
102
RTVSPost2010PropOp42
 70
     1
102
RTVSPost2010Prop43
 90
        3
102
RTVSPost2010PropOp43
 70
     1
102
RTVSPost2010Prop44ColorIndex
 90
        5
102
RTVSPost2010Prop44ColorRGB
 90
      255
102
RTVSPost2010PropOp44
 70
     1
102
RTVSPost2010Prop45
280
     0
102
RTVSPost2010PropOp45
 70
     1
102
RTVSPost2010Prop46
 90
       50
102
RTVSPost2010PropOp46
 70
     1
102
RTVSPost2010Prop47
 90
       50
102
RTVSPost2010PropOp47
 70
     1
102
RTVSPost2010Prop48
 90
       50
102
RTVSPost2010PropOp48
 70
     1
102
RTVSPost2010Prop49
280
     0
102
RTVSPost2010PropOp49
 70
     1
102
RTVSPost2010Prop50
 90
       50
102
RTVSPost2010PropOp50
 70
     1
102
RTVSPost2010Prop51ColorIndex
 90
      256
102
RTVSPost2010Prop51ColorRGB
 90
-16777216
102
RTVSPost2010PropOp51
 70
     0
102
RTVSPost2010Prop52
140
1.0
102
RTVSPost2010PropOp52
 70
     0
102
RTVSPost2010Prop53
 90
        2
102
RTVSPost2010PropOp53
 70
     1
102
RTVSPost2010Prop54
  1
strokes_ogs.tif
102
RTVSPost2010PropOp54
 70
     1
102
RTVSPost2010Prop55
280
     0
102
RTVSPost2010PropOp55
 70
     1
102
RTVSPost2010Prop56
140
1.0
102
RTVSPost2010PropOp56
 70
     1
102
RTVSPost2010Prop57
140
1.0
102
RTVSPost2010PropOp57
 70
     1
  0
XRECORD
  5
291
102
{ACAD_REACTORS
330
290
102
}
330
290
100
AcDbXrecord
280
     1
102
RTVSPropertyOp0
 70
     1
102
RTVSPropertyOp1
 70
     1
102
RTVSPropertyOp2
 70
     1
102
RTVSPropertyOp3
 70
     1
102
RTVSPropertyOp4
 70
     1
102
RTVSPropertyOp5
 70
     1
102
RTVSPropertyOp6
 70
     1
102
RTVSPropertyOp7
 70
     1
102
RTVSPropertyOp8
 70
     1
102
RTVSPropertyOp9
 70
     1
102
RTVSPropertyOp10
 70
     1
102
RTVSPropertyOp11
 70
     1
102
RTVSPropertyOp12
 70
     1
102
RTVSPropertyOp13
 70
     1
102
RTVSPropertyOp14
 70
     1
102
RTVSPropertyOp15
 70
     1
102
RTVSPropertyOp16
 70
     1
102
RTVSPropertyOp17
 70
     1
102
RTVSPropertyOp18
 70
     1
102
RTVSPropertyOp19
 70
     1
102
RTVSPropertyOp20
 70
     1
102
RTVSPropertyOp21
 70
     1
102
RTVSPropertyOp22
 70
     1
102
RTVSPropertyOp23
 70
     1
102
RTVSPropertyOp24
 70
     1
102
RTVSPropertyOp25
 70
     1
102
RTVSPropertyOp26
 70
     1
102
RTVSPropertyOp27
 70
     1
102
RTVSPropertyOp28
 70
     1
102
RTVSPropertyOp29
 70
     1
102
RTVSPropertyOp30
 70
     1
102
RTVSPropertyOp31
 70
     1
102
RTVSPropertyOp32
 70
     1
102
RTVSPropertyOp33
 70
     1
102
RTVSPropertyOp34
 70
     1
102
RTVSPropertyOp35
 70
     1
102
RTVSPropertyOp36
 70
     1
102
RTVSPropertyOp37
 70
     1
102
RTVSPropertyOp38
 70
     1
102
RTVSPropertyOp39
 70
     1
102
RTVSPropertyOp40
 70
     1
102
RTVSPropertyOp41
 70
     1
102
RTVSPropertyOp42
 70
     1
102
RTVSPropertyOp43
 70
     1
102
RTVSPropertyOp44
 70
     1
102
RTVSPropertyOp45
 70
     1
102
RTVSPropertyOp46
 70
     1
102
RTVSPropertyOp47
 70
     1
102
RTVSPropertyOp48
 70
     1
102
RTVSPropertyOp49
 70
     1
102
RTVSPropertyOp50
 70
     1
102
RTVSPropertyOp51
 70
     0
102
RTVSPropertyOp52
 70
     0
102
RTVSPropertyOp53
 70
     1
102
RTVSPropertyOp54
 70
     1
102
RTVSPropertyOp55
 70
     1
102
RTVSPropertyOp56
 70
     1
102
RTVSPropertyOp57
 70
     1
102
RTVSPost2010Prop28
280
     0
102
RTVSPost2010PropOp28
 70
     1
102
RTVSPost2010Prop29
280
     1
102
RTVSPost2010PropOp29
 70
     1
102
RTVSPost2010Prop30
280
     1
102
RTVSPost2010PropOp30
 70
     1
102
RTVSPost2010Prop31
280
     0
102
RTVSPost2010PropOp31
 70
     1
102
RTVSPost2010Prop32
280
     0
102
RTVSPost2010PropOp32
 70
     1
102
RTVSPost2010Prop33
280
     0
102
RTVSPost2010PropOp33
 70
     1
102
RTVSPost2010Prop34
280
     0
102
RTVSPost2010PropOp34
 70
     1
102
RTVSPost2010Prop35
280
     0
102
RTVSPost2010PropOp35
 70
     1
102
RTVSPost2010Prop36
280
     0
102
RTVSPost2010PropOp36
 70
     1
102
RTVSPost2010Prop37
 90
       50
102
RTVSPost2010PropOp37
 70
     1
102
RTVSPost2010Prop38
140
0.0
102
RTVSPost2010PropOp38
 70
     1
102
RTVSPost2010Prop39
140
1.0
102
RTVSPost2010PropOp39
 70
     1
102
RTVSPost2010Prop40
 90
        0
102
RTVSPost2010PropOp40
 70
     1
102
RTVSPost2010Prop41ColorIndex
 90
       18
102
RTVSPost2010Prop41ColorRGB
 90
        0
102
RTVSPost2010PropOp41
 70
     1
102
RTVSPost2010Prop42
 90
       50
102
RTVSPost2010PropOp42
 70
     1
102
RTVSPost2010Prop43
 90
        3
102
RTVSPost2010PropOp43
 70
     1
102
RTVSPost2010Prop44ColorIndex
 90
        5
102
RTVSPost2010Prop44ColorRGB
 90
      255
102
RTVSPost2010PropOp44
 70
     1
102
RTVSPost2010Prop45
280
     0
102
RTVSPost2010PropOp45
 70
     1
102
RTVSPost2010Prop46
 90
       50
102
RTVSPost2010PropOp46
 70
     1
102
RTVSPost2010Prop47
 90
       50
102
RTVSPost2010PropOp47
 70
     1
102
RTVSPost2010Prop48
 90
       50
102
RTVSPost2010PropOp48
 70
     1
102
RTVSPost2010Prop49
280
     0
102
RTVSPost2010PropOp49
 70
     1
102
RTVSPost2010Prop50
 90
       50
102
RTVSPost2010PropOp50
 70
     1
102
RTVSPost2010Prop51ColorIndex
 90
      256
102
RTVSPost2010Prop51ColorRGB
 90
-16777216
102
RTVSPost2010PropOp51
 70
     0
102
RTVSPost2010Prop52
140
1.0
102
RTVSPost2010PropOp52
 70
     0
102
RTVSPost2010Prop53
 90
        2
102
RTVSPost2010PropOp53
 70
     1
102
RTVSPost2010Prop54
  1
strokes_ogs.tif
102
RTVSPost2010PropOp54
 70
     1
102
RTVSPost2010Prop55
280
     0
102
RTVSPost2010PropOp55
 70
     1
102
RTVSPost2010Prop56
140
1.0
102
RTVSPost2010PropOp56
 70
     1
102
RTVSPost2010Prop57
140
1.0
102
RTVSPost2010PropOp57
 70
     1
  0
XRECORD
  5
293
102
{ACAD_REACTORS
330
292
102
}
330
292
100
AcDbXrecord
280
     1
102
RTVSPropertyOp0
 70
     1
102
RTVSPropertyOp1
 70
     1
102
RTVSPropertyOp2
 70
     1
102
RTVSPropertyOp3
 70
     1
102
RTVSPropertyOp4
 70
     1
102
RTVSPropertyOp5
 70
     1
102
RTVSPropertyOp6
 70
     1
102
RTVSPropertyOp7
 70
     1
102
RTVSPropertyOp8
 70
     1
102
RTVSPropertyOp9
 70
     1
102
RTVSPropertyOp10
 70
     1
102
RTVSPropertyOp11
 70
     1
102
RTVSPropertyOp12
 70
     1
102
RTVSPropertyOp13
 70
     1
102
RTVSPropertyOp14
 70
     1
102
RTVSPropertyOp15
 70
     1
102
RTVSPropertyOp16
 70
     1
102
RTVSPropertyOp17
 70
     1
102
RTVSPropertyOp18
 70
     1
102
RTVSPropertyOp19
 70
     1
102
RTVSPropertyOp20
 70
     1
102
RTVSPropertyOp21
 70
     1
102
RTVSPropertyOp22
 70
     1
102
RTVSPropertyOp23
 70
     1
102
RTVSPropertyOp24
 70
     1
102
RTVSPropertyOp25
 70
     1
102
RTVSPropertyOp26
 70
     1
102
RTVSPropertyOp27
 70
     1
102
RTVSPropertyOp28
 70
     1
102
RTVSPropertyOp29
 70
     1
102
RTVSPropertyOp30
 70
     1
102
RTVSPropertyOp31
 70
     1
102
RTVSPropertyOp32
 70
     1
102
RTVSPropertyOp33
 70
     1
102
RTVSPropertyOp34
 70
     1
102
RTVSPropertyOp35
 70
     1
102
RTVSPropertyOp36
 70
     1
102
RTVSPropertyOp37
 70
     1
102
RTVSPropertyOp38
 70
     1
102
RTVSPropertyOp39
 70
     1
102
RTVSPropertyOp40
 70
     1
102
RTVSPropertyOp41
 70
     1
102
RTVSPropertyOp42
 70
     1
102
RTVSPropertyOp43
 70
     1
102
RTVSPropertyOp44
 70
     1
102
RTVSPropertyOp45
 70
     1
102
RTVSPropertyOp46
 70
     1
102
RTVSPropertyOp47
 70
     1
102
RTVSPropertyOp48
 70
     1
102
RTVSPropertyOp49
 70
     1
102
RTVSPropertyOp50
 70
     1
102
RTVSPropertyOp51
 70
     0
102
RTVSPropertyOp52
 70
     0
102
RTVSPropertyOp53
 70
     1
102
RTVSPropertyOp54
 70
     1
102
RTVSPropertyOp55
 70
     1
102
RTVSPropertyOp56
 70
     1
102
RTVSPropertyOp57
 70
     1
102
RTVSPost2010Prop28
280
     0
102
RTVSPost2010PropOp28
 70
     1
102
RTVSPost2010Prop29
280
     1
102
RTVSPost2010PropOp29
 70
     1
102
RTVSPost2010Prop30
280
     1
102
RTVSPost2010PropOp30
 70
     1
102
RTVSPost2010Prop31
280
     0
102
RTVSPost2010PropOp31
 70
     1
102
RTVSPost2010Prop32
280
     0
102
RTVSPost2010PropOp32
 70
     1
102
RTVSPost2010Prop33
280
     0
102
RTVSPost2010PropOp33
 70
     1
102
RTVSPost2010Prop34
280
     0
102
RTVSPost2010PropOp34
 70
     1
102
RTVSPost2010Prop35
280
     0
102
RTVSPost2010PropOp35
 70
     1
102
RTVSPost2010Prop36
280
     0
102
RTVSPost2010PropOp36
 70
     1
102
RTVSPost2010Prop37
 90
       50
102
RTVSPost2010PropOp37
 70
     1
102
RTVSPost2010Prop38
140
0.0
102
RTVSPost2010PropOp38
 70
     1
102
RTVSPost2010Prop39
140
1.0
102
RTVSPost2010PropOp39
 70
     1
102
RTVSPost2010Prop40
 90
        0
102
RTVSPost2010PropOp40
 70
     1
102
RTVSPost2010Prop41ColorIndex
 90
       18
102
RTVSPost2010Prop41ColorRGB
 90
        0
102
RTVSPost2010PropOp41
 70
     1
102
RTVSPost2010Prop42
 90
       50
102
RTVSPost2010PropOp42
 70
     1
102
RTVSPost2010Prop43
 90
        3
102
RTVSPost2010PropOp43
 70
     1
102
RTVSPost2010Prop44ColorIndex
 90
        5
102
RTVSPost2010Prop44ColorRGB
 90
      255
102
RTVSPost2010PropOp44
 70
     1
102
RTVSPost2010Prop45
280
     0
102
RTVSPost2010PropOp45
 70
     1
102
RTVSPost2010Prop46
 90
       50
102
RTVSPost2010PropOp46
 70
     1
102
RTVSPost2010Prop47
 90
       50
102
RTVSPost2010PropOp47
 70
     1
102
RTVSPost2010Prop48
 90
       50
102
RTVSPost2010PropOp48
 70
     1
102
RTVSPost2010Prop49
280
     0
102
RTVSPost2010PropOp49
 70
     1
102
RTVSPost2010Prop50
 90
       50
102
RTVSPost2010PropOp50
 70
     1
102
RTVSPost2010Prop51ColorIndex
 90
      256
102
RTVSPost2010Prop51ColorRGB
 90
-16777216
102
RTVSPost2010PropOp51
 70
     0
102
RTVSPost2010Prop52
140
1.0
102
RTVSPost2010PropOp52
 70
     0
102
RTVSPost2010Prop53
 90
        2
102
RTVSPost2010PropOp53
 70
     1
102
RTVSPost2010Prop54
  1
strokes_ogs.tif
102
RTVSPost2010PropOp54
 70
     1
102
RTVSPost2010Prop55
280
     0
102
RTVSPost2010PropOp55
 70
     1
102
RTVSPost2010Prop56
140
1.0
102
RTVSPost2010PropOp56
 70
     1
102
RTVSPost2010Prop57
140
1.0
102
RTVSPost2010PropOp57
 70
     1
  0
XRECORD
  5
295
102
{ACAD_REACTORS
330
294
102
}
330
294
100
AcDbXrecord
280
     1
102
RTVSPropertyOp0
 70
     1
102
RTVSPropertyOp1
 70
     1
102
RTVSPropertyOp2
 70
     1
102
RTVSPropertyOp3
 70
     1
102
RTVSPropertyOp4
 70
     1
102
RTVSPropertyOp5
 70
     1
102
RTVSPropertyOp6
 70
     1
102
RTVSPropertyOp7
 70
     1
102
RTVSPropertyOp8
 70
     1
102
RTVSPropertyOp9
 70
     1
102
RTVSPropertyOp10
 70
     1
102
RTVSPropertyOp11
 70
     1
102
RTVSPropertyOp12
 70
     1
102
RTVSPropertyOp13
 70
     1
102
RTVSPropertyOp14
 70
     1
102
RTVSPropertyOp15
 70
     1
102
RTVSPropertyOp16
 70
     1
102
RTVSPropertyOp17
 70
     1
102
RTVSPropertyOp18
 70
     1
102
RTVSPropertyOp19
 70
     1
102
RTVSPropertyOp20
 70
     1
102
RTVSPropertyOp21
 70
     1
102
RTVSPropertyOp22
 70
     1
102
RTVSPropertyOp23
 70
     1
102
RTVSPropertyOp24
 70
     1
102
RTVSPropertyOp25
 70
     1
102
RTVSPropertyOp26
 70
     1
102
RTVSPropertyOp27
 70
     1
102
RTVSPropertyOp28
 70
     1
102
RTVSPropertyOp29
 70
     1
102
RTVSPropertyOp30
 70
     1
102
RTVSPropertyOp31
 70
     1
102
RTVSPropertyOp32
 70
     1
102
RTVSPropertyOp33
 70
     1
102
RTVSPropertyOp34
 70
     1
102
RTVSPropertyOp35
 70
     1
102
RTVSPropertyOp36
 70
     1
102
RTVSPropertyOp37
 70
     1
102
RTVSPropertyOp38
 70
     1
102
RTVSPropertyOp39
 70
     1
102
RTVSPropertyOp40
 70
     1
102
RTVSPropertyOp41
 70
     1
102
RTVSPropertyOp42
 70
     1
102
RTVSPropertyOp43
 70
     1
102
RTVSPropertyOp44
 70
     1
102
RTVSPropertyOp45
 70
     1
102
RTVSPropertyOp46
 70
     1
102
RTVSPropertyOp47
 70
     1
102
RTVSPropertyOp48
 70
     1
102
RTVSPropertyOp49
 70
     1
102
RTVSPropertyOp50
 70
     1
102
RTVSPropertyOp51
 70
     0
102
RTVSPropertyOp52
 70
     0
102
RTVSPropertyOp53
 70
     1
102
RTVSPropertyOp54
 70
     1
102
RTVSPropertyOp55
 70
     1
102
RTVSPropertyOp56
 70
     1
102
RTVSPropertyOp57
 70
     1
102
RTVSPost2010Prop28
280
     0
102
RTVSPost2010PropOp28
 70
     1
102
RTVSPost2010Prop29
280
     1
102
RTVSPost2010PropOp29
 70
     1
102
RTVSPost2010Prop30
280
     1
102
RTVSPost2010PropOp30
 70
     1
102
RTVSPost2010Prop31
280
     0
102
RTVSPost2010PropOp31
 70
     1
102
RTVSPost2010Prop32
280
     0
102
RTVSPost2010PropOp32
 70
     1
102
RTVSPost2010Prop33
280
     0
102
RTVSPost2010PropOp33
 70
     1
102
RTVSPost2010Prop34
280
     0
102
RTVSPost2010PropOp34
 70
     1
102
RTVSPost2010Prop35
280
     0
102
RTVSPost2010PropOp35
 70
     1
102
RTVSPost2010Prop36
280
     0
102
RTVSPost2010PropOp36
 70
     1
102
RTVSPost2010Prop37
 90
       50
102
RTVSPost2010PropOp37
 70
     1
102
RTVSPost2010Prop38
140
0.0
102
RTVSPost2010PropOp38
 70
     1
102
RTVSPost2010Prop39
140
1.0
102
RTVSPost2010PropOp39
 70
     1
102
RTVSPost2010Prop40
 90
        0
102
RTVSPost2010PropOp40
 70
     1
102
RTVSPost2010Prop41ColorIndex
 90
       18
102
RTVSPost2010Prop41ColorRGB
 90
        0
102
RTVSPost2010PropOp41
 70
     1
102
RTVSPost2010Prop42
 90
       50
102
RTVSPost2010PropOp42
 70
     1
102
RTVSPost2010Prop43
 90
        3
102
RTVSPost2010PropOp43
 70
     1
102
RTVSPost2010Prop44ColorIndex
 90
        5
102
RTVSPost2010Prop44ColorRGB
 90
      255
102
RTVSPost2010PropOp44
 70
     1
102
RTVSPost2010Prop45
280
     0
102
RTVSPost2010PropOp45
 70
     1
102
RTVSPost2010Prop46
 90
       50
102
RTVSPost2010PropOp46
 70
     1
102
RTVSPost2010Prop47
 90
       50
102
RTVSPost2010PropOp47
 70
     1
102
RTVSPost2010Prop48
 90
       50
102
RTVSPost2010PropOp48
 70
     1
102
RTVSPost2010Prop49
280
     0
102
RTVSPost2010PropOp49
 70
     1
102
RTVSPost2010Prop50
 90
       50
102
RTVSPost2010PropOp50
 70
     1
102
RTVSPost2010Prop51ColorIndex
 90
      256
102
RTVSPost2010Prop51ColorRGB
 90
-16777216
102
RTVSPost2010PropOp51
 70
     0
102
RTVSPost2010Prop52
140
1.0
102
RTVSPost2010PropOp52
 70
     0
102
RTVSPost2010Prop53
 90
        2
102
RTVSPost2010PropOp53
 70
     1
102
RTVSPost2010Prop54
  1
strokes_ogs.tif
102
RTVSPost2010PropOp54
 70
     1
102
RTVSPost2010Prop55
280
     0
102
RTVSPost2010PropOp55
 70
     1
102
RTVSPost2010Prop56
140
1.0
102
RTVSPost2010PropOp56
 70
     1
102
RTVSPost2010Prop57
140
1.0
102
RTVSPost2010PropOp57
 70
     1
  0
XRECORD
  5
297
102
{ACAD_REACTORS
330
296
102
}
330
296
100
AcDbXrecord
280
     1
102
RTVSPropertyOp0
 70
     1
102
RTVSPropertyOp1
 70
     1
102
RTVSPropertyOp2
 70
     1
102
RTVSPropertyOp3
 70
     1
102
RTVSPropertyOp4
 70
     1
102
RTVSPropertyOp5
 70
     1
102
RTVSPropertyOp6
 70
     1
102
RTVSPropertyOp7
 70
     1
102
RTVSPropertyOp8
 70
     1
102
RTVSPropertyOp9
 70
     1
102
RTVSPropertyOp10
 70
     1
102
RTVSPropertyOp11
 70
     1
102
RTVSPropertyOp12
 70
     1
102
RTVSPropertyOp13
 70
     1
102
RTVSPropertyOp14
 70
     1
102
RTVSPropertyOp15
 70
     1
102
RTVSPropertyOp16
 70
     1
102
RTVSPropertyOp17
 70
     1
102
RTVSPropertyOp18
 70
     1
102
RTVSPropertyOp19
 70
     1
102
RTVSPropertyOp20
 70
     1
102
RTVSPropertyOp21
 70
     1
102
RTVSPropertyOp22
 70
     1
102
RTVSPropertyOp23
 70
     1
102
RTVSPropertyOp24
 70
     1
102
RTVSPropertyOp25
 70
     1
102
RTVSPropertyOp26
 70
     1
102
RTVSPropertyOp27
 70
     1
102
RTVSPropertyOp28
 70
     1
102
RTVSPropertyOp29
 70
     1
102
RTVSPropertyOp30
 70
     1
102
RTVSPropertyOp31
 70
     1
102
RTVSPropertyOp32
 70
     1
102
RTVSPropertyOp33
 70
     1
102
RTVSPropertyOp34
 70
     1
102
RTVSPropertyOp35
 70
     1
102
RTVSPropertyOp36
 70
     1
102
RTVSPropertyOp37
 70
     1
102
RTVSPropertyOp38
 70
     1
102
RTVSPropertyOp39
 70
     1
102
RTVSPropertyOp40
 70
     1
102
RTVSPropertyOp41
 70
     1
102
RTVSPropertyOp42
 70
     1
102
RTVSPropertyOp43
 70
     1
102
RTVSPropertyOp44
 70
     1
102
RTVSPropertyOp45
 70
     1
102
RTVSPropertyOp46
 70
     1
102
RTVSPropertyOp47
 70
     1
102
RTVSPropertyOp48
 70
     1
102
RTVSPropertyOp49
 70
     1
102
RTVSPropertyOp50
 70
     1
102
RTVSPropertyOp51
 70
     0
102
RTVSPropertyOp52
 70
     0
102
RTVSPropertyOp53
 70
     1
102
RTVSPropertyOp54
 70
     1
102
RTVSPropertyOp55
 70
     1
102
RTVSPropertyOp56
 70
     1
102
RTVSPropertyOp57
 70
     1
102
RTVSPost2010Prop28
280
     0
102
RTVSPost2010PropOp28
 70
     1
102
RTVSPost2010Prop29
280
     1
102
RTVSPost2010PropOp29
 70
     1
102
RTVSPost2010Prop30
280
     1
102
RTVSPost2010PropOp30
 70
     1
102
RTVSPost2010Prop31
280
     0
102
RTVSPost2010PropOp31
 70
     1
102
RTVSPost2010Prop32
280
     0
102
RTVSPost2010PropOp32
 70
     1
102
RTVSPost2010Prop33
280
     0
102
RTVSPost2010PropOp33
 70
     1
102
RTVSPost2010Prop34
280
     0
102
RTVSPost2010PropOp34
 70
     1
102
RTVSPost2010Prop35
280
     0
102
RTVSPost2010PropOp35
 70
     1
102
RTVSPost2010Prop36
280
     0
102
RTVSPost2010PropOp36
 70
     1
102
RTVSPost2010Prop37
 90
       50
102
RTVSPost2010PropOp37
 70
     1
102
RTVSPost2010Prop38
140
0.0
102
RTVSPost2010PropOp38
 70
     1
102
RTVSPost2010Prop39
140
1.0
102
RTVSPost2010PropOp39
 70
     1
102
RTVSPost2010Prop40
 90
        0
102
RTVSPost2010PropOp40
 70
     1
102
RTVSPost2010Prop41ColorIndex
 90
       18
102
RTVSPost2010Prop41ColorRGB
 90
        0
102
RTVSPost2010PropOp41
 70
     1
102
RTVSPost2010Prop42
 90
       50
102
RTVSPost2010PropOp42
 70
     1
102
RTVSPost2010Prop43
 90
        3
102
RTVSPost2010PropOp43
 70
     1
102
RTVSPost2010Prop44ColorIndex
 90
        5
102
RTVSPost2010Prop44ColorRGB
 90
      255
102
RTVSPost2010PropOp44
 70
     1
102
RTVSPost2010Prop45
280
     0
102
RTVSPost2010PropOp45
 70
     1
102
RTVSPost2010Prop46
 90
       50
102
RTVSPost2010PropOp46
 70
     1
102
RTVSPost2010Prop47
 90
       50
102
RTVSPost2010PropOp47
 70
     1
102
RTVSPost2010Prop48
 90
       50
102
RTVSPost2010PropOp48
 70
     1
102
RTVSPost2010Prop49
280
     0
102
RTVSPost2010PropOp49
 70
     1
102
RTVSPost2010Prop50
 90
       50
102
RTVSPost2010PropOp50
 70
     1
102
RTVSPost2010Prop51ColorIndex
 90
      256
102
RTVSPost2010Prop51ColorRGB
 90
-16777216
102
RTVSPost2010PropOp51
 70
     0
102
RTVSPost2010Prop52
140
1.0
102
RTVSPost2010PropOp52
 70
     0
102
RTVSPost2010Prop53
 90
        2
102
RTVSPost2010PropOp53
 70
     1
102
RTVSPost2010Prop54
  1
strokes_ogs.tif
102
RTVSPost2010PropOp54
 70
     1
102
RTVSPost2010Prop55
280
     0
102
RTVSPost2010PropOp55
 70
     1
102
RTVSPost2010Prop56
140
1.0
102
RTVSPost2010PropOp56
 70
     1
102
RTVSPost2010Prop57
140
1.0
102
RTVSPost2010PropOp57
 70
     1
  0
XRECORD
  5
299
102
{ACAD_REACTORS
330
298
102
}
330
298
100
AcDbXrecord
280
     1
102
RTVSPropertyOp0
 70
     1
102
RTVSPropertyOp1
 70
     1
102
RTVSPropertyOp2
 70
     1
102
RTVSPropertyOp3
 70
     1
102
RTVSPropertyOp4
 70
     1
102
RTVSPropertyOp5
 70
     1
102
RTVSPropertyOp6
 70
     1
102
RTVSPropertyOp7
 70
     1
102
RTVSPropertyOp8
 70
     1
102
RTVSPropertyOp9
 70
     1
102
RTVSPropertyOp10
 70
     1
102
RTVSPropertyOp11
 70
     1
102
RTVSPropertyOp12
 70
     1
102
RTVSPropertyOp13
 70
     1
102
RTVSPropertyOp14
 70
     1
102
RTVSPropertyOp15
 70
     1
102
RTVSPropertyOp16
 70
     1
102
RTVSPropertyOp17
 70
     1
102
RTVSPropertyOp18
 70
     1
102
RTVSPropertyOp19
 70
     1
102
RTVSPropertyOp20
 70
     1
102
RTVSPropertyOp21
 70
     1
102
RTVSPropertyOp22
 70
     1
102
RTVSPropertyOp23
 70
     1
102
RTVSPropertyOp24
 70
     1
102
RTVSPropertyOp25
 70
     1
102
RTVSPropertyOp26
 70
     1
102
RTVSPropertyOp27
 70
     1
102
RTVSPropertyOp28
 70
     1
102
RTVSPropertyOp29
 70
     1
102
RTVSPropertyOp30
 70
     1
102
RTVSPropertyOp31
 70
     1
102
RTVSPropertyOp32
 70
     1
102
RTVSPropertyOp33
 70
     1
102
RTVSPropertyOp34
 70
     1
102
RTVSPropertyOp35
 70
     1
102
RTVSPropertyOp36
 70
     1
102
RTVSPropertyOp37
 70
     1
102
RTVSPropertyOp38
 70
     1
102
RTVSPropertyOp39
 70
     1
102
RTVSPropertyOp40
 70
     1
102
RTVSPropertyOp41
 70
     1
102
RTVSPropertyOp42
 70
     1
102
RTVSPropertyOp43
 70
     1
102
RTVSPropertyOp44
 70
     1
102
RTVSPropertyOp45
 70
     1
102
RTVSPropertyOp46
 70
     1
102
RTVSPropertyOp47
 70
     1
102
RTVSPropertyOp48
 70
     1
102
RTVSPropertyOp49
 70
     1
102
RTVSPropertyOp50
 70
     1
102
RTVSPropertyOp51
 70
     0
102
RTVSPropertyOp52
 70
     0
102
RTVSPropertyOp53
 70
     1
102
RTVSPropertyOp54
 70
     1
102
RTVSPropertyOp55
 70
     1
102
RTVSPropertyOp56
 70
     1
102
RTVSPropertyOp57
 70
     1
102
RTVSPost2010Prop28
280
     0
102
RTVSPost2010PropOp28
 70
     1
102
RTVSPost2010Prop29
280
     1
102
RTVSPost2010PropOp29
 70
     1
102
RTVSPost2010Prop30
280
     1
102
RTVSPost2010PropOp30
 70
     1
102
RTVSPost2010Prop31
280
     0
102
RTVSPost2010PropOp31
 70
     1
102
RTVSPost2010Prop32
280
     0
102
RTVSPost2010PropOp32
 70
     1
102
RTVSPost2010Prop33
280
     0
102
RTVSPost2010PropOp33
 70
     1
102
RTVSPost2010Prop34
280
     0
102
RTVSPost2010PropOp34
 70
     1
102
RTVSPost2010Prop35
280
     0
102
RTVSPost2010PropOp35
 70
     1
102
RTVSPost2010Prop36
280
     0
102
RTVSPost2010PropOp36
 70
     1
102
RTVSPost2010Prop37
 90
       50
102
RTVSPost2010PropOp37
 70
     1
102
RTVSPost2010Prop38
140
0.0
102
RTVSPost2010PropOp38
 70
     1
102
RTVSPost2010Prop39
140
1.0
102
RTVSPost2010PropOp39
 70
     1
102
RTVSPost2010Prop40
 90
        0
102
RTVSPost2010PropOp40
 70
     1
102
RTVSPost2010Prop41ColorIndex
 90
       18
102
RTVSPost2010Prop41ColorRGB
 90
        0
102
RTVSPost2010PropOp41
 70
     1
102
RTVSPost2010Prop42
 90
       50
102
RTVSPost2010PropOp42
 70
     1
102
RTVSPost2010Prop43
 90
        3
102
RTVSPost2010PropOp43
 70
     1
102
RTVSPost2010Prop44ColorIndex
 90
        5
102
RTVSPost2010Prop44ColorRGB
 90
      255
102
RTVSPost2010PropOp44
 70
     1
102
RTVSPost2010Prop45
280
     0
102
RTVSPost2010PropOp45
 70
     1
102
RTVSPost2010Prop46
 90
       50
102
RTVSPost2010PropOp46
 70
     1
102
RTVSPost2010Prop47
 90
       50
102
RTVSPost2010PropOp47
 70
     1
102
RTVSPost2010Prop48
 90
       50
102
RTVSPost2010PropOp48
 70
     1
102
RTVSPost2010Prop49
280
     0
102
RTVSPost2010PropOp49
 70
     1
102
RTVSPost2010Prop50
 90
       50
102
RTVSPost2010PropOp50
 70
     1
102
RTVSPost2010Prop51ColorIndex
 90
      256
102
RTVSPost2010Prop51ColorRGB
 90
-16777216
102
RTVSPost2010PropOp51
 70
     0
102
RTVSPost2010Prop52
140
1.0
102
RTVSPost2010PropOp52
 70
     0
102
RTVSPost2010Prop53
 90
        2
102
RTVSPost2010PropOp53
 70
     1
102
RTVSPost2010Prop54
  1
strokes_ogs.tif
102
RTVSPost2010PropOp54
 70
     1
102
RTVSPost2010Prop55
280
     0
102
RTVSPost2010PropOp55
 70
     1
102
RTVSPost2010Prop56
140
1.0
102
RTVSPost2010PropOp56
 70
     1
102
RTVSPost2010Prop57
140
1.0
102
RTVSPost2010PropOp57
 70
     1
  0
ENDSEC
  0
EOF
