  0
SECTION
  2
HEADER
  9
$ACADVER
  1
AC1015
  9
$ACADMAINTVER
 70
     6
  9
$DWGCODEPAGE
  3
ANSI_1252
  9
$INSBASE
 10
5898.923818224175
 20
8067.109400126703
 30
0.0
  9
$EXTMIN
 10
5162.413479780751
 20
8067.109400126703
 30
0.0
  9
$EXTMAX
 10
5898.923818224176
 20
9676.109400126703
 30
0.0
  9
$LIMMIN
 10
0.0
 20
0.0
  9
$LIMMAX
 10
420.0
 20
297.0
  9
$ORTHOMODE
 70
     1
  9
$REGENMODE
 70
     1
  9
$FILLMODE
 70
     1
  9
$QTEXTMODE
 70
     0
  9
$MIRRTEXT
 70
     0
  9
$LTSCALE
 40
1.0
  9
$ATTMODE
 70
     1
  9
$TEXTSIZE
 40
2.5
  9
$TRACEWID
 40
1.0
  9
$TEXTSTYLE
  7
Standard
  9
$CLAYER
  8
0
  9
$CELTYPE
  6
ByLayer
  9
$CECOLOR
 62
   256
  9
$CELTSCALE
 40
1.0
  9
$DISPSILH
 70
     0
  9
$DIMSCALE
 40
10.0
  9
$DIMASZ
 40
2.5
  9
$DIMEXO
 40
0.625
  9
$DIMDLI
 40
3.75
  9
$DIMRND
 40
0.0
  9
$DIMDLE
 40
0.0
  9
$DIMEXE
 40
1.25
  9
$DIMTP
 40
0.0
  9
$DIMTM
 40
0.0
  9
$DIMTXT
 40
3.5
  9
$DIMCEN
 40
2.5
  9
$DIMTSZ
 40
0.0
  9
$DIMTOL
 70
     0
  9
$DIMLIM
 70
     0
  9
$DIMTIH
 70
     0
  9
$DIMTOH
 70
     0
  9
$DIMSE1
 70
     0
  9
$DIMSE2
 70
     0
  9
$DIMTAD
 70
     1
  9
$DIMZIN
 70
     8
  9
$DIMBLK
  1

  9
$DIMASO
 70
     1
  9
$DIMSHO
 70
     1
  9
$DIMPOST
  1

  9
$DIMAPOST
  1

  9
$DIMALT
 70
     0
  9
$DIMALTD
 70
     3
  9
$DIMALTF
 40
0.03937007874016
  9
$DIMLFAC
 40
1.0
  9
$DIMTOFL
 70
     1
  9
$DIMTVP
 40
0.0
  9
$DIMTIX
 70
     0
  9
$DIMSOXD
 70
     0
  9
$DIMSAH
 70
     0
  9
$DIMBLK1
  1

  9
$DIMBLK2
  1

  9
$DIMSTYLE
  2
MW
  9
$DIMCLRD
 70
     5
  9
$DIMCLRE
 70
     5
  9
$DIMCLRT
 70
     3
  9
$DIMTFAC
 40
1.0
  9
$DIMGAP
 40
0.625
  9
$DIMJUST
 70
     0
  9
$DIMSD1
 70
     0
  9
$DIMSD2
 70
     0
  9
$DIMTOLJ
 70
     0
  9
$DIMTZIN
 70
     8
  9
$DIMALTZ
 70
     0
  9
$DIMALTTZ
 70
     0
  9
$DIMUPT
 70
     0
  9
$DIMDEC
 70
     2
  9
$DIMTDEC
 70
     2
  9
$DIMALTU
 70
     2
  9
$DIMALTTD
 70
     3
  9
$DIMTXSTY
  7
Standard
  9
$DIMAUNIT
 70
     0
  9
$DIMADEC
 70
     0
  9
$DIMALTRND
 40
0.0
  9
$DIMAZIN
 70
     0
  9
$DIMDSEP
 70
    44
  9
$DIMATFIT
 70
     3
  9
$DIMFRAC
 70
     0
  9
$DIMLDRBLK
  1

  9
$DIMLUNIT
 70
     2
  9
$DIMLWD
 70
    -2
  9
$DIMLWE
 70
    -2
  9
$DIMTMOVE
 70
     0
  9
$LUNITS
 70
     2
  9
$LUPREC
 70
     4
  9
$SKETCHINC
 40
1.0
  9
$FILLETRAD
 40
0.0
  9
$AUNITS
 70
     0
  9
$AUPREC
 70
     0
  9
$MENU
  1
.
  9
$ELEVATION
 40
0.0
  9
$PELEVATION
 40
0.0
  9
$THICKNESS
 40
0.0
  9
$LIMCHECK
 70
     0
  9
$CHAMFERA
 40
0.0
  9
$CHAMFERB
 40
0.0
  9
$CHAMFERC
 40
0.0
  9
$CHAMFERD
 40
0.0
  9
$SKPOLY
 70
     0
  9
$TDCREATE
 40
2458004.386017164
  9
$TDUCREATE
 40
2458004.344350498
  9
$TDUPDATE
 40
2460390.468378438
  9
$TDUUPDATE
 40
2460390.426711771
  9
$TDINDWG
 40
0.2054104398
  9
$TDUSRTIMER
 40
0.2054103819
  9
$USRTIMER
 70
     1
  9
$ANGBASE
 50
0.0
  9
$ANGDIR
 70
     0
  9
$PDMODE
 70
     0
  9
$PDSIZE
 40
0.0
  9
$PLINEWID
 40
0.0
  9
$SPLFRAME
 70
     0
  9
$SPLINETYPE
 70
     6
  9
$SPLINESEGS
 70
     8
  9
$HANDSEED
  5
566
  9
$SURFTAB1
 70
     6
  9
$SURFTAB2
 70
     6
  9
$SURFTYPE
 70
     6
  9
$SURFU
 70
     6
  9
$SURFV
 70
     6
  9
$UCSBASE
  2

  9
$UCSNAME
  2

  9
$UCSORG
 10
0.0
 20
0.0
 30
0.0
  9
$UCSXDIR
 10
1.0
 20
0.0
 30
0.0
  9
$UCSYDIR
 10
0.0
 20
1.0
 30
0.0
  9
$UCSORTHOREF
  2

  9
$UCSORTHOVIEW
 70
     1
  9
$UCSORGTOP
 10
0.0
 20
0.0
 30
0.0
  9
$UCSORGBOTTOM
 10
0.0
 20
0.0
 30
0.0
  9
$UCSORGLEFT
 10
0.0
 20
0.0
 30
0.0
  9
$UCSORGRIGHT
 10
0.0
 20
0.0
 30
0.0
  9
$UCSORGFRONT
 10
0.0
 20
0.0
 30
0.0
  9
$UCSORGBACK
 10
0.0
 20
0.0
 30
0.0
  9
$PUCSBASE
  2

  9
$PUCSNAME
  2

  9
$PUCSORG
 10
0.0
 20
0.0
 30
0.0
  9
$PUCSXDIR
 10
1.0
 20
0.0
 30
0.0
  9
$PUCSYDIR
 10
0.0
 20
1.0
 30
0.0
  9
$PUCSORTHOREF
  2

  9
$PUCSORTHOVIEW
 70
     0
  9
$PUCSORGTOP
 10
0.0
 20
0.0
 30
0.0
  9
$PUCSORGBOTTOM
 10
0.0
 20
0.0
 30
0.0
  9
$PUCSORGLEFT
 10
0.0
 20
0.0
 30
0.0
  9
$PUCSORGRIGHT
 10
0.0
 20
0.0
 30
0.0
  9
$PUCSORGFRONT
 10
0.0
 20
0.0
 30
0.0
  9
$PUCSORGBACK
 10
0.0
 20
0.0
 30
0.0
  9
$USERI1
 70
     0
  9
$USERI2
 70
     0
  9
$USERI3
 70
     0
  9
$USERI4
 70
     0
  9
$USERI5
 70
     0
  9
$USERR1
 40
0.0
  9
$USERR2
 40
0.0
  9
$USERR3
 40
0.0
  9
$USERR4
 40
0.0
  9
$USERR5
 40
0.0
  9
$WORLDVIEW
 70
     1
  9
$SHADEDGE
 70
     3
  9
$SHADEDIF
 70
    70
  9
$TILEMODE
 70
     1
  9
$MAXACTVP
 70
    64
  9
$PINSBASE
 10
0.0
 20
0.0
 30
0.0
  9
$PLIMCHECK
 70
     0
  9
$PEXTMIN
 10
0.6510510979048831
 20
0.8643916225667567
 30
0.0
  9
$PEXTMAX
 10
1181.486983490442
 20
830.436215072836
 30
0.0
  9
$PLIMMIN
 10
-3.175048828125
 20
-3.174999952316284
  9
$PLIMMAX
 10
1185.625
 20
837.8250000476837
  9
$UNITMODE
 70
     0
  9
$VISRETAIN
 70
     1
  9
$PLINEGEN
 70
     0
  9
$PSLTSCALE
 70
     1
  9
$TREEDEPTH
 70
  3020
  9
$CMLSTYLE
  2
Standard
  9
$CMLJUST
 70
     0
  9
$CMLSCALE
 40
20.0
  9
$PROXYGRAPHICS
 70
     1
  9
$MEASUREMENT
 70
     1
  9
$CELWEIGHT
370
    -1
  9
$ENDCAPS
280
     0
  9
$JOINSTYLE
280
     0
  9
$LWDISPLAY
290
     0
  9
$INSUNITS
 70
     4
  9
$HYPERLINKBASE
  1

  9
$STYLESHEET
  1

  9
$XEDIT
290
     1
  9
$CEPSNTYPE
380
     0
  9
$PSTYLEMODE
290
     1
  9
$FINGERPRINTGUID
  2
{BED7A87A-9D6E-460F-9E64-B579B2E29E25}
  9
$VERSIONGUID
  2
{257FBD2E-C93D-4AE4-BCD0-9536506AD35D}
  9
$EXTNAMES
290
     1
  9
$PSVPSCALE
 40
0.0
  9
$OLESTARTUP
290
     0
  0
ENDSEC
  0
SECTION
  2
CLASSES
  0
CLASS
  1
ACDBDICTIONARYWDFLT
  2
AcDbDictionaryWithDefault
  3
ObjectDBX Classes
 90
        0
280
     0
281
     0
  0
CLASS
  1
ACDBPLACEHOLDER
  2
AcDbPlaceHolder
  3
ObjectDBX Classes
 90
        0
280
     0
281
     0
  0
CLASS
  1
LAYOUT
  2
AcDbLayout
  3
ObjectDBX Classes
 90
        0
280
     0
281
     0
  0
CLASS
  1
DICTIONARYVAR
  2
AcDbDictionaryVar
  3
ObjectDBX Classes
 90
        0
280
     0
281
     0
  0
CLASS
  1
TABLESTYLE
  2
AcDbTableStyle
  3
ObjectDBX Classes
 90
     4095
280
     0
281
     0
  0
CLASS
  1
MATERIAL
  2
AcDbMaterial
  3
ObjectDBX Classes
 90
     1153
280
     0
281
     0
  0
CLASS
  1
VISUALSTYLE
  2
AcDbVisualStyle
  3
ObjectDBX Classes
 90
     4095
280
     0
281
     0
  0
CLASS
  1
SCALE
  2
AcDbScale
  3
ObjectDBX Classes
 90
     1153
280
     0
281
     0
  0
CLASS
  1
MLEADERSTYLE
  2
AcDbMLeaderStyle
  3
ACDB_MLEADERSTYLE_CLASS
 90
     4095
280
     0
281
     0
  0
CLASS
  1
CELLSTYLEMAP
  2
AcDbCellStyleMap
  3
ObjectDBX Classes
 90
     1152
280
     0
281
     0
  0
CLASS
  1
EXACXREFPANELOBJECT
  2
ExAcXREFPanelObject
  3
EXAC_ESW
 90
     1025
280
     1
281
     0
  0
CLASS
  1
NPOCOLLECTION
  2
AcDbImpNonPersistentObjectsCollection
  3
ObjectDBX Classes
 90
     1153
280
     1
281
     0
  0
CLASS
  1
LAYER_INDEX
  2
AcDbLayerIndex
  3
ObjectDBX Classes
 90
        0
280
     0
281
     0
  0
CLASS
  1
SPATIAL_INDEX
  2
AcDbSpatialIndex
  3
AutoCAD 2000
 90
        0
280
     0
281
     0
  0
CLASS
  1
IDBUFFER
  2
AcDbIdBuffer
  3
ObjectDBX Classes
 90
        0
280
     0
281
     0
  0
CLASS
  1
ACDBSECTIONVIEWSTYLE
  2
AcDbSectionViewStyle
  3
ObjectDBX Classes
 90
     1025
280
     0
281
     0
  0
CLASS
  1
ACDBDETAILVIEWSTYLE
  2
AcDbDetailViewStyle
  3
ObjectDBX Classes
 90
     1025
280
     0
281
     0
  0
CLASS
  1
SORTENTSTABLE
  2
AcDbSortentsTable
  3
ObjectDBX Classes
 90
        0
280
     0
281
     0
  0
CLASS
  1
IMAGE
  2
AcDbRasterImage
  3
ISM
 90
      127
280
     0
281
     1
  0
CLASS
  1
IMAGEDEF_REACTOR
  2
AcDbRasterImageDefReactor
  3
ISM
 90
        1
280
     0
281
     0
  0
CLASS
  1
IMAGEDEF
  2
AcDbRasterImageDef
  3
ISM
 90
        0
280
     0
281
     0
  0
CLASS
  1
RASTERVARIABLES
  2
AcDbRasterVariables
  3
ISM
 90
        0
280
     0
281
     0
  0
ENDSEC
  0
SECTION
  2
TABLES
  0
TABLE
  2
VPORT
  5
2C
102
{ACAD_XDICTIONARY
360
52C
102
}
330
0
100
AcDbSymbolTable
 70
     1
  0
VPORT
  5
2D
330
2C
100
AcDbSymbolTableRecord
100
AcDbViewportTableRecord
  2
*Active
 70
     0
 10
0.0
 20
0.0
 11
1.0
 21
1.0
 12
6047.773064452133
 22
8834.274075901132
 13
0.0
 23
0.0
 14
10.0
 24
10.0
 15
10.0
 25
10.0
 16
0.0
 26
0.0
 36
1.0
 17
0.0
 27
0.0
 37
0.0
 40
2043.315636574196
 41
2.443734015345269
 42
50.0
 43
0.0
 44
0.0
 50
0.0
 51
0.0
 71
     0
 72
  1000
 73
     1
 74
     3
 75
     0
 76
     1
 77
     0
 78
     0
281
     0
 65
     1
110
0.0
120
0.0
130
0.0
111
1.0
121
0.0
131
0.0
112
0.0
122
1.0
132
0.0
 79
     0
146
0.0
1001
ACAD_NAV_VCDISPLAY
1070
     3
  0
ENDTAB
  0
TABLE
  2
LTYPE
  5
27
330
0
100
AcDbSymbolTable
 70
     2
  0
LTYPE
  5
28
330
27
100
AcDbSymbolTableRecord
100
AcDbLinetypeTableRecord
  2
ByBlock
 70
     0
  3

 72
    65
 73
     0
 40
0.0
  0
LTYPE
  5
29
330
27
100
AcDbSymbolTableRecord
100
AcDbLinetypeTableRecord
  2
ByLayer
 70
     0
  3

 72
    65
 73
     0
 40
0.0
  0
LTYPE
  5
14
330
27
100
AcDbSymbolTableRecord
100
AcDbLinetypeTableRecord
  2
Continuous
 70
     0
  3
Solid line
 72
    65
 73
     0
 40
0.0
  0
LTYPE
  5
1C2
330
27
100
AcDbSymbolTableRecord
100
AcDbLinetypeTableRecord
  2
MITTE
 70
     0
  3
Mitte ____ _ ____ _ ____ _ ____ _ ____ _ ____
 72
    65
 73
     4
 40
50.8
 49
31.75
 74
     0
 49
-6.35
 74
     0
 49
6.35
 74
     0
 49
-6.35
 74
     0
  0
ENDTAB
  0
TABLE
  2
LAYER
  5
21
102
{ACAD_XDICTIONARY
360
22
102
}
330
0
100
AcDbSymbolTable
 70
     1
  0
LAYER
  5
6
330
21
100
AcDbSymbolTableRecord
100
AcDbLayerTableRecord
  2
0
 70
     0
 62
     7
  6
Continuous
370
    -3
390
8
  0
ENDTAB
  0
TABLE
  2
STYLE
  5
24
330
0
100
AcDbSymbolTable
 70
     1
  0
STYLE
  5
25
330
24
100
AcDbSymbolTableRecord
100
AcDbTextStyleTableRecord
  2
Standard
 70
     0
 40
0.0
 41
1.0
 50
0.0
 71
     0
 42
2.5
  3
arial.ttf
  4

1001
ACAD
1000
Arial
1071
       34
  0
ENDTAB
  0
TABLE
  2
VIEW
  5
2A
330
0
100
AcDbSymbolTable
 70
     0
  0
ENDTAB
  0
TABLE
  2
UCS
  5
2B
330
0
100
AcDbSymbolTable
 70
     0
  0
ENDTAB
  0
TABLE
  2
APPID
  5
33
330
0
100
AcDbSymbolTable
 70
     9
  0
APPID
  5
13
330
33
100
AcDbSymbolTableRecord
100
AcDbRegAppTableRecord
  2
ACAD
 70
     0
  0
APPID
  5
1A
330
33
100
AcDbSymbolTableRecord
100
AcDbRegAppTableRecord
  2
ACAD_PSEXT
 70
     0
  0
APPID
  5
36
330
33
100
AcDbSymbolTableRecord
100
AcDbRegAppTableRecord
  2
ACAD_DSTYLE_DIMJAG
 70
     0
  0
APPID
  5
37
330
33
100
AcDbSymbolTableRecord
100
AcDbRegAppTableRecord
  2
ACAD_DSTYLE_DIMTALN
 70
     0
  0
APPID
  5
32
330
33
100
AcDbSymbolTableRecord
100
AcDbRegAppTableRecord
  2
ACAD_NAV_VCDISPLAY
 70
     0
  0
APPID
  5
1BE
330
33
100
AcDbSymbolTableRecord
100
AcDbRegAppTableRecord
  2
GradientColor1ACI
 70
     0
  0
APPID
  5
1BF
330
33
100
AcDbSymbolTableRecord
100
AcDbRegAppTableRecord
  2
GradientColor2ACI
 70
     0
  0
APPID
  5
35D
330
33
100
AcDbSymbolTableRecord
100
AcDbRegAppTableRecord
  2
AcDbAttr
 70
     0
  0
APPID
  5
532
330
33
100
AcDbSymbolTableRecord
100
AcDbRegAppTableRecord
  2
ACAD_MLEADERVER
 70
     0
  0
ENDTAB
  0
TABLE
  2
DIMSTYLE
  5
34
330
0
100
AcDbSymbolTable
 70
     1
100
AcDbDimStyleTable
  0
DIMSTYLE
105
35
330
34
100
AcDbSymbolTableRecord
100
AcDbDimStyleTableRecord
  2
MW
 70
     0
 40
10.0
 41
2.5
 42
0.625
 43
3.75
 44
1.25
 73
     0
 74
     0
 77
     1
 78
     8
140
3.5
141
2.5
143
0.03937007874016
147
0.625
171
     3
172
     1
176
     5
177
     5
271
     2
178
     3
271
     2
272
     2
274
     3
278
    44
283
     0
284
     8
340
25
1001
ACAD_DSTYLE_DIMJAG
1070
   388
1040
1.5
1001
ACAD_DSTYLE_DIMTALN
1070
   392
1070
     0
  0
ENDTAB
  0
TABLE
  2
BLOCK_RECORD
  5
1
330
0
100
AcDbSymbolTable
 70
     1
  0
BLOCK_RECORD
  5
2
102
{ACAD_XDICTIONARY
360
3
102
}
330
1
100
AcDbSymbolTableRecord
100
AcDbBlockTableRecord
  2
*Model_Space
340
16
  0
BLOCK_RECORD
  5
1B
330
1
100
AcDbSymbolTableRecord
100
AcDbBlockTableRecord
  2
*Paper_Space
340
1E
  0
BLOCK_RECORD
  5
38C
102
{ACAD_XDICTIONARY
360
506
102
}
330
1
100
AcDbSymbolTableRecord
100
AcDbBlockTableRecord
  2
Condens 7000 F_75 L vista lateral
340
0
1001
ACAD
1000
DesignCenter Data
1002
{
1070
     1
1070
     4
1002
}
  0
ENDTAB
  0
ENDSEC
  0
SECTION
  2
BLOCKS
  0
BLOCK
  5
5
330
2
100
AcDbEntity
  8
0
100
AcDbBlockBegin
  2
*Model_Space
 70
     2
 10
0.0
 20
0.0
 30
0.0
  3
*Model_Space
  1

  0
ENDBLK
  5
15
330
2
100
AcDbEntity
  8
0
100
AcDbBlockEnd
  0
BLOCK
  5
1C
330
1B
100
AcDbEntity
 67
     1
  8
0
100
AcDbBlockBegin
  2
*Paper_Space
 70
     0
 10
0.0
 20
0.0
 30
0.0
  3
*Paper_Space
  1

  0
ENDBLK
  5
1D
330
1B
100
AcDbEntity
 67
     1
  8
0
100
AcDbBlockEnd
  0
BLOCK
  5
508
330
38C
100
AcDbEntity
  8
0
100
AcDbBlockBegin
  2
Condens 7000 F_75 L vista lateral
 70
     2
 10
0.0
 20
0.0
 30
0.0
  3
Condens 7000 F_75 L vista lateral
  1

  0
ATTDEF
  5
38D
330
38C
100
AcDbEntity
  8
0
100
AcDbText
 10
-736.0
 20
1470.0
 30
0.0
 40
2.5
  1

100
AcDbAttributeDefinition
  3

  2
REG
 70
     0
1001
AcDbAttr
1070
     0
1070
     1
  0
LINE
  5
38E
330
38C
100
AcDbEntity
  8
0
  6
MITTE
 62
     1
100
AcDbLine
 10
-30.60633615848974
 20
424.0000000000018
 30
0.0
 11
-135.4955498658867
 21
420.3281847249073
 31
0.0
  0
LINE
  5
38F
330
38C
100
AcDbEntity
  8
0
  6
MITTE
 62
     1
100
AcDbLine
 10
-96.24817117776183
 20
459.8678200718077
 30
0.0
 11
-96.24817117776206
 21
618.2388433590841
 31
0.0
  0
LINE
  5
390
330
38C
100
AcDbEntity
  8
0
  6
MITTE
 62
     1
100
AcDbLine
 10
0.0
 20
554.0
 30
0.0
 11
-137.4955498658869
 21
554.0
 31
0.0
  0
LINE
  5
391
330
38C
100
AcDbEntity
  8
0
  6
MITTE
 62
     1
100
AcDbLine
 10
0.0
 20
1340.0
 30
0.0
 11
-230.281942895489
 21
1340.0
 31
0.0
  0
LINE
  5
392
330
38C
100
AcDbEntity
  8
0
  6
MITTE
 62
     1
100
AcDbLine
 10
-96.24817117776183
 20
1520.845677883444
 30
0.0
 11
-96.24817117776183
 21
1275.761156640918
 31
0.0
  0
ARC
  5
393
330
38C
100
AcDbEntity
  8
0
100
AcDbCircle
 10
-96.17722403462244
 20
621.3281912169768
 30
0.0
 40
42.97508986009568
100
AcDbArc
 50
262.9226395001333
 51
269.9054109315372
  0
ARC
  5
394
330
38C
100
AcDbEntity
  8
0
100
AcDbCircle
 10
-94.9230821947533
 20
630.7326713525454
 30
0.0
 40
52.46250672252851
100
AcDbArc
 50
258.1177467434428
 51
262.8288626227028
  0
ARC
  5
395
330
38C
100
AcDbEntity
  8
0
100
AcDbCircle
 10
-88.91675013502822
 20
658.6984504881439
 30
0.0
 40
81.06585606838738
100
AcDbArc
 50
255.1838256911153
 51
258.0333226557292
  0
ARC
  5
396
330
38C
100
AcDbEntity
  8
0
100
AcDbCircle
 10
-50.22429678306776
 20
805.0001216160963
 30
0.0
 40
232.3975609694986
100
AcDbArc
 50
254.4758773674833
 51
255.1853277685543
  0
ARC
  5
397
330
38C
100
AcDbEntity
  8
0
100
AcDbCircle
 10
-148.6843068292435
 20
450.9503135985051
 30
0.0
 40
135.0880311886942
100
AcDbArc
 50
74.42979498714072
 51
75.50089295881826
  0
ARC
  5
398
330
38C
100
AcDbEntity
  8
0
100
AcDbCircle
 10
-125.4964325116225
 20
540.2391435284553
 30
0.0
 40
42.83758700076031
100
AcDbArc
 50
75.62740287226407
 51
77.20345452364681
  0
ARC
  5
399
330
38C
100
AcDbEntity
  8
0
100
AcDbCircle
 10
-121.1858142173724
 20
559.2889842728564
 30
0.0
 40
23.30614045329649
100
AcDbArc
 50
77.16463802091782
 51
79.80157975008633
  0
ARC
  5
39A
330
38C
100
AcDbEntity
  8
0
100
AcDbCircle
 10
-119.4051959960298
 20
569.2715655362663
 30
0.0
 40
13.16601563694907
100
AcDbArc
 50
79.73627413232047
 51
83.8004187929211
  0
ARC
  5
39B
330
38C
100
AcDbEntity
  8
0
100
AcDbCircle
 10
-118.8011731929059
 20
574.9010352507139
 30
0.0
 40
7.504242461476716
100
AcDbArc
 50
83.74355344176418
 51
89.68123961994792
  0
ARC
  5
39C
330
38C
100
AcDbEntity
  8
0
100
AcDbCircle
 10
-118.7832283689429
 20
535.5855378151191
 30
0.0
 40
9.992649461795999
100
AcDbArc
 50
271.1329267530598
 51
278.1477628733376
  0
ARC
  5
39D
330
38C
100
AcDbEntity
  8
0
100
AcDbCircle
 10
-120.5403255212741
 20
546.7505281880058
 30
0.0
 40
21.29454468302059
100
AcDbArc
 50
278.5701579855527
 51
282.7395989033678
  0
ARC
  5
39E
330
38C
100
AcDbEntity
  8
0
100
AcDbCircle
 10
-143.9226125754913
 20
646.216027714976
 30
0.0
 40
123.470792661594
100
AcDbArc
 50
283.1444805758161
 51
286.1726708842057
  0
ARC
  5
39F
330
38C
100
AcDbEntity
  8
0
100
AcDbCircle
 10
-88.11948948488794
 20
445.5591582629877
 30
0.0
 40
84.81947295781822
100
AcDbArc
 50
102.4823761019791
 51
104.6223656806035
  0
ARC
  5
3A0
330
38C
100
AcDbEntity
  8
0
100
AcDbCircle
 10
-94.34147168535083
 20
473.7716952330247
 30
0.0
 40
55.92899861819186
100
AcDbArc
 50
99.05001602287254
 51
102.5058640682671
  0
ARC
  5
3A1
330
38C
100
AcDbEntity
  8
0
100
AcDbCircle
 10
-96.27186759825099
 20
487.2062745592993
 30
0.0
 40
42.35852125374736
100
AcDbArc
 50
84.12270876196064
 51
99.32980841919935
  0
ARC
  5
3A2
330
38C
100
AcDbEntity
  8
0
100
AcDbCircle
 10
-97.832527185642
 20
474.7334695663922
 30
0.0
 40
54.92626130474104
100
AcDbArc
 50
75.91890348415265
 51
83.8355706547353
  0
ARC
  5
3A3
330
38C
100
AcDbEntity
  8
0
100
AcDbCircle
 10
-141.6966089088676
 20
296.9645370086419
 30
0.0
 40
238.0266070383844
100
AcDbArc
 50
74.42554807031783
 51
76.08841906958426
  0
ARC
  5
3A4
330
38C
100
AcDbEntity
  8
0
100
AcDbCircle
 10
-69.14834744277027
 20
559.9574075060518
 30
0.0
 40
34.79588444431088
100
AcDbArc
 50
255.6220371514621
 51
258.44953390815
  0
ARC
  5
3A5
330
38C
100
AcDbEntity
  8
0
100
AcDbCircle
 10
-73.10762989992395
 20
540.1637520969634
 30
0.0
 40
14.61054751131155
100
AcDbArc
 50
258.1193349585466
 51
263.7979704190179
  0
ARC
  5
3A6
330
38C
100
AcDbEntity
  8
0
100
AcDbCircle
 10
-73.86915095876338
 20
533.2021678068759
 30
0.0
 40
7.607439439223791
100
AcDbArc
 50
263.8354188230101
 51
269.687154383842
  0
ARC
  5
3A7
330
38C
100
AcDbEntity
  8
0
100
AcDbCircle
 10
-73.69516916255861
 20
574.9010352499954
 30
0.0
 40
7.504242462195529
100
AcDbArc
 50
90.31876038046897
 51
93.13579637633825
  0
ARC
  5
3A8
330
38C
100
AcDbEntity
  8
0
100
AcDbCircle
 10
-73.49867794267561
 20
572.5090834877792
 30
0.0
 40
9.903576937929568
100
AcDbArc
 50
93.51387777290238
 51
98.47069588435363
  0
ARC
  5
3A9
330
38C
100
AcDbEntity
  8
0
100
AcDbCircle
 10
-72.37051091150829
 20
564.8254744489823
 30
0.0
 40
17.66955825997917
100
AcDbArc
 50
98.41893478172966
 51
101.6824228110009
  0
ARC
  5
3AA
330
38C
100
AcDbEntity
  8
0
100
AcDbCircle
 10
-68.05970512760723
 20
544.4987669030415
 30
0.0
 40
38.4482242379226
100
AcDbArc
 50
101.8398122394684
 51
104.4183853344092
  0
ARC
  5
3AB
330
38C
100
AcDbEntity
  8
0
100
AcDbCircle
 10
-43.81203552712691
 20
450.9503136016701
 30
0.0
 40
135.0880311854179
100
AcDbArc
 50
104.4991070411817
 51
105.5702050128718
  0
ARC
  5
3AC
330
38C
100
AcDbEntity
  8
0
100
AcDbCircle
 10
-142.2720455724555
 20
805.0001216161145
 30
0.0
 40
232.3975609695161
100
AcDbArc
 50
284.8146722314457
 51
285.5241226325167
  0
ARC
  5
3AD
330
38C
100
AcDbEntity
  8
0
100
AcDbCircle
 10
-104.4754642789323
 20
662.2225919461071
 30
0.0
 40
84.70192268107161
100
AcDbArc
 50
282.6304809284268
 51
284.7924289806998
  0
ARC
  5
3AE
330
38C
100
AcDbEntity
  8
0
100
AcDbCircle
 10
-97.94534467691551
 20
632.8481293309815
 30
0.0
 40
54.61043746670979
100
AcDbArc
 50
278.1993193238799
 51
282.6839843131554
  0
ARC
  5
3AF
330
38C
100
AcDbEntity
  8
0
100
AcDbCircle
 10
-96.29595496246588
 20
621.1310766736933
 30
0.0
 40
42.77794344152124
100
AcDbArc
 50
270.0640004998287
 51
278.2509167024103
  0
ARC
  5
3B0
330
38C
100
AcDbEntity
  8
0
100
AcDbCircle
 10
-96.31911832090077
 20
1272.67180878303
 30
0.0
 40
42.9750898600884
100
AcDbArc
 50
82.92263950013329
 51
89.90541093153719
  0
ARC
  5
3B1
330
38C
100
AcDbEntity
  8
0
100
AcDbCircle
 10
-97.57326015995636
 20
1263.267328652306
 30
0.0
 40
52.46250671761361
100
AcDbArc
 50
78.11774674321528
 51
82.82886262292898
  0
ARC
  5
3B2
330
38C
100
AcDbEntity
  8
0
100
AcDbCircle
 10
-103.5795922186885
 20
1235.301549519432
 30
0.0
 40
81.06585606060129
100
AcDbArc
 50
75.1838256909761
 51
78.03332265585664
  0
ARC
  5
3B3
330
38C
100
AcDbEntity
  8
0
100
AcDbCircle
 10
-142.2720455724461
 20
1088.999878383975
 30
0.0
 40
232.3975609694277
100
AcDbArc
 50
74.47587736748335
 51
75.18532776855429
  0
ARC
  5
3B4
330
38C
100
AcDbEntity
  8
0
100
AcDbCircle
 10
-43.81203553313799
 20
1443.049686376302
 30
0.0
 40
135.0880311625849
100
AcDbArc
 50
254.429794987078
 51
255.5008929589574
  0
ARC
  5
3B5
330
38C
100
AcDbEntity
  8
0
100
AcDbCircle
 10
-66.99990984826218
 20
1353.760856453491
 30
0.0
 40
42.83758698218764
100
AcDbArc
 50
255.6274028719101
 51
257.2034545239759
  0
ARC
  5
3B6
330
38C
100
AcDbEntity
  8
0
100
AcDbCircle
 10
-71.31052813874567
 20
1334.711015724035
 30
0.0
 40
23.3061404501318
100
AcDbArc
 50
257.1646380206395
 51
259.8015797501761
  0
ARC
  5
3B7
330
38C
100
AcDbEntity
  8
0
100
AcDbCircle
 10
-73.09114635972423
 20
1324.728434462329
 30
0.0
 40
13.16601563552634
100
AcDbArc
 50
259.7362741322086
 51
263.8004187932505
  0
ARC
  5
3B8
330
38C
100
AcDbEntity
  8
0
100
AcDbCircle
 10
-73.69516916255884
 20
1319.09896475001
 30
0.0
 40
7.504242462200989
100
AcDbArc
 50
263.7435534419123
 51
269.681239619531
  0
ARC
  5
3B9
330
38C
100
AcDbEntity
  8
0
100
AcDbCircle
 10
-73.7131139865769
 20
1358.414462184834
 30
0.0
 40
9.992649461843364
100
AcDbArc
 50
91.13292675308587
 51
98.14776287332475
  0
ARC
  5
3BA
330
38C
100
AcDbEntity
  8
0
100
AcDbCircle
 10
-71.95601683422319
 20
1347.249471811858
 30
0.0
 40
21.29454468315943
100
AcDbArc
 50
98.57015798557846
 51
102.7395989033552
  0
ARC
  5
3BB
330
38C
100
AcDbEntity
  8
0
100
AcDbCircle
 10
-48.57372978003104
 20
1247.783972285019
 30
0.0
 40
123.4707926615995
100
AcDbArc
 50
103.1444805758161
 51
106.1726708842057
  0
ARC
  5
3BC
330
38C
100
AcDbEntity
  8
0
100
AcDbCircle
 10
-104.3768528706369
 20
1448.440841737025
 30
0.0
 40
84.8194729578309
100
AcDbArc
 50
282.4823761019791
 51
284.6223656806035
  0
ARC
  5
3BD
330
38C
100
AcDbEntity
  8
0
100
AcDbCircle
 10
-98.15487067098547
 20
1420.228304771079
 30
0.0
 40
55.92899862237412
100
AcDbArc
 50
279.050016023048
 51
282.505864068154
  0
ARC
  5
3BE
330
38C
100
AcDbEntity
  8
0
100
AcDbCircle
 10
-96.2244747572679
 20
1406.793725440777
 30
0.0
 40
42.35852125382387
100
AcDbArc
 50
264.1227087619736
 51
279.3298084191737
  0
ARC
  5
3BF
330
38C
100
AcDbEntity
  8
0
100
AcDbCircle
 10
-94.66381516988145
 20
1419.266530433608
 30
0.0
 40
54.92626130474109
100
AcDbArc
 50
255.9189034841526
 51
263.8355706547353
  0
ARC
  5
3C0
330
38C
100
AcDbEntity
  8
0
100
AcDbCircle
 10
-50.79973344665018
 20
1597.035462991398
 30
0.0
 40
238.0266070384247
100
AcDbArc
 50
254.4255480703178
 51
256.0884190695842
  0
ARC
  5
3C1
330
38C
100
AcDbEntity
  8
0
100
AcDbCircle
 10
-123.3479949128332
 20
1334.042592493619
 30
0.0
 40
34.79588444464952
100
AcDbArc
 50
75.6220371514621
 51
78.44953390812451
  0
ARC
  5
3C2
330
38C
100
AcDbEntity
  8
0
100
AcDbCircle
 10
-119.3887124553162
 20
1353.83624790481
 30
0.0
 40
14.61054750951774
100
AcDbArc
 50
78.11933495820438
 51
83.79797041937316
  0
ARC
  5
3C3
330
38C
100
AcDbEntity
  8
0
100
AcDbCircle
 10
-118.6271913967603
 20
1360.797832193135
 30
0.0
 40
7.607439439212877
100
AcDbArc
 50
83.83541882301007
 51
89.68715438384204
  0
ARC
  5
3C4
330
38C
100
AcDbEntity
  8
0
100
AcDbCircle
 10
-118.8011731930239
 20
1319.098964750736
 30
0.0
 40
7.504242462927087
100
AcDbArc
 50
270.3187603808858
 51
273.1357963764813
  0
ARC
  5
3C5
330
38C
100
AcDbEntity
  8
0
100
AcDbCircle
 10
-118.9976644129197
 20
1321.490916513114
 30
0.0
 40
9.903576938823566
100
AcDbArc
 50
273.5138777729933
 51
278.4706958840109
  0
ARC
  5
3C6
330
38C
100
AcDbEntity
  8
0
100
AcDbCircle
 10
-120.125831444017
 20
1329.174525551034
 30
0.0
 40
17.66955825999566
100
AcDbArc
 50
278.4189347817297
 51
281.6824228109882
  0
ARC
  5
3C7
330
38C
100
AcDbEntity
  8
0
100
AcDbCircle
 10
-124.4366372314009
 20
1349.501233111889
 30
0.0
 40
38.4482242532503
100
AcDbArc
 50
281.8398122399871
 51
284.4183853339038
  0
ARC
  5
3C8
330
38C
100
AcDbEntity
  8
0
100
AcDbCircle
 10
-148.6843068292435
 20
1443.049686401495
 30
0.0
 40
135.0880311886942
100
AcDbArc
 50
284.4991070411817
 51
285.5702050128593
  0
ARC
  5
3C9
330
38C
100
AcDbEntity
  8
0
100
AcDbCircle
 10
-50.22429678307731
 20
1088.999878383956
 30
0.0
 40
232.3975609694452
100
AcDbArc
 50
104.8146722314457
 51
105.5241226325167
  0
ARC
  5
3CA
330
38C
100
AcDbEntity
  8
0
100
AcDbCircle
 10
-88.02087807658859
 20
1231.777408053877
 30
0.0
 40
84.70192268108813
100
AcDbArc
 50
102.6304809284267
 51
104.7924289806998
  0
ARC
  5
3CB
330
38C
100
AcDbEntity
  8
0
100
AcDbCircle
 10
-94.55099767866363
 20
1261.151870669324
 30
0.0
 40
54.61043746639945
100
AcDbArc
 50
98.19931932386696
 51
102.6839843131681
  0
ARC
  5
3CC
330
38C
100
AcDbEntity
  8
0
100
AcDbCircle
 10
-96.20038739305755
 20
1272.868923326303
 30
0.0
 40
42.77794344152488
100
AcDbArc
 50
90.06400049982872
 51
98.25091670241034
  0
ARC
  5
3CD
330
38C
100
AcDbEntity
  8
0
100
AcDbCircle
 10
-121.3448439349854
 20
524.0577938224887
 30
0.0
 40
52.11421938021167
100
AcDbArc
 50
265.4238159848274
 51
267.4189998037598
  0
ARC
  5
3CE
330
38C
100
AcDbEntity
  8
0
100
AcDbCircle
 10
-121.317434826999
 20
527.6453197763367
 30
0.0
 40
55.69950187361734
100
AcDbArc
 50
267.5570162672823
 51
278.3789051884044
  0
ARC
  5
3CF
330
38C
100
AcDbEntity
  8
0
100
AcDbCircle
 10
-90.37266996957032
 20
531.960515505858
 30
0.0
 40
59.38281555636519
100
AcDbArc
 50
272.164773487384
 51
281.4066608334995
  0
ARC
  5
3D0
330
38C
100
AcDbEntity
  8
0
100
AcDbCircle
 10
-89.99130227029377
 20
524.60965401047
 30
0.0
 40
52.02289740289839
100
AcDbArc
 50
261.9598554464079
 51
272.0508620137558
  0
LINE
  5
3D1
330
38C
100
AcDbEntity
  8
0
100
AcDbLine
 10
-712.0000000000005
 20
40.39441599609836
 30
0.0
 11
-712.0000000000002
 21
587.9177842802565
 31
0.0
  0
LINE
  5
3D2
330
38C
100
AcDbEntity
  8
0
100
AcDbLine
 10
-712.0000000000005
 20
40.39441599609836
 30
0.0
 11
-734.0000000000005
 21
40.39441599609836
 31
0.0
  0
LINE
  5
3D3
330
38C
100
AcDbEntity
  8
0
100
AcDbLine
 10
-734.0000000000005
 20
587.9177842802565
 30
0.0
 11
-712.0000000000005
 21
587.9177842802565
 31
0.0
  0
LINE
  5
3D4
330
38C
100
AcDbEntity
  8
0
100
AcDbLine
 10
-736.0000000000005
 20
42.39441599609836
 30
0.0
 11
-734.0000000000005
 21
40.39441599609836
 31
0.0
  0
LINE
  5
3D5
330
38C
100
AcDbEntity
  8
0
100
AcDbLine
 10
-736.0000000000007
 20
585.9177842802565
 30
0.0
 11
-736.0000000000007
 21
42.39441599609836
 31
0.0
  0
LINE
  5
3D6
330
38C
100
AcDbEntity
  8
0
100
AcDbLine
 10
-734.0000000000005
 20
587.9177842802565
 30
0.0
 11
-736.0000000000005
 21
585.9177842802565
 31
0.0
  0
LINE
  5
3D7
330
38C
100
AcDbEntity
  8
0
100
AcDbLine
 10
-734.0000000000007
 20
40.39441599609836
 30
0.0
 11
-734.0000000000007
 21
587.9177842802565
 31
0.0
  0
LINE
  5
3D8
330
38C
100
AcDbEntity
  8
0
100
AcDbLine
 10
-666.0823986019668
 20
1371.575581159066
 30
0.0
 11
-666.0823986019668
 21
1448.354923595871
 31
0.0
  0
LINE
  5
3D9
330
38C
100
AcDbEntity
  8
0
100
AcDbLine
 10
-711.5
 20
1444.5
 30
0.0
 11
-711.5
 21
41.39441599609927
 31
0.0
  0
LINE
  5
3DA
330
38C
100
AcDbEntity
  8
0
100
AcDbLine
 10
-710.5
 20
1338.391398439406
 30
0.0
 11
-710.5
 21
1444.5
 31
0.0
  0
LINE
  5
3DB
330
38C
100
AcDbEntity
  8
0
100
AcDbLine
 10
-711.5000000000002
 20
1444.5
 30
0.0
 11
-712.0000000000005
 21
1445.707106781188
 31
0.0
  0
LINE
  5
3DC
330
38C
100
AcDbEntity
  8
0
100
AcDbLine
 10
-711.4325164594002
 20
41.32693245549945
 30
0.0
 11
-711.5000000000002
 21
41.39441599609927
 31
0.0
  0
LINE
  5
3DD
330
38C
100
AcDbEntity
  8
0
100
AcDbLine
 10
-710.5000000000002
 20
1444.5
 30
0.0
 11
-712.0000000000005
 21
1446.0
 31
0.0
  0
LINE
  5
3DE
330
38C
100
AcDbEntity
  8
0
100
AcDbLine
 10
-595.7012213703674
 20
1468.0
 30
0.0
 11
-595.7012213703674
 21
1338.391398439406
 31
0.0
  0
LINE
  5
3DF
330
38C
100
AcDbEntity
  8
0
100
AcDbLine
 10
-593.7012213703674
 20
1468.0
 30
0.0
 11
-594.7012213703674
 21
1469.0
 31
0.0
  0
LINE
  5
3E0
330
38C
100
AcDbEntity
  8
0
100
AcDbLine
 10
-595.7012213703672
 20
1470.0
 30
0.0
 11
-736.0
 21
1470.0
 31
0.0
  0
LINE
  5
3E1
330
38C
100
AcDbEntity
  8
0
100
AcDbLine
 10
-594.7012213703672
 20
1469.0
 30
0.0
 11
-595.7012213703672
 21
1470.0
 31
0.0
  0
LINE
  5
3E2
330
38C
100
AcDbEntity
  8
0
100
AcDbLine
 10
-595.7012213703672
 20
1468.0
 30
0.0
 11
-594.7012213703672
 21
1469.0
 31
0.0
  0
LINE
  5
3E3
330
38C
100
AcDbEntity
  8
0
100
AcDbLine
 10
-733.9999999999998
 20
1468.0
 30
0.0
 11
-595.7012213703672
 21
1468.0
 31
0.0
  0
LINE
  5
3E4
330
38C
100
AcDbEntity
  8
0
100
AcDbLine
 10
-736.0
 20
1470.0
 30
0.0
 11
-734.5857864376267
 21
1468.585786437627
 31
0.0
  0
LINE
  5
3E5
330
38C
100
AcDbEntity
  8
0
100
AcDbLine
 10
-116.7032071489846
 20
1520.845677883444
 30
0.0
 11
-75.79313520653909
 21
1520.845677883444
 31
0.0
  0
LINE
  5
3E6
330
38C
100
AcDbEntity
  8
0
100
AcDbLine
 10
-117.4574037916705
 20
1520.078741432604
 30
0.0
 11
-75.03893856385321
 21
1520.078741432604
 31
0.0
  0
LINE
  5
3E7
330
38C
100
AcDbEntity
  8
0
100
AcDbLine
 10
-117.3554853264427
 20
1516.529430881046
 30
0.0
 11
-75.14085702908096
 21
1516.529430881046
 31
0.0
  0
LINE
  5
3E8
330
38C
100
AcDbEntity
  8
0
100
AcDbLine
 10
-115.8470920410707
 20
1514.669418890637
 30
0.0
 11
-76.64925031445296
 21
1514.669418890637
 31
0.0
  0
LINE
  5
3E9
330
38C
100
AcDbEntity
  8
0
100
AcDbLine
 10
-115.210101633397
 20
1513.392890113659
 30
0.0
 11
-77.28624072212665
 21
1513.392890113659
 31
0.0
  0
LINE
  5
3EA
330
38C
100
AcDbEntity
  8
0
100
AcDbLine
 10
-115.1897179403516
 20
1503.690252223971
 30
0.0
 11
-77.30662441517211
 21
1503.690252223971
 31
0.0
  0
LINE
  5
3EB
330
38C
100
AcDbEntity
  8
0
100
AcDbLine
 10
-113.7373798108549
 20
1499.7663913127
 30
0.0
 11
-78.75896254466875
 21
1499.7663913127
 31
0.0
  0
LINE
  5
3EC
330
38C
100
AcDbEntity
  8
0
100
AcDbLine
 10
-111.7244901226056
 20
1497.670692871454
 30
0.0
 11
-80.77185223291804
 21
1497.670692871454
 31
0.0
  0
LINE
  5
3ED
330
38C
100
AcDbEntity
  8
0
100
AcDbLine
 10
-110.2772479163707
 20
1493.768489634043
 30
0.0
 11
-82.21909443915297
 21
1493.768489634043
 31
0.0
  0
LINE
  5
3EE
330
38C
100
AcDbEntity
  8
0
100
AcDbLine
 10
-114.9553054703276
 20
1403.96882282031
 30
0.0
 11
-77.54103688519604
 21
1403.96882282031
 31
0.0
  0
LINE
  5
3EF
330
38C
100
AcDbEntity
  8
0
100
AcDbLine
 10
-116.3363006741647
 20
1402.462977496569
 30
0.0
 11
-76.16004168135896
 21
1402.462977496569
 31
0.0
  0
LINE
  5
3F0
330
38C
100
AcDbEntity
  8
0
100
AcDbLine
 10
-116.3261088276417
 20
1399.441095002565
 30
0.0
 11
-76.17023352788192
 21
1399.441095002565
 31
0.0
  0
LINE
  5
3F1
330
38C
100
AcDbEntity
  8
0
100
AcDbLine
 10
-111.0136088276417
 20
1398.926406753164
 30
0.0
 11
-81.48273352788192
 21
1398.926406753164
 31
0.0
  0
LINE
  5
3F2
330
38C
100
AcDbEntity
  8
0
100
AcDbLine
 10
-110.3162195638643
 20
1405.18593488107
 30
0.0
 11
-82.18012279165941
 21
1405.18593488107
 31
0.0
  0
LINE
  5
3F3
330
38C
100
AcDbEntity
  8
0
100
AcDbLine
 10
-111.7958330482654
 20
1403.979014666833
 30
0.0
 11
-80.70050930725824
 21
1403.979014666833
 31
0.0
  0
LINE
  5
3F4
330
38C
100
AcDbEntity
  8
0
100
AcDbLine
 10
-114.9553054703276
 20
490.0311771796914
 30
0.0
 11
-93.44516951719925
 21
490.0311771796914
 31
0.0
  0
LINE
  5
3F5
330
38C
100
AcDbEntity
  8
0
100
AcDbLine
 10
-89.93356450883562
 20
490.0311771796914
 30
0.0
 11
-77.54103688519604
 21
490.0311771796914
 31
0.0
  0
LINE
  5
3F6
330
38C
100
AcDbEntity
  8
0
100
AcDbLine
 10
-116.3363006741647
 20
491.5370225034312
 30
0.0
 11
-76.16004168135896
 21
491.5370225034312
 31
0.0
  0
LINE
  5
3F7
330
38C
100
AcDbEntity
  8
0
100
AcDbLine
 10
-116.3261088276417
 20
494.5589049974369
 30
0.0
 11
-76.17023352788192
 21
494.5589049974369
 31
0.0
  0
LINE
  5
3F8
330
38C
100
AcDbEntity
  8
0
100
AcDbLine
 10
-111.0136088276417
 20
495.073593246836
 30
0.0
 11
-81.48273352788192
 21
495.073593246836
 31
0.0
  0
LINE
  5
3F9
330
38C
100
AcDbEntity
  8
0
100
AcDbLine
 10
-110.3162195638643
 20
488.8140651189296
 30
0.0
 11
-93.7199165963359
 21
488.8140651189296
 31
0.0
  0
LINE
  5
3FA
330
38C
100
AcDbEntity
  8
0
100
AcDbLine
 10
-84.54183560272395
 20
488.8140651189296
 30
0.0
 11
-82.18012279165941
 21
488.8140651189296
 31
0.0
  0
LINE
  5
3FB
330
38C
100
AcDbEntity
  8
0
100
AcDbLine
 10
-111.7958330482654
 20
490.0209853331671
 30
0.0
 11
-93.44747019283409
 21
490.0209853331671
 31
0.0
  0
LINE
  5
3FC
330
38C
100
AcDbEntity
  8
0
100
AcDbLine
 10
-89.888415277901
 20
490.0209853331671
 30
0.0
 11
-80.70050930725824
 21
490.0209853331671
 31
0.0
  0
LINE
  5
3FD
330
38C
100
AcDbEntity
  8
0
100
AcDbLine
 10
-47.89454073373895
 20
371.5839826630308
 30
0.0
 11
-51.51754242349739
 21
475.0787856496954
 31
0.0
  0
LINE
  5
3FE
330
38C
100
AcDbEntity
  8
0
100
AcDbLine
 10
-47.61040188244465
 20
369.2682420258971
 30
0.0
 11
-51.39603311439419
 21
477.4087266517581
 31
0.0
  0
LINE
  5
3FF
330
38C
100
AcDbEntity
  8
0
100
AcDbLine
 10
-45.97542905493492
 20
369.3158580557265
 30
0.0
 11
-49.76173290695033
 21
477.4755567717639
 31
0.0
  0
LINE
  5
400
330
38C
100
AcDbEntity
  8
0
100
AcDbLine
 10
-45.86335502114002
 20
372.0286845630599
 30
0.0
 11
-49.46023200163177
 21
474.7772081189705
 31
0.0
  0
LINE
  5
401
330
38C
100
AcDbEntity
  8
0
100
AcDbLine
 10
-45.40542274456061
 20
372.0447152173929
 30
0.0
 11
-49.00229972505235
 21
474.7932387733017
 31
0.0
  0
LINE
  5
402
330
38C
100
AcDbEntity
  8
0
100
AcDbLine
 10
-42.79990532515512
 20
372.1481848146141
 30
0.0
 11
-46.39592504477878
 21
474.8722198242194
 31
0.0
  0
LINE
  5
403
330
38C
100
AcDbEntity
  8
0
100
AcDbLine
 10
-42.35304754707477
 20
371.7684088880724
 30
0.0
 11
-45.97671792837127
 21
475.2823137424439
 31
0.0
  0
LINE
  5
404
330
38C
100
AcDbEntity
  8
0
100
AcDbLine
 10
-42.25150292313538
 20
369.0165875481252
 30
0.0
 11
-46.06784991019867
 21
478.0344995936412
 31
0.0
  0
LINE
  5
405
330
38C
100
AcDbEntity
  8
0
100
AcDbLine
 10
-41.76382074281059
 20
368.575724446544
 30
0.0
 11
-45.61219000105962
 21
478.5083858991457
 31
0.0
  0
LINE
  5
406
330
38C
100
AcDbEntity
  8
0
100
AcDbLine
 10
-32.56556604366438
 20
368.8977241156699
 30
0.0
 11
-36.4139353019134
 21
478.8303855682716
 31
0.0
  0
LINE
  5
407
330
38C
100
AcDbEntity
  8
0
100
AcDbLine
 10
-32.17809973955127
 20
369.104551200151
 30
0.0
 11
-36.01295458187133
 21
478.6511593373434
 31
0.0
  0
LINE
  5
408
330
38C
100
AcDbEntity
  8
0
100
AcDbLine
 10
-28.8632234045831
 20
374.2061752940772
 30
0.0
 11
-32.34944891239638
 21
473.7938247059246
 31
0.0
  0
LINE
  5
409
330
38C
100
AcDbEntity
  8
0
100
AcDbLine
 10
-48.28557864664185
 20
371.9494003899545
 30
0.0
 11
-51.88207035080882
 21
474.6869181278362
 31
0.0
  0
LINE
  5
40A
330
38C
100
AcDbEntity
  8
0
100
AcDbLine
 10
-75.67966853875919
 20
486.8135471763817
 30
0.0
 11
-93.27490439622466
 21
490.7854408206967
 31
0.0
  0
LINE
  5
40B
330
38C
100
AcDbEntity
  8
0
100
AcDbLine
 10
-128.5063030141955
 20
488.852420077088
 30
0.0
 11
-103.9852620944557
 21
483.3171168069239
 31
0.0
  0
LINE
  5
40C
330
38C
100
AcDbEntity
  8
0
100
AcDbLine
 10
-128.0827864184716
 20
490.6053983304755
 30
0.0
 11
-103.6146587016897
 21
485.0820395216542
 31
0.0
  0
LINE
  5
40D
330
38C
100
AcDbEntity
  8
0
100
AcDbLine
 10
-71.55843433197651
 20
1291.080198195514
 30
0.0
 11
-120.9379080235472
 21
1291.080198195514
 31
0.0
  0
LINE
  5
40E
330
38C
100
AcDbEntity
  8
0
100
AcDbLine
 10
-77.04470367307908
 20
1280.749604869785
 30
0.0
 11
-115.4516386824446
 21
1280.749604869785
 31
0.0
  0
LINE
  5
40F
330
38C
100
AcDbEntity
  8
0
100
AcDbLine
 10
-71.81818713272969
 20
1384.063583590063
 30
0.0
 11
-120.678155222794
 21
1384.063583590063
 31
0.0
  0
LINE
  5
410
330
38C
100
AcDbEntity
  8
0
100
AcDbLine
 10
-73.36381034639157
 20
1385.209828342078
 30
0.0
 11
-119.1325320091321
 21
1385.209828342078
 31
0.0
  0
LINE
  5
411
330
38C
100
AcDbEntity
  8
0
100
AcDbLine
 10
-24.70064102564083
 20
1371.614979757085
 30
0.0
 11
-24.70064102564083
 21
1308.385020242915
 31
0.0
  0
LINE
  5
412
330
38C
100
AcDbEntity
  8
0
100
AcDbLine
 10
0.0
 20
1374.1
 30
0.0
 11
0.0
 21
1305.9
 31
0.0
  0
LINE
  5
413
330
38C
100
AcDbEntity
  8
0
100
AcDbLine
 10
-21.42661847391582
 20
1374.1
 30
0.0
 11
-21.42661847391582
 21
1305.9
 31
0.0
  0
LINE
  5
414
330
38C
100
AcDbEntity
  8
0
100
AcDbLine
 10
-28.79057017543846
 20
1368.405161943319
 30
0.0
 11
-28.79057017543846
 21
1311.594838056679
 31
0.0
  0
LINE
  5
415
330
38C
100
AcDbEntity
  8
0
100
AcDbLine
 10
-113.5201192272186
 20
1397.34455010973
 30
0.0
 11
-78.97622312830504
 21
1397.34455010973
 31
0.0
  0
LINE
  5
416
330
38C
100
AcDbEntity
  8
0
100
AcDbLine
 10
-113.5201192272186
 20
1386.027681419861
 30
0.0
 11
-78.97622312830504
 21
1386.027681419861
 31
0.0
  0
LINE
  5
417
330
38C
100
AcDbEntity
  8
0
100
AcDbLine
 10
-112.3141324854025
 20
1398.63925311761
 30
0.0
 11
-80.18220987012114
 21
1398.63925311761
 31
0.0
  0
LINE
  5
418
330
38C
100
AcDbEntity
  8
0
100
AcDbLine
 10
-71.55843433197651
 20
602.9198018044881
 30
0.0
 11
-120.9379080235472
 21
602.9198018044881
 31
0.0
  0
LINE
  5
419
330
38C
100
AcDbEntity
  8
0
100
AcDbLine
 10
-77.04470367307908
 20
613.2503951302151
 30
0.0
 11
-115.4516386824446
 21
613.2503951302151
 31
0.0
  0
LINE
  5
41A
330
38C
100
AcDbEntity
  8
0
100
AcDbLine
 10
-71.81818713272969
 20
509.936416409937
 30
0.0
 11
-120.678155222794
 21
509.936416409937
 31
0.0
  0
LINE
  5
41B
330
38C
100
AcDbEntity
  8
0
100
AcDbLine
 10
-73.36381034639157
 20
508.7901716579236
 30
0.0
 11
-119.1325320091321
 21
508.7901716579236
 31
0.0
  0
LINE
  5
41C
330
38C
100
AcDbEntity
  8
0
100
AcDbLine
 10
-24.70064102564083
 20
522.3850202429148
 30
0.0
 11
-24.70064102564083
 21
585.6149797570852
 31
0.0
  0
LINE
  5
41D
330
38C
100
AcDbEntity
  8
0
100
AcDbLine
 10
0.0
 20
519.8999999999996
 30
0.0
 11
0.0
 21
588.1000000000004
 31
0.0
  0
LINE
  5
41E
330
38C
100
AcDbEntity
  8
0
100
AcDbLine
 10
-21.42661847391582
 20
519.8999999999996
 30
0.0
 11
-21.42661847391582
 21
588.1000000000004
 31
0.0
  0
LINE
  5
41F
330
38C
100
AcDbEntity
  8
0
100
AcDbLine
 10
-28.79057017543846
 20
525.5948380566806
 30
0.0
 11
-28.79057017543846
 21
582.4051619433212
 31
0.0
  0
LINE
  5
420
330
38C
100
AcDbEntity
  8
0
100
AcDbLine
 10
-113.5201192272186
 20
496.6554498902715
 30
0.0
 11
-78.97622312830504
 21
496.6554498902715
 31
0.0
  0
LINE
  5
421
330
38C
100
AcDbEntity
  8
0
100
AcDbLine
 10
-113.5201192272186
 20
507.9723185801395
 30
0.0
 11
-78.97622312830504
 21
507.9723185801395
 31
0.0
  0
LINE
  5
422
330
38C
100
AcDbEntity
  8
0
100
AcDbLine
 10
-112.3141324854025
 20
495.3607468823902
 30
0.0
 11
-80.18220987012114
 21
495.3607468823902
 31
0.0
  0
LINE
  5
423
330
38C
100
AcDbEntity
  8
0
100
AcDbLine
 10
-271.6009509875641
 20
1497.135194278415
 30
0.0
 11
-244.3990490124359
 21
1497.135194278415
 31
0.0
  0
LINE
  5
424
330
38C
100
AcDbEntity
  8
0
100
AcDbLine
 10
-244.3990490124359
 20
1609.0
 30
0.0
 11
-271.6009509875641
 21
1609.0
 31
0.0
  0
LINE
  5
425
330
38C
100
AcDbEntity
  8
0
100
AcDbLine
 10
-709.4325164594002
 20
37.85736202552198
 30
0.0
 11
-137.4955498658865
 21
37.85736202552198
 31
0.0
  0
LINE
  5
426
330
38C
100
AcDbEntity
  8
0
100
AcDbLine
 10
-135.4955498658865
 20
35.85736202552289
 30
0.0
 11
-711.4325164594002
 21
35.85736202552198
 31
0.0
  0
LINE
  5
427
330
38C
100
AcDbEntity
  8
0
100
AcDbLine
 10
-137.4955498658869
 20
1336.391398439406
 30
0.0
 11
-709.4325164594006
 21
1336.391398439406
 31
0.0
  0
LINE
  5
428
330
38C
100
AcDbEntity
  8
0
100
AcDbLine
 10
-711.4325164594006
 20
1338.391398439406
 30
0.0
 11
-135.4955498658869
 21
1338.391398439406
 31
0.0
  0
LINE
  5
429
330
38C
100
AcDbEntity
  8
0
100
AcDbLine
 10
-137.4955498658869
 20
1336.391398439406
 30
0.0
 11
-135.4955498658869
 21
1338.391398439406
 31
0.0
  0
LINE
  5
42A
330
38C
100
AcDbEntity
  8
0
100
AcDbLine
 10
-135.4955498658869
 20
1338.391398439406
 30
0.0
 11
-135.4955498658869
 21
35.85736202552198
 31
0.0
  0
LINE
  5
42B
330
38C
100
AcDbEntity
  8
0
100
AcDbLine
 10
-137.4955498658869
 20
37.85736202552289
 30
0.0
 11
-135.4955498658869
 21
35.85736202552198
 31
0.0
  0
LINE
  5
42C
330
38C
100
AcDbEntity
  8
0
100
AcDbLine
 10
-137.4955498658869
 20
37.85736202552289
 30
0.0
 11
-137.4955498658869
 21
1336.391398439406
 31
0.0
  0
LINE
  5
42D
330
38C
100
AcDbEntity
  8
0
100
AcDbLine
 10
-711.4325164594002
 20
1338.391398439406
 30
0.0
 11
-709.4325164594004
 21
1336.391398439406
 31
0.0
  0
LINE
  5
42E
330
38C
100
AcDbEntity
  8
0
100
AcDbLine
 10
-709.4325164594006
 20
1336.391398439406
 30
0.0
 11
-709.4325164594006
 21
37.85736202552198
 31
0.0
  0
LINE
  5
42F
330
38C
100
AcDbEntity
  8
0
100
AcDbLine
 10
-709.4325164594006
 20
37.85736202552198
 30
0.0
 11
-711.4325164594006
 21
35.85736202552198
 31
0.0
  0
LINE
  5
430
330
38C
100
AcDbEntity
  8
0
100
AcDbLine
 10
-711.4325164594002
 20
35.85736202552198
 30
0.0
 11
-711.4325164594002
 21
1338.391398439406
 31
0.0
  0
LINE
  5
431
330
38C
100
AcDbEntity
  8
0
100
AcDbLine
 10
-142.0
 20
1338.391398439406
 30
0.0
 11
-142.0
 21
1468.0
 31
0.0
  0
LINE
  5
432
330
38C
100
AcDbEntity
  8
0
100
AcDbLine
 10
-593.701221370367
 20
1338.391398439406
 30
0.0
 11
-593.701221370367
 21
1468.0
 31
0.0
  0
LINE
  5
433
330
38C
100
AcDbEntity
  8
0
100
AcDbLine
 10
-142.0
 20
1468.0
 30
0.0
 11
-142.0
 21
1470.0
 31
0.0
  0
LINE
  5
434
330
38C
100
AcDbEntity
  8
0
100
AcDbLine
 10
-593.701221370367
 20
1468.0
 30
0.0
 11
-142.0
 21
1468.0
 31
0.0
  0
LINE
  5
435
330
38C
100
AcDbEntity
  8
0
100
AcDbLine
 10
-593.701221370367
 20
1470.0
 30
0.0
 11
-593.701221370367
 21
1468.0
 31
0.0
  0
LINE
  5
436
330
38C
100
AcDbEntity
  8
0
100
AcDbLine
 10
-142.0
 20
1470.0
 30
0.0
 11
-593.7012213703672
 21
1470.0
 31
0.0
  0
ARC
  5
437
330
38C
100
AcDbEntity
  8
0
100
AcDbCircle
 10
-476.0000000000005
 20
5.0
 30
0.0
 40
4.999999999999999
100
AcDbArc
 50
180.0
 51
270.0
  0
LINE
  5
438
330
38C
100
AcDbEntity
  8
0
100
AcDbLine
 10
-481.0000000000005
 20
5.0
 30
0.0
 11
-476.0000000000005
 21
5.0
 31
0.0
  0
LINE
  5
439
330
38C
100
AcDbEntity
  8
0
100
AcDbLine
 10
-481.0000000000005
 20
35.85736202552198
 30
0.0
 11
-481.0000000000005
 21
5.0
 31
0.0
  0
LINE
  5
43A
330
38C
100
AcDbEntity
  8
0
100
AcDbLine
 10
-476.0000000000005
 20
0.0
 30
0.0
 11
-476.0000000000005
 21
5.0
 31
0.0
  0
LINE
  5
43B
330
38C
100
AcDbEntity
  8
0
100
AcDbLine
 10
-476.0000000000005
 20
0.0
 30
0.0
 11
-6.000000000000455
 21
0.0
 31
0.0
  0
LINE
  5
43C
330
38C
100
AcDbEntity
  8
0
100
AcDbLine
 10
-6.000000000000455
 20
5.0
 30
0.0
 11
-6.000000000000455
 21
0.0
 31
0.0
  0
LINE
  5
43D
330
38C
100
AcDbEntity
  8
0
100
AcDbLine
 10
-1.000000000000455
 20
5.0
 30
0.0
 11
-1.000000000000455
 21
40.42164512720501
 31
0.0
  0
LINE
  5
43E
330
38C
100
AcDbEntity
  8
0
100
AcDbLine
 10
-6.000000000000455
 20
5.0
 30
0.0
 11
-1.000000000000455
 21
5.0
 31
0.0
  0
ARC
  5
43F
330
38C
100
AcDbEntity
  8
0
100
AcDbCircle
 10
-6.000000000000455
 20
5.0
 30
0.0
 40
5.0
100
AcDbArc
 50
270.0
 51
0.0
  0
LINE
  5
440
330
38C
100
AcDbEntity
  8
0
100
AcDbLine
 10
-6.000000000000455
 20
40.42164512720501
 30
0.0
 11
-6.000000000000455
 21
5.0
 31
0.0
  0
LINE
  5
441
330
38C
100
AcDbEntity
  8
0
100
AcDbLine
 10
-6.000000000000455
 20
5.0
 30
0.0
 11
-476.0000000000005
 21
5.0
 31
0.0
  0
LINE
  5
442
330
38C
100
AcDbEntity
  8
0
100
AcDbLine
 10
-476.0000000000005
 20
5.0
 30
0.0
 11
-476.0000000000005
 21
35.85736202552198
 31
0.0
  0
LINE
  5
443
330
38C
100
AcDbEntity
  8
0
100
AcDbLine
 10
-1.000000000000455
 20
40.42164512720501
 30
0.0
 11
-6.000000000000455
 21
40.42164512720501
 31
0.0
  0
LINE
  5
444
330
38C
100
AcDbEntity
  8
0
100
AcDbLine
 10
-6.000000000000455
 20
40.42164512720501
 30
0.0
 11
-135.4955498658869
 21
40.42164512720501
 31
0.0
  0
LINE
  5
445
330
38C
100
AcDbEntity
  8
0
100
AcDbLine
 10
-736.0
 20
1282.729756874442
 30
0.0
 11
-736.5103384434244
 21
1282.729756874442
 31
0.0
  0
LINE
  5
446
330
38C
100
AcDbEntity
  8
0
100
AcDbLine
 10
-736.0
 20
1284.560999590592
 30
0.0
 11
-736.5103384434244
 21
1284.560999590592
 31
0.0
  0
LINE
  5
447
330
38C
100
AcDbEntity
  8
0
100
AcDbLine
 10
-736.0
 20
1289.236512926163
 30
0.0
 11
-736.5103384434244
 21
1289.236512926163
 31
0.0
  0
LINE
  5
448
330
38C
100
AcDbEntity
  8
0
100
AcDbLine
 10
-736.0
 20
1292.093745266313
 30
0.0
 11
-736.5103384434244
 21
1292.093745266313
 31
0.0
  0
LINE
  5
449
330
38C
100
AcDbEntity
  8
0
100
AcDbLine
 10
-736.0
 20
1293.939252334036
 30
0.0
 11
-736.5103384434244
 21
1293.939252334036
 31
0.0
  0
LINE
  5
44A
330
38C
100
AcDbEntity
  8
0
100
AcDbLine
 10
-736.0
 20
1295.340826303247
 30
0.0
 11
-736.5103384434244
 21
1295.340826303247
 31
0.0
  0
LINE
  5
44B
330
38C
100
AcDbEntity
  8
0
100
AcDbLine
 10
-736.0
 20
1296.480013966442
 30
0.0
 11
-736.5103384434244
 21
1296.480013966442
 31
0.0
  0
LINE
  5
44C
330
38C
100
AcDbEntity
  8
0
100
AcDbLine
 10
-736.5103384434237
 20
1296.48001396644
 30
0.0
 11
-736.5103384434233
 21
1297.262810773662
 31
0.0
  0
LINE
  5
44D
330
38C
100
AcDbEntity
  8
0
100
AcDbLine
 10
-736.5103384434244
 20
1295.340826303243
 30
0.0
 11
-736.5103384434244
 21
1296.480013966444
 31
0.0
  0
LINE
  5
44E
330
38C
100
AcDbEntity
  8
0
100
AcDbLine
 10
-736.5103384434244
 20
1293.939252334036
 30
0.0
 11
-736.5103384434244
 21
1295.340826303247
 31
0.0
  0
LINE
  5
44F
330
38C
100
AcDbEntity
  8
0
100
AcDbLine
 10
-736.5103384434244
 20
1292.093745266313
 30
0.0
 11
-736.5103384434244
 21
1293.939252334036
 31
0.0
  0
LINE
  5
450
330
38C
100
AcDbEntity
  8
0
100
AcDbLine
 10
-736.5103384434244
 20
1289.236512926163
 30
0.0
 11
-736.5103384434244
 21
1292.093745266313
 31
0.0
  0
LINE
  5
451
330
38C
100
AcDbEntity
  8
0
100
AcDbLine
 10
-736.5103384434244
 20
1284.560999590592
 30
0.0
 11
-736.5103384434244
 21
1289.236512926163
 31
0.0
  0
LINE
  5
452
330
38C
100
AcDbEntity
  8
0
100
AcDbLine
 10
-736.5103384434244
 20
1282.729756874442
 30
0.0
 11
-736.5103384434244
 21
1284.560999590592
 31
0.0
  0
LINE
  5
453
330
38C
100
AcDbEntity
  8
0
100
AcDbLine
 10
-736.5103384434244
 20
1302.747679201097
 30
0.0
 11
-736.5103384434244
 21
1303.243572540936
 31
0.0
  0
LINE
  5
454
330
38C
100
AcDbEntity
  8
0
100
AcDbLine
 10
-736.0
 20
1303.243572540936
 30
0.0
 11
-736.5103384434244
 21
1303.243572540936
 31
0.0
  0
LINE
  5
455
330
38C
100
AcDbEntity
  8
0
100
AcDbLine
 10
-736.5103384434244
 20
1301.392844013622
 30
0.0
 11
-736.5103384434244
 21
1302.747679201097
 31
0.0
  0
LINE
  5
456
330
38C
100
AcDbEntity
  8
0
100
AcDbLine
 10
-736.0
 20
1302.747679201097
 30
0.0
 11
-736.5103384434244
 21
1302.747679201097
 31
0.0
  0
LINE
  5
457
330
38C
100
AcDbEntity
  8
0
100
AcDbLine
 10
-736.5103384434244
 20
1299.596952657386
 30
0.0
 11
-736.5103384434244
 21
1301.392844013622
 31
0.0
  0
LINE
  5
458
330
38C
100
AcDbEntity
  8
0
100
AcDbLine
 10
-736.0
 20
1301.392844013622
 30
0.0
 11
-736.5103384434244
 21
1301.392844013622
 31
0.0
  0
LINE
  5
459
330
38C
100
AcDbEntity
  8
0
100
AcDbLine
 10
-736.0
 20
1297.26281083279
 30
0.0
 11
-736.5103384434244
 21
1297.26281083279
 31
0.0
  0
LINE
  5
45A
330
38C
100
AcDbEntity
  8
0
100
AcDbLine
 10
-736.5103384434244
 20
1297.262810832788
 30
0.0
 11
-736.5103384434244
 21
1299.596952657384
 31
0.0
  0
LINE
  5
45B
330
38C
100
AcDbEntity
  8
0
100
AcDbLine
 10
-736.0
 20
1299.596952657386
 30
0.0
 11
-736.5103384434244
 21
1299.596952657386
 31
0.0
  0
LINE
  5
45C
330
38C
100
AcDbEntity
  8
0
100
AcDbLine
 10
-736.5103384434244
 20
1275.718218480008
 30
0.0
 11
-736.0
 21
1275.718218480008
 31
0.0
  0
LINE
  5
45D
330
38C
100
AcDbEntity
  8
0
100
AcDbLine
 10
-736.5103384434244
 20
1280.924705681176
 30
0.0
 11
-736.5103384434244
 21
1275.718218480006
 31
0.0
  0
LINE
  5
45E
330
38C
100
AcDbEntity
  8
0
100
AcDbLine
 10
-736.5103384434244
 20
1280.924705681176
 30
0.0
 11
-736.0
 21
1280.924705681176
 31
0.0
  0
LINE
  5
45F
330
38C
100
AcDbEntity
  8
0
100
AcDbLine
 10
-736.5103384434244
 20
1303.243572540936
 30
0.0
 11
-736.5103384434244
 21
1311.308832482031
 31
0.0
  0
LINE
  5
460
330
38C
100
AcDbEntity
  8
0
100
AcDbLine
 10
-736.0
 20
1311.308832482031
 30
0.0
 11
-736.5103384434244
 21
1311.308832482031
 31
0.0
  0
LINE
  5
461
330
38C
100
AcDbEntity
  8
0
100
AcDbLine
 10
-629.3366861741035
 20
16.65061367146245
 30
0.0
 11
-578.200377956596
 21
16.66422823701578
 31
0.0
  0
LINE
  5
462
330
38C
100
AcDbEntity
  8
0
100
AcDbLine
 10
-634.4149191254164
 20
21.70502113305702
 30
0.0
 11
-629.3366861741033
 21
16.65061367146245
 31
0.0
  0
LINE
  5
463
330
38C
100
AcDbEntity
  8
0
100
AcDbLine
 10
-634.4966065187355
 20
35.85736202552198
 30
0.0
 11
-634.4149191254164
 21
21.70502113305702
 31
0.0
  0
LINE
  5
464
330
38C
100
AcDbEntity
  8
0
100
AcDbLine
 10
-573.1289522880597
 20
35.84374745996865
 30
0.0
 11
-634.4966065187355
 21
35.85736202552198
 31
0.0
  0
LINE
  5
465
330
38C
100
AcDbEntity
  8
0
100
AcDbLine
 10
-573.1289522880597
 20
21.71863569861034
 30
0.0
 11
-573.1289522880597
 21
35.84374745996865
 31
0.0
  0
LINE
  5
466
330
38C
100
AcDbEntity
  8
0
100
AcDbLine
 10
-578.200377956596
 20
16.66422823701578
 30
0.0
 11
-573.12895228806
 21
21.71863569861034
 31
0.0
  0
LINE
  5
467
330
38C
100
AcDbEntity
  8
0
100
AcDbLine
 10
-689.6355970088598
 20
1363.488529220516
 30
0.0
 11
-689.6355970088598
 21
1456.448782817199
 31
0.0
  0
LINE
  5
468
330
38C
100
AcDbEntity
  8
0
100
AcDbLine
 10
-689.63559700886
 20
1456.448782817199
 30
0.0
 11
-652.1751198894583
 21
1456.448782817199
 31
0.0
  0
LINE
  5
469
330
38C
100
AcDbEntity
  8
0
100
AcDbLine
 10
-652.1751198894581
 20
1456.448782817199
 30
0.0
 11
-652.1751198894581
 21
1363.488529220516
 31
0.0
  0
LINE
  5
46A
330
38C
100
AcDbEntity
  8
0
100
AcDbLine
 10
-652.1751198894583
 20
1363.488529220516
 30
0.0
 11
-689.63559700886
 21
1363.488529220516
 31
0.0
  0
LINE
  5
46B
330
38C
100
AcDbEntity
  8
0
100
AcDbLine
 10
-683.8425993660085
 20
1448.354923595871
 30
0.0
 11
-683.8425993660085
 21
1371.575581159066
 31
0.0
  0
LINE
  5
46C
330
38C
100
AcDbEntity
  8
0
100
AcDbLine
 10
-683.8425993660087
 20
1371.575581159066
 30
0.0
 11
-658.7713768999431
 21
1371.575581159066
 31
0.0
  0
LINE
  5
46D
330
38C
100
AcDbEntity
  8
0
100
AcDbLine
 10
-658.7713768999429
 20
1371.575581159066
 30
0.0
 11
-658.7713768999429
 21
1448.354923595871
 31
0.0
  0
LINE
  5
46E
330
38C
100
AcDbEntity
  8
0
100
AcDbLine
 10
-658.7713768999431
 20
1448.354923595871
 30
0.0
 11
-683.8425993660087
 21
1448.354923595871
 31
0.0
  0
LINE
  5
46F
330
38C
100
AcDbEntity
  8
0
100
AcDbLine
 10
-712.0000000000005
 20
587.9177842802565
 30
0.0
 11
-734.0000000000005
 21
587.9177842802565
 31
0.0
  0
LINE
  5
470
330
38C
100
AcDbEntity
  8
0
100
AcDbLine
 10
-712.0000000000002
 20
587.9177842802565
 30
0.0
 11
-712.0000000000002
 21
1446.0
 31
0.0
  0
LINE
  5
471
330
38C
100
AcDbEntity
  8
0
100
AcDbLine
 10
-734.0000000000005
 20
1468.0
 30
0.0
 11
-712.0000000000007
 21
1446.0
 31
0.0
  0
LINE
  5
472
330
38C
100
AcDbEntity
  8
0
100
AcDbLine
 10
-736.0000000000005
 20
589.9177842802565
 30
0.0
 11
-734.0000000000005
 21
587.9177842802565
 31
0.0
  0
LINE
  5
473
330
38C
100
AcDbEntity
  8
0
100
AcDbLine
 10
-736.0000000000005
 20
1468.0
 30
0.0
 11
-736.0000000000007
 21
589.9177842802565
 31
0.0
  0
LINE
  5
474
330
38C
100
AcDbEntity
  8
0
100
AcDbLine
 10
-734.5857864376271
 20
1468.585786437627
 30
0.0
 11
-736.0000000000002
 21
1468.0
 31
0.0
  0
LINE
  5
475
330
38C
100
AcDbEntity
  8
0
100
AcDbLine
 10
-734.0000000000002
 20
1468.0
 30
0.0
 11
-734.5857864376273
 21
1468.585786437627
 31
0.0
  0
LINE
  5
476
330
38C
100
AcDbEntity
  8
0
100
AcDbLine
 10
-734.0000000000007
 20
587.9177842802565
 30
0.0
 11
-734.0000000000005
 21
1468.0
 31
0.0
  0
LINE
  5
477
330
38C
100
AcDbEntity
  8
0
100
AcDbLine
 10
-75.79313520653886
 20
1520.845677883444
 30
0.0
 11
-75.03893856385321
 21
1520.078741432604
 31
0.0
  0
LINE
  5
478
330
38C
100
AcDbEntity
  8
0
100
AcDbLine
 10
-116.7032071489848
 20
1520.845677883444
 30
0.0
 11
-117.4574037916705
 21
1520.078741432604
 31
0.0
  0
LINE
  5
479
330
38C
100
AcDbEntity
  8
0
100
AcDbLine
 10
-117.3554853264427
 20
1516.529430881046
 30
0.0
 11
-117.4574037916705
 21
1520.078741432604
 31
0.0
  0
LINE
  5
47A
330
38C
100
AcDbEntity
  8
0
100
AcDbLine
 10
-75.14085702908096
 20
1516.529430881046
 30
0.0
 11
-75.03893856385321
 21
1520.078741432604
 31
0.0
  0
LINE
  5
47B
330
38C
100
AcDbEntity
  8
0
100
AcDbLine
 10
-115.8470920410707
 20
1514.669418890637
 30
0.0
 11
-117.3554853264427
 21
1516.529430881046
 31
0.0
  0
LINE
  5
47C
330
38C
100
AcDbEntity
  8
0
100
AcDbLine
 10
-76.64925031445296
 20
1514.669418890639
 30
0.0
 11
-75.14085702908096
 21
1516.529430881046
 31
0.0
  0
LINE
  5
47D
330
38C
100
AcDbEntity
  8
0
100
AcDbLine
 10
-115.210101633397
 20
1513.392890113659
 30
0.0
 11
-115.8470920410707
 21
1514.669418890637
 31
0.0
  0
LINE
  5
47E
330
38C
100
AcDbEntity
  8
0
100
AcDbLine
 10
-77.28624072212665
 20
1513.392890113659
 30
0.0
 11
-76.64925031445296
 21
1514.669418890637
 31
0.0
  0
LINE
  5
47F
330
38C
100
AcDbEntity
  8
0
100
AcDbLine
 10
-115.1897179403516
 20
1503.690252223971
 30
0.0
 11
-115.210101633397
 21
1513.392890113659
 31
0.0
  0
LINE
  5
480
330
38C
100
AcDbEntity
  8
0
100
AcDbLine
 10
-77.30662441517211
 20
1503.690252223971
 30
0.0
 11
-77.28624072212665
 21
1513.392890113659
 31
0.0
  0
ARC
  5
481
330
38C
100
AcDbEntity
  8
0
100
AcDbCircle
 10
-83.36785093992012
 20
1503.70298589314
 30
0.0
 40
6.061239900436103
100
AcDbArc
 50
319.4983322412899
 51
359.879630892408
  0
ARC
  5
482
330
38C
100
AcDbEntity
  8
0
100
AcDbCircle
 10
-109.1284914156035
 20
1503.70298589314
 30
0.0
 40
6.061239900436103
100
AcDbArc
 50
180.120369107592
 51
220.5016677587101
  0
LINE
  5
483
330
38C
100
AcDbEntity
  8
0
100
AcDbLine
 10
-111.7244901226056
 20
1497.670692871454
 30
0.0
 11
-113.7373798108549
 21
1499.7663913127
 31
0.0
  0
LINE
  5
484
330
38C
100
AcDbEntity
  8
0
100
AcDbLine
 10
-80.77185223291804
 20
1497.670692871454
 30
0.0
 11
-78.75896254466852
 21
1499.7663913127
 31
0.0
  0
ARC
  5
485
330
38C
100
AcDbEntity
  8
0
100
AcDbCircle
 10
-77.00752651396488
 20
1494.055109506136
 30
0.0
 40
5.219443570911177
100
AcDbArc
 50
136.1546423253249
 51
183.1479167392022
  0
ARC
  5
486
330
38C
100
AcDbEntity
  8
0
100
AcDbCircle
 10
-115.4888158415588
 20
1494.055109506136
 30
0.0
 40
5.219443570911177
100
AcDbArc
 50
356.8520832607978
 51
43.84535767467505
  0
LINE
  5
487
330
38C
100
AcDbEntity
  8
0
100
AcDbLine
 10
-82.21909443915297
 20
1493.768489634043
 30
0.0
 11
-82.18012279165964
 21
1405.18593488107
 31
0.0
  0
LINE
  5
488
330
38C
100
AcDbEntity
  8
0
100
AcDbLine
 10
-110.2772479163707
 20
1493.768489634043
 30
0.0
 11
-110.316219563864
 21
1405.18593488107
 31
0.0
  0
LINE
  5
489
330
38C
100
AcDbEntity
  8
0
100
AcDbLine
 10
-80.70050930725824
 20
1403.979014666833
 30
0.0
 11
-77.54103688519581
 21
1403.96882282031
 31
0.0
  0
LINE
  5
48A
330
38C
100
AcDbEntity
  8
0
100
AcDbLine
 10
-111.7958330482654
 20
1403.979014666833
 30
0.0
 11
-114.9553054703276
 21
1403.96882282031
 31
0.0
  0
ARC
  5
48B
330
38C
100
AcDbEntity
  8
0
100
AcDbCircle
 10
-77.54552167176735
 20
1402.578538983209
 30
0.0
 40
1.390291070609366
100
AcDbArc
 50
355.2320534247967
 51
89.81517554587296
  0
ARC
  5
48C
330
38C
100
AcDbEntity
  8
0
100
AcDbCircle
 10
-114.9508206837563
 20
1402.578538983209
 30
0.0
 40
1.390291070609366
100
AcDbArc
 50
90.18482445412704
 51
184.7679465752033
  0
LINE
  5
48D
330
38C
100
AcDbEntity
  8
0
100
AcDbLine
 10
-116.3261088276417
 20
1399.441095002565
 30
0.0
 11
-116.3363006741647
 21
1402.462977496569
 31
0.0
  0
LINE
  5
48E
330
38C
100
AcDbEntity
  8
0
100
AcDbLine
 10
-76.17023352788192
 20
1399.441095002565
 30
0.0
 11
-76.16004168135896
 21
1402.462977496569
 31
0.0
  0
ARC
  5
48F
330
38C
100
AcDbEntity
  8
0
100
AcDbCircle
 10
-78.46305051412332
 20
1400.049657522948
 30
0.0
 40
1.117908037123068
100
AcDbArc
 50
270.0
 51
327.0179549126753
  0
ARC
  5
490
330
38C
100
AcDbEntity
  8
0
100
AcDbCircle
 10
-114.0332918414003
 20
1400.049657522948
 30
0.0
 40
1.117908037123068
100
AcDbArc
 50
212.9820450873247
 51
270.0
  0
LINE
  5
491
330
38C
100
AcDbEntity
  8
0
100
AcDbLine
 10
-78.46305051412332
 20
1398.931749485826
 30
0.0
 11
-114.0332918414003
 21
1398.931749485826
 31
0.0
  0
LINE
  5
492
330
38C
100
AcDbEntity
  8
0
100
AcDbLine
 10
-111.0136088276417
 20
1398.926406753164
 30
0.0
 11
-113.0741227241667
 21
1398.931749485826
 31
0.0
  0
LINE
  5
493
330
38C
100
AcDbEntity
  8
0
100
AcDbLine
 10
-81.48273352788192
 20
1398.926406753164
 30
0.0
 11
-79.42221963135694
 21
1398.931749485826
 31
0.0
  0
LINE
  5
494
330
38C
100
AcDbEntity
  8
0
100
AcDbLine
 10
-82.18012279165941
 20
1405.18593488107
 30
0.0
 11
-80.70050930725824
 21
1403.979014666833
 31
0.0
  0
LINE
  5
495
330
38C
100
AcDbEntity
  8
0
100
AcDbLine
 10
-110.316219563864
 20
1405.18593488107
 30
0.0
 11
-111.7958330482654
 21
1403.979014666833
 31
0.0
  0
LINE
  5
496
330
38C
100
AcDbEntity
  8
0
100
AcDbLine
 10
-110.309104526865
 20
472.6415860199559
 30
0.0
 11
-110.3144297610702
 21
484.7458433686188
 31
0.0
  0
LINE
  5
497
330
38C
100
AcDbEntity
  8
0
100
AcDbLine
 10
-110.3152437327483
 20
486.5960009930168
 30
0.0
 11
-110.316219563864
 21
488.8140651189296
 31
0.0
  0
LINE
  5
498
330
38C
100
AcDbEntity
  8
0
100
AcDbLine
 10
-82.18035731552254
 20
488.2809923783243
 30
0.0
 11
-82.18012279165964
 21
488.8140651189296
 31
0.0
  0
LINE
  5
499
330
38C
100
AcDbEntity
  8
0
100
AcDbLine
 10
-111.7958330482654
 20
490.0209853331671
 30
0.0
 11
-114.9553054703276
 21
490.0311771796914
 31
0.0
  0
LINE
  5
49A
330
38C
100
AcDbEntity
  8
0
100
AcDbLine
 10
-80.70050930725824
 20
490.0209853331671
 30
0.0
 11
-77.54103688519581
 21
490.0311771796914
 31
0.0
  0
ARC
  5
49B
330
38C
100
AcDbEntity
  8
0
100
AcDbCircle
 10
-114.9508206837563
 20
491.4214610167928
 30
0.0
 40
1.390291070609366
100
AcDbArc
 50
175.2320534247967
 51
269.8151755458729
  0
ARC
  5
49C
330
38C
100
AcDbEntity
  8
0
100
AcDbCircle
 10
-77.54552167176735
 20
491.4214610167928
 30
0.0
 40
1.390291070609366
100
AcDbArc
 50
270.1848244541271
 51
4.767946575203282
  0
LINE
  5
49D
330
38C
100
AcDbEntity
  8
0
100
AcDbLine
 10
-76.17023352788192
 20
494.5589049974369
 30
0.0
 11
-76.16004168135896
 21
491.5370225034312
 31
0.0
  0
LINE
  5
49E
330
38C
100
AcDbEntity
  8
0
100
AcDbLine
 10
-116.3261088276417
 20
494.5589049974369
 30
0.0
 11
-116.3363006741647
 21
491.5370225034312
 31
0.0
  0
ARC
  5
49F
330
38C
100
AcDbEntity
  8
0
100
AcDbCircle
 10
-114.0332918414003
 20
493.9503424770519
 30
0.0
 40
1.117908037123067
100
AcDbArc
 50
90.0
 51
147.0179549126753
  0
ARC
  5
4A0
330
38C
100
AcDbEntity
  8
0
100
AcDbCircle
 10
-78.46305051412332
 20
493.9503424770519
 30
0.0
 40
1.117908037123068
100
AcDbArc
 50
32.98204508732469
 51
90.0
  0
LINE
  5
4A1
330
38C
100
AcDbEntity
  8
0
100
AcDbLine
 10
-114.0332918414003
 20
495.0682505141758
 30
0.0
 11
-78.46305051412332
 21
495.0682505141758
 31
0.0
  0
LINE
  5
4A2
330
38C
100
AcDbEntity
  8
0
100
AcDbLine
 10
-81.48273352788192
 20
495.073593246836
 30
0.0
 11
-79.42221963137877
 21
495.0682505141758
 31
0.0
  0
LINE
  5
4A3
330
38C
100
AcDbEntity
  8
0
100
AcDbLine
 10
-111.0136088276417
 20
495.073593246836
 30
0.0
 11
-113.0741227241449
 21
495.0682505141758
 31
0.0
  0
LINE
  5
4A4
330
38C
100
AcDbEntity
  8
0
100
AcDbLine
 10
-110.316219563864
 20
488.8140651189296
 30
0.0
 11
-111.7958330482654
 21
490.0209853331671
 31
0.0
  0
LINE
  5
4A5
330
38C
100
AcDbEntity
  8
0
100
AcDbLine
 10
-82.18012279165941
 20
488.8140651189296
 30
0.0
 11
-80.70050930725824
 21
490.0209853331671
 31
0.0
  0
ARC
  5
4A6
330
38C
100
AcDbEntity
  8
0
100
AcDbCircle
 10
-51.93376997094811
 20
475.1004924318313
 30
0.0
 40
0.4167931809033277
100
AcDbArc
 50
277.1254026714777
 51
357.0146586346475
  0
ARC
  5
4A7
330
38C
100
AcDbEntity
  8
0
100
AcDbCircle
 10
-48.30823148602531
 20
371.5332232587771
 30
0.0
 40
0.4167931809033277
100
AcDbArc
 50
6.995165382888333
 51
86.8844213461032
  0
LINE
  5
4A8
330
38C
100
AcDbEntity
  8
0
100
AcDbLine
 10
-51.51754242349784
 20
475.0787856496954
 30
0.0
 11
-51.39603311439419
 21
477.4087266517581
 31
0.0
  0
LINE
  5
4A9
330
38C
100
AcDbEntity
  8
0
100
AcDbLine
 10
-47.8945407337394
 20
371.5839826630308
 30
0.0
 11
-47.61040188244465
 21
369.2682420258971
 31
0.0
  0
LINE
  5
4AA
330
38C
100
AcDbEntity
  8
0
100
AcDbLine
 10
-51.39603311439396
 20
477.4087266517581
 30
0.0
 11
-49.76173290694987
 21
477.4755567717639
 31
0.0
  0
LINE
  5
4AB
330
38C
100
AcDbEntity
  8
0
100
AcDbLine
 10
-47.61040188244465
 20
369.2682420258952
 30
0.0
 11
-45.97542905493492
 21
369.3158580557265
 31
0.0
  0
LINE
  5
4AC
330
38C
100
AcDbEntity
  8
0
100
AcDbLine
 10
-45.86335502114048
 20
372.0286845630599
 30
0.0
 11
-45.97542905493469
 21
369.3158580557265
 31
0.0
  0
LINE
  5
4AD
330
38C
100
AcDbEntity
  8
0
100
AcDbLine
 10
-49.46023200163199
 20
474.7772081189705
 30
0.0
 11
-49.76173290694987
 21
477.4755567717639
 31
0.0
  0
LINE
  5
4AE
330
38C
100
AcDbEntity
  8
0
100
AcDbLine
 10
-45.40542274456061
 20
372.0447152173929
 30
0.0
 11
-45.86335502114002
 21
372.0286845630599
 31
0.0
  0
LINE
  5
4AF
330
38C
100
AcDbEntity
  8
0
100
AcDbLine
 10
-49.00229972505213
 20
474.7932387733017
 30
0.0
 11
-49.46023200163199
 21
474.7772081189705
 31
0.0
  0
LINE
  5
4B0
330
38C
100
AcDbEntity
  8
0
100
AcDbLine
 10
-42.79990532515512
 20
372.1481848146141
 30
0.0
 11
-45.40542274456061
 21
372.0447152173929
 31
0.0
  0
LINE
  5
4B1
330
38C
100
AcDbEntity
  8
0
100
AcDbLine
 10
-46.39592504477878
 20
474.8722198242194
 30
0.0
 11
-49.00229972505213
 21
474.7932387733017
 31
0.0
  0
LINE
  5
4B2
330
38C
100
AcDbEntity
  8
0
100
AcDbLine
 10
-46.39592504477878
 20
474.8722198242194
 30
0.0
 11
-45.97671792837127
 21
475.2823137424439
 31
0.0
  0
LINE
  5
4B3
330
38C
100
AcDbEntity
  8
0
100
AcDbLine
 10
-42.79990532515512
 20
372.1481848146141
 30
0.0
 11
-42.35304754707477
 21
371.7684088880724
 31
0.0
  0
LINE
  5
4B4
330
38C
100
AcDbEntity
  8
0
100
AcDbLine
 10
-45.97671792837127
 20
475.2823137424439
 30
0.0
 11
-46.06784991019867
 21
478.0344995936412
 31
0.0
  0
LINE
  5
4B5
330
38C
100
AcDbEntity
  8
0
100
AcDbLine
 10
-42.35304754707477
 20
371.7684088880724
 30
0.0
 11
-42.25150292313538
 21
369.0165875481252
 31
0.0
  0
ARC
  5
4B6
330
38C
100
AcDbEntity
  8
0
100
AcDbCircle
 10
-45.59567057746017
 20
478.0364914212314
 30
0.0
 40
0.472183533853322
100
AcDbArc
 50
92.00491200879682
 51
180.241693419432
  0
ARC
  5
4B7
330
38C
100
AcDbEntity
  8
0
100
AcDbCircle
 10
-41.78034016641004
 20
369.0476189244582
 30
0.0
 40
0.4721835338533221
100
AcDbArc
 50
183.7681305980771
 51
272.0049120087708
  0
LINE
  5
4B8
330
38C
100
AcDbEntity
  8
0
100
AcDbLine
 10
-32.56556604366438
 20
368.8977241156699
 30
0.0
 11
-41.76382074281059
 21
368.575724446544
 31
0.0
  0
LINE
  5
4B9
330
38C
100
AcDbEntity
  8
0
100
AcDbLine
 10
-36.41393530191317
 20
478.8303855682716
 30
0.0
 11
-45.61219000105984
 21
478.5083858991457
 31
0.0
  0
ARC
  5
4BA
330
38C
100
AcDbEntity
  8
0
100
AcDbCircle
 10
-36.37582956389542
 20
478.3774712645973
 30
0.0
 40
0.4545144813341361
100
AcDbArc
 50
37.0243796008975
 51
94.80922800571776
  0
ARC
  5
4BB
330
38C
100
AcDbEntity
  8
0
100
AcDbCircle
 10
-32.55922475807529
 20
369.3521943587421
 30
0.0
 40
0.4545144813341361
100
AcDbArc
 50
269.200596011756
 51
326.9854444165759
  0
LINE
  5
4BC
330
38C
100
AcDbEntity
  8
0
100
AcDbLine
 10
-28.86322340458332
 20
374.2061752940772
 30
0.0
 11
-32.17809973955127
 21
369.104551200151
 31
0.0
  0
LINE
  5
4BD
330
38C
100
AcDbEntity
  8
0
100
AcDbLine
 10
-32.34944891239638
 20
473.7938247059246
 30
0.0
 11
-36.0129545818711
 21
478.6511593373434
 31
0.0
  0
LINE
  5
4BE
330
38C
100
AcDbEntity
  8
0
100
AcDbLine
 10
-48.28557864664185
 20
371.9494003899545
 30
0.0
 11
-135.4955498658869
 21
368.8964753736927
 31
0.0
  0
LINE
  5
4BF
330
38C
100
AcDbEntity
  8
0
100
AcDbLine
 10
-51.88207035080859
 20
474.6869181278362
 30
0.0
 11
-78.6284534002391
 21
473.7506180607161
 31
0.0
  0
LINE
  5
4C0
330
38C
100
AcDbEntity
  8
0
100
AcDbLine
 10
-97.26758379723833
 20
473.098125384995
 30
0.0
 11
-113.2009705653206
 21
472.5403516077768
 31
0.0
  0
LINE
  5
4C1
330
38C
100
AcDbEntity
  8
0
100
AcDbLine
 10
-125.5027555081224
 20
472.1097078812454
 30
0.0
 11
-135.4955498658869
 21
471.7598940761181
 31
0.0
  0
LINE
  5
4C2
330
38C
100
AcDbEntity
  8
0
100
AcDbLine
 10
-75.67966853875896
 20
486.8135471763817
 30
0.0
 11
-78.6284534002391
 21
473.7506180607161
 31
0.0
  0
LINE
  5
4C3
330
38C
100
AcDbEntity
  8
0
100
AcDbLine
 10
-93.27490439622443
 20
490.7854408206967
 30
0.0
 11
-97.26758379723856
 21
473.098125384995
 31
0.0
  0
LINE
  5
4C4
330
38C
100
AcDbEntity
  8
0
100
AcDbLine
 10
-103.6146587016899
 20
485.0820395216542
 30
0.0
 11
-103.9852620944555
 21
483.3171168069239
 31
0.0
  0
LINE
  5
4C5
330
38C
100
AcDbEntity
  8
0
100
AcDbLine
 10
-128.0827864184716
 20
490.6053983304755
 30
0.0
 11
-128.5063030141955
 21
488.852420077088
 31
0.0
  0
LINE
  5
4C6
330
38C
100
AcDbEntity
  8
0
100
AcDbLine
 10
-115.8481765597273
 20
487.8461376728537
 30
0.0
 11
-103.6146587016897
 21
485.0820395216542
 31
0.0
  0
LINE
  5
4C7
330
38C
100
AcDbEntity
  8
0
100
AcDbLine
 10
-115.8481765597273
 20
487.8461376728537
 30
0.0
 11
-128.0827864184716
 21
490.6053983304755
 31
0.0
  0
LINE
  5
4C8
330
38C
100
AcDbEntity
  8
0
100
AcDbLine
 10
-125.5027555081224
 20
472.1097078812454
 30
0.0
 11
-122.0521909791319
 21
487.3954889634933
 31
0.0
  0
LINE
  5
4C9
330
38C
100
AcDbEntity
  8
0
100
AcDbLine
 10
-113.2009705653206
 20
472.5403516077768
 30
0.0
 11
-110.4393741295185
 21
484.7740479205186
 31
0.0
  0
LINE
  5
4CA
330
38C
100
AcDbEntity
  8
0
100
AcDbLine
 10
-71.81818713272992
 20
1384.063583590063
 30
0.0
 11
-71.7744447064797
 21
1368.405161943319
 31
0.0
  0
LINE
  5
4CB
330
38C
100
AcDbEntity
  8
0
100
AcDbLine
 10
-71.61574279776073
 20
1311.594838056679
 30
0.0
 11
-71.55843433197674
 21
1291.080198195514
 31
0.0
  0
LINE
  5
4CC
330
38C
100
AcDbEntity
  8
0
100
AcDbLine
 10
-120.6781552227937
 20
1384.063583590063
 30
0.0
 11
-120.721897649044
 21
1368.405161943319
 31
0.0
  0
LINE
  5
4CD
330
38C
100
AcDbEntity
  8
0
100
AcDbLine
 10
-120.8805995577629
 20
1311.594838056679
 30
0.0
 11
-120.9379080235469
 21
1291.080198195514
 31
0.0
  0
ARC
  5
4CE
330
38C
100
AcDbEntity
  8
0
100
AcDbCircle
 10
-110.3411156929963
 20
1290.085744375554
 30
0.0
 40
10.64335220204859
100
AcDbArc
 50
174.6387908857582
 51
241.3040801306791
  0
ARC
  5
4CF
330
38C
100
AcDbEntity
  8
0
100
AcDbCircle
 10
-82.15522666252741
 20
1290.085744375554
 30
0.0
 40
10.64335220204859
100
AcDbArc
 50
298.695919869321
 51
5.361209114241813
  0
ARC
  5
4D0
330
38C
100
AcDbEntity
  8
0
100
AcDbCircle
 10
-96.55136981571445
 20
1316.385283796604
 30
0.0
 40
40.62525860318315
100
AcDbArc
 50
270.4276197662052
 51
298.695919869321
  0
ARC
  5
4D1
330
38C
100
AcDbEntity
  8
0
100
AcDbCircle
 10
-95.94497253980921
 20
1316.385283796604
 30
0.0
 40
40.62525860318315
100
AcDbArc
 50
241.3040801306791
 51
269.5723802337949
  0
ARC
  5
4D2
330
38C
100
AcDbEntity
  8
0
100
AcDbCircle
 10
-119.1325320091321
 20
1383.594628733257
 30
0.0
 40
1.615199608820222
100
AcDbArc
 50
90.0
 51
163.1217690457714
  0
ARC
  5
4D3
330
38C
100
AcDbEntity
  8
0
100
AcDbCircle
 10
-73.36381034639157
 20
1383.594628733257
 30
0.0
 40
1.615199608820222
100
AcDbArc
 50
16.8782309542286
 51
90.0
  0
ARC
  5
4D4
330
38C
100
AcDbEntity
  8
0
100
AcDbCircle
 10
-28.93261250204591
 20
1372.79674093438
 30
0.0
 40
4.393875516815148
100
AcDbArc
 50
271.8525431553059
 51
344.3978207872798
  0
ARC
  5
4D5
330
38C
100
AcDbEntity
  8
0
100
AcDbCircle
 10
-28.93261250204591
 20
1307.20325906562
 30
0.0
 40
4.393875516815147
100
AcDbArc
 50
15.60217921272022
 51
88.14745684469412
  0
ARC
  5
4D6
330
38C
100
AcDbEntity
  8
0
100
AcDbCircle
 10
-21.42661847391582
 20
1370.700722001146
 30
0.0
 40
3.399277998855041
100
AcDbArc
 50
90.0
 51
164.3978207872798
  0
ARC
  5
4D7
330
38C
100
AcDbEntity
  8
0
100
AcDbCircle
 10
-21.42661847391582
 20
1309.299277998854
 30
0.0
 40
3.399277998855041
100
AcDbArc
 50
195.6021792127202
 51
270.0
  0
LINE
  5
4D8
330
38C
100
AcDbEntity
  8
0
100
AcDbLine
 10
-21.42661847391582
 20
1374.1
 30
0.0
 11
0.0
 21
1374.1
 31
0.0
  0
LINE
  5
4D9
330
38C
100
AcDbEntity
  8
0
100
AcDbLine
 10
-21.42661847391582
 20
1305.9
 30
0.0
 11
0.0
 21
1305.9
 31
0.0
  0
LINE
  5
4DA
330
38C
100
AcDbEntity
  8
0
100
AcDbLine
 10
-142.0
 20
1368.405161943319
 30
0.0
 11
-118.5856573252931
 21
1368.405161943319
 31
0.0
  0
LINE
  5
4DB
330
38C
100
AcDbEntity
  8
0
100
AcDbLine
 10
-73.91068503023052
 20
1368.405161943319
 30
0.0
 11
-28.79057017543846
 21
1368.405161943319
 31
0.0
  0
LINE
  5
4DC
330
38C
100
AcDbEntity
  8
0
100
AcDbLine
 10
-135.4955498658869
 20
1311.594838056679
 30
0.0
 11
-118.7594245390451
 21
1311.594838056679
 31
0.0
  0
LINE
  5
4DD
330
38C
100
AcDbEntity
  8
0
100
AcDbLine
 10
-73.73691781647858
 20
1311.594838056679
 30
0.0
 11
-28.79057017543846
 21
1311.594838056679
 31
0.0
  0
LINE
  5
4DE
330
38C
100
AcDbEntity
  8
0
100
AcDbLine
 10
-80.18220987012114
 20
1398.63925311761
 30
0.0
 11
-78.97622312830481
 21
1397.34455010973
 31
0.0
  0
LINE
  5
4DF
330
38C
100
AcDbEntity
  8
0
100
AcDbLine
 10
-112.3141324854025
 20
1398.63925311761
 30
0.0
 11
-113.5201192272186
 21
1397.34455010973
 31
0.0
  0
LINE
  5
4E0
330
38C
100
AcDbEntity
  8
0
100
AcDbLine
 10
-113.5201192272186
 20
1386.027681419861
 30
0.0
 11
-113.5201192272186
 21
1397.34455010973
 31
0.0
  0
LINE
  5
4E1
330
38C
100
AcDbEntity
  8
0
100
AcDbLine
 10
-78.97622312830504
 20
1386.027681419861
 30
0.0
 11
-78.97622312830504
 21
1397.34455010973
 31
0.0
  0
LINE
  5
4E2
330
38C
100
AcDbEntity
  8
0
100
AcDbLine
 10
-112.7105832994143
 20
1385.209828342113
 30
0.0
 11
-113.5201192272186
 21
1386.027681419861
 31
0.0
  0
LINE
  5
4E3
330
38C
100
AcDbEntity
  8
0
100
AcDbLine
 10
-79.78575905614434
 20
1385.209828342078
 30
0.0
 11
-78.97622312830481
 21
1386.027681419861
 31
0.0
  0
LINE
  5
4E4
330
38C
100
AcDbEntity
  8
0
100
AcDbLine
 10
-120.6781552227937
 20
509.936416409937
 30
0.0
 11
-120.721897649044
 21
525.5948380566806
 31
0.0
  0
LINE
  5
4E5
330
38C
100
AcDbEntity
  8
0
100
AcDbLine
 10
-120.8805995577629
 20
582.4051619433212
 30
0.0
 11
-120.9379080235469
 21
602.9198018044881
 31
0.0
  0
LINE
  5
4E6
330
38C
100
AcDbEntity
  8
0
100
AcDbLine
 10
-71.81818713272992
 20
509.936416409937
 30
0.0
 11
-71.7744447064797
 21
525.5948380566806
 31
0.0
  0
LINE
  5
4E7
330
38C
100
AcDbEntity
  8
0
100
AcDbLine
 10
-71.61574279776073
 20
582.4051619433212
 30
0.0
 11
-71.55843433197674
 21
602.9198018044881
 31
0.0
  0
ARC
  5
4E8
330
38C
100
AcDbEntity
  8
0
100
AcDbCircle
 10
-82.15522666252741
 20
603.914255624446
 30
0.0
 40
10.64335220204859
100
AcDbArc
 50
354.6387908857582
 51
61.30408013067909
  0
ARC
  5
4E9
330
38C
100
AcDbEntity
  8
0
100
AcDbCircle
 10
-110.3411156929963
 20
603.914255624446
 30
0.0
 40
10.64335220204859
100
AcDbArc
 50
118.6959198693209
 51
185.3612091142418
  0
ARC
  5
4EA
330
38C
100
AcDbEntity
  8
0
100
AcDbCircle
 10
-95.94497253980921
 20
577.6147162033976
 30
0.0
 40
40.62525860318315
100
AcDbArc
 50
90.42761976620511
 51
118.6959198693209
  0
ARC
  5
4EB
330
38C
100
AcDbEntity
  8
0
100
AcDbCircle
 10
-96.55136981571445
 20
577.6147162033976
 30
0.0
 40
40.62525860318315
100
AcDbArc
 50
61.30408013067909
 51
89.57238023379487
  0
ARC
  5
4EC
330
38C
100
AcDbEntity
  8
0
100
AcDbCircle
 10
-73.36381034639157
 20
510.4053712667428
 30
0.0
 40
1.615199608820222
100
AcDbArc
 50
270.0
 51
343.1217690457714
  0
ARC
  5
4ED
330
38C
100
AcDbEntity
  8
0
100
AcDbCircle
 10
-119.1325320091321
 20
510.4053712667428
 30
0.0
 40
1.615199608820222
100
AcDbArc
 50
196.8782309542286
 51
270.0
  0
ARC
  5
4EE
330
38C
100
AcDbEntity
  8
0
100
AcDbCircle
 10
-28.93261250204591
 20
586.7967409343801
 30
0.0
 40
4.393875516815147
100
AcDbArc
 50
271.8525431553059
 51
344.3978207872798
  0
ARC
  5
4EF
330
38C
100
AcDbEntity
  8
0
100
AcDbCircle
 10
-28.93261250204591
 20
521.2032590656199
 30
0.0
 40
4.393875516815147
100
AcDbArc
 50
15.60217921272022
 51
88.14745684469412
  0
ARC
  5
4F0
330
38C
100
AcDbEntity
  8
0
100
AcDbCircle
 10
-21.42661847391582
 20
584.7007220011456
 30
0.0
 40
3.399277998855041
100
AcDbArc
 50
90.0
 51
164.3978207872798
  0
ARC
  5
4F1
330
38C
100
AcDbEntity
  8
0
100
AcDbCircle
 10
-21.42661847391582
 20
523.2992779988563
 30
0.0
 40
3.399277998855041
100
AcDbArc
 50
195.6021792127202
 51
270.0
  0
LINE
  5
4F2
330
38C
100
AcDbEntity
  8
0
100
AcDbLine
 10
0.0
 20
519.8999999999996
 30
0.0
 11
-21.42661847391582
 21
519.8999999999996
 31
0.0
  0
LINE
  5
4F3
330
38C
100
AcDbEntity
  8
0
100
AcDbLine
 10
0.0
 20
588.1000000000004
 30
0.0
 11
-21.42661847391582
 21
588.1000000000004
 31
0.0
  0
LINE
  5
4F4
330
38C
100
AcDbEntity
  8
0
100
AcDbLine
 10
-28.79057017543846
 20
525.5948380566806
 30
0.0
 11
-73.91068503023098
 21
525.5948380566806
 31
0.0
  0
LINE
  5
4F5
330
38C
100
AcDbEntity
  8
0
100
AcDbLine
 10
-118.5856573252929
 20
525.5948380566806
 30
0.0
 11
-135.4955498658869
 21
525.5948380566806
 31
0.0
  0
LINE
  5
4F6
330
38C
100
AcDbEntity
  8
0
100
AcDbLine
 10
-28.79057017543846
 20
582.4051619433212
 30
0.0
 11
-73.73691781647881
 21
582.4051619433212
 31
0.0
  0
LINE
  5
4F7
330
38C
100
AcDbEntity
  8
0
100
AcDbLine
 10
-118.7594245390451
 20
582.4051619433212
 30
0.0
 11
-135.4955498658869
 21
582.4051619433212
 31
0.0
  0
LINE
  5
4F8
330
38C
100
AcDbEntity
  8
0
100
AcDbLine
 10
-112.3141324854025
 20
495.3607468823902
 30
0.0
 11
-113.5201192272186
 21
496.6554498902715
 31
0.0
  0
LINE
  5
4F9
330
38C
100
AcDbEntity
  8
0
100
AcDbLine
 10
-80.18220987012114
 20
495.3607468823902
 30
0.0
 11
-78.97622312830481
 21
496.6554498902715
 31
0.0
  0
LINE
  5
4FA
330
38C
100
AcDbEntity
  8
0
100
AcDbLine
 10
-113.5201192272186
 20
496.6554498902715
 30
0.0
 11
-113.5201192272186
 21
507.9723185801395
 31
0.0
  0
LINE
  5
4FB
330
38C
100
AcDbEntity
  8
0
100
AcDbLine
 10
-78.97622312830504
 20
496.6554498902715
 30
0.0
 11
-78.97622312830504
 21
507.9723185801395
 31
0.0
  0
LINE
  5
4FC
330
38C
100
AcDbEntity
  8
0
100
AcDbLine
 10
-79.78575905614434
 20
508.7901716579236
 30
0.0
 11
-78.97622312830481
 21
507.9723185801395
 31
0.0
  0
LINE
  5
4FD
330
38C
100
AcDbEntity
  8
0
100
AcDbLine
 10
-112.7105832994143
 20
508.7901716578872
 30
0.0
 11
-113.5201192272186
 21
507.9723185801395
 31
0.0
  0
ARC
  5
4FE
330
38C
100
AcDbEntity
  8
0
100
AcDbCircle
 10
-308.0
 20
1497.135194278415
 30
0.0
 40
63.60095098756415
100
AcDbArc
 50
334.7450030596038
 51
0.0
  0
ARC
  5
4FF
330
38C
100
AcDbEntity
  8
0
  6
MITTE
 62
     1
100
AcDbCircle
 10
-308.0
 20
1497.135194278415
 30
0.0
 40
49.99999999999999
100
AcDbArc
 50
324.3590548645921
 51
0.0
  0
ARC
  5
500
330
38C
100
AcDbEntity
  8
0
100
AcDbCircle
 10
-308.0
 20
1497.135194278415
 30
0.0
 40
36.39904901243585
100
AcDbArc
 50
311.7986377285
 51
0.0
  0
LINE
  5
501
330
38C
100
AcDbEntity
  8
0
  6
MITTE
 62
     1
100
AcDbLine
 10
-258.0
 20
1609.0
 30
0.0
 11
-258.0
 21
1497.135194278415
 31
0.0
  0
LINE
  5
502
330
38C
100
AcDbEntity
  8
0
100
AcDbLine
 10
-244.3990490124359
 20
1609.0
 30
0.0
 11
-244.3990490124359
 21
1497.135194278415
 31
0.0
  0
LINE
  5
503
330
38C
100
AcDbEntity
  8
0
100
AcDbLine
 10
-271.6009509875641
 20
1609.0
 30
0.0
 11
-271.6009509875641
 21
1497.135194278415
 31
0.0
  0
IMAGE
  5
504
330
38C
100
AcDbEntity
  8
0
 62
   251
370
     0
 92
      140
310
8C00000001000000840000000600000005000000D0F0BE8B3A9C76C0C0D3FF02D37095400000000000000000A4DF701FA91867C0C0D3FF02D37095400000000000000000A4DF701FA91867C018C68ACEEC3996400000000000000000D0F0BE8B3A9C76C018C68ACEEC3996400000000000000000D0F0BE8B3A9C76C0C0D3FF
310
02D37095400000000000000000
100
AcDbRasterImage
 90
        0
 10
-361.7642934282894
 20
1372.206066129016
 30
0.0
 11
0.6704304869442483
 21
0.0
 31
0.0
 12
2.462774045702763E-17
 22
0.4022015241320914
 32
0.0
 13
264.0
 23
125.0
340
50B
 70
    15
280
     0
281
    50
282
    50
283
     0
360
505
 71
     1
 91
        2
 14
-0.5
 24
-0.5
 14
263.5
 24
124.5
  0
ENDBLK
  5
509
330
38C
100
AcDbEntity
  8
0
100
AcDbBlockEnd
  0
ENDSEC
  0
SECTION
  2
ENTITIES
  0
ATTDEF
  5
1C0
330
2
100
AcDbEntity
  8
0
100
AcDbText
 10
5162.923818224175
 20
9537.109400126703
 30
0.0
 40
2.5
  1

100
AcDbAttributeDefinition
  3

  2
REG
 70
     0
1001
AcDbAttr
1070
     0
1070
     1
  0
LINE
  5
1C1
330
2
100
AcDbEntity
  8
0
  6
MITTE
 62
     1
100
AcDbLine
 10
5868.317482065686
 20
8491.109400126703
 30
0.0
 11
5763.428268358289
 21
8487.437584851608
 31
0.0
  0
LINE
  5
1C3
330
2
100
AcDbEntity
  8
0
  6
MITTE
 62
     1
100
AcDbLine
 10
5802.675647046413
 20
8440.263722243259
 30
0.0
 11
5802.675647046413
 21
8685.348243485785
 31
0.0
  0
LINE
  5
1C4
330
2
100
AcDbEntity
  8
0
  6
MITTE
 62
     1
100
AcDbLine
 10
5898.923818224175
 20
8621.109400126703
 30
0.0
 11
5761.428268358289
 21
8621.109400126703
 31
0.0
  0
LINE
  5
1C5
330
2
100
AcDbEntity
  8
0
  6
MITTE
 62
     1
100
AcDbLine
 10
5898.923818224175
 20
9407.109400126703
 30
0.0
 11
5756.923818224174
 21
9407.109400126703
 31
0.0
  0
LINE
  5
1C6
330
2
100
AcDbEntity
  8
0
  6
MITTE
 62
     1
100
AcDbLine
 10
5802.675647046413
 20
9587.955078010145
 30
0.0
 11
5802.675647046413
 21
9342.870556767619
 31
0.0
  0
LINE
  5
1C7
330
2
100
AcDbEntity
  8
0
  6
MITTE
 62
     1
100
AcDbLine
 10
5640.923818224175
 20
9676.109400126703
 30
0.0
 11
5640.923818224175
 21
9564.244594405118
 31
0.0
  0
ARC
  5
1C8
330
2
100
AcDbEntity
  8
0
100
AcDbCircle
 10
5777.578974289129
 20
8591.167193948242
 30
0.0
 40
52.11421937926037
100
AcDbArc
 50
265.4238159848147
 51
267.4189998037839
  0
ARC
  5
1C9
330
2
100
AcDbEntity
  8
0
100
AcDbCircle
 10
5777.60638339719
 20
8594.75471990277
 30
0.0
 40
55.69950187334909
100
AcDbArc
 50
267.5570162672553
 51
278.3789051884344
  0
ARC
  5
1CA
330
2
100
AcDbEntity
  8
0
100
AcDbCircle
 10
5807.759536771514
 20
8603.886709745268
 30
0.0
 40
64.26127009084155
100
AcDbArc
 50
278.0303775939603
 51
281.2491601776753
  0
ARC
  5
1CB
330
2
100
AcDbEntity
  8
0
100
AcDbCircle
 10
5783.118519033452
 20
8594.48212552661
 30
0.0
 40
4.921830055898108
100
AcDbArc
 50
174.7036797036765
 51
179.5275962105837
  0
ARC
  5
1CC
330
2
100
AcDbEntity
  8
0
100
AcDbCircle
 10
5785.187762140104
 20
8594.193608881238
 30
0.0
 40
7.009532058558518
100
AcDbArc
 50
166.1993614755341
 51
173.9166642242713
  0
ARC
  5
1CD
330
2
100
AcDbEntity
  8
0
100
AcDbCircle
 10
5794.004475525054
 20
8591.946676662505
 30
0.0
 40
16.10790724229135
100
AcDbArc
 50
159.8939625030218
 51
165.9187474975338
  0
ARC
  5
1CE
330
2
100
AcDbEntity
  8
0
100
AcDbCircle
 10
5819.767726272867
 20
8582.40003452801
 30
0.0
 40
43.5829707243882
100
AcDbArc
 50
155.9424860676772
 51
159.7513101591414
  0
ARC
  5
1CF
330
2
100
AcDbEntity
  8
0
100
AcDbCircle
 10
6264.657014728445
 20
8384.325205489076
 30
0.0
 40
530.5738300402094
100
AcDbArc
 50
155.4199772851671
 51
155.9955364623877
  0
ARC
  5
1D0
330
2
100
AcDbEntity
  8
0
100
AcDbCircle
 10
5696.480230535028
 20
8643.504338646688
 30
0.0
 40
93.92681481646727
100
AcDbArc
 50
335.8154535683095
 51
338.1421138791061
  0
ARC
  5
1D1
330
2
100
AcDbEntity
  8
0
100
AcDbCircle
 10
5734.481285917225
 20
8628.241923666037
 30
0.0
 40
52.97536799098089
100
AcDbArc
 50
338.1607089855577
 51
341.5342908876532
  0
ARC
  5
1D2
330
2
100
AcDbEntity
  8
0
100
AcDbCircle
 10
5750.495577664337
 20
8622.999750253703
 30
0.0
 40
36.12534591645873
100
AcDbArc
 50
341.3756123583821
 51
348.3407334635673
  0
ARC
  5
1D3
330
2
100
AcDbEntity
  8
0
100
AcDbCircle
 10
5760.637279218393
 20
8620.986768725656
 30
0.0
 40
25.78621347347752
100
AcDbArc
 50
348.1671979171624
 51
7.536970202888303
  0
ARC
  5
1D4
330
2
100
AcDbEntity
  8
0
100
AcDbCircle
 10
5755.437460549416
 20
8620.19267118263
 30
0.0
 40
31.04544470855962
100
AcDbArc
 50
7.731118277214024
 51
15.90526907532012
  0
ARC
  5
1D5
330
2
100
AcDbEntity
  8
0
100
AcDbCircle
 10
5741.151994597257
 20
8616.108158792058
 30
0.0
 40
45.90336045508163
100
AcDbArc
 50
15.92179854717833
 51
21.26578750249328
  0
ARC
  5
1D6
330
2
100
AcDbEntity
  8
0
100
AcDbCircle
 10
5700.028657414403
 20
8599.93917010488
 30
0.0
 40
90.09106419646692
100
AcDbArc
 50
21.36295672857781
 51
24.4329141946729
  0
ARC
  5
1D7
330
2
100
AcDbEntity
  8
0
100
AcDbCircle
 10
6233.906371395073
 20
8845.836008903718
 30
0.0
 40
497.6949104579106
100
AcDbArc
 50
204.170146720829
 51
204.7839623043739
  0
ARC
  5
1D8
330
2
100
AcDbEntity
  8
0
100
AcDbCircle
 10
5824.346347529598
 20
8661.982115066832
 30
0.0
 40
48.76100791401281
100
AcDbArc
 50
201.4880344630611
 51
204.1200208575283
  0
ARC
  5
1D9
330
2
100
AcDbEntity
  8
0
100
AcDbCircle
 10
5797.465775403503
 20
8651.518875219597
 30
0.0
 40
19.91634426824363
100
AcDbArc
 50
196.5405993897937
 51
201.8060876623962
  0
ARC
  5
1DA
330
2
100
AcDbEntity
  8
0
100
AcDbCircle
 10
5787.752881955413
 20
8648.632514145138
 30
0.0
 40
9.783655906364075
100
AcDbArc
 50
190.5955968349544
 51
196.5305896803624
  0
ARC
  5
1DB
330
2
100
AcDbEntity
  8
0
100
AcDbCircle
 10
5783.004903045032
 20
8647.764475687758
 30
0.0
 40
4.957060761640835
100
AcDbArc
 50
180.7903978413325
 51
190.8244601682349
  0
ARC
  5
1DC
330
2
100
AcDbEntity
  8
0
100
AcDbCircle
 10
5822.346391047923
 20
8647.764475687742
 30
0.0
 40
4.957060761512361
100
AcDbArc
 50
354.4208495522133
 51
359.2096021588152
  0
ARC
  5
1DD
330
2
100
AcDbEntity
  8
0
100
AcDbCircle
 10
5820.260603131842
 20
8648.065109403175
 30
0.0
 40
7.062854090724529
100
AcDbArc
 50
345.9788316829118
 51
353.638577474807
  0
ARC
  5
1DE
330
2
100
AcDbEntity
  8
0
100
AcDbCircle
 10
5811.393295866799
 20
8650.36097123607
 30
0.0
 40
16.2224062973777
100
AcDbArc
 50
339.7137192908084
 51
345.6995103701582
  0
ARC
  5
1DF
330
2
100
AcDbEntity
  8
0
100
AcDbCircle
 10
5785.613081272038
 20
8660.00536507658
 30
0.0
 40
43.74747634322207
100
AcDbArc
 50
335.7765804668199
 51
339.5724222542593
  0
ARC
  5
1E0
330
2
100
AcDbEntity
  8
0
100
AcDbCircle
 10
5371.444922697691
 20
8845.836008903747
 30
0.0
 40
497.6949104579815
100
AcDbArc
 50
335.2160376956263
 51
335.8298532791709
  0
ARC
  5
1E1
330
2
100
AcDbEntity
  8
0
100
AcDbCircle
 10
5911.305369582002
 20
8597.296450460737
 30
0.0
 40
96.63114650751501
100
AcDbArc
 50
155.6077425518473
 51
157.8697643139992
  0
ARC
  5
1E2
330
2
100
AcDbEntity
  8
0
100
AcDbCircle
 10
5869.796271799049
 20
8614.146852338265
 30
0.0
 40
51.83226503122594
100
AcDbArc
 50
157.8388229898688
 51
162.4796515950083
  0
ARC
  5
1E3
330
2
100
AcDbEntity
  8
0
100
AcDbCircle
 10
5852.416805276897
 20
8619.621357584321
 30
0.0
 40
33.61096260420392
100
AcDbArc
 50
162.4601344913254
 51
169.9925245832898
  0
ARC
  5
1E4
330
2
100
AcDbEntity
  8
0
100
AcDbCircle
 10
5844.463742895781
 20
8621.013401116277
 30
0.0
 40
25.53700313311307
100
AcDbArc
 50
169.9674116783016
 51
187.0399725185947
  0
ARC
  5
1E5
330
2
100
AcDbEntity
  8
0
100
AcDbCircle
 10
5849.472103510804
 20
8621.71575328863
 30
0.0
 40
30.59379987298781
100
AcDbArc
 50
187.195832972409
 51
195.4872094672787
  0
ARC
  5
1E6
330
2
100
AcDbEntity
  8
0
100
AcDbCircle
 10
5863.290752614217
 20
8625.562036860028
 30
0.0
 40
44.9377452829019
100
AcDbArc
 50
195.5085335595302
 51
200.9705940225595
  0
ARC
  5
1E7
330
2
100
AcDbEntity
  8
0
100
AcDbCircle
 10
5903.10900276469
 20
8640.985876660226
 30
0.0
 40
87.63875317618992
100
AcDbArc
 50
201.0697881255805
 51
204.225842353988
  0
ARC
  5
1E8
330
2
100
AcDbEntity
  8
0
100
AcDbCircle
 10
5340.694279561492
 20
8384.32520557804
 30
0.0
 40
530.5738298239556
100
AcDbArc
 50
24.00446353749515
 51
24.58002271495026
  0
ARC
  5
1E9
330
2
100
AcDbEntity
  8
0
100
AcDbCircle
 10
5780.959542159868
 20
8580.432638058459
 30
0.0
 40
48.60743485713611
100
AcDbArc
 50
21.31369249951566
 51
23.95319713775036
  0
ARC
  5
1EA
330
2
100
AcDbEntity
  8
0
100
AcDbCircle
 10
5807.853149004475
 20
8590.806538231272
 30
0.0
 40
19.78290094449487
100
AcDbArc
 50
16.33702360456715
 51
21.63445869300267
  0
ARC
  5
1EB
330
2
100
AcDbEntity
  8
0
100
AcDbCircle
 10
5817.516004266114
 20
8593.640690686274
 30
0.0
 40
9.712986041289074
100
AcDbArc
 50
10.3499524626292
 51
16.32707971191603
  0
ARC
  5
1EC
330
2
100
AcDbEntity
  8
0
100
AcDbCircle
 10
5822.232775059063
 20
8594.482125526565
 30
0.0
 40
4.921830056212216
100
AcDbArc
 50
0.4724037899155412
 51
10.57894684012629
  0
ARC
  5
1ED
330
2
100
AcDbEntity
  8
0
100
AcDbCircle
 10
5822.232775059303
 20
9433.73667472681
 30
0.0
 40
4.9218300559719
100
AcDbArc
 50
354.703679703586
 51
359.5275962104214
  0
ARC
  5
1EE
330
2
100
AcDbEntity
  8
0
100
AcDbCircle
 10
5820.163531952672
 20
9434.025191372177
 30
0.0
 40
7.009532058611033
100
AcDbArc
 50
346.199361475563
 51
353.9166642242423
  0
ARC
  5
1EF
330
2
100
AcDbEntity
  8
0
100
AcDbCircle
 10
5811.346818567798
 20
9436.272123590887
 30
0.0
 40
16.10790724226499
100
AcDbArc
 50
339.8939625030426
 51
345.9187474975636
  0
ARC
  5
1F0
330
2
100
AcDbEntity
  8
0
100
AcDbCircle
 10
5785.583567819937
 20
9445.81876572542
 30
0.0
 40
43.58297072441943
100
AcDbArc
 50
335.9424860676615
 51
339.7513101591234
  0
ARC
  5
1F1
330
2
100
AcDbEntity
  8
0
100
AcDbCircle
 10
5340.694279364679
 20
9643.893594764277
 30
0.0
 40
530.5738300399171
100
AcDbArc
 50
335.4199772851592
 51
335.9955364623798
  0
ARC
  5
1F2
330
2
100
AcDbEntity
  8
0
100
AcDbCircle
 10
5908.871063564854
 20
9384.71446160374
 30
0.0
 40
93.92681482412281
100
AcDbArc
 50
155.8154535684144
 51
158.1421138790223
  0
ARC
  5
1F3
330
2
100
AcDbEntity
  8
0
100
AcDbCircle
 10
5870.870008175556
 20
9399.976876587385
 30
0.0
 40
52.9753679909317
100
AcDbArc
 50
158.1607089855554
 51
161.5342908876541
  0
ARC
  5
1F4
330
2
100
AcDbEntity
  8
0
100
AcDbCircle
 10
5854.855716429432
 20
9405.219049999456
 30
0.0
 40
36.12534591742974
100
AcDbArc
 50
161.3756123584871
 51
168.3407334634844
  0
ARC
  5
1F5
330
2
100
AcDbEntity
  8
0
100
AcDbCircle
 10
5844.714014874447
 20
9407.232031527745
 30
0.0
 40
25.78621347349032
100
AcDbArc
 50
168.1671979171559
 51
187.5369702028723
  0
ARC
  5
1F6
330
2
100
AcDbEntity
  8
0
100
AcDbCircle
 10
5849.913833544154
 20
9408.02612907094
 30
0.0
 40
31.04544470931834
100
AcDbArc
 50
187.7311182773323
 51
195.9052690752422
  0
ARC
  5
1F7
330
2
100
AcDbEntity
  8
0
100
AcDbCircle
 10
5864.199299495572
 20
9412.110641461351
 30
0.0
 40
45.90336045508314
100
AcDbArc
 50
195.9217985471849
 51
201.265787502495
  0
ARC
  5
1F8
330
2
100
AcDbEntity
  8
0
100
AcDbCircle
 10
5905.322636677423
 20
9428.279630148088
 30
0.0
 40
90.09106419537466
100
AcDbArc
 50
201.3629567285502
 51
204.4329141946835
  0
ARC
  5
1F9
330
2
100
AcDbEntity
  8
0
100
AcDbCircle
 10
5371.444922697787
 20
9182.382791349703
 30
0.0
 40
497.6949104578757
100
AcDbArc
 50
24.17014672082902
 51
24.78396230437387
  0
ARC
  5
1FA
330
2
100
AcDbEntity
  8
0
100
AcDbCircle
 10
5781.004946563236
 20
9366.236685186539
 30
0.0
 40
48.76100791402105
100
AcDbArc
 50
21.48803446310324
 51
24.12002085756844
  0
ARC
  5
1FB
330
2
100
AcDbEntity
  8
0
100
AcDbCircle
 10
5807.885518690769
 20
9376.699925034334
 30
0.0
 40
19.91634426670808
100
AcDbArc
 50
16.54059938952259
 51
21.80608766254037
  0
ARC
  5
1FC
330
2
100
AcDbEntity
  8
0
100
AcDbCircle
 10
5817.598412137753
 20
9379.586286108346
 30
0.0
 40
9.783655906016797
100
AcDbArc
 50
10.59559683485806
 51
16.53058968047677
  0
ARC
  5
1FD
330
2
100
AcDbEntity
  8
0
100
AcDbCircle
 10
5822.346391047578
 20
9380.45432456562
 30
0.0
 40
4.957060761859469
100
AcDbArc
 50
0.7903978416130849
 51
10.82446016805219
  0
ARC
  5
1FE
330
2
100
AcDbEntity
  8
0
100
AcDbCircle
 10
5783.004903044932
 20
9380.45432456566
 30
0.0
 40
4.957060761539693
100
AcDbArc
 50
174.4208495522231
 51
179.2096021587775
  0
ARC
  5
1FF
330
2
100
AcDbEntity
  8
0
100
AcDbCircle
 10
5785.090690960822
 20
9380.153690850257
 30
0.0
 40
7.062854090558647
100
AcDbArc
 50
165.978831682819
 51
173.6385774748798
  0
ARC
  5
200
330
2
100
AcDbEntity
  8
0
100
AcDbCircle
 10
5793.957998225487
 20
9377.857829017506
 30
0.0
 40
16.2224062968102
100
AcDbArc
 50
159.7137192907182
 51
165.6995103702837
  0
ARC
  5
201
330
2
100
AcDbEntity
  8
0
100
AcDbCircle
 10
5819.738212820766
 20
9368.213435176833
 30
0.0
 40
43.74747634319594
100
AcDbArc
 50
155.7765804668175
 51
159.5724222542592
  0
ARC
  5
202
330
2
100
AcDbEntity
  8
0
100
AcDbCircle
 10
6233.906371424232
 20
9182.382791336491
 30
0.0
 40
497.6949104899171
100
AcDbArc
 50
155.2160376956541
 51
155.8298532791596
  0
ARC
  5
203
330
2
100
AcDbEntity
  8
0
100
AcDbCircle
 10
5694.04592451076
 20
9430.922349792721
 30
0.0
 40
96.63114650759638
100
AcDbArc
 50
335.6077425518349
 51
337.8697643139851
  0
ARC
  5
204
330
2
100
AcDbEntity
  8
0
100
AcDbCircle
 10
5735.555022294167
 20
9414.07194791498
 30
0.0
 40
51.83226503080686
100
AcDbArc
 50
337.8388229898733
 51
342.4796515950497
  0
ARC
  5
205
330
2
100
AcDbEntity
  8
0
100
AcDbCircle
 10
5752.934488815921
 20
9408.597442669086
 30
0.0
 40
33.6109626042123
100
AcDbArc
 50
342.4601344913266
 51
349.9925245832891
  0
ARC
  5
206
330
2
100
AcDbEntity
  8
0
100
AcDbCircle
 10
5760.887551197059
 20
9407.205399137129
 30
0.0
 40
25.53700313310021
100
AcDbArc
 50
349.9674116782962
 51
7.039972518594194
  0
ARC
  5
207
330
2
100
AcDbEntity
  8
0
100
AcDbCircle
 10
5755.879190582021
 20
9406.503046964768
 30
0.0
 40
30.59379987299102
100
AcDbArc
 50
7.195832972418487
 51
15.48720946728761
  0
ARC
  5
208
330
2
100
AcDbEntity
  8
0
100
AcDbCircle
 10
5742.060541478577
 20
9402.656763393363
 30
0.0
 40
44.93774528293703
100
AcDbArc
 50
15.50853355953467
 51
20.97059402255978
  0
ARC
  5
209
330
2
100
AcDbEntity
  8
0
100
AcDbCircle
 10
5702.242291326961
 20
9387.2329235927
 30
0.0
 40
87.63875317745872
100
AcDbArc
 50
21.06978812559487
 51
24.22584235395636
  0
ARC
  5
20A
330
2
100
AcDbEntity
  8
0
100
AcDbCircle
 10
6264.657014728478
 20
9643.893594764346
 30
0.0
 40
530.5738300402468
100
AcDbArc
 50
204.0044635376125
 51
204.580022714833
  0
ARC
  5
20B
330
2
100
AcDbEntity
  8
0
100
AcDbCircle
 10
5824.391751932879
 20
9447.786162194894
 30
0.0
 40
48.60743485704134
100
AcDbArc
 50
201.3136924994948
 51
203.9531971377342
  0
ARC
  5
20C
330
2
100
AcDbEntity
  8
0
100
AcDbCircle
 10
5797.498145089053
 20
9437.412262022375
 30
0.0
 40
19.78290094523496
100
AcDbArc
 50
196.337023604669
 51
201.6344586929121
  0
ARC
  5
20D
330
2
100
AcDbEntity
  8
0
100
AcDbCircle
 10
5787.835289826679
 20
9434.578109567128
 30
0.0
 40
9.71298604125475
100
AcDbArc
 50
190.3499524626553
 51
196.3270797119527
  0
ARC
  5
20E
330
2
100
AcDbEntity
  8
0
100
AcDbCircle
 10
5783.118519033946
 20
9433.73667472686
 30
0.0
 40
4.921830056394274
100
AcDbArc
 50
180.472403790131
 51
190.5789468399892
  0
LINE
  5
20F
330
2
100
AcDbEntity
  8
0
100
AcDbLine
 10
5232.841419622209
 20
9438.684981285769
 30
0.0
 11
5232.841419622209
 21
9515.464323722574
 31
0.0
  0
LINE
  5
210
330
2
100
AcDbEntity
  8
0
100
AcDbLine
 10
5187.423818224175
 20
9511.609400126703
 30
0.0
 11
5187.423818224175
 21
8108.503816122802
 31
0.0
  0
LINE
  5
211
330
2
100
AcDbEntity
  8
0
100
AcDbLine
 10
5188.423818224175
 20
9405.500798566107
 30
0.0
 11
5188.423818224175
 21
9511.609400126703
 31
0.0
  0
LINE
  5
212
330
2
100
AcDbEntity
  8
0
100
AcDbLine
 10
5187.423818224175
 20
9511.609400126703
 30
0.0
 11
5186.923818224175
 21
9512.81650690789
 31
0.0
  0
LINE
  5
213
330
2
100
AcDbEntity
  8
0
100
AcDbLine
 10
5187.491301764776
 20
8108.436332582201
 30
0.0
 11
5187.423818224175
 21
8108.503816122802
 31
0.0
  0
LINE
  5
214
330
2
100
AcDbEntity
  8
0
100
AcDbLine
 10
5188.423818224175
 20
9511.609400126703
 30
0.0
 11
5186.923818224175
 21
9513.109400126703
 31
0.0
  0
LINE
  5
215
330
2
100
AcDbEntity
  8
0
100
AcDbLine
 10
5303.222596853808
 20
9535.109400126703
 30
0.0
 11
5303.222596853808
 21
9405.500798566107
 31
0.0
  0
LINE
  5
216
330
2
100
AcDbEntity
  8
0
100
AcDbLine
 10
5305.222596853808
 20
9535.109400126703
 30
0.0
 11
5304.222596853808
 21
9536.109400126703
 31
0.0
  0
LINE
  5
217
330
2
100
AcDbEntity
  8
0
100
AcDbLine
 10
5303.222596853809
 20
9537.109400126703
 30
0.0
 11
5162.923818224175
 21
9537.109400126703
 31
0.0
  0
LINE
  5
218
330
2
100
AcDbEntity
  8
0
100
AcDbLine
 10
5304.222596853808
 20
9536.109400126703
 30
0.0
 11
5303.222596853809
 21
9537.109400126703
 31
0.0
  0
LINE
  5
219
330
2
100
AcDbEntity
  8
0
100
AcDbLine
 10
5303.222596853808
 20
9535.109400126703
 30
0.0
 11
5304.222596853809
 21
9536.109400126703
 31
0.0
  0
LINE
  5
21A
330
2
100
AcDbEntity
  8
0
100
AcDbLine
 10
5164.923818224176
 20
9535.109400126703
 30
0.0
 11
5303.222596853808
 21
9535.109400126703
 31
0.0
  0
LINE
  5
21B
330
2
100
AcDbEntity
  8
0
100
AcDbLine
 10
5162.923818224175
 20
9537.109400126703
 30
0.0
 11
5164.338031786549
 21
9535.69518656433
 31
0.0
  0
LINE
  5
21C
330
2
100
AcDbEntity
  8
0
100
AcDbLine
 10
5162.923818224175
 20
9349.839157001143
 30
0.0
 11
5162.413479780751
 21
9349.839157001143
 31
0.0
  0
LINE
  5
21D
330
2
100
AcDbEntity
  8
0
100
AcDbLine
 10
5162.923818224175
 20
9351.670399717295
 30
0.0
 11
5162.413479780751
 21
9351.670399717295
 31
0.0
  0
LINE
  5
21E
330
2
100
AcDbEntity
  8
0
100
AcDbLine
 10
5162.923818224175
 20
9356.345913052864
 30
0.0
 11
5162.413479780751
 21
9356.345913052864
 31
0.0
  0
LINE
  5
21F
330
2
100
AcDbEntity
  8
0
100
AcDbLine
 10
5162.923818224175
 20
9359.203145393014
 30
0.0
 11
5162.413479780751
 21
9359.203145393014
 31
0.0
  0
LINE
  5
220
330
2
100
AcDbEntity
  8
0
100
AcDbLine
 10
5162.923818224175
 20
9361.048652460739
 30
0.0
 11
5162.413479780751
 21
9361.048652460739
 31
0.0
  0
LINE
  5
221
330
2
100
AcDbEntity
  8
0
100
AcDbLine
 10
5162.923818224175
 20
9362.45022642995
 30
0.0
 11
5162.413479780751
 21
9362.45022642995
 31
0.0
  0
LINE
  5
222
330
2
100
AcDbEntity
  8
0
100
AcDbLine
 10
5162.923818224175
 20
9363.589414093145
 30
0.0
 11
5162.413479780751
 21
9363.589414093145
 31
0.0
  0
LINE
  5
223
330
2
100
AcDbEntity
  8
0
100
AcDbLine
 10
5162.413479780751
 20
9363.589414093143
 30
0.0
 11
5162.413479780752
 21
9364.372210900365
 31
0.0
  0
LINE
  5
224
330
2
100
AcDbEntity
  8
0
100
AcDbLine
 10
5162.413479780751
 20
9362.450226429946
 30
0.0
 11
5162.413479780751
 21
9363.589414093147
 31
0.0
  0
LINE
  5
225
330
2
100
AcDbEntity
  8
0
100
AcDbLine
 10
5162.413479780751
 20
9361.048652460739
 30
0.0
 11
5162.413479780751
 21
9362.45022642995
 31
0.0
  0
LINE
  5
226
330
2
100
AcDbEntity
  8
0
100
AcDbLine
 10
5162.413479780751
 20
9359.203145393014
 30
0.0
 11
5162.413479780751
 21
9361.048652460739
 31
0.0
  0
LINE
  5
227
330
2
100
AcDbEntity
  8
0
100
AcDbLine
 10
5162.413479780751
 20
9356.345913052864
 30
0.0
 11
5162.413479780751
 21
9359.203145393016
 31
0.0
  0
LINE
  5
228
330
2
100
AcDbEntity
  8
0
100
AcDbLine
 10
5162.413479780751
 20
9351.670399717295
 30
0.0
 11
5162.413479780751
 21
9356.345913052864
 31
0.0
  0
LINE
  5
229
330
2
100
AcDbEntity
  8
0
100
AcDbLine
 10
5162.413479780751
 20
9349.839157001143
 30
0.0
 11
5162.413479780751
 21
9351.670399717295
 31
0.0
  0
LINE
  5
22A
330
2
100
AcDbEntity
  8
0
100
AcDbLine
 10
5162.413479780753
 20
9369.8570793278
 30
0.0
 11
5162.413479780751
 21
9370.352972667639
 31
0.0
  0
LINE
  5
22B
330
2
100
AcDbEntity
  8
0
100
AcDbLine
 10
5162.923818224175
 20
9370.352972667639
 30
0.0
 11
5162.413479780751
 21
9370.352972667639
 31
0.0
  0
LINE
  5
22C
330
2
100
AcDbEntity
  8
0
100
AcDbLine
 10
5162.413479780751
 20
9368.502244140325
 30
0.0
 11
5162.413479780751
 21
9369.857079327798
 31
0.0
  0
LINE
  5
22D
330
2
100
AcDbEntity
  8
0
100
AcDbLine
 10
5162.923818224175
 20
9369.857079327798
 30
0.0
 11
5162.413479780751
 21
9369.857079327798
 31
0.0
  0
LINE
  5
22E
330
2
100
AcDbEntity
  8
0
100
AcDbLine
 10
5162.413479780751
 20
9366.706352784087
 30
0.0
 11
5162.413479780751
 21
9368.502244140325
 31
0.0
  0
LINE
  5
22F
330
2
100
AcDbEntity
  8
0
100
AcDbLine
 10
5162.923818224175
 20
9368.502244140325
 30
0.0
 11
5162.413479780751
 21
9368.502244140325
 31
0.0
  0
LINE
  5
230
330
2
100
AcDbEntity
  8
0
100
AcDbLine
 10
5162.923818224175
 20
9364.372210959491
 30
0.0
 11
5162.413479780751
 21
9364.372210959491
 31
0.0
  0
LINE
  5
231
330
2
100
AcDbEntity
  8
0
100
AcDbLine
 10
5162.413479780751
 20
9364.372210959491
 30
0.0
 11
5162.413479780751
 21
9366.706352784087
 31
0.0
  0
LINE
  5
232
330
2
100
AcDbEntity
  8
0
100
AcDbLine
 10
5162.923818224175
 20
9366.706352784087
 30
0.0
 11
5162.413479780751
 21
9366.706352784087
 31
0.0
  0
LINE
  5
233
330
2
100
AcDbEntity
  8
0
100
AcDbLine
 10
5162.413479780751
 20
9342.827618606709
 30
0.0
 11
5162.923818224175
 21
9342.827618606709
 31
0.0
  0
LINE
  5
234
330
2
100
AcDbEntity
  8
0
100
AcDbLine
 10
5162.413479780751
 20
9348.03410580788
 30
0.0
 11
5162.413479780751
 21
9342.827618606709
 31
0.0
  0
LINE
  5
235
330
2
100
AcDbEntity
  8
0
100
AcDbLine
 10
5162.413479780751
 20
9348.03410580788
 30
0.0
 11
5162.923818224175
 21
9348.03410580788
 31
0.0
  0
LINE
  5
236
330
2
100
AcDbEntity
  8
0
100
AcDbLine
 10
5162.413479780751
 20
9370.352972667639
 30
0.0
 11
5162.413479780751
 21
9378.418232608734
 31
0.0
  0
LINE
  5
237
330
2
100
AcDbEntity
  8
0
100
AcDbLine
 10
5162.923818224175
 20
9378.418232608734
 30
0.0
 11
5162.413479780751
 21
9378.418232608734
 31
0.0
  0
LINE
  5
238
330
2
100
AcDbEntity
  8
0
100
AcDbLine
 10
5782.220611075191
 20
9587.955078010145
 30
0.0
 11
5823.130683017636
 21
9587.955078010145
 31
0.0
  0
LINE
  5
239
330
2
100
AcDbEntity
  8
0
100
AcDbLine
 10
5781.466414432505
 20
9587.188141559307
 30
0.0
 11
5823.884879660322
 21
9587.188141559307
 31
0.0
  0
LINE
  5
23A
330
2
100
AcDbEntity
  8
0
100
AcDbLine
 10
5781.568332897733
 20
9583.63883100775
 30
0.0
 11
5823.782961195095
 21
9583.63883100775
 31
0.0
  0
LINE
  5
23B
330
2
100
AcDbEntity
  8
0
100
AcDbLine
 10
5783.076726183104
 20
9581.77881901734
 30
0.0
 11
5822.274567909722
 21
9581.77881901734
 31
0.0
  0
LINE
  5
23C
330
2
100
AcDbEntity
  8
0
100
AcDbLine
 10
5783.713716590779
 20
9580.502290240362
 30
0.0
 11
5821.63757750205
 21
9580.502290240362
 31
0.0
  0
LINE
  5
23D
330
2
100
AcDbEntity
  8
0
100
AcDbLine
 10
5783.734100283824
 20
9570.799652350674
 30
0.0
 11
5821.617193809003
 21
9570.799652350674
 31
0.0
  0
LINE
  5
23E
330
2
100
AcDbEntity
  8
0
100
AcDbLine
 10
5785.186438413321
 20
9566.875791439403
 30
0.0
 11
5820.164855679507
 21
9566.875791439403
 31
0.0
  0
LINE
  5
23F
330
2
100
AcDbEntity
  8
0
100
AcDbLine
 10
5787.199328101569
 20
9564.780092998157
 30
0.0
 11
5818.151965991257
 21
9564.780092998157
 31
0.0
  0
LINE
  5
240
330
2
100
AcDbEntity
  8
0
100
AcDbLine
 10
5788.646570307805
 20
9560.877889760746
 30
0.0
 11
5816.704723785023
 21
9560.877889760746
 31
0.0
  0
LINE
  5
241
330
2
100
AcDbEntity
  8
0
100
AcDbLine
 10
5783.968512753848
 20
9471.078222947013
 30
0.0
 11
5821.38278133898
 21
9471.078222947013
 31
0.0
  0
LINE
  5
242
330
2
100
AcDbEntity
  8
0
100
AcDbLine
 10
5782.587517550011
 20
9469.572377623272
 30
0.0
 11
5822.763776542817
 21
9469.572377623272
 31
0.0
  0
LINE
  5
243
330
2
100
AcDbEntity
  8
0
100
AcDbLine
 10
5782.597709396534
 20
9466.550495129268
 30
0.0
 11
5822.753584696294
 21
9466.550495129268
 31
0.0
  0
LINE
  5
244
330
2
100
AcDbEntity
  8
0
100
AcDbLine
 10
5787.910209396534
 20
9466.035806879867
 30
0.0
 11
5817.441084696294
 21
9466.035806879867
 31
0.0
  0
LINE
  5
245
330
2
100
AcDbEntity
  8
0
100
AcDbLine
 10
5788.607598660312
 20
9472.295335007773
 30
0.0
 11
5816.743695432517
 21
9472.295335007773
 31
0.0
  0
LINE
  5
246
330
2
100
AcDbEntity
  8
0
100
AcDbLine
 10
5787.12798517591
 20
9471.088414793536
 30
0.0
 11
5818.223308916917
 21
9471.088414793536
 31
0.0
  0
LINE
  5
247
330
2
100
AcDbEntity
  8
0
100
AcDbLine
 10
5782.220611075191
 20
8440.263722243259
 30
0.0
 11
5823.130683017636
 21
8440.263722243259
 31
0.0
  0
LINE
  5
248
330
2
100
AcDbEntity
  8
0
100
AcDbLine
 10
5781.466414432505
 20
8441.030658694099
 30
0.0
 11
5823.884879660322
 21
8441.030658694099
 31
0.0
  0
LINE
  5
249
330
2
100
AcDbEntity
  8
0
100
AcDbLine
 10
5781.568332897733
 20
8444.579969245657
 30
0.0
 11
5823.782961195095
 21
8444.579969245657
 31
0.0
  0
LINE
  5
24A
330
2
100
AcDbEntity
  8
0
100
AcDbLine
 10
5783.076726183104
 20
8446.439981236064
 30
0.0
 11
5822.274567909722
 21
8446.439981236064
 31
0.0
  0
LINE
  5
24B
330
2
100
AcDbEntity
  8
0
100
AcDbLine
 10
5783.713716590779
 20
8447.716510013044
 30
0.0
 11
5821.63757750205
 21
8447.716510013044
 31
0.0
  0
LINE
  5
24C
330
2
100
AcDbEntity
  8
0
100
AcDbLine
 10
5783.734100283824
 20
8457.419147902732
 30
0.0
 11
5821.617193809003
 21
8457.419147902732
 31
0.0
  0
LINE
  5
24D
330
2
100
AcDbEntity
  8
0
100
AcDbLine
 10
5785.186438413321
 20
8461.343008814003
 30
0.0
 11
5820.164855679507
 21
8461.343008814003
 31
0.0
  0
LINE
  5
24E
330
2
100
AcDbEntity
  8
0
100
AcDbLine
 10
5787.199328101569
 20
8463.438707255249
 30
0.0
 11
5818.151965991257
 21
8463.438707255249
 31
0.0
  0
LINE
  5
24F
330
2
100
AcDbEntity
  8
0
100
AcDbLine
 10
5788.646570307805
 20
8467.34091049266
 30
0.0
 11
5816.704723785023
 21
8467.34091049266
 31
0.0
  0
LINE
  5
250
330
2
100
AcDbEntity
  8
0
100
AcDbLine
 10
5783.968512753848
 20
8557.140577306393
 30
0.0
 11
5821.38278133898
 21
8557.140577306393
 31
0.0
  0
LINE
  5
251
330
2
100
AcDbEntity
  8
0
100
AcDbLine
 10
5782.587517550011
 20
8558.646422630134
 30
0.0
 11
5822.763776542817
 21
8558.646422630134
 31
0.0
  0
LINE
  5
252
330
2
100
AcDbEntity
  8
0
100
AcDbLine
 10
5782.597709396534
 20
8561.668305124138
 30
0.0
 11
5822.753584696294
 21
8561.668305124138
 31
0.0
  0
LINE
  5
253
330
2
100
AcDbEntity
  8
0
100
AcDbLine
 10
5787.910209396534
 20
8562.182993373539
 30
0.0
 11
5817.441084696294
 21
8562.182993373539
 31
0.0
  0
LINE
  5
254
330
2
100
AcDbEntity
  8
0
100
AcDbLine
 10
5788.607598660312
 20
8555.923465245633
 30
0.0
 11
5816.743695432517
 21
8555.923465245633
 31
0.0
  0
LINE
  5
255
330
2
100
AcDbEntity
  8
0
100
AcDbLine
 10
5787.12798517591
 20
8557.13038545987
 30
0.0
 11
5818.223308916917
 21
8557.13038545987
 31
0.0
  0
LINE
  5
256
330
2
100
AcDbEntity
  8
0
100
AcDbLine
 10
5627.322867236611
 20
9564.244594405118
 30
0.0
 11
5654.52476921174
 21
9564.244594405118
 31
0.0
  0
LINE
  5
257
330
2
100
AcDbEntity
  8
0
100
AcDbLine
 10
5654.52476921174
 20
9676.109400126703
 30
0.0
 11
5627.322867236611
 21
9676.109400126703
 31
0.0
  0
LINE
  5
258
330
2
100
AcDbEntity
  8
0
100
AcDbLine
 10
5827.365383892199
 20
9358.189598322217
 30
0.0
 11
5777.985910200628
 21
9358.189598322217
 31
0.0
  0
LINE
  5
259
330
2
100
AcDbEntity
  8
0
100
AcDbLine
 10
5821.879114551097
 20
9347.859004996488
 30
0.0
 11
5783.472179541732
 21
9347.859004996488
 31
0.0
  0
LINE
  5
25A
330
2
100
AcDbEntity
  8
0
100
AcDbLine
 10
5827.105631091446
 20
9451.172983716766
 30
0.0
 11
5778.245663001382
 21
9451.172983716766
 31
0.0
  0
LINE
  5
25B
330
2
100
AcDbEntity
  8
0
100
AcDbLine
 10
5825.560007877784
 20
9452.31922846878
 30
0.0
 11
5779.791286215044
 21
9452.31922846878
 31
0.0
  0
LINE
  5
25C
330
2
100
AcDbEntity
  8
0
100
AcDbLine
 10
5874.223177198535
 20
9438.724379883788
 30
0.0
 11
5874.223177198535
 21
9375.494420369618
 31
0.0
  0
LINE
  5
25D
330
2
100
AcDbEntity
  8
0
100
AcDbLine
 10
5898.923818224175
 20
9441.209400126703
 30
0.0
 11
5898.923818224175
 21
9373.009400126703
 31
0.0
  0
LINE
  5
25E
330
2
100
AcDbEntity
  8
0
100
AcDbLine
 10
5877.49719975026
 20
9441.209400126703
 30
0.0
 11
5877.49719975026
 21
9373.009400126703
 31
0.0
  0
LINE
  5
25F
330
2
100
AcDbEntity
  8
0
100
AcDbLine
 10
5870.133248048737
 20
9435.514562070022
 30
0.0
 11
5870.133248048737
 21
9378.704238183382
 31
0.0
  0
LINE
  5
260
330
2
100
AcDbEntity
  8
0
100
AcDbLine
 10
5785.403698996957
 20
9464.453950236431
 30
0.0
 11
5819.947595095871
 21
9464.453950236431
 31
0.0
  0
LINE
  5
261
330
2
100
AcDbEntity
  8
0
100
AcDbLine
 10
5785.403698996957
 20
9453.137081546563
 30
0.0
 11
5819.947595095871
 21
9453.137081546563
 31
0.0
  0
LINE
  5
262
330
2
100
AcDbEntity
  8
0
100
AcDbLine
 10
5786.609685738773
 20
9465.748653244313
 30
0.0
 11
5818.741608354055
 21
9465.748653244313
 31
0.0
  0
LINE
  5
263
330
2
100
AcDbEntity
  8
0
100
AcDbLine
 10
5827.365383892199
 20
8670.02920193119
 30
0.0
 11
5777.985910200628
 21
8670.02920193119
 31
0.0
  0
LINE
  5
264
330
2
100
AcDbEntity
  8
0
100
AcDbLine
 10
5821.879114551097
 20
8680.359795256918
 30
0.0
 11
5783.472179541732
 21
8680.359795256918
 31
0.0
  0
LINE
  5
265
330
2
100
AcDbEntity
  8
0
100
AcDbLine
 10
5827.105631091446
 20
8577.04581653664
 30
0.0
 11
5778.245663001382
 21
8577.04581653664
 31
0.0
  0
LINE
  5
266
330
2
100
AcDbEntity
  8
0
100
AcDbLine
 10
5825.560007877784
 20
8575.899571784625
 30
0.0
 11
5779.791286215044
 21
8575.899571784625
 31
0.0
  0
LINE
  5
267
330
2
100
AcDbEntity
  8
0
100
AcDbLine
 10
5874.223177198535
 20
8589.494420369618
 30
0.0
 11
5874.223177198535
 21
8652.724379883788
 31
0.0
  0
LINE
  5
268
330
2
100
AcDbEntity
  8
0
100
AcDbLine
 10
5898.923818224175
 20
8587.009400126703
 30
0.0
 11
5898.923818224175
 21
8655.209400126703
 31
0.0
  0
LINE
  5
269
330
2
100
AcDbEntity
  8
0
100
AcDbLine
 10
5877.49719975026
 20
8587.009400126703
 30
0.0
 11
5877.49719975026
 21
8655.209400126703
 31
0.0
  0
LINE
  5
26A
330
2
100
AcDbEntity
  8
0
100
AcDbLine
 10
5870.133248048737
 20
8592.704238183382
 30
0.0
 11
5870.133248048737
 21
8649.514562070024
 31
0.0
  0
LINE
  5
26B
330
2
100
AcDbEntity
  8
0
100
AcDbLine
 10
5785.403698996957
 20
8563.764850016973
 30
0.0
 11
5819.947595095871
 21
8563.764850016973
 31
0.0
  0
LINE
  5
26C
330
2
100
AcDbEntity
  8
0
100
AcDbLine
 10
5785.403698996957
 20
8575.081718706842
 30
0.0
 11
5819.947595095871
 21
8575.081718706842
 31
0.0
  0
LINE
  5
26D
330
2
100
AcDbEntity
  8
0
100
AcDbLine
 10
5786.609685738773
 20
8562.470147009093
 30
0.0
 11
5818.741608354055
 21
8562.470147009093
 31
0.0
  0
LINE
  5
26E
330
2
100
AcDbEntity
  8
0
100
AcDbLine
 10
5851.029277490437
 20
8438.693382789734
 30
0.0
 11
5847.406275800678
 21
8542.188185776398
 31
0.0
  0
LINE
  5
26F
330
2
100
AcDbEntity
  8
0
100
AcDbLine
 10
5851.313416341731
 20
8436.377642152598
 30
0.0
 11
5847.527785109782
 21
8544.518126778461
 31
0.0
  0
LINE
  5
270
330
2
100
AcDbEntity
  8
0
100
AcDbLine
 10
5852.948389169241
 20
8436.42525818243
 30
0.0
 11
5849.162085317225
 21
8544.584956898467
 31
0.0
  0
LINE
  5
271
330
2
100
AcDbEntity
  8
0
100
AcDbLine
 10
5853.060463203035
 20
8439.138084689763
 30
0.0
 11
5849.463586222544
 21
8541.886608245672
 31
0.0
  0
LINE
  5
272
330
2
100
AcDbEntity
  8
0
100
AcDbLine
 10
5853.518395479615
 20
8439.154115344096
 30
0.0
 11
5849.921518499124
 21
8541.902638900005
 31
0.0
  0
LINE
  5
273
330
2
100
AcDbEntity
  8
0
100
AcDbLine
 10
5856.12391289902
 20
8439.257584941317
 30
0.0
 11
5852.527893179396
 21
8541.981619950922
 31
0.0
  0
LINE
  5
274
330
2
100
AcDbEntity
  8
0
100
AcDbLine
 10
5856.570770677101
 20
8438.877809014775
 30
0.0
 11
5852.947100295804
 21
8542.391713869147
 31
0.0
  0
LINE
  5
275
330
2
100
AcDbEntity
  8
0
100
AcDbLine
 10
5856.672315301041
 20
8436.125987674826
 30
0.0
 11
5852.855968313977
 21
8545.143899720344
 31
0.0
  0
LINE
  5
276
330
2
100
AcDbEntity
  8
0
100
AcDbLine
 10
5857.159997481365
 20
8435.685124573247
 30
0.0
 11
5853.311628223116
 21
8545.617786025849
 31
0.0
  0
LINE
  5
277
330
2
100
AcDbEntity
  8
0
100
AcDbLine
 10
5866.358252180511
 20
8436.007124242371
 30
0.0
 11
5862.509882922262
 21
8545.939785694973
 31
0.0
  0
LINE
  5
278
330
2
100
AcDbEntity
  8
0
100
AcDbLine
 10
5866.745718484624
 20
8436.213951326854
 30
0.0
 11
5862.910863642304
 21
8545.760559464046
 31
0.0
  0
LINE
  5
279
330
2
100
AcDbEntity
  8
0
100
AcDbLine
 10
5870.060594819593
 20
8441.31557542078
 30
0.0
 11
5866.574369311779
 21
8540.903224832626
 31
0.0
  0
LINE
  5
27A
330
2
100
AcDbEntity
  8
0
100
AcDbLine
 10
5850.638239577534
 20
8439.058800516657
 30
0.0
 11
5847.041747873367
 21
8541.796318254539
 31
0.0
  0
LINE
  5
27B
330
2
100
AcDbEntity
  8
0
100
AcDbLine
 10
5823.244149685416
 20
8553.922947303083
 30
0.0
 11
5816.743460908653
 21
8555.390392505027
 31
0.0
  0
LINE
  5
27C
330
2
100
AcDbEntity
  8
0
100
AcDbLine
 10
5770.41751520998
 20
8555.961820203791
 30
0.0
 11
5788.609388463105
 21
8551.85524349532
 31
0.0
  0
LINE
  5
27D
330
2
100
AcDbEntity
  8
0
100
AcDbLine
 10
5770.841031805704
 20
8557.714798457177
 30
0.0
 11
5788.608575104032
 21
8553.70400866877
 31
0.0
  0
LINE
  5
27E
330
2
100
AcDbEntity
  8
0
100
AcDbLine
 10
5189.491301764776
 20
8104.966762152225
 30
0.0
 11
5761.42826835829
 21
8104.966762152225
 31
0.0
  0
LINE
  5
27F
330
2
100
AcDbEntity
  8
0
100
AcDbLine
 10
5763.42826835829
 20
8102.966762152225
 30
0.0
 11
5187.491301764776
 21
8102.966762152225
 31
0.0
  0
LINE
  5
280
330
2
100
AcDbEntity
  8
0
100
AcDbLine
 10
5761.428268358289
 20
9403.500798566107
 30
0.0
 11
5189.491301764775
 21
9403.500798566107
 31
0.0
  0
LINE
  5
281
330
2
100
AcDbEntity
  8
0
100
AcDbLine
 10
5187.491301764775
 20
9405.500798566107
 30
0.0
 11
5763.428268358289
 21
9405.500798566107
 31
0.0
  0
LINE
  5
282
330
2
100
AcDbEntity
  8
0
100
AcDbLine
 10
5761.428268358289
 20
9403.500798566107
 30
0.0
 11
5763.428268358289
 21
9405.500798566107
 31
0.0
  0
LINE
  5
283
330
2
100
AcDbEntity
  8
0
100
AcDbLine
 10
5763.428268358289
 20
9405.500798566107
 30
0.0
 11
5763.428268358289
 21
8102.966762152225
 31
0.0
  0
LINE
  5
284
330
2
100
AcDbEntity
  8
0
100
AcDbLine
 10
5761.428268358289
 20
8104.966762152225
 30
0.0
 11
5763.428268358289
 21
8102.966762152225
 31
0.0
  0
LINE
  5
285
330
2
100
AcDbEntity
  8
0
100
AcDbLine
 10
5761.428268358289
 20
8104.966762152225
 30
0.0
 11
5761.428268358289
 21
9403.500798566107
 31
0.0
  0
LINE
  5
286
330
2
100
AcDbEntity
  8
0
100
AcDbLine
 10
5187.491301764776
 20
9405.500798566107
 30
0.0
 11
5189.491301764776
 21
9403.500798566107
 31
0.0
  0
LINE
  5
287
330
2
100
AcDbEntity
  8
0
100
AcDbLine
 10
5189.491301764775
 20
9403.500798566107
 30
0.0
 11
5189.491301764775
 21
8104.966762152225
 31
0.0
  0
LINE
  5
288
330
2
100
AcDbEntity
  8
0
100
AcDbLine
 10
5189.491301764775
 20
8104.966762152225
 30
0.0
 11
5187.491301764775
 21
8102.966762152225
 31
0.0
  0
LINE
  5
289
330
2
100
AcDbEntity
  8
0
100
AcDbLine
 10
5187.491301764776
 20
8102.966762152225
 30
0.0
 11
5187.491301764776
 21
9405.500798566107
 31
0.0
  0
LINE
  5
28A
330
2
100
AcDbEntity
  8
0
100
AcDbLine
 10
5756.923818224175
 20
9405.500798566107
 30
0.0
 11
5756.923818224175
 21
9535.109400126703
 31
0.0
  0
LINE
  5
28B
330
2
100
AcDbEntity
  8
0
100
AcDbLine
 10
5305.222596853809
 20
9405.500798566107
 30
0.0
 11
5305.222596853809
 21
9535.109400126703
 31
0.0
  0
LINE
  5
28C
330
2
100
AcDbEntity
  8
0
100
AcDbLine
 10
5756.923818224175
 20
9535.109400126703
 30
0.0
 11
5756.923818224175
 21
9537.109400126703
 31
0.0
  0
LINE
  5
28D
330
2
100
AcDbEntity
  8
0
100
AcDbLine
 10
5305.222596853809
 20
9535.109400126703
 30
0.0
 11
5756.923818224175
 21
9535.109400126703
 31
0.0
  0
LINE
  5
28E
330
2
100
AcDbEntity
  8
0
100
AcDbLine
 10
5305.222596853809
 20
9537.109400126703
 30
0.0
 11
5305.222596853809
 21
9535.109400126703
 31
0.0
  0
LINE
  5
28F
330
2
100
AcDbEntity
  8
0
100
AcDbLine
 10
5756.923818224175
 20
9537.109400126703
 30
0.0
 11
5305.222596853809
 21
9537.109400126703
 31
0.0
  0
ARC
  5
290
330
2
100
AcDbEntity
  8
0
100
AcDbCircle
 10
5422.923818224175
 20
8072.109400126703
 30
0.0
 40
4.999999999999999
100
AcDbArc
 50
180.0
 51
270.0
  0
LINE
  5
291
330
2
100
AcDbEntity
  8
0
100
AcDbLine
 10
5417.923818224175
 20
8072.109400126703
 30
0.0
 11
5422.923818224175
 21
8072.109400126703
 31
0.0
  0
LINE
  5
292
330
2
100
AcDbEntity
  8
0
100
AcDbLine
 10
5417.923818224175
 20
8102.966762152225
 30
0.0
 11
5417.923818224175
 21
8072.109400126703
 31
0.0
  0
LINE
  5
293
330
2
100
AcDbEntity
  8
0
100
AcDbLine
 10
5422.923818224175
 20
8067.109400126703
 30
0.0
 11
5422.923818224175
 21
8072.109400126703
 31
0.0
  0
LINE
  5
294
330
2
100
AcDbEntity
  8
0
100
AcDbLine
 10
5422.923818224175
 20
8067.109400126703
 30
0.0
 11
5892.923818224175
 21
8067.109400126703
 31
0.0
  0
LINE
  5
295
330
2
100
AcDbEntity
  8
0
100
AcDbLine
 10
5892.923818224175
 20
8072.109400126703
 30
0.0
 11
5892.923818224175
 21
8067.109400126703
 31
0.0
  0
LINE
  5
296
330
2
100
AcDbEntity
  8
0
100
AcDbLine
 10
5897.923818224175
 20
8072.109400126703
 30
0.0
 11
5897.923818224175
 21
8107.531045253908
 31
0.0
  0
LINE
  5
297
330
2
100
AcDbEntity
  8
0
100
AcDbLine
 10
5892.923818224175
 20
8072.109400126703
 30
0.0
 11
5897.923818224175
 21
8072.109400126703
 31
0.0
  0
ARC
  5
298
330
2
100
AcDbEntity
  8
0
100
AcDbCircle
 10
5892.923818224175
 20
8072.109400126703
 30
0.0
 40
5.0
100
AcDbArc
 50
270.0
 51
0.0
  0
LINE
  5
299
330
2
100
AcDbEntity
  8
0
100
AcDbLine
 10
5892.923818224175
 20
8107.531045253908
 30
0.0
 11
5892.923818224175
 21
8072.109400126703
 31
0.0
  0
LINE
  5
29A
330
2
100
AcDbEntity
  8
0
100
AcDbLine
 10
5892.923818224175
 20
8072.109400126703
 30
0.0
 11
5422.923818224175
 21
8072.109400126703
 31
0.0
  0
LINE
  5
29B
330
2
100
AcDbEntity
  8
0
100
AcDbLine
 10
5422.923818224175
 20
8072.109400126703
 30
0.0
 11
5422.923818224175
 21
8102.966762152225
 31
0.0
  0
LINE
  5
29C
330
2
100
AcDbEntity
  8
0
100
AcDbLine
 10
5897.923818224175
 20
8107.531045253908
 30
0.0
 11
5892.923818224175
 21
8107.531045253908
 31
0.0
  0
LINE
  5
29D
330
2
100
AcDbEntity
  8
0
100
AcDbLine
 10
5892.923818224175
 20
8107.531045253908
 30
0.0
 11
5763.428268358289
 21
8107.531045253908
 31
0.0
  0
LINE
  5
29E
330
2
100
AcDbEntity
  8
0
100
AcDbLine
 10
5209.288221215316
 20
9430.59792934722
 30
0.0
 11
5209.288221215316
 21
9523.558182943902
 31
0.0
  0
LINE
  5
29F
330
2
100
AcDbEntity
  8
0
100
AcDbLine
 10
5209.288221215315
 20
9523.558182943902
 30
0.0
 11
5246.748698334717
 21
9523.558182943902
 31
0.0
  0
LINE
  5
2A0
330
2
100
AcDbEntity
  8
0
100
AcDbLine
 10
5246.748698334717
 20
9523.558182943902
 30
0.0
 11
5246.748698334717
 21
9430.59792934722
 31
0.0
  0
LINE
  5
2A1
330
2
100
AcDbEntity
  8
0
100
AcDbLine
 10
5246.748698334717
 20
9430.59792934722
 30
0.0
 11
5209.288221215315
 21
9430.59792934722
 31
0.0
  0
LINE
  5
2A2
330
2
100
AcDbEntity
  8
0
100
AcDbLine
 10
5215.081218858168
 20
9515.464323722574
 30
0.0
 11
5215.081218858168
 21
9438.684981285769
 31
0.0
  0
LINE
  5
2A3
330
2
100
AcDbEntity
  8
0
100
AcDbLine
 10
5215.081218858167
 20
9438.684981285769
 30
0.0
 11
5240.152441324232
 21
9438.684981285769
 31
0.0
  0
LINE
  5
2A4
330
2
100
AcDbEntity
  8
0
100
AcDbLine
 10
5240.152441324233
 20
9438.684981285769
 30
0.0
 11
5240.152441324233
 21
9515.464323722574
 31
0.0
  0
LINE
  5
2A5
330
2
100
AcDbEntity
  8
0
100
AcDbLine
 10
5240.152441324232
 20
9515.464323722574
 30
0.0
 11
5215.081218858167
 21
9515.464323722574
 31
0.0
  0
LINE
  5
2A6
330
2
100
AcDbEntity
  8
0
100
AcDbLine
 10
5186.923818224175
 20
8655.02718440696
 30
0.0
 11
5164.923818224175
 21
8655.02718440696
 31
0.0
  0
LINE
  5
2A7
330
2
100
AcDbEntity
  8
0
100
AcDbLine
 10
5186.923818224175
 20
8655.02718440696
 30
0.0
 11
5186.923818224175
 21
9513.109400126703
 31
0.0
  0
LINE
  5
2A8
330
2
100
AcDbEntity
  8
0
100
AcDbLine
 10
5164.923818224175
 20
9535.109400126703
 30
0.0
 11
5186.923818224175
 21
9513.109400126703
 31
0.0
  0
LINE
  5
2A9
330
2
100
AcDbEntity
  8
0
100
AcDbLine
 10
5162.923818224175
 20
8657.02718440696
 30
0.0
 11
5164.923818224175
 21
8655.02718440696
 31
0.0
  0
LINE
  5
2AA
330
2
100
AcDbEntity
  8
0
100
AcDbLine
 10
5162.923818224175
 20
9535.109400126703
 30
0.0
 11
5162.923818224175
 21
8657.02718440696
 31
0.0
  0
LINE
  5
2AB
330
2
100
AcDbEntity
  8
0
100
AcDbLine
 10
5164.338031786549
 20
9535.69518656433
 30
0.0
 11
5162.923818224175
 21
9535.109400126703
 31
0.0
  0
LINE
  5
2AC
330
2
100
AcDbEntity
  8
0
100
AcDbLine
 10
5164.923818224175
 20
9535.109400126703
 30
0.0
 11
5164.338031786549
 21
9535.69518656433
 31
0.0
  0
LINE
  5
2AD
330
2
100
AcDbEntity
  8
0
100
AcDbLine
 10
5164.923818224175
 20
8655.02718440696
 30
0.0
 11
5164.923818224175
 21
9535.109400126703
 31
0.0
  0
LINE
  5
2AE
330
2
100
AcDbEntity
  8
0
100
AcDbLine
 10
5269.587132050072
 20
8083.760013798164
 30
0.0
 11
5320.72344026758
 21
8083.773628363718
 31
0.0
  0
LINE
  5
2AF
330
2
100
AcDbEntity
  8
0
100
AcDbLine
 10
5264.508899098759
 20
8088.81442125976
 30
0.0
 11
5269.587132050072
 21
8083.760013798164
 31
0.0
  0
LINE
  5
2B0
330
2
100
AcDbEntity
  8
0
100
AcDbLine
 10
5264.427211705441
 20
8102.966762152225
 30
0.0
 11
5264.508899098759
 21
8088.81442125976
 31
0.0
  0
LINE
  5
2B1
330
2
100
AcDbEntity
  8
0
100
AcDbLine
 10
5325.794865936115
 20
8102.953147586672
 30
0.0
 11
5264.427211705441
 21
8102.966762152225
 31
0.0
  0
LINE
  5
2B2
330
2
100
AcDbEntity
  8
0
100
AcDbLine
 10
5325.794865936115
 20
8088.828035825312
 30
0.0
 11
5325.794865936115
 21
8102.953147586672
 31
0.0
  0
LINE
  5
2B3
330
2
100
AcDbEntity
  8
0
100
AcDbLine
 10
5320.72344026758
 20
8083.773628363719
 30
0.0
 11
5325.794865936115
 21
8088.828035825312
 31
0.0
  0
LINE
  5
2B4
330
2
100
AcDbEntity
  8
0
100
AcDbLine
 10
5186.923818224175
 20
8107.503816122801
 30
0.0
 11
5186.923818224175
 21
8655.02718440696
 31
0.0
  0
LINE
  5
2B5
330
2
100
AcDbEntity
  8
0
100
AcDbLine
 10
5186.923818224175
 20
8107.503816122801
 30
0.0
 11
5164.923818224175
 21
8107.503816122801
 31
0.0
  0
LINE
  5
2B6
330
2
100
AcDbEntity
  8
0
100
AcDbLine
 10
5164.923818224175
 20
8655.02718440696
 30
0.0
 11
5186.923818224175
 21
8655.02718440696
 31
0.0
  0
LINE
  5
2B7
330
2
100
AcDbEntity
  8
0
100
AcDbLine
 10
5162.923818224175
 20
8109.503816122801
 30
0.0
 11
5164.923818224175
 21
8107.503816122801
 31
0.0
  0
LINE
  5
2B8
330
2
100
AcDbEntity
  8
0
100
AcDbLine
 10
5162.923818224175
 20
8653.02718440696
 30
0.0
 11
5162.923818224175
 21
8109.503816122801
 31
0.0
  0
LINE
  5
2B9
330
2
100
AcDbEntity
  8
0
100
AcDbLine
 10
5164.923818224175
 20
8655.02718440696
 30
0.0
 11
5162.923818224175
 21
8653.02718440696
 31
0.0
  0
LINE
  5
2BA
330
2
100
AcDbEntity
  8
0
100
AcDbLine
 10
5164.923818224175
 20
8107.503816122801
 30
0.0
 11
5164.923818224175
 21
8655.02718440696
 31
0.0
  0
LINE
  5
2BB
330
2
100
AcDbEntity
  8
0
100
AcDbLine
 10
5823.130683017636
 20
9587.955078010145
 30
0.0
 11
5823.884879660322
 21
9587.188141559307
 31
0.0
  0
LINE
  5
2BC
330
2
100
AcDbEntity
  8
0
100
AcDbLine
 10
5782.22061107519
 20
9587.955078010147
 30
0.0
 11
5781.466414432505
 21
9587.188141559307
 31
0.0
  0
LINE
  5
2BD
330
2
100
AcDbEntity
  8
0
100
AcDbLine
 10
5781.568332897733
 20
9583.63883100775
 30
0.0
 11
5781.466414432505
 21
9587.188141559307
 31
0.0
  0
LINE
  5
2BE
330
2
100
AcDbEntity
  8
0
100
AcDbLine
 10
5823.782961195095
 20
9583.63883100775
 30
0.0
 11
5823.884879660322
 21
9587.188141559307
 31
0.0
  0
LINE
  5
2BF
330
2
100
AcDbEntity
  8
0
100
AcDbLine
 10
5783.076726183105
 20
9581.77881901734
 30
0.0
 11
5781.568332897733
 21
9583.63883100775
 31
0.0
  0
LINE
  5
2C0
330
2
100
AcDbEntity
  8
0
100
AcDbLine
 10
5822.274567909722
 20
9581.77881901734
 30
0.0
 11
5823.782961195095
 21
9583.63883100775
 31
0.0
  0
LINE
  5
2C1
330
2
100
AcDbEntity
  8
0
100
AcDbLine
 10
5783.713716590779
 20
9580.502290240362
 30
0.0
 11
5783.076726183104
 21
9581.77881901734
 31
0.0
  0
LINE
  5
2C2
330
2
100
AcDbEntity
  8
0
100
AcDbLine
 10
5821.63757750205
 20
9580.502290240362
 30
0.0
 11
5822.274567909722
 21
9581.77881901734
 31
0.0
  0
LINE
  5
2C3
330
2
100
AcDbEntity
  8
0
100
AcDbLine
 10
5783.734100283824
 20
9570.799652350674
 30
0.0
 11
5783.713716590779
 21
9580.502290240362
 31
0.0
  0
LINE
  5
2C4
330
2
100
AcDbEntity
  8
0
100
AcDbLine
 10
5821.617193809003
 20
9570.799652350674
 30
0.0
 11
5821.63757750205
 21
9580.502290240362
 31
0.0
  0
ARC
  5
2C5
330
2
100
AcDbEntity
  8
0
100
AcDbCircle
 10
5815.555967284256
 20
9570.812386019843
 30
0.0
 40
6.061239900436103
100
AcDbArc
 50
319.4983322413068
 51
359.879630892408
  0
ARC
  5
2C6
330
2
100
AcDbEntity
  8
0
100
AcDbCircle
 10
5789.795326808572
 20
9570.812386019843
 30
0.0
 40
6.061239900436103
100
AcDbArc
 50
180.120369107592
 51
220.5016677586932
  0
LINE
  5
2C7
330
2
100
AcDbEntity
  8
0
100
AcDbLine
 10
5787.199328101569
 20
9564.780092998157
 30
0.0
 11
5785.186438413321
 21
9566.875791439403
 31
0.0
  0
LINE
  5
2C8
330
2
100
AcDbEntity
  8
0
100
AcDbLine
 10
5818.151965991257
 20
9564.780092998157
 30
0.0
 11
5820.164855679507
 21
9566.875791439403
 31
0.0
  0
ARC
  5
2C9
330
2
100
AcDbEntity
  8
0
100
AcDbCircle
 10
5821.916291710211
 20
9561.16450963284
 30
0.0
 40
5.219443570911177
100
AcDbArc
 50
136.1546423253249
 51
183.1479167392015
  0
ARC
  5
2CA
330
2
100
AcDbEntity
  8
0
100
AcDbCircle
 10
5783.435002382617
 20
9561.16450963284
 30
0.0
 40
5.219443570911176
100
AcDbArc
 50
356.8520832607985
 51
43.84535767467505
  0
LINE
  5
2CB
330
2
100
AcDbEntity
  8
0
100
AcDbLine
 10
5816.704723785022
 20
9560.877889760746
 30
0.0
 11
5816.743695432517
 21
9472.295335007773
 31
0.0
  0
LINE
  5
2CC
330
2
100
AcDbEntity
  8
0
100
AcDbLine
 10
5788.646570307805
 20
9560.877889760746
 30
0.0
 11
5788.607598660312
 21
9472.295335007773
 31
0.0
  0
LINE
  5
2CD
330
2
100
AcDbEntity
  8
0
100
AcDbLine
 10
5818.223308916918
 20
9471.088414793536
 30
0.0
 11
5821.38278133898
 21
9471.078222947013
 31
0.0
  0
LINE
  5
2CE
330
2
100
AcDbEntity
  8
0
100
AcDbLine
 10
5787.12798517591
 20
9471.088414793536
 30
0.0
 11
5783.968512753848
 21
9471.078222947013
 31
0.0
  0
ARC
  5
2CF
330
2
100
AcDbEntity
  8
0
100
AcDbCircle
 10
5821.378296552408
 20
9469.68793910991
 30
0.0
 40
1.390291070609366
100
AcDbArc
 50
355.2320534247957
 51
89.8151755458728
  0
ARC
  5
2D0
330
2
100
AcDbEntity
  8
0
100
AcDbCircle
 10
5783.972997540419
 20
9469.68793910991
 30
0.0
 40
1.390291070609366
100
AcDbArc
 50
90.1848244541272
 51
184.7679465752043
  0
LINE
  5
2D1
330
2
100
AcDbEntity
  8
0
100
AcDbLine
 10
5782.597709396534
 20
9466.550495129268
 30
0.0
 11
5782.587517550011
 21
9469.572377623272
 31
0.0
  0
LINE
  5
2D2
330
2
100
AcDbEntity
  8
0
100
AcDbLine
 10
5822.753584696294
 20
9466.550495129268
 30
0.0
 11
5822.763776542816
 21
9469.572377623272
 31
0.0
  0
ARC
  5
2D3
330
2
100
AcDbEntity
  8
0
100
AcDbCircle
 10
5820.460767710052
 20
9467.159057649651
 30
0.0
 40
1.117908037123067
100
AcDbArc
 50
270.0
 51
327.0179549126825
  0
ARC
  5
2D4
330
2
100
AcDbEntity
  8
0
100
AcDbCircle
 10
5784.890526382776
 20
9467.159057649651
 30
0.0
 40
1.117908037123068
100
AcDbArc
 50
212.9820450873176
 51
270.0
  0
LINE
  5
2D5
330
2
100
AcDbEntity
  8
0
100
AcDbLine
 10
5820.460767710052
 20
9466.041149612527
 30
0.0
 11
5784.890526382776
 21
9466.041149612527
 31
0.0
  0
LINE
  5
2D6
330
2
100
AcDbEntity
  8
0
100
AcDbLine
 10
5787.910209396534
 20
9466.035806879867
 30
0.0
 11
5785.849695500008
 21
9466.041149612527
 31
0.0
  0
LINE
  5
2D7
330
2
100
AcDbEntity
  8
0
100
AcDbLine
 10
5817.441084696294
 20
9466.035806879867
 30
0.0
 11
5819.501598592818
 21
9466.041149612527
 31
0.0
  0
LINE
  5
2D8
330
2
100
AcDbEntity
  8
0
100
AcDbLine
 10
5816.743695432517
 20
9472.295335007773
 30
0.0
 11
5818.223308916918
 21
9471.088414793536
 31
0.0
  0
LINE
  5
2D9
330
2
100
AcDbEntity
  8
0
100
AcDbLine
 10
5788.607598660312
 20
9472.295335007773
 30
0.0
 11
5787.12798517591
 21
9471.088414793536
 31
0.0
  0
LINE
  5
2DA
330
2
100
AcDbEntity
  8
0
100
AcDbLine
 10
5782.22061107519
 20
8440.263722243259
 30
0.0
 11
5781.466414432505
 21
8441.030658694099
 31
0.0
  0
LINE
  5
2DB
330
2
100
AcDbEntity
  8
0
100
AcDbLine
 10
5823.130683017636
 20
8440.263722243259
 30
0.0
 11
5823.884879660322
 21
8441.030658694099
 31
0.0
  0
LINE
  5
2DC
330
2
100
AcDbEntity
  8
0
100
AcDbLine
 10
5823.782961195095
 20
8444.579969245657
 30
0.0
 11
5823.884879660322
 21
8441.030658694099
 31
0.0
  0
LINE
  5
2DD
330
2
100
AcDbEntity
  8
0
100
AcDbLine
 10
5781.568332897733
 20
8444.579969245657
 30
0.0
 11
5781.466414432505
 21
8441.030658694099
 31
0.0
  0
LINE
  5
2DE
330
2
100
AcDbEntity
  8
0
100
AcDbLine
 10
5822.274567909722
 20
8446.439981236064
 30
0.0
 11
5823.782961195095
 21
8444.579969245657
 31
0.0
  0
LINE
  5
2DF
330
2
100
AcDbEntity
  8
0
100
AcDbLine
 10
5783.076726183105
 20
8446.439981236064
 30
0.0
 11
5781.568332897733
 21
8444.579969245657
 31
0.0
  0
LINE
  5
2E0
330
2
100
AcDbEntity
  8
0
100
AcDbLine
 10
5821.63757750205
 20
8447.716510013044
 30
0.0
 11
5822.274567909722
 21
8446.439981236064
 31
0.0
  0
LINE
  5
2E1
330
2
100
AcDbEntity
  8
0
100
AcDbLine
 10
5783.713716590779
 20
8447.716510013044
 30
0.0
 11
5783.076726183104
 21
8446.439981236064
 31
0.0
  0
LINE
  5
2E2
330
2
100
AcDbEntity
  8
0
100
AcDbLine
 10
5821.617193809003
 20
8457.419147902732
 30
0.0
 11
5821.63757750205
 21
8447.716510013044
 31
0.0
  0
LINE
  5
2E3
330
2
100
AcDbEntity
  8
0
100
AcDbLine
 10
5783.734100283824
 20
8457.419147902732
 30
0.0
 11
5783.713716590779
 21
8447.716510013044
 31
0.0
  0
ARC
  5
2E4
330
2
100
AcDbEntity
  8
0
100
AcDbCircle
 10
5789.795326808572
 20
8457.406414233563
 30
0.0
 40
6.061239900436103
100
AcDbArc
 50
139.4983322413068
 51
179.879630892408
  0
ARC
  5
2E5
330
2
100
AcDbEntity
  8
0
100
AcDbCircle
 10
5815.555967284256
 20
8457.406414233563
 30
0.0
 40
6.061239900436103
100
AcDbArc
 50
0.1203691075920041
 51
40.50166775869322
  0
LINE
  5
2E6
330
2
100
AcDbEntity
  8
0
100
AcDbLine
 10
5818.151965991257
 20
8463.438707255249
 30
0.0
 11
5820.164855679507
 21
8461.343008814003
 31
0.0
  0
LINE
  5
2E7
330
2
100
AcDbEntity
  8
0
100
AcDbLine
 10
5787.199328101569
 20
8463.438707255249
 30
0.0
 11
5785.186438413321
 21
8461.343008814003
 31
0.0
  0
ARC
  5
2E8
330
2
100
AcDbEntity
  8
0
100
AcDbCircle
 10
5783.435002382617
 20
8467.054290620566
 30
0.0
 40
5.219443570911177
100
AcDbArc
 50
316.154642325325
 51
3.14791673920149
  0
ARC
  5
2E9
330
2
100
AcDbEntity
  8
0
100
AcDbCircle
 10
5821.916291710211
 20
8467.054290620566
 30
0.0
 40
5.219443570911177
100
AcDbArc
 50
176.8520832607985
 51
223.845357674675
  0
LINE
  5
2EA
330
2
100
AcDbEntity
  8
0
100
AcDbLine
 10
5788.646570307805
 20
8467.34091049266
 30
0.0
 11
5788.607598660312
 21
8555.923465245633
 31
0.0
  0
LINE
  5
2EB
330
2
100
AcDbEntity
  8
0
100
AcDbLine
 10
5816.704723785022
 20
8467.34091049266
 30
0.0
 11
5816.743695432517
 21
8555.923465245633
 31
0.0
  0
LINE
  5
2EC
330
2
100
AcDbEntity
  8
0
100
AcDbLine
 10
5787.12798517591
 20
8557.13038545987
 30
0.0
 11
5783.968512753848
 21
8557.140577306393
 31
0.0
  0
LINE
  5
2ED
330
2
100
AcDbEntity
  8
0
100
AcDbLine
 10
5818.223308916918
 20
8557.13038545987
 30
0.0
 11
5821.38278133898
 21
8557.140577306393
 31
0.0
  0
ARC
  5
2EE
330
2
100
AcDbEntity
  8
0
100
AcDbCircle
 10
5783.972997540419
 20
8558.530861143494
 30
0.0
 40
1.390291070609366
100
AcDbArc
 50
175.2320534247957
 51
269.8151755458728
  0
ARC
  5
2EF
330
2
100
AcDbEntity
  8
0
100
AcDbCircle
 10
5821.378296552408
 20
8558.530861143494
 30
0.0
 40
1.390291070609366
100
AcDbArc
 50
270.1848244541272
 51
4.767946575204364
  0
LINE
  5
2F0
330
2
100
AcDbEntity
  8
0
100
AcDbLine
 10
5822.753584696294
 20
8561.668305124138
 30
0.0
 11
5822.763776542816
 21
8558.646422630134
 31
0.0
  0
LINE
  5
2F1
330
2
100
AcDbEntity
  8
0
100
AcDbLine
 10
5782.597709396534
 20
8561.668305124138
 30
0.0
 11
5782.587517550011
 21
8558.646422630134
 31
0.0
  0
ARC
  5
2F2
330
2
100
AcDbEntity
  8
0
100
AcDbCircle
 10
5784.890526382776
 20
8561.059742603755
 30
0.0
 40
1.117908037123068
100
AcDbArc
 50
90.0
 51
147.0179549126824
  0
ARC
  5
2F3
330
2
100
AcDbEntity
  8
0
100
AcDbCircle
 10
5820.460767710052
 20
8561.059742603755
 30
0.0
 40
1.117908037123068
100
AcDbArc
 50
32.9820450873176
 51
90.0
  0
LINE
  5
2F4
330
2
100
AcDbEntity
  8
0
100
AcDbLine
 10
5784.890526382776
 20
8562.177650640877
 30
0.0
 11
5820.460767710052
 21
8562.177650640877
 31
0.0
  0
LINE
  5
2F5
330
2
100
AcDbEntity
  8
0
100
AcDbLine
 10
5817.441084696294
 20
8562.182993373539
 30
0.0
 11
5819.501598592797
 21
8562.177650640877
 31
0.0
  0
LINE
  5
2F6
330
2
100
AcDbEntity
  8
0
100
AcDbLine
 10
5787.910209396534
 20
8562.182993373539
 30
0.0
 11
5785.84969550003
 21
8562.177650640877
 31
0.0
  0
LINE
  5
2F7
330
2
100
AcDbEntity
  8
0
100
AcDbLine
 10
5788.607598660312
 20
8555.923465245633
 30
0.0
 11
5787.12798517591
 21
8557.13038545987
 31
0.0
  0
LINE
  5
2F8
330
2
100
AcDbEntity
  8
0
100
AcDbLine
 10
5816.743695432517
 20
8555.923465245633
 30
0.0
 11
5818.223308916918
 21
8557.13038545987
 31
0.0
  0
ARC
  5
2F9
330
2
100
AcDbEntity
  8
0
100
AcDbCircle
 10
5590.923818224175
 20
9564.244594405118
 30
0.0
 40
63.60095098756415
100
AcDbArc
 50
334.7450030596094
 51
0.0
  0
ARC
  5
2FA
330
2
100
AcDbEntity
  8
0
  6
MITTE
 62
     1
100
AcDbCircle
 10
5590.923818224175
 20
9564.244594405118
 30
0.0
 40
50.00000000000068
100
AcDbArc
 50
324.3590548646116
 51
0.0
  0
ARC
  5
2FB
330
2
100
AcDbEntity
  8
0
100
AcDbCircle
 10
5590.923818224175
 20
9564.244594405118
 30
0.0
 40
36.39904901243585
100
AcDbArc
 50
311.7986377285097
 51
0.0
  0
LINE
  5
2FC
330
2
100
AcDbEntity
  8
0
100
AcDbLine
 10
5654.52476921174
 20
9676.109400126703
 30
0.0
 11
5654.52476921174
 21
9564.244594405118
 31
0.0
  0
LINE
  5
2FD
330
2
100
AcDbEntity
  8
0
100
AcDbLine
 10
5627.322867236611
 20
9676.109400126703
 30
0.0
 11
5627.322867236611
 21
9564.244594405118
 31
0.0
  0
LINE
  5
2FE
330
2
100
AcDbEntity
  8
0
100
AcDbLine
 10
5827.105631091446
 20
9451.172983716766
 30
0.0
 11
5827.154453431813
 21
9433.696111563551
 31
0.0
  0
LINE
  5
2FF
330
2
100
AcDbEntity
  8
0
100
AcDbLine
 10
5827.302995512298
 20
9380.522688689854
 30
0.0
 11
5827.365383892199
 21
9358.189598322217
 31
0.0
  0
LINE
  5
300
330
2
100
AcDbEntity
  8
0
100
AcDbLine
 10
5778.245663001382
 20
9451.172983716766
 30
0.0
 11
5778.196840661014
 21
9433.696111563551
 31
0.0
  0
LINE
  5
301
330
2
100
AcDbEntity
  8
0
100
AcDbLine
 10
5778.048298580529
 20
9380.522688689854
 30
0.0
 11
5777.985910200628
 21
9358.189598322217
 31
0.0
  0
ARC
  5
302
330
2
100
AcDbEntity
  8
0
100
AcDbCircle
 10
5788.582702531179
 20
9357.195144502257
 30
0.0
 40
10.6433522020486
100
AcDbArc
 50
174.6387908857606
 51
241.3040801306698
  0
ARC
  5
303
330
2
100
AcDbEntity
  8
0
100
AcDbCircle
 10
5816.768591561648
 20
9357.195144502257
 30
0.0
 40
10.64335220204859
100
AcDbArc
 50
298.6959198693302
 51
5.361209114239379
  0
ARC
  5
304
330
2
100
AcDbEntity
  8
0
100
AcDbCircle
 10
5802.372448408461
 20
9383.494683923305
 30
0.0
 40
40.62525860318315
100
AcDbArc
 50
270.4276197662312
 51
298.6959198693302
  0
ARC
  5
305
330
2
100
AcDbEntity
  8
0
100
AcDbCircle
 10
5802.978845684367
 20
9383.494683923305
 30
0.0
 40
40.62525860318315
100
AcDbArc
 50
241.3040801306698
 51
269.5723802337688
  0
ARC
  5
306
330
2
100
AcDbEntity
  8
0
100
AcDbCircle
 10
5779.791286215044
 20
9450.70402885996
 30
0.0
 40
1.615199608820222
100
AcDbArc
 50
90.0
 51
163.121769045779
  0
ARC
  5
307
330
2
100
AcDbEntity
  8
0
100
AcDbCircle
 10
5825.560007877784
 20
9450.70402885996
 30
0.0
 40
1.615199608820222
100
AcDbArc
 50
16.87823095422104
 51
89.99999999994789
  0
ARC
  5
308
330
2
100
AcDbEntity
  8
0
100
AcDbCircle
 10
5869.99120572213
 20
9439.906141061083
 30
0.0
 40
4.393875516815148
100
AcDbArc
 50
271.8525431553076
 51
344.3978207872728
  0
ARC
  5
309
330
2
100
AcDbEntity
  8
0
100
AcDbCircle
 10
5869.99120572213
 20
9374.312659192323
 30
0.0
 40
4.393875516815147
100
AcDbArc
 50
15.60217921272722
 51
88.14745684469243
  0
ARC
  5
30A
330
2
100
AcDbEntity
  8
0
100
AcDbCircle
 10
5877.49719975026
 20
9437.810122127847
 30
0.0
 40
3.399277998855041
100
AcDbArc
 50
90.0
 51
164.3978207872728
  0
ARC
  5
30B
330
2
100
AcDbEntity
  8
0
100
AcDbCircle
 10
5877.49719975026
 20
9376.408678125557
 30
0.0
 40
3.399277998855041
100
AcDbArc
 50
195.6021792127272
 51
270.0
  0
LINE
  5
30C
330
2
100
AcDbEntity
  8
0
100
AcDbLine
 10
5877.49719975026
 20
9441.209400126703
 30
0.0
 11
5898.923818224176
 21
9441.209400126703
 31
0.0
  0
LINE
  5
30D
330
2
100
AcDbEntity
  8
0
100
AcDbLine
 10
5877.49719975026
 20
9373.009400126703
 30
0.0
 11
5898.923818224175
 21
9373.009400126703
 31
0.0
  0
LINE
  5
30E
330
2
100
AcDbEntity
  8
0
100
AcDbLine
 10
5756.923818224175
 20
9435.514562070022
 30
0.0
 11
5778.201920575131
 21
9435.514562070022
 31
0.0
  0
LINE
  5
30F
330
2
100
AcDbEntity
  8
0
100
AcDbLine
 10
5827.149373517696
 20
9435.514562070022
 30
0.0
 11
5870.133248048737
 21
9435.514562070022
 31
0.0
  0
LINE
  5
310
330
2
100
AcDbEntity
  8
0
100
AcDbLine
 10
5763.428268358289
 20
9378.704238183382
 30
0.0
 11
5778.043218666413
 21
9378.704238183382
 31
0.0
  0
LINE
  5
311
330
2
100
AcDbEntity
  8
0
100
AcDbLine
 10
5827.308075426416
 20
9378.704238183382
 30
0.0
 11
5870.133248048737
 21
9378.704238183382
 31
0.0
  0
LINE
  5
312
330
2
100
AcDbEntity
  8
0
100
AcDbLine
 10
5818.741608354055
 20
9465.748653244313
 30
0.0
 11
5819.947595095871
 21
9464.453950236431
 31
0.0
  0
LINE
  5
313
330
2
100
AcDbEntity
  8
0
100
AcDbLine
 10
5786.609685738773
 20
9465.748653244313
 30
0.0
 11
5785.403698996957
 21
9464.453950236431
 31
0.0
  0
LINE
  5
314
330
2
100
AcDbEntity
  8
0
100
AcDbLine
 10
5785.403698996957
 20
9453.137081546563
 30
0.0
 11
5785.403698996957
 21
9464.453950236431
 31
0.0
  0
LINE
  5
315
330
2
100
AcDbEntity
  8
0
100
AcDbLine
 10
5819.947595095871
 20
9453.137081546563
 30
0.0
 11
5819.947595095871
 21
9464.453950236431
 31
0.0
  0
LINE
  5
316
330
2
100
AcDbEntity
  8
0
100
AcDbLine
 10
5786.213234924761
 20
9452.319228468816
 30
0.0
 11
5785.403698996957
 21
9453.137081546563
 31
0.0
  0
LINE
  5
317
330
2
100
AcDbEntity
  8
0
100
AcDbLine
 10
5819.138059168032
 20
9452.31922846878
 30
0.0
 11
5819.947595095871
 21
9453.137081546563
 31
0.0
  0
LINE
  5
318
330
2
100
AcDbEntity
  8
0
100
AcDbLine
 10
5778.245663001382
 20
8577.04581653664
 30
0.0
 11
5778.196840661014
 21
8594.522688689854
 31
0.0
  0
LINE
  5
319
330
2
100
AcDbEntity
  8
0
100
AcDbLine
 10
5778.048298580529
 20
8647.696111563551
 30
0.0
 11
5777.985910200628
 21
8670.02920193119
 31
0.0
  0
LINE
  5
31A
330
2
100
AcDbEntity
  8
0
100
AcDbLine
 10
5827.105631091446
 20
8577.04581653664
 30
0.0
 11
5827.154453431813
 21
8594.522688689854
 31
0.0
  0
LINE
  5
31B
330
2
100
AcDbEntity
  8
0
100
AcDbLine
 10
5827.302995512298
 20
8647.696111563551
 30
0.0
 11
5827.365383892199
 21
8670.02920193119
 31
0.0
  0
ARC
  5
31C
330
2
100
AcDbEntity
  8
0
100
AcDbCircle
 10
5816.768591561648
 20
8671.023655751149
 30
0.0
 40
10.64335220204859
100
AcDbArc
 50
354.6387908857607
 51
61.30408013066982
  0
ARC
  5
31D
330
2
100
AcDbEntity
  8
0
100
AcDbCircle
 10
5788.582702531179
 20
8671.023655751149
 30
0.0
 40
10.64335220204859
100
AcDbArc
 50
118.6959198693302
 51
185.3612091142394
  0
ARC
  5
31E
330
2
100
AcDbEntity
  8
0
100
AcDbCircle
 10
5802.978845684367
 20
8644.724116330099
 30
0.0
 40
40.62525860318315
100
AcDbArc
 50
90.42761976623117
 51
118.6959198693302
  0
ARC
  5
31F
330
2
100
AcDbEntity
  8
0
100
AcDbCircle
 10
5802.372448408461
 20
8644.724116330099
 30
0.0
 40
40.62525860318315
100
AcDbArc
 50
61.30408013066982
 51
89.57238023376883
  0
ARC
  5
320
330
2
100
AcDbEntity
  8
0
100
AcDbCircle
 10
5825.560007877784
 20
8577.514771393446
 30
0.0
 40
1.615199608820222
100
AcDbArc
 50
270.0
 51
343.1217690457789
  0
ARC
  5
321
330
2
100
AcDbEntity
  8
0
100
AcDbCircle
 10
5779.791286215044
 20
8577.514771393446
 30
0.0
 40
1.615199608820222
100
AcDbArc
 50
196.878230954221
 51
270.0
  0
ARC
  5
322
330
2
100
AcDbEntity
  8
0
100
AcDbCircle
 10
5869.99120572213
 20
8653.906141061083
 30
0.0
 40
4.393875516815147
100
AcDbArc
 50
271.8525431553076
 51
344.3978207872728
  0
ARC
  5
323
330
2
100
AcDbEntity
  8
0
100
AcDbCircle
 10
5869.99120572213
 20
8588.312659192323
 30
0.0
 40
4.393875516815147
100
AcDbArc
 50
15.60217921272722
 51
88.14745684469243
  0
ARC
  5
324
330
2
100
AcDbEntity
  8
0
100
AcDbCircle
 10
5877.49719975026
 20
8651.810122127848
 30
0.0
 40
3.399277998855041
100
AcDbArc
 50
90.0
 51
164.3978207872728
  0
ARC
  5
325
330
2
100
AcDbEntity
  8
0
100
AcDbCircle
 10
5877.49719975026
 20
8590.408678125557
 30
0.0
 40
3.399277998855041
100
AcDbArc
 50
195.6021792127272
 51
270.0
  0
LINE
  5
326
330
2
100
AcDbEntity
  8
0
100
AcDbLine
 10
5898.923818224176
 20
8587.009400126703
 30
0.0
 11
5877.49719975026
 21
8587.009400126703
 31
0.0
  0
LINE
  5
327
330
2
100
AcDbEntity
  8
0
100
AcDbLine
 10
5898.923818224175
 20
8655.209400126703
 30
0.0
 11
5877.49719975026
 21
8655.209400126703
 31
0.0
  0
LINE
  5
328
330
2
100
AcDbEntity
  8
0
100
AcDbLine
 10
5870.133248048737
 20
8592.704238183382
 30
0.0
 11
5827.149373517696
 21
8592.704238183382
 31
0.0
  0
LINE
  5
329
330
2
100
AcDbEntity
  8
0
100
AcDbLine
 10
5778.201920575131
 20
8592.704238183382
 30
0.0
 11
5763.428268358289
 21
8592.704238183382
 31
0.0
  0
LINE
  5
32A
330
2
100
AcDbEntity
  8
0
100
AcDbLine
 10
5870.133248048737
 20
8649.514562070024
 30
0.0
 11
5827.308075426416
 21
8649.514562070024
 31
0.0
  0
LINE
  5
32B
330
2
100
AcDbEntity
  8
0
100
AcDbLine
 10
5778.043218666413
 20
8649.514562070024
 30
0.0
 11
5763.428268358289
 21
8649.514562070024
 31
0.0
  0
LINE
  5
32C
330
2
100
AcDbEntity
  8
0
100
AcDbLine
 10
5786.609685738773
 20
8562.470147009093
 30
0.0
 11
5785.403698996957
 21
8563.764850016973
 31
0.0
  0
LINE
  5
32D
330
2
100
AcDbEntity
  8
0
100
AcDbLine
 10
5818.741608354055
 20
8562.470147009093
 30
0.0
 11
5819.947595095871
 21
8563.764850016973
 31
0.0
  0
LINE
  5
32E
330
2
100
AcDbEntity
  8
0
100
AcDbLine
 10
5785.403698996957
 20
8563.764850016973
 30
0.0
 11
5785.403698996957
 21
8575.081718706842
 31
0.0
  0
LINE
  5
32F
330
2
100
AcDbEntity
  8
0
100
AcDbLine
 10
5819.947595095871
 20
8563.764850016973
 30
0.0
 11
5819.947595095871
 21
8575.081718706842
 31
0.0
  0
LINE
  5
330
330
2
100
AcDbEntity
  8
0
100
AcDbLine
 10
5819.138059168032
 20
8575.899571784625
 30
0.0
 11
5819.947595095871
 21
8575.081718706842
 31
0.0
  0
LINE
  5
331
330
2
100
AcDbEntity
  8
0
100
AcDbLine
 10
5786.213234924761
 20
8575.89957178459
 30
0.0
 11
5785.403698996957
 21
8575.081718706842
 31
0.0
  0
ARC
  5
332
330
2
100
AcDbEntity
  8
0
100
AcDbCircle
 10
5846.990048253228
 20
8542.209892558534
 30
0.0
 40
0.4167931809033277
100
AcDbArc
 50
277.1254026714583
 51
357.0146586346475
  0
ARC
  5
333
330
2
100
AcDbEntity
  8
0
100
AcDbCircle
 10
5850.61558673815
 20
8438.64262338548
 30
0.0
 40
0.4167931809033277
100
AcDbArc
 50
6.995165382886745
 51
86.88442134602796
  0
LINE
  5
334
330
2
100
AcDbEntity
  8
0
100
AcDbLine
 10
5847.406275800678
 20
8542.188185776398
 30
0.0
 11
5847.527785109782
 21
8544.518126778461
 31
0.0
  0
LINE
  5
335
330
2
100
AcDbEntity
  8
0
100
AcDbLine
 10
5851.029277490436
 20
8438.693382789734
 30
0.0
 11
5851.313416341731
 21
8436.377642152598
 31
0.0
  0
LINE
  5
336
330
2
100
AcDbEntity
  8
0
100
AcDbLine
 10
5847.527785109782
 20
8544.518126778461
 30
0.0
 11
5849.162085317226
 21
8544.584956898467
 31
0.0
  0
LINE
  5
337
330
2
100
AcDbEntity
  8
0
100
AcDbLine
 10
5851.313416341731
 20
8436.377642152598
 30
0.0
 11
5852.948389169241
 21
8436.425258182428
 31
0.0
  0
LINE
  5
338
330
2
100
AcDbEntity
  8
0
100
AcDbLine
 10
5853.060463203035
 20
8439.138084689763
 30
0.0
 11
5852.948389169242
 21
8436.42525818243
 31
0.0
  0
LINE
  5
339
330
2
100
AcDbEntity
  8
0
100
AcDbLine
 10
5849.463586222544
 20
8541.886608245672
 30
0.0
 11
5849.162085317226
 21
8544.584956898467
 31
0.0
  0
LINE
  5
33A
330
2
100
AcDbEntity
  8
0
100
AcDbLine
 10
5853.518395479616
 20
8439.154115344096
 30
0.0
 11
5853.060463203035
 21
8439.138084689763
 31
0.0
  0
LINE
  5
33B
330
2
100
AcDbEntity
  8
0
100
AcDbLine
 10
5849.921518499124
 20
8541.902638900005
 30
0.0
 11
5849.463586222544
 21
8541.886608245672
 31
0.0
  0
LINE
  5
33C
330
2
100
AcDbEntity
  8
0
100
AcDbLine
 10
5856.123912899021
 20
8439.257584941317
 30
0.0
 11
5853.518395479615
 21
8439.154115344094
 31
0.0
  0
LINE
  5
33D
330
2
100
AcDbEntity
  8
0
100
AcDbLine
 10
5852.527893179396
 20
8541.981619950922
 30
0.0
 11
5849.921518499124
 21
8541.902638900005
 31
0.0
  0
LINE
  5
33E
330
2
100
AcDbEntity
  8
0
100
AcDbLine
 10
5852.527893179396
 20
8541.981619950922
 30
0.0
 11
5852.947100295804
 21
8542.391713869147
 31
0.0
  0
LINE
  5
33F
330
2
100
AcDbEntity
  8
0
100
AcDbLine
 10
5856.12391289902
 20
8439.257584941317
 30
0.0
 11
5856.570770677101
 21
8438.877809014775
 31
0.0
  0
LINE
  5
340
330
2
100
AcDbEntity
  8
0
100
AcDbLine
 10
5852.947100295804
 20
8542.391713869147
 30
0.0
 11
5852.855968313977
 21
8545.143899720344
 31
0.0
  0
LINE
  5
341
330
2
100
AcDbEntity
  8
0
100
AcDbLine
 10
5856.570770677101
 20
8438.877809014775
 30
0.0
 11
5856.67231530104
 21
8436.125987674826
 31
0.0
  0
ARC
  5
342
330
2
100
AcDbEntity
  8
0
100
AcDbCircle
 10
5853.328147646715
 20
8545.145891547934
 30
0.0
 40
0.472183533853322
100
AcDbArc
 50
92.00491200877076
 51
180.2416934194321
  0
ARC
  5
343
330
2
100
AcDbEntity
  8
0
100
AcDbCircle
 10
5857.143478057766
 20
8436.157019051161
 30
0.0
 40
0.472183533853322
100
AcDbArc
 50
183.7681305980779
 51
272.0049120088229
  0
LINE
  5
344
330
2
100
AcDbEntity
  8
0
100
AcDbLine
 10
5866.358252180511
 20
8436.007124242371
 30
0.0
 11
5857.159997481365
 21
8435.685124573247
 31
0.0
  0
LINE
  5
345
330
2
100
AcDbEntity
  8
0
100
AcDbLine
 10
5862.509882922262
 20
8545.939785694973
 30
0.0
 11
5853.311628223116
 21
8545.617786025849
 31
0.0
  0
ARC
  5
346
330
2
100
AcDbEntity
  8
0
100
AcDbCircle
 10
5862.547988660281
 20
8545.486871391298
 30
0.0
 40
0.4545144813341361
100
AcDbArc
 50
37.02437960091319
 51
94.80922800571338
  0
ARC
  5
347
330
2
100
AcDbEntity
  8
0
100
AcDbCircle
 10
5866.3645934661
 20
8436.461594485445
 30
0.0
 40
0.4545144813341361
100
AcDbArc
 50
269.2005960118081
 51
326.9854444165759
  0
LINE
  5
348
330
2
100
AcDbEntity
  8
0
100
AcDbLine
 10
5870.060594819593
 20
8441.31557542078
 30
0.0
 11
5866.745718484624
 21
8436.213951326854
 31
0.0
  0
LINE
  5
349
330
2
100
AcDbEntity
  8
0
100
AcDbLine
 10
5866.574369311779
 20
8540.903224832626
 30
0.0
 11
5862.910863642304
 21
8545.760559464044
 31
0.0
  0
LINE
  5
34A
330
2
100
AcDbEntity
  8
0
100
AcDbLine
 10
5850.638239577534
 20
8439.058800516657
 30
0.0
 11
5763.428268358288
 21
8436.005875500396
 31
0.0
  0
LINE
  5
34B
330
2
100
AcDbEntity
  8
0
100
AcDbLine
 10
5847.041747873367
 20
8541.796318254539
 30
0.0
 11
5820.295364823936
 21
8540.860018187419
 31
0.0
  0
LINE
  5
34C
330
2
100
AcDbEntity
  8
0
100
AcDbLine
 10
5788.61471369731
 20
8539.750986146657
 30
0.0
 11
5785.722847658855
 21
8539.64975173448
 31
0.0
  0
LINE
  5
34D
330
2
100
AcDbEntity
  8
0
100
AcDbLine
 10
5773.421062716054
 20
8539.219108007948
 30
0.0
 11
5763.428268358289
 21
8538.869294202821
 31
0.0
  0
LINE
  5
34E
330
2
100
AcDbEntity
  8
0
100
AcDbLine
 10
5823.244149685417
 20
8553.922947303083
 30
0.0
 11
5820.295364823936
 21
8540.860018187419
 31
0.0
  0
LINE
  5
34F
330
2
100
AcDbEntity
  8
0
100
AcDbLine
 10
5770.841031805704
 20
8557.714798457177
 30
0.0
 11
5770.417515209981
 21
8555.961820203791
 31
0.0
  0
LINE
  5
350
330
2
100
AcDbEntity
  8
0
100
AcDbLine
 10
5783.075641664448
 20
8554.955537799557
 30
0.0
 11
5788.608574491427
 21
8553.70540111972
 31
0.0
  0
LINE
  5
351
330
2
100
AcDbEntity
  8
0
100
AcDbLine
 10
5783.075641664448
 20
8554.955537799557
 30
0.0
 11
5770.841031805704
 21
8557.714798457177
 31
0.0
  0
LINE
  5
352
330
2
100
AcDbEntity
  8
0
100
AcDbLine
 10
5773.421062716054
 20
8539.219108007948
 30
0.0
 11
5776.871627245044
 21
8554.504889090196
 31
0.0
  0
LINE
  5
353
330
2
100
AcDbEntity
  8
0
100
AcDbLine
 10
5785.722847658855
 20
8539.64975173448
 30
0.0
 11
5788.484444094657
 21
8551.883448047221
 31
0.0
  0
IMAGE
  5
515
330
2
100
AcDbEntity
  8
0
 62
   251
370
     0
 92
      140
310
8C000000010000008400000006000000050000003BF59DD628A1B540A7C13261A86FC24000000000000000004A5D5E362752B640A7C13261A86FC24000000000000000004A5D5E362752B640F21FA49ACB88C24000000000000000003BF59DD628A1B540F21FA49ACB88C24000000000000000003BF59DD628A1B540A7C132
310
61A86FC2400000000000000000
100
AcDbRasterImage
 90
        0
 10
5537.159524795886
 20
9439.315466255719
 30
0.0
 11
0.6704304869442483
 21
0.0
 31
0.0
 12
2.462774045702763E-17
 22
0.4022015241320914
 32
0.0
 13
264.0
 23
125.0
340
50B
 70
    15
280
     0
281
    50
282
    50
283
     0
360
516
 71
     1
 91
        2
 14
-0.5
 24
-0.5
 14
263.5
 24
124.5
  0
ENDSEC
  0
SECTION
  2
OBJECTS
  0
DICTIONARY
  5
A
330
0
100
AcDbDictionary
281
     1
  3
ACAD_CIP_PREVIOUS_PRODUCT_INFO
350
38A
  3
ACAD_COLOR
350
42
  3
ACAD_DETAILVIEWSTYLE
350
386
  3
ACAD_GROUP
350
39
  3
ACAD_IMAGE_DICT
350
50A
  3
ACAD_IMAGE_VARS
350
514
  3
ACAD_LAYOUT
350
17
  3
ACAD_MATERIAL
350
C
  3
ACAD_MLEADERSTYLE
350
45
  3
ACAD_MLINESTYLE
350
3A
  3
ACAD_PLOTSETTINGS
350
3B
  3
ACAD_PLOTSTYLENAME
350
9
  3
ACAD_SCALELIST
350
43
  3
ACAD_SECTIONVIEWSTYLE
350
384
  3
ACAD_TABLESTYLE
350
44
  3
ACAD_VISUALSTYLE
350
2F
  3
ACDBHEADERROUNDTRIPXREC
350
528
  3
AcDbVariableDictionary
350
35E
  3
DWGPROPS
350
52B
  0
DICTIONARY
  5
52C
330
2C
100
AcDbDictionary
280
     1
281
     1
  3
ACAD_XREC_ROUNDTRIP
360
52D
  0
DICTIONARY
  5
22
330
21
100
AcDbDictionary
280
     1
281
     1
  3
ACAD_LAYERSTATES
360
23
  0
DICTIONARY
  5
3
330
2
100
AcDbDictionary
280
     1
281
     1
  3
ACAD_SORTENTS
360
354
  0
DICTIONARY
  5
506
330
38C
100
AcDbDictionary
280
     1
281
     1
  3
ACAD_SORTENTS
360
507
  0
IMAGEDEF_REACTOR
  5
505
330
504
100
AcDbRasterImageDefReactor
 90
        2
330
504
  0
IMAGEDEF_REACTOR
  5
516
330
515
100
AcDbRasterImageDefReactor
 90
        2
330
515
  0
XRECORD
  5
38A
102
{ACAD_REACTORS
330
A
102
}
330
A
100
AcDbXrecord
280
     1
300
ACD
300
2016
300
86445ACD_2016_0F
  0
DICTIONARY
  5
42
102
{ACAD_REACTORS
330
A
102
}
330
A
100
AcDbDictionary
281
     1
  0
DICTIONARY
  5
386
102
{ACAD_REACTORS
330
A
102
}
330
A
100
AcDbDictionary
281
     1
  3
Metric50
350
387
  0
DICTIONARY
  5
39
102
{ACAD_REACTORS
330
A
102
}
330
A
100
AcDbDictionary
281
     1
  0
DICTIONARY
  5
50A
102
{ACAD_REACTORS
330
A
102
}
330
A
100
AcDbDictionary
281
     1
  3
Picture1
350
50B
  0
RASTERVARIABLES
  5
514
102
{ACAD_REACTORS
330
A
102
}
330
A
100
AcDbRasterVariables
 90
        0
 70
     1
 71
     1
 72
     1
  0
DICTIONARY
  5
17
102
{ACAD_REACTORS
330
A
102
}
330
A
100
AcDbDictionary
281
     1
  3
A0
350
1E
  3
Model
350
16
  0
DICTIONARY
  5
C
102
{ACAD_REACTORS
330
A
102
}
330
A
100
AcDbDictionary
281
     1
  3
ByBlock
350
3F
  3
ByLayer
350
3C
  3
Global
350
B
  0
DICTIONARY
  5
45
102
{ACAD_REACTORS
330
A
102
}
330
A
100
AcDbDictionary
281
     1
  3
Standard
350
383
  0
DICTIONARY
  5
3A
102
{ACAD_REACTORS
330
A
102
}
330
A
100
AcDbDictionary
281
     1
  3
Standard
350
46
  0
DICTIONARY
  5
3B
102
{ACAD_REACTORS
330
A
102
}
330
A
100
AcDbDictionary
281
     1
  0
ACDBDICTIONARYWDFLT
  5
9
102
{ACAD_REACTORS
330
A
102
}
330
A
100
AcDbDictionary
281
     1
  3
Normal
350
8
100
AcDbDictionaryWithDefault
340
8
  0
DICTIONARY
  5
43
102
{ACAD_REACTORS
330
A
102
}
330
A
100
AcDbDictionary
281
     1
  3
A0
350
4F
  3
A1
350
50
  3
A2
350
51
  3
A3
350
52
  3
A4
350
53
  3
A5
350
54
  3
A6
350
55
  3
A7
350
56
  3
A8
350
57
  3
A9
350
58
  3
B0
350
59
  3
B1
350
5A
  3
B2
350
5B
  3
B3
350
5C
  3
B4
350
5D
  3
B5
350
5E
  3
B6
350
5F
  0
DICTIONARY
  5
384
102
{ACAD_REACTORS
330
A
102
}
330
A
100
AcDbDictionary
281
     1
  3
Metric50
350
385
  0
DICTIONARY
  5
44
102
{ACAD_REACTORS
330
A
102
}
330
A
100
AcDbDictionary
281
     1
  3
Standard
350
47
  0
DICTIONARY
  5
2F
102
{ACAD_REACTORS
330
A
102
}
330
A
100
AcDbDictionary
281
     1
  3
2dWireframe
350
2E
  3
Basic
350
372
  3
Brighten
350
376
  3
ColorChange
350
37A
  3
Conceptual
350
374
  3
Dim
350
375
  3
EdgeColorOff
350
382
  3
Facepattern
350
379
  3
Flat
350
36E
  3
FlatWithEdges
350
36F
  3
Gouraud
350
370
  3
GouraudWithEdges
350
371
  3
Hidden
350
373
  3
JitterOff
350
380
  3
Linepattern
350
378
  3
OverhangOff
350
381
  3
Realistic
350
49
  3
Shaded
350
37F
  3
Shaded with edges
350
37E
  3
Shades of Gray
350
37B
  3
Sketchy
350
37C
  3
Thicken
350
377
  3
Wireframe
350
4C
  3
X-Ray
350
37D
  0
DICTIONARY
  5
528
102
{ACAD_REACTORS
330
A
102
}
330
A
100
AcDbDictionary
281
     1
  3
COLORDICT
350
529
  3
MATERIALDICT
350
52A
  0
DICTIONARY
  5
35E
102
{ACAD_REACTORS
330
A
102
}
330
A
100
AcDbDictionary
281
     1
  3
CANNOSCALE
350
362
  3
CMLEADERSTYLE
350
360
  3
CTABLESTYLE
350
35F
  3
CVIEWDETAILSTYLE
350
524
  3
CVIEWSECTIONSTYLE
350
525
  3
DIMASSOC
350
369
  3
HIDETEXT
350
368
  3
INDEXCTL
350
367
  3
LAYEREVAL
350
364
  3
LAYERNOTIFY
350
365
  3
LIGHTINGUNITS
350
363
  3
MSLTSCALE
350
361
  3
PSOLHEIGHT
350
527
  3
PSOLWIDTH
350
526
  3
SORTENTS
350
366
  0
XRECORD
  5
52B
102
{ACAD_REACTORS
330
A
102
}
330
A
100
AcDbXrecord
280
     1
  1
DWGPROPS COOKIE
  2

  3

  4

  6

  7

  8
acae2
  9

300
=
301
=
302
=
303
=
304
=
305
=
306
=
307
=
308
=
309
=
 40
0.0
 41
2458004.344350498
 42
2460390.426711771
  1

 90
        0
  0
XRECORD
  5
52D
102
{ACAD_REACTORS
330
52C
102
}
330
52C
100
AcDbXrecord
280
     1
102
VTR_0.000_0.000_1.000_1.000_VISUALSTYLE
340
2E
102
VTR_0.000_0.000_1.000_1.000_GRIDDISPLAY
 70
     3
102
VTR_0.000_0.000_1.000_1.000_GRIDMAJOR
 70
     5
102
VTR_0.000_0.000_1.000_1.000_DEFAULTLIGHTING
280
     1
102
VTR_0.000_0.000_1.000_1.000_DEFAULTLIGHTINGTYPE
 70
     1
102
VTR_0.000_0.000_1.000_1.000_BRIGHTNESS
141
0.0
102
VTR_0.000_0.000_1.000_1.000_CONTRAST
142
0.0
  0
DICTIONARY
  5
23
102
{ACAD_REACTORS
330
22
102
}
330
22
100
AcDbDictionary
281
     1
  0
SORTENTSTABLE
  5
354
102
{ACAD_REACTORS
330
3
102
}
330
3
100
AcDbSortentsTable
330
2
331
0
  5
285
331
1C0
  5
1F5
331
1C1
  5
1F4
331
1C3
  5
1F3
331
1C4
  5
1F2
331
1C5
  5
1F1
331
1C6
  5
1F0
331
1C7
  5
1EF
331
1C8
  5
1EE
331
1C9
  5
1ED
331
1CA
  5
1EC
331
1CB
  5
1EB
331
1CC
  5
1EA
331
1CD
  5
1E9
331
1CE
  5
1E8
331
1CF
  5
1E7
331
1D0
  5
1E6
331
1D1
  5
1E5
331
1D2
  5
1E4
331
1D3
  5
1E3
331
1D4
  5
1E2
331
1D5
  5
1E1
331
1D6
  5
1E0
331
1D7
  5
1DF
331
1D8
  5
1DE
331
1D9
  5
1DD
331
1DA
  5
1DC
331
1DC
  5
1DA
331
1DD
  5
1D9
331
1DE
  5
1D8
331
1DF
  5
1D7
331
1E0
  5
1D6
331
1E1
  5
1D5
331
1E2
  5
1D4
331
1E3
  5
1D3
331
1E4
  5
1D2
331
1E5
  5
1D1
331
1E6
  5
1D0
331
1E7
  5
1CF
331
1E8
  5
1CE
331
1E9
  5
1CD
331
1EA
  5
1CC
331
1EB
  5
1CB
331
1EC
  5
1CA
331
1ED
  5
1C9
331
1EE
  5
1C8
331
1EF
  5
1C7
331
1F0
  5
1C6
331
1F1
  5
1C5
331
1F2
  5
1C4
331
1F3
  5
1C3
331
1F4
  5
1C1
331
1F5
  5
1C0
331
1F6
  5
1BD
331
1F7
  5
1BC
331
1F8
  5
1BB
331
1F9
  5
1BA
331
1FA
  5
1B9
331
1FB
  5
1B8
331
1FC
  5
1B7
331
1FD
  5
1B6
331
1FE
  5
1B5
331
1FF
  5
1B4
331
200
  5
1B3
331
201
  5
1B2
331
202
  5
1B1
331
203
  5
1B0
331
204
  5
1AF
331
205
  5
1AE
331
206
  5
1AD
331
207
  5
1AC
331
208
  5
1AB
331
209
  5
1AA
331
20A
  5
1A9
331
20B
  5
1A8
331
20C
  5
1A7
331
20D
  5
1A6
331
20E
  5
1A5
331
20F
  5
1A4
331
210
  5
1A3
331
211
  5
1A2
331
212
  5
1A1
331
213
  5
1A0
331
214
  5
19F
331
215
  5
19E
331
216
  5
19D
331
217
  5
19C
331
218
  5
19B
331
219
  5
19A
331
21A
  5
199
331
21B
  5
198
331
21C
  5
197
331
21D
  5
196
331
21E
  5
195
331
21F
  5
194
331
220
  5
193
331
221
  5
192
331
222
  5
191
331
223
  5
190
331
224
  5
18F
331
225
  5
18E
331
226
  5
18D
331
227
  5
18C
331
228
  5
18B
331
229
  5
18A
331
22A
  5
189
331
22B
  5
188
331
22C
  5
187
331
22D
  5
186
331
22E
  5
185
331
22F
  5
184
331
230
  5
183
331
231
  5
182
331
232
  5
181
331
233
  5
180
331
234
  5
17F
331
235
  5
17E
331
236
  5
17D
331
237
  5
17C
331
238
  5
17B
331
239
  5
17A
331
23A
  5
179
331
23B
  5
178
331
23C
  5
177
331
23D
  5
176
331
23E
  5
175
331
23F
  5
174
331
240
  5
173
331
241
  5
172
331
242
  5
171
331
243
  5
170
331
244
  5
16F
331
245
  5
16E
331
246
  5
16D
331
247
  5
16C
331
248
  5
16B
331
249
  5
16A
331
24A
  5
169
331
24B
  5
168
331
24C
  5
167
331
24D
  5
166
331
24E
  5
165
331
24F
  5
164
331
250
  5
163
331
251
  5
162
331
252
  5
161
331
253
  5
160
331
254
  5
15F
331
255
  5
15E
331
256
  5
15D
331
257
  5
15C
331
258
  5
15B
331
259
  5
15A
331
25A
  5
159
331
25B
  5
158
331
25C
  5
157
331
25D
  5
156
331
25E
  5
155
331
25F
  5
154
331
260
  5
153
331
261
  5
152
331
262
  5
151
331
263
  5
150
331
264
  5
14F
331
265
  5
14E
331
266
  5
14D
331
267
  5
14C
331
268
  5
14B
331
269
  5
14A
331
26A
  5
149
331
26B
  5
148
331
26C
  5
147
331
26D
  5
146
331
26E
  5
145
331
26F
  5
144
331
270
  5
143
331
271
  5
142
331
272
  5
141
331
273
  5
140
331
274
  5
13F
331
275
  5
13E
331
276
  5
13D
331
277
  5
13C
331
278
  5
13B
331
279
  5
13A
331
27A
  5
139
331
27B
  5
138
331
27C
  5
137
331
27D
  5
136
331
27E
  5
135
331
27F
  5
134
331
280
  5
133
331
281
  5
132
331
282
  5
131
331
283
  5
130
331
284
  5
12F
331
285
  5
12E
331
286
  5
12D
331
287
  5
12C
331
288
  5
12B
331
289
  5
12A
331
28A
  5
129
331
28B
  5
128
331
28C
  5
127
331
28D
  5
126
331
28E
  5
125
331
28F
  5
124
331
290
  5
123
331
291
  5
122
331
292
  5
121
331
293
  5
120
331
294
  5
11F
331
295
  5
11E
331
296
  5
11D
331
297
  5
11C
331
298
  5
11B
331
299
  5
11A
331
29A
  5
119
331
29B
  5
118
331
29C
  5
117
331
29D
  5
116
331
29E
  5
115
331
29F
  5
114
331
2A0
  5
113
331
2A1
  5
112
331
2A2
  5
111
331
2A3
  5
110
331
2A4
  5
10F
331
2A5
  5
10E
331
2A6
  5
10D
331
2A7
  5
10C
331
2A8
  5
10B
331
2A9
  5
10A
331
2AA
  5
109
331
2AB
  5
108
331
2AC
  5
107
331
2AD
  5
106
331
2AE
  5
105
331
2AF
  5
104
331
2B0
  5
103
331
2B1
  5
102
331
2B2
  5
101
331
2B3
  5
100
331
2B4
  5
FF
331
2B5
  5
FE
331
2B6
  5
FD
331
2B7
  5
FC
331
2B8
  5
FB
331
2B9
  5
FA
331
2BA
  5
F9
331
2BB
  5
F8
331
2BC
  5
F7
331
2BD
  5
F6
331
2BE
  5
F5
331
2BF
  5
F4
331
2C0
  5
F3
331
2C1
  5
F2
331
2C2
  5
F1
331
2C3
  5
F0
331
2C4
  5
EF
331
2C5
  5
EE
331
2C6
  5
ED
331
2C7
  5
EC
331
2C8
  5
EB
331
2C9
  5
EA
331
2CA
  5
E9
331
2CB
  5
E8
331
2CC
  5
E7
331
2CD
  5
E6
331
2CE
  5
E5
331
2CF
  5
E4
331
2D0
  5
E3
331
2D1
  5
E2
331
2D2
  5
E1
331
2D3
  5
E0
331
2D4
  5
DF
331
2D5
  5
DE
331
2D6
  5
DD
331
2D7
  5
DC
331
2D8
  5
DB
331
2D9
  5
DA
331
2DA
  5
D9
331
2DB
  5
D8
331
2DC
  5
D7
331
2DD
  5
D6
331
2DE
  5
D5
331
2DF
  5
D4
331
2E0
  5
D3
331
2E1
  5
D2
331
2E2
  5
D1
331
2E3
  5
D0
331
2E4
  5
CF
331
2E5
  5
CE
331
2E6
  5
CD
331
2E7
  5
CC
331
2E8
  5
CB
331
2E9
  5
CA
331
2EA
  5
C9
331
2EB
  5
C8
331
2EC
  5
C7
331
2ED
  5
C6
331
2EE
  5
C5
331
2EF
  5
C4
331
2F0
  5
C3
331
2F1
  5
C2
331
2F2
  5
C1
331
2F3
  5
C0
331
2F4
  5
BF
331
2F5
  5
BE
331
2F6
  5
BD
331
2F7
  5
BC
331
2F8
  5
BB
331
2F9
  5
BA
331
2FA
  5
B9
331
2FB
  5
B8
331
2FC
  5
B7
331
2FD
  5
B6
331
2FE
  5
B5
331
2FF
  5
B4
331
300
  5
B3
331
301
  5
B2
331
302
  5
B1
331
303
  5
B0
331
304
  5
AF
331
305
  5
AE
331
306
  5
AD
331
307
  5
AC
331
308
  5
AB
331
309
  5
AA
331
30A
  5
A9
331
30B
  5
A8
331
30C
  5
A7
331
30D
  5
A6
331
30E
  5
A5
331
30F
  5
A4
331
310
  5
A3
331
311
  5
A2
331
312
  5
A1
331
313
  5
A0
331
314
  5
9F
331
315
  5
9E
331
316
  5
9D
331
317
  5
9C
331
318
  5
9B
331
319
  5
9A
331
31A
  5
99
331
31B
  5
98
331
31C
  5
97
331
31D
  5
96
331
31E
  5
95
331
31F
  5
94
331
320
  5
93
331
321
  5
92
331
322
  5
91
331
323
  5
90
331
324
  5
8F
331
325
  5
8E
331
326
  5
8D
331
327
  5
8C
331
328
  5
8B
331
329
  5
8A
331
32A
  5
89
331
32B
  5
88
331
32C
  5
87
331
32D
  5
86
331
32E
  5
85
331
32F
  5
84
331
330
  5
83
331
331
  5
82
331
332
  5
81
331
333
  5
80
331
334
  5
7F
331
335
  5
7E
331
336
  5
7D
331
337
  5
7C
331
338
  5
7B
331
339
  5
7A
331
33A
  5
79
331
33B
  5
78
331
33C
  5
77
331
33D
  5
76
331
33E
  5
75
331
33F
  5
74
331
340
  5
73
331
341
  5
72
331
342
  5
71
331
343
  5
70
331
344
  5
6F
331
345
  5
6E
331
346
  5
6D
331
347
  5
6C
331
348
  5
6B
331
349
  5
6A
331
34A
  5
69
331
34B
  5
68
331
34C
  5
67
331
34D
  5
66
331
34E
  5
65
331
34F
  5
64
331
350
  5
63
331
351
  5
62
331
352
  5
61
331
353
  5
60
  0
SORTENTSTABLE
  5
507
102
{ACAD_REACTORS
330
506
102
}
330
506
100
AcDbSortentsTable
330
38C
331
38D
  5
503
331
38E
  5
502
331
38F
  5
501
331
390
  5
500
331
391
  5
4FF
331
392
  5
4FE
331
393
  5
4FD
331
394
  5
4FC
331
395
  5
4FB
331
396
  5
4FA
331
397
  5
4F9
331
398
  5
4F8
331
399
  5
4F7
331
39A
  5
4F6
331
39B
  5
4F5
331
39C
  5
4F4
331
39D
  5
4F3
331
39E
  5
4F2
331
39F
  5
4F1
331
3A0
  5
4F0
331
3A1
  5
4EF
331
3A2
  5
4EE
331
3A3
  5
4ED
331
3A4
  5
4EC
331
3A5
  5
4EB
331
3A6
  5
4EA
331
3A7
  5
4E9
331
3A8
  5
4E8
331
3A9
  5
4E7
331
3AA
  5
4E6
331
3AB
  5
4E5
331
3AC
  5
4E4
331
3AD
  5
4E3
331
3AE
  5
4E2
331
3AF
  5
4E1
331
3B0
  5
4E0
331
3B1
  5
4DF
331
3B2
  5
4DE
331
3B3
  5
4DD
331
3B4
  5
4DC
331
3B5
  5
4DB
331
3B6
  5
4DA
331
3B7
  5
4D9
331
3B8
  5
4D8
331
3B9
  5
4D7
331
3BA
  5
4D6
331
3BB
  5
4D5
331
3BC
  5
4D4
331
3BD
  5
4D3
331
3BE
  5
4D2
331
3BF
  5
4D1
331
3C0
  5
4D0
331
3C1
  5
4CF
331
3C2
  5
4CE
331
3C3
  5
4CD
331
3C4
  5
4CC
331
3C5
  5
4CB
331
3C6
  5
4CA
331
3C7
  5
4C9
331
3C8
  5
4C8
331
3C9
  5
4C7
331
3CA
  5
4C6
331
3CB
  5
4C5
331
3CC
  5
4C4
331
3CD
  5
4C3
331
3CE
  5
4C2
331
3CF
  5
4C1
331
3D0
  5
4C0
331
3D1
  5
4BF
331
3D2
  5
4BE
331
3D3
  5
4BD
331
3D4
  5
4BC
331
3D5
  5
4BB
331
3D6
  5
4BA
331
3D7
  5
4B9
331
3D8
  5
4B8
331
3D9
  5
4B7
331
3DA
  5
4B6
331
3DB
  5
4B5
331
3DC
  5
4B4
331
3DD
  5
4B3
331
3DE
  5
4B2
331
3DF
  5
4B1
331
3E0
  5
4B0
331
3E1
  5
4AF
331
3E2
  5
4AE
331
3E3
  5
4AD
331
3E4
  5
4AC
331
3E5
  5
4AB
331
3E6
  5
4AA
331
3E7
  5
4A9
331
3E8
  5
4A8
331
3E9
  5
4A7
331
3EA
  5
4A6
331
3EB
  5
4A5
331
3EC
  5
4A4
331
3ED
  5
4A3
331
3EE
  5
4A2
331
3EF
  5
4A1
331
3F0
  5
4A0
331
3F1
  5
49F
331
3F2
  5
49E
331
3F3
  5
49D
331
3F4
  5
49C
331
3F5
  5
49B
331
3F6
  5
49A
331
3F7
  5
499
331
3F8
  5
498
331
3F9
  5
497
331
3FA
  5
496
331
3FB
  5
495
331
3FC
  5
494
331
3FD
  5
493
331
3FE
  5
492
331
3FF
  5
491
331
400
  5
490
331
401
  5
48F
331
402
  5
48E
331
403
  5
48D
331
404
  5
48C
331
405
  5
48B
331
406
  5
48A
331
407
  5
489
331
408
  5
488
331
409
  5
487
331
40A
  5
486
331
40B
  5
485
331
40C
  5
484
331
40D
  5
483
331
40E
  5
482
331
40F
  5
481
331
410
  5
480
331
411
  5
47F
331
412
  5
47E
331
413
  5
47D
331
414
  5
47C
331
415
  5
47B
331
416
  5
47A
331
417
  5
479
331
418
  5
478
331
419
  5
477
331
41A
  5
476
331
41B
  5
475
331
41C
  5
474
331
41D
  5
473
331
41E
  5
472
331
41F
  5
471
331
420
  5
470
331
421
  5
46F
331
422
  5
46E
331
423
  5
46D
331
424
  5
46C
331
425
  5
46B
331
426
  5
46A
331
427
  5
469
331
428
  5
468
331
429
  5
467
331
42A
  5
466
331
42B
  5
465
331
42C
  5
464
331
42D
  5
463
331
42E
  5
462
331
42F
  5
461
331
430
  5
460
331
431
  5
45F
331
432
  5
45E
331
433
  5
45D
331
434
  5
45C
331
435
  5
45B
331
436
  5
45A
331
437
  5
459
331
438
  5
458
331
439
  5
457
331
43A
  5
456
331
43B
  5
455
331
43C
  5
454
331
43D
  5
453
331
43E
  5
452
331
43F
  5
451
331
440
  5
450
331
441
  5
44F
331
442
  5
44E
331
443
  5
44D
331
444
  5
44C
331
445
  5
44B
331
446
  5
44A
331
447
  5
449
331
449
  5
447
331
44A
  5
446
331
44B
  5
445
331
44C
  5
444
331
44D
  5
443
331
44E
  5
442
331
44F
  5
441
331
450
  5
440
331
451
  5
43F
331
452
  5
43E
331
453
  5
43D
331
454
  5
43C
331
455
  5
43B
331
456
  5
43A
331
457
  5
439
331
458
  5
438
331
459
  5
437
331
45A
  5
436
331
45B
  5
435
331
45C
  5
434
331
45D
  5
433
331
45E
  5
432
331
45F
  5
431
331
460
  5
430
331
461
  5
42F
331
462
  5
42E
331
463
  5
42D
331
464
  5
42C
331
465
  5
42B
331
466
  5
42A
331
467
  5
429
331
468
  5
428
331
469
  5
427
331
46A
  5
426
331
46B
  5
425
331
46C
  5
424
331
46D
  5
423
331
46E
  5
422
331
46F
  5
421
331
470
  5
420
331
471
  5
41F
331
472
  5
41E
331
473
  5
41D
331
474
  5
41C
331
475
  5
41B
331
476
  5
41A
331
477
  5
419
331
478
  5
418
331
479
  5
417
331
47A
  5
416
331
47B
  5
415
331
47C
  5
414
331
47D
  5
413
331
47E
  5
412
331
47F
  5
411
331
480
  5
410
331
481
  5
40F
331
482
  5
40E
331
483
  5
40D
331
484
  5
40C
331
485
  5
40B
331
486
  5
40A
331
487
  5
409
331
488
  5
408
331
489
  5
407
331
48A
  5
406
331
48B
  5
405
331
48C
  5
404
331
48D
  5
403
331
48E
  5
402
331
48F
  5
401
331
490
  5
400
331
491
  5
3FF
331
492
  5
3FE
331
493
  5
3FD
331
494
  5
3FC
331
495
  5
3FB
331
496
  5
3FA
331
497
  5
3F9
331
498
  5
3F8
331
499
  5
3F7
331
49A
  5
3F6
331
49B
  5
3F5
331
49C
  5
3F4
331
49D
  5
3F3
331
49E
  5
3F2
331
49F
  5
3F1
331
4A0
  5
3F0
331
4A1
  5
3EF
331
4A2
  5
3EE
331
4A3
  5
3ED
331
4A4
  5
3EC
331
4A5
  5
3EB
331
4A6
  5
3EA
331
4A7
  5
3E9
331
4A8
  5
3E8
331
4A9
  5
3E7
331
4AA
  5
3E6
331
4AB
  5
3E5
331
4AC
  5
3E4
331
4AD
  5
3E3
331
4AE
  5
3E2
331
4AF
  5
3E1
331
4B0
  5
3E0
331
4B1
  5
3DF
331
4B2
  5
3DE
331
4B3
  5
3DD
331
4B4
  5
3DC
331
4B5
  5
3DB
331
4B6
  5
3DA
331
4B7
  5
3D9
331
4B8
  5
3D8
331
4B9
  5
3D7
331
4BA
  5
3D6
331
4BB
  5
3D5
331
4BC
  5
3D4
331
4BD
  5
3D3
331
4BE
  5
3D2
331
4BF
  5
3D1
331
4C0
  5
3D0
331
4C1
  5
3CF
331
4C2
  5
3CE
331
4C3
  5
3CD
331
4C4
  5
3CC
331
4C5
  5
3CB
331
4C6
  5
3CA
331
4C7
  5
3C9
331
4C8
  5
3C8
331
4C9
  5
3C7
331
4CA
  5
3C6
331
4CB
  5
3C5
331
4CC
  5
3C4
331
4CD
  5
3C3
331
4CE
  5
3C2
331
4CF
  5
3C1
331
4D0
  5
3C0
331
4D1
  5
3BF
331
4D2
  5
3BE
331
4D3
  5
3BD
331
4D4
  5
3BC
331
4D5
  5
3BB
331
4D6
  5
3BA
331
4D7
  5
3B9
331
4D8
  5
3B8
331
4D9
  5
3B7
331
4DA
  5
3B6
331
4DB
  5
3B5
331
4DC
  5
3B4
331
4DD
  5
3B3
331
4DE
  5
3B2
331
4DF
  5
3B1
331
4E0
  5
3B0
331
4E1
  5
3AF
331
4E2
  5
3AE
331
4E3
  5
3AD
331
4E4
  5
3AC
331
4E5
  5
3AB
331
4E6
  5
3AA
331
4E7
  5
3A9
331
4E8
  5
3A8
331
4E9
  5
3A7
331
4EA
  5
3A6
331
4EB
  5
3A5
331
4EC
  5
3A4
331
4ED
  5
3A3
331
4EE
  5
3A2
331
4EF
  5
3A1
331
4F0
  5
3A0
331
4F1
  5
39F
331
4F2
  5
39E
331
4F3
  5
39D
331
4F4
  5
39C
331
4F5
  5
39B
331
4F6
  5
39A
331
4F7
  5
399
331
4F8
  5
398
331
4F9
  5
397
331
4FA
  5
396
331
4FB
  5
395
331
4FC
  5
394
331
4FD
  5
393
331
4FE
  5
392
331
4FF
  5
391
331
500
  5
390
331
501
  5
38F
331
502
  5
38E
331
503
  5
38D
  0
ACDBDETAILVIEWSTYLE
  5
387
102
{ACAD_REACTORS
330
386
102
}
102
{ACAD_XDICTIONARY
360
521
102
}
330
386
100
AcDbModelDocViewStyle
 70
     0
  3
Metric50
290
     0
100
AcDbDetailViewStyle
 70
     0
 71
     0
 90
        3
 71
     1
340
25
 40
5.0
340
0
 40
5.0
300

 40
0.0
280
     1
 71
     2
340
14
 90
       25
 71
     3
340
25
 40
5.0
 90
        0
 40
15.0
 90
        1
300
%<\AcVar ViewDetailId>% (%<\AcVar ViewScale \f "%sn">%)
 71
     4
340
14
 90
       25
340
14
 90
       25
280
     0
  0
IMAGEDEF
  5
50B
102
{ACAD_REACTORS
330
50A
330
505
330
516
102
}
330
50A
100
AcDbRasterImageDef
 90
        0
  1
C:\Users\lio5lis\Desktop\Picture1.png
 10
264.0
 20
125.0
 11
0.7057163020465773
 21
0.4233700254022015
280
     1
281
     2
  0
LAYOUT
  5
1E
102
{ACAD_REACTORS
330
17
102
}
330
17
100
AcDbPlotSettings
  1

  2
PDFCreator
  4
User120
  6

 40
3.174999952316284
 41
3.174999952316284
 42
3.17498779296875
 43
3.175048828125
 44
841.0
 45
1188.800048828125
 46
0.0
 47
0.0
 48
0.0
 49
0.0
140
0.0
141
0.0
142
1.0
143
1.0
 70
   688
 72
     1
 73
     1
 74
     5
  7

 75
    16
147
1.0
148
0.0
149
0.0
100
AcDbLayout
  1
A0
 70
     1
 71
     1
 10
-3.175048828125
 20
-3.174999952316284
 11
1185.625
 21
837.8250000476837
 12
0.0
 22
0.0
 32
0.0
 14
0.6510510979048831
 24
0.8643916225667567
 34
0.0
 15
1181.486983490442
 25
830.436215072836
 35
0.0
146
0.0
 13
0.0
 23
0.0
 33
0.0
 16
1.0
 26
0.0
 36
0.0
 17
0.0
 27
1.0
 37
0.0
 76
     0
330
1B
1001
ACAD_PSEXT
1000
PDFCreator
1000
PDFCreator
1000
pdfcmon
1000
PDFCreator Printer
1070
     0
  0
LAYOUT
  5
16
102
{ACAD_REACTORS
330
17
102
}
330
17
100
AcDbPlotSettings
  1

  2
none_device
  4
ISO_A4_(210.00_x_297.00_MM)
  6

 40
7.5
 41
20.0
 42
7.5
 43
20.0
 44
210.0
 45
297.0
 46
11.54999923706055
 47
-13.65000009536743
 48
0.0
 49
0.0
140
0.0
141
0.0
142
1.0
143
8.704084754739808
 70
 11952
 72
     1
 73
     0
 74
     0
  7

 75
     0
147
0.1148885871608098
148
0.0
149
0.0
100
AcDbLayout
  1
Model
 70
     1
 71
     0
 10
0.0
 20
0.0
 11
12.0
 21
9.0
 12
0.0
 22
0.0
 32
0.0
 14
0.0
 24
0.0
 34
0.0
 15
0.0
 25
0.0
 35
0.0
146
0.0
 13
0.0
 23
0.0
 33
0.0
 16
1.0
 26
0.0
 36
0.0
 17
0.0
 27
1.0
 37
0.0
 76
     0
330
2
331
2D
1001
ACAD_PSEXT
1000
None
1000
None
1000
Not applicable
1000
The layout will not be plotted unless a new plotter configuration name is selected.
1070
     0
  0
MATERIAL
  5
3F
102
{ACAD_REACTORS
330
C
102
}
102
{ACAD_XDICTIONARY
360
40
102
}
330
C
100
AcDbMaterial
  1
ByBlock
 73
     2
 78
     2
172
     2
176
     2
270
     2
274
     2
  0
MATERIAL
  5
3C
102
{ACAD_REACTORS
330
C
102
}
102
{ACAD_XDICTIONARY
360
3D
102
}
330
C
100
AcDbMaterial
  1
ByLayer
 73
     2
 78
     2
172
     2
176
     2
270
     2
274
     2
  0
MATERIAL
  5
B
102
{ACAD_REACTORS
330
C
102
}
102
{ACAD_XDICTIONARY
360
D
102
}
330
C
100
AcDbMaterial
  1
Global
 73
     2
 43
0.0007999999797903
 43
0.0
 43
0.0
 43
0.0
 43
0.0
 43
0.0007999999797903
 43
0.0
 43
0.0
 43
0.0
 43
0.0
 43
1.0
 43
0.0
 43
0.0
 43
0.0
 43
0.0
 43
1.0
 78
     2
172
     2
 49
0.0007999999797903
 49
0.0
 49
0.0
 49
0.0
 49
0.0
 49
0.0007999999797903
 49
0.0
 49
0.0
 49
0.0
 49
0.0
 49
1.0
 49
0.0
 49
0.0
 49
0.0
 49
0.0
 49
1.0
176
     2
142
0.0007999999797903
142
0.0
142
0.0
142
0.0
142
0.0
142
0.0007999999797903
142
0.0
142
0.0
142
0.0
142
0.0
142
1.0
142
0.0
142
0.0
142
0.0
142
0.0
142
1.0
270
     2
144
0.0007999999797903
144
0.0
144
0.0
144
0.0
144
0.0
144
0.0007999999797903
144
0.0
144
0.0
144
0.0
144
0.0
144
1.0
144
0.0
144
0.0
144
0.0
144
0.0
144
1.0
274
     2
1001
ACAD
1070
    -1
1070
     3
1070
     0
1000

1071
        0
1070
     0
  0
MLEADERSTYLE
  5
383
102
{ACAD_REACTORS
330
45
102
}
102
{ACAD_XDICTIONARY
360
533
102
}
330
45
100
AcDbMLeaderStyle
170
     2
171
     1
172
     0
 90
        2
 40
0.0
 41
0.0
173
     1
 91
-1056964608
340
28
 92
       -2
290
     1
 42
2.0
291
     1
 43
0.36
  3
Standard
341
0
 44
4.0
300

342
25
174
     1
178
     6
175
     1
176
     0
 93
-1056964608
 45
4.0
292
     0
297
     0
 46
4.0
343
0
 94
-1056964608
 47
1.0
 49
1.0
140
1.0
293
     1
141
0.0
294
     1
177
     0
142
1.0
295
     1
296
     0
143
0.125
1001
ACAD_MLEADERVER
1070
     2
  0
MLINESTYLE
  5
46
102
{ACAD_REACTORS
330
3A
102
}
330
3A
100
AcDbMlineStyle
  2
STANDARD
 70
     0
  3

 62
   256
 51
90.0
 52
90.0
 71
     2
 49
0.5
 62
   256
  6
BYLAYER
 49
-0.5
 62
   256
  6
BYLAYER
  0
ACDBPLACEHOLDER
  5
8
102
{ACAD_REACTORS
330
9
102
}
330
9
  0
SCALE
  5
4F
102
{ACAD_REACTORS
330
43
102
}
330
43
100
AcDbScale
 70
     0
300
1:1
140
1.0
141
1.0
290
     1
  0
SCALE
  5
50
102
{ACAD_REACTORS
330
43
102
}
330
43
100
AcDbScale
 70
     0
300
1:2
140
1.0
141
2.0
290
     0
  0
SCALE
  5
51
102
{ACAD_REACTORS
330
43
102
}
330
43
100
AcDbScale
 70
     0
300
1:4
140
1.0
141
4.0
290
     0
  0
SCALE
  5
52
102
{ACAD_REACTORS
330
43
102
}
330
43
100
AcDbScale
 70
     0
300
1:5
140
1.0
141
5.0
290
     0
  0
SCALE
  5
53
102
{ACAD_REACTORS
330
43
102
}
330
43
100
AcDbScale
 70
     0
300
1:8
140
1.0
141
8.0
290
     0
  0
SCALE
  5
54
102
{ACAD_REACTORS
330
43
102
}
330
43
100
AcDbScale
 70
     0
300
1:10
140
1.0
141
10.0
290
     0
  0
SCALE
  5
55
102
{ACAD_REACTORS
330
43
102
}
330
43
100
AcDbScale
 70
     0
300
1:16
140
1.0
141
16.0
290
     0
  0
SCALE
  5
56
102
{ACAD_REACTORS
330
43
102
}
330
43
100
AcDbScale
 70
     0
300
1:20
140
1.0
141
20.0
290
     0
  0
SCALE
  5
57
102
{ACAD_REACTORS
330
43
102
}
330
43
100
AcDbScale
 70
     0
300
1:30
140
1.0
141
30.0
290
     0
  0
SCALE
  5
58
102
{ACAD_REACTORS
330
43
102
}
330
43
100
AcDbScale
 70
     0
300
1:40
140
1.0
141
40.0
290
     0
  0
SCALE
  5
59
102
{ACAD_REACTORS
330
43
102
}
330
43
100
AcDbScale
 70
     0
300
1:50
140
1.0
141
50.0
290
     0
  0
SCALE
  5
5A
102
{ACAD_REACTORS
330
43
102
}
330
43
100
AcDbScale
 70
     0
300
1:100
140
1.0
141
100.0
290
     0
  0
SCALE
  5
5B
102
{ACAD_REACTORS
330
43
102
}
330
43
100
AcDbScale
 70
     0
300
2:1
140
2.0
141
1.0
290
     0
  0
SCALE
  5
5C
102
{ACAD_REACTORS
330
43
102
}
330
43
100
AcDbScale
 70
     0
300
4:1
140
4.0
141
1.0
290
     0
  0
SCALE
  5
5D
102
{ACAD_REACTORS
330
43
102
}
330
43
100
AcDbScale
 70
     0
300
8:1
140
8.0
141
1.0
290
     0
  0
SCALE
  5
5E
102
{ACAD_REACTORS
330
43
102
}
330
43
100
AcDbScale
 70
     0
300
10:1
140
10.0
141
1.0
290
     0
  0
SCALE
  5
5F
102
{ACAD_REACTORS
330
43
102
}
330
43
100
AcDbScale
 70
     0
300
100:1
140
100.0
141
1.0
290
     0
  0
ACDBSECTIONVIEWSTYLE
  5
385
102
{ACAD_REACTORS
330
384
102
}
102
{ACAD_XDICTIONARY
360
51F
102
}
330
384
100
AcDbModelDocViewStyle
 70
     0
  3
Metric50
290
     0
100
AcDbSectionViewStyle
 70
     0
 71
     0
 90
      102
 71
     1
340
25
 40
5.0
340
0
340
0
 40
5.0
300
I, O, Q, S, X, Z
 40
10.0
 90
        0
 40
2.5
 90
        0
 71
     2
340
14
 90
       25
340
14
 90
       50
 40
5.0
 40
2.5
 40
5.0
 71
     3
340
25
 40
5.0
 90
        0
 40
15.0
 90
        1
300
%<\AcVar ViewSectionStartId>%-%<\AcVar ViewSectionEndId>% (%<\AcVar ViewScale \f "%sn">%)
 71
     4
300
ANSI31
 40
1.0
 90
        0
290
     0
290
     0
 90
        6
 40
0.0
 40
1.570796326794897
 40
0.2617993877991494
 40
1.308996938995747
 40
-0.2617993877991494
 40
1.832595714594046
  0
TABLESTYLE
  5
47
102
{ACAD_REACTORS
330
44
102
}
330
44
100
AcDbTableStyle
  3
Standard
 70
     0
 71
     0
 40
1.5
 41
1.5
280
     0
281
     0
  7
Standard
140
4.5
170
     2
 62
     0
 63
   257
283
     0
274
    -2
284
     1
 64
     0
275
    -2
285
     1
 65
     0
276
    -2
286
     1
 66
     0
277
    -2
287
     1
 67
     0
278
    -2
288
     1
 68
     0
279
    -2
289
     1
 69
     0
  7
Standard
140
6.0
170
     5
 62
     0
 63
   257
283
     0
274
    -2
284
     1
 64
     0
275
    -2
285
     1
 65
     0
276
    -2
286
     1
 66
     0
277
    -2
287
     1
 67
     0
278
    -2
288
     1
 68
     0
279
    -2
289
     1
 69
     0
  7
Standard
140
4.5
170
     5
 62
     0
 63
   257
283
     0
274
    -2
284
     1
 64
     0
275
    -2
285
     1
 65
     0
276
    -2
286
     1
 66
     0
277
    -2
287
     1
 67
     0
278
    -2
288
     1
 68
     0
279
    -2
289
     1
 69
     0
  0
VISUALSTYLE
  5
2E
102
{ACAD_REACTORS
330
2F
102
}
102
{ACAD_XDICTIONARY
360
536
102
}
330
2F
100
AcDbVisualStyle
  2
2dWireframe
 70
     4
 71
     0
 72
     2
 73
     1
 90
        0
 40
0.6
 41
30.0
 62
     5
 63
     7
 74
     1
 91
        4
 64
     7
 65
   257
 75
     1
175
     1
 42
1.0
 92
        0
 66
   257
 43
1.0
 76
     1
 77
     6
 78
     2
 67
     7
 79
     5
170
     0
171
     0
290
     0
174
     0
 93
        1
 44
0.0
173
     0
291
     0
 45
0.0
1001
ACAD
1000
AcDbSavedByObjectVersion
1070
     0
  0
VISUALSTYLE
  5
372
102
{ACAD_REACTORS
330
2F
102
}
102
{ACAD_XDICTIONARY
360
538
102
}
330
2F
100
AcDbVisualStyle
  2
Basic
 70
     7
 71
     1
 72
     0
 73
     1
 90
        0
 40
0.6
 41
30.0
 62
     5
 63
     7
 74
     0
 91
        4
 64
     7
 65
   257
 75
     1
175
     1
 42
1.0
 92
        8
 66
     7
 43
1.0
 76
     1
 77
     6
 78
     2
 67
     7
 79
     5
170
     0
171
     0
290
     0
174
     0
 93
        1
 44
0.0
173
     0
291
     1
 45
0.0
1001
ACAD
1000
AcDbSavedByObjectVersion
1070
     0
  0
VISUALSTYLE
  5
376
102
{ACAD_REACTORS
330
2F
102
}
102
{ACAD_XDICTIONARY
360
53A
102
}
330
2F
100
AcDbVisualStyle
  2
Brighten
 70
    12
 71
     2
 72
     2
 73
     0
 90
        0
 40
0.6
 41
30.0
 62
     5
 63
     7
 74
     1
 91
        4
 64
     7
 65
   257
 75
     1
175
     1
 42
1.0
 92
        8
 66
     7
 43
1.0
 76
     1
 77
     6
 78
     2
 67
     7
 79
     5
170
     0
171
     0
290
     0
174
     0
 93
        1
 44
50.0
173
     0
291
     1
 45
0.0
1001
ACAD
1000
AcDbSavedByObjectVersion
1070
     0
  0
VISUALSTYLE
  5
37A
102
{ACAD_REACTORS
330
2F
102
}
102
{ACAD_XDICTIONARY
360
53C
102
}
330
2F
100
AcDbVisualStyle
  2
ColorChange
 70
    16
 71
     2
 72
     2
 73
     3
 90
        0
 40
0.6
 41
30.0
 62
     5
 63
     8
 74
     1
 91
        4
 64
     7
 65
   257
 75
     1
175
     1
 42
1.0
 92
        8
 66
     8
 43
1.0
 76
     1
 77
     6
 78
     2
 67
     7
 79
     5
170
     0
171
     0
290
     0
174
     0
 93
        1
 44
0.0
173
     0
291
     1
 45
0.0
1001
ACAD
1000
AcDbSavedByObjectVersion
1070
     0
  0
VISUALSTYLE
  5
374
102
{ACAD_REACTORS
330
2F
102
}
102
{ACAD_XDICTIONARY
360
53E
102
}
330
2F
100
AcDbVisualStyle
  2
Conceptual
 70
     9
 71
     3
 72
     2
 73
     0
 90
        0
 40
0.6
 41
30.0
 62
     5
 63
     7
 74
     2
 91
        2
 64
     7
 65
   257
 75
     1
175
     1
 42
179.0
 92
        8
 66
     7
 43
1.0
 76
     1
 77
     6
 78
     2
 67
     7
 79
     3
170
     0
171
     0
290
     0
174
     0
 93
        1
 44
0.0
173
     0
291
     0
 45
0.0
1001
ACAD
1000
AcDbSavedByObjectVersion
1070
     0
  0
VISUALSTYLE
  5
375
102
{ACAD_REACTORS
330
2F
102
}
102
{ACAD_XDICTIONARY
360
540
102
}
330
2F
100
AcDbVisualStyle
  2
Dim
 70
    11
 71
     2
 72
     2
 73
     0
 90
        0
 40
0.6
 41
30.0
 62
     5
 63
     7
 74
     1
 91
        4
 64
     7
 65
   257
 75
     1
175
     1
 42
1.0
 92
        8
 66
     7
 43
1.0
 76
     1
 77
     6
 78
     2
 67
     7
 79
     5
170
     0
171
     0
290
     0
174
     0
 93
        1
 44
-50.0
173
     0
291
     1
 45
0.0
1001
ACAD
1000
AcDbSavedByObjectVersion
1070
     0
  0
VISUALSTYLE
  5
382
102
{ACAD_REACTORS
330
2F
102
}
102
{ACAD_XDICTIONARY
360
542
102
}
330
2F
100
AcDbVisualStyle
  2
EdgeColorOff
 70
    22
 71
     2
 72
     2
 73
     0
 90
        0
 40
0.6
 41
30.0
 62
     5
 63
     7
 74
     1
 91
        4
 64
     7
 65
   257
 75
     1
175
     1
 42
1.0
 92
        8
 66
     7
 43
1.0
 76
     1
 77
     6
 78
     2
 67
     7
 79
     5
170
     0
171
     0
290
     0
174
     0
 93
        1
 44
0.0
173
     0
291
     1
 45
0.0
1001
ACAD
1000
AcDbSavedByObjectVersion
1070
     0
  0
VISUALSTYLE
  5
379
102
{ACAD_REACTORS
330
2F
102
}
102
{ACAD_XDICTIONARY
360
544
102
}
330
2F
100
AcDbVisualStyle
  2
Facepattern
 70
    15
 71
     2
 72
     2
 73
     0
 90
        0
 40
0.6
 41
30.0
 62
     5
 63
     7
 74
     1
 91
        4
 64
     7
 65
   257
 75
     1
175
     1
 42
1.0
 92
        8
 66
     7
 43
1.0
 76
     1
 77
     6
 78
     2
 67
     7
 79
     5
170
     0
171
     0
290
     0
174
     0
 93
        1
 44
0.0
173
     0
291
     1
 45
0.0
1001
ACAD
1000
AcDbSavedByObjectVersion
1070
     0
  0
VISUALSTYLE
  5
36E
102
{ACAD_REACTORS
330
2F
102
}
102
{ACAD_XDICTIONARY
360
546
102
}
330
2F
100
AcDbVisualStyle
  2
Flat
 70
     0
 71
     2
 72
     1
 73
     1
 90
        2
 40
0.6
 41
30.0
 62
     5
 63
     7
 74
     0
 91
        0
 64
     7
 65
   257
 75
     1
175
     1
 42
1.0
 92
        8
 66
     7
 43
1.0
 76
     1
 77
     6
 78
     2
 67
     7
 79
     5
170
     0
171
     0
290
     0
174
     0
 93
       13
 44
0.0
173
     0
291
     1
 45
0.0
1001
ACAD
1000
AcDbSavedByObjectVersion
1070
     0
  0
VISUALSTYLE
  5
36F
102
{ACAD_REACTORS
330
2F
102
}
102
{ACAD_XDICTIONARY
360
548
102
}
330
2F
100
AcDbVisualStyle
  2
FlatWithEdges
 70
     1
 71
     2
 72
     1
 73
     1
 90
        2
 40
0.6
 41
30.0
 62
     5
 63
     7
 74
     1
 91
        0
 64
     7
 65
   257
 75
     1
175
     1
 42
1.0
 92
        0
 66
   257
 43
1.0
 76
     1
 77
     6
 78
     2
 67
     7
 79
     5
170
     0
171
     0
290
     0
174
     0
 93
       13
 44
0.0
173
     0
291
     1
 45
0.0
1001
ACAD
1000
AcDbSavedByObjectVersion
1070
     0
  0
VISUALSTYLE
  5
370
102
{ACAD_REACTORS
330
2F
102
}
102
{ACAD_XDICTIONARY
360
54A
102
}
330
2F
100
AcDbVisualStyle
  2
Gouraud
 70
     2
 71
     2
 72
     2
 73
     1
 90
        2
 40
0.6
 41
30.0
 62
     5
 63
     7
 74
     0
 91
        0
 64
     7
 65
   257
 75
     1
175
     1
 42
1.0
 92
        0
 66
     7
 43
1.0
 76
     1
 77
     6
 78
     2
 67
     7
 79
     5
170
     0
171
     0
290
     0
174
     0
 93
       13
 44
0.0
173
     0
291
     1
 45
0.0
1001
ACAD
1000
AcDbSavedByObjectVersion
1070
     0
  0
VISUALSTYLE
  5
371
102
{ACAD_REACTORS
330
2F
102
}
102
{ACAD_XDICTIONARY
360
54C
102
}
330
2F
100
AcDbVisualStyle
  2
GouraudWithEdges
 70
     3
 71
     2
 72
     2
 73
     1
 90
        2
 40
0.6
 41
30.0
 62
     5
 63
     7
 74
     1
 91
        0
 64
     7
 65
   257
 75
     1
175
     1
 42
1.0
 92
        0
 66
   257
 43
1.0
 76
     1
 77
     6
 78
     2
 67
     7
 79
     5
170
     0
171
     0
290
     0
174
     0
 93
       13
 44
0.0
173
     0
291
     1
 45
0.0
1001
ACAD
1000
AcDbSavedByObjectVersion
1070
     0
  0
VISUALSTYLE
  5
373
102
{ACAD_REACTORS
330
2F
102
}
102
{ACAD_XDICTIONARY
360
54E
102
}
330
2F
100
AcDbVisualStyle
  2
Hidden
 70
     6
 71
     1
 72
     2
 73
     2
 90
        0
 40
0.6
 41
30.0
 62
     5
 63
     7
 74
     2
 91
        2
 64
     7
 65
   257
 75
     2
175
     1
 42
40.0
 92
        0
 66
   257
 43
1.0
 76
     1
 77
     6
 78
     2
 67
     7
 79
     3
170
     0
171
     0
290
     0
174
     0
 93
        1
 44
0.0
173
     0
291
     0
 45
0.0
1001
ACAD
1000
AcDbSavedByObjectVersion
1070
     0
  0
VISUALSTYLE
  5
380
102
{ACAD_REACTORS
330
2F
102
}
102
{ACAD_XDICTIONARY
360
550
102
}
330
2F
100
AcDbVisualStyle
  2
JitterOff
 70
    20
 71
     2
 72
     2
 73
     0
 90
        0
 40
0.6
 41
30.0
 62
     5
 63
     7
 74
     1
 91
        4
 64
     7
 65
   257
 75
     1
175
     1
 42
1.0
 92
       10
 66
     7
 43
1.0
 76
     1
 77
     6
 78
     2
 67
     7
 79
     5
170
     0
171
     0
290
     0
174
     0
 93
        1
 44
0.0
173
     0
291
     1
 45
0.0
1001
ACAD
1000
AcDbSavedByObjectVersion
1070
     0
  0
VISUALSTYLE
  5
378
102
{ACAD_REACTORS
330
2F
102
}
102
{ACAD_XDICTIONARY
360
552
102
}
330
2F
100
AcDbVisualStyle
  2
Linepattern
 70
    14
 71
     2
 72
     2
 73
     0
 90
        0
 40
0.6
 41
30.0
 62
     5
 63
     7
 74
     1
 91
        4
 64
     7
 65
   257
 75
     7
175
     7
 42
1.0
 92
        8
 66
     7
 43
1.0
 76
     1
 77
     6
 78
     2
 67
     7
 79
     5
170
     0
171
     0
290
     0
174
     0
 93
        1
 44
0.0
173
     0
291
     1
 45
0.0
1001
ACAD
1000
AcDbSavedByObjectVersion
1070
     0
  0
VISUALSTYLE
  5
381
102
{ACAD_REACTORS
330
2F
102
}
102
{ACAD_XDICTIONARY
360
554
102
}
330
2F
100
AcDbVisualStyle
  2
OverhangOff
 70
    21
 71
     2
 72
     2
 73
     0
 90
        0
 40
0.6
 41
30.0
 62
     5
 63
     7
 74
     1
 91
        4
 64
     7
 65
   257
 75
     1
175
     1
 42
1.0
 92
        9
 66
     7
 43
1.0
 76
     1
 77
     6
 78
     2
 67
     7
 79
     5
170
     0
171
     0
290
     0
174
     0
 93
        1
 44
0.0
173
     0
291
     1
 45
0.0
1001
ACAD
1000
AcDbSavedByObjectVersion
1070
     0
  0
VISUALSTYLE
  5
49
102
{ACAD_REACTORS
330
2F
102
}
102
{ACAD_XDICTIONARY
360
556
102
}
330
2F
100
AcDbVisualStyle
  2
Realistic
 70
     8
 71
     2
 72
     2
 73
     0
 90
        2
 40
0.6
 41
30.0
 62
     5
 63
     7
 74
     0
 91
        0
 64
     7
 65
   257
 75
     1
175
     1
 42
1.0
 92
        8
 66
   257
 43
1.0
 76
     1
 77
     6
 78
     2
 67
     7
 79
     3
170
     0
171
     0
290
     0
174
     0
 93
       13
 44
0.0
173
     0
291
     0
 45
0.0
1001
ACAD
1000
AcDbSavedByObjectVersion
1070
     0
  0
VISUALSTYLE
  5
37F
102
{ACAD_REACTORS
330
2F
102
}
102
{ACAD_XDICTIONARY
360
558
102
}
330
2F
100
AcDbVisualStyle
  2
Shaded
 70
    27
 71
     2
 72
     2
 73
     1
 90
        2
 40
0.6
 41
30.0
 62
     5
 63
     7
 74
     0
 91
        4
 64
     7
 65
   257
 75
     1
175
     1
 42
1.0
 92
        8
 66
   257
 43
1.0
 76
     1
 77
     6
 78
     2
 67
     8
 79
     3
170
     0
171
     0
290
     0
174
     0
 93
        5
 44
0.0
173
     0
291
     0
 45
0.0
1001
ACAD
1000
AcDbSavedByObjectVersion
1070
     0
  0
VISUALSTYLE
  5
37E
102
{ACAD_REACTORS
330
2F
102
}
102
{ACAD_XDICTIONARY
360
55A
102
}
330
2F
100
AcDbVisualStyle
  2
Shaded with edges
 70
    26
 71
     2
 72
     2
 73
     1
 90
        2
 40
0.6
 41
30.0
 62
     5
 63
     7
 74
     1
 91
       10
 64
     7
 65
   257
 75
     2
175
     1
 42
1.0
 92
        8
 66
   257
 43
1.0
 76
     1
 77
     6
 78
     2
 67
     7
 79
     3
170
     0
171
     0
290
     0
174
     0
 93
        5
 44
0.0
173
     0
291
     0
 45
0.0
1001
ACAD
1000
AcDbSavedByObjectVersion
1070
     0
  0
VISUALSTYLE
  5
37B
102
{ACAD_REACTORS
330
2F
102
}
102
{ACAD_XDICTIONARY
360
55C
102
}
330
2F
100
AcDbVisualStyle
  2
Shades of Gray
 70
    23
 71
     2
 72
     2
 73
     3
 90
        0
 40
0.6
 41
30.0
 62
     5
 63
     7
 74
     2
 91
        2
 64
     7
 65
     7
 75
     1
175
     1
 42
40.0
 92
        8
 66
     7
 43
1.0
 76
     1
 77
     6
 78
     2
 67
     7
 79
     3
170
     0
171
     0
290
     0
174
     0
 93
        1
 44
0.0
173
     0
291
     0
 45
0.0
1001
ACAD
1000
AcDbSavedByObjectVersion
1070
     0
  0
VISUALSTYLE
  5
37C
102
{ACAD_REACTORS
330
2F
102
}
102
{ACAD_XDICTIONARY
360
55E
102
}
330
2F
100
AcDbVisualStyle
  2
Sketchy
 70
    24
 71
     1
 72
     2
 73
     2
 90
        0
 40
0.6
 41
30.0
 62
     5
 63
     7
 74
     2
 91
        2
 64
     7
 65
     7
 75
     1
175
     1
 42
40.0
 92
       11
 66
     7
 43
1.0
 76
     1
 77
     6
 78
     2
 67
     7
 79
     6
170
     0
171
     0
290
     0
174
     0
 93
        1
 44
0.0
173
     0
291
     0
 45
0.0
1001
ACAD
1000
AcDbSavedByObjectVersion
1070
     0
  0
VISUALSTYLE
  5
377
102
{ACAD_REACTORS
330
2F
102
}
102
{ACAD_XDICTIONARY
360
560
102
}
330
2F
100
AcDbVisualStyle
  2
Thicken
 70
    13
 71
     2
 72
     2
 73
     0
 90
        0
 40
0.6
 41
30.0
 62
     5
 63
     7
 74
     1
 91
        4
 64
     7
 65
   257
 75
     1
175
     1
 42
1.0
 92
       12
 66
     7
 43
1.0
 76
     1
 77
     6
 78
     2
 67
     7
 79
     5
170
     0
171
     0
290
     0
174
     0
 93
        1
 44
0.0
173
     0
291
     1
 45
0.0
1001
ACAD
1000
AcDbSavedByObjectVersion
1070
     0
  0
VISUALSTYLE
  5
4C
102
{ACAD_REACTORS
330
2F
102
}
102
{ACAD_XDICTIONARY
360
562
102
}
330
2F
100
AcDbVisualStyle
  2
Wireframe
 70
     5
 71
     0
 72
     2
 73
     0
 90
        0
 40
0.6
 41
30.0
 62
     5
 63
     7
 74
     1
 91
        4
 64
     7
 65
   257
 75
     1
175
     1
 42
1.0
 92
        0
 66
   257
 43
1.0
 76
     1
 77
     6
 78
     2
 67
     7
 79
     3
170
     0
171
     0
290
     0
174
     0
 93
        1
 44
0.0
173
     0
291
     0
 45
0.0
1001
ACAD
1000
AcDbSavedByObjectVersion
1070
     0
  0
VISUALSTYLE
  5
37D
102
{ACAD_REACTORS
330
2F
102
}
102
{ACAD_XDICTIONARY
360
564
102
}
330
2F
100
AcDbVisualStyle
  2
X-Ray
 70
    25
 71
     2
 72
     2
 73
     1
 90
        1
 40
0.5
 41
30.0
 62
     5
 63
     7
 74
     1
 91
        0
 64
     7
 65
   257
 75
     1
175
     1
 42
1.0
 92
        8
 66
     7
 43
1.0
 76
     1
 77
     6
 78
     2
 67
     7
 79
     3
170
     0
171
     0
290
     0
174
     0
 93
       13
 44
0.0
173
     0
291
     0
 45
0.0
1001
ACAD
1000
AcDbSavedByObjectVersion
1070
     0
  0
XRECORD
  5
529
102
{ACAD_REACTORS
330
528
102
}
330
528
100
AcDbXrecord
280
     1
340
42
  0
XRECORD
  5
52A
102
{ACAD_REACTORS
330
528
102
}
330
528
100
AcDbXrecord
280
     1
340
C
  0
DICTIONARYVAR
  5
362
102
{ACAD_REACTORS
330
35E
102
}
330
35E
100
DictionaryVariables
280
     0
  1
1:1
  0
DICTIONARYVAR
  5
360
102
{ACAD_REACTORS
330
35E
102
}
330
35E
100
DictionaryVariables
280
     0
  1
Standard
  0
DICTIONARYVAR
  5
35F
102
{ACAD_REACTORS
330
35E
102
}
330
35E
100
DictionaryVariables
280
     0
  1
Standard
  0
DICTIONARYVAR
  5
524
102
{ACAD_REACTORS
330
35E
102
}
330
35E
100
DictionaryVariables
280
     0
  1
Metric50
  0
DICTIONARYVAR
  5
525
102
{ACAD_REACTORS
330
35E
102
}
330
35E
100
DictionaryVariables
280
     0
  1
Metric50
  0
DICTIONARYVAR
  5
369
102
{ACAD_REACTORS
330
35E
102
}
330
35E
100
DictionaryVariables
280
     0
  1
2
  0
DICTIONARYVAR
  5
368
102
{ACAD_REACTORS
330
35E
102
}
330
35E
100
DictionaryVariables
280
     0
  1
1
  0
DICTIONARYVAR
  5
367
102
{ACAD_REACTORS
330
35E
102
}
330
35E
100
DictionaryVariables
280
     0
  1
0
  0
DICTIONARYVAR
  5
364
102
{ACAD_REACTORS
330
35E
102
}
330
35E
100
DictionaryVariables
280
     0
  1
0
  0
DICTIONARYVAR
  5
365
102
{ACAD_REACTORS
330
35E
102
}
330
35E
100
DictionaryVariables
280
     0
  1
0
  0
DICTIONARYVAR
  5
363
102
{ACAD_REACTORS
330
35E
102
}
330
35E
100
DictionaryVariables
280
     0
  1
2
  0
DICTIONARYVAR
  5
361
102
{ACAD_REACTORS
330
35E
102
}
330
35E
100
DictionaryVariables
280
     0
  1
1
  0
DICTIONARYVAR
  5
527
102
{ACAD_REACTORS
330
35E
102
}
330
35E
100
DictionaryVariables
280
     0
  1
80.000000
  0
DICTIONARYVAR
  5
526
102
{ACAD_REACTORS
330
35E
102
}
330
35E
100
DictionaryVariables
280
     0
  1
5.000000
  0
DICTIONARYVAR
  5
366
102
{ACAD_REACTORS
330
35E
102
}
330
35E
100
DictionaryVariables
280
     0
  1
127
  0
DICTIONARY
  5
521
330
387
100
AcDbDictionary
280
     1
281
     1
  3
ACAD_XREC_ROUNDTRIP
360
52E
  0
DICTIONARY
  5
40
330
3F
100
AcDbDictionary
280
     1
281
     1
  3
ACAD_XREC_ROUNDTRIP
360
52F
  3
FBXASSET
360
41
  0
DICTIONARY
  5
3D
330
3C
100
AcDbDictionary
280
     1
281
     1
  3
ACAD_XREC_ROUNDTRIP
360
530
  3
FBXASSET
360
3E
  0
DICTIONARY
  5
D
330
B
100
AcDbDictionary
280
     1
281
     1
  3
ACAD_XREC_ROUNDTRIP
360
531
  3
FBXASSET
360
10
  0
DICTIONARY
  5
533
330
383
100
AcDbDictionary
280
     1
281
     1
  3
ACAD_XREC_ROUNDTRIP
360
534
  0
DICTIONARY
  5
51F
330
385
100
AcDbDictionary
280
     1
281
     1
  3
ACAD_XREC_ROUNDTRIP
360
535
  0
DICTIONARY
  5
536
330
2E
100
AcDbDictionary
280
     1
281
     1
  3
ACAD_XREC_ROUNDTRIP
360
537
  0
DICTIONARY
  5
538
330
372
100
AcDbDictionary
280
     1
281
     1
  3
ACAD_XREC_ROUNDTRIP
360
539
  0
DICTIONARY
  5
53A
330
376
100
AcDbDictionary
280
     1
281
     1
  3
ACAD_XREC_ROUNDTRIP
360
53B
  0
DICTIONARY
  5
53C
330
37A
100
AcDbDictionary
280
     1
281
     1
  3
ACAD_XREC_ROUNDTRIP
360
53D
  0
DICTIONARY
  5
53E
330
374
100
AcDbDictionary
280
     1
281
     1
  3
ACAD_XREC_ROUNDTRIP
360
53F
  0
DICTIONARY
  5
540
330
375
100
AcDbDictionary
280
     1
281
     1
  3
ACAD_XREC_ROUNDTRIP
360
541
  0
DICTIONARY
  5
542
330
382
100
AcDbDictionary
280
     1
281
     1
  3
ACAD_XREC_ROUNDTRIP
360
543
  0
DICTIONARY
  5
544
330
379
100
AcDbDictionary
280
     1
281
     1
  3
ACAD_XREC_ROUNDTRIP
360
545
  0
DICTIONARY
  5
546
330
36E
100
AcDbDictionary
280
     1
281
     1
  3
ACAD_XREC_ROUNDTRIP
360
547
  0
DICTIONARY
  5
548
330
36F
100
AcDbDictionary
280
     1
281
     1
  3
ACAD_XREC_ROUNDTRIP
360
549
  0
DICTIONARY
  5
54A
330
370
100
AcDbDictionary
280
     1
281
     1
  3
ACAD_XREC_ROUNDTRIP
360
54B
  0
DICTIONARY
  5
54C
330
371
100
AcDbDictionary
280
     1
281
     1
  3
ACAD_XREC_ROUNDTRIP
360
54D
  0
DICTIONARY
  5
54E
330
373
100
AcDbDictionary
280
     1
281
     1
  3
ACAD_XREC_ROUNDTRIP
360
54F
  0
DICTIONARY
  5
550
330
380
100
AcDbDictionary
280
     1
281
     1
  3
ACAD_XREC_ROUNDTRIP
360
551
  0
DICTIONARY
  5
552
330
378
100
AcDbDictionary
280
     1
281
     1
  3
ACAD_XREC_ROUNDTRIP
360
553
  0
DICTIONARY
  5
554
330
381
100
AcDbDictionary
280
     1
281
     1
  3
ACAD_XREC_ROUNDTRIP
360
555
  0
DICTIONARY
  5
556
330
49
100
AcDbDictionary
280
     1
281
     1
  3
ACAD_XREC_ROUNDTRIP
360
557
  0
DICTIONARY
  5
558
330
37F
100
AcDbDictionary
280
     1
281
     1
  3
ACAD_XREC_ROUNDTRIP
360
559
  0
DICTIONARY
  5
55A
330
37E
100
AcDbDictionary
280
     1
281
     1
  3
ACAD_XREC_ROUNDTRIP
360
55B
  0
DICTIONARY
  5
55C
330
37B
100
AcDbDictionary
280
     1
281
     1
  3
ACAD_XREC_ROUNDTRIP
360
55D
  0
DICTIONARY
  5
55E
330
37C
100
AcDbDictionary
280
     1
281
     1
  3
ACAD_XREC_ROUNDTRIP
360
55F
  0
DICTIONARY
  5
560
330
377
100
AcDbDictionary
280
     1
281
     1
  3
ACAD_XREC_ROUNDTRIP
360
561
  0
DICTIONARY
  5
562
330
4C
100
AcDbDictionary
280
     1
281
     1
  3
ACAD_XREC_ROUNDTRIP
360
563
  0
DICTIONARY
  5
564
330
37D
100
AcDbDictionary
280
     1
281
     1
  3
ACAD_XREC_ROUNDTRIP
360
565
  0
XRECORD
  5
52E
102
{ACAD_REACTORS
330
521
102
}
330
521
100
AcDbXrecord
280
     1
102
DISPLAYNAME
  1
Metric50
102
FLAGS
 90
        0
  0
XRECORD
  5
52F
102
{ACAD_REACTORS
330
40
102
}
330
40
100
AcDbXrecord
280
     1
102
MATERIAL
148
0.0
149
0.0
149
0.0
 93
        0
 94
       63
282
     0
 72
     1
 77
     1
171
     1
175
     1
179
     1
273
     0
  0
XRECORD
  5
41
102
{ACAD_REACTORS
330
40
102
}
330
40
100
AcDbXrecord
280
     1
 70
     1
 90
429727718
  1
D62C5603-E3A1-4AEA-B7FB-FE5D8D0755AF
310
504B03040A0000080000CC70623B3DEE336E79000000790000001B0000006175746F6465736B2D64657369676E2D7061636B6167652E786D6C3C3F786D6C2076657273696F6E3D22312E302220656E636F64696E673D227574662D3822203F3E3C666F726D6174733E3C666F726D61743E687474703A2F2F736368656D612E
310
6175746F6465736B2E636F6D2F64657369676E2D7061636B6167652F323030393C2F666F726D61743E3C2F666F726D6174733E504B0304140006080800CC70623BD486FD9CA0000000F4000000130000005B436F6E74656E745F54797065735D2E786D6C7D8EC10E82300C865F65E91D8A1E8C310C0EEA1BF002731658846E
310
D98AC1B77784ABF1D8FE5FBFBF75BBCE937A534CCEB38643598122B6FEE978D0B0485F9C41B54DDD7D022595594E1A469170414C76A4D9A4D207E29CF43ECE46F218070CC6BECC4078ACAA135ACF422C856C0E68EA1BF5669944DDD7BCDE7B1F8E415D77AECB980613C2E4AC91FC167A2B244592486606FC29C8FD7F045B9A
310
EF7053A7E60B504B0304140006080800CC70623B853B8169EB0000007C01000008000000636F72652E786D6C8D90416EC3201045AF62CDB6C206821CC7C244919D9CA01740401C94182C03558F5F9C3852BBEB6A467FFE9B197D7EFC9E1EC5975982F5AE035262288C535E5B377690E21535501C055FBC8FBF6C503839990E
310
5619041F179FE64D52DE45E362569DD7661365082642A11EB9E920A89B99642953CC8E702F67A9EE7234257977194EC9EAE275C4EABCCF5EAD5940D4AC6F0E35A568B8F43562CD7046CD199FD07E60174276A7BE677B5EADB0E0D14EEFFB6A31321A0D82627C4084204C3F096B71DD52F6819B16635EADF63F509AF53FA164
310
5DDCD1EDDD17164090FCC8732078B56691CB33A85CD7DCC40F504B0304140006080800CC70623B55019EA25F0000007C00000007000000636E782E786D6C4DCB3B0E80201045D1AD90E915ED2CF8AC45050C11660C8261F98AB1B07AC9C97D42D718D865D3E909258CFD00CCE24AC6E326A164D74DC0B4128928FF32603847
310
2BA13128B1252AC747C6BAB984FC68F0B87FE8960A5C09FE86CFB69FBA01504B0304140006080800CC70623BDBABAAF470010000D40300000C0000006662782F636F72652E786D6CC553D16E823014FD95A6AF4B694182CC941A83FA05FB810A9511A125A5257EFE2E82712ECEB8A7F100CD39F7F69E734AF9FADC366850B6
310
AF8DCE7018308C942E4C59EB2AC3DE1D498AD15A706B8CFB56869196ADCAF00863C12B6B7C374385D14E6907A836A59A41D9F7CA615434B0C8705F7CAA5606D23BA8E84F41278B93AC54100640439DE0BDB320004D43C63716C7C399D30917DCFBBA9CD9BA8469F5B156168B24CED3F7248AC8769F27244EB73B92EED8862C
310
B7F13E0C179B3C8F979C8ECD82BBBABDAA2BAC924E9558448CBD9330242CFA08E3154B5651FCC6D215639C8EE5774DBE2B5F6CF2B5768B68963BB5F5588420E442FC700B1139D4CB01F450C1E918227C2E09DF070D8140C84E1E9AAB8F1340832A9CB13130A5F1376A908D57309505ECF2A0DF179C4E9D30F5B239B87E3823
310
7A79C6F31DE1A8A5AEC08474B03C7837EAE4938639B44E5932B833D2C6B6B279CDC613877FA26EE21F4A2A4C63EC7F29A2F301D1F9F7A0E37D145F504B0304140006080800CC70623B9C113CC27E0000009D0000000B0000006662782F636E782E786D6C4DCCDF0A83201C86E15B91DFB94BFB330DD428C8FB886521330DA7
310
6397BF1A1DECE883878F57749FCDA1B7892F1BBC047A23808C7F84D9FA55424E0BE6803A256208E9EF06C84F9B91703228B1C690F78B66B34CD9A5439DF5CF0BFBF65E35BCA1B8D6A5C6F540381E886698B5741C695F9503EBA150A2F8958E3DC3EA0B504B0304140006080800CC70623B7DF2F77C2A010000120200003100
310
00006662782F41393633353835312D344632462D344230382D423046372D3739314545314133324237412F636F72652E786D6C8D51DB8EC22014FC15C2939B0D2DB4B45643319AE817EC0F6041255A68B86CFCFC856D4D76DF7CE190393373060EDB3DC707F856CE6B6B7A480A0C81328395DA5C7B18C3057510EC3873D686
310
3F34088C18550F330C39BB3A1BA7051AAC09CA84841A2BD5020AEF55806078A44B0FFD7053A328440C89E1EFC52486BBB8AA8214A99D789CF9E05200300FC927E4FB4D5B375D43103D5527440FB843077C5AA3F5861C8F645F5787F59E95B390B318B55CE45AA638FAA2957BD7248B390B7A7CC51F9C124149C82B8C378810
310
84AB2F42B7B8DD56F413775B8C5999E9FF4471926F8AA236A1AE96B8B3CC434E5839373893369E1FAF30EA395917409EB7F26AF8801C171837A4A6AC9C89E9F9C9B1A58BA30FD6A5EF5DDDCF894B9AD9B6A59C957943A9FCAE2FD5BC4DFE03504B0304140006080800CC70623BAD7543B64E01000033030000300000006662
310
782F41393633353835312D344632462D344230382D423046372D3739314545314133324237412F636E782E786D6CD593CD6EC32010845F0571AD6CE3D48AD20813A9873E410FBD12D82434182C7EAAE6EDBB2424CD25871E7B41D6EC30B3FA84F9E67BB2E40B4234DE8DB46F1925E094D7C6ED479AD3AE5951B2113C789FEE
310
6C943839C1488B4C05DF079FE72A69D8C96C13AAD6B8631503449F83828872B949AC57D26200B826A308D316B4064D6E46FCDA41C05550DC9E483A00797BFD207EFB092A45DE9514C1BBD22178396BD39D891265658C238DEA00936C654E5E433CB65A26D9F6EDB5EBC14EBF49A45CB856E66048291F6939A9A81BB5C89177
310
38143CA680F4AA299D66A042CEB3354A2684DC9D8D178FE0D9B8B41CAAD720F880EE7EF93C0C18769E099ECC04D5A102C8049A8A05632F4DDF376CF1DE0F6BB65C2F8627B65A33C6BB62177CEBBDAD973006829F89F22E814B54F4BC2BE347F8AA8F681390B50FA73F804400B5F542E796F19FF974E7F78DB802FE05E20750
310
4B0304140006080800CC70623BE75B7789680500003C100000340000006662782F41393633353835312D344632462D344230382D423046372D3739314545314133324237412F6F626A656374732E786D6CAD575B8F9B3818FD2B887D06C22499CB8AA1CA655245D5B455A356FB305264C061D8018C6C3393D95FBFC7600890
310
A4CD5EF210B0B1BFEBF98E3F7B1FF6596ABC522E1296DF9BAE3D320D9A872C4AF2F8DE2CE5CEBA358D0FBEC719939D65A691938CDE9B6ADAF4BD98B3B2D05311DD91329583D9D5FC0F438434A7A611A644887B5384CF34233629258BA878B12322891DEFF6B66BD70BFB62634E8AE781D082709A4B588AF91C528CDA28B73F
310
1C998EEF39EABBEFA97FBD6A7C7E9553F9D3D79FE442923C3C523610337627CB87ABE99D359D4CC6D6E4FACAB5E6ABF9D2726FC6A3C5F56271377BB88362213924694B38DD99FE47C48627A1E7D49F5A8BB5E1A74C0A599ED3B0F21F1E56366B89112D681E218F0915D0D6F17AD41FBA2A369DCF6335D62ABBD39779D5DDD1
310
11D4D8DE3CBB96B2E04FB8202E41051754A1AA8E8F76B4C6DFE810B580B1547F4B84911149794252234D024EF8BBE963A95AE27B3D310A9D5C215C7960FAEE415ED75694C6AFB17BCACA5D99A60A9AA65F217B0BFC53292ACB92BF283FAD0D3621576592CB5BED907C2FA8E9DF794E35E97BEA31BED21FEB401ABB94C44839
310
DCACBF0E1C5DA8DA5B2F4DFFD32AD86F543D9E565E7056502E157C00AD2671CD534549AB752FCA9CDA00677A313F04E51B22FF19E57B300579E3C97EB29F682D92935CEC18CF901B7B54FD8C51F362B56FC72FE0B3C1EAE335EDCCBF5AEC39ADB17DC238973F804BA5E6F6BFE7AF1FB32E523BE9F3BD571418E3631DCA4D48
310
5250CF639223210A9446CA30052EDF057BD35F8329C1ECD84552BF0DC8D18BE7BCE23BFE6BD960AB4A7DE79923A103BEBD80F911CBAA2C60DB19B01CF164A5583B772EE6D3FFA56666CBCDA74DC97724A48F9A58967497E489C4D979006FD7A05E227A1EBDD0F737C623387A9C844D3709995625106D157315F8B8392CD4E0
310
A0B9A720C4BE9829CEF37EA1E13111214D53925356365ADA634861B52519DD27A00AEB808EAF0628E6F435519D446F45CF2C9CF5214F0A15B2F6D06B79DA3EE3CBF7F56780D2F4E7EF73A0F5E5B02A38D07DC852C6B7C1FBB6664213E0C39E3EBA7FF4E1AD23EA2829407C85E586727488B751B2DB9502BC7B228A3FD68B6E
310
A65A22397E690AA8D158D7E404EC8CDA235CC3B7D1898680131CEC2CDF2638C65196279577750F15884AEE19F94199155B92B13297978469D4F8D358DF0AEF7631E28DC8F0D9F437D5D39A83B2231A1D52D543813A824EF8D44BCFF2FA6A31BD1E8DAD87F1CCB526B3879935BF59CDADD5C37479BB1CDD4CA7B3556B516589
310
EF352754B706114D9C885EC9131DE6EFEB43D99AFE2391C2F958179413D7CFEF6B1B6DB1E7600F00DE6E5C67454A339A4BA2E0FBA85ED26F045D454F463DBFCE484C2F90F2E5E3666003662ED8F755951A7D1BECD5B30B550B2785C8E7320B7292A4838DDA71BBC863ED7613CAF659337A3354231D4FF4A182A54904C2898C
310
98B28C4AD0CE056CCF332A80986E571EE9DBC305BB5FEB7E509220A58D25CF042D712A806AC0AD0C657FDEF80D2D9CEAA2EE4D1C76F60BFE74219A06527D6F82DF6412526107381E55E353090704D085B52408A8913C4ED159D79BDA71BB4BC506F4831350EB6F975CD22D69BF7AC49B91A2C0A9DDA3D5CA36AD20FC478E37
310
E61844E2352865EBCB61A275A65283CAAA9DD27703B4102F5AF51EF5F573B75CBB5AD38BC845F7A49F82A0966A49C2E3EA5EA0ECD326CD965F1DB402C6FA8B51A4658C5C5E2EC9E214602E55810345408596591009A82E7E7FFACA19EEA299B14A0081A705CB3296EBC14CDF658DCD336EA6D1136881AAEB87B81AB9EE53D5
310
F5EB8BC8362082DA24122F98680A4E7930C01A0079749CEA14382A0783E5EBA5A10F8C098456A03D6A4AEB6BB881E2513747552A5DB22C7EDAF83BD5528081A365F7FF06504B0304140006080000CC70623B000000000000000000000000350000006662782F41393633353835312D344632462D344230382D423046372D37
310
39314545314133324237412F76657274696365732E62696E504B0304140006080800CC70623BF270F1330600000004000000360000006662782F41393633353835312D344632462D344230382D423046372D3739314545314133324237412F747269616E676C65732E62696E636660600000504B0304140006080000CC7062
310
3B000000000000000000000000370000006662782F41393633353835312D344632462D344230382D423046372D3739314545314133324237412F617474726962757465732E62696E504B0304140006080800CC70623B08DA0BD19000000041010000360000006662782F41393633353835312D344632462D344230382D4230
310
46372D3739314545314133324237412F6469726563746F72792E786D6C858F410AC3201045AF22B36F53E9A60B35CBEEBAE80D244E44489C6234F4F835464A48035D0DF398FF9F8AF63D0E6CC63039F212F8F9020C7D47C6792B21C5FE7403D62A1188E2E60C98D7234A5830286103A55745067B9D86B8A3CF9C7F90C11DE6
310
07FB144396D7B6A82D282E9A152AD114D5EF2CB866EEE831B8EEA07A7BB5A8D7D61A2BAAEB7FD5F70921FF497D00504B0304140006080800CC70623BEDD1DC58FD000000A00100003B0000006662782F41393633353835312D344632462D344230382D423046372D3739314545314133324237412F7265736F75726365732F
310
636F72652E786D6C8D504B6E833010BD0A9A6D65B00922041947112427E8052C33A156828DFCA97AFC9A40A576D7CDCCE87D344F8F9FBFE667F689CE6B6B3A6039850C8DB2A336530731DC4903D95970676DF82583CCC8193B5861107C72362E3BA4AC096842428D1D7107A5F7182053CF7474E0D507CE32973124857FE48B
310
540F3961CEF244279DE03EB81420DB9EAC1384436FA353E879B1B182C7A8C75DA3C7F453DF353A1075D537A7BA6464B8F535A99AE14A9A2BBD90E350DD183B5CFABE3AF262350B1EF4FC9351399401471025A527C218A1E53BAB5A5AB765F5469B96525EACF23FA6B88CFF34456DC2A1DCE36E360F82A5202F42F062ED2BAD
310
579969AFDD8A6F504B010214000A0000080000CC70623B3DEE336E79000000790000001B00000000000000000000000000000000006175746F6465736B2D64657369676E2D7061636B6167652E786D6C504B01021400140006080800CC70623BD486FD9CA0000000F40000001300000000000000000000000000B20000005B
310
436F6E74656E745F54797065735D2E786D6C504B01021400140006080800CC70623B853B8169EB0000007C010000080000000000000000000000000083010000636F72652E786D6C504B01021400140006080800CC70623B55019EA25F0000007C000000070000000000000000000000000094020000636E782E786D6C504B
310
01021400140006080800CC70623BDBABAAF470010000D40300000C00000000000000000000000000180300006662782F636F72652E786D6C504B01021400140006080800CC70623B9C113CC27E0000009D0000000B00000000000000000000000000B20400006662782F636E782E786D6C504B01021400140006080800CC70
310
623B7DF2F77C2A010000120200003100000000000000000000000000590500006662782F41393633353835312D344632462D344230382D423046372D3739314545314133324237412F636F72652E786D6C504B01021400140006080800CC70623BAD7543B64E010000330300003000000000000000000000000000D2060000
310
6662782F41393633353835312D344632462D344230382D423046372D3739314545314133324237412F636E782E786D6C504B01021400140006080800CC70623BE75B7789680500003C10000034000000000000000000000000006E0800006662782F41393633353835312D344632462D344230382D423046372D3739314545
310
314133324237412F6F626A656374732E786D6C504B01021400140006080000CC70623B0000000000000000000000003500000000000000000000000000280E00006662782F41393633353835312D344632462D344230382D423046372D3739314545314133324237412F76657274696365732E62696E504B01021400140006
310
080800CC70623BF270F133060000000400000036000000000000000000000000007B0E00006662782F41393633353835312D344632462D344230382D423046372D3739314545314133324237412F747269616E676C65732E62696E504B01021400140006080000CC70623B0000000000000000000000003700000000000000
310
000000000000D50E00006662782F41393633353835312D344632462D344230382D423046372D3739314545314133324237412F617474726962757465732E62696E504B01021400140006080800CC70623B08DA0BD1900000004101000036000000000000000000000000002A0F00006662782F41393633353835312D344632
310
462D344230382D423046372D3739314545314133324237412F6469726563746F72792E786D6C504B01021400140006080800CC70623BEDD1DC58FD000000A00100003B000000000000000000000000000E1000006662782F41393633353835312D344632462D344230382D423046372D3739314545314133324237412F7265
310
736F75726365732F636F72652E786D6C504B0506000000000E000E0080040000641100000000
  0
XRECORD
  5
530
102
{ACAD_REACTORS
330
3D
102
}
330
3D
100
AcDbXrecord
280
     1
102
MATERIAL
148
0.0
149
0.0
149
0.0
 93
        0
 94
       63
282
     0
 72
     1
 77
     1
171
     1
175
     1
179
     1
273
     0
  0
XRECORD
  5
3E
102
{ACAD_REACTORS
330
3D
102
}
330
3D
100
AcDbXrecord
280
     1
 70
     1
 90
429727718
  1
30362254-06B7-45E0-A893-8CFA70E3D6BC
310
504B03040A0000080000CC70623B3DEE336E79000000790000001B0000006175746F6465736B2D64657369676E2D7061636B6167652E786D6C3C3F786D6C2076657273696F6E3D22312E302220656E636F64696E673D227574662D3822203F3E3C666F726D6174733E3C666F726D61743E687474703A2F2F736368656D612E
310
6175746F6465736B2E636F6D2F64657369676E2D7061636B6167652F323030393C2F666F726D61743E3C2F666F726D6174733E504B0304140006080800CC70623BD486FD9CA0000000F4000000130000005B436F6E74656E745F54797065735D2E786D6C7D8EC10E82300C865F65E91D8A1E8C310C0EEA1BF002731658846E
310
D98AC1B77784ABF1D8FE5FBFBF75BBCE937A534CCEB38643598122B6FEE978D0B0485F9C41B54DDD7D022595594E1A469170414C76A4D9A4D207E29CF43ECE46F218070CC6BECC4078ACAA135ACF422C856C0E68EA1BF5669944DDD7BCDE7B1F8E415D77AECB980613C2E4AC91FC167A2B244592486606FC29C8FD7F045B9A
310
EF7053A7E60B504B0304140006080800CC70623B1EC5D7A3EB0000007C01000008000000636F72652E786D6C8D90416EC3201045AF82665B6103C6756C6122AB4D4ED00B204C5C94182C03558F5F9C3852BBEB6A467FFE9B197D71FC9E6FE8CBACC17AD7032D0820E3B41FAD9B7A48F1820F808E52ACDEC75F36404ECDA687
310
4D0629A6D5A76597B477D1B89855E747B38B2A041301E95B6E7A08FAD3CCAA50296647B8168BD2573599823EBB0CA76447F43862C7BCCF5EAC59410E4DDD9C7973C2755553CCCFA4C603E3040F1565ED3B1FDE4E432BCA0D9622DAF9795FAF464533826484B498524CD807E51D79ED187F21878E10516EF63F505AC67F42C9
310
BA58B1FDDD071640D2FCC87D2045B96591CB3DA85CB7DCE40F504B0304140006080800CC70623B55019EA25F0000007C00000007000000636E782E786D6C4DCB3B0E80201045D1AD90E915ED2CF8AC45050C11660C8261F98AB1B07AC9C97D42D718D865D3E909258CFD00CCE24AC6E326A164D74DC0B4128928FF32603847
310
2BA13128B1252AC747C6BAB984FC68F0B87FE8960A5C09FE86CFB69FBA01504B0304140006080800CC70623B8C9102E971010000D40300000C0000006662782F636F72652E786D6CC5535B6E833010BC8AE5DF0A6C08340F1947A84D4ED00B38C6A128602363A31CBFCB234A53A551FA553EC09AD9F5CE8C31DB9E9B1AF5CA
310
7695D1198E428A91D2D214952E33ECDD315861B4E5CC1AE3BE9561A445A3323CC098B3D21ADFCE9034DA29ED00D5A6503328BA4E398C640D8B0C77F253352214DE4145770A5B214FA2546114020D759C75CE8200340D19DE981F0F6746269C33EFAB6266AB02A655C74A59CCF365BADC27CB5D902ED22848F6340DF238A141
310
BE88E2F57B92BFEDF23523433367AE6A2EEAA455C2A902F398D2751045018D3FA264435F3771F242571B4A1919CA6F9A7C5B3CD9E42BED16F12C776AEB308F40C848FC700B1139D4891EF410CEC810227CC6846F8386402064270EF5C5C709A05E49676C024C61FC95EA45ED154CA5211D1FF4FB8291A913A68E9B83EBBB33
310
E2A7673CDE118E5AE8124C0807CB8377834E366998436B950D7A7746DAD846D4CFD978E0F04FD455FC5D49D2D4C6FE9722321F10997F0F32DC47FE05504B0304140006080800CC70623BFFEA85907E0000009D0000000B0000006662782F636E782E786D6C4DCCD10A83201886E15B91FFDC95D95A811AB6F23E625948A6C3
310
E9D8E5AF46073BFAE0E1E365ED67B3E8ADC3CB78C7815C7240DA3DFC64DCC221C519D7805AC182F7F1EF06C88D9BE6703008B6049F9E274D7A1E938DBB5AE3D6131B2589BA0D3D965551E0B2EA732C9B9A624AAEB41E3A557677029960D9AFB4EF11165F504B0304140006080800CC70623B4FEEA4082C0100001202000031
310
0000006662782F39464131463745442D413632322D343644302D413938332D3331353338454246344243312F636F72652E786D6C8D515B6EC32010BC0AE2AB55850DD871ED0813254D72825EC00192A2C460F1A872FC42ED48ED5F7E00CDCECCCEB26C731F6FE05B39AFADE921293004CA082BB5B9F43086336A21D870E6AC
310
0D7F68109861543DCC30E4ECE26C9C164858139409093556AA051CBC570102714B8F1E7AF1A5C6A11862480C7F2DA6415C878B2A4891CA89C7990F2E050073937C42DE1DB7E4F87ED8A36D4329AA9B3D46DBAEAD504556557BD81DEBDD0761E52CE42C462D17B996298E3E6BE59E35C962CE821E1FF18553435012728A7187
310
0841987E927A8D9B35ADDF70BBC6989599FE4F1427F9A4286A132ABAC49D651EF234CD5CE04CDA78BA3DC2A8FB645D00B9DF8B57E215725C60BCA2A463E54C4CE327C7A65E1C7DB02E7DEFCBF594B864C5CA6CDBD49C957943E9FA5D5FBAF336F90F504B0304140006080800CC70623BAD7543B64E01000033030000300000
310
006662782F39464131463745442D413632322D343644302D413938332D3331353338454246344243312F636E782E786D6CD593CD6EC32010845F0571AD6CE3D48AD20813A9873E410FBD12D82434182C7EAAE6EDBB2424CD25871E7B41D6EC30B3FA84F9E67BB2E40B4234DE8DB46F1925E094D7C6ED479AD3AE5951B2113C
310
789FEE6C943839C1488B4C05DF079FE72A69D8C96C13AAD6B8631503449F83828872B949AC57D26200B826A308D316B4064D6E46FCDA41C05550DC9E483A00797BFD207EFB092A45DE9514C1BBD22178396BD39D891265658C238DEA00936C654E5E433CB65A26D9F6EDB5EBC14EBF49A45CB856E66048291F6939A9A81BB5
310
C8917738143CA680F4AA299D66A042CEB3354A2684DC9D8D178FE0D9B8B41CAAD720F880EE7EF93C0C18769E099ECC04D5A102C8049A8A05632F4DDF376CF1DE0F6BB65C2F8627B65A33C6BB62177CEBBDAD973006829F89F22E814B54F4BC2BE347F8AA8F681390B50FA73F804400B5F542E796F19FF974E7F78DB802FE05
310
E207504B0304140006080800CC70623B16AB87BA640500003C100000340000006662782F39464131463745442D413632322D343644302D413938332D3331353338454246344243312F6F626A656374732E786D6CAD575B6FA33818FD2B887DE6924B3BED8A326A92B68A663B534DD4D13E548A0C38942D60649B369D5FBFC7
310
600890A493BDE42160637FD7F31D7FF63E6FB3D478A55C242CBF3247B66B1A340F5994E4F19559CA8D75611A9F7D8F33263BCB4C232719BD32D5B4E97B316765A1A722BA21652A07B3B7B33F0D11D29C9A46981221AE4C113ED38CD8A4942CA2E2C58E882476BCD9DA23BB5ED8171B73523C0F841684D35CC252CCE79062D4
310
468DFA43D7747CCF51DF7D4FFDEB5593E3AB9CCA9FBEFE241792E4E19EB28198C968BAB8199F5D5A67D3E9C49A9E8F47D6EC76B6B0469F26EEFC7C3EBFBCBEB98462213924694B38DD98FE1D62C393D073EA4FADC5DAF04326852CCF6958F90F0F2B9BB5C48816348F90C7840A68EB78EDF68723159BCEE7891A6B95DDE9D3
310
BCEAEEE8086A6C6F9E5D4B59F0175C10A7A0820BAA5055C7473B5AE3CFDD452D602CD5DF12616444529E90D448938013FE6EFA58AA96F85E4F8C42275708571E98FE6827AF6B2B4AE3D7D83D64E5A64C53054DD3AF90BD06FEA9149565C94FCA0F6B834DC85599E4F2423B24DF0B6AFA979E534DFA9E7A4CC6FA631D486393
310
921829879BF5D781A373557BCB85E97FB90DB62B558F8795179C15944B051F40AB495CF35451D26A4727654E6D8033BD98EF82F21D91FF8AF2DD9982BCF1643BDD4EB516C9492E368C67C88DED563FC36D5EACF66DFF057C3658BDBFA69DF9578B3DA735B64F18C7F20770A9D45CFCF7FCF563D6456A277DBEF78A02637CA2
310
43B90A490AEAB94F72244481D24819A6C0E59B606BFA4B3025981DBB48EAB701D97BF19C577CC77F2D1B6C55A9EF3C732474C0B727303F625995056C3B02963D9EAC146BE78EC5FCEC7FA999EBC5EACBAAE41B12D27B4D2C0BBA49F244E2ECDC81B76B502F113D8F5EE8FB1BE3111CDD4FC2AA9B844CAB1288B68AB90A7CDC
310
1C166AB0D3DC5310625FCC14E779BFD0709F8890A629C9292B1B2DED31A4B0DA928CEE135085754027E3018A397D4D5427D15BD1330B677DC8934285AC3DF45A9EB68FF8F2B8FC0A509AFEECFD0FF2DE25CC6047F7214B195F07EFEB9A094D800F7BFAE8FED187B78EA8A3A400F115961BCAD1215E47C966530AF0EE8128FE
310
58CEBB996A8964FFA529A046635D9353B0336A8F700DDF46271A024E70B0B37C9DE01847591E54DED53D54202AB947E4076556AC49C6CA5C9E1226B7F1A7B1BE15DEED62C41B91E1B3E9AFAAA735036547343A925075041DF0A9979E893B391F8FCFA6967B3EFB644DCF6E5CEBFAE272625DCC6FAF3FB93793C5F90CE1EF57
310
407342756B10D1C489E8953CD1617E5CEECAD6F4EF8914CE5D5D504E5C3F1F9736DA62CFC11E00BCDDB8CC8A9466349744C1F75EBDA4DF09BA8A9E8C7A7E9991989E20E5DBDD6A6003664ED8F7A04A8DBE0DF6EAD9B9AA858342E47399053949D2C146EDB85DE4B176BB0965FBAC19BD19AA918E27FA50C1D22402E144464C
310
59462568E704B6E71915404CB72B8FF4EDE184DDAF753F284990D2C6926782963815403548A70C657FDEF80D2D9CEAA2AE4C1C76F60BFE74219A06527D6582DF6412526107381E55E353090704D085B52408D0933C4ED159D79BDA71BB4BC506F4831350EB6F979CD22D69BF7AC49B91A2C0A9DDA3D5CA36AD20FC478E37E6
310
1844E2352865EBCB6EA275A652E3836BE04EFB400BF1A2556F515F1FBB35B2AB35BD889C744FFA1004B5544B121E57F70215746DD2F5E2C1412B602CBF19455AC6C8E5E9922C4E01E65215385004546899059180EAFCF7A707CE7017CD8CDB0410789AB32C63B91E5CEBBBACB17AC6CD347A022D5075FD106377347AAABA7E
310
7D11590744509B44E205134DC1290F06580320F78E537D3D73540E06CB970B431F185308AD40BBD794D6D77003C5A36E8EAA54BA64597CD8F83BD552A080A365F7FF06504B0304140006080000CC70623B000000000000000000000000350000006662782F39464131463745442D413632322D343644302D413938332D3331
310
353338454246344243312F76657274696365732E62696E504B0304140006080800CC70623BF270F1330600000004000000360000006662782F39464131463745442D413632322D343644302D413938332D3331353338454246344243312F747269616E676C65732E62696E636660600000504B0304140006080000CC70623B
310
000000000000000000000000370000006662782F39464131463745442D413632322D343644302D413938332D3331353338454246344243312F617474726962757465732E62696E504B0304140006080800CC70623B08DA0BD19000000041010000360000006662782F39464131463745442D413632322D343644302D413938
310
332D3331353338454246344243312F6469726563746F72792E786D6C858F410AC3201045AF22B36F53E9A60B35CBEEBAE80D244E44489C6234F4F835464A48035D0DF398FF9F8AF63D0E6CC63039F212F8F9020C7D47C6792B21C5FE7403D62A1188E2E60C98D7234A5830286103A55745067B9D86B8A3CF9C7F90C11DE607
310
FB144396D7B6A82D282E9A152AD114D5EF2CB866EEE831B8EEA07A7BB5A8D7D61A2BAAEB7FD5F70921FF497D00504B0304140006080800CC70623B0D6EF93BFE000000A00100003B0000006662782F39464131463745442D413632322D343644302D413938332D3331353338454246344243312F7265736F75726365732F63
310
6F72652E786D6C8D50596E833010BD0A9ADFCA60B334011947A8694ED00B586642AC041B79A97AFC9A40A5F6AF3F33A3B7689E1E3F7DCD8FEC139DD7D6F4C0720A191A65476DA61E62B892236427C19DB5E1970C322367EC618541F0C9D9B8EC90B226A009093576C41D94DE63804C3DD2D18357379C652E63480A7FCF17A9
310
EE72C29CE5894E3AC17D702940B63D59270887DE46A7D0F36263058F518FBB468FE9A7BE6A7420864373B8D4873369AA8691FA421B3294352543C5CAF65C0F6FEF43CB8BD52C78D0F34F46E550061C419494B6843142CB0F5677F4B52BEB177AEC28E5C52AFF638ACBF84F53D42654E51E77B379102C05791282176B5F693D
310
CB4C7BED567C03504B010214000A0000080000CC70623B3DEE336E79000000790000001B00000000000000000000000000000000006175746F6465736B2D64657369676E2D7061636B6167652E786D6C504B01021400140006080800CC70623BD486FD9CA0000000F40000001300000000000000000000000000B20000005B
310
436F6E74656E745F54797065735D2E786D6C504B01021400140006080800CC70623B1EC5D7A3EB0000007C010000080000000000000000000000000083010000636F72652E786D6C504B01021400140006080800CC70623B55019EA25F0000007C000000070000000000000000000000000094020000636E782E786D6C504B
310
01021400140006080800CC70623B8C9102E971010000D40300000C00000000000000000000000000180300006662782F636F72652E786D6C504B01021400140006080800CC70623BFFEA85907E0000009D0000000B00000000000000000000000000B30400006662782F636E782E786D6C504B01021400140006080800CC70
310
623B4FEEA4082C0100001202000031000000000000000000000000005A0500006662782F39464131463745442D413632322D343644302D413938332D3331353338454246344243312F636F72652E786D6C504B01021400140006080800CC70623BAD7543B64E010000330300003000000000000000000000000000D5060000
310
6662782F39464131463745442D413632322D343644302D413938332D3331353338454246344243312F636E782E786D6C504B01021400140006080800CC70623B16AB87BA640500003C1000003400000000000000000000000000710800006662782F39464131463745442D413632322D343644302D413938332D3331353338
310
454246344243312F6F626A656374732E786D6C504B01021400140006080000CC70623B0000000000000000000000003500000000000000000000000000270E00006662782F39464131463745442D413632322D343644302D413938332D3331353338454246344243312F76657274696365732E62696E504B01021400140006
310
080800CC70623BF270F133060000000400000036000000000000000000000000007A0E00006662782F39464131463745442D413632322D343644302D413938332D3331353338454246344243312F747269616E676C65732E62696E504B01021400140006080000CC70623B0000000000000000000000003700000000000000
310
000000000000D40E00006662782F39464131463745442D413632322D343644302D413938332D3331353338454246344243312F617474726962757465732E62696E504B01021400140006080800CC70623B08DA0BD190000000410100003600000000000000000000000000290F00006662782F39464131463745442D413632
310
322D343644302D413938332D3331353338454246344243312F6469726563746F72792E786D6C504B01021400140006080800CC70623B0D6EF93BFE000000A00100003B000000000000000000000000000D1000006662782F39464131463745442D413632322D343644302D413938332D3331353338454246344243312F7265
310
736F75726365732F636F72652E786D6C504B0506000000000E000E0080040000641100000000
  0
XRECORD
  5
531
102
{ACAD_REACTORS
330
D
102
}
330
D
100
AcDbXrecord
280
     1
102
MATERIAL
148
0.0
149
0.0
149
0.0
 93
        0
 94
       63
282
     0
 72
     1
 77
     1
171
     1
175
     1
179
     1
273
     0
  0
XRECORD
  5
10
102
{ACAD_REACTORS
330
D
102
}
330
D
100
AcDbXrecord
280
     1
 70
     0
 90
1673772943
  1
ECE7A1D2-D628-4531-984C-D00F80459256
310
504B03040A0000080000CC70623B3DEE336E79000000790000001B0000006175746F6465736B2D64657369676E2D7061636B6167652E786D6C3C3F786D6C2076657273696F6E3D22312E302220656E636F64696E673D227574662D3822203F3E3C666F726D6174733E3C666F726D61743E687474703A2F2F736368656D612E
310
6175746F6465736B2E636F6D2F64657369676E2D7061636B6167652F323030393C2F666F726D61743E3C2F666F726D6174733E504B0304140006080800CC70623BD486FD9CA0000000F4000000130000005B436F6E74656E745F54797065735D2E786D6C7D8EC10E82300C865F65E91D8A1E8C310C0EEA1BF002731658846E
310
D98AC1B77784ABF1D8FE5FBFBF75BBCE937A534CCEB38643598122B6FEE978D0B0485F9C41B54DDD7D022595594E1A469170414C76A4D9A4D207E29CF43ECE46F218070CC6BECC4078ACAA135ACF422C856C0E68EA1BF5669944DDD7BCDE7B1F8E415D77AECB980613C2E4AC91FC167A2B244592486606FC29C8FD7F045B9A
310
EF7053A7E60B504B0304140006080800CC70623BD9DDAED0EC0000007C01000008000000636F72652E786D6C8D90416EC3201045AF82665B61836D9CD8C2444DD39CA01740405C94182C03558F5F9C3852BBEB6A467FFE9B197D7EF89E6EE8CB2CC17A37002D0820E394D7D68D03A478C17B4007C117EFE32F1B20272733C0
310
2A83E0E3E2D3BC49CABB685CCCAAF3DA6CA20CC14440EA969B0182FA34932C648AD911AEC52CD5558EA6A0CF2EC329598D1E47ACCEFBECC59A050463A7EA5833865FEBDD0E37353BE3EE8DBDE3F6786A48D375FBF6CC78B9C282473B3DEFABC5C86834888A900E538A49F5419B9EB47DD5BC907D4F082F57FB1F28CDFA9F50
310
B22ED6D5F6EE030B20687EE43E10BC5CB3C8E51E54AE6B6EE207504B0304140006080800CC70623B55019EA25F0000007C00000007000000636E782E786D6C4DCB3B0E80201045D1AD90E915ED2CF8AC45050C11660C8261F98AB1B07AC9C97D42D718D865D3E909258CFD00CCE24AC6E326A164D74DC0B4128928FF326038
310
472BA13128B1252AC747C6BAB984FC68F0B87FE8960A5C09FE86CFB69FBA01504B0304140006080800CC70623BA24EB22D72010000D40300000C0000006662782F636F72652E786D6CC5535B6E833010BC8AE5DF0A6C5E49888CA3A6694ED00B38E05014B091B1518EDFE511A5A9D228FD2A1F60CDEC7A67C6986DCE4D8D7A
310
69BA4AAB0C073EC548AA5C17952A33ECECD15B61B4E1CC686DBF9561A44423333CC098B3D268D7CE50AE9595CA02AA74216750749DB418E5352C32DCE59FB211BE70162ABA93DF8AFC244AE9073ED050C759670D0840D390E18DF9F1706664C23973AE2A66B62A605A75ACA4C13C4976E1364A12EF355A2EBD384AF65EFA96
310
BC7B8BED2EA6719AAE16FB8491A199335B351775B991C2CA02F390D2D40B028F861F41BCA68B7518BFD0D59A524686F29B26D7164F36B94AD9289CE54E6D1DE6010819891F6E21228B3AD1831EC219194284CF98F06DD01008846CC5A1BEF83801D4CBDC6A1303536877A57A513B0953A94FC707FDBE6064EA84A9E3E6E0FA
310
EE8CF0E9198F7784A316AA0413C2C2F2E0ECA0934D1AE6D05A69BCDE9E91D2A611F573361E38FC1375157F5752AE6B6DFE4B11990F88CCBF0719EE23FF02504B0304140006080800CC70623B408A7D3B7C0000009D0000000B0000006662782F636E782E786D6C4DCCD10A83201886E15B91FFDC552A92A0064DBC8F581632
310
D3703A76F9ABD1C18E3E78F878E5F0D9027ABBFCF2292AE86E2D20171F69F6715550CB827B40839639A5F2770314A7CD293819B45C73AAFB45B35BA61ACAA1C1C7E7855C58C15BC331339661262CC762340413D68D77DA5B42298546CBE6573AF60CEB2F504B0304140006080800CC70623B449FB9BD290100001202000031
310
0000006662782F36394639363044362D344446342D343946362D394244322D3234314243333846323333332F636F72652E786D6C8D515B6EC32010BC0AE22B55850D98B871848994463E412FE002495162B07854397EA176A4F62F3F2C9A9D991D587EB84F37F0AD7D30CEF6905418026DA553C65E7A98E219ED203808EE9D
310
8B7F6810D871D23D2C3014FCE25D9A57483A1BB58D19B54EE9151C43D0110279CB971E06F9A5A7B11A53CC8C70ADE6515EC78BAE4895DB992778883E0700CB907242D17643D7E2538BD869608875438BBAE38922CAC8F1BDD90DB4691A5E2F42C153326A951B95E398B3D1FE599322163C9AE9115F7A3D46ADA0A018778810
310
84E907617BDCEE297BC5BB3DC6BC2EF47FA234AB2745C9D8D8D035EE220B50105E2F0DC1954B9FB747187D9F9D8FA0CCDB042D5FA0C015C65B42DF78BD10F3F3B363CB56C7109DCFDFBBB97E662ED92EB62D13BC2E1BCAE5777DB9966D8A1F504B0304140006080800CC70623BAD7543B64E01000033030000300000006662
310
782F36394639363044362D344446342D343946362D394244322D3234314243333846323333332F636E782E786D6CD593CD6EC32010845F0571AD6CE3D48AD20813A9873E410FBD12D82434182C7EAAE6EDBB2424CD25871E7B41D6EC30B3FA84F9E67BB2E40B4234DE8DB46F1925E094D7C6ED479AD3AE5951B2113C789FEE
310
6C943839C1488B4C05DF079FE72A69D8C96C13AAD6B8631503449F83828872B949AC57D26200B826A308D316B4064D6E46FCDA41C05550DC9E483A00797BFD207EFB092A45DE9514C1BBD22178396BD39D891265658C238DEA00936C654E5E433CB65A26D9F6EDB5EBC14EBF49A45CB856E66048291F6939A9A81BB5C89177
310
38143CA680F4AA299D66A042CEB3354A2684DC9D8D178FE0D9B8B41CAAD720F880EE7EF93C0C18769E099ECC04D5A102C8049A8A05632F4DDF376CF1DE0F6BB65C2F8627B65A33C6BB62177CEBBDAD973006829F89F22E814B54F4BC2BE347F8AA8F681390B50FA73F804400B5F542E796F19FF974E7F78DB802FE05E20750
310
4B0304140006080800CC70623B8D05915C650500003B100000340000006662782F36394639363044362D344446342D343946362D394244322D3234314243333846323333332F6F626A656374732E786D6CAD575B6FA33814FE2B887D06429276DA1565D4266D158D3A339A6846FB502932E050B66023DB74D2FDF5FB190C01
310
9276B2973C046C8ECFF53B17071F77456EBD502133CEAE6CDF9DD81665314F32965ED995DA3A17B6F5310C04E7AA47665B8C14F4CAD6DB7618A48257A5D94AE89654B91AEDDEDDFC61C998326A5B714EA4BCB265FC440BE2924AF184CA6737218AB8E976E7FA6E4338649B0A523E8D98964450A6A029F619B8588D52FE7039
310
B1BD30F0F4F730D0FF866AF6369557DB33949F31A9088B0F848DD8CCFCF9F2767A76E99CCDE733677E3EF59D9BBB9BA5E37F984D16E78BC5E5F5ED25044B25C0C96822E8D60EEFE11B91C581D77CEA34368A1F5329E68CD1B8B61F16D63A1B8E092D294B10C78C4A48EB593D192E7DED9BDEE7995E1B91FDEDD3ACEA9FE831
310
6A756F9F7D4D79F4274C90A7A04248AA51D5F8C718DAE06FB2F75AC4796EBE65D22A88A22223B995679120E2D50E41AA49C260C046A35368846B0BECD0DFF3EBEB8AD4F835768F69B9ADF25C43D30E6B646F807FAA64AD59F61715C7A54127C4AACA98BA3006A9D792DAE165E0D59B61A01FB3A9F9D838D2DAE62445C86166
310
F37564E842E7DE6A69879FEEA2DD5AE7E371E1A5E025154AC307D06A03D73EB5978C58FFA4C8E9033066E0F3BD53BEC1F39F91BE7B55103791EDE6BBB991A2046172CB4581D8B893FA674DDA17A77B3B7C413D1B511FD2743BFF8A38F03A658705E3ADF8015C3A3417FF3D7E439FF591DA0B5F18BC20C1B8981957AE6392A3
310
F43C640C01D1A0B4728E2DD4F26DB4B3C3152A252A3B4E913CEC1C72F012782FF88EFF8637AA552DBEF76408E8A8DE9E50F9E1CB3A2DA0DB1B6039A893B56063DC5B3E3FFB5F72E67AB9FEB4AEC496C4F4C1149625DD662C53E89D7BF0F6151A046260D1337DFDC94502430F83B0EE07A130A224BCAD7DAE1D9FB6CD422FF6
310
920702629C4BB9AE79C12F243C6432A6794E18E5552BA56B431AAB5D91317302B2B071E86C3A42B1A02F999E24061403B5D0EB639195DA655DD3EBEAB4FB862DDF579F014AD0E73C22F99E28DA57FB98E75C6CA2D74D53086D600F4786E0FE3144B771A8A7B900F03594DB8A633CBC49B2EDB69228BB479CF863B5E807AAAB
310
23872F6DFEB4129B949CA33823F58830E86D65621E10047D9DB34D862E8EAC3C2ABC2F7B2C40D67CDFE01F5545B92105AF983AC54D93D69E56FB8E797F88913F898A9FEC705D3F9D1B54EC8426FB500D40A03BD0119B06E1B95DDC7EB8F6975367793EBD70E66733DFB9BC982F9CE564727731999F5D4ECFCE3B8D6A4DC2A0
310
6D50FD148437D110834A64C6CDDF57FBACB5C307A2A477DFE4939736CFEF2B175371E0E10CF0DD1D5C15654E0BCA14D1E87DD02FF93782A162C0A3D95F1524A52770F972BF1EE9809D13CE7DD599467F8ECE9ADD85CE85A34CD45355448C64F9E8A031DC2D596ACC6E5DD93D9B82DE2EF5CAF81363A8E47996A0DE24564A79
310
4115AACE09C55E14540231FDA13C319787134EBF34E3A022514E5B4D9E0826E25C02D5805B15ABE1BEF51B26383D445DD9E875EE33FE4C22DA16427D65A3BCA92CA6D28DD01DF5DC53330704308475351050232CCD31583787BA75774AFB06E5070DD0C8EF484E19968C5D83BA5B90B244D31E54D55A372320FE4786B7EA58
310
44E135AA5467CB7EA333A61683CC6A8C3257034C10CF46F40EF9F5BE59BE5BD30C3C72D235E95D10345C1D45445A5F0BB47E46A5EBE5570F9380B5FA629579952296A773720405982B9DE04011506178964401AA8BDF1FBF0A8EAB6861DD6580C0E38217056766716DAEB2D6FA0917D3E4116581EADB879C4E7CFFB11EFACD
310
3D641311495D92C8676CB409A72D18610D803CE8A626049E8EC1887CB5B44CC39883690DDA8399B4B9855B481E7D71D4A9D22F96E5BB73BF5793020C02137BF837504B0304140006080000CC70623B000000000000000000000000350000006662782F36394639363044362D344446342D343946362D394244322D32343142
310
43333846323333332F76657274696365732E62696E504B0304140006080800CC70623BF270F1330600000004000000360000006662782F36394639363044362D344446342D343946362D394244322D3234314243333846323333332F747269616E676C65732E62696E636660600000504B0304140006080000CC70623B0000
310
00000000000000000000370000006662782F36394639363044362D344446342D343946362D394244322D3234314243333846323333332F617474726962757465732E62696E504B0304140006080800CC70623B08DA0BD19000000041010000360000006662782F36394639363044362D344446342D343946362D394244322D
310
3234314243333846323333332F6469726563746F72792E786D6C858F410AC3201045AF22B36F53E9A60B35CBEEBAE80D244E44489C6234F4F835464A48035D0DF398FF9F8AF63D0E6CC63039F212F8F9020C7D47C6792B21C5FE7403D62A1188E2E60C98D7234A5830286103A55745067B9D86B8A3CF9C7F90C11DE607FB14
310
4396D7B6A82D282E9A152AD114D5EF2CB866EEE831B8EEA07A7BB5A8D7D61A2BAAEB7FD5F70921FF497D00504B0304140006080800CC70623BCA768048FE000000A00100003B0000006662782F36394639363044362D344446342D343946362D394244322D3234314243333846323333332F7265736F75726365732F636F72
310
652E786D6C8D50596E833010BD0A9ADFCA60D600328E9AA639412F609909B1126CE4A5EAF16B0295DABFFECC8CDEA2797AECF8353F924FB44E193D409E5248504B332A3D0D10FC95B4901C39B3C6F85F3248B49871801506CE266BC2B243D2688FDA47549B11775038871E12F988C7004EDE7016A9083E2ADC3D5D84BC8B09
310
D33C8D74D471E6BC8D0192EDC93A815B742658898E651BCB59086ADC356A8C3FD555A1055ED7E7E254D615792D0F075295F585746FF53B694EE78A565DD736979A65AB9933AFE69F8CD2A2F038022F28ED489E135A7CE4554F9BBEA85E68DB53CAB255FEC71496F19FA6A0B42F8B3DEE6673C0F318E4497096AD7DC5F52C33
310
EEB55BFE0D504B010214000A0000080000CC70623B3DEE336E79000000790000001B00000000000000000000000000000000006175746F6465736B2D64657369676E2D7061636B6167652E786D6C504B01021400140006080800CC70623BD486FD9CA0000000F40000001300000000000000000000000000B20000005B436F
310
6E74656E745F54797065735D2E786D6C504B01021400140006080800CC70623BD9DDAED0EC0000007C010000080000000000000000000000000083010000636F72652E786D6C504B01021400140006080800CC70623B55019EA25F0000007C000000070000000000000000000000000095020000636E782E786D6C504B0102
310
1400140006080800CC70623BA24EB22D72010000D40300000C00000000000000000000000000190300006662782F636F72652E786D6C504B01021400140006080800CC70623B408A7D3B7C0000009D0000000B00000000000000000000000000B50400006662782F636E782E786D6C504B01021400140006080800CC70623B
310
449FB9BD290100001202000031000000000000000000000000005A0500006662782F36394639363044362D344446342D343946362D394244322D3234314243333846323333332F636F72652E786D6C504B01021400140006080800CC70623BAD7543B64E010000330300003000000000000000000000000000D20600006662
310
782F36394639363044362D344446342D343946362D394244322D3234314243333846323333332F636E782E786D6C504B01021400140006080800CC70623B8D05915C650500003B10000034000000000000000000000000006E0800006662782F36394639363044362D344446342D343946362D394244322D32343142433338
310
46323333332F6F626A656374732E786D6C504B01021400140006080000CC70623B0000000000000000000000003500000000000000000000000000250E00006662782F36394639363044362D344446342D343946362D394244322D3234314243333846323333332F76657274696365732E62696E504B010214001400060808
310
00CC70623BF270F13306000000040000003600000000000000000000000000780E00006662782F36394639363044362D344446342D343946362D394244322D3234314243333846323333332F747269616E676C65732E62696E504B01021400140006080000CC70623B00000000000000000000000037000000000000000000
310
00000000D20E00006662782F36394639363044362D344446342D343946362D394244322D3234314243333846323333332F617474726962757465732E62696E504B01021400140006080800CC70623B08DA0BD190000000410100003600000000000000000000000000270F00006662782F36394639363044362D344446342D
310
343946362D394244322D3234314243333846323333332F6469726563746F72792E786D6C504B01021400140006080800CC70623BCA768048FE000000A00100003B000000000000000000000000000B1000006662782F36394639363044362D344446342D343946362D394244322D3234314243333846323333332F7265736F
310
75726365732F636F72652E786D6C504B0506000000000E000E0080040000621100000000
  0
XRECORD
  5
534
102
{ACAD_REACTORS
330
533
102
}
330
533
100
AcDbXrecord
280
     1
102
ACAD_ROUNDTRIP_2012_MLEADER_STYLE
298
     1
  0
XRECORD
  5
535
102
{ACAD_REACTORS
330
51F
102
}
330
51F
100
AcDbXrecord
280
     1
102
DISPLAYNAME
  1
Metric50
102
FLAGS
 90
        0
  0
XRECORD
  5
537
102
{ACAD_REACTORS
330
536
102
}
330
536
100
AcDbXrecord
280
     1
102
RTVSPropertyOp0
 70
     1
102
RTVSPropertyOp1
 70
     1
102
RTVSPropertyOp2
 70
     1
102
RTVSPropertyOp3
 70
     1
102
RTVSPropertyOp4
 70
     1
102
RTVSPropertyOp5
 70
     1
102
RTVSPropertyOp6
 70
     1
102
RTVSPropertyOp7
 70
     1
102
RTVSPropertyOp8
 70
     1
102
RTVSPropertyOp9
 70
     1
102
RTVSPropertyOp10
 70
     1
102
RTVSPropertyOp11
 70
     1
102
RTVSPropertyOp12
 70
     1
102
RTVSPropertyOp13
 70
     1
102
RTVSPropertyOp14
 70
     1
102
RTVSPropertyOp15
 70
     1
102
RTVSPropertyOp16
 70
     1
102
RTVSPropertyOp17
 70
     1
102
RTVSPropertyOp18
 70
     1
102
RTVSPropertyOp19
 70
     1
102
RTVSPropertyOp20
 70
     1
102
RTVSPropertyOp21
 70
     1
102
RTVSPropertyOp22
 70
     1
102
RTVSPropertyOp23
 70
     1
102
RTVSPropertyOp24
 70
     1
102
RTVSPropertyOp25
 70
     1
102
RTVSPropertyOp26
 70
     1
102
RTVSPropertyOp27
 70
     1
102
RTVSPropertyOp28
 70
     1
102
RTVSPropertyOp29
 70
     1
102
RTVSPropertyOp30
 70
     1
102
RTVSPropertyOp31
 70
     1
102
RTVSPropertyOp32
 70
     1
102
RTVSPropertyOp33
 70
     1
102
RTVSPropertyOp34
 70
     1
102
RTVSPropertyOp35
 70
     1
102
RTVSPropertyOp36
 70
     1
102
RTVSPropertyOp37
 70
     1
102
RTVSPropertyOp38
 70
     1
102
RTVSPropertyOp39
 70
     1
102
RTVSPropertyOp40
 70
     1
102
RTVSPropertyOp41
 70
     1
102
RTVSPropertyOp42
 70
     1
102
RTVSPropertyOp43
 70
     1
102
RTVSPropertyOp44
 70
     1
102
RTVSPropertyOp45
 70
     1
102
RTVSPropertyOp46
 70
     1
102
RTVSPropertyOp47
 70
     1
102
RTVSPropertyOp48
 70
     1
102
RTVSPropertyOp49
 70
     1
102
RTVSPropertyOp50
 70
     1
102
RTVSPropertyOp51
 70
     0
102
RTVSPropertyOp52
 70
     0
102
RTVSPropertyOp53
 70
     1
102
RTVSPropertyOp54
 70
     1
102
RTVSPropertyOp55
 70
     1
102
RTVSPropertyOp56
 70
     1
102
RTVSPropertyOp57
 70
     1
102
RTVSPost2010Prop28
280
     1
102
RTVSPost2010PropOp28
 70
     1
102
RTVSPost2010Prop29
280
     1
102
RTVSPost2010PropOp29
 70
     1
102
RTVSPost2010Prop30
280
     0
102
RTVSPost2010PropOp30
 70
     1
102
RTVSPost2010Prop31
280
     0
102
RTVSPost2010PropOp31
 70
     1
102
RTVSPost2010Prop32
280
     0
102
RTVSPost2010PropOp32
 70
     1
102
RTVSPost2010Prop33
280
     0
102
RTVSPost2010PropOp33
 70
     1
102
RTVSPost2010Prop34
280
     0
102
RTVSPost2010PropOp34
 70
     1
102
RTVSPost2010Prop35
280
     0
102
RTVSPost2010PropOp35
 70
     1
102
RTVSPost2010Prop36
280
     0
102
RTVSPost2010PropOp36
 70
     1
102
RTVSPost2010Prop37
 90
       50
102
RTVSPost2010PropOp37
 70
     1
102
RTVSPost2010Prop38
140
0.0
102
RTVSPost2010PropOp38
 70
     1
102
RTVSPost2010Prop39
140
1.0
102
RTVSPost2010PropOp39
 70
     1
102
RTVSPost2010Prop40
 90
        0
102
RTVSPost2010PropOp40
 70
     1
102
RTVSPost2010Prop41ColorIndex
 90
       18
102
RTVSPost2010Prop41ColorRGB
 90
        0
102
RTVSPost2010PropOp41
 70
     1
102
RTVSPost2010Prop42
 90
       50
102
RTVSPost2010PropOp42
 70
     1
102
RTVSPost2010Prop43
 90
        3
102
RTVSPost2010PropOp43
 70
     1
102
RTVSPost2010Prop44ColorIndex
 90
        5
102
RTVSPost2010Prop44ColorRGB
 90
      255
102
RTVSPost2010PropOp44
 70
     1
102
RTVSPost2010Prop45
280
     0
102
RTVSPost2010PropOp45
 70
     1
102
RTVSPost2010Prop46
 90
       50
102
RTVSPost2010PropOp46
 70
     1
102
RTVSPost2010Prop47
 90
       50
102
RTVSPost2010PropOp47
 70
     1
102
RTVSPost2010Prop48
 90
       50
102
RTVSPost2010PropOp48
 70
     1
102
RTVSPost2010Prop49
280
     0
102
RTVSPost2010PropOp49
 70
     1
102
RTVSPost2010Prop50
 90
       50
102
RTVSPost2010PropOp50
 70
     1
102
RTVSPost2010Prop51ColorIndex
 90
      256
102
RTVSPost2010Prop51ColorRGB
 90
-16777216
102
RTVSPost2010PropOp51
 70
     0
102
RTVSPost2010Prop52
140
1.0
102
RTVSPost2010PropOp52
 70
     0
102
RTVSPost2010Prop53
 90
        2
102
RTVSPost2010PropOp53
 70
     1
102
RTVSPost2010Prop54
  1
strokes_ogs.tif
102
RTVSPost2010PropOp54
 70
     1
102
RTVSPost2010Prop55
280
     0
102
RTVSPost2010PropOp55
 70
     1
102
RTVSPost2010Prop56
140
1.0
102
RTVSPost2010PropOp56
 70
     1
102
RTVSPost2010Prop57
140
1.0
102
RTVSPost2010PropOp57
 70
     1
  0
XRECORD
  5
539
102
{ACAD_REACTORS
330
538
102
}
330
538
100
AcDbXrecord
280
     1
102
RTVSPropertyOp0
 70
     1
102
RTVSPropertyOp1
 70
     1
102
RTVSPropertyOp2
 70
     1
102
RTVSPropertyOp3
 70
     1
102
RTVSPropertyOp4
 70
     1
102
RTVSPropertyOp5
 70
     1
102
RTVSPropertyOp6
 70
     1
102
RTVSPropertyOp7
 70
     1
102
RTVSPropertyOp8
 70
     1
102
RTVSPropertyOp9
 70
     1
102
RTVSPropertyOp10
 70
     1
102
RTVSPropertyOp11
 70
     1
102
RTVSPropertyOp12
 70
     1
102
RTVSPropertyOp13
 70
     1
102
RTVSPropertyOp14
 70
     1
102
RTVSPropertyOp15
 70
     1
102
RTVSPropertyOp16
 70
     1
102
RTVSPropertyOp17
 70
     1
102
RTVSPropertyOp18
 70
     1
102
RTVSPropertyOp19
 70
     1
102
RTVSPropertyOp20
 70
     1
102
RTVSPropertyOp21
 70
     1
102
RTVSPropertyOp22
 70
     1
102
RTVSPropertyOp23
 70
     1
102
RTVSPropertyOp24
 70
     1
102
RTVSPropertyOp25
 70
     1
102
RTVSPropertyOp26
 70
     1
102
RTVSPropertyOp27
 70
     1
102
RTVSPropertyOp28
 70
     1
102
RTVSPropertyOp29
 70
     1
102
RTVSPropertyOp30
 70
     1
102
RTVSPropertyOp31
 70
     1
102
RTVSPropertyOp32
 70
     1
102
RTVSPropertyOp33
 70
     1
102
RTVSPropertyOp34
 70
     1
102
RTVSPropertyOp35
 70
     1
102
RTVSPropertyOp36
 70
     1
102
RTVSPropertyOp37
 70
     1
102
RTVSPropertyOp38
 70
     1
102
RTVSPropertyOp39
 70
     1
102
RTVSPropertyOp40
 70
     1
102
RTVSPropertyOp41
 70
     1
102
RTVSPropertyOp42
 70
     1
102
RTVSPropertyOp43
 70
     1
102
RTVSPropertyOp44
 70
     1
102
RTVSPropertyOp45
 70
     1
102
RTVSPropertyOp46
 70
     1
102
RTVSPropertyOp47
 70
     1
102
RTVSPropertyOp48
 70
     1
102
RTVSPropertyOp49
 70
     1
102
RTVSPropertyOp50
 70
     1
102
RTVSPropertyOp51
 70
     0
102
RTVSPropertyOp52
 70
     0
102
RTVSPropertyOp53
 70
     1
102
RTVSPropertyOp54
 70
     1
102
RTVSPropertyOp55
 70
     1
102
RTVSPropertyOp56
 70
     1
102
RTVSPropertyOp57
 70
     1
102
RTVSPost2010Prop28
280
     0
102
RTVSPost2010PropOp28
 70
     1
102
RTVSPost2010Prop29
280
     1
102
RTVSPost2010PropOp29
 70
     1
102
RTVSPost2010Prop30
280
     1
102
RTVSPost2010PropOp30
 70
     1
102
RTVSPost2010Prop31
280
     0
102
RTVSPost2010PropOp31
 70
     1
102
RTVSPost2010Prop32
280
     0
102
RTVSPost2010PropOp32
 70
     1
102
RTVSPost2010Prop33
280
     0
102
RTVSPost2010PropOp33
 70
     1
102
RTVSPost2010Prop34
280
     0
102
RTVSPost2010PropOp34
 70
     1
102
RTVSPost2010Prop35
280
     0
102
RTVSPost2010PropOp35
 70
     1
102
RTVSPost2010Prop36
280
     0
102
RTVSPost2010PropOp36
 70
     1
102
RTVSPost2010Prop37
 90
       50
102
RTVSPost2010PropOp37
 70
     1
102
RTVSPost2010Prop38
140
0.0
102
RTVSPost2010PropOp38
 70
     1
102
RTVSPost2010Prop39
140
1.0
102
RTVSPost2010PropOp39
 70
     1
102
RTVSPost2010Prop40
 90
        0
102
RTVSPost2010PropOp40
 70
     1
102
RTVSPost2010Prop41ColorIndex
 90
       18
102
RTVSPost2010Prop41ColorRGB
 90
        0
102
RTVSPost2010PropOp41
 70
     1
102
RTVSPost2010Prop42
 90
       50
102
RTVSPost2010PropOp42
 70
     1
102
RTVSPost2010Prop43
 90
        3
102
RTVSPost2010PropOp43
 70
     1
102
RTVSPost2010Prop44ColorIndex
 90
        5
102
RTVSPost2010Prop44ColorRGB
 90
      255
102
RTVSPost2010PropOp44
 70
     1
102
RTVSPost2010Prop45
280
     0
102
RTVSPost2010PropOp45
 70
     1
102
RTVSPost2010Prop46
 90
       50
102
RTVSPost2010PropOp46
 70
     1
102
RTVSPost2010Prop47
 90
       50
102
RTVSPost2010PropOp47
 70
     1
102
RTVSPost2010Prop48
 90
       50
102
RTVSPost2010PropOp48
 70
     1
102
RTVSPost2010Prop49
280
     0
102
RTVSPost2010PropOp49
 70
     1
102
RTVSPost2010Prop50
 90
       50
102
RTVSPost2010PropOp50
 70
     1
102
RTVSPost2010Prop51ColorIndex
 90
      256
102
RTVSPost2010Prop51ColorRGB
 90
-16777216
102
RTVSPost2010PropOp51
 70
     0
102
RTVSPost2010Prop52
140
1.0
102
RTVSPost2010PropOp52
 70
     0
102
RTVSPost2010Prop53
 90
        2
102
RTVSPost2010PropOp53
 70
     1
102
RTVSPost2010Prop54
  1
strokes_ogs.tif
102
RTVSPost2010PropOp54
 70
     1
102
RTVSPost2010Prop55
280
     0
102
RTVSPost2010PropOp55
 70
     1
102
RTVSPost2010Prop56
140
1.0
102
RTVSPost2010PropOp56
 70
     1
102
RTVSPost2010Prop57
140
1.0
102
RTVSPost2010PropOp57
 70
     1
  0
XRECORD
  5
53B
102
{ACAD_REACTORS
330
53A
102
}
330
53A
100
AcDbXrecord
280
     1
102
RTVSPropertyOp0
 70
     1
102
RTVSPropertyOp1
 70
     1
102
RTVSPropertyOp2
 70
     1
102
RTVSPropertyOp3
 70
     1
102
RTVSPropertyOp4
 70
     1
102
RTVSPropertyOp5
 70
     1
102
RTVSPropertyOp6
 70
     1
102
RTVSPropertyOp7
 70
     1
102
RTVSPropertyOp8
 70
     1
102
RTVSPropertyOp9
 70
     1
102
RTVSPropertyOp10
 70
     1
102
RTVSPropertyOp11
 70
     1
102
RTVSPropertyOp12
 70
     1
102
RTVSPropertyOp13
 70
     1
102
RTVSPropertyOp14
 70
     1
102
RTVSPropertyOp15
 70
     1
102
RTVSPropertyOp16
 70
     1
102
RTVSPropertyOp17
 70
     1
102
RTVSPropertyOp18
 70
     1
102
RTVSPropertyOp19
 70
     1
102
RTVSPropertyOp20
 70
     1
102
RTVSPropertyOp21
 70
     1
102
RTVSPropertyOp22
 70
     1
102
RTVSPropertyOp23
 70
     1
102
RTVSPropertyOp24
 70
     1
102
RTVSPropertyOp25
 70
     1
102
RTVSPropertyOp26
 70
     1
102
RTVSPropertyOp27
 70
     1
102
RTVSPropertyOp28
 70
     1
102
RTVSPropertyOp29
 70
     1
102
RTVSPropertyOp30
 70
     1
102
RTVSPropertyOp31
 70
     1
102
RTVSPropertyOp32
 70
     1
102
RTVSPropertyOp33
 70
     1
102
RTVSPropertyOp34
 70
     1
102
RTVSPropertyOp35
 70
     1
102
RTVSPropertyOp36
 70
     1
102
RTVSPropertyOp37
 70
     1
102
RTVSPropertyOp38
 70
     1
102
RTVSPropertyOp39
 70
     1
102
RTVSPropertyOp40
 70
     1
102
RTVSPropertyOp41
 70
     1
102
RTVSPropertyOp42
 70
     1
102
RTVSPropertyOp43
 70
     1
102
RTVSPropertyOp44
 70
     1
102
RTVSPropertyOp45
 70
     1
102
RTVSPropertyOp46
 70
     1
102
RTVSPropertyOp47
 70
     1
102
RTVSPropertyOp48
 70
     1
102
RTVSPropertyOp49
 70
     1
102
RTVSPropertyOp50
 70
     1
102
RTVSPropertyOp51
 70
     0
102
RTVSPropertyOp52
 70
     0
102
RTVSPropertyOp53
 70
     1
102
RTVSPropertyOp54
 70
     1
102
RTVSPropertyOp55
 70
     1
102
RTVSPropertyOp56
 70
     1
102
RTVSPropertyOp57
 70
     1
102
RTVSPost2010Prop28
280
     0
102
RTVSPost2010PropOp28
 70
     1
102
RTVSPost2010Prop29
280
     1
102
RTVSPost2010PropOp29
 70
     1
102
RTVSPost2010Prop30
280
     1
102
RTVSPost2010PropOp30
 70
     1
102
RTVSPost2010Prop31
280
     0
102
RTVSPost2010PropOp31
 70
     1
102
RTVSPost2010Prop32
280
     0
102
RTVSPost2010PropOp32
 70
     1
102
RTVSPost2010Prop33
280
     0
102
RTVSPost2010PropOp33
 70
     1
102
RTVSPost2010Prop34
280
     0
102
RTVSPost2010PropOp34
 70
     1
102
RTVSPost2010Prop35
280
     0
102
RTVSPost2010PropOp35
 70
     1
102
RTVSPost2010Prop36
280
     0
102
RTVSPost2010PropOp36
 70
     1
102
RTVSPost2010Prop37
 90
       50
102
RTVSPost2010PropOp37
 70
     1
102
RTVSPost2010Prop38
140
0.0
102
RTVSPost2010PropOp38
 70
     1
102
RTVSPost2010Prop39
140
1.0
102
RTVSPost2010PropOp39
 70
     1
102
RTVSPost2010Prop40
 90
        0
102
RTVSPost2010PropOp40
 70
     1
102
RTVSPost2010Prop41ColorIndex
 90
       18
102
RTVSPost2010Prop41ColorRGB
 90
        0
102
RTVSPost2010PropOp41
 70
     1
102
RTVSPost2010Prop42
 90
       50
102
RTVSPost2010PropOp42
 70
     1
102
RTVSPost2010Prop43
 90
        3
102
RTVSPost2010PropOp43
 70
     1
102
RTVSPost2010Prop44ColorIndex
 90
        5
102
RTVSPost2010Prop44ColorRGB
 90
      255
102
RTVSPost2010PropOp44
 70
     1
102
RTVSPost2010Prop45
280
     0
102
RTVSPost2010PropOp45
 70
     1
102
RTVSPost2010Prop46
 90
       50
102
RTVSPost2010PropOp46
 70
     1
102
RTVSPost2010Prop47
 90
       50
102
RTVSPost2010PropOp47
 70
     1
102
RTVSPost2010Prop48
 90
       50
102
RTVSPost2010PropOp48
 70
     1
102
RTVSPost2010Prop49
280
     0
102
RTVSPost2010PropOp49
 70
     1
102
RTVSPost2010Prop50
 90
       50
102
RTVSPost2010PropOp50
 70
     1
102
RTVSPost2010Prop51ColorIndex
 90
      256
102
RTVSPost2010Prop51ColorRGB
 90
-16777216
102
RTVSPost2010PropOp51
 70
     0
102
RTVSPost2010Prop52
140
1.0
102
RTVSPost2010PropOp52
 70
     0
102
RTVSPost2010Prop53
 90
        2
102
RTVSPost2010PropOp53
 70
     1
102
RTVSPost2010Prop54
  1
strokes_ogs.tif
102
RTVSPost2010PropOp54
 70
     1
102
RTVSPost2010Prop55
280
     0
102
RTVSPost2010PropOp55
 70
     1
102
RTVSPost2010Prop56
140
1.0
102
RTVSPost2010PropOp56
 70
     1
102
RTVSPost2010Prop57
140
1.0
102
RTVSPost2010PropOp57
 70
     1
  0
XRECORD
  5
53D
102
{ACAD_REACTORS
330
53C
102
}
330
53C
100
AcDbXrecord
280
     1
102
RTVSPropertyOp0
 70
     1
102
RTVSPropertyOp1
 70
     1
102
RTVSPropertyOp2
 70
     1
102
RTVSPropertyOp3
 70
     1
102
RTVSPropertyOp4
 70
     1
102
RTVSPropertyOp5
 70
     1
102
RTVSPropertyOp6
 70
     1
102
RTVSPropertyOp7
 70
     1
102
RTVSPropertyOp8
 70
     1
102
RTVSPropertyOp9
 70
     1
102
RTVSPropertyOp10
 70
     1
102
RTVSPropertyOp11
 70
     1
102
RTVSPropertyOp12
 70
     1
102
RTVSPropertyOp13
 70
     1
102
RTVSPropertyOp14
 70
     1
102
RTVSPropertyOp15
 70
     1
102
RTVSPropertyOp16
 70
     1
102
RTVSPropertyOp17
 70
     1
102
RTVSPropertyOp18
 70
     1
102
RTVSPropertyOp19
 70
     1
102
RTVSPropertyOp20
 70
     1
102
RTVSPropertyOp21
 70
     1
102
RTVSPropertyOp22
 70
     1
102
RTVSPropertyOp23
 70
     1
102
RTVSPropertyOp24
 70
     1
102
RTVSPropertyOp25
 70
     1
102
RTVSPropertyOp26
 70
     1
102
RTVSPropertyOp27
 70
     1
102
RTVSPropertyOp28
 70
     1
102
RTVSPropertyOp29
 70
     1
102
RTVSPropertyOp30
 70
     1
102
RTVSPropertyOp31
 70
     1
102
RTVSPropertyOp32
 70
     1
102
RTVSPropertyOp33
 70
     1
102
RTVSPropertyOp34
 70
     1
102
RTVSPropertyOp35
 70
     1
102
RTVSPropertyOp36
 70
     1
102
RTVSPropertyOp37
 70
     1
102
RTVSPropertyOp38
 70
     1
102
RTVSPropertyOp39
 70
     1
102
RTVSPropertyOp40
 70
     1
102
RTVSPropertyOp41
 70
     1
102
RTVSPropertyOp42
 70
     1
102
RTVSPropertyOp43
 70
     1
102
RTVSPropertyOp44
 70
     1
102
RTVSPropertyOp45
 70
     1
102
RTVSPropertyOp46
 70
     1
102
RTVSPropertyOp47
 70
     1
102
RTVSPropertyOp48
 70
     1
102
RTVSPropertyOp49
 70
     1
102
RTVSPropertyOp50
 70
     1
102
RTVSPropertyOp51
 70
     0
102
RTVSPropertyOp52
 70
     0
102
RTVSPropertyOp53
 70
     1
102
RTVSPropertyOp54
 70
     1
102
RTVSPropertyOp55
 70
     1
102
RTVSPropertyOp56
 70
     1
102
RTVSPropertyOp57
 70
     1
102
RTVSPost2010Prop28
280
     0
102
RTVSPost2010PropOp28
 70
     1
102
RTVSPost2010Prop29
280
     1
102
RTVSPost2010PropOp29
 70
     1
102
RTVSPost2010Prop30
280
     1
102
RTVSPost2010PropOp30
 70
     1
102
RTVSPost2010Prop31
280
     0
102
RTVSPost2010PropOp31
 70
     1
102
RTVSPost2010Prop32
280
     0
102
RTVSPost2010PropOp32
 70
     1
102
RTVSPost2010Prop33
280
     0
102
RTVSPost2010PropOp33
 70
     1
102
RTVSPost2010Prop34
280
     0
102
RTVSPost2010PropOp34
 70
     1
102
RTVSPost2010Prop35
280
     0
102
RTVSPost2010PropOp35
 70
     1
102
RTVSPost2010Prop36
280
     0
102
RTVSPost2010PropOp36
 70
     1
102
RTVSPost2010Prop37
 90
       50
102
RTVSPost2010PropOp37
 70
     1
102
RTVSPost2010Prop38
140
0.0
102
RTVSPost2010PropOp38
 70
     1
102
RTVSPost2010Prop39
140
1.0
102
RTVSPost2010PropOp39
 70
     1
102
RTVSPost2010Prop40
 90
        0
102
RTVSPost2010PropOp40
 70
     1
102
RTVSPost2010Prop41ColorIndex
 90
       18
102
RTVSPost2010Prop41ColorRGB
 90
        0
102
RTVSPost2010PropOp41
 70
     1
102
RTVSPost2010Prop42
 90
       50
102
RTVSPost2010PropOp42
 70
     1
102
RTVSPost2010Prop43
 90
        3
102
RTVSPost2010PropOp43
 70
     1
102
RTVSPost2010Prop44ColorIndex
 90
        5
102
RTVSPost2010Prop44ColorRGB
 90
      255
102
RTVSPost2010PropOp44
 70
     1
102
RTVSPost2010Prop45
280
     0
102
RTVSPost2010PropOp45
 70
     1
102
RTVSPost2010Prop46
 90
       50
102
RTVSPost2010PropOp46
 70
     1
102
RTVSPost2010Prop47
 90
       50
102
RTVSPost2010PropOp47
 70
     1
102
RTVSPost2010Prop48
 90
       50
102
RTVSPost2010PropOp48
 70
     1
102
RTVSPost2010Prop49
280
     0
102
RTVSPost2010PropOp49
 70
     1
102
RTVSPost2010Prop50
 90
       50
102
RTVSPost2010PropOp50
 70
     1
102
RTVSPost2010Prop51ColorIndex
 90
      256
102
RTVSPost2010Prop51ColorRGB
 90
-16777216
102
RTVSPost2010PropOp51
 70
     0
102
RTVSPost2010Prop52
140
1.0
102
RTVSPost2010PropOp52
 70
     0
102
RTVSPost2010Prop53
 90
        2
102
RTVSPost2010PropOp53
 70
     1
102
RTVSPost2010Prop54
  1
strokes_ogs.tif
102
RTVSPost2010PropOp54
 70
     1
102
RTVSPost2010Prop55
280
     0
102
RTVSPost2010PropOp55
 70
     1
102
RTVSPost2010Prop56
140
1.0
102
RTVSPost2010PropOp56
 70
     1
102
RTVSPost2010Prop57
140
1.0
102
RTVSPost2010PropOp57
 70
     1
  0
XRECORD
  5
53F
102
{ACAD_REACTORS
330
53E
102
}
330
53E
100
AcDbXrecord
280
     1
102
RTVSPropertyOp0
 70
     1
102
RTVSPropertyOp1
 70
     1
102
RTVSPropertyOp2
 70
     1
102
RTVSPropertyOp3
 70
     1
102
RTVSPropertyOp4
 70
     1
102
RTVSPropertyOp5
 70
     1
102
RTVSPropertyOp6
 70
     1
102
RTVSPropertyOp7
 70
     1
102
RTVSPropertyOp8
 70
     1
102
RTVSPropertyOp9
 70
     1
102
RTVSPropertyOp10
 70
     1
102
RTVSPropertyOp11
 70
     1
102
RTVSPropertyOp12
 70
     1
102
RTVSPropertyOp13
 70
     1
102
RTVSPropertyOp14
 70
     1
102
RTVSPropertyOp15
 70
     1
102
RTVSPropertyOp16
 70
     1
102
RTVSPropertyOp17
 70
     1
102
RTVSPropertyOp18
 70
     1
102
RTVSPropertyOp19
 70
     1
102
RTVSPropertyOp20
 70
     1
102
RTVSPropertyOp21
 70
     1
102
RTVSPropertyOp22
 70
     1
102
RTVSPropertyOp23
 70
     1
102
RTVSPropertyOp24
 70
     1
102
RTVSPropertyOp25
 70
     1
102
RTVSPropertyOp26
 70
     1
102
RTVSPropertyOp27
 70
     1
102
RTVSPropertyOp28
 70
     1
102
RTVSPropertyOp29
 70
     1
102
RTVSPropertyOp30
 70
     1
102
RTVSPropertyOp31
 70
     1
102
RTVSPropertyOp32
 70
     1
102
RTVSPropertyOp33
 70
     1
102
RTVSPropertyOp34
 70
     1
102
RTVSPropertyOp35
 70
     1
102
RTVSPropertyOp36
 70
     1
102
RTVSPropertyOp37
 70
     1
102
RTVSPropertyOp38
 70
     1
102
RTVSPropertyOp39
 70
     1
102
RTVSPropertyOp40
 70
     1
102
RTVSPropertyOp41
 70
     1
102
RTVSPropertyOp42
 70
     1
102
RTVSPropertyOp43
 70
     1
102
RTVSPropertyOp44
 70
     1
102
RTVSPropertyOp45
 70
     1
102
RTVSPropertyOp46
 70
     1
102
RTVSPropertyOp47
 70
     1
102
RTVSPropertyOp48
 70
     1
102
RTVSPropertyOp49
 70
     1
102
RTVSPropertyOp50
 70
     1
102
RTVSPropertyOp51
 70
     0
102
RTVSPropertyOp52
 70
     0
102
RTVSPropertyOp53
 70
     1
102
RTVSPropertyOp54
 70
     1
102
RTVSPropertyOp55
 70
     1
102
RTVSPropertyOp56
 70
     1
102
RTVSPropertyOp57
 70
     1
102
RTVSPost2010Prop28
280
     0
102
RTVSPost2010PropOp28
 70
     1
102
RTVSPost2010Prop29
280
     1
102
RTVSPost2010PropOp29
 70
     1
102
RTVSPost2010Prop30
280
     1
102
RTVSPost2010PropOp30
 70
     1
102
RTVSPost2010Prop31
280
     0
102
RTVSPost2010PropOp31
 70
     1
102
RTVSPost2010Prop32
280
     0
102
RTVSPost2010PropOp32
 70
     1
102
RTVSPost2010Prop33
280
     0
102
RTVSPost2010PropOp33
 70
     1
102
RTVSPost2010Prop34
280
     0
102
RTVSPost2010PropOp34
 70
     1
102
RTVSPost2010Prop35
280
     0
102
RTVSPost2010PropOp35
 70
     1
102
RTVSPost2010Prop36
280
     0
102
RTVSPost2010PropOp36
 70
     1
102
RTVSPost2010Prop37
 90
       50
102
RTVSPost2010PropOp37
 70
     1
102
RTVSPost2010Prop38
140
0.0
102
RTVSPost2010PropOp38
 70
     1
102
RTVSPost2010Prop39
140
1.0
102
RTVSPost2010PropOp39
 70
     1
102
RTVSPost2010Prop40
 90
        0
102
RTVSPost2010PropOp40
 70
     1
102
RTVSPost2010Prop41ColorIndex
 90
       18
102
RTVSPost2010Prop41ColorRGB
 90
        0
102
RTVSPost2010PropOp41
 70
     1
102
RTVSPost2010Prop42
 90
       50
102
RTVSPost2010PropOp42
 70
     1
102
RTVSPost2010Prop43
 90
        3
102
RTVSPost2010PropOp43
 70
     1
102
RTVSPost2010Prop44ColorIndex
 90
        5
102
RTVSPost2010Prop44ColorRGB
 90
      255
102
RTVSPost2010PropOp44
 70
     1
102
RTVSPost2010Prop45
280
     0
102
RTVSPost2010PropOp45
 70
     1
102
RTVSPost2010Prop46
 90
       50
102
RTVSPost2010PropOp46
 70
     1
102
RTVSPost2010Prop47
 90
       50
102
RTVSPost2010PropOp47
 70
     1
102
RTVSPost2010Prop48
 90
       50
102
RTVSPost2010PropOp48
 70
     1
102
RTVSPost2010Prop49
280
     0
102
RTVSPost2010PropOp49
 70
     1
102
RTVSPost2010Prop50
 90
       50
102
RTVSPost2010PropOp50
 70
     1
102
RTVSPost2010Prop51ColorIndex
 90
      256
102
RTVSPost2010Prop51ColorRGB
 90
-16777216
102
RTVSPost2010PropOp51
 70
     0
102
RTVSPost2010Prop52
140
1.0
102
RTVSPost2010PropOp52
 70
     0
102
RTVSPost2010Prop53
 90
        2
102
RTVSPost2010PropOp53
 70
     1
102
RTVSPost2010Prop54
  1
strokes_ogs.tif
102
RTVSPost2010PropOp54
 70
     1
102
RTVSPost2010Prop55
280
     0
102
RTVSPost2010PropOp55
 70
     1
102
RTVSPost2010Prop56
140
1.0
102
RTVSPost2010PropOp56
 70
     1
102
RTVSPost2010Prop57
140
1.0
102
RTVSPost2010PropOp57
 70
     1
  0
XRECORD
  5
541
102
{ACAD_REACTORS
330
540
102
}
330
540
100
AcDbXrecord
280
     1
102
RTVSPropertyOp0
 70
     1
102
RTVSPropertyOp1
 70
     1
102
RTVSPropertyOp2
 70
     1
102
RTVSPropertyOp3
 70
     1
102
RTVSPropertyOp4
 70
     1
102
RTVSPropertyOp5
 70
     1
102
RTVSPropertyOp6
 70
     1
102
RTVSPropertyOp7
 70
     1
102
RTVSPropertyOp8
 70
     1
102
RTVSPropertyOp9
 70
     1
102
RTVSPropertyOp10
 70
     1
102
RTVSPropertyOp11
 70
     1
102
RTVSPropertyOp12
 70
     1
102
RTVSPropertyOp13
 70
     1
102
RTVSPropertyOp14
 70
     1
102
RTVSPropertyOp15
 70
     1
102
RTVSPropertyOp16
 70
     1
102
RTVSPropertyOp17
 70
     1
102
RTVSPropertyOp18
 70
     1
102
RTVSPropertyOp19
 70
     1
102
RTVSPropertyOp20
 70
     1
102
RTVSPropertyOp21
 70
     1
102
RTVSPropertyOp22
 70
     1
102
RTVSPropertyOp23
 70
     1
102
RTVSPropertyOp24
 70
     1
102
RTVSPropertyOp25
 70
     1
102
RTVSPropertyOp26
 70
     1
102
RTVSPropertyOp27
 70
     1
102
RTVSPropertyOp28
 70
     1
102
RTVSPropertyOp29
 70
     1
102
RTVSPropertyOp30
 70
     1
102
RTVSPropertyOp31
 70
     1
102
RTVSPropertyOp32
 70
     1
102
RTVSPropertyOp33
 70
     1
102
RTVSPropertyOp34
 70
     1
102
RTVSPropertyOp35
 70
     1
102
RTVSPropertyOp36
 70
     1
102
RTVSPropertyOp37
 70
     1
102
RTVSPropertyOp38
 70
     1
102
RTVSPropertyOp39
 70
     1
102
RTVSPropertyOp40
 70
     1
102
RTVSPropertyOp41
 70
     1
102
RTVSPropertyOp42
 70
     1
102
RTVSPropertyOp43
 70
     1
102
RTVSPropertyOp44
 70
     1
102
RTVSPropertyOp45
 70
     1
102
RTVSPropertyOp46
 70
     1
102
RTVSPropertyOp47
 70
     1
102
RTVSPropertyOp48
 70
     1
102
RTVSPropertyOp49
 70
     1
102
RTVSPropertyOp50
 70
     1
102
RTVSPropertyOp51
 70
     0
102
RTVSPropertyOp52
 70
     0
102
RTVSPropertyOp53
 70
     1
102
RTVSPropertyOp54
 70
     1
102
RTVSPropertyOp55
 70
     1
102
RTVSPropertyOp56
 70
     1
102
RTVSPropertyOp57
 70
     1
102
RTVSPost2010Prop28
280
     0
102
RTVSPost2010PropOp28
 70
     1
102
RTVSPost2010Prop29
280
     1
102
RTVSPost2010PropOp29
 70
     1
102
RTVSPost2010Prop30
280
     1
102
RTVSPost2010PropOp30
 70
     1
102
RTVSPost2010Prop31
280
     0
102
RTVSPost2010PropOp31
 70
     1
102
RTVSPost2010Prop32
280
     0
102
RTVSPost2010PropOp32
 70
     1
102
RTVSPost2010Prop33
280
     0
102
RTVSPost2010PropOp33
 70
     1
102
RTVSPost2010Prop34
280
     0
102
RTVSPost2010PropOp34
 70
     1
102
RTVSPost2010Prop35
280
     0
102
RTVSPost2010PropOp35
 70
     1
102
RTVSPost2010Prop36
280
     0
102
RTVSPost2010PropOp36
 70
     1
102
RTVSPost2010Prop37
 90
       50
102
RTVSPost2010PropOp37
 70
     1
102
RTVSPost2010Prop38
140
0.0
102
RTVSPost2010PropOp38
 70
     1
102
RTVSPost2010Prop39
140
1.0
102
RTVSPost2010PropOp39
 70
     1
102
RTVSPost2010Prop40
 90
        0
102
RTVSPost2010PropOp40
 70
     1
102
RTVSPost2010Prop41ColorIndex
 90
       18
102
RTVSPost2010Prop41ColorRGB
 90
        0
102
RTVSPost2010PropOp41
 70
     1
102
RTVSPost2010Prop42
 90
       50
102
RTVSPost2010PropOp42
 70
     1
102
RTVSPost2010Prop43
 90
        3
102
RTVSPost2010PropOp43
 70
     1
102
RTVSPost2010Prop44ColorIndex
 90
        5
102
RTVSPost2010Prop44ColorRGB
 90
      255
102
RTVSPost2010PropOp44
 70
     1
102
RTVSPost2010Prop45
280
     0
102
RTVSPost2010PropOp45
 70
     1
102
RTVSPost2010Prop46
 90
       50
102
RTVSPost2010PropOp46
 70
     1
102
RTVSPost2010Prop47
 90
       50
102
RTVSPost2010PropOp47
 70
     1
102
RTVSPost2010Prop48
 90
       50
102
RTVSPost2010PropOp48
 70
     1
102
RTVSPost2010Prop49
280
     0
102
RTVSPost2010PropOp49
 70
     1
102
RTVSPost2010Prop50
 90
       50
102
RTVSPost2010PropOp50
 70
     1
102
RTVSPost2010Prop51ColorIndex
 90
      256
102
RTVSPost2010Prop51ColorRGB
 90
-16777216
102
RTVSPost2010PropOp51
 70
     0
102
RTVSPost2010Prop52
140
1.0
102
RTVSPost2010PropOp52
 70
     0
102
RTVSPost2010Prop53
 90
        2
102
RTVSPost2010PropOp53
 70
     1
102
RTVSPost2010Prop54
  1
strokes_ogs.tif
102
RTVSPost2010PropOp54
 70
     1
102
RTVSPost2010Prop55
280
     0
102
RTVSPost2010PropOp55
 70
     1
102
RTVSPost2010Prop56
140
1.0
102
RTVSPost2010PropOp56
 70
     1
102
RTVSPost2010Prop57
140
1.0
102
RTVSPost2010PropOp57
 70
     1
  0
XRECORD
  5
543
102
{ACAD_REACTORS
330
542
102
}
330
542
100
AcDbXrecord
280
     1
102
RTVSPropertyOp0
 70
     0
102
RTVSPropertyOp1
 70
     0
102
RTVSPropertyOp2
 70
     0
102
RTVSPropertyOp3
 70
     0
102
RTVSPropertyOp4
 70
     0
102
RTVSPropertyOp5
 70
     0
102
RTVSPropertyOp6
 70
     0
102
RTVSPropertyOp7
 70
     0
102
RTVSPropertyOp8
 70
     0
102
RTVSPropertyOp9
 70
     0
102
RTVSPropertyOp10
 70
     0
102
RTVSPropertyOp11
 70
     0
102
RTVSPropertyOp12
 70
     0
102
RTVSPropertyOp13
 70
     0
102
RTVSPropertyOp14
 70
     2
102
RTVSPropertyOp15
 70
     0
102
RTVSPropertyOp16
 70
     0
102
RTVSPropertyOp17
 70
     0
102
RTVSPropertyOp18
 70
     0
102
RTVSPropertyOp19
 70
     0
102
RTVSPropertyOp20
 70
     0
102
RTVSPropertyOp21
 70
     0
102
RTVSPropertyOp22
 70
     0
102
RTVSPropertyOp23
 70
     0
102
RTVSPropertyOp24
 70
     0
102
RTVSPropertyOp25
 70
     0
102
RTVSPropertyOp26
 70
     0
102
RTVSPropertyOp27
 70
     0
102
RTVSPropertyOp28
 70
     0
102
RTVSPropertyOp29
 70
     0
102
RTVSPropertyOp30
 70
     0
102
RTVSPropertyOp31
 70
     0
102
RTVSPropertyOp32
 70
     0
102
RTVSPropertyOp33
 70
     0
102
RTVSPropertyOp34
 70
     0
102
RTVSPropertyOp35
 70
     0
102
RTVSPropertyOp36
 70
     0
102
RTVSPropertyOp37
 70
     0
102
RTVSPropertyOp38
 70
     0
102
RTVSPropertyOp39
 70
     0
102
RTVSPropertyOp40
 70
     0
102
RTVSPropertyOp41
 70
     0
102
RTVSPropertyOp42
 70
     0
102
RTVSPropertyOp43
 70
     0
102
RTVSPropertyOp44
 70
     0
102
RTVSPropertyOp45
 70
     0
102
RTVSPropertyOp46
 70
     0
102
RTVSPropertyOp47
 70
     0
102
RTVSPropertyOp48
 70
     0
102
RTVSPropertyOp49
 70
     0
102
RTVSPropertyOp50
 70
     0
102
RTVSPropertyOp51
 70
     0
102
RTVSPropertyOp52
 70
     0
102
RTVSPropertyOp53
 70
     0
102
RTVSPropertyOp54
 70
     0
102
RTVSPropertyOp55
 70
     0
102
RTVSPropertyOp56
 70
     0
102
RTVSPropertyOp57
 70
     0
102
RTVSPost2010Prop28
280
     0
102
RTVSPost2010PropOp28
 70
     0
102
RTVSPost2010Prop29
280
     1
102
RTVSPost2010PropOp29
 70
     0
102
RTVSPost2010Prop30
280
     1
102
RTVSPost2010PropOp30
 70
     0
102
RTVSPost2010Prop31
280
     0
102
RTVSPost2010PropOp31
 70
     0
102
RTVSPost2010Prop32
280
     0
102
RTVSPost2010PropOp32
 70
     0
102
RTVSPost2010Prop33
280
     0
102
RTVSPost2010PropOp33
 70
     0
102
RTVSPost2010Prop34
280
     0
102
RTVSPost2010PropOp34
 70
     0
102
RTVSPost2010Prop35
280
     0
102
RTVSPost2010PropOp35
 70
     0
102
RTVSPost2010Prop36
280
     0
102
RTVSPost2010PropOp36
 70
     0
102
RTVSPost2010Prop37
 90
       50
102
RTVSPost2010PropOp37
 70
     0
102
RTVSPost2010Prop38
140
0.0
102
RTVSPost2010PropOp38
 70
     0
102
RTVSPost2010Prop39
140
1.0
102
RTVSPost2010PropOp39
 70
     0
102
RTVSPost2010Prop40
 90
        0
102
RTVSPost2010PropOp40
 70
     0
102
RTVSPost2010Prop41ColorIndex
 90
       18
102
RTVSPost2010Prop41ColorRGB
 90
        0
102
RTVSPost2010PropOp41
 70
     0
102
RTVSPost2010Prop42
 90
       50
102
RTVSPost2010PropOp42
 70
     0
102
RTVSPost2010Prop43
 90
        3
102
RTVSPost2010PropOp43
 70
     0
102
RTVSPost2010Prop44ColorIndex
 90
        5
102
RTVSPost2010Prop44ColorRGB
 90
      255
102
RTVSPost2010PropOp44
 70
     0
102
RTVSPost2010Prop45
280
     0
102
RTVSPost2010PropOp45
 70
     0
102
RTVSPost2010Prop46
 90
       50
102
RTVSPost2010PropOp46
 70
     0
102
RTVSPost2010Prop47
 90
       50
102
RTVSPost2010PropOp47
 70
     0
102
RTVSPost2010Prop48
 90
       50
102
RTVSPost2010PropOp48
 70
     0
102
RTVSPost2010Prop49
280
     0
102
RTVSPost2010PropOp49
 70
     0
102
RTVSPost2010Prop50
 90
       50
102
RTVSPost2010PropOp50
 70
     0
102
RTVSPost2010Prop51ColorIndex
 90
      256
102
RTVSPost2010Prop51ColorRGB
 90
-16777216
102
RTVSPost2010PropOp51
 70
     0
102
RTVSPost2010Prop52
140
1.0
102
RTVSPost2010PropOp52
 70
     0
102
RTVSPost2010Prop53
 90
        2
102
RTVSPost2010PropOp53
 70
     0
102
RTVSPost2010Prop54
  1
strokes_ogs.tif
102
RTVSPost2010PropOp54
 70
     0
102
RTVSPost2010Prop55
280
     0
102
RTVSPost2010PropOp55
 70
     0
102
RTVSPost2010Prop56
140
1.0
102
RTVSPost2010PropOp56
 70
     0
102
RTVSPost2010Prop57
140
1.0
102
RTVSPost2010PropOp57
 70
     0
  0
XRECORD
  5
545
102
{ACAD_REACTORS
330
544
102
}
330
544
100
AcDbXrecord
280
     1
102
RTVSPropertyOp0
 70
     1
102
RTVSPropertyOp1
 70
     1
102
RTVSPropertyOp2
 70
     1
102
RTVSPropertyOp3
 70
     1
102
RTVSPropertyOp4
 70
     1
102
RTVSPropertyOp5
 70
     1
102
RTVSPropertyOp6
 70
     1
102
RTVSPropertyOp7
 70
     1
102
RTVSPropertyOp8
 70
     1
102
RTVSPropertyOp9
 70
     1
102
RTVSPropertyOp10
 70
     1
102
RTVSPropertyOp11
 70
     1
102
RTVSPropertyOp12
 70
     1
102
RTVSPropertyOp13
 70
     1
102
RTVSPropertyOp14
 70
     1
102
RTVSPropertyOp15
 70
     1
102
RTVSPropertyOp16
 70
     1
102
RTVSPropertyOp17
 70
     1
102
RTVSPropertyOp18
 70
     1
102
RTVSPropertyOp19
 70
     1
102
RTVSPropertyOp20
 70
     1
102
RTVSPropertyOp21
 70
     1
102
RTVSPropertyOp22
 70
     1
102
RTVSPropertyOp23
 70
     1
102
RTVSPropertyOp24
 70
     1
102
RTVSPropertyOp25
 70
     1
102
RTVSPropertyOp26
 70
     1
102
RTVSPropertyOp27
 70
     1
102
RTVSPropertyOp28
 70
     1
102
RTVSPropertyOp29
 70
     1
102
RTVSPropertyOp30
 70
     1
102
RTVSPropertyOp31
 70
     1
102
RTVSPropertyOp32
 70
     1
102
RTVSPropertyOp33
 70
     1
102
RTVSPropertyOp34
 70
     1
102
RTVSPropertyOp35
 70
     1
102
RTVSPropertyOp36
 70
     1
102
RTVSPropertyOp37
 70
     1
102
RTVSPropertyOp38
 70
     1
102
RTVSPropertyOp39
 70
     1
102
RTVSPropertyOp40
 70
     1
102
RTVSPropertyOp41
 70
     1
102
RTVSPropertyOp42
 70
     1
102
RTVSPropertyOp43
 70
     1
102
RTVSPropertyOp44
 70
     1
102
RTVSPropertyOp45
 70
     1
102
RTVSPropertyOp46
 70
     1
102
RTVSPropertyOp47
 70
     1
102
RTVSPropertyOp48
 70
     1
102
RTVSPropertyOp49
 70
     1
102
RTVSPropertyOp50
 70
     1
102
RTVSPropertyOp51
 70
     0
102
RTVSPropertyOp52
 70
     0
102
RTVSPropertyOp53
 70
     1
102
RTVSPropertyOp54
 70
     1
102
RTVSPropertyOp55
 70
     1
102
RTVSPropertyOp56
 70
     1
102
RTVSPropertyOp57
 70
     1
102
RTVSPost2010Prop28
280
     0
102
RTVSPost2010PropOp28
 70
     1
102
RTVSPost2010Prop29
280
     1
102
RTVSPost2010PropOp29
 70
     1
102
RTVSPost2010Prop30
280
     1
102
RTVSPost2010PropOp30
 70
     1
102
RTVSPost2010Prop31
280
     0
102
RTVSPost2010PropOp31
 70
     1
102
RTVSPost2010Prop32
280
     0
102
RTVSPost2010PropOp32
 70
     1
102
RTVSPost2010Prop33
280
     0
102
RTVSPost2010PropOp33
 70
     1
102
RTVSPost2010Prop34
280
     0
102
RTVSPost2010PropOp34
 70
     1
102
RTVSPost2010Prop35
280
     0
102
RTVSPost2010PropOp35
 70
     1
102
RTVSPost2010Prop36
280
     0
102
RTVSPost2010PropOp36
 70
     1
102
RTVSPost2010Prop37
 90
       50
102
RTVSPost2010PropOp37
 70
     1
102
RTVSPost2010Prop38
140
0.0
102
RTVSPost2010PropOp38
 70
     1
102
RTVSPost2010Prop39
140
1.0
102
RTVSPost2010PropOp39
 70
     1
102
RTVSPost2010Prop40
 90
        0
102
RTVSPost2010PropOp40
 70
     1
102
RTVSPost2010Prop41ColorIndex
 90
       18
102
RTVSPost2010Prop41ColorRGB
 90
        0
102
RTVSPost2010PropOp41
 70
     1
102
RTVSPost2010Prop42
 90
       50
102
RTVSPost2010PropOp42
 70
     1
102
RTVSPost2010Prop43
 90
        3
102
RTVSPost2010PropOp43
 70
     1
102
RTVSPost2010Prop44ColorIndex
 90
        5
102
RTVSPost2010Prop44ColorRGB
 90
      255
102
RTVSPost2010PropOp44
 70
     1
102
RTVSPost2010Prop45
280
     0
102
RTVSPost2010PropOp45
 70
     1
102
RTVSPost2010Prop46
 90
       50
102
RTVSPost2010PropOp46
 70
     1
102
RTVSPost2010Prop47
 90
       50
102
RTVSPost2010PropOp47
 70
     1
102
RTVSPost2010Prop48
 90
       50
102
RTVSPost2010PropOp48
 70
     1
102
RTVSPost2010Prop49
280
     0
102
RTVSPost2010PropOp49
 70
     1
102
RTVSPost2010Prop50
 90
       50
102
RTVSPost2010PropOp50
 70
     1
102
RTVSPost2010Prop51ColorIndex
 90
      256
102
RTVSPost2010Prop51ColorRGB
 90
-16777216
102
RTVSPost2010PropOp51
 70
     0
102
RTVSPost2010Prop52
140
1.0
102
RTVSPost2010PropOp52
 70
     0
102
RTVSPost2010Prop53
 90
        2
102
RTVSPost2010PropOp53
 70
     1
102
RTVSPost2010Prop54
  1
strokes_ogs.tif
102
RTVSPost2010PropOp54
 70
     1
102
RTVSPost2010Prop55
280
     0
102
RTVSPost2010PropOp55
 70
     1
102
RTVSPost2010Prop56
140
1.0
102
RTVSPost2010PropOp56
 70
     1
102
RTVSPost2010Prop57
140
1.0
102
RTVSPost2010PropOp57
 70
     1
  0
XRECORD
  5
547
102
{ACAD_REACTORS
330
546
102
}
330
546
100
AcDbXrecord
280
     1
102
RTVSPropertyOp0
 70
     1
102
RTVSPropertyOp1
 70
     1
102
RTVSPropertyOp2
 70
     1
102
RTVSPropertyOp3
 70
     1
102
RTVSPropertyOp4
 70
     1
102
RTVSPropertyOp5
 70
     1
102
RTVSPropertyOp6
 70
     1
102
RTVSPropertyOp7
 70
     1
102
RTVSPropertyOp8
 70
     1
102
RTVSPropertyOp9
 70
     1
102
RTVSPropertyOp10
 70
     1
102
RTVSPropertyOp11
 70
     1
102
RTVSPropertyOp12
 70
     1
102
RTVSPropertyOp13
 70
     1
102
RTVSPropertyOp14
 70
     1
102
RTVSPropertyOp15
 70
     1
102
RTVSPropertyOp16
 70
     1
102
RTVSPropertyOp17
 70
     1
102
RTVSPropertyOp18
 70
     1
102
RTVSPropertyOp19
 70
     1
102
RTVSPropertyOp20
 70
     1
102
RTVSPropertyOp21
 70
     1
102
RTVSPropertyOp22
 70
     1
102
RTVSPropertyOp23
 70
     1
102
RTVSPropertyOp24
 70
     1
102
RTVSPropertyOp25
 70
     1
102
RTVSPropertyOp26
 70
     1
102
RTVSPropertyOp27
 70
     1
102
RTVSPropertyOp28
 70
     1
102
RTVSPropertyOp29
 70
     1
102
RTVSPropertyOp30
 70
     1
102
RTVSPropertyOp31
 70
     1
102
RTVSPropertyOp32
 70
     1
102
RTVSPropertyOp33
 70
     1
102
RTVSPropertyOp34
 70
     1
102
RTVSPropertyOp35
 70
     1
102
RTVSPropertyOp36
 70
     1
102
RTVSPropertyOp37
 70
     1
102
RTVSPropertyOp38
 70
     1
102
RTVSPropertyOp39
 70
     1
102
RTVSPropertyOp40
 70
     1
102
RTVSPropertyOp41
 70
     1
102
RTVSPropertyOp42
 70
     1
102
RTVSPropertyOp43
 70
     1
102
RTVSPropertyOp44
 70
     1
102
RTVSPropertyOp45
 70
     1
102
RTVSPropertyOp46
 70
     1
102
RTVSPropertyOp47
 70
     1
102
RTVSPropertyOp48
 70
     1
102
RTVSPropertyOp49
 70
     1
102
RTVSPropertyOp50
 70
     1
102
RTVSPropertyOp51
 70
     0
102
RTVSPropertyOp52
 70
     0
102
RTVSPropertyOp53
 70
     1
102
RTVSPropertyOp54
 70
     1
102
RTVSPropertyOp55
 70
     1
102
RTVSPropertyOp56
 70
     1
102
RTVSPropertyOp57
 70
     1
102
RTVSPost2010Prop28
280
     0
102
RTVSPost2010PropOp28
 70
     1
102
RTVSPost2010Prop29
280
     1
102
RTVSPost2010PropOp29
 70
     1
102
RTVSPost2010Prop30
280
     1
102
RTVSPost2010PropOp30
 70
     1
102
RTVSPost2010Prop31
280
     0
102
RTVSPost2010PropOp31
 70
     1
102
RTVSPost2010Prop32
280
     0
102
RTVSPost2010PropOp32
 70
     1
102
RTVSPost2010Prop33
280
     0
102
RTVSPost2010PropOp33
 70
     1
102
RTVSPost2010Prop34
280
     0
102
RTVSPost2010PropOp34
 70
     1
102
RTVSPost2010Prop35
280
     0
102
RTVSPost2010PropOp35
 70
     1
102
RTVSPost2010Prop36
280
     0
102
RTVSPost2010PropOp36
 70
     1
102
RTVSPost2010Prop37
 90
       50
102
RTVSPost2010PropOp37
 70
     1
102
RTVSPost2010Prop38
140
0.0
102
RTVSPost2010PropOp38
 70
     1
102
RTVSPost2010Prop39
140
1.0
102
RTVSPost2010PropOp39
 70
     1
102
RTVSPost2010Prop40
 90
        0
102
RTVSPost2010PropOp40
 70
     1
102
RTVSPost2010Prop41ColorIndex
 90
       18
102
RTVSPost2010Prop41ColorRGB
 90
        0
102
RTVSPost2010PropOp41
 70
     1
102
RTVSPost2010Prop42
 90
       50
102
RTVSPost2010PropOp42
 70
     1
102
RTVSPost2010Prop43
 90
        3
102
RTVSPost2010PropOp43
 70
     1
102
RTVSPost2010Prop44ColorIndex
 90
        5
102
RTVSPost2010Prop44ColorRGB
 90
      255
102
RTVSPost2010PropOp44
 70
     1
102
RTVSPost2010Prop45
280
     0
102
RTVSPost2010PropOp45
 70
     1
102
RTVSPost2010Prop46
 90
       50
102
RTVSPost2010PropOp46
 70
     1
102
RTVSPost2010Prop47
 90
       50
102
RTVSPost2010PropOp47
 70
     1
102
RTVSPost2010Prop48
 90
       50
102
RTVSPost2010PropOp48
 70
     1
102
RTVSPost2010Prop49
280
     0
102
RTVSPost2010PropOp49
 70
     1
102
RTVSPost2010Prop50
 90
       50
102
RTVSPost2010PropOp50
 70
     1
102
RTVSPost2010Prop51ColorIndex
 90
      256
102
RTVSPost2010Prop51ColorRGB
 90
-16777216
102
RTVSPost2010PropOp51
 70
     0
102
RTVSPost2010Prop52
140
1.0
102
RTVSPost2010PropOp52
 70
     0
102
RTVSPost2010Prop53
 90
        2
102
RTVSPost2010PropOp53
 70
     1
102
RTVSPost2010Prop54
  1
strokes_ogs.tif
102
RTVSPost2010PropOp54
 70
     1
102
RTVSPost2010Prop55
280
     0
102
RTVSPost2010PropOp55
 70
     1
102
RTVSPost2010Prop56
140
1.0
102
RTVSPost2010PropOp56
 70
     1
102
RTVSPost2010Prop57
140
1.0
102
RTVSPost2010PropOp57
 70
     1
  0
XRECORD
  5
549
102
{ACAD_REACTORS
330
548
102
}
330
548
100
AcDbXrecord
280
     1
102
RTVSPropertyOp0
 70
     1
102
RTVSPropertyOp1
 70
     1
102
RTVSPropertyOp2
 70
     1
102
RTVSPropertyOp3
 70
     1
102
RTVSPropertyOp4
 70
     1
102
RTVSPropertyOp5
 70
     1
102
RTVSPropertyOp6
 70
     1
102
RTVSPropertyOp7
 70
     1
102
RTVSPropertyOp8
 70
     1
102
RTVSPropertyOp9
 70
     1
102
RTVSPropertyOp10
 70
     1
102
RTVSPropertyOp11
 70
     1
102
RTVSPropertyOp12
 70
     1
102
RTVSPropertyOp13
 70
     1
102
RTVSPropertyOp14
 70
     1
102
RTVSPropertyOp15
 70
     1
102
RTVSPropertyOp16
 70
     1
102
RTVSPropertyOp17
 70
     1
102
RTVSPropertyOp18
 70
     1
102
RTVSPropertyOp19
 70
     1
102
RTVSPropertyOp20
 70
     1
102
RTVSPropertyOp21
 70
     1
102
RTVSPropertyOp22
 70
     1
102
RTVSPropertyOp23
 70
     1
102
RTVSPropertyOp24
 70
     1
102
RTVSPropertyOp25
 70
     1
102
RTVSPropertyOp26
 70
     1
102
RTVSPropertyOp27
 70
     1
102
RTVSPropertyOp28
 70
     1
102
RTVSPropertyOp29
 70
     1
102
RTVSPropertyOp30
 70
     1
102
RTVSPropertyOp31
 70
     1
102
RTVSPropertyOp32
 70
     1
102
RTVSPropertyOp33
 70
     1
102
RTVSPropertyOp34
 70
     1
102
RTVSPropertyOp35
 70
     1
102
RTVSPropertyOp36
 70
     1
102
RTVSPropertyOp37
 70
     1
102
RTVSPropertyOp38
 70
     1
102
RTVSPropertyOp39
 70
     1
102
RTVSPropertyOp40
 70
     1
102
RTVSPropertyOp41
 70
     1
102
RTVSPropertyOp42
 70
     1
102
RTVSPropertyOp43
 70
     1
102
RTVSPropertyOp44
 70
     1
102
RTVSPropertyOp45
 70
     1
102
RTVSPropertyOp46
 70
     1
102
RTVSPropertyOp47
 70
     1
102
RTVSPropertyOp48
 70
     1
102
RTVSPropertyOp49
 70
     1
102
RTVSPropertyOp50
 70
     1
102
RTVSPropertyOp51
 70
     0
102
RTVSPropertyOp52
 70
     0
102
RTVSPropertyOp53
 70
     1
102
RTVSPropertyOp54
 70
     1
102
RTVSPropertyOp55
 70
     1
102
RTVSPropertyOp56
 70
     1
102
RTVSPropertyOp57
 70
     1
102
RTVSPost2010Prop28
280
     0
102
RTVSPost2010PropOp28
 70
     1
102
RTVSPost2010Prop29
280
     1
102
RTVSPost2010PropOp29
 70
     1
102
RTVSPost2010Prop30
280
     1
102
RTVSPost2010PropOp30
 70
     1
102
RTVSPost2010Prop31
280
     0
102
RTVSPost2010PropOp31
 70
     1
102
RTVSPost2010Prop32
280
     0
102
RTVSPost2010PropOp32
 70
     1
102
RTVSPost2010Prop33
280
     0
102
RTVSPost2010PropOp33
 70
     1
102
RTVSPost2010Prop34
280
     0
102
RTVSPost2010PropOp34
 70
     1
102
RTVSPost2010Prop35
280
     0
102
RTVSPost2010PropOp35
 70
     1
102
RTVSPost2010Prop36
280
     0
102
RTVSPost2010PropOp36
 70
     1
102
RTVSPost2010Prop37
 90
       50
102
RTVSPost2010PropOp37
 70
     1
102
RTVSPost2010Prop38
140
0.0
102
RTVSPost2010PropOp38
 70
     1
102
RTVSPost2010Prop39
140
1.0
102
RTVSPost2010PropOp39
 70
     1
102
RTVSPost2010Prop40
 90
        0
102
RTVSPost2010PropOp40
 70
     1
102
RTVSPost2010Prop41ColorIndex
 90
       18
102
RTVSPost2010Prop41ColorRGB
 90
        0
102
RTVSPost2010PropOp41
 70
     1
102
RTVSPost2010Prop42
 90
       50
102
RTVSPost2010PropOp42
 70
     1
102
RTVSPost2010Prop43
 90
        3
102
RTVSPost2010PropOp43
 70
     1
102
RTVSPost2010Prop44ColorIndex
 90
        5
102
RTVSPost2010Prop44ColorRGB
 90
      255
102
RTVSPost2010PropOp44
 70
     1
102
RTVSPost2010Prop45
280
     0
102
RTVSPost2010PropOp45
 70
     1
102
RTVSPost2010Prop46
 90
       50
102
RTVSPost2010PropOp46
 70
     1
102
RTVSPost2010Prop47
 90
       50
102
RTVSPost2010PropOp47
 70
     1
102
RTVSPost2010Prop48
 90
       50
102
RTVSPost2010PropOp48
 70
     1
102
RTVSPost2010Prop49
280
     0
102
RTVSPost2010PropOp49
 70
     1
102
RTVSPost2010Prop50
 90
       50
102
RTVSPost2010PropOp50
 70
     1
102
RTVSPost2010Prop51ColorIndex
 90
      256
102
RTVSPost2010Prop51ColorRGB
 90
-16777216
102
RTVSPost2010PropOp51
 70
     0
102
RTVSPost2010Prop52
140
1.0
102
RTVSPost2010PropOp52
 70
     0
102
RTVSPost2010Prop53
 90
        2
102
RTVSPost2010PropOp53
 70
     1
102
RTVSPost2010Prop54
  1
strokes_ogs.tif
102
RTVSPost2010PropOp54
 70
     1
102
RTVSPost2010Prop55
280
     0
102
RTVSPost2010PropOp55
 70
     1
102
RTVSPost2010Prop56
140
1.0
102
RTVSPost2010PropOp56
 70
     1
102
RTVSPost2010Prop57
140
1.0
102
RTVSPost2010PropOp57
 70
     1
  0
XRECORD
  5
54B
102
{ACAD_REACTORS
330
54A
102
}
330
54A
100
AcDbXrecord
280
     1
102
RTVSPropertyOp0
 70
     1
102
RTVSPropertyOp1
 70
     1
102
RTVSPropertyOp2
 70
     1
102
RTVSPropertyOp3
 70
     1
102
RTVSPropertyOp4
 70
     1
102
RTVSPropertyOp5
 70
     1
102
RTVSPropertyOp6
 70
     1
102
RTVSPropertyOp7
 70
     1
102
RTVSPropertyOp8
 70
     1
102
RTVSPropertyOp9
 70
     1
102
RTVSPropertyOp10
 70
     1
102
RTVSPropertyOp11
 70
     1
102
RTVSPropertyOp12
 70
     1
102
RTVSPropertyOp13
 70
     1
102
RTVSPropertyOp14
 70
     1
102
RTVSPropertyOp15
 70
     1
102
RTVSPropertyOp16
 70
     1
102
RTVSPropertyOp17
 70
     1
102
RTVSPropertyOp18
 70
     1
102
RTVSPropertyOp19
 70
     1
102
RTVSPropertyOp20
 70
     1
102
RTVSPropertyOp21
 70
     1
102
RTVSPropertyOp22
 70
     1
102
RTVSPropertyOp23
 70
     1
102
RTVSPropertyOp24
 70
     1
102
RTVSPropertyOp25
 70
     1
102
RTVSPropertyOp26
 70
     1
102
RTVSPropertyOp27
 70
     1
102
RTVSPropertyOp28
 70
     1
102
RTVSPropertyOp29
 70
     1
102
RTVSPropertyOp30
 70
     1
102
RTVSPropertyOp31
 70
     1
102
RTVSPropertyOp32
 70
     1
102
RTVSPropertyOp33
 70
     1
102
RTVSPropertyOp34
 70
     1
102
RTVSPropertyOp35
 70
     1
102
RTVSPropertyOp36
 70
     1
102
RTVSPropertyOp37
 70
     1
102
RTVSPropertyOp38
 70
     1
102
RTVSPropertyOp39
 70
     1
102
RTVSPropertyOp40
 70
     1
102
RTVSPropertyOp41
 70
     1
102
RTVSPropertyOp42
 70
     1
102
RTVSPropertyOp43
 70
     1
102
RTVSPropertyOp44
 70
     1
102
RTVSPropertyOp45
 70
     1
102
RTVSPropertyOp46
 70
     1
102
RTVSPropertyOp47
 70
     1
102
RTVSPropertyOp48
 70
     1
102
RTVSPropertyOp49
 70
     1
102
RTVSPropertyOp50
 70
     1
102
RTVSPropertyOp51
 70
     0
102
RTVSPropertyOp52
 70
     0
102
RTVSPropertyOp53
 70
     1
102
RTVSPropertyOp54
 70
     1
102
RTVSPropertyOp55
 70
     1
102
RTVSPropertyOp56
 70
     1
102
RTVSPropertyOp57
 70
     1
102
RTVSPost2010Prop28
280
     0
102
RTVSPost2010PropOp28
 70
     1
102
RTVSPost2010Prop29
280
     1
102
RTVSPost2010PropOp29
 70
     1
102
RTVSPost2010Prop30
280
     1
102
RTVSPost2010PropOp30
 70
     1
102
RTVSPost2010Prop31
280
     0
102
RTVSPost2010PropOp31
 70
     1
102
RTVSPost2010Prop32
280
     0
102
RTVSPost2010PropOp32
 70
     1
102
RTVSPost2010Prop33
280
     0
102
RTVSPost2010PropOp33
 70
     1
102
RTVSPost2010Prop34
280
     0
102
RTVSPost2010PropOp34
 70
     1
102
RTVSPost2010Prop35
280
     0
102
RTVSPost2010PropOp35
 70
     1
102
RTVSPost2010Prop36
280
     0
102
RTVSPost2010PropOp36
 70
     1
102
RTVSPost2010Prop37
 90
       50
102
RTVSPost2010PropOp37
 70
     1
102
RTVSPost2010Prop38
140
0.0
102
RTVSPost2010PropOp38
 70
     1
102
RTVSPost2010Prop39
140
1.0
102
RTVSPost2010PropOp39
 70
     1
102
RTVSPost2010Prop40
 90
        0
102
RTVSPost2010PropOp40
 70
     1
102
RTVSPost2010Prop41ColorIndex
 90
       18
102
RTVSPost2010Prop41ColorRGB
 90
        0
102
RTVSPost2010PropOp41
 70
     1
102
RTVSPost2010Prop42
 90
       50
102
RTVSPost2010PropOp42
 70
     1
102
RTVSPost2010Prop43
 90
        3
102
RTVSPost2010PropOp43
 70
     1
102
RTVSPost2010Prop44ColorIndex
 90
        5
102
RTVSPost2010Prop44ColorRGB
 90
      255
102
RTVSPost2010PropOp44
 70
     1
102
RTVSPost2010Prop45
280
     0
102
RTVSPost2010PropOp45
 70
     1
102
RTVSPost2010Prop46
 90
       50
102
RTVSPost2010PropOp46
 70
     1
102
RTVSPost2010Prop47
 90
       50
102
RTVSPost2010PropOp47
 70
     1
102
RTVSPost2010Prop48
 90
       50
102
RTVSPost2010PropOp48
 70
     1
102
RTVSPost2010Prop49
280
     0
102
RTVSPost2010PropOp49
 70
     1
102
RTVSPost2010Prop50
 90
       50
102
RTVSPost2010PropOp50
 70
     1
102
RTVSPost2010Prop51ColorIndex
 90
      256
102
RTVSPost2010Prop51ColorRGB
 90
-16777216
102
RTVSPost2010PropOp51
 70
     0
102
RTVSPost2010Prop52
140
1.0
102
RTVSPost2010PropOp52
 70
     0
102
RTVSPost2010Prop53
 90
        2
102
RTVSPost2010PropOp53
 70
     1
102
RTVSPost2010Prop54
  1
strokes_ogs.tif
102
RTVSPost2010PropOp54
 70
     1
102
RTVSPost2010Prop55
280
     0
102
RTVSPost2010PropOp55
 70
     1
102
RTVSPost2010Prop56
140
1.0
102
RTVSPost2010PropOp56
 70
     1
102
RTVSPost2010Prop57
140
1.0
102
RTVSPost2010PropOp57
 70
     1
  0
XRECORD
  5
54D
102
{ACAD_REACTORS
330
54C
102
}
330
54C
100
AcDbXrecord
280
     1
102
RTVSPropertyOp0
 70
     1
102
RTVSPropertyOp1
 70
     1
102
RTVSPropertyOp2
 70
     1
102
RTVSPropertyOp3
 70
     1
102
RTVSPropertyOp4
 70
     1
102
RTVSPropertyOp5
 70
     1
102
RTVSPropertyOp6
 70
     1
102
RTVSPropertyOp7
 70
     1
102
RTVSPropertyOp8
 70
     1
102
RTVSPropertyOp9
 70
     1
102
RTVSPropertyOp10
 70
     1
102
RTVSPropertyOp11
 70
     1
102
RTVSPropertyOp12
 70
     1
102
RTVSPropertyOp13
 70
     1
102
RTVSPropertyOp14
 70
     1
102
RTVSPropertyOp15
 70
     1
102
RTVSPropertyOp16
 70
     1
102
RTVSPropertyOp17
 70
     1
102
RTVSPropertyOp18
 70
     1
102
RTVSPropertyOp19
 70
     1
102
RTVSPropertyOp20
 70
     1
102
RTVSPropertyOp21
 70
     1
102
RTVSPropertyOp22
 70
     1
102
RTVSPropertyOp23
 70
     1
102
RTVSPropertyOp24
 70
     1
102
RTVSPropertyOp25
 70
     1
102
RTVSPropertyOp26
 70
     1
102
RTVSPropertyOp27
 70
     1
102
RTVSPropertyOp28
 70
     1
102
RTVSPropertyOp29
 70
     1
102
RTVSPropertyOp30
 70
     1
102
RTVSPropertyOp31
 70
     1
102
RTVSPropertyOp32
 70
     1
102
RTVSPropertyOp33
 70
     1
102
RTVSPropertyOp34
 70
     1
102
RTVSPropertyOp35
 70
     1
102
RTVSPropertyOp36
 70
     1
102
RTVSPropertyOp37
 70
     1
102
RTVSPropertyOp38
 70
     1
102
RTVSPropertyOp39
 70
     1
102
RTVSPropertyOp40
 70
     1
102
RTVSPropertyOp41
 70
     1
102
RTVSPropertyOp42
 70
     1
102
RTVSPropertyOp43
 70
     1
102
RTVSPropertyOp44
 70
     1
102
RTVSPropertyOp45
 70
     1
102
RTVSPropertyOp46
 70
     1
102
RTVSPropertyOp47
 70
     1
102
RTVSPropertyOp48
 70
     1
102
RTVSPropertyOp49
 70
     1
102
RTVSPropertyOp50
 70
     1
102
RTVSPropertyOp51
 70
     0
102
RTVSPropertyOp52
 70
     0
102
RTVSPropertyOp53
 70
     1
102
RTVSPropertyOp54
 70
     1
102
RTVSPropertyOp55
 70
     1
102
RTVSPropertyOp56
 70
     1
102
RTVSPropertyOp57
 70
     1
102
RTVSPost2010Prop28
280
     0
102
RTVSPost2010PropOp28
 70
     1
102
RTVSPost2010Prop29
280
     1
102
RTVSPost2010PropOp29
 70
     1
102
RTVSPost2010Prop30
280
     1
102
RTVSPost2010PropOp30
 70
     1
102
RTVSPost2010Prop31
280
     0
102
RTVSPost2010PropOp31
 70
     1
102
RTVSPost2010Prop32
280
     0
102
RTVSPost2010PropOp32
 70
     1
102
RTVSPost2010Prop33
280
     0
102
RTVSPost2010PropOp33
 70
     1
102
RTVSPost2010Prop34
280
     0
102
RTVSPost2010PropOp34
 70
     1
102
RTVSPost2010Prop35
280
     0
102
RTVSPost2010PropOp35
 70
     1
102
RTVSPost2010Prop36
280
     0
102
RTVSPost2010PropOp36
 70
     1
102
RTVSPost2010Prop37
 90
       50
102
RTVSPost2010PropOp37
 70
     1
102
RTVSPost2010Prop38
140
0.0
102
RTVSPost2010PropOp38
 70
     1
102
RTVSPost2010Prop39
140
1.0
102
RTVSPost2010PropOp39
 70
     1
102
RTVSPost2010Prop40
 90
        0
102
RTVSPost2010PropOp40
 70
     1
102
RTVSPost2010Prop41ColorIndex
 90
       18
102
RTVSPost2010Prop41ColorRGB
 90
        0
102
RTVSPost2010PropOp41
 70
     1
102
RTVSPost2010Prop42
 90
       50
102
RTVSPost2010PropOp42
 70
     1
102
RTVSPost2010Prop43
 90
        3
102
RTVSPost2010PropOp43
 70
     1
102
RTVSPost2010Prop44ColorIndex
 90
        5
102
RTVSPost2010Prop44ColorRGB
 90
      255
102
RTVSPost2010PropOp44
 70
     1
102
RTVSPost2010Prop45
280
     0
102
RTVSPost2010PropOp45
 70
     1
102
RTVSPost2010Prop46
 90
       50
102
RTVSPost2010PropOp46
 70
     1
102
RTVSPost2010Prop47
 90
       50
102
RTVSPost2010PropOp47
 70
     1
102
RTVSPost2010Prop48
 90
       50
102
RTVSPost2010PropOp48
 70
     1
102
RTVSPost2010Prop49
280
     0
102
RTVSPost2010PropOp49
 70
     1
102
RTVSPost2010Prop50
 90
       50
102
RTVSPost2010PropOp50
 70
     1
102
RTVSPost2010Prop51ColorIndex
 90
      256
102
RTVSPost2010Prop51ColorRGB
 90
-16777216
102
RTVSPost2010PropOp51
 70
     0
102
RTVSPost2010Prop52
140
1.0
102
RTVSPost2010PropOp52
 70
     0
102
RTVSPost2010Prop53
 90
        2
102
RTVSPost2010PropOp53
 70
     1
102
RTVSPost2010Prop54
  1
strokes_ogs.tif
102
RTVSPost2010PropOp54
 70
     1
102
RTVSPost2010Prop55
280
     0
102
RTVSPost2010PropOp55
 70
     1
102
RTVSPost2010Prop56
140
1.0
102
RTVSPost2010PropOp56
 70
     1
102
RTVSPost2010Prop57
140
1.0
102
RTVSPost2010PropOp57
 70
     1
  0
XRECORD
  5
54F
102
{ACAD_REACTORS
330
54E
102
}
330
54E
100
AcDbXrecord
280
     1
102
RTVSPropertyOp0
 70
     1
102
RTVSPropertyOp1
 70
     1
102
RTVSPropertyOp2
 70
     1
102
RTVSPropertyOp3
 70
     1
102
RTVSPropertyOp4
 70
     1
102
RTVSPropertyOp5
 70
     1
102
RTVSPropertyOp6
 70
     1
102
RTVSPropertyOp7
 70
     1
102
RTVSPropertyOp8
 70
     1
102
RTVSPropertyOp9
 70
     1
102
RTVSPropertyOp10
 70
     1
102
RTVSPropertyOp11
 70
     1
102
RTVSPropertyOp12
 70
     1
102
RTVSPropertyOp13
 70
     1
102
RTVSPropertyOp14
 70
     1
102
RTVSPropertyOp15
 70
     1
102
RTVSPropertyOp16
 70
     1
102
RTVSPropertyOp17
 70
     1
102
RTVSPropertyOp18
 70
     1
102
RTVSPropertyOp19
 70
     1
102
RTVSPropertyOp20
 70
     1
102
RTVSPropertyOp21
 70
     1
102
RTVSPropertyOp22
 70
     1
102
RTVSPropertyOp23
 70
     1
102
RTVSPropertyOp24
 70
     1
102
RTVSPropertyOp25
 70
     1
102
RTVSPropertyOp26
 70
     1
102
RTVSPropertyOp27
 70
     1
102
RTVSPropertyOp28
 70
     1
102
RTVSPropertyOp29
 70
     1
102
RTVSPropertyOp30
 70
     1
102
RTVSPropertyOp31
 70
     1
102
RTVSPropertyOp32
 70
     1
102
RTVSPropertyOp33
 70
     1
102
RTVSPropertyOp34
 70
     1
102
RTVSPropertyOp35
 70
     1
102
RTVSPropertyOp36
 70
     1
102
RTVSPropertyOp37
 70
     1
102
RTVSPropertyOp38
 70
     1
102
RTVSPropertyOp39
 70
     1
102
RTVSPropertyOp40
 70
     1
102
RTVSPropertyOp41
 70
     1
102
RTVSPropertyOp42
 70
     1
102
RTVSPropertyOp43
 70
     1
102
RTVSPropertyOp44
 70
     1
102
RTVSPropertyOp45
 70
     1
102
RTVSPropertyOp46
 70
     1
102
RTVSPropertyOp47
 70
     1
102
RTVSPropertyOp48
 70
     1
102
RTVSPropertyOp49
 70
     1
102
RTVSPropertyOp50
 70
     1
102
RTVSPropertyOp51
 70
     0
102
RTVSPropertyOp52
 70
     0
102
RTVSPropertyOp53
 70
     1
102
RTVSPropertyOp54
 70
     1
102
RTVSPropertyOp55
 70
     1
102
RTVSPropertyOp56
 70
     1
102
RTVSPropertyOp57
 70
     1
102
RTVSPost2010Prop28
280
     0
102
RTVSPost2010PropOp28
 70
     1
102
RTVSPost2010Prop29
280
     1
102
RTVSPost2010PropOp29
 70
     1
102
RTVSPost2010Prop30
280
     1
102
RTVSPost2010PropOp30
 70
     1
102
RTVSPost2010Prop31
280
     0
102
RTVSPost2010PropOp31
 70
     1
102
RTVSPost2010Prop32
280
     0
102
RTVSPost2010PropOp32
 70
     1
102
RTVSPost2010Prop33
280
     0
102
RTVSPost2010PropOp33
 70
     1
102
RTVSPost2010Prop34
280
     0
102
RTVSPost2010PropOp34
 70
     1
102
RTVSPost2010Prop35
280
     0
102
RTVSPost2010PropOp35
 70
     1
102
RTVSPost2010Prop36
280
     0
102
RTVSPost2010PropOp36
 70
     1
102
RTVSPost2010Prop37
 90
       50
102
RTVSPost2010PropOp37
 70
     1
102
RTVSPost2010Prop38
140
0.0
102
RTVSPost2010PropOp38
 70
     1
102
RTVSPost2010Prop39
140
1.0
102
RTVSPost2010PropOp39
 70
     1
102
RTVSPost2010Prop40
 90
        0
102
RTVSPost2010PropOp40
 70
     1
102
RTVSPost2010Prop41ColorIndex
 90
       18
102
RTVSPost2010Prop41ColorRGB
 90
        0
102
RTVSPost2010PropOp41
 70
     1
102
RTVSPost2010Prop42
 90
       50
102
RTVSPost2010PropOp42
 70
     1
102
RTVSPost2010Prop43
 90
        3
102
RTVSPost2010PropOp43
 70
     1
102
RTVSPost2010Prop44ColorIndex
 90
        5
102
RTVSPost2010Prop44ColorRGB
 90
      255
102
RTVSPost2010PropOp44
 70
     1
102
RTVSPost2010Prop45
280
     0
102
RTVSPost2010PropOp45
 70
     1
102
RTVSPost2010Prop46
 90
       50
102
RTVSPost2010PropOp46
 70
     1
102
RTVSPost2010Prop47
 90
       50
102
RTVSPost2010PropOp47
 70
     1
102
RTVSPost2010Prop48
 90
       50
102
RTVSPost2010PropOp48
 70
     1
102
RTVSPost2010Prop49
280
     0
102
RTVSPost2010PropOp49
 70
     1
102
RTVSPost2010Prop50
 90
       50
102
RTVSPost2010PropOp50
 70
     1
102
RTVSPost2010Prop51ColorIndex
 90
      256
102
RTVSPost2010Prop51ColorRGB
 90
-16777216
102
RTVSPost2010PropOp51
 70
     0
102
RTVSPost2010Prop52
140
1.0
102
RTVSPost2010PropOp52
 70
     0
102
RTVSPost2010Prop53
 90
        2
102
RTVSPost2010PropOp53
 70
     1
102
RTVSPost2010Prop54
  1
strokes_ogs.tif
102
RTVSPost2010PropOp54
 70
     1
102
RTVSPost2010Prop55
280
     0
102
RTVSPost2010PropOp55
 70
     1
102
RTVSPost2010Prop56
140
1.0
102
RTVSPost2010PropOp56
 70
     1
102
RTVSPost2010Prop57
140
1.0
102
RTVSPost2010PropOp57
 70
     1
  0
XRECORD
  5
551
102
{ACAD_REACTORS
330
550
102
}
330
550
100
AcDbXrecord
280
     1
102
RTVSPropertyOp0
 70
     0
102
RTVSPropertyOp1
 70
     0
102
RTVSPropertyOp2
 70
     0
102
RTVSPropertyOp3
 70
     0
102
RTVSPropertyOp4
 70
     0
102
RTVSPropertyOp5
 70
     0
102
RTVSPropertyOp6
 70
     0
102
RTVSPropertyOp7
 70
     0
102
RTVSPropertyOp8
 70
     0
102
RTVSPropertyOp9
 70
     0
102
RTVSPropertyOp10
 70
     0
102
RTVSPropertyOp11
 70
     0
102
RTVSPropertyOp12
 70
     0
102
RTVSPropertyOp13
 70
     0
102
RTVSPropertyOp14
 70
     2
102
RTVSPropertyOp15
 70
     0
102
RTVSPropertyOp16
 70
     0
102
RTVSPropertyOp17
 70
     0
102
RTVSPropertyOp18
 70
     0
102
RTVSPropertyOp19
 70
     0
102
RTVSPropertyOp20
 70
     0
102
RTVSPropertyOp21
 70
     0
102
RTVSPropertyOp22
 70
     0
102
RTVSPropertyOp23
 70
     0
102
RTVSPropertyOp24
 70
     0
102
RTVSPropertyOp25
 70
     0
102
RTVSPropertyOp26
 70
     0
102
RTVSPropertyOp27
 70
     0
102
RTVSPropertyOp28
 70
     0
102
RTVSPropertyOp29
 70
     0
102
RTVSPropertyOp30
 70
     0
102
RTVSPropertyOp31
 70
     0
102
RTVSPropertyOp32
 70
     0
102
RTVSPropertyOp33
 70
     0
102
RTVSPropertyOp34
 70
     0
102
RTVSPropertyOp35
 70
     0
102
RTVSPropertyOp36
 70
     0
102
RTVSPropertyOp37
 70
     0
102
RTVSPropertyOp38
 70
     0
102
RTVSPropertyOp39
 70
     0
102
RTVSPropertyOp40
 70
     0
102
RTVSPropertyOp41
 70
     0
102
RTVSPropertyOp42
 70
     0
102
RTVSPropertyOp43
 70
     0
102
RTVSPropertyOp44
 70
     0
102
RTVSPropertyOp45
 70
     0
102
RTVSPropertyOp46
 70
     0
102
RTVSPropertyOp47
 70
     0
102
RTVSPropertyOp48
 70
     0
102
RTVSPropertyOp49
 70
     0
102
RTVSPropertyOp50
 70
     0
102
RTVSPropertyOp51
 70
     0
102
RTVSPropertyOp52
 70
     0
102
RTVSPropertyOp53
 70
     0
102
RTVSPropertyOp54
 70
     0
102
RTVSPropertyOp55
 70
     0
102
RTVSPropertyOp56
 70
     0
102
RTVSPropertyOp57
 70
     0
102
RTVSPost2010Prop28
280
     0
102
RTVSPost2010PropOp28
 70
     0
102
RTVSPost2010Prop29
280
     1
102
RTVSPost2010PropOp29
 70
     0
102
RTVSPost2010Prop30
280
     1
102
RTVSPost2010PropOp30
 70
     0
102
RTVSPost2010Prop31
280
     0
102
RTVSPost2010PropOp31
 70
     0
102
RTVSPost2010Prop32
280
     0
102
RTVSPost2010PropOp32
 70
     0
102
RTVSPost2010Prop33
280
     0
102
RTVSPost2010PropOp33
 70
     0
102
RTVSPost2010Prop34
280
     0
102
RTVSPost2010PropOp34
 70
     0
102
RTVSPost2010Prop35
280
     0
102
RTVSPost2010PropOp35
 70
     0
102
RTVSPost2010Prop36
280
     0
102
RTVSPost2010PropOp36
 70
     0
102
RTVSPost2010Prop37
 90
       50
102
RTVSPost2010PropOp37
 70
     0
102
RTVSPost2010Prop38
140
0.0
102
RTVSPost2010PropOp38
 70
     0
102
RTVSPost2010Prop39
140
1.0
102
RTVSPost2010PropOp39
 70
     0
102
RTVSPost2010Prop40
 90
        0
102
RTVSPost2010PropOp40
 70
     0
102
RTVSPost2010Prop41ColorIndex
 90
       18
102
RTVSPost2010Prop41ColorRGB
 90
        0
102
RTVSPost2010PropOp41
 70
     0
102
RTVSPost2010Prop42
 90
       50
102
RTVSPost2010PropOp42
 70
     0
102
RTVSPost2010Prop43
 90
        3
102
RTVSPost2010PropOp43
 70
     0
102
RTVSPost2010Prop44ColorIndex
 90
        5
102
RTVSPost2010Prop44ColorRGB
 90
      255
102
RTVSPost2010PropOp44
 70
     0
102
RTVSPost2010Prop45
280
     0
102
RTVSPost2010PropOp45
 70
     0
102
RTVSPost2010Prop46
 90
       50
102
RTVSPost2010PropOp46
 70
     0
102
RTVSPost2010Prop47
 90
       50
102
RTVSPost2010PropOp47
 70
     0
102
RTVSPost2010Prop48
 90
       50
102
RTVSPost2010PropOp48
 70
     0
102
RTVSPost2010Prop49
280
     0
102
RTVSPost2010PropOp49
 70
     0
102
RTVSPost2010Prop50
 90
       50
102
RTVSPost2010PropOp50
 70
     0
102
RTVSPost2010Prop51ColorIndex
 90
      256
102
RTVSPost2010Prop51ColorRGB
 90
-16777216
102
RTVSPost2010PropOp51
 70
     0
102
RTVSPost2010Prop52
140
1.0
102
RTVSPost2010PropOp52
 70
     0
102
RTVSPost2010Prop53
 90
        2
102
RTVSPost2010PropOp53
 70
     0
102
RTVSPost2010Prop54
  1
strokes_ogs.tif
102
RTVSPost2010PropOp54
 70
     0
102
RTVSPost2010Prop55
280
     0
102
RTVSPost2010PropOp55
 70
     0
102
RTVSPost2010Prop56
140
1.0
102
RTVSPost2010PropOp56
 70
     0
102
RTVSPost2010Prop57
140
1.0
102
RTVSPost2010PropOp57
 70
     0
  0
XRECORD
  5
553
102
{ACAD_REACTORS
330
552
102
}
330
552
100
AcDbXrecord
280
     1
102
RTVSPropertyOp0
 70
     1
102
RTVSPropertyOp1
 70
     1
102
RTVSPropertyOp2
 70
     1
102
RTVSPropertyOp3
 70
     1
102
RTVSPropertyOp4
 70
     1
102
RTVSPropertyOp5
 70
     1
102
RTVSPropertyOp6
 70
     1
102
RTVSPropertyOp7
 70
     1
102
RTVSPropertyOp8
 70
     1
102
RTVSPropertyOp9
 70
     1
102
RTVSPropertyOp10
 70
     1
102
RTVSPropertyOp11
 70
     1
102
RTVSPropertyOp12
 70
     1
102
RTVSPropertyOp13
 70
     1
102
RTVSPropertyOp14
 70
     1
102
RTVSPropertyOp15
 70
     1
102
RTVSPropertyOp16
 70
     1
102
RTVSPropertyOp17
 70
     1
102
RTVSPropertyOp18
 70
     1
102
RTVSPropertyOp19
 70
     1
102
RTVSPropertyOp20
 70
     1
102
RTVSPropertyOp21
 70
     1
102
RTVSPropertyOp22
 70
     1
102
RTVSPropertyOp23
 70
     1
102
RTVSPropertyOp24
 70
     1
102
RTVSPropertyOp25
 70
     1
102
RTVSPropertyOp26
 70
     1
102
RTVSPropertyOp27
 70
     1
102
RTVSPropertyOp28
 70
     1
102
RTVSPropertyOp29
 70
     1
102
RTVSPropertyOp30
 70
     1
102
RTVSPropertyOp31
 70
     1
102
RTVSPropertyOp32
 70
     1
102
RTVSPropertyOp33
 70
     1
102
RTVSPropertyOp34
 70
     1
102
RTVSPropertyOp35
 70
     1
102
RTVSPropertyOp36
 70
     1
102
RTVSPropertyOp37
 70
     1
102
RTVSPropertyOp38
 70
     1
102
RTVSPropertyOp39
 70
     1
102
RTVSPropertyOp40
 70
     1
102
RTVSPropertyOp41
 70
     1
102
RTVSPropertyOp42
 70
     1
102
RTVSPropertyOp43
 70
     1
102
RTVSPropertyOp44
 70
     1
102
RTVSPropertyOp45
 70
     1
102
RTVSPropertyOp46
 70
     1
102
RTVSPropertyOp47
 70
     1
102
RTVSPropertyOp48
 70
     1
102
RTVSPropertyOp49
 70
     1
102
RTVSPropertyOp50
 70
     1
102
RTVSPropertyOp51
 70
     0
102
RTVSPropertyOp52
 70
     0
102
RTVSPropertyOp53
 70
     1
102
RTVSPropertyOp54
 70
     1
102
RTVSPropertyOp55
 70
     1
102
RTVSPropertyOp56
 70
     1
102
RTVSPropertyOp57
 70
     1
102
RTVSPost2010Prop28
280
     0
102
RTVSPost2010PropOp28
 70
     1
102
RTVSPost2010Prop29
280
     1
102
RTVSPost2010PropOp29
 70
     1
102
RTVSPost2010Prop30
280
     1
102
RTVSPost2010PropOp30
 70
     1
102
RTVSPost2010Prop31
280
     0
102
RTVSPost2010PropOp31
 70
     1
102
RTVSPost2010Prop32
280
     0
102
RTVSPost2010PropOp32
 70
     1
102
RTVSPost2010Prop33
280
     0
102
RTVSPost2010PropOp33
 70
     1
102
RTVSPost2010Prop34
280
     0
102
RTVSPost2010PropOp34
 70
     1
102
RTVSPost2010Prop35
280
     0
102
RTVSPost2010PropOp35
 70
     1
102
RTVSPost2010Prop36
280
     0
102
RTVSPost2010PropOp36
 70
     1
102
RTVSPost2010Prop37
 90
       50
102
RTVSPost2010PropOp37
 70
     1
102
RTVSPost2010Prop38
140
0.0
102
RTVSPost2010PropOp38
 70
     1
102
RTVSPost2010Prop39
140
1.0
102
RTVSPost2010PropOp39
 70
     1
102
RTVSPost2010Prop40
 90
        0
102
RTVSPost2010PropOp40
 70
     1
102
RTVSPost2010Prop41ColorIndex
 90
       18
102
RTVSPost2010Prop41ColorRGB
 90
        0
102
RTVSPost2010PropOp41
 70
     1
102
RTVSPost2010Prop42
 90
       50
102
RTVSPost2010PropOp42
 70
     1
102
RTVSPost2010Prop43
 90
        3
102
RTVSPost2010PropOp43
 70
     1
102
RTVSPost2010Prop44ColorIndex
 90
        5
102
RTVSPost2010Prop44ColorRGB
 90
      255
102
RTVSPost2010PropOp44
 70
     1
102
RTVSPost2010Prop45
280
     0
102
RTVSPost2010PropOp45
 70
     1
102
RTVSPost2010Prop46
 90
       50
102
RTVSPost2010PropOp46
 70
     1
102
RTVSPost2010Prop47
 90
       50
102
RTVSPost2010PropOp47
 70
     1
102
RTVSPost2010Prop48
 90
       50
102
RTVSPost2010PropOp48
 70
     1
102
RTVSPost2010Prop49
280
     0
102
RTVSPost2010PropOp49
 70
     1
102
RTVSPost2010Prop50
 90
       50
102
RTVSPost2010PropOp50
 70
     1
102
RTVSPost2010Prop51ColorIndex
 90
      256
102
RTVSPost2010Prop51ColorRGB
 90
-16777216
102
RTVSPost2010PropOp51
 70
     0
102
RTVSPost2010Prop52
140
1.0
102
RTVSPost2010PropOp52
 70
     0
102
RTVSPost2010Prop53
 90
        2
102
RTVSPost2010PropOp53
 70
     1
102
RTVSPost2010Prop54
  1
strokes_ogs.tif
102
RTVSPost2010PropOp54
 70
     1
102
RTVSPost2010Prop55
280
     0
102
RTVSPost2010PropOp55
 70
     1
102
RTVSPost2010Prop56
140
1.0
102
RTVSPost2010PropOp56
 70
     1
102
RTVSPost2010Prop57
140
1.0
102
RTVSPost2010PropOp57
 70
     1
  0
XRECORD
  5
555
102
{ACAD_REACTORS
330
554
102
}
330
554
100
AcDbXrecord
280
     1
102
RTVSPropertyOp0
 70
     0
102
RTVSPropertyOp1
 70
     0
102
RTVSPropertyOp2
 70
     0
102
RTVSPropertyOp3
 70
     0
102
RTVSPropertyOp4
 70
     0
102
RTVSPropertyOp5
 70
     0
102
RTVSPropertyOp6
 70
     0
102
RTVSPropertyOp7
 70
     0
102
RTVSPropertyOp8
 70
     0
102
RTVSPropertyOp9
 70
     0
102
RTVSPropertyOp10
 70
     0
102
RTVSPropertyOp11
 70
     0
102
RTVSPropertyOp12
 70
     0
102
RTVSPropertyOp13
 70
     0
102
RTVSPropertyOp14
 70
     2
102
RTVSPropertyOp15
 70
     0
102
RTVSPropertyOp16
 70
     0
102
RTVSPropertyOp17
 70
     0
102
RTVSPropertyOp18
 70
     0
102
RTVSPropertyOp19
 70
     0
102
RTVSPropertyOp20
 70
     0
102
RTVSPropertyOp21
 70
     0
102
RTVSPropertyOp22
 70
     0
102
RTVSPropertyOp23
 70
     0
102
RTVSPropertyOp24
 70
     0
102
RTVSPropertyOp25
 70
     0
102
RTVSPropertyOp26
 70
     0
102
RTVSPropertyOp27
 70
     0
102
RTVSPropertyOp28
 70
     0
102
RTVSPropertyOp29
 70
     0
102
RTVSPropertyOp30
 70
     0
102
RTVSPropertyOp31
 70
     0
102
RTVSPropertyOp32
 70
     0
102
RTVSPropertyOp33
 70
     0
102
RTVSPropertyOp34
 70
     0
102
RTVSPropertyOp35
 70
     0
102
RTVSPropertyOp36
 70
     0
102
RTVSPropertyOp37
 70
     0
102
RTVSPropertyOp38
 70
     0
102
RTVSPropertyOp39
 70
     0
102
RTVSPropertyOp40
 70
     0
102
RTVSPropertyOp41
 70
     0
102
RTVSPropertyOp42
 70
     0
102
RTVSPropertyOp43
 70
     0
102
RTVSPropertyOp44
 70
     0
102
RTVSPropertyOp45
 70
     0
102
RTVSPropertyOp46
 70
     0
102
RTVSPropertyOp47
 70
     0
102
RTVSPropertyOp48
 70
     0
102
RTVSPropertyOp49
 70
     0
102
RTVSPropertyOp50
 70
     0
102
RTVSPropertyOp51
 70
     0
102
RTVSPropertyOp52
 70
     0
102
RTVSPropertyOp53
 70
     0
102
RTVSPropertyOp54
 70
     0
102
RTVSPropertyOp55
 70
     0
102
RTVSPropertyOp56
 70
     0
102
RTVSPropertyOp57
 70
     0
102
RTVSPost2010Prop28
280
     0
102
RTVSPost2010PropOp28
 70
     0
102
RTVSPost2010Prop29
280
     1
102
RTVSPost2010PropOp29
 70
     0
102
RTVSPost2010Prop30
280
     1
102
RTVSPost2010PropOp30
 70
     0
102
RTVSPost2010Prop31
280
     0
102
RTVSPost2010PropOp31
 70
     0
102
RTVSPost2010Prop32
280
     0
102
RTVSPost2010PropOp32
 70
     0
102
RTVSPost2010Prop33
280
     0
102
RTVSPost2010PropOp33
 70
     0
102
RTVSPost2010Prop34
280
     0
102
RTVSPost2010PropOp34
 70
     0
102
RTVSPost2010Prop35
280
     0
102
RTVSPost2010PropOp35
 70
     0
102
RTVSPost2010Prop36
280
     0
102
RTVSPost2010PropOp36
 70
     0
102
RTVSPost2010Prop37
 90
       50
102
RTVSPost2010PropOp37
 70
     0
102
RTVSPost2010Prop38
140
0.0
102
RTVSPost2010PropOp38
 70
     0
102
RTVSPost2010Prop39
140
1.0
102
RTVSPost2010PropOp39
 70
     0
102
RTVSPost2010Prop40
 90
        0
102
RTVSPost2010PropOp40
 70
     0
102
RTVSPost2010Prop41ColorIndex
 90
       18
102
RTVSPost2010Prop41ColorRGB
 90
        0
102
RTVSPost2010PropOp41
 70
     0
102
RTVSPost2010Prop42
 90
       50
102
RTVSPost2010PropOp42
 70
     0
102
RTVSPost2010Prop43
 90
        3
102
RTVSPost2010PropOp43
 70
     0
102
RTVSPost2010Prop44ColorIndex
 90
        5
102
RTVSPost2010Prop44ColorRGB
 90
      255
102
RTVSPost2010PropOp44
 70
     0
102
RTVSPost2010Prop45
280
     0
102
RTVSPost2010PropOp45
 70
     0
102
RTVSPost2010Prop46
 90
       50
102
RTVSPost2010PropOp46
 70
     0
102
RTVSPost2010Prop47
 90
       50
102
RTVSPost2010PropOp47
 70
     0
102
RTVSPost2010Prop48
 90
       50
102
RTVSPost2010PropOp48
 70
     0
102
RTVSPost2010Prop49
280
     0
102
RTVSPost2010PropOp49
 70
     0
102
RTVSPost2010Prop50
 90
       50
102
RTVSPost2010PropOp50
 70
     0
102
RTVSPost2010Prop51ColorIndex
 90
      256
102
RTVSPost2010Prop51ColorRGB
 90
-16777216
102
RTVSPost2010PropOp51
 70
     0
102
RTVSPost2010Prop52
140
1.0
102
RTVSPost2010PropOp52
 70
     0
102
RTVSPost2010Prop53
 90
        2
102
RTVSPost2010PropOp53
 70
     0
102
RTVSPost2010Prop54
  1
strokes_ogs.tif
102
RTVSPost2010PropOp54
 70
     0
102
RTVSPost2010Prop55
280
     0
102
RTVSPost2010PropOp55
 70
     0
102
RTVSPost2010Prop56
140
1.0
102
RTVSPost2010PropOp56
 70
     0
102
RTVSPost2010Prop57
140
1.0
102
RTVSPost2010PropOp57
 70
     0
  0
XRECORD
  5
557
102
{ACAD_REACTORS
330
556
102
}
330
556
100
AcDbXrecord
280
     1
102
RTVSPropertyOp0
 70
     1
102
RTVSPropertyOp1
 70
     1
102
RTVSPropertyOp2
 70
     1
102
RTVSPropertyOp3
 70
     1
102
RTVSPropertyOp4
 70
     1
102
RTVSPropertyOp5
 70
     1
102
RTVSPropertyOp6
 70
     1
102
RTVSPropertyOp7
 70
     1
102
RTVSPropertyOp8
 70
     1
102
RTVSPropertyOp9
 70
     1
102
RTVSPropertyOp10
 70
     1
102
RTVSPropertyOp11
 70
     1
102
RTVSPropertyOp12
 70
     1
102
RTVSPropertyOp13
 70
     1
102
RTVSPropertyOp14
 70
     1
102
RTVSPropertyOp15
 70
     1
102
RTVSPropertyOp16
 70
     1
102
RTVSPropertyOp17
 70
     1
102
RTVSPropertyOp18
 70
     1
102
RTVSPropertyOp19
 70
     1
102
RTVSPropertyOp20
 70
     1
102
RTVSPropertyOp21
 70
     1
102
RTVSPropertyOp22
 70
     1
102
RTVSPropertyOp23
 70
     1
102
RTVSPropertyOp24
 70
     1
102
RTVSPropertyOp25
 70
     1
102
RTVSPropertyOp26
 70
     1
102
RTVSPropertyOp27
 70
     1
102
RTVSPropertyOp28
 70
     1
102
RTVSPropertyOp29
 70
     1
102
RTVSPropertyOp30
 70
     1
102
RTVSPropertyOp31
 70
     1
102
RTVSPropertyOp32
 70
     1
102
RTVSPropertyOp33
 70
     1
102
RTVSPropertyOp34
 70
     1
102
RTVSPropertyOp35
 70
     1
102
RTVSPropertyOp36
 70
     1
102
RTVSPropertyOp37
 70
     1
102
RTVSPropertyOp38
 70
     1
102
RTVSPropertyOp39
 70
     1
102
RTVSPropertyOp40
 70
     1
102
RTVSPropertyOp41
 70
     1
102
RTVSPropertyOp42
 70
     1
102
RTVSPropertyOp43
 70
     1
102
RTVSPropertyOp44
 70
     1
102
RTVSPropertyOp45
 70
     1
102
RTVSPropertyOp46
 70
     1
102
RTVSPropertyOp47
 70
     1
102
RTVSPropertyOp48
 70
     1
102
RTVSPropertyOp49
 70
     1
102
RTVSPropertyOp50
 70
     1
102
RTVSPropertyOp51
 70
     0
102
RTVSPropertyOp52
 70
     0
102
RTVSPropertyOp53
 70
     1
102
RTVSPropertyOp54
 70
     1
102
RTVSPropertyOp55
 70
     1
102
RTVSPropertyOp56
 70
     1
102
RTVSPropertyOp57
 70
     1
102
RTVSPost2010Prop28
280
     0
102
RTVSPost2010PropOp28
 70
     1
102
RTVSPost2010Prop29
280
     1
102
RTVSPost2010PropOp29
 70
     1
102
RTVSPost2010Prop30
280
     1
102
RTVSPost2010PropOp30
 70
     1
102
RTVSPost2010Prop31
280
     0
102
RTVSPost2010PropOp31
 70
     1
102
RTVSPost2010Prop32
280
     0
102
RTVSPost2010PropOp32
 70
     1
102
RTVSPost2010Prop33
280
     0
102
RTVSPost2010PropOp33
 70
     1
102
RTVSPost2010Prop34
280
     0
102
RTVSPost2010PropOp34
 70
     1
102
RTVSPost2010Prop35
280
     0
102
RTVSPost2010PropOp35
 70
     1
102
RTVSPost2010Prop36
280
     0
102
RTVSPost2010PropOp36
 70
     1
102
RTVSPost2010Prop37
 90
       50
102
RTVSPost2010PropOp37
 70
     1
102
RTVSPost2010Prop38
140
0.0
102
RTVSPost2010PropOp38
 70
     1
102
RTVSPost2010Prop39
140
1.0
102
RTVSPost2010PropOp39
 70
     1
102
RTVSPost2010Prop40
 90
        0
102
RTVSPost2010PropOp40
 70
     1
102
RTVSPost2010Prop41ColorIndex
 90
       18
102
RTVSPost2010Prop41ColorRGB
 90
        0
102
RTVSPost2010PropOp41
 70
     1
102
RTVSPost2010Prop42
 90
       50
102
RTVSPost2010PropOp42
 70
     1
102
RTVSPost2010Prop43
 90
        3
102
RTVSPost2010PropOp43
 70
     1
102
RTVSPost2010Prop44ColorIndex
 90
        5
102
RTVSPost2010Prop44ColorRGB
 90
      255
102
RTVSPost2010PropOp44
 70
     1
102
RTVSPost2010Prop45
280
     0
102
RTVSPost2010PropOp45
 70
     1
102
RTVSPost2010Prop46
 90
       50
102
RTVSPost2010PropOp46
 70
     1
102
RTVSPost2010Prop47
 90
       50
102
RTVSPost2010PropOp47
 70
     1
102
RTVSPost2010Prop48
 90
       50
102
RTVSPost2010PropOp48
 70
     1
102
RTVSPost2010Prop49
280
     0
102
RTVSPost2010PropOp49
 70
     1
102
RTVSPost2010Prop50
 90
       50
102
RTVSPost2010PropOp50
 70
     1
102
RTVSPost2010Prop51ColorIndex
 90
      256
102
RTVSPost2010Prop51ColorRGB
 90
-16777216
102
RTVSPost2010PropOp51
 70
     0
102
RTVSPost2010Prop52
140
1.0
102
RTVSPost2010PropOp52
 70
     0
102
RTVSPost2010Prop53
 90
        2
102
RTVSPost2010PropOp53
 70
     1
102
RTVSPost2010Prop54
  1
strokes_ogs.tif
102
RTVSPost2010PropOp54
 70
     1
102
RTVSPost2010Prop55
280
     0
102
RTVSPost2010PropOp55
 70
     1
102
RTVSPost2010Prop56
140
1.0
102
RTVSPost2010PropOp56
 70
     1
102
RTVSPost2010Prop57
140
1.0
102
RTVSPost2010PropOp57
 70
     1
  0
XRECORD
  5
559
102
{ACAD_REACTORS
330
558
102
}
330
558
100
AcDbXrecord
280
     1
102
RTVSPropertyOp0
 70
     1
102
RTVSPropertyOp1
 70
     1
102
RTVSPropertyOp2
 70
     1
102
RTVSPropertyOp3
 70
     1
102
RTVSPropertyOp4
 70
     1
102
RTVSPropertyOp5
 70
     1
102
RTVSPropertyOp6
 70
     1
102
RTVSPropertyOp7
 70
     1
102
RTVSPropertyOp8
 70
     1
102
RTVSPropertyOp9
 70
     1
102
RTVSPropertyOp10
 70
     1
102
RTVSPropertyOp11
 70
     1
102
RTVSPropertyOp12
 70
     1
102
RTVSPropertyOp13
 70
     1
102
RTVSPropertyOp14
 70
     1
102
RTVSPropertyOp15
 70
     1
102
RTVSPropertyOp16
 70
     1
102
RTVSPropertyOp17
 70
     1
102
RTVSPropertyOp18
 70
     1
102
RTVSPropertyOp19
 70
     1
102
RTVSPropertyOp20
 70
     1
102
RTVSPropertyOp21
 70
     1
102
RTVSPropertyOp22
 70
     1
102
RTVSPropertyOp23
 70
     1
102
RTVSPropertyOp24
 70
     1
102
RTVSPropertyOp25
 70
     1
102
RTVSPropertyOp26
 70
     1
102
RTVSPropertyOp27
 70
     1
102
RTVSPropertyOp28
 70
     1
102
RTVSPropertyOp29
 70
     1
102
RTVSPropertyOp30
 70
     1
102
RTVSPropertyOp31
 70
     1
102
RTVSPropertyOp32
 70
     1
102
RTVSPropertyOp33
 70
     1
102
RTVSPropertyOp34
 70
     1
102
RTVSPropertyOp35
 70
     1
102
RTVSPropertyOp36
 70
     1
102
RTVSPropertyOp37
 70
     1
102
RTVSPropertyOp38
 70
     1
102
RTVSPropertyOp39
 70
     1
102
RTVSPropertyOp40
 70
     1
102
RTVSPropertyOp41
 70
     1
102
RTVSPropertyOp42
 70
     1
102
RTVSPropertyOp43
 70
     1
102
RTVSPropertyOp44
 70
     1
102
RTVSPropertyOp45
 70
     1
102
RTVSPropertyOp46
 70
     1
102
RTVSPropertyOp47
 70
     1
102
RTVSPropertyOp48
 70
     1
102
RTVSPropertyOp49
 70
     1
102
RTVSPropertyOp50
 70
     1
102
RTVSPropertyOp51
 70
     0
102
RTVSPropertyOp52
 70
     0
102
RTVSPropertyOp53
 70
     1
102
RTVSPropertyOp54
 70
     1
102
RTVSPropertyOp55
 70
     1
102
RTVSPropertyOp56
 70
     1
102
RTVSPropertyOp57
 70
     1
102
RTVSPost2010Prop28
280
     0
102
RTVSPost2010PropOp28
 70
     1
102
RTVSPost2010Prop29
280
     1
102
RTVSPost2010PropOp29
 70
     1
102
RTVSPost2010Prop30
280
     1
102
RTVSPost2010PropOp30
 70
     1
102
RTVSPost2010Prop31
280
     0
102
RTVSPost2010PropOp31
 70
     1
102
RTVSPost2010Prop32
280
     0
102
RTVSPost2010PropOp32
 70
     1
102
RTVSPost2010Prop33
280
     0
102
RTVSPost2010PropOp33
 70
     1
102
RTVSPost2010Prop34
280
     0
102
RTVSPost2010PropOp34
 70
     1
102
RTVSPost2010Prop35
280
     0
102
RTVSPost2010PropOp35
 70
     1
102
RTVSPost2010Prop36
280
     0
102
RTVSPost2010PropOp36
 70
     1
102
RTVSPost2010Prop37
 90
       50
102
RTVSPost2010PropOp37
 70
     1
102
RTVSPost2010Prop38
140
0.0
102
RTVSPost2010PropOp38
 70
     1
102
RTVSPost2010Prop39
140
1.0
102
RTVSPost2010PropOp39
 70
     1
102
RTVSPost2010Prop40
 90
        0
102
RTVSPost2010PropOp40
 70
     1
102
RTVSPost2010Prop41ColorIndex
 90
       18
102
RTVSPost2010Prop41ColorRGB
 90
        0
102
RTVSPost2010PropOp41
 70
     1
102
RTVSPost2010Prop42
 90
       50
102
RTVSPost2010PropOp42
 70
     1
102
RTVSPost2010Prop43
 90
        3
102
RTVSPost2010PropOp43
 70
     1
102
RTVSPost2010Prop44ColorIndex
 90
        5
102
RTVSPost2010Prop44ColorRGB
 90
      255
102
RTVSPost2010PropOp44
 70
     1
102
RTVSPost2010Prop45
280
     0
102
RTVSPost2010PropOp45
 70
     1
102
RTVSPost2010Prop46
 90
       50
102
RTVSPost2010PropOp46
 70
     1
102
RTVSPost2010Prop47
 90
       50
102
RTVSPost2010PropOp47
 70
     1
102
RTVSPost2010Prop48
 90
       50
102
RTVSPost2010PropOp48
 70
     1
102
RTVSPost2010Prop49
280
     0
102
RTVSPost2010PropOp49
 70
     1
102
RTVSPost2010Prop50
 90
       50
102
RTVSPost2010PropOp50
 70
     1
102
RTVSPost2010Prop51ColorIndex
 90
      256
102
RTVSPost2010Prop51ColorRGB
 90
-16777216
102
RTVSPost2010PropOp51
 70
     0
102
RTVSPost2010Prop52
140
1.0
102
RTVSPost2010PropOp52
 70
     0
102
RTVSPost2010Prop53
 90
        2
102
RTVSPost2010PropOp53
 70
     1
102
RTVSPost2010Prop54
  1
strokes_ogs.tif
102
RTVSPost2010PropOp54
 70
     1
102
RTVSPost2010Prop55
280
     0
102
RTVSPost2010PropOp55
 70
     1
102
RTVSPost2010Prop56
140
1.0
102
RTVSPost2010PropOp56
 70
     1
102
RTVSPost2010Prop57
140
1.0
102
RTVSPost2010PropOp57
 70
     1
  0
XRECORD
  5
55B
102
{ACAD_REACTORS
330
55A
102
}
330
55A
100
AcDbXrecord
280
     1
102
RTVSPropertyOp0
 70
     1
102
RTVSPropertyOp1
 70
     1
102
RTVSPropertyOp2
 70
     1
102
RTVSPropertyOp3
 70
     1
102
RTVSPropertyOp4
 70
     1
102
RTVSPropertyOp5
 70
     1
102
RTVSPropertyOp6
 70
     1
102
RTVSPropertyOp7
 70
     1
102
RTVSPropertyOp8
 70
     1
102
RTVSPropertyOp9
 70
     1
102
RTVSPropertyOp10
 70
     1
102
RTVSPropertyOp11
 70
     1
102
RTVSPropertyOp12
 70
     1
102
RTVSPropertyOp13
 70
     1
102
RTVSPropertyOp14
 70
     1
102
RTVSPropertyOp15
 70
     1
102
RTVSPropertyOp16
 70
     1
102
RTVSPropertyOp17
 70
     1
102
RTVSPropertyOp18
 70
     1
102
RTVSPropertyOp19
 70
     1
102
RTVSPropertyOp20
 70
     1
102
RTVSPropertyOp21
 70
     1
102
RTVSPropertyOp22
 70
     1
102
RTVSPropertyOp23
 70
     1
102
RTVSPropertyOp24
 70
     1
102
RTVSPropertyOp25
 70
     1
102
RTVSPropertyOp26
 70
     1
102
RTVSPropertyOp27
 70
     1
102
RTVSPropertyOp28
 70
     1
102
RTVSPropertyOp29
 70
     1
102
RTVSPropertyOp30
 70
     1
102
RTVSPropertyOp31
 70
     1
102
RTVSPropertyOp32
 70
     1
102
RTVSPropertyOp33
 70
     1
102
RTVSPropertyOp34
 70
     1
102
RTVSPropertyOp35
 70
     1
102
RTVSPropertyOp36
 70
     1
102
RTVSPropertyOp37
 70
     1
102
RTVSPropertyOp38
 70
     1
102
RTVSPropertyOp39
 70
     1
102
RTVSPropertyOp40
 70
     1
102
RTVSPropertyOp41
 70
     1
102
RTVSPropertyOp42
 70
     1
102
RTVSPropertyOp43
 70
     1
102
RTVSPropertyOp44
 70
     1
102
RTVSPropertyOp45
 70
     1
102
RTVSPropertyOp46
 70
     1
102
RTVSPropertyOp47
 70
     1
102
RTVSPropertyOp48
 70
     1
102
RTVSPropertyOp49
 70
     1
102
RTVSPropertyOp50
 70
     1
102
RTVSPropertyOp51
 70
     0
102
RTVSPropertyOp52
 70
     0
102
RTVSPropertyOp53
 70
     1
102
RTVSPropertyOp54
 70
     1
102
RTVSPropertyOp55
 70
     1
102
RTVSPropertyOp56
 70
     1
102
RTVSPropertyOp57
 70
     1
102
RTVSPost2010Prop28
280
     0
102
RTVSPost2010PropOp28
 70
     1
102
RTVSPost2010Prop29
280
     1
102
RTVSPost2010PropOp29
 70
     1
102
RTVSPost2010Prop30
280
     1
102
RTVSPost2010PropOp30
 70
     1
102
RTVSPost2010Prop31
280
     0
102
RTVSPost2010PropOp31
 70
     1
102
RTVSPost2010Prop32
280
     0
102
RTVSPost2010PropOp32
 70
     1
102
RTVSPost2010Prop33
280
     0
102
RTVSPost2010PropOp33
 70
     1
102
RTVSPost2010Prop34
280
     0
102
RTVSPost2010PropOp34
 70
     1
102
RTVSPost2010Prop35
280
     0
102
RTVSPost2010PropOp35
 70
     1
102
RTVSPost2010Prop36
280
     0
102
RTVSPost2010PropOp36
 70
     1
102
RTVSPost2010Prop37
 90
       50
102
RTVSPost2010PropOp37
 70
     1
102
RTVSPost2010Prop38
140
0.0
102
RTVSPost2010PropOp38
 70
     1
102
RTVSPost2010Prop39
140
1.0
102
RTVSPost2010PropOp39
 70
     1
102
RTVSPost2010Prop40
 90
        0
102
RTVSPost2010PropOp40
 70
     1
102
RTVSPost2010Prop41ColorIndex
 90
       18
102
RTVSPost2010Prop41ColorRGB
 90
        0
102
RTVSPost2010PropOp41
 70
     1
102
RTVSPost2010Prop42
 90
       50
102
RTVSPost2010PropOp42
 70
     1
102
RTVSPost2010Prop43
 90
        3
102
RTVSPost2010PropOp43
 70
     1
102
RTVSPost2010Prop44ColorIndex
 90
        5
102
RTVSPost2010Prop44ColorRGB
 90
      255
102
RTVSPost2010PropOp44
 70
     1
102
RTVSPost2010Prop45
280
     0
102
RTVSPost2010PropOp45
 70
     1
102
RTVSPost2010Prop46
 90
       50
102
RTVSPost2010PropOp46
 70
     1
102
RTVSPost2010Prop47
 90
       50
102
RTVSPost2010PropOp47
 70
     1
102
RTVSPost2010Prop48
 90
       50
102
RTVSPost2010PropOp48
 70
     1
102
RTVSPost2010Prop49
280
     0
102
RTVSPost2010PropOp49
 70
     1
102
RTVSPost2010Prop50
 90
       50
102
RTVSPost2010PropOp50
 70
     1
102
RTVSPost2010Prop51ColorIndex
 90
      256
102
RTVSPost2010Prop51ColorRGB
 90
-16777216
102
RTVSPost2010PropOp51
 70
     0
102
RTVSPost2010Prop52
140
1.0
102
RTVSPost2010PropOp52
 70
     0
102
RTVSPost2010Prop53
 90
        2
102
RTVSPost2010PropOp53
 70
     1
102
RTVSPost2010Prop54
  1
strokes_ogs.tif
102
RTVSPost2010PropOp54
 70
     1
102
RTVSPost2010Prop55
280
     0
102
RTVSPost2010PropOp55
 70
     1
102
RTVSPost2010Prop56
140
1.0
102
RTVSPost2010PropOp56
 70
     1
102
RTVSPost2010Prop57
140
1.0
102
RTVSPost2010PropOp57
 70
     1
  0
XRECORD
  5
55D
102
{ACAD_REACTORS
330
55C
102
}
330
55C
100
AcDbXrecord
280
     1
102
RTVSPropertyOp0
 70
     1
102
RTVSPropertyOp1
 70
     1
102
RTVSPropertyOp2
 70
     1
102
RTVSPropertyOp3
 70
     1
102
RTVSPropertyOp4
 70
     1
102
RTVSPropertyOp5
 70
     1
102
RTVSPropertyOp6
 70
     1
102
RTVSPropertyOp7
 70
     1
102
RTVSPropertyOp8
 70
     1
102
RTVSPropertyOp9
 70
     1
102
RTVSPropertyOp10
 70
     1
102
RTVSPropertyOp11
 70
     1
102
RTVSPropertyOp12
 70
     1
102
RTVSPropertyOp13
 70
     1
102
RTVSPropertyOp14
 70
     1
102
RTVSPropertyOp15
 70
     1
102
RTVSPropertyOp16
 70
     1
102
RTVSPropertyOp17
 70
     1
102
RTVSPropertyOp18
 70
     1
102
RTVSPropertyOp19
 70
     1
102
RTVSPropertyOp20
 70
     1
102
RTVSPropertyOp21
 70
     1
102
RTVSPropertyOp22
 70
     1
102
RTVSPropertyOp23
 70
     1
102
RTVSPropertyOp24
 70
     1
102
RTVSPropertyOp25
 70
     1
102
RTVSPropertyOp26
 70
     1
102
RTVSPropertyOp27
 70
     1
102
RTVSPropertyOp28
 70
     1
102
RTVSPropertyOp29
 70
     1
102
RTVSPropertyOp30
 70
     1
102
RTVSPropertyOp31
 70
     1
102
RTVSPropertyOp32
 70
     1
102
RTVSPropertyOp33
 70
     1
102
RTVSPropertyOp34
 70
     1
102
RTVSPropertyOp35
 70
     1
102
RTVSPropertyOp36
 70
     1
102
RTVSPropertyOp37
 70
     1
102
RTVSPropertyOp38
 70
     1
102
RTVSPropertyOp39
 70
     1
102
RTVSPropertyOp40
 70
     1
102
RTVSPropertyOp41
 70
     1
102
RTVSPropertyOp42
 70
     1
102
RTVSPropertyOp43
 70
     1
102
RTVSPropertyOp44
 70
     1
102
RTVSPropertyOp45
 70
     1
102
RTVSPropertyOp46
 70
     1
102
RTVSPropertyOp47
 70
     1
102
RTVSPropertyOp48
 70
     1
102
RTVSPropertyOp49
 70
     1
102
RTVSPropertyOp50
 70
     1
102
RTVSPropertyOp51
 70
     0
102
RTVSPropertyOp52
 70
     0
102
RTVSPropertyOp53
 70
     1
102
RTVSPropertyOp54
 70
     1
102
RTVSPropertyOp55
 70
     1
102
RTVSPropertyOp56
 70
     1
102
RTVSPropertyOp57
 70
     1
102
RTVSPost2010Prop28
280
     0
102
RTVSPost2010PropOp28
 70
     1
102
RTVSPost2010Prop29
280
     1
102
RTVSPost2010PropOp29
 70
     1
102
RTVSPost2010Prop30
280
     1
102
RTVSPost2010PropOp30
 70
     1
102
RTVSPost2010Prop31
280
     0
102
RTVSPost2010PropOp31
 70
     1
102
RTVSPost2010Prop32
280
     0
102
RTVSPost2010PropOp32
 70
     1
102
RTVSPost2010Prop33
280
     0
102
RTVSPost2010PropOp33
 70
     1
102
RTVSPost2010Prop34
280
     0
102
RTVSPost2010PropOp34
 70
     1
102
RTVSPost2010Prop35
280
     0
102
RTVSPost2010PropOp35
 70
     1
102
RTVSPost2010Prop36
280
     0
102
RTVSPost2010PropOp36
 70
     1
102
RTVSPost2010Prop37
 90
       50
102
RTVSPost2010PropOp37
 70
     1
102
RTVSPost2010Prop38
140
0.0
102
RTVSPost2010PropOp38
 70
     1
102
RTVSPost2010Prop39
140
1.0
102
RTVSPost2010PropOp39
 70
     1
102
RTVSPost2010Prop40
 90
        0
102
RTVSPost2010PropOp40
 70
     1
102
RTVSPost2010Prop41ColorIndex
 90
       18
102
RTVSPost2010Prop41ColorRGB
 90
        0
102
RTVSPost2010PropOp41
 70
     1
102
RTVSPost2010Prop42
 90
       50
102
RTVSPost2010PropOp42
 70
     1
102
RTVSPost2010Prop43
 90
        3
102
RTVSPost2010PropOp43
 70
     1
102
RTVSPost2010Prop44ColorIndex
 90
        5
102
RTVSPost2010Prop44ColorRGB
 90
      255
102
RTVSPost2010PropOp44
 70
     1
102
RTVSPost2010Prop45
280
     0
102
RTVSPost2010PropOp45
 70
     1
102
RTVSPost2010Prop46
 90
       50
102
RTVSPost2010PropOp46
 70
     1
102
RTVSPost2010Prop47
 90
       50
102
RTVSPost2010PropOp47
 70
     1
102
RTVSPost2010Prop48
 90
       50
102
RTVSPost2010PropOp48
 70
     1
102
RTVSPost2010Prop49
280
     0
102
RTVSPost2010PropOp49
 70
     1
102
RTVSPost2010Prop50
 90
       50
102
RTVSPost2010PropOp50
 70
     1
102
RTVSPost2010Prop51ColorIndex
 90
      256
102
RTVSPost2010Prop51ColorRGB
 90
-16777216
102
RTVSPost2010PropOp51
 70
     0
102
RTVSPost2010Prop52
140
1.0
102
RTVSPost2010PropOp52
 70
     0
102
RTVSPost2010Prop53
 90
        2
102
RTVSPost2010PropOp53
 70
     1
102
RTVSPost2010Prop54
  1
strokes_ogs.tif
102
RTVSPost2010PropOp54
 70
     1
102
RTVSPost2010Prop55
280
     0
102
RTVSPost2010PropOp55
 70
     1
102
RTVSPost2010Prop56
140
1.0
102
RTVSPost2010PropOp56
 70
     1
102
RTVSPost2010Prop57
140
1.0
102
RTVSPost2010PropOp57
 70
     1
  0
XRECORD
  5
55F
102
{ACAD_REACTORS
330
55E
102
}
330
55E
100
AcDbXrecord
280
     1
102
RTVSPropertyOp0
 70
     1
102
RTVSPropertyOp1
 70
     1
102
RTVSPropertyOp2
 70
     1
102
RTVSPropertyOp3
 70
     1
102
RTVSPropertyOp4
 70
     1
102
RTVSPropertyOp5
 70
     1
102
RTVSPropertyOp6
 70
     1
102
RTVSPropertyOp7
 70
     1
102
RTVSPropertyOp8
 70
     1
102
RTVSPropertyOp9
 70
     1
102
RTVSPropertyOp10
 70
     1
102
RTVSPropertyOp11
 70
     1
102
RTVSPropertyOp12
 70
     1
102
RTVSPropertyOp13
 70
     1
102
RTVSPropertyOp14
 70
     1
102
RTVSPropertyOp15
 70
     1
102
RTVSPropertyOp16
 70
     1
102
RTVSPropertyOp17
 70
     1
102
RTVSPropertyOp18
 70
     1
102
RTVSPropertyOp19
 70
     1
102
RTVSPropertyOp20
 70
     1
102
RTVSPropertyOp21
 70
     1
102
RTVSPropertyOp22
 70
     1
102
RTVSPropertyOp23
 70
     1
102
RTVSPropertyOp24
 70
     1
102
RTVSPropertyOp25
 70
     1
102
RTVSPropertyOp26
 70
     1
102
RTVSPropertyOp27
 70
     1
102
RTVSPropertyOp28
 70
     1
102
RTVSPropertyOp29
 70
     1
102
RTVSPropertyOp30
 70
     1
102
RTVSPropertyOp31
 70
     1
102
RTVSPropertyOp32
 70
     1
102
RTVSPropertyOp33
 70
     1
102
RTVSPropertyOp34
 70
     1
102
RTVSPropertyOp35
 70
     1
102
RTVSPropertyOp36
 70
     1
102
RTVSPropertyOp37
 70
     1
102
RTVSPropertyOp38
 70
     1
102
RTVSPropertyOp39
 70
     1
102
RTVSPropertyOp40
 70
     1
102
RTVSPropertyOp41
 70
     1
102
RTVSPropertyOp42
 70
     1
102
RTVSPropertyOp43
 70
     1
102
RTVSPropertyOp44
 70
     1
102
RTVSPropertyOp45
 70
     1
102
RTVSPropertyOp46
 70
     1
102
RTVSPropertyOp47
 70
     1
102
RTVSPropertyOp48
 70
     1
102
RTVSPropertyOp49
 70
     1
102
RTVSPropertyOp50
 70
     1
102
RTVSPropertyOp51
 70
     0
102
RTVSPropertyOp52
 70
     0
102
RTVSPropertyOp53
 70
     1
102
RTVSPropertyOp54
 70
     1
102
RTVSPropertyOp55
 70
     1
102
RTVSPropertyOp56
 70
     1
102
RTVSPropertyOp57
 70
     1
102
RTVSPost2010Prop28
280
     0
102
RTVSPost2010PropOp28
 70
     1
102
RTVSPost2010Prop29
280
     1
102
RTVSPost2010PropOp29
 70
     1
102
RTVSPost2010Prop30
280
     1
102
RTVSPost2010PropOp30
 70
     1
102
RTVSPost2010Prop31
280
     0
102
RTVSPost2010PropOp31
 70
     1
102
RTVSPost2010Prop32
280
     0
102
RTVSPost2010PropOp32
 70
     1
102
RTVSPost2010Prop33
280
     0
102
RTVSPost2010PropOp33
 70
     1
102
RTVSPost2010Prop34
280
     0
102
RTVSPost2010PropOp34
 70
     1
102
RTVSPost2010Prop35
280
     0
102
RTVSPost2010PropOp35
 70
     1
102
RTVSPost2010Prop36
280
     0
102
RTVSPost2010PropOp36
 70
     1
102
RTVSPost2010Prop37
 90
       50
102
RTVSPost2010PropOp37
 70
     1
102
RTVSPost2010Prop38
140
0.0
102
RTVSPost2010PropOp38
 70
     1
102
RTVSPost2010Prop39
140
1.0
102
RTVSPost2010PropOp39
 70
     1
102
RTVSPost2010Prop40
 90
        0
102
RTVSPost2010PropOp40
 70
     1
102
RTVSPost2010Prop41ColorIndex
 90
       18
102
RTVSPost2010Prop41ColorRGB
 90
        0
102
RTVSPost2010PropOp41
 70
     1
102
RTVSPost2010Prop42
 90
       50
102
RTVSPost2010PropOp42
 70
     1
102
RTVSPost2010Prop43
 90
        3
102
RTVSPost2010PropOp43
 70
     1
102
RTVSPost2010Prop44ColorIndex
 90
        5
102
RTVSPost2010Prop44ColorRGB
 90
      255
102
RTVSPost2010PropOp44
 70
     1
102
RTVSPost2010Prop45
280
     0
102
RTVSPost2010PropOp45
 70
     1
102
RTVSPost2010Prop46
 90
       50
102
RTVSPost2010PropOp46
 70
     1
102
RTVSPost2010Prop47
 90
       50
102
RTVSPost2010PropOp47
 70
     1
102
RTVSPost2010Prop48
 90
       50
102
RTVSPost2010PropOp48
 70
     1
102
RTVSPost2010Prop49
280
     0
102
RTVSPost2010PropOp49
 70
     1
102
RTVSPost2010Prop50
 90
       50
102
RTVSPost2010PropOp50
 70
     1
102
RTVSPost2010Prop51ColorIndex
 90
      256
102
RTVSPost2010Prop51ColorRGB
 90
-16777216
102
RTVSPost2010PropOp51
 70
     0
102
RTVSPost2010Prop52
140
1.0
102
RTVSPost2010PropOp52
 70
     0
102
RTVSPost2010Prop53
 90
        2
102
RTVSPost2010PropOp53
 70
     1
102
RTVSPost2010Prop54
  1
strokes_ogs.tif
102
RTVSPost2010PropOp54
 70
     1
102
RTVSPost2010Prop55
280
     0
102
RTVSPost2010PropOp55
 70
     1
102
RTVSPost2010Prop56
140
1.0
102
RTVSPost2010PropOp56
 70
     1
102
RTVSPost2010Prop57
140
1.0
102
RTVSPost2010PropOp57
 70
     1
  0
XRECORD
  5
561
102
{ACAD_REACTORS
330
560
102
}
330
560
100
AcDbXrecord
280
     1
102
RTVSPropertyOp0
 70
     1
102
RTVSPropertyOp1
 70
     1
102
RTVSPropertyOp2
 70
     1
102
RTVSPropertyOp3
 70
     1
102
RTVSPropertyOp4
 70
     1
102
RTVSPropertyOp5
 70
     1
102
RTVSPropertyOp6
 70
     1
102
RTVSPropertyOp7
 70
     1
102
RTVSPropertyOp8
 70
     1
102
RTVSPropertyOp9
 70
     1
102
RTVSPropertyOp10
 70
     1
102
RTVSPropertyOp11
 70
     1
102
RTVSPropertyOp12
 70
     1
102
RTVSPropertyOp13
 70
     1
102
RTVSPropertyOp14
 70
     1
102
RTVSPropertyOp15
 70
     1
102
RTVSPropertyOp16
 70
     1
102
RTVSPropertyOp17
 70
     1
102
RTVSPropertyOp18
 70
     1
102
RTVSPropertyOp19
 70
     1
102
RTVSPropertyOp20
 70
     1
102
RTVSPropertyOp21
 70
     1
102
RTVSPropertyOp22
 70
     1
102
RTVSPropertyOp23
 70
     1
102
RTVSPropertyOp24
 70
     1
102
RTVSPropertyOp25
 70
     1
102
RTVSPropertyOp26
 70
     1
102
RTVSPropertyOp27
 70
     1
102
RTVSPropertyOp28
 70
     1
102
RTVSPropertyOp29
 70
     1
102
RTVSPropertyOp30
 70
     1
102
RTVSPropertyOp31
 70
     1
102
RTVSPropertyOp32
 70
     1
102
RTVSPropertyOp33
 70
     1
102
RTVSPropertyOp34
 70
     1
102
RTVSPropertyOp35
 70
     1
102
RTVSPropertyOp36
 70
     1
102
RTVSPropertyOp37
 70
     1
102
RTVSPropertyOp38
 70
     1
102
RTVSPropertyOp39
 70
     1
102
RTVSPropertyOp40
 70
     1
102
RTVSPropertyOp41
 70
     1
102
RTVSPropertyOp42
 70
     1
102
RTVSPropertyOp43
 70
     1
102
RTVSPropertyOp44
 70
     1
102
RTVSPropertyOp45
 70
     1
102
RTVSPropertyOp46
 70
     1
102
RTVSPropertyOp47
 70
     1
102
RTVSPropertyOp48
 70
     1
102
RTVSPropertyOp49
 70
     1
102
RTVSPropertyOp50
 70
     1
102
RTVSPropertyOp51
 70
     0
102
RTVSPropertyOp52
 70
     0
102
RTVSPropertyOp53
 70
     1
102
RTVSPropertyOp54
 70
     1
102
RTVSPropertyOp55
 70
     1
102
RTVSPropertyOp56
 70
     1
102
RTVSPropertyOp57
 70
     1
102
RTVSPost2010Prop28
280
     0
102
RTVSPost2010PropOp28
 70
     1
102
RTVSPost2010Prop29
280
     1
102
RTVSPost2010PropOp29
 70
     1
102
RTVSPost2010Prop30
280
     1
102
RTVSPost2010PropOp30
 70
     1
102
RTVSPost2010Prop31
280
     0
102
RTVSPost2010PropOp31
 70
     1
102
RTVSPost2010Prop32
280
     0
102
RTVSPost2010PropOp32
 70
     1
102
RTVSPost2010Prop33
280
     0
102
RTVSPost2010PropOp33
 70
     1
102
RTVSPost2010Prop34
280
     0
102
RTVSPost2010PropOp34
 70
     1
102
RTVSPost2010Prop35
280
     0
102
RTVSPost2010PropOp35
 70
     1
102
RTVSPost2010Prop36
280
     0
102
RTVSPost2010PropOp36
 70
     1
102
RTVSPost2010Prop37
 90
       50
102
RTVSPost2010PropOp37
 70
     1
102
RTVSPost2010Prop38
140
0.0
102
RTVSPost2010PropOp38
 70
     1
102
RTVSPost2010Prop39
140
1.0
102
RTVSPost2010PropOp39
 70
     1
102
RTVSPost2010Prop40
 90
        0
102
RTVSPost2010PropOp40
 70
     1
102
RTVSPost2010Prop41ColorIndex
 90
       18
102
RTVSPost2010Prop41ColorRGB
 90
        0
102
RTVSPost2010PropOp41
 70
     1
102
RTVSPost2010Prop42
 90
       50
102
RTVSPost2010PropOp42
 70
     1
102
RTVSPost2010Prop43
 90
        3
102
RTVSPost2010PropOp43
 70
     1
102
RTVSPost2010Prop44ColorIndex
 90
        5
102
RTVSPost2010Prop44ColorRGB
 90
      255
102
RTVSPost2010PropOp44
 70
     1
102
RTVSPost2010Prop45
280
     0
102
RTVSPost2010PropOp45
 70
     1
102
RTVSPost2010Prop46
 90
       50
102
RTVSPost2010PropOp46
 70
     1
102
RTVSPost2010Prop47
 90
       50
102
RTVSPost2010PropOp47
 70
     1
102
RTVSPost2010Prop48
 90
       50
102
RTVSPost2010PropOp48
 70
     1
102
RTVSPost2010Prop49
280
     0
102
RTVSPost2010PropOp49
 70
     1
102
RTVSPost2010Prop50
 90
       50
102
RTVSPost2010PropOp50
 70
     1
102
RTVSPost2010Prop51ColorIndex
 90
      256
102
RTVSPost2010Prop51ColorRGB
 90
-16777216
102
RTVSPost2010PropOp51
 70
     0
102
RTVSPost2010Prop52
140
1.0
102
RTVSPost2010PropOp52
 70
     0
102
RTVSPost2010Prop53
 90
        2
102
RTVSPost2010PropOp53
 70
     1
102
RTVSPost2010Prop54
  1
strokes_ogs.tif
102
RTVSPost2010PropOp54
 70
     1
102
RTVSPost2010Prop55
280
     0
102
RTVSPost2010PropOp55
 70
     1
102
RTVSPost2010Prop56
140
1.0
102
RTVSPost2010PropOp56
 70
     1
102
RTVSPost2010Prop57
140
1.0
102
RTVSPost2010PropOp57
 70
     1
  0
XRECORD
  5
563
102
{ACAD_REACTORS
330
562
102
}
330
562
100
AcDbXrecord
280
     1
102
RTVSPropertyOp0
 70
     1
102
RTVSPropertyOp1
 70
     1
102
RTVSPropertyOp2
 70
     1
102
RTVSPropertyOp3
 70
     1
102
RTVSPropertyOp4
 70
     1
102
RTVSPropertyOp5
 70
     1
102
RTVSPropertyOp6
 70
     1
102
RTVSPropertyOp7
 70
     1
102
RTVSPropertyOp8
 70
     1
102
RTVSPropertyOp9
 70
     1
102
RTVSPropertyOp10
 70
     1
102
RTVSPropertyOp11
 70
     1
102
RTVSPropertyOp12
 70
     1
102
RTVSPropertyOp13
 70
     1
102
RTVSPropertyOp14
 70
     1
102
RTVSPropertyOp15
 70
     1
102
RTVSPropertyOp16
 70
     1
102
RTVSPropertyOp17
 70
     1
102
RTVSPropertyOp18
 70
     1
102
RTVSPropertyOp19
 70
     1
102
RTVSPropertyOp20
 70
     1
102
RTVSPropertyOp21
 70
     1
102
RTVSPropertyOp22
 70
     1
102
RTVSPropertyOp23
 70
     1
102
RTVSPropertyOp24
 70
     1
102
RTVSPropertyOp25
 70
     1
102
RTVSPropertyOp26
 70
     1
102
RTVSPropertyOp27
 70
     1
102
RTVSPropertyOp28
 70
     1
102
RTVSPropertyOp29
 70
     1
102
RTVSPropertyOp30
 70
     1
102
RTVSPropertyOp31
 70
     1
102
RTVSPropertyOp32
 70
     1
102
RTVSPropertyOp33
 70
     1
102
RTVSPropertyOp34
 70
     1
102
RTVSPropertyOp35
 70
     1
102
RTVSPropertyOp36
 70
     1
102
RTVSPropertyOp37
 70
     1
102
RTVSPropertyOp38
 70
     1
102
RTVSPropertyOp39
 70
     1
102
RTVSPropertyOp40
 70
     1
102
RTVSPropertyOp41
 70
     1
102
RTVSPropertyOp42
 70
     1
102
RTVSPropertyOp43
 70
     1
102
RTVSPropertyOp44
 70
     1
102
RTVSPropertyOp45
 70
     1
102
RTVSPropertyOp46
 70
     1
102
RTVSPropertyOp47
 70
     1
102
RTVSPropertyOp48
 70
     1
102
RTVSPropertyOp49
 70
     1
102
RTVSPropertyOp50
 70
     1
102
RTVSPropertyOp51
 70
     0
102
RTVSPropertyOp52
 70
     0
102
RTVSPropertyOp53
 70
     1
102
RTVSPropertyOp54
 70
     1
102
RTVSPropertyOp55
 70
     1
102
RTVSPropertyOp56
 70
     1
102
RTVSPropertyOp57
 70
     1
102
RTVSPost2010Prop28
280
     0
102
RTVSPost2010PropOp28
 70
     1
102
RTVSPost2010Prop29
280
     1
102
RTVSPost2010PropOp29
 70
     1
102
RTVSPost2010Prop30
280
     1
102
RTVSPost2010PropOp30
 70
     1
102
RTVSPost2010Prop31
280
     0
102
RTVSPost2010PropOp31
 70
     1
102
RTVSPost2010Prop32
280
     0
102
RTVSPost2010PropOp32
 70
     1
102
RTVSPost2010Prop33
280
     0
102
RTVSPost2010PropOp33
 70
     1
102
RTVSPost2010Prop34
280
     0
102
RTVSPost2010PropOp34
 70
     1
102
RTVSPost2010Prop35
280
     0
102
RTVSPost2010PropOp35
 70
     1
102
RTVSPost2010Prop36
280
     0
102
RTVSPost2010PropOp36
 70
     1
102
RTVSPost2010Prop37
 90
       50
102
RTVSPost2010PropOp37
 70
     1
102
RTVSPost2010Prop38
140
0.0
102
RTVSPost2010PropOp38
 70
     1
102
RTVSPost2010Prop39
140
1.0
102
RTVSPost2010PropOp39
 70
     1
102
RTVSPost2010Prop40
 90
        0
102
RTVSPost2010PropOp40
 70
     1
102
RTVSPost2010Prop41ColorIndex
 90
       18
102
RTVSPost2010Prop41ColorRGB
 90
        0
102
RTVSPost2010PropOp41
 70
     1
102
RTVSPost2010Prop42
 90
       50
102
RTVSPost2010PropOp42
 70
     1
102
RTVSPost2010Prop43
 90
        3
102
RTVSPost2010PropOp43
 70
     1
102
RTVSPost2010Prop44ColorIndex
 90
        5
102
RTVSPost2010Prop44ColorRGB
 90
      255
102
RTVSPost2010PropOp44
 70
     1
102
RTVSPost2010Prop45
280
     0
102
RTVSPost2010PropOp45
 70
     1
102
RTVSPost2010Prop46
 90
       50
102
RTVSPost2010PropOp46
 70
     1
102
RTVSPost2010Prop47
 90
       50
102
RTVSPost2010PropOp47
 70
     1
102
RTVSPost2010Prop48
 90
       50
102
RTVSPost2010PropOp48
 70
     1
102
RTVSPost2010Prop49
280
     0
102
RTVSPost2010PropOp49
 70
     1
102
RTVSPost2010Prop50
 90
       50
102
RTVSPost2010PropOp50
 70
     1
102
RTVSPost2010Prop51ColorIndex
 90
      256
102
RTVSPost2010Prop51ColorRGB
 90
-16777216
102
RTVSPost2010PropOp51
 70
     0
102
RTVSPost2010Prop52
140
1.0
102
RTVSPost2010PropOp52
 70
     0
102
RTVSPost2010Prop53
 90
        2
102
RTVSPost2010PropOp53
 70
     1
102
RTVSPost2010Prop54
  1
strokes_ogs.tif
102
RTVSPost2010PropOp54
 70
     1
102
RTVSPost2010Prop55
280
     0
102
RTVSPost2010PropOp55
 70
     1
102
RTVSPost2010Prop56
140
1.0
102
RTVSPost2010PropOp56
 70
     1
102
RTVSPost2010Prop57
140
1.0
102
RTVSPost2010PropOp57
 70
     1
  0
XRECORD
  5
565
102
{ACAD_REACTORS
330
564
102
}
330
564
100
AcDbXrecord
280
     1
102
RTVSPropertyOp0
 70
     1
102
RTVSPropertyOp1
 70
     1
102
RTVSPropertyOp2
 70
     1
102
RTVSPropertyOp3
 70
     1
102
RTVSPropertyOp4
 70
     1
102
RTVSPropertyOp5
 70
     1
102
RTVSPropertyOp6
 70
     1
102
RTVSPropertyOp7
 70
     1
102
RTVSPropertyOp8
 70
     1
102
RTVSPropertyOp9
 70
     1
102
RTVSPropertyOp10
 70
     1
102
RTVSPropertyOp11
 70
     1
102
RTVSPropertyOp12
 70
     1
102
RTVSPropertyOp13
 70
     1
102
RTVSPropertyOp14
 70
     1
102
RTVSPropertyOp15
 70
     1
102
RTVSPropertyOp16
 70
     1
102
RTVSPropertyOp17
 70
     1
102
RTVSPropertyOp18
 70
     1
102
RTVSPropertyOp19
 70
     1
102
RTVSPropertyOp20
 70
     1
102
RTVSPropertyOp21
 70
     1
102
RTVSPropertyOp22
 70
     1
102
RTVSPropertyOp23
 70
     1
102
RTVSPropertyOp24
 70
     1
102
RTVSPropertyOp25
 70
     1
102
RTVSPropertyOp26
 70
     1
102
RTVSPropertyOp27
 70
     1
102
RTVSPropertyOp28
 70
     1
102
RTVSPropertyOp29
 70
     1
102
RTVSPropertyOp30
 70
     1
102
RTVSPropertyOp31
 70
     1
102
RTVSPropertyOp32
 70
     1
102
RTVSPropertyOp33
 70
     1
102
RTVSPropertyOp34
 70
     1
102
RTVSPropertyOp35
 70
     1
102
RTVSPropertyOp36
 70
     1
102
RTVSPropertyOp37
 70
     1
102
RTVSPropertyOp38
 70
     1
102
RTVSPropertyOp39
 70
     1
102
RTVSPropertyOp40
 70
     1
102
RTVSPropertyOp41
 70
     1
102
RTVSPropertyOp42
 70
     1
102
RTVSPropertyOp43
 70
     1
102
RTVSPropertyOp44
 70
     1
102
RTVSPropertyOp45
 70
     1
102
RTVSPropertyOp46
 70
     1
102
RTVSPropertyOp47
 70
     1
102
RTVSPropertyOp48
 70
     1
102
RTVSPropertyOp49
 70
     1
102
RTVSPropertyOp50
 70
     1
102
RTVSPropertyOp51
 70
     0
102
RTVSPropertyOp52
 70
     0
102
RTVSPropertyOp53
 70
     1
102
RTVSPropertyOp54
 70
     1
102
RTVSPropertyOp55
 70
     1
102
RTVSPropertyOp56
 70
     1
102
RTVSPropertyOp57
 70
     1
102
RTVSPost2010Prop28
280
     0
102
RTVSPost2010PropOp28
 70
     1
102
RTVSPost2010Prop29
280
     1
102
RTVSPost2010PropOp29
 70
     1
102
RTVSPost2010Prop30
280
     1
102
RTVSPost2010PropOp30
 70
     1
102
RTVSPost2010Prop31
280
     0
102
RTVSPost2010PropOp31
 70
     1
102
RTVSPost2010Prop32
280
     0
102
RTVSPost2010PropOp32
 70
     1
102
RTVSPost2010Prop33
280
     0
102
RTVSPost2010PropOp33
 70
     1
102
RTVSPost2010Prop34
280
     0
102
RTVSPost2010PropOp34
 70
     1
102
RTVSPost2010Prop35
280
     0
102
RTVSPost2010PropOp35
 70
     1
102
RTVSPost2010Prop36
280
     0
102
RTVSPost2010PropOp36
 70
     1
102
RTVSPost2010Prop37
 90
       50
102
RTVSPost2010PropOp37
 70
     1
102
RTVSPost2010Prop38
140
0.0
102
RTVSPost2010PropOp38
 70
     1
102
RTVSPost2010Prop39
140
1.0
102
RTVSPost2010PropOp39
 70
     1
102
RTVSPost2010Prop40
 90
        0
102
RTVSPost2010PropOp40
 70
     1
102
RTVSPost2010Prop41ColorIndex
 90
       18
102
RTVSPost2010Prop41ColorRGB
 90
        0
102
RTVSPost2010PropOp41
 70
     1
102
RTVSPost2010Prop42
 90
       50
102
RTVSPost2010PropOp42
 70
     1
102
RTVSPost2010Prop43
 90
        3
102
RTVSPost2010PropOp43
 70
     1
102
RTVSPost2010Prop44ColorIndex
 90
        5
102
RTVSPost2010Prop44ColorRGB
 90
      255
102
RTVSPost2010PropOp44
 70
     1
102
RTVSPost2010Prop45
280
     0
102
RTVSPost2010PropOp45
 70
     1
102
RTVSPost2010Prop46
 90
       50
102
RTVSPost2010PropOp46
 70
     1
102
RTVSPost2010Prop47
 90
       50
102
RTVSPost2010PropOp47
 70
     1
102
RTVSPost2010Prop48
 90
       50
102
RTVSPost2010PropOp48
 70
     1
102
RTVSPost2010Prop49
280
     0
102
RTVSPost2010PropOp49
 70
     1
102
RTVSPost2010Prop50
 90
       50
102
RTVSPost2010PropOp50
 70
     1
102
RTVSPost2010Prop51ColorIndex
 90
      256
102
RTVSPost2010Prop51ColorRGB
 90
-16777216
102
RTVSPost2010PropOp51
 70
     0
102
RTVSPost2010Prop52
140
1.0
102
RTVSPost2010PropOp52
 70
     0
102
RTVSPost2010Prop53
 90
        2
102
RTVSPost2010PropOp53
 70
     1
102
RTVSPost2010Prop54
  1
strokes_ogs.tif
102
RTVSPost2010PropOp54
 70
     1
102
RTVSPost2010Prop55
280
     0
102
RTVSPost2010PropOp55
 70
     1
102
RTVSPost2010Prop56
140
1.0
102
RTVSPost2010PropOp56
 70
     1
102
RTVSPost2010Prop57
140
1.0
102
RTVSPost2010PropOp57
 70
     1
  0
ENDSEC
  0
EOF
