  0
SECTION
  2
HEADER
  9
$ACADVER
  1
AC1015
  9
$ACADMAINTVER
 70
     6
  9
$DWGCODEPAGE
  3
ANSI_1250
  9
$INSBASE
 10
0.0
 20
0.0
 30
0.0
  9
$EXTMIN
 10
0.0
 20
0.0
 30
0.0
  9
$EXTMAX
 10
594.0
 20
420.0
 30
0.0
  9
$LIMMIN
 10
0.0
 20
0.0
  9
$LIMMAX
 10
594.0
 20
420.0
  9
$ORTHOMODE
 70
     0
  9
$REGENMODE
 70
     1
  9
$FILLMODE
 70
     1
  9
$QTEXTMODE
 70
     0
  9
$MIRRTEXT
 70
     1
  9
$LTSCALE
 40
1.0
  9
$ATTMODE
 70
     1
  9
$TEXTSIZE
 40
2.5
  9
$TRACEWID
 40
1.0
  9
$TEXTSTYLE
  7
Standard
  9
$CLAYER
  8
0
  9
$CELTYPE
  6
ByLayer
  9
$CECOLOR
 62
   256
  9
$CELTSCALE
 40
1.0
  9
$DISPSILH
 70
     0
  9
$DIMSCALE
 40
1.0
  9
$DIMASZ
 40
2.5
  9
$DIMEXO
 40
0.625
  9
$DIMDLI
 40
3.75
  9
$DIMRND
 40
0.0
  9
$DIMDLE
 40
0.0
  9
$DIMEXE
 40
1.25
  9
$DIMTP
 40
0.0
  9
$DIMTM
 40
0.0
  9
$DIMTXT
 40
2.5
  9
$DIMCEN
 40
2.5
  9
$DIMTSZ
 40
0.0
  9
$DIMTOL
 70
     0
  9
$DIMLIM
 70
     0
  9
$DIMTIH
 70
     0
  9
$DIMTOH
 70
     0
  9
$DIMSE1
 70
     0
  9
$DIMSE2
 70
     0
  9
$DIMTAD
 70
     1
  9
$DIMZIN
 70
     8
  9
$DIMBLK
  1

  9
$DIMASO
 70
     1
  9
$DIMSHO
 70
     1
  9
$DIMPOST
  1

  9
$DIMAPOST
  1

  9
$DIMALT
 70
     0
  9
$DIMALTD
 70
     3
  9
$DIMALTF
 40
0.03937007874016
  9
$DIMLFAC
 40
1.0
  9
$DIMTOFL
 70
     1
  9
$DIMTVP
 40
0.0
  9
$DIMTIX
 70
     0
  9
$DIMSOXD
 70
     0
  9
$DIMSAH
 70
     0
  9
$DIMBLK1
  1

  9
$DIMBLK2
  1

  9
$DIMSTYLE
  2
ISO-25
  9
$DIMCLRD
 70
     0
  9
$DIMCLRE
 70
     0
  9
$DIMCLRT
 70
     0
  9
$DIMTFAC
 40
1.0
  9
$DIMGAP
 40
0.625
  9
$DIMJUST
 70
     0
  9
$DIMSD1
 70
     0
  9
$DIMSD2
 70
     0
  9
$DIMTOLJ
 70
     0
  9
$DIMTZIN
 70
     8
  9
$DIMALTZ
 70
     0
  9
$DIMALTTZ
 70
     0
  9
$DIMUPT
 70
     0
  9
$DIMDEC
 70
     2
  9
$DIMTDEC
 70
     2
  9
$DIMALTU
 70
     2
  9
$DIMALTTD
 70
     3
  9
$DIMTXSTY
  7
Standard
  9
$DIMAUNIT
 70
     0
  9
$DIMADEC
 70
     0
  9
$DIMALTRND
 40
0.0
  9
$DIMAZIN
 70
     0
  9
$DIMDSEP
 70
    44
  9
$DIMATFIT
 70
     3
  9
$DIMFRAC
 70
     0
  9
$DIMLDRBLK
  1

  9
$DIMLUNIT
 70
     2
  9
$DIMLWD
 70
    -2
  9
$DIMLWE
 70
    -2
  9
$DIMTMOVE
 70
     0
  9
$LUNITS
 70
     2
  9
$LUPREC
 70
     4
  9
$SKETCHINC
 40
1.0
  9
$FILLETRAD
 40
10.0
  9
$AUNITS
 70
     0
  9
$AUPREC
 70
     0
  9
$MENU
  1
.
  9
$ELEVATION
 40
0.0
  9
$PELEVATION
 40
0.0
  9
$THICKNESS
 40
0.0
  9
$LIMCHECK
 70
     0
  9
$CHAMFERA
 40
10.0
  9
$CHAMFERB
 40
10.0
  9
$CHAMFERC
 40
20.0
  9
$CHAMFERD
 40
0.0
  9
$SKPOLY
 70
     0
  9
$TDCREATE
 40
2456541.2842639
  9
$TDUCREATE
 40
2456541.242597234
  9
$TDUPDATE
 40
2460390.468741342
  9
$TDUUPDATE
 40
2460390.427074676
  9
$TDINDWG
 40
0.0000000116
  9
$TDUSRTIMER
 40
0.0000000116
  9
$USRTIMER
 70
     1
  9
$ANGBASE
 50
0.0
  9
$ANGDIR
 70
     0
  9
$PDMODE
 70
     0
  9
$PDSIZE
 40
0.0
  9
$PLINEWID
 40
0.0
  9
$SPLFRAME
 70
     0
  9
$SPLINETYPE
 70
     6
  9
$SPLINESEGS
 70
     8
  9
$HANDSEED
  5
49A
  9
$SURFTAB1
 70
     6
  9
$SURFTAB2
 70
     6
  9
$SURFTYPE
 70
     6
  9
$SURFU
 70
     6
  9
$SURFV
 70
     6
  9
$UCSBASE
  2

  9
$UCSNAME
  2

  9
$UCSORG
 10
0.0
 20
0.0
 30
0.0
  9
$UCSXDIR
 10
1.0
 20
0.0
 30
0.0
  9
$UCSYDIR
 10
0.0
 20
1.0
 30
0.0
  9
$UCSORTHOREF
  2

  9
$UCSORTHOVIEW
 70
     0
  9
$UCSORGTOP
 10
0.0
 20
0.0
 30
0.0
  9
$UCSORGBOTTOM
 10
0.0
 20
0.0
 30
0.0
  9
$UCSORGLEFT
 10
0.0
 20
0.0
 30
0.0
  9
$UCSORGRIGHT
 10
0.0
 20
0.0
 30
0.0
  9
$UCSORGFRONT
 10
0.0
 20
0.0
 30
0.0
  9
$UCSORGBACK
 10
0.0
 20
0.0
 30
0.0
  9
$PUCSBASE
  2

  9
$PUCSNAME
  2

  9
$PUCSORG
 10
0.0
 20
0.0
 30
0.0
  9
$PUCSXDIR
 10
1.0
 20
0.0
 30
0.0
  9
$PUCSYDIR
 10
0.0
 20
1.0
 30
0.0
  9
$PUCSORTHOREF
  2

  9
$PUCSORTHOVIEW
 70
     0
  9
$PUCSORGTOP
 10
0.0
 20
0.0
 30
0.0
  9
$PUCSORGBOTTOM
 10
0.0
 20
0.0
 30
0.0
  9
$PUCSORGLEFT
 10
0.0
 20
0.0
 30
0.0
  9
$PUCSORGRIGHT
 10
0.0
 20
0.0
 30
0.0
  9
$PUCSORGFRONT
 10
0.0
 20
0.0
 30
0.0
  9
$PUCSORGBACK
 10
0.0
 20
0.0
 30
0.0
  9
$USERI1
 70
     0
  9
$USERI2
 70
     0
  9
$USERI3
 70
     0
  9
$USERI4
 70
     0
  9
$USERI5
 70
     0
  9
$USERR1
 40
0.0
  9
$USERR2
 40
0.0
  9
$USERR3
 40
0.0
  9
$USERR4
 40
0.0
  9
$USERR5
 40
0.0
  9
$WORLDVIEW
 70
     1
  9
$SHADEDGE
 70
     3
  9
$SHADEDIF
 70
    70
  9
$TILEMODE
 70
     1
  9
$MAXACTVP
 70
    64
  9
$PINSBASE
 10
0.0
 20
0.0
 30
0.0
  9
$PLIMCHECK
 70
     0
  9
$PEXTMIN
 10
0.0
 20
0.0
 30
0.0
  9
$PEXTMAX
 10
594.0
 20
420.0
 30
0.0
  9
$PLIMMIN
 10
0.0
 20
0.0
  9
$PLIMMAX
 10
594.0
 20
420.0
  9
$UNITMODE
 70
     0
  9
$VISRETAIN
 70
     1
  9
$PLINEGEN
 70
     0
  9
$PSLTSCALE
 70
     1
  9
$TREEDEPTH
 70
  3020
  9
$CMLSTYLE
  2
Standard
  9
$CMLJUST
 70
     0
  9
$CMLSCALE
 40
20.0
  9
$PROXYGRAPHICS
 70
     1
  9
$MEASUREMENT
 70
     1
  9
$CELWEIGHT
370
    -1
  9
$ENDCAPS
280
     0
  9
$JOINSTYLE
280
     0
  9
$LWDISPLAY
290
     0
  9
$INSUNITS
 70
     4
  9
$HYPERLINKBASE
  1

  9
$STYLESHEET
  1

  9
$XEDIT
290
     1
  9
$CEPSNTYPE
380
     0
  9
$PSTYLEMODE
290
     1
  9
$FINGERPRINTGUID
  2
{861ABB51-F992-45BD-BABB-EB5A00EA6DF4}
  9
$VERSIONGUID
  2
{FAEB1C32-E019-11D5-929B-00C0DF256EC4}
  9
$EXTNAMES
290
     1
  9
$PSVPSCALE
 40
0.0
  9
$OLESTARTUP
290
     0
  0
ENDSEC
  0
SECTION
  2
CLASSES
  0
CLASS
  1
ACDBDICTIONARYWDFLT
  2
AcDbDictionaryWithDefault
  3
ObjectDBX Classes
 90
        0
280
     0
281
     0
  0
CLASS
  1
VISUALSTYLE
  2
AcDbVisualStyle
  3
ObjectDBX Classes
 90
     4095
280
     0
281
     0
  0
CLASS
  1
MATERIAL
  2
AcDbMaterial
  3
ObjectDBX Classes
 90
     1153
280
     0
281
     0
  0
CLASS
  1
DICTIONARYVAR
  2
AcDbDictionaryVar
  3
ObjectDBX Classes
 90
        0
280
     0
281
     0
  0
CLASS
  1
ACDBPLACEHOLDER
  2
AcDbPlaceHolder
  3
ObjectDBX Classes
 90
        0
280
     0
281
     0
  0
CLASS
  1
LAYOUT
  2
AcDbLayout
  3
ObjectDBX Classes
 90
        0
280
     0
281
     0
  0
CLASS
  1
SCALE
  2
AcDbScale
  3
ObjectDBX Classes
 90
     1153
280
     0
281
     0
  0
CLASS
  1
MLEADERSTYLE
  2
AcDbMLeaderStyle
  3
ACDB_MLEADERSTYLE_CLASS
 90
     4095
280
     0
281
     0
  0
CLASS
  1
TABLESTYLE
  2
AcDbTableStyle
  3
ObjectDBX Classes
 90
     4095
280
     0
281
     0
  0
ENDSEC
  0
SECTION
  2
TABLES
  0
TABLE
  2
VPORT
  5
8
102
{ACAD_XDICTIONARY
360
459
102
}
330
0
100
AcDbSymbolTable
 70
     1
  0
VPORT
  5
29
330
8
100
AcDbSymbolTableRecord
100
AcDbViewportTableRecord
  2
*Active
 70
     0
 10
0.0
 20
0.0
 11
1.0
 21
1.0
 12
344.1869158878504
 22
148.5
 13
0.0
 23
0.0
 14
10.0
 24
10.0
 15
10.0
 25
10.0
 16
0.0
 26
0.0
 36
1.0
 17
0.0
 27
0.0
 37
0.0
 40
297.0
 41
1.972972972850329
 42
50.0
 43
0.0
 44
0.0
 50
0.0
 51
0.0
 71
     0
 72
   100
 73
     1
 74
     3
 75
     0
 76
     0
 77
     0
 78
     0
281
     0
 65
     1
110
0.0
120
0.0
130
0.0
111
1.0
121
0.0
131
0.0
112
0.0
122
1.0
132
0.0
 79
     0
146
0.0
  0
ENDTAB
  0
TABLE
  2
LTYPE
  5
5
330
0
100
AcDbSymbolTable
 70
     1
  0
LTYPE
  5
14
330
5
100
AcDbSymbolTableRecord
100
AcDbLinetypeTableRecord
  2
ByBlock
 70
     0
  3

 72
    65
 73
     0
 40
0.0
  0
LTYPE
  5
15
330
5
100
AcDbSymbolTableRecord
100
AcDbLinetypeTableRecord
  2
ByLayer
 70
     0
  3

 72
    65
 73
     0
 40
0.0
  0
LTYPE
  5
16
330
5
100
AcDbSymbolTableRecord
100
AcDbLinetypeTableRecord
  2
Continuous
 70
     0
  3
Solid line
 72
    65
 73
     0
 40
0.0
  0
ENDTAB
  0
TABLE
  2
LAYER
  5
2
330
0
100
AcDbSymbolTable
 70
    54
  0
LAYER
  5
10
330
2
100
AcDbSymbolTableRecord
100
AcDbLayerTableRecord
  2
0
 70
     0
 62
     7
  6
Continuous
370
    -3
390
F
  0
LAYER
  5
3F
330
2
100
AcDbSymbolTableRecord
100
AcDbLayerTableRecord
  2
Default
 70
     0
 62
     7
  6
Continuous
370
    -3
390
F
  0
LAYER
  5
44
330
2
100
AcDbSymbolTableRecord
100
AcDbLayerTableRecord
  2
8738125597_01
 70
     0
 62
     7
  6
Continuous
370
    -3
390
F
  0
LAYER
  5
5F
330
2
100
AcDbSymbolTableRecord
100
AcDbLayerTableRecord
  2
8738125598_02
 70
     0
 62
     7
  6
Continuous
370
    -3
390
F
  0
LAYER
  5
61
330
2
100
AcDbSymbolTableRecord
100
AcDbLayerTableRecord
  2
8738118893_00
 70
     0
 62
     7
  6
Continuous
370
    -3
390
F
  0
LAYER
  5
72
330
2
100
AcDbSymbolTableRecord
100
AcDbLayerTableRecord
  2
8738119016_00
 70
     0
 62
     7
  6
Continuous
370
    -3
390
F
  0
LAYER
  5
7B
330
2
100
AcDbSymbolTableRecord
100
AcDbLayerTableRecord
  2
8738112861_00
 70
     0
 62
     7
  6
Continuous
370
    -3
390
F
  0
LAYER
  5
7E
330
2
100
AcDbSymbolTableRecord
100
AcDbLayerTableRecord
  2
8738125157_03
 70
     0
 62
     7
  6
Continuous
370
    -3
390
F
  0
LAYER
  5
80
330
2
100
AcDbSymbolTableRecord
100
AcDbLayerTableRecord
  2
8738125614_01
 70
     0
 62
     7
  6
Continuous
370
    -3
390
F
  0
LAYER
  5
94
330
2
100
AcDbSymbolTableRecord
100
AcDbLayerTableRecord
  2
8738118943_00
 70
     0
 62
     7
  6
Continuous
370
    -3
390
F
  0
LAYER
  5
98
330
2
100
AcDbSymbolTableRecord
100
AcDbLayerTableRecord
  2
8738126854_00
 70
     0
 62
     7
  6
Continuous
370
    -3
390
F
  0
LAYER
  5
9C
330
2
100
AcDbSymbolTableRecord
100
AcDbLayerTableRecord
  2
8738119492_00
 70
     0
 62
     7
  6
Continuous
370
    -3
390
F
  0
LAYER
  5
BE
330
2
100
AcDbSymbolTableRecord
100
AcDbLayerTableRecord
  2
8738125599_01
 70
     0
 62
     7
  6
Continuous
370
    -3
390
F
  0
LAYER
  5
F2
330
2
100
AcDbSymbolTableRecord
100
AcDbLayerTableRecord
  2
8738118756_00
 70
     0
 62
     7
  6
Continuous
370
    -3
390
F
  0
LAYER
  5
105
330
2
100
AcDbSymbolTableRecord
100
AcDbLayerTableRecord
  2
8738126851_00
 70
     0
 62
     7
  6
Continuous
370
    -3
390
F
  0
LAYER
  5
10E
330
2
100
AcDbSymbolTableRecord
100
AcDbLayerTableRecord
  2
8738125601_02
 70
     0
 62
     7
  6
Continuous
370
    -3
390
F
  0
LAYER
  5
12C
330
2
100
AcDbSymbolTableRecord
100
AcDbLayerTableRecord
  2
8738126465_00
 70
     0
 62
     7
  6
Continuous
370
    -3
390
F
  0
LAYER
  5
13B
330
2
100
AcDbSymbolTableRecord
100
AcDbLayerTableRecord
  2
8738125602_01
 70
     0
 62
     7
  6
Continuous
370
    -3
390
F
  0
LAYER
  5
13D
330
2
100
AcDbSymbolTableRecord
100
AcDbLayerTableRecord
  2
8738125119_02
 70
     0
 62
     7
  6
Continuous
370
    -3
390
F
  0
LAYER
  5
148
330
2
100
AcDbSymbolTableRecord
100
AcDbLayerTableRecord
  2
8738125607_01
 70
     0
 62
     7
  6
Continuous
370
    -3
390
F
  0
LAYER
  5
14A
330
2
100
AcDbSymbolTableRecord
100
AcDbLayerTableRecord
  2
8738125609_01
 70
     0
 62
     7
  6
Continuous
370
    -3
390
F
  0
LAYER
  5
14D
330
2
100
AcDbSymbolTableRecord
100
AcDbLayerTableRecord
  2
8738123435_00
 70
     0
 62
     7
  6
Continuous
370
    -3
390
F
  0
LAYER
  5
154
330
2
100
AcDbSymbolTableRecord
100
AcDbLayerTableRecord
  2
8738125097_06
 70
     0
 62
     7
  6
Continuous
370
    -3
390
F
  0
LAYER
  5
157
330
2
100
AcDbSymbolTableRecord
100
AcDbLayerTableRecord
  2
8738114657_00
 70
     0
 62
     7
  6
Continuous
370
    -3
390
F
  0
LAYER
  5
15E
330
2
100
AcDbSymbolTableRecord
100
AcDbLayerTableRecord
  2
8738125891_00
 70
     0
 62
     7
  6
Continuous
370
    -3
390
F
  0
LAYER
  5
172
330
2
100
AcDbSymbolTableRecord
100
AcDbLayerTableRecord
  2
8738124914_00
 70
     0
 62
     7
  6
Continuous
370
    -3
390
F
  0
LAYER
  5
17A
330
2
100
AcDbSymbolTableRecord
100
AcDbLayerTableRecord
  2
8738125635_00
 70
     0
 62
     7
  6
Continuous
370
    -3
390
F
  0
LAYER
  5
17D
330
2
100
AcDbSymbolTableRecord
100
AcDbLayerTableRecord
  2
8738125641_01
 70
     0
 62
     7
  6
Continuous
370
    -3
390
F
  0
LAYER
  5
183
330
2
100
AcDbSymbolTableRecord
100
AcDbLayerTableRecord
  2
8738125638_00
 70
     0
 62
     7
  6
Continuous
370
    -3
390
F
  0
LAYER
  5
185
330
2
100
AcDbSymbolTableRecord
100
AcDbLayerTableRecord
  2
8738125639_00
 70
     0
 62
     7
  6
Continuous
370
    -3
390
F
  0
LAYER
  5
187
330
2
100
AcDbSymbolTableRecord
100
AcDbLayerTableRecord
  2
8738125642_01
 70
     0
 62
     7
  6
Continuous
370
    -3
390
F
  0
LAYER
  5
18B
330
2
100
AcDbSymbolTableRecord
100
AcDbLayerTableRecord
  2
8738125640_00
 70
     0
 62
     7
  6
Continuous
370
    -3
390
F
  0
LAYER
  5
18F
330
2
100
AcDbSymbolTableRecord
100
AcDbLayerTableRecord
  2
8738127357_01
 70
     0
 62
     7
  6
Continuous
370
    -3
390
F
  0
LAYER
  5
196
330
2
100
AcDbSymbolTableRecord
100
AcDbLayerTableRecord
  2
8738125643_02
 70
     0
 62
     7
  6
Continuous
370
    -3
390
F
  0
LAYER
  5
204
330
2
100
AcDbSymbolTableRecord
100
AcDbLayerTableRecord
  2
8738125615_01
 70
     0
 62
     7
  6
Continuous
370
    -3
390
F
  0
LAYER
  5
20B
330
2
100
AcDbSymbolTableRecord
100
AcDbLayerTableRecord
  2
8738125618_01
 70
     0
 62
     7
  6
Continuous
370
    -3
390
F
  0
LAYER
  5
216
330
2
100
AcDbSymbolTableRecord
100
AcDbLayerTableRecord
  2
8738125433_01
 70
     0
 62
     7
  6
Continuous
370
    -3
390
F
  0
LAYER
  5
21F
330
2
100
AcDbSymbolTableRecord
100
AcDbLayerTableRecord
  2
8738118992_00
 70
     0
 62
     7
  6
Continuous
370
    -3
390
F
  0
LAYER
  5
234
330
2
100
AcDbSymbolTableRecord
100
AcDbLayerTableRecord
  2
8738118991_00A
 70
     0
 62
     7
  6
Continuous
370
    -3
390
F
  0
LAYER
  5
236
330
2
100
AcDbSymbolTableRecord
100
AcDbLayerTableRecord
  2
8738125420_03
 70
     0
 62
     7
  6
Continuous
370
    -3
390
F
  0
LAYER
  5
23C
330
2
100
AcDbSymbolTableRecord
100
AcDbLayerTableRecord
  2
8738125154_07
 70
     0
 62
     7
  6
Continuous
370
    -3
390
F
  0
LAYER
  5
240
330
2
100
AcDbSymbolTableRecord
100
AcDbLayerTableRecord
  2
8738115594_00
 70
     0
 62
     7
  6
Continuous
370
    -3
390
F
  0
LAYER
  5
248
330
2
100
AcDbSymbolTableRecord
100
AcDbLayerTableRecord
  2
8738118940_00
 70
     0
 62
     7
  6
Continuous
370
    -3
390
F
  0
LAYER
  5
250
330
2
100
AcDbSymbolTableRecord
100
AcDbLayerTableRecord
  2
8738118946_00
 70
     0
 62
     7
  6
Continuous
370
    -3
390
F
  0
LAYER
  5
254
330
2
100
AcDbSymbolTableRecord
100
AcDbLayerTableRecord
  2
8738126003_03
 70
     0
 62
     7
  6
Continuous
370
    -3
390
F
  0
LAYER
  5
265
330
2
100
AcDbSymbolTableRecord
100
AcDbLayerTableRecord
  2
8738101345_00
 70
     0
 62
     7
  6
Continuous
370
    -3
390
F
  0
LAYER
  5
2C8
330
2
100
AcDbSymbolTableRecord
100
AcDbLayerTableRecord
  2
8738125091_00
 70
     0
 62
     7
  6
Continuous
370
    -3
390
F
  0
LAYER
  5
2DD
330
2
100
AcDbSymbolTableRecord
100
AcDbLayerTableRecord
  2
8738126725_01
 70
     0
 62
     7
  6
Continuous
370
    -3
390
F
  0
LAYER
  5
2FD
330
2
100
AcDbSymbolTableRecord
100
AcDbLayerTableRecord
  2
8738125483_02
 70
     0
 62
     7
  6
Continuous
370
    -3
390
F
  0
LAYER
  5
35B
330
2
100
AcDbSymbolTableRecord
100
AcDbLayerTableRecord
  2
8738125419_03
 70
     0
 62
     7
  6
Continuous
370
    -3
390
F
  0
LAYER
  5
361
330
2
100
AcDbSymbolTableRecord
100
AcDbLayerTableRecord
  2
8738102769_00_10
 70
     0
 62
     7
  6
Continuous
370
    -3
390
F
  0
LAYER
  5
377
330
2
100
AcDbSymbolTableRecord
100
AcDbLayerTableRecord
  2
8718220556_00
 70
     0
 62
     7
  6
Continuous
370
    -3
390
F
  0
LAYER
  5
37B
330
2
100
AcDbSymbolTableRecord
100
AcDbLayerTableRecord
  2
8738118694_00
 70
     0
 62
     7
  6
Continuous
370
    -3
390
F
  0
LAYER
  5
395
330
2
100
AcDbSymbolTableRecord
100
AcDbLayerTableRecord
  2
8738118665_00
 70
     0
 62
     7
  6
Continuous
370
    -3
390
F
  0
ENDTAB
  0
TABLE
  2
STYLE
  5
3
330
0
100
AcDbSymbolTable
 70
     1
  0
STYLE
  5
11
330
3
100
AcDbSymbolTableRecord
100
AcDbTextStyleTableRecord
  2
Standard
 70
     0
 40
0.0
 41
1.0
 50
0.0
 71
     0
 42
2.5
  3
txt
  4

  0
ENDTAB
  0
TABLE
  2
VIEW
  5
6
330
0
100
AcDbSymbolTable
 70
     0
  0
ENDTAB
  0
TABLE
  2
UCS
  5
7
330
0
100
AcDbSymbolTable
 70
     0
  0
ENDTAB
  0
TABLE
  2
APPID
  5
9
330
0
100
AcDbSymbolTable
 70
     2
  0
APPID
  5
12
330
9
100
AcDbSymbolTableRecord
100
AcDbRegAppTableRecord
  2
ACAD
 70
     0
  0
APPID
  5
497
330
9
100
AcDbSymbolTableRecord
100
AcDbRegAppTableRecord
  2
ACAD_MLEADERVER
 70
     0
  0
ENDTAB
  0
TABLE
  2
DIMSTYLE
  5
A
330
0
100
AcDbSymbolTable
 70
     1
100
AcDbDimStyleTable
  0
DIMSTYLE
105
27
330
A
100
AcDbSymbolTableRecord
100
AcDbDimStyleTableRecord
  2
ISO-25
 70
     0
 41
2.5
 42
0.625
 43
3.75
 44
1.25
 73
     0
 74
     0
 77
     1
 78
     8
140
2.5
141
2.5
143
0.03937007874016
147
0.625
171
     3
172
     1
178
     0
271
     2
272
     2
274
     3
278
    44
283
     0
284
     8
340
11
  0
ENDTAB
  0
TABLE
  2
BLOCK_RECORD
  5
1
330
0
100
AcDbSymbolTable
 70
     3
  0
BLOCK_RECORD
  5
1F
330
1
100
AcDbSymbolTableRecord
100
AcDbBlockTableRecord
  2
*Model_Space
340
22
  0
BLOCK_RECORD
  5
1B
330
1
100
AcDbSymbolTableRecord
100
AcDbBlockTableRecord
  2
*Paper_Space
340
1E
  0
BLOCK_RECORD
  5
42
330
1
100
AcDbSymbolTableRecord
100
AcDbBlockTableRecord
  2
SE
340
0
102
{BLKREFS
331
43
102
}
  0
BLOCK_RECORD
  5
A2
330
1
100
AcDbSymbolTableRecord
100
AcDbBlockTableRecord
  2
SE1
340
0
102
{BLKREFS
331
A3
102
}
  0
BLOCK_RECORD
  5
278
330
1
100
AcDbSymbolTableRecord
100
AcDbBlockTableRecord
  2
SE2
340
0
102
{BLKREFS
331
279
102
}
  0
ENDTAB
  0
ENDSEC
  0
SECTION
  2
BLOCKS
  0
BLOCK
  5
20
330
1F
100
AcDbEntity
  8
0
100
AcDbBlockBegin
  2
*Model_Space
 70
     0
 10
0.0
 20
0.0
 30
0.0
  3
*Model_Space
  1

  0
ENDBLK
  5
21
330
1F
100
AcDbEntity
  8
0
100
AcDbBlockEnd
  0
BLOCK
  5
1C
330
1B
100
AcDbEntity
 67
     1
  8
0
100
AcDbBlockBegin
  2
*Paper_Space
 70
     0
 10
0.0
 20
0.0
 30
0.0
  3
*Paper_Space
  1

  0
ENDBLK
  5
1D
330
1B
100
AcDbEntity
 67
     1
  8
0
100
AcDbBlockEnd
  0
BLOCK
  5
A0
330
42
100
AcDbEntity
  8
0
100
AcDbBlockBegin
  2
SE
 70
     0
 10
0.0
 20
0.0
 30
0.0
  3
SE
  1

  0
ARC
  5
45
330
42
100
AcDbEntity
  8
8738125597_01
  6
Continuous
 62
     7
100
AcDbCircle
 10
-1347.552821737382
 20
1402.492679007811
 30
0.0
 40
615.0
100
AcDbArc
 50
39.36464194591407
 51
140.635358054086
  0
LINE
  5
46
330
42
100
AcDbEntity
  8
8738125597_01
  6
Continuous
 62
     7
100
AcDbLine
 10
-872.0808681952403
 20
1012.426759713624
 30
0.0
 11
-782.5528217373815
 21
1036.415727461943
 31
0.0
  0
LINE
  5
47
330
42
100
AcDbEntity
  8
8738125597_01
  6
Continuous
 62
     7
100
AcDbLine
 10
-752.5528217373814
 20
1044.454203234877
 30
0.0
 11
-748.4941551587942
 21
1045.541719666957
 31
0.0
  0
ARC
  5
48
330
42
100
AcDbEntity
  8
8738125597_01
  6
Continuous
 62
     7
100
AcDbCircle
 10
-1347.552821737382
 20
1402.492679007811
 30
0.0
 40
615.0
100
AcDbArc
 50
307.7158799319132
 51
320.6353580540858
  0
LINE
  5
49
330
42
100
AcDbEntity
  8
8738125597_01
  6
Continuous
 62
     7
100
AcDbLine
 10
-937.5528217373823
 20
857.4926790078108
 30
0.0
 11
-971.3288411409774
 21
915.9944606922697
 31
0.0
  0
LINE
  5
4A
330
42
100
AcDbEntity
  8
8738125597_01
  6
Continuous
 62
     7
100
AcDbLine
 10
-937.5528217373823
 20
677.4926790078108
 30
0.0
 11
-937.5528217373823
 21
857.4926790078108
 31
0.0
  0
LINE
  5
4B
330
42
100
AcDbEntity
  8
8738125597_01
  6
Continuous
 62
     7
100
AcDbLine
 10
-1757.552821737382
 20
677.4926790078108
 30
0.0
 11
-1755.552821737383
 21
677.4926790078108
 31
0.0
  0
LINE
  5
4C
330
42
100
AcDbEntity
  8
8738125597_01
  6
Continuous
 62
     7
100
AcDbLine
 10
-1659.552821737383
 20
677.4926790078108
 30
0.0
 11
-937.5528217373823
 21
677.4926790078108
 31
0.0
  0
LINE
  5
4D
330
42
100
AcDbEntity
  8
8738125597_01
  6
Continuous
 62
     7
100
AcDbLine
 10
-1757.552821737382
 20
857.4926790078108
 30
0.0
 11
-1757.552821737382
 21
775.4926790078114
 31
0.0
  0
LINE
  5
4E
330
42
100
AcDbEntity
  8
8738125597_01
  6
Continuous
 62
     7
100
AcDbLine
 10
-1757.552821737382
 20
679.4926790078114
 30
0.0
 11
-1757.552821737382
 21
677.4926790078108
 31
0.0
  0
LINE
  5
4F
330
42
100
AcDbEntity
  8
8738125597_01
  6
Continuous
 62
     7
100
AcDbLine
 10
-1723.776802333787
 20
915.9944606922697
 30
0.0
 11
-1757.552821737382
 21
857.4926790078108
 31
0.0
  0
ARC
  5
50
330
42
100
AcDbEntity
  8
8738125597_01
  6
Continuous
 62
     7
100
AcDbCircle
 10
-1347.552821737382
 20
1402.492679007811
 30
0.0
 40
615.0
100
AcDbArc
 50
219.3646419459141
 51
232.2841200680869
  0
LINE
  5
51
330
42
100
AcDbEntity
  8
8738125597_01
  6
Continuous
 62
     7
100
AcDbLine
 10
-1823.024775279525
 20
1792.558598301997
 30
0.0
 11
-1897.402819574336
 21
1772.629061398596
 31
0.0
  0
LINE
  5
52
330
42
100
AcDbEntity
  8
8738125597_01
  6
Continuous
 62
     7
100
AcDbLine
 10
-1972.552821737382
 20
1725.636234428547
 30
0.0
 11
-1972.552821737382
 21
1681.935868746641
 31
0.0
  0
LINE
  5
53
330
42
100
AcDbEntity
  8
8738125597_01
  6
Continuous
 62
     7
100
AcDbLine
 10
-1972.552821737382
 20
1123.04948926898
 30
0.0
 11
-1972.552821737382
 21
1079.349123587074
 31
0.0
  0
ARC
  5
54
330
42
100
AcDbEntity
  8
8738125597_01
  6
Continuous
 62
     7
100
AcDbCircle
 10
-1937.552821737382
 20
1725.636234428547
 30
0.0
 40
34.99999999999999
100
AcDbArc
 50
125.1496650885845
 51
180.0
  0
LINE
  5
55
330
42
100
AcDbEntity
  8
8738125597_01
  6
Continuous
 62
     7
100
AcDbLine
 10
-797.7028217373814
 20
1772.62906081901
 30
0.0
 11
-872.08086819524
 21
1792.558598301997
 31
0.0
  0
ARC
  5
56
330
42
100
AcDbEntity
  8
8738125597_01
  6
Continuous
 62
     7
100
AcDbCircle
 10
-757.5528217373824
 20
1725.636234428547
 30
0.0
 40
35.00000000000003
100
AcDbArc
 50
0.0
 51
54.8503305807701
  0
LINE
  5
57
330
42
100
AcDbEntity
  8
8738125597_01
  6
Continuous
 62
     7
100
AcDbLine
 10
-722.5528217373824
 20
1079.349123587074
 30
0.0
 11
-722.5528217373824
 21
1123.049489268981
 31
0.0
  0
LINE
  5
58
330
42
100
AcDbEntity
  8
8738125597_01
  6
Continuous
 62
     7
100
AcDbLine
 10
-722.5528217373824
 20
1681.935868746641
 30
0.0
 11
-722.5528217373824
 21
1725.636234428547
 31
0.0
  0
ARC
  5
59
330
42
100
AcDbEntity
  8
8738125597_01
  6
Continuous
 62
     7
100
AcDbCircle
 10
-757.5528217373824
 20
1079.349123587074
 30
0.0
 40
34.99999999999999
100
AcDbArc
 50
285.0
 51
0.0
  0
LINE
  5
5A
330
42
100
AcDbEntity
  8
8738125597_01
  6
Continuous
 62
     7
100
AcDbLine
 10
-1946.611488315971
 20
1045.541719666957
 30
0.0
 11
-1942.552819574336
 21
1044.45420265529
 31
0.0
  0
LINE
  5
5B
330
42
100
AcDbEntity
  8
8738125597_01
  6
Continuous
 62
     7
100
AcDbLine
 10
-1912.552819574336
 20
1036.415726882357
 30
0.0
 11
-1897.552821737383
 21
1032.396489575477
 31
0.0
  0
ARC
  5
5C
330
42
100
AcDbEntity
  8
8738125597_01
  6
Continuous
 62
     7
100
AcDbCircle
 10
-1937.552821737382
 20
1079.349123587074
 30
0.0
 40
35.00000000000003
100
AcDbArc
 50
180.0
 51
255.0000000000001
  0
CIRCLE
  5
5D
330
42
100
AcDbEntity
  8
8738125597_01
  6
Continuous
 62
     7
100
AcDbCircle
 10
-1057.552821737383
 20
847.4926790078108
 30
0.0
 40
27.5
  0
CIRCLE
  5
5E
330
42
100
AcDbEntity
  8
8738125597_01
  6
Continuous
 62
     7
100
AcDbCircle
 10
-1637.552821737382
 20
847.4926790078109
 30
0.0
 40
27.5
  0
LINE
  5
60
330
42
100
AcDbEntity
  8
8738125598_02
  6
Continuous
 62
     7
100
AcDbLine
 10
-1756.686798494001
 20
858.9926802551206
 30
0.0
 11
-1723.776880001081
 21
915.9945207547778
 31
0.0
  0
LINE
  5
62
330
42
100
AcDbEntity
  8
8738118893_00
  6
Continuous
 62
     7
100
AcDbLine
 10
-1254.552821737382
 20
2152.492679007811
 30
0.0
 11
-1440.552821737382
 21
2152.492679007811
 31
0.0
  0
LINE
  5
63
330
42
100
AcDbEntity
  8
8738118893_00
  6
Continuous
 62
     7
100
AcDbLine
 10
-1222.552821737382
 20
2149.49267900781
 30
0.0
 11
-1472.552821737382
 21
2149.49267900781
 31
0.0
  0
LINE
  5
64
330
42
100
AcDbEntity
  8
8738118893_00
  6
Continuous
 62
     7
100
AcDbLine
 10
-1222.552821737382
 20
2130.492679007811
 30
0.0
 11
-1472.552821737382
 21
2130.492679007811
 31
0.0
  0
LINE
  5
65
330
42
100
AcDbEntity
  8
8738118893_00
  6
Continuous
 62
     7
100
AcDbLine
 10
-1277.702821737382
 20
2109.492679007811
 30
0.0
 11
-1417.402821737382
 21
2109.492679007811
 31
0.0
  0
LINE
  5
66
330
42
100
AcDbEntity
  8
8738118893_00
  6
Continuous
 62
     7
100
AcDbLine
 10
-1277.702821737382
 20
2099.166994788461
 30
0.0
 11
-1417.402821737382
 21
2099.166994788461
 31
0.0
  0
LINE
  5
67
330
42
100
AcDbEntity
  8
8738118893_00
  6
Continuous
 62
     7
100
AcDbLine
 10
-1414.502821737382
 20
2097.492679007811
 30
0.0
 11
-1280.602821737382
 21
2097.492679007811
 31
0.0
  0
LINE
  5
68
330
42
100
AcDbEntity
  8
8738118893_00
  6
Continuous
 62
     7
100
AcDbLine
 10
-1251.552821737382
 20
2149.49267900781
 30
0.0
 11
-1254.552821737382
 21
2152.49267900781
 31
0.0
  0
LINE
  5
69
330
42
100
AcDbEntity
  8
8738118893_00
  6
Continuous
 62
     7
100
AcDbLine
 10
-1440.552821737382
 20
2152.492679007811
 30
0.0
 11
-1443.552821737382
 21
2149.492679007811
 31
0.0
  0
LINE
  5
6A
330
42
100
AcDbEntity
  8
8738118893_00
  6
Continuous
 62
     7
100
AcDbLine
 10
-1472.552821737382
 20
2149.49267900781
 30
0.0
 11
-1472.552821737382
 21
2130.49267900781
 31
0.0
  0
LINE
  5
6B
330
42
100
AcDbEntity
  8
8738118893_00
  6
Continuous
 62
     7
100
AcDbLine
 10
-1222.552821737382
 20
2130.492679007811
 30
0.0
 11
-1222.552821737382
 21
2149.492679007811
 31
0.0
  0
LINE
  5
6C
330
42
100
AcDbEntity
  8
8738118893_00
  6
Continuous
 62
     7
100
AcDbLine
 10
-1425.552821737382
 20
2130.492679007811
 30
0.0
 11
-1417.402821737382
 21
2109.492679007811
 31
0.0
  0
LINE
  5
6D
330
42
100
AcDbEntity
  8
8738118893_00
  6
Continuous
 62
     7
100
AcDbLine
 10
-1277.702821737382
 20
2109.492679007811
 30
0.0
 11
-1269.552821737382
 21
2130.492679007811
 31
0.0
  0
LINE
  5
6E
330
42
100
AcDbEntity
  8
8738118893_00
  6
Continuous
 62
     7
100
AcDbLine
 10
-1417.402821737383
 20
2109.492679007811
 30
0.0
 11
-1417.402821737383
 21
2099.166994788461
 31
0.0
  0
LINE
  5
6F
330
42
100
AcDbEntity
  8
8738118893_00
  6
Continuous
 62
     7
100
AcDbLine
 10
-1277.702821737382
 20
2099.166994788461
 30
0.0
 11
-1277.702821737382
 21
2109.492679007811
 31
0.0
  0
LINE
  5
70
330
42
100
AcDbEntity
  8
8738118893_00
  6
Continuous
 62
     7
100
AcDbLine
 10
-1417.402821737383
 20
2099.166994788461
 30
0.0
 11
-1414.502821737382
 21
2097.492679007811
 31
0.0
  0
LINE
  5
71
330
42
100
AcDbEntity
  8
8738118893_00
  6
Continuous
 62
     7
100
AcDbLine
 10
-1280.602821737382
 20
2097.492679007811
 30
0.0
 11
-1277.702821737382
 21
2099.166994788461
 31
0.0
  0
LINE
  5
73
330
42
100
AcDbEntity
  8
8738119016_00
  6
Continuous
 62
     7
100
AcDbLine
 10
-1417.402821737383
 20
2094.049303334837
 30
0.0
 11
-1352.552821737383
 21
2094.049303334837
 31
0.0
  0
LINE
  5
74
330
42
100
AcDbEntity
  8
8738119016_00
  6
Continuous
 62
     7
100
AcDbLine
 10
-1342.552821737383
 20
2094.049303334837
 30
0.0
 11
-1277.702821737382
 21
2094.049303334837
 31
0.0
  0
LINE
  5
75
330
42
100
AcDbEntity
  8
8738119016_00
  6
Continuous
 62
     7
100
AcDbLine
 10
-1280.202821737382
 20
2095.492679007811
 30
0.0
 11
-1342.552821737383
 21
2095.492679007811
 31
0.0
  0
LINE
  5
76
330
42
100
AcDbEntity
  8
8738119016_00
  6
Continuous
 62
     7
100
AcDbLine
 10
-1352.552821737383
 20
2095.492679007811
 30
0.0
 11
-1414.902821737383
 21
2095.492679007811
 31
0.0
  0
LINE
  5
77
330
42
100
AcDbEntity
  8
8738119016_00
  6
Continuous
 62
     7
100
AcDbLine
 10
-1417.402821737383
 20
2094.049303334837
 30
0.0
 11
-1417.402821737383
 21
2013.513118518634
 31
0.0
  0
LINE
  5
78
330
42
100
AcDbEntity
  8
8738119016_00
  6
Continuous
 62
     7
100
AcDbLine
 10
-1277.702821737382
 20
2013.513118518634
 30
0.0
 11
-1277.702821737382
 21
2094.049303334837
 31
0.0
  0
LINE
  5
79
330
42
100
AcDbEntity
  8
8738119016_00
  6
Continuous
 62
     7
100
AcDbLine
 10
-1277.702821737382
 20
2094.049303334837
 30
0.0
 11
-1280.202821737382
 21
2095.492679007811
 31
0.0
  0
LINE
  5
7A
330
42
100
AcDbEntity
  8
8738119016_00
  6
Continuous
 62
     7
100
AcDbLine
 10
-1414.902821737382
 20
2095.492679007811
 30
0.0
 11
-1417.402821737382
 21
2094.049303334837
 31
0.0
  0
LINE
  5
7C
330
42
100
AcDbEntity
  8
8738112861_00
  6
Continuous
 62
     7
100
AcDbLine
 10
-1392.002821737382
 20
2097.492679007811
 30
0.0
 11
-1392.002821737382
 21
2095.492679007811
 31
0.0
  0
LINE
  5
7D
330
42
100
AcDbEntity
  8
8738112861_00
  6
Continuous
 62
     7
100
AcDbLine
 10
-1303.102821737382
 20
2095.492679007811
 30
0.0
 11
-1303.102821737382
 21
2097.492679007811
 31
0.0
  0
LINE
  5
7F
330
42
100
AcDbEntity
  8
8738125157_03
  6
Continuous
 62
     7
100
AcDbLine
 10
-1352.552821737383
 20
2095.492679007811
 30
0.0
 11
-1342.552821737383
 21
2095.492679007811
 31
0.0
  0
ARC
  5
81
330
42
100
AcDbEntity
  8
8738125614_01
  6
Continuous
 62
     7
100
AcDbCircle
 10
-1347.552821737382
 20
1402.492679007811
 30
0.0
 40
555.0
100
AcDbArc
 50
39.3081476745039
 51
140.6918523254961
  0
LINE
  5
82
330
42
100
AcDbEntity
  8
8738125614_01
  6
Continuous
 62
     7
100
AcDbLine
 10
-915.9508958442646
 20
1051.799245468294
 30
0.0
 11
-747.066223851845
 21
1097.749849874029
 31
0.0
  0
LINE
  5
83
330
42
100
AcDbEntity
  8
8738125614_01
  6
Continuous
 62
     7
100
AcDbLine
 10
-917.2838651339383
 20
1753.384400198266
 30
0.0
 11
-918.1214980503012
 21
1754.080133613861
 31
0.0
  0
LINE
  5
84
330
42
100
AcDbEntity
  8
8738125614_01
  6
Continuous
 62
     7
100
AcDbLine
 10
-918.1214980503012
 20
1050.905224401761
 30
0.0
 11
-917.2838651339385
 21
1051.600957817355
 31
0.0
  0
LINE
  5
85
330
42
100
AcDbEntity
  8
8738125614_01
  6
Continuous
 62
     7
100
AcDbLine
 10
-917.2838651339387
 20
1051.600957817355
 30
0.0
 11
-915.9508958453271
 21
1051.799245472321
 31
0.0
  0
LINE
  5
86
330
42
100
AcDbEntity
  8
8738125614_01
  6
Continuous
 62
     7
100
AcDbLine
 10
-915.9508958294647
 20
1753.1861125433
 30
0.0
 11
-917.2838651178674
 21
1753.384400198266
 31
0.0
  0
LINE
  5
87
330
42
100
AcDbEntity
  8
8738125614_01
  6
Continuous
 62
     7
100
AcDbLine
 10
-721.518997574964
 20
1131.557253794146
 30
0.0
 11
-721.518997574964
 21
1673.428104221476
 31
0.0
  0
LINE
  5
88
330
42
100
AcDbEntity
  8
8738125614_01
  6
Continuous
 62
     7
100
AcDbLine
 10
-747.0662238518452
 20
1707.235508141593
 30
0.0
 11
-915.9508958294646
 21
1753.1861125433
 31
0.0
  0
ELLIPSE
  5
89
330
42
100
AcDbEntity
  8
8738125614_01
  6
Continuous
 62
     7
100
AcDbEllipse
 10
-755.9872689303913
 20
1673.428104221476
 30
0.0
 11
3.330669073875470E-13
 21
-35.00000000000003
 31
0.0
210
0.0
220
0.0
230
1.0
 40
0.9848077530122016
 41
1.570796326794887
 42
2.879793265790657
  0
ELLIPSE
  5
8A
330
42
100
AcDbEntity
  8
8738125614_01
  6
Continuous
 62
     7
100
AcDbEllipse
 10
-755.9872689303912
 20
1131.557253794146
 30
0.0
 11
-2.220446049250313E-12
 21
-35.0
 31
0.0
210
0.0
220
0.0
230
1.0
 40
0.9848077530122075
 41
0.2617993877992115
 42
1.570796326794959
  0
ARC
  5
8B
330
42
100
AcDbEntity
  8
8738125614_01
  6
Continuous
 62
     7
100
AcDbCircle
 10
-1347.552821737382
 20
1402.492679007811
 30
0.0
 40
555.0
100
AcDbArc
 50
219.3081476745038
 51
320.6918523254961
  0
LINE
  5
8C
330
42
100
AcDbEntity
  8
8738125614_01
  6
Continuous
 62
     7
100
AcDbLine
 10
-1779.1547476305
 20
1753.186112547327
 30
0.0
 11
-1948.039419622919
 21
1707.235508141593
 31
0.0
  0
LINE
  5
8D
330
42
100
AcDbEntity
  8
8738125614_01
  6
Continuous
 62
     7
100
AcDbLine
 10
-1777.821778340827
 20
1051.600957817356
 30
0.0
 11
-1776.984145424464
 21
1050.905224401761
 31
0.0
  0
LINE
  5
8E
330
42
100
AcDbEntity
  8
8738125614_01
  6
Continuous
 62
     7
100
AcDbLine
 10
-1776.984145424464
 20
1754.080133613861
 30
0.0
 11
-1777.821778340827
 21
1753.384400198266
 31
0.0
  0
LINE
  5
8F
330
42
100
AcDbEntity
  8
8738125614_01
  6
Continuous
 62
     7
100
AcDbLine
 10
-1777.821778340826
 20
1753.384400198266
 30
0.0
 11
-1779.154747629438
 21
1753.1861125433
 31
0.0
  0
LINE
  5
90
330
42
100
AcDbEntity
  8
8738125614_01
  6
Continuous
 62
     7
100
AcDbLine
 10
-1779.1547476453
 20
1051.799245472321
 30
0.0
 11
-1777.821778356898
 21
1051.600957817356
 31
0.0
  0
LINE
  5
91
330
42
100
AcDbEntity
  8
8738125614_01
  6
Continuous
 62
     7
100
AcDbLine
 10
-1948.03941962292
 20
1097.749849874028
 30
0.0
 11
-1779.1547476453
 21
1051.799245472321
 31
0.0
  0
LINE
  5
92
330
42
100
AcDbEntity
  8
8738125614_01
  6
Continuous
 62
     7
100
AcDbLine
 10
-1973.5866458998
 20
1673.428104221476
 30
0.0
 11
-1973.5866458998
 21
1131.557253794146
 31
0.0
  0
ELLIPSE
  5
93
330
42
100
AcDbEntity
  8
8738125614_01
  6
Continuous
 62
     7
100
AcDbEllipse
 10
-1939.118374544373
 20
1673.428104221476
 30
0.0
 11
1.143529715363911E-11
 21
34.99999999999947
 31
0.0
210
0.0
220
0.0
230
1.0
 40
0.984807753012232
 41
0.261799387799465
 42
1.570796326795218
  0
LINE
  5
95
330
42
100
AcDbEntity
  8
8738118943_00
  6
Continuous
 62
     7
100
AcDbLine
 10
-1392.552821737382
 20
2154.49267900781
 30
0.0
 11
-1302.552821737382
 21
2154.49267900781
 31
0.0
  0
LINE
  5
96
330
42
100
AcDbEntity
  8
8738118943_00
  6
Continuous
 62
     7
100
AcDbLine
 10
-1392.552821737382
 20
2154.49267900781
 30
0.0
 11
-1392.552821737382
 21
2153.49267900781
 31
0.0
  0
LINE
  5
97
330
42
100
AcDbEntity
  8
8738118943_00
  6
Continuous
 62
     7
100
AcDbLine
 10
-1302.552821737383
 20
2153.49267900781
 30
0.0
 11
-1302.552821737383
 21
2154.492679007811
 31
0.0
  0
LINE
  5
99
330
42
100
AcDbEntity
  8
8738126854_00
  6
Continuous
 62
     7
100
AcDbLine
 10
-1419.052821737382
 20
2153.492679007811
 30
0.0
 11
-1276.052821737382
 21
2153.492679007811
 31
0.0
  0
LINE
  5
9A
330
42
100
AcDbEntity
  8
8738126854_00
  6
Continuous
 62
     7
100
AcDbLine
 10
-1276.052821737382
 20
2152.492679007811
 30
0.0
 11
-1276.052821737382
 21
2153.492679007811
 31
0.0
  0
LINE
  5
9B
330
42
100
AcDbEntity
  8
8738126854_00
  6
Continuous
 62
     7
100
AcDbLine
 10
-1419.052821737382
 20
2153.492679007811
 30
0.0
 11
-1419.052821737382
 21
2152.492679007811
 31
0.0
  0
LINE
  5
9D
330
42
100
AcDbEntity
  8
8738119492_00
  6
Continuous
 62
     7
100
AcDbLine
 10
-1757.552821737383
 20
775.4926790078114
 30
0.0
 11
-1757.552821737383
 21
679.4926790078115
 31
0.0
  0
LINE
  5
9E
330
42
100
AcDbEntity
  8
8738119492_00
  6
Continuous
 62
     7
100
AcDbLine
 10
-1755.552821737383
 20
677.4926790078114
 30
0.0
 11
-1659.552821737383
 21
677.4926790078114
 31
0.0
  0
ARC
  5
9F
330
42
100
AcDbEntity
  8
8738119492_00
  6
Continuous
 62
     7
100
AcDbCircle
 10
-1755.552821737383
 20
679.4926790078114
 30
0.0
 40
2.000000000000002
100
AcDbArc
 50
180.0
 51
270.0
  0
ENDBLK
  5
A1
330
42
100
AcDbEntity
  8
0
100
AcDbBlockEnd
  0
BLOCK
  5
276
330
A2
100
AcDbEntity
  8
0
100
AcDbBlockBegin
  2
SE1
 70
     0
 10
0.0
 20
0.0
 30
0.0
  3
SE1
  1

  0
LINE
  5
A4
330
A2
100
AcDbEntity
  8
8738125597_01
  6
Continuous
 62
     7
100
AcDbLine
 10
-4745.913221186906
 20
677.4926790078108
 30
0.0
 11
-4745.913221186906
 21
857.4926790078108
 31
0.0
  0
LINE
  5
A5
330
A2
100
AcDbEntity
  8
8738125597_01
  6
Continuous
 62
     7
100
AcDbLine
 10
-4745.913221186906
 20
857.4926790078108
 30
0.0
 11
-4745.913221186906
 21
915.9944606922697
 31
0.0
  0
LINE
  5
A6
330
A2
100
AcDbEntity
  8
8738125597_01
  6
Continuous
 62
     7
100
AcDbLine
 10
-4745.913221186906
 20
915.9944606922697
 30
0.0
 11
-4745.913221186906
 21
1012.426759713624
 31
0.0
  0
LINE
  5
A7
330
A2
100
AcDbEntity
  8
8738125597_01
  6
Continuous
 62
     7
100
AcDbLine
 10
-4745.913221186906
 20
1012.426759713624
 30
0.0
 11
-4745.913221186906
 21
1045.541719666957
 31
0.0
  0
LINE
  5
A8
330
A2
100
AcDbEntity
  8
8738125597_01
  6
Continuous
 62
     7
100
AcDbLine
 10
-4745.913221186906
 20
2017.492679007811
 30
0.0
 11
-4745.913221186906
 21
1792.558598301997
 31
0.0
  0
LINE
  5
A9
330
A2
100
AcDbEntity
  8
8738125597_01
  6
Continuous
 62
     7
100
AcDbLine
 10
-4755.913221186906
 20
2017.492679007811
 30
0.0
 11
-4755.913221186906
 21
1792.558598301997
 31
0.0
  0
LINE
  5
AA
330
A2
100
AcDbEntity
  8
8738125597_01
  6
Continuous
 62
     7
100
AcDbLine
 10
-4755.913221186906
 20
1012.426759713624
 30
0.0
 11
-4755.913221186906
 21
1045.541719666957
 31
0.0
  0
LINE
  5
AB
330
A2
100
AcDbEntity
  8
8738125597_01
  6
Continuous
 62
     7
100
AcDbLine
 10
-4755.913221186906
 20
915.9944606922697
 30
0.0
 11
-4755.913221186906
 21
1012.426759713624
 31
0.0
  0
LINE
  5
AC
330
A2
100
AcDbEntity
  8
8738125597_01
  6
Continuous
 62
     7
100
AcDbLine
 10
-4755.913221186906
 20
857.4926790078108
 30
0.0
 11
-4755.913221186906
 21
915.9944606922697
 31
0.0
  0
LINE
  5
AD
330
A2
100
AcDbEntity
  8
8738125597_01
  6
Continuous
 62
     7
100
AcDbLine
 10
-4755.913221186906
 20
677.4926790078108
 30
0.0
 11
-4755.913221186906
 21
857.4926790078108
 31
0.0
  0
LINE
  5
AE
330
A2
100
AcDbEntity
  8
8738125597_01
  6
Continuous
 62
     7
100
AcDbLine
 10
-4745.913221186906
 20
857.4926790078108
 30
0.0
 11
-4755.913221186906
 21
857.4926790078108
 31
0.0
  0
LINE
  5
AF
330
A2
100
AcDbEntity
  8
8738125597_01
  6
Continuous
 62
     7
100
AcDbLine
 10
-4745.913221186906
 20
677.4926790078108
 30
0.0
 11
-4755.913221186906
 21
677.4926790078108
 31
0.0
  0
LINE
  5
B0
330
A2
100
AcDbEntity
  8
8738125597_01
  6
Continuous
 62
     7
100
AcDbLine
 10
-4755.913221186906
 20
1759.443638348665
 30
0.0
 11
-4755.913221186906
 21
1792.558598301997
 31
0.0
  0
LINE
  5
B1
330
A2
100
AcDbEntity
  8
8738125597_01
  6
Continuous
 62
     7
100
AcDbLine
 10
-4755.913221186906
 20
1725.636234428547
 30
0.0
 11
-4755.913221186906
 21
1759.443638348665
 31
0.0
  0
LINE
  5
B2
330
A2
100
AcDbEntity
  8
8738125597_01
  6
Continuous
 62
     7
100
AcDbLine
 10
-4745.913221186906
 20
1759.443638348665
 30
0.0
 11
-4745.913221186906
 21
1792.558598301997
 31
0.0
  0
LINE
  5
B3
330
A2
100
AcDbEntity
  8
8738125597_01
  6
Continuous
 62
     7
100
AcDbLine
 10
-4745.913221186906
 20
1759.443638348665
 30
0.0
 11
-4745.913221186906
 21
1725.636234428548
 31
0.0
  0
LINE
  5
B4
330
A2
100
AcDbEntity
  8
8738125597_01
  6
Continuous
 62
     7
100
AcDbLine
 10
-4755.913221186906
 20
1079.349123587074
 30
0.0
 11
-4755.913221186906
 21
1725.636234428547
 31
0.0
  0
LINE
  5
B5
330
A2
100
AcDbEntity
  8
8738125597_01
  6
Continuous
 62
     7
100
AcDbLine
 10
-4755.913221186906
 20
1045.541719666957
 30
0.0
 11
-4755.913221186906
 21
1079.349123587074
 31
0.0
  0
LINE
  5
B6
330
A2
100
AcDbEntity
  8
8738125597_01
  6
Continuous
 62
     7
100
AcDbLine
 10
-4745.913221186906
 20
1079.349123587074
 30
0.0
 11
-4745.913221186906
 21
1277.492679007811
 31
0.0
  0
LINE
  5
B7
330
A2
100
AcDbEntity
  8
8738125597_01
  6
Continuous
 62
     7
100
AcDbLine
 10
-4745.913221186906
 20
1527.492679007811
 30
0.0
 11
-4745.913221186906
 21
1725.636234428547
 31
0.0
  0
LINE
  5
B8
330
A2
100
AcDbEntity
  8
8738125597_01
  6
Continuous
 62
     7
100
AcDbLine
 10
-4745.913221186906
 20
1079.349123587074
 30
0.0
 11
-4745.913221186906
 21
1045.541719666957
 31
0.0
  0
LINE
  5
B9
330
A2
100
AcDbEntity
  8
8738125597_01
  6
Continuous
 62
     7
100
AcDbLine
 10
-4745.913221186906
 20
2017.492679007811
 30
0.0
 11
-4755.913221186906
 21
2017.492679007811
 31
0.0
  0
LINE
  5
BA
330
A2
100
AcDbEntity
  8
8738125598_02
  6
Continuous
 62
     7
100
AcDbLine
 10
-2800.913221186906
 20
857.4926790078118
 30
0.0
 11
-2800.913221186906
 21
677.4926790078118
 31
0.0
  0
LINE
  5
BB
330
A2
100
AcDbEntity
  8
8738125598_02
  6
Continuous
 62
     7
100
AcDbLine
 10
-2792.913221186906
 20
857.4926790078118
 30
0.0
 11
-2792.913221186906
 21
677.4926790078118
 31
0.0
  0
LINE
  5
BC
330
A2
100
AcDbEntity
  8
8738125598_02
  6
Continuous
 62
     7
100
AcDbLine
 10
-2800.913221186906
 20
677.4926790078117
 30
0.0
 11
-2792.913221186906
 21
677.4926790078117
 31
0.0
  0
LINE
  5
BD
330
A2
100
AcDbEntity
  8
8738125598_02
  6
Continuous
 62
     7
100
AcDbLine
 10
-2800.913221186906
 20
857.4926790078118
 30
0.0
 11
-2792.913221186906
 21
857.4926790078118
 31
0.0
  0
LINE
  5
BF
330
A2
100
AcDbEntity
  8
8738125599_01
  6
Continuous
 62
     7
100
AcDbLine
 10
-2802.913221186905
 20
852.4926790078113
 30
0.0
 11
-2800.913221186906
 21
852.4926790078113
 31
0.0
  0
LINE
  5
C0
330
A2
100
AcDbEntity
  8
8738118893_00
  6
Continuous
 62
     7
100
AcDbLine
 10
-4162.913221186906
 20
2152.492679007811
 30
0.0
 11
-4348.913221186906
 21
2152.492679007811
 31
0.0
  0
LINE
  5
C1
330
A2
100
AcDbEntity
  8
8738118893_00
  6
Continuous
 62
     7
100
AcDbLine
 10
-4130.913221186906
 20
2149.49267900781
 30
0.0
 11
-4380.913221186906
 21
2149.49267900781
 31
0.0
  0
LINE
  5
C2
330
A2
100
AcDbEntity
  8
8738118893_00
  6
Continuous
 62
     7
100
AcDbLine
 10
-4130.913221186906
 20
2130.492679007811
 30
0.0
 11
-4380.913221186906
 21
2130.492679007811
 31
0.0
  0
LINE
  5
C3
330
A2
100
AcDbEntity
  8
8738118893_00
  6
Continuous
 62
     7
100
AcDbLine
 10
-4186.063221186906
 20
2109.492679007811
 30
0.0
 11
-4325.763221186906
 21
2109.492679007811
 31
0.0
  0
LINE
  5
C4
330
A2
100
AcDbEntity
  8
8738118893_00
  6
Continuous
 62
     7
100
AcDbLine
 10
-4186.063221186906
 20
2099.166994788461
 30
0.0
 11
-4325.763221186906
 21
2099.166994788461
 31
0.0
  0
LINE
  5
C5
330
A2
100
AcDbEntity
  8
8738118893_00
  6
Continuous
 62
     7
100
AcDbLine
 10
-4188.963221186906
 20
2097.492679007811
 30
0.0
 11
-4322.863221186905
 21
2097.492679007811
 31
0.0
  0
LINE
  5
C6
330
A2
100
AcDbEntity
  8
8738118893_00
  6
Continuous
 62
     7
100
AcDbLine
 10
-4159.913221186906
 20
2149.49267900781
 30
0.0
 11
-4162.913221186906
 21
2152.49267900781
 31
0.0
  0
LINE
  5
C7
330
A2
100
AcDbEntity
  8
8738118893_00
  6
Continuous
 62
     7
100
AcDbLine
 10
-4348.913221186906
 20
2152.492679007811
 30
0.0
 11
-4351.913221186906
 21
2149.492679007811
 31
0.0
  0
LINE
  5
C8
330
A2
100
AcDbEntity
  8
8738118893_00
  6
Continuous
 62
     7
100
AcDbLine
 10
-4380.913221186906
 20
2149.49267900781
 30
0.0
 11
-4380.913221186906
 21
2130.49267900781
 31
0.0
  0
LINE
  5
C9
330
A2
100
AcDbEntity
  8
8738118893_00
  6
Continuous
 62
     7
100
AcDbLine
 10
-4130.913221186906
 20
2130.492679007811
 30
0.0
 11
-4130.913221186906
 21
2149.492679007811
 31
0.0
  0
LINE
  5
CA
330
A2
100
AcDbEntity
  8
8738118893_00
  6
Continuous
 62
     7
100
AcDbLine
 10
-4333.913221186906
 20
2130.492679007811
 30
0.0
 11
-4325.763221186907
 21
2109.492679007811
 31
0.0
  0
LINE
  5
CB
330
A2
100
AcDbEntity
  8
8738118893_00
  6
Continuous
 62
     7
100
AcDbLine
 10
-4186.063221186906
 20
2109.492679007811
 30
0.0
 11
-4177.913221186906
 21
2130.492679007811
 31
0.0
  0
LINE
  5
CC
330
A2
100
AcDbEntity
  8
8738118893_00
  6
Continuous
 62
     7
100
AcDbLine
 10
-4325.763221186906
 20
2109.492679007811
 30
0.0
 11
-4325.763221186906
 21
2099.166994788461
 31
0.0
  0
LINE
  5
CD
330
A2
100
AcDbEntity
  8
8738118893_00
  6
Continuous
 62
     7
100
AcDbLine
 10
-4186.063221186906
 20
2099.166994788461
 30
0.0
 11
-4186.063221186906
 21
2109.492679007811
 31
0.0
  0
LINE
  5
CE
330
A2
100
AcDbEntity
  8
8738118893_00
  6
Continuous
 62
     7
100
AcDbLine
 10
-4325.763221186906
 20
2099.166994788461
 30
0.0
 11
-4322.863221186906
 21
2097.492679007811
 31
0.0
  0
LINE
  5
CF
330
A2
100
AcDbEntity
  8
8738118893_00
  6
Continuous
 62
     7
100
AcDbLine
 10
-4188.963221186907
 20
2097.492679007811
 30
0.0
 11
-4186.063221186907
 21
2099.166994788461
 31
0.0
  0
LINE
  5
D0
330
A2
100
AcDbEntity
  8
8738119016_00
  6
Continuous
 62
     7
100
AcDbLine
 10
-4186.063221186906
 20
2094.049303334837
 30
0.0
 11
-4325.763221186906
 21
2094.049303334837
 31
0.0
  0
LINE
  5
D1
330
A2
100
AcDbEntity
  8
8738119016_00
  6
Continuous
 62
     7
100
AcDbLine
 10
-4188.563221186905
 20
2095.492679007811
 30
0.0
 11
-4323.263221186905
 21
2095.492679007811
 31
0.0
  0
LINE
  5
D2
330
A2
100
AcDbEntity
  8
8738119016_00
  6
Continuous
 62
     7
100
AcDbLine
 10
-4325.763221186906
 20
2094.049303334837
 30
0.0
 11
-4325.763221186906
 21
2030.092679007812
 31
0.0
  0
LINE
  5
D3
330
A2
100
AcDbEntity
  8
8738119016_00
  6
Continuous
 62
     7
100
AcDbLine
 10
-4186.063221186906
 20
2030.092679007812
 30
0.0
 11
-4186.063221186906
 21
2094.049303334837
 31
0.0
  0
LINE
  5
D4
330
A2
100
AcDbEntity
  8
8738119016_00
  6
Continuous
 62
     7
100
AcDbLine
 10
-4186.063221186906
 20
2094.049303334837
 30
0.0
 11
-4188.563221186906
 21
2095.492679007811
 31
0.0
  0
LINE
  5
D5
330
A2
100
AcDbEntity
  8
8738119016_00
  6
Continuous
 62
     7
100
AcDbLine
 10
-4323.263221186906
 20
2095.492679007811
 30
0.0
 11
-4325.763221186906
 21
2094.049303334837
 31
0.0
  0
LINE
  5
D6
330
A2
100
AcDbEntity
  8
8738118893_00
  6
Continuous
 62
     7
100
AcDbLine
 10
-3542.913221186906
 20
2152.49267900781
 30
0.0
 11
-3728.913221186906
 21
2152.49267900781
 31
0.0
  0
LINE
  5
D7
330
A2
100
AcDbEntity
  8
8738118893_00
  6
Continuous
 62
     7
100
AcDbLine
 10
-3510.913221186906
 20
2149.49267900781
 30
0.0
 11
-3760.913221186906
 21
2149.49267900781
 31
0.0
  0
LINE
  5
D8
330
A2
100
AcDbEntity
  8
8738118893_00
  6
Continuous
 62
     7
100
AcDbLine
 10
-3510.913221186906
 20
2130.49267900781
 30
0.0
 11
-3760.913221186906
 21
2130.49267900781
 31
0.0
  0
LINE
  5
D9
330
A2
100
AcDbEntity
  8
8738118893_00
  6
Continuous
 62
     7
100
AcDbLine
 10
-3566.063221186906
 20
2109.49267900781
 30
0.0
 11
-3705.763221186906
 21
2109.49267900781
 31
0.0
  0
LINE
  5
DA
330
A2
100
AcDbEntity
  8
8738118893_00
  6
Continuous
 62
     7
100
AcDbLine
 10
-3566.063221186906
 20
2099.16699478846
 30
0.0
 11
-3705.763221186906
 21
2099.16699478846
 31
0.0
  0
LINE
  5
DB
330
A2
100
AcDbEntity
  8
8738118893_00
  6
Continuous
 62
     7
100
AcDbLine
 10
-3702.863221186906
 20
2097.49267900781
 30
0.0
 11
-3568.963221186906
 21
2097.49267900781
 31
0.0
  0
LINE
  5
DC
330
A2
100
AcDbEntity
  8
8738118893_00
  6
Continuous
 62
     7
100
AcDbLine
 10
-3539.913221186906
 20
2149.49267900781
 30
0.0
 11
-3542.913221186906
 21
2152.49267900781
 31
0.0
  0
LINE
  5
DD
330
A2
100
AcDbEntity
  8
8738118893_00
  6
Continuous
 62
     7
100
AcDbLine
 10
-3728.913221186906
 20
2152.49267900781
 30
0.0
 11
-3731.913221186906
 21
2149.49267900781
 31
0.0
  0
LINE
  5
DE
330
A2
100
AcDbEntity
  8
8738118893_00
  6
Continuous
 62
     7
100
AcDbLine
 10
-3760.913221186906
 20
2149.49267900781
 30
0.0
 11
-3760.913221186906
 21
2130.49267900781
 31
0.0
  0
LINE
  5
DF
330
A2
100
AcDbEntity
  8
8738118893_00
  6
Continuous
 62
     7
100
AcDbLine
 10
-3510.913221186906
 20
2130.49267900781
 30
0.0
 11
-3510.913221186906
 21
2149.49267900781
 31
0.0
  0
LINE
  5
E0
330
A2
100
AcDbEntity
  8
8738118893_00
  6
Continuous
 62
     7
100
AcDbLine
 10
-3713.913221186906
 20
2130.49267900781
 30
0.0
 11
-3705.763221186906
 21
2109.49267900781
 31
0.0
  0
LINE
  5
E1
330
A2
100
AcDbEntity
  8
8738118893_00
  6
Continuous
 62
     7
100
AcDbLine
 10
-3566.063221186906
 20
2109.49267900781
 30
0.0
 11
-3557.913221186906
 21
2130.49267900781
 31
0.0
  0
LINE
  5
E2
330
A2
100
AcDbEntity
  8
8738118893_00
  6
Continuous
 62
     7
100
AcDbLine
 10
-3705.763221186906
 20
2109.49267900781
 30
0.0
 11
-3705.763221186906
 21
2099.16699478846
 31
0.0
  0
LINE
  5
E3
330
A2
100
AcDbEntity
  8
8738118893_00
  6
Continuous
 62
     7
100
AcDbLine
 10
-3566.063221186906
 20
2099.16699478846
 30
0.0
 11
-3566.063221186906
 21
2109.49267900781
 31
0.0
  0
LINE
  5
E4
330
A2
100
AcDbEntity
  8
8738118893_00
  6
Continuous
 62
     7
100
AcDbLine
 10
-3705.763221186906
 20
2099.16699478846
 30
0.0
 11
-3702.863221186906
 21
2097.49267900781
 31
0.0
  0
LINE
  5
E5
330
A2
100
AcDbEntity
  8
8738118893_00
  6
Continuous
 62
     7
100
AcDbLine
 10
-3568.963221186906
 20
2097.49267900781
 30
0.0
 11
-3566.063221186906
 21
2099.16699478846
 31
0.0
  0
LINE
  5
E6
330
A2
100
AcDbEntity
  8
8738119016_00
  6
Continuous
 62
     7
100
AcDbLine
 10
-3705.763221186906
 20
2094.049303334836
 30
0.0
 11
-3566.063221186906
 21
2094.049303334836
 31
0.0
  0
LINE
  5
E7
330
A2
100
AcDbEntity
  8
8738119016_00
  6
Continuous
 62
     7
100
AcDbLine
 10
-3568.563221186906
 20
2095.49267900781
 30
0.0
 11
-3703.263221186906
 21
2095.49267900781
 31
0.0
  0
LINE
  5
E8
330
A2
100
AcDbEntity
  8
8738119016_00
  6
Continuous
 62
     7
100
AcDbLine
 10
-3705.763221186906
 20
2094.049303334836
 30
0.0
 11
-3705.763221186906
 21
2030.092679007812
 31
0.0
  0
LINE
  5
E9
330
A2
100
AcDbEntity
  8
8738119016_00
  6
Continuous
 62
     7
100
AcDbLine
 10
-3566.063221186906
 20
2030.092679007812
 30
0.0
 11
-3566.063221186906
 21
2094.049303334836
 31
0.0
  0
LINE
  5
EA
330
A2
100
AcDbEntity
  8
8738119016_00
  6
Continuous
 62
     7
100
AcDbLine
 10
-3566.063221186906
 20
2094.049303334836
 30
0.0
 11
-3568.563221186906
 21
2095.49267900781
 31
0.0
  0
LINE
  5
EB
330
A2
100
AcDbEntity
  8
8738119016_00
  6
Continuous
 62
     7
100
AcDbLine
 10
-3703.263221186906
 20
2095.49267900781
 30
0.0
 11
-3705.763221186906
 21
2094.049303334836
 31
0.0
  0
LINE
  5
EC
330
A2
100
AcDbEntity
  8
8738112861_00
  6
Continuous
 62
     7
100
AcDbLine
 10
-3085.363221186905
 20
2099.049303334837
 30
0.0
 11
-2996.463221186906
 21
2099.049303334837
 31
0.0
  0
LINE
  5
ED
330
A2
100
AcDbEntity
  8
8738112861_00
  6
Continuous
 62
     7
100
AcDbLine
 10
-3082.863221186905
 20
2100.492679007811
 30
0.0
 11
-2998.963221186906
 21
2100.492679007811
 31
0.0
  0
LINE
  5
EE
330
A2
100
AcDbEntity
  8
8738112861_00
  6
Continuous
 62
     7
100
AcDbLine
 10
-3085.363221186906
 20
2099.049303334837
 30
0.0
 11
-3085.363221186906
 21
2005.092679007811
 31
0.0
  0
LINE
  5
EF
330
A2
100
AcDbEntity
  8
8738112861_00
  6
Continuous
 62
     7
100
AcDbLine
 10
-2996.463221186906
 20
2005.092679007811
 30
0.0
 11
-2996.463221186906
 21
2099.049303334837
 31
0.0
  0
LINE
  5
F0
330
A2
100
AcDbEntity
  8
8738112861_00
  6
Continuous
 62
     7
100
AcDbLine
 10
-2996.463221186906
 20
2099.049303334837
 30
0.0
 11
-2998.963221186906
 21
2100.492679007811
 31
0.0
  0
LINE
  5
F1
330
A2
100
AcDbEntity
  8
8738112861_00
  6
Continuous
 62
     7
100
AcDbLine
 10
-3082.863221186906
 20
2100.492679007811
 30
0.0
 11
-3085.363221186906
 21
2099.049303334837
 31
0.0
  0
LINE
  5
F3
330
A2
100
AcDbEntity
  8
8738118756_00
  6
Continuous
 62
     7
100
AcDbLine
 10
-2971.913221186906
 20
2152.492679007811
 30
0.0
 11
-3109.913221186906
 21
2152.492679007811
 31
0.0
  0
LINE
  5
F4
330
A2
100
AcDbEntity
  8
8738118756_00
  6
Continuous
 62
     7
100
AcDbLine
 10
-2940.913221186906
 20
2149.49267900781
 30
0.0
 11
-3140.913221186906
 21
2149.49267900781
 31
0.0
  0
LINE
  5
F5
330
A2
100
AcDbEntity
  8
8738118756_00
  6
Continuous
 62
     7
100
AcDbLine
 10
-2940.913221186906
 20
2132.492679007811
 30
0.0
 11
-3140.913221186906
 21
2132.492679007811
 31
0.0
  0
LINE
  5
F6
330
A2
100
AcDbEntity
  8
8738118756_00
  6
Continuous
 62
     7
100
AcDbLine
 10
-2996.463221186906
 20
2112.49267900781
 30
0.0
 11
-3085.363221186906
 21
2112.49267900781
 31
0.0
  0
LINE
  5
F7
330
A2
100
AcDbEntity
  8
8738118756_00
  6
Continuous
 62
     7
100
AcDbLine
 10
-2996.463221186906
 20
2103.936054680785
 30
0.0
 11
-3085.363221186906
 21
2103.936054680785
 31
0.0
  0
LINE
  5
F8
330
A2
100
AcDbEntity
  8
8738118756_00
  6
Continuous
 62
     7
100
AcDbLine
 10
-3082.863221186906
 20
2102.492679007811
 30
0.0
 11
-2998.963221186906
 21
2102.492679007811
 31
0.0
  0
LINE
  5
F9
330
A2
100
AcDbEntity
  8
8738118756_00
  6
Continuous
 62
     7
100
AcDbLine
 10
-3140.913221186906
 20
2149.49267900781
 30
0.0
 11
-3140.913221186906
 21
2132.49267900781
 31
0.0
  0
LINE
  5
FA
330
A2
100
AcDbEntity
  8
8738118756_00
  6
Continuous
 62
     7
100
AcDbLine
 10
-2940.913221186906
 20
2132.492679007811
 30
0.0
 11
-2940.913221186906
 21
2149.492679007811
 31
0.0
  0
LINE
  5
FB
330
A2
100
AcDbEntity
  8
8738118756_00
  6
Continuous
 62
     7
100
AcDbLine
 10
-3091.395534135624
 20
2127.479791923879
 30
0.0
 11
-3085.363221186906
 21
2112.492679007811
 31
0.0
  0
LINE
  5
FC
330
A2
100
AcDbEntity
  8
8738118756_00
  6
Continuous
 62
     7
100
AcDbLine
 10
-2996.463221186906
 20
2112.49267900781
 30
0.0
 11
-2990.430908238188
 21
2127.479791923879
 31
0.0
  0
LINE
  5
FD
330
A2
100
AcDbEntity
  8
8738118756_00
  6
Continuous
 62
     7
100
AcDbLine
 10
-3085.363221186906
 20
2112.49267900781
 30
0.0
 11
-3085.363221186906
 21
2103.936054680784
 31
0.0
  0
LINE
  5
FE
330
A2
100
AcDbEntity
  8
8738118756_00
  6
Continuous
 62
     7
100
AcDbLine
 10
-2996.463221186906
 20
2103.936054680785
 30
0.0
 11
-2996.463221186906
 21
2112.492679007811
 31
0.0
  0
LINE
  5
FF
330
A2
100
AcDbEntity
  8
8738118756_00
  6
Continuous
 62
     7
100
AcDbLine
 10
-2969.879990516564
 20
2150.459448337469
 30
0.0
 11
-2971.913221186906
 21
2152.49267900781
 31
0.0
  0
LINE
  5
100
330
A2
100
AcDbEntity
  8
8738118756_00
  6
Continuous
 62
     7
100
AcDbLine
 10
-3109.913221186906
 20
2152.492679007811
 30
0.0
 11
-3111.946451857248
 21
2150.459448337469
 31
0.0
  0
ARC
  5
101
330
A2
100
AcDbEntity
  8
8738118756_00
  6
Continuous
 62
     7
100
AcDbCircle
 10
-3098.816932684863
 20
2124.492679007811
 30
0.0
 40
8.000000000000007
100
AcDbArc
 50
21.92478522053983
 51
90.0
  0
ARC
  5
102
330
A2
100
AcDbEntity
  8
8738118756_00
  6
Continuous
 62
     7
100
AcDbCircle
 10
-2983.009509688949
 20
2124.492679007811
 30
0.0
 40
7.999999999999998
100
AcDbArc
 50
90.0
 51
158.0752147794602
  0
LINE
  5
103
330
A2
100
AcDbEntity
  8
8738118756_00
  6
Continuous
 62
     7
100
AcDbLine
 10
-3085.363221186906
 20
2103.936054680785
 30
0.0
 11
-3082.863221186906
 21
2102.492679007811
 31
0.0
  0
LINE
  5
104
330
A2
100
AcDbEntity
  8
8738118756_00
  6
Continuous
 62
     7
100
AcDbLine
 10
-2998.963221186906
 20
2102.492679007811
 30
0.0
 11
-2996.463221186906
 21
2103.936054680785
 31
0.0
  0
LINE
  5
106
330
A2
100
AcDbEntity
  8
8738126851_00
  6
Continuous
 62
     7
100
AcDbLine
 10
-3197.537721186905
 20
2015.992679007811
 30
0.0
 11
-3164.288721186906
 21
2015.992679007811
 31
0.0
  0
LINE
  5
107
330
A2
100
AcDbEntity
  8
8738126851_00
  6
Continuous
 62
     7
100
AcDbLine
 10
-3196.037721186906
 20
2017.492679007811
 30
0.0
 11
-3165.788721186906
 21
2017.492679007811
 31
0.0
  0
LINE
  5
108
330
A2
100
AcDbEntity
  8
8738126851_00
  6
Continuous
 62
     7
100
AcDbLine
 10
-3164.288721186906
 20
2005.092679007811
 30
0.0
 11
-3164.288721186906
 21
2015.992679007811
 31
0.0
  0
LINE
  5
109
330
A2
100
AcDbEntity
  8
8738126851_00
  6
Continuous
 62
     7
100
AcDbLine
 10
-3197.537721186906
 20
2015.992679007811
 30
0.0
 11
-3197.537721186906
 21
2005.092679007811
 31
0.0
  0
LINE
  5
10A
330
A2
100
AcDbEntity
  8
8738126851_00
  6
Continuous
 62
     7
100
AcDbLine
 10
-3164.288721186906
 20
2015.992679007811
 30
0.0
 11
-3165.788721186906
 21
2017.492679007811
 31
0.0
  0
LINE
  5
10B
330
A2
100
AcDbEntity
  8
8738126851_00
  6
Continuous
 62
     7
100
AcDbLine
 10
-3196.037721186906
 20
2017.492679007811
 30
0.0
 11
-3197.537721186906
 21
2015.992679007811
 31
0.0
  0
LINE
  5
10C
330
A2
100
AcDbEntity
  8
8738126851_00
  6
Continuous
 62
     7
100
AcDbLine
 10
-3165.767721186905
 20
2017.471679007811
 30
0.0
 11
-3165.767721186905
 21
2005.092679007811
 31
0.0
  0
LINE
  5
10D
330
A2
100
AcDbEntity
  8
8738126851_00
  6
Continuous
 62
     7
100
AcDbLine
 10
-3196.058721186906
 20
2017.471679007811
 30
0.0
 11
-3196.058721186906
 21
2005.092679007811
 31
0.0
  0
LINE
  5
10F
330
A2
100
AcDbEntity
  8
8738125601_02
  6
Continuous
 62
     7
100
AcDbLine
 10
-4745.913221186906
 20
857.4926790078108
 30
0.0
 11
-4745.913221186906
 21
855.2978232815293
 31
0.0
  0
LINE
  5
110
330
A2
100
AcDbEntity
  8
8738125601_02
  6
Continuous
 62
     7
100
AcDbLine
 10
-4745.913221186906
 20
679.687534734092
 30
0.0
 11
-4745.913221186906
 21
677.4926790078108
 31
0.0
  0
LINE
  5
111
330
A2
100
AcDbEntity
  8
8738125601_02
  6
Continuous
 62
     7
100
AcDbLine
 10
-2804.913221186905
 20
685.1340091121708
 30
0.0
 11
-2804.913221186905
 21
679.6875347340922
 31
0.0
  0
LINE
  5
112
330
A2
100
AcDbEntity
  8
8738125601_02
  6
Continuous
 62
     7
100
AcDbLine
 10
-2804.913221186905
 20
691.8513489034509
 30
0.0
 11
-2804.913221186905
 21
685.1340091121708
 31
0.0
  0
LINE
  5
113
330
A2
100
AcDbEntity
  8
8738125601_02
  6
Continuous
 62
     7
100
AcDbLine
 10
-2804.913221186905
 20
702.7442976596083
 30
0.0
 11
-2804.913221186905
 21
691.8513489034524
 31
0.0
  0
LINE
  5
114
330
A2
100
AcDbEntity
  8
8738125601_02
  6
Continuous
 62
     7
100
AcDbLine
 10
-2804.913221186905
 20
832.2410603560136
 30
0.0
 11
-2804.913221186905
 21
702.7442976596083
 31
0.0
  0
LINE
  5
115
330
A2
100
AcDbEntity
  8
8738125601_02
  6
Continuous
 62
     7
100
AcDbLine
 10
-2804.913221186905
 20
843.1340091121708
 30
0.0
 11
-2804.913221186905
 21
832.2410603560135
 31
0.0
  0
LINE
  5
116
330
A2
100
AcDbEntity
  8
8738125601_02
  6
Continuous
 62
     7
100
AcDbLine
 10
-2804.913221186905
 20
849.8513489034507
 30
0.0
 11
-2804.913221186905
 21
843.1340091121708
 31
0.0
  0
LINE
  5
117
330
A2
100
AcDbEntity
  8
8738125601_02
  6
Continuous
 62
     7
100
AcDbLine
 10
-2804.913221186905
 20
855.2978232815294
 30
0.0
 11
-2804.913221186905
 21
849.8513489034514
 31
0.0
  0
LINE
  5
118
330
A2
100
AcDbEntity
  8
8738125601_02
  6
Continuous
 62
     7
100
AcDbLine
 10
-2804.913221186905
 20
857.4926790078109
 30
0.0
 11
-2804.913221186905
 21
855.2978232815294
 31
0.0
  0
LINE
  5
119
330
A2
100
AcDbEntity
  8
8738125601_02
  6
Continuous
 62
     7
100
AcDbLine
 10
-2804.913221186905
 20
679.6875347340922
 30
0.0
 11
-2804.913221186905
 21
677.492679007811
 31
0.0
  0
LINE
  5
11A
330
A2
100
AcDbEntity
  8
8738125601_02
  6
Continuous
 62
     7
100
AcDbLine
 10
-4745.913221186906
 20
857.4926790078108
 30
0.0
 11
-2804.913221186906
 21
857.4926790078109
 31
0.0
  0
LINE
  5
11B
330
A2
100
AcDbEntity
  8
8738125601_02
  6
Continuous
 62
     7
100
AcDbLine
 10
-4745.913221186906
 20
677.4926790078107
 30
0.0
 11
-2804.913221186906
 21
677.4926790078109
 31
0.0
  0
ARC
  5
11C
330
A2
100
AcDbEntity
  8
8738125601_02
  6
Continuous
 62
     7
100
AcDbCircle
 10
-3669.913221186906
 20
792.4926790078108
 30
0.0
 40
4.999999999999948
100
AcDbArc
 50
90.0
 51
180.0
  0
LINE
  5
11D
330
A2
100
AcDbEntity
  8
8738125601_02
  6
Continuous
 62
     7
100
AcDbLine
 10
-3674.913221186906
 20
792.4926790078108
 30
0.0
 11
-3674.913221186906
 21
732.4926790078109
 31
0.0
  0
ARC
  5
11E
330
A2
100
AcDbEntity
  8
8738125601_02
  6
Continuous
 62
     7
100
AcDbCircle
 10
-3669.913221186906
 20
732.4926790078109
 30
0.0
 40
4.999999999999893
100
AcDbArc
 50
180.0
 51
270.0
  0
LINE
  5
11F
330
A2
100
AcDbEntity
  8
8738125601_02
  6
Continuous
 62
     7
100
AcDbLine
 10
-3669.913221186906
 20
727.4926790078109
 30
0.0
 11
-3509.913221186906
 21
727.4926790078109
 31
0.0
  0
ARC
  5
120
330
A2
100
AcDbEntity
  8
8738125601_02
  6
Continuous
 62
     7
100
AcDbCircle
 10
-3509.913221186906
 20
732.4926790078109
 30
0.0
 40
5.000000000000004
100
AcDbArc
 50
270.0
 51
0.0
  0
LINE
  5
121
330
A2
100
AcDbEntity
  8
8738125601_02
  6
Continuous
 62
     7
100
AcDbLine
 10
-3504.913221186906
 20
732.4926790078109
 30
0.0
 11
-3504.913221186906
 21
792.4926790078109
 31
0.0
  0
ARC
  5
122
330
A2
100
AcDbEntity
  8
8738125601_02
  6
Continuous
 62
     7
100
AcDbCircle
 10
-3509.913221186903
 20
792.4926790078108
 30
0.0
 40
4.999999999996785
100
AcDbArc
 50
0.0
 51
90.0
  0
LINE
  5
123
330
A2
100
AcDbEntity
  8
8738125601_02
  6
Continuous
 62
     7
100
AcDbLine
 10
-3509.913221186903
 20
797.4926790078109
 30
0.0
 11
-3669.913221186906
 21
797.4926790078108
 31
0.0
  0
ARC
  5
124
330
A2
100
AcDbEntity
  8
8738125601_02
  6
Continuous
 62
     7
100
AcDbCircle
 10
-4329.913221186906
 20
792.4926790078107
 30
0.0
 40
5.000000000000004
100
AcDbArc
 50
90.0
 51
180.0
  0
LINE
  5
125
330
A2
100
AcDbEntity
  8
8738125601_02
  6
Continuous
 62
     7
100
AcDbLine
 10
-4334.913221186906
 20
792.4926790078107
 30
0.0
 11
-4334.913221186906
 21
732.4926790078107
 31
0.0
  0
ARC
  5
126
330
A2
100
AcDbEntity
  8
8738125601_02
  6
Continuous
 62
     7
100
AcDbCircle
 10
-4329.913221186906
 20
732.4926790078108
 30
0.0
 40
4.999999999999893
100
AcDbArc
 50
180.0
 51
270.0
  0
LINE
  5
127
330
A2
100
AcDbEntity
  8
8738125601_02
  6
Continuous
 62
     7
100
AcDbLine
 10
-4329.913221186906
 20
727.4926790078108
 30
0.0
 11
-4169.913221186903
 21
727.4926790078108
 31
0.0
  0
ARC
  5
128
330
A2
100
AcDbEntity
  8
8738125601_02
  6
Continuous
 62
     7
100
AcDbCircle
 10
-4169.913221186903
 20
732.4926790078108
 30
0.0
 40
5.000000000000004
100
AcDbArc
 50
270.0
 51
0.0
  0
LINE
  5
129
330
A2
100
AcDbEntity
  8
8738125601_02
  6
Continuous
 62
     7
100
AcDbLine
 10
-4164.913221186903
 20
732.4926790078108
 30
0.0
 11
-4164.913221186903
 21
792.4926790078107
 31
0.0
  0
ARC
  5
12A
330
A2
100
AcDbEntity
  8
8738125601_02
  6
Continuous
 62
     7
100
AcDbCircle
 10
-4169.913221186903
 20
792.4926790078108
 30
0.0
 40
4.999999999999893
100
AcDbArc
 50
0.0
 51
90.0
  0
LINE
  5
12B
330
A2
100
AcDbEntity
  8
8738125601_02
  6
Continuous
 62
     7
100
AcDbLine
 10
-4169.913221186903
 20
797.4926790078107
 30
0.0
 11
-4329.913221186906
 21
797.4926790078107
 31
0.0
  0
ARC
  5
12D
330
A2
100
AcDbEntity
  8
8738126465_00
  6
Continuous
 62
     7
100
AcDbCircle
 10
-4337.718365460623
 20
732.992679007811
 30
0.0
 40
5.500000000000018
100
AcDbArc
 50
316.8717320070186
 51
351.9999999999985
  0
LINE
  5
12E
330
A2
100
AcDbEntity
  8
8738126465_00
  6
Continuous
 62
     7
100
AcDbLine
 10
-4325.554551291265
 20
780.0235831183719
 30
0.0
 11
-4332.271891082545
 21
732.2272269525307
 31
0.0
  0
ARC
  5
12F
330
A2
100
AcDbEntity
  8
8738126465_00
  6
Continuous
 62
     7
100
AcDbCircle
 10
-4314.661602535107
 20
778.4926790078111
 30
0.0
 40
11.00000000000001
100
AcDbArc
 50
90.0
 51
172.0000000000005
  0
LINE
  5
130
330
A2
100
AcDbEntity
  8
8738126465_00
  6
Continuous
 62
     7
100
AcDbLine
 10
-4185.164839838702
 20
789.4926790078111
 30
0.0
 11
-4314.661602535108
 21
789.4926790078111
 31
0.0
  0
ARC
  5
131
330
A2
100
AcDbEntity
  8
8738126465_00
  6
Continuous
 62
     7
100
AcDbCircle
 10
-4185.164839838702
 20
778.4926790078113
 30
0.0
 40
10.99999999999993
100
AcDbArc
 50
7.999999999999621
 51
90.0
  0
LINE
  5
132
330
A2
100
AcDbEntity
  8
8738126465_00
  6
Continuous
 62
     7
100
AcDbLine
 10
-4167.554551291265
 20
732.2272269525308
 30
0.0
 11
-4174.271891082545
 21
780.0235831183719
 31
0.0
  0
ARC
  5
133
330
A2
100
AcDbEntity
  8
8738126465_00
  6
Continuous
 62
     7
100
AcDbCircle
 10
-4162.108076913186
 20
732.9926790078111
 30
0.0
 40
5.499999999999949
100
AcDbArc
 50
187.9999999999991
 51
223.1282683329243
  0
ARC
  5
134
330
A2
100
AcDbEntity
  8
8738126465_00
  6
Continuous
 62
     7
100
AcDbCircle
 10
-3677.718365460623
 20
732.992679007811
 30
0.0
 40
5.500000000000018
100
AcDbArc
 50
316.8717317678654
 51
351.9999999999992
  0
LINE
  5
135
330
A2
100
AcDbEntity
  8
8738126465_00
  6
Continuous
 62
     7
100
AcDbLine
 10
-3665.554551291264
 20
780.0235831183719
 30
0.0
 11
-3672.271891082545
 21
732.2272269525307
 31
0.0
  0
ARC
  5
136
330
A2
100
AcDbEntity
  8
8738126465_00
  6
Continuous
 62
     7
100
AcDbCircle
 10
-3654.661602535107
 20
778.4926790078111
 30
0.0
 40
10.99999999999995
100
AcDbArc
 50
90.0
 51
171.9999999999998
  0
LINE
  5
137
330
A2
100
AcDbEntity
  8
8738126465_00
  6
Continuous
 62
     7
100
AcDbLine
 10
-3525.164839838702
 20
789.4926790078111
 30
0.0
 11
-3654.661602535107
 21
789.4926790078111
 31
0.0
  0
ARC
  5
138
330
A2
100
AcDbEntity
  8
8738126465_00
  6
Continuous
 62
     7
100
AcDbCircle
 10
-3525.164839838702
 20
778.4926790078111
 30
0.0
 40
10.99999999999982
100
AcDbArc
 50
8.000000000000535
 51
90.0
  0
LINE
  5
139
330
A2
100
AcDbEntity
  8
8738126465_00
  6
Continuous
 62
     7
100
AcDbLine
 10
-3507.554551291265
 20
732.2272269525307
 30
0.0
 11
-3514.271891082545
 21
780.0235831183719
 31
0.0
  0
ARC
  5
13A
330
A2
100
AcDbEntity
  8
8738126465_00
  6
Continuous
 62
     7
100
AcDbCircle
 10
-3502.108076913186
 20
732.992679007811
 30
0.0
 40
5.499999999999949
100
AcDbArc
 50
187.9999999999996
 51
223.1282659250436
  0
LINE
  5
13C
330
A2
100
AcDbEntity
  8
8738125602_01
  6
Continuous
 62
     7
100
AcDbLine
 10
-4745.913221186906
 20
910.9542032348766
 30
0.0
 11
-4745.913221186906
 21
858.9926790078102
 31
0.0
  0
LINE
  5
13E
330
A2
100
AcDbEntity
  8
8738125119_02
  6
Continuous
 62
     7
100
AcDbLine
 10
-2525.91322118704
 20
756.2926790078112
 30
0.0
 11
-2525.91322118704
 21
798.6926790078114
 31
0.0
  0
LINE
  5
13F
330
A2
100
AcDbEntity
  8
8738125119_02
  6
Continuous
 62
     7
100
AcDbLine
 10
-2487.913221186905
 20
798.4476790078113
 30
0.0
 11
-2487.913221186905
 21
756.5376790078112
 31
0.0
  0
SPLINE
  5
140
330
A2
100
AcDbEntity
  8
8738125119_02
  6
Continuous
 62
     7
100
AcDbSpline
210
0.0
220
0.0
230
1.0
 70
     8
 71
     3
 72
     9
 73
     5
 74
     0
 42
0.0000000000240612
 43
0.0000000001
 40
0.0
 40
0.0
 40
0.0
 40
0.0
 40
0.5027219844729179
 40
0.6424381708074516
 40
0.6424381708074516
 40
0.6424381708074516
 40
0.6424381708074516
 10
-2525.91322118704
 20
798.6926790078113
 30
0.0
 10
-2602.554770682921
 20
798.6926790078113
 30
0.0
 10
-2684.036605149071
 20
798.4488924878964
 30
0.0
 10
-2773.452269753364
 20
798.8281850087193
 30
0.0
 10
-2792.913263696286
 20
798.8217768881724
 30
0.0
  0
SPLINE
  5
141
330
A2
100
AcDbEntity
  8
8738125119_02
  6
Continuous
 62
     7
100
AcDbSpline
210
0.0
220
0.0
230
1.0
 70
     8
 71
     3
 72
     8
 73
     4
 74
     0
 42
0.0000000000239378
 43
0.0000000001
 40
0.661583532059537
 40
0.661583532059537
 40
0.661583532059537
 40
0.661583532059537
 40
0.6711588299678796
 40
0.6711588299678796
 40
0.6711588299678796
 40
0.6711588299678796
 10
-2800.913426611047
 20
798.8138303230361
 30
0.0
 10
-2802.24698398862
 20
798.8115691431818
 30
0.0
 10
-2803.580380235626
 20
798.8088142461673
 30
0.0
 10
-2804.91349940728
 20
798.805527530516
 30
0.0
  0
SPLINE
  5
142
330
A2
100
AcDbEntity
  8
8738125119_02
  6
Continuous
 62
     7
100
AcDbSpline
210
0.0
220
0.0
230
1.0
 70
     8
 71
     3
 72
     8
 73
     4
 74
     0
 42
0.0000000000207319
 43
0.0000000001
 40
0.4215938913421394
 40
0.4215938913421394
 40
0.4215938913421394
 40
0.4215938913421394
 40
0.4298866401885132
 40
0.4298866401885132
 40
0.4298866401885132
 40
0.4298866401885132
 10
-2804.913221346897
 20
756.2931154941696
 30
0.0
 10
-2803.579910350336
 20
756.2936042105173
 30
0.0
 10
-2802.246574256274
 20
756.2938587832988
 30
0.0
 10
-2800.913221279824
 20
756.2939558176054
 30
0.0
  0
SPLINE
  5
143
330
A2
100
AcDbEntity
  8
8738125119_02
  6
Continuous
 62
     7
100
AcDbSpline
210
0.0
220
0.0
230
1.0
 70
     8
 71
     3
 72
    19
 73
    15
 74
     0
 42
0.0000000000207314
 43
0.0000000001
 40
0.4511280976642198
 40
0.4511280976642198
 40
0.4511280976642198
 40
0.4511280976642198
 40
0.4541727698462974
 40
0.4885223082576364
 40
0.5646926221474189
 40
0.6408899046600915
 40
0.7114481694665759
 40
0.7335924782989081
 40
0.7603138053785464
 40
0.7941071030725645
 40
0.8349723713809901
 40
0.8829096103042318
 40
0.9379188198432886
 40
1.0
 40
1.0
 40
1.0
 40
1.0
 10
-2790.667078055923
 20
756.2928880266157
 30
0.0
 10
-2790.177527243666
 20
756.2928118757178
 30
0.0
 10
-2784.164943916243
 20
756.2919406418665
 30
0.0
 10
-2765.905443736534
 20
756.2934202042276
 30
0.0
 10
-2735.883696592489
 20
756.2924189100696
 30
0.0
 10
-2700.040292713474
 20
756.2927453087449
 30
0.0
 10
-2672.883267744087
 20
756.2926743058079
 30
0.0
 10
-2653.681761025787
 20
756.2926798169132
 30
0.0
 10
-2640.390427181719
 20
756.2926787066369
 30
0.0
 10
-2624.094534915545
 20
756.2926791164347
 30
0.0
 10
-2604.359711111344
 20
756.292678970506
 30
0.0
 10
-2581.345966235932
 20
756.2926790202335
 30
0.0
 10
-2554.310665891834
 20
756.2926790035383
 30
0.0
 10
-2536.893229132919
 20
756.2926790078112
 30
0.0
 10
-2525.91322118704
 20
756.2926790078112
 30
0.0
  0
LINE
  5
144
330
A2
100
AcDbEntity
  8
8738125119_02
  6
Continuous
 62
     7
100
AcDbLine
 10
-2525.913221186906
 20
756.5376790078112
 30
0.0
 11
-2504.913221186905
 21
756.5376790078112
 31
0.0
  0
LINE
  5
145
330
A2
100
AcDbEntity
  8
8738125119_02
  6
Continuous
 62
     7
100
AcDbLine
 10
-2504.913221186905
 20
798.4476790078113
 30
0.0
 11
-2525.913221186906
 21
798.4476790078113
 31
0.0
  0
LINE
  5
146
330
A2
100
AcDbEntity
  8
8738125119_02
  6
Continuous
 62
     7
100
AcDbLine
 10
-2504.913221186905
 20
758.0166790078113
 30
0.0
 11
-2525.913221186905
 21
758.0166790078113
 31
0.0
  0
LINE
  5
147
330
A2
100
AcDbEntity
  8
8738125119_02
  6
Continuous
 62
     7
100
AcDbLine
 10
-2504.913221186905
 20
796.9686790078114
 30
0.0
 11
-2525.913221186905
 21
796.9686790078114
 31
0.0
  0
LINE
  5
149
330
A2
100
AcDbEntity
  8
8738125607_01
  6
Continuous
 62
     7
100
AcDbLine
 10
-2792.913221186906
 20
847.492679007812
 30
0.0
 11
-2787.913221186906
 21
847.492679007812
 31
0.0
  0
LINE
  5
14B
330
A2
100
AcDbEntity
  8
8738125609_01
  6
Continuous
 62
     7
100
AcDbLine
 10
-2538.913221186905
 20
1652.992679007812
 30
0.0
 11
-2538.913221186906
 21
1297.992679007812
 31
0.0
  0
LINE
  5
14C
330
A2
100
AcDbEntity
  8
8738125609_01
  6
Continuous
 62
     7
100
AcDbLine
 10
-2543.913221186907
 20
1297.992679007812
 30
0.0
 11
-2538.913221186906
 21
1297.992679007812
 31
0.0
  0
LINE
  5
14E
330
A2
100
AcDbEntity
  8
8738123435_00
  6
Continuous
 62
     7
100
AcDbLine
 10
-2473.744295057181
 20
1301.992679007812
 30
0.0
 11
-2473.744295057181
 21
1648.992679007812
 31
0.0
  0
LINE
  5
14F
330
A2
100
AcDbEntity
  8
8738123435_00
  6
Continuous
 62
     7
100
AcDbLine
 10
-2538.728758122043
 20
1298.992679007812
 30
0.0
 11
-2538.728758122043
 21
1651.992679007812
 31
0.0
  0
LINE
  5
150
330
A2
100
AcDbEntity
  8
8738123435_00
  6
Continuous
 62
     7
100
AcDbLine
 10
-2538.728758122043
 20
1298.992679007812
 30
0.0
 11
-2473.744295057181
 21
1301.992679007812
 31
0.0
  0
LINE
  5
151
330
A2
100
AcDbEntity
  8
8738123435_00
  6
Continuous
 62
     7
100
AcDbLine
 10
-2473.744295057181
 20
1648.992679007812
 30
0.0
 11
-2538.728758122043
 21
1651.992679007812
 31
0.0
  0
LINE
  5
152
330
A2
100
AcDbEntity
  8
8738123435_00
  6
Continuous
 62
     7
100
AcDbLine
 10
-2538.728758122043
 20
1651.992679007812
 30
0.0
 11
-2538.913221186905
 21
1647.996934599357
 31
0.0
  0
LINE
  5
153
330
A2
100
AcDbEntity
  8
8738123435_00
  6
Continuous
 62
     7
100
AcDbLine
 10
-2538.913221186905
 20
1302.988423416267
 30
0.0
 11
-2538.728758122043
 21
1298.992679007812
 31
0.0
  0
LINE
  5
155
330
A2
100
AcDbEntity
  8
8738125097_06
  6
Continuous
 62
     7
100
AcDbLine
 10
-2543.913221186907
 20
1098.492719007683
 30
0.0
 11
-2540.913221186906
 21
1098.492719007683
 31
0.0
  0
LINE
  5
156
330
A2
100
AcDbEntity
  8
8738125097_06
  6
Continuous
 62
     7
100
AcDbLine
 10
-2540.913221186906
 20
1098.492679007812
 30
0.0
 11
-2543.913221186907
 21
1098.492679007812
 31
0.0
  0
LINE
  5
158
330
A2
100
AcDbEntity
  8
8738114657_00
  6
Continuous
 62
     7
100
AcDbLine
 10
-2540.913221186906
 20
894.4926990077472
 30
0.0
 11
-2543.913221186907
 21
894.4926990077472
 31
0.0
  0
LINE
  5
159
330
A2
100
AcDbEntity
  8
8738114657_00
  6
Continuous
 62
     7
100
AcDbLine
 10
-2540.913221186906
 20
888.4926990077472
 30
0.0
 11
-2543.913221186907
 21
888.4926990077472
 31
0.0
  0
LINE
  5
15A
330
A2
100
AcDbEntity
  8
8738114657_00
  6
Continuous
 62
     7
100
AcDbLine
 10
-2540.913221186906
 20
882.4926990077472
 30
0.0
 11
-2543.913221186907
 21
882.4926990077472
 31
0.0
  0
LINE
  5
15B
330
A2
100
AcDbEntity
  8
8738114657_00
  6
Continuous
 62
     7
100
AcDbLine
 10
-2540.913221186906
 20
1114.492699007747
 30
0.0
 11
-2543.913221186907
 21
1114.492699007747
 31
0.0
  0
LINE
  5
15C
330
A2
100
AcDbEntity
  8
8738114657_00
  6
Continuous
 62
     7
100
AcDbLine
 10
-2540.913221186906
 20
1108.492699007747
 30
0.0
 11
-2543.913221186907
 21
1108.492699007747
 31
0.0
  0
LINE
  5
15D
330
A2
100
AcDbEntity
  8
8738114657_00
  6
Continuous
 62
     7
100
AcDbLine
 10
-2540.913221186906
 20
1102.492699007747
 30
0.0
 11
-2543.913221186907
 21
1102.492699007747
 31
0.0
  0
LINE
  5
15F
330
A2
100
AcDbEntity
  8
8738125891_00
  6
Continuous
 62
     7
100
AcDbLine
 10
-2503.913221186906
 20
869.1426790078118
 30
0.0
 11
-2503.913221186906
 21
847.8426790078119
 31
0.0
  0
LINE
  5
160
330
A2
100
AcDbEntity
  8
8738125891_00
  6
Continuous
 62
     7
100
AcDbLine
 10
-2502.913221186906
 20
848.8426790078119
 30
0.0
 11
-2502.913221186905
 21
868.1426790078118
 31
0.0
  0
LINE
  5
161
330
A2
100
AcDbEntity
  8
8738125891_00
  6
Continuous
 62
     7
100
AcDbLine
 10
-2503.913221186906
 20
869.1426790078118
 30
0.0
 11
-2543.913221186907
 21
869.1426790078118
 31
0.0
  0
LINE
  5
162
330
A2
100
AcDbEntity
  8
8738125891_00
  6
Continuous
 62
     7
100
AcDbLine
 10
-2543.913221186907
 20
847.8426790078119
 30
0.0
 11
-2503.913221186906
 21
847.8426790078119
 31
0.0
  0
LINE
  5
163
330
A2
100
AcDbEntity
  8
8738125891_00
  6
Continuous
 62
     7
100
AcDbLine
 10
-2503.913221186906
 20
847.8426790078117
 30
0.0
 11
-2502.913221186906
 21
848.8426790078117
 31
0.0
  0
LINE
  5
164
330
A2
100
AcDbEntity
  8
8738125891_00
  6
Continuous
 62
     7
100
AcDbLine
 10
-2502.913221186906
 20
868.1426790078117
 30
0.0
 11
-2503.913221186906
 21
869.1426790078117
 31
0.0
  0
LINE
  5
165
330
A2
100
AcDbEntity
  8
8738125157_03
  6
Continuous
 62
     7
100
AcDbLine
 10
-4665.913221186906
 20
2005.092679007811
 30
0.0
 11
-4665.913221186906
 21
2060.492679007811
 31
0.0
  0
CIRCLE
  5
166
330
A2
100
AcDbEntity
  8
8738125157_03
  6
Continuous
 62
     7
100
AcDbCircle
 10
-4595.913221186906
 20
2047.992679007811
 30
0.0
 40
27.5
  0
LINE
  5
167
330
A2
100
AcDbEntity
  8
8738125157_03
  6
Continuous
 62
     7
100
AcDbLine
 10
-4525.913221186906
 20
2060.492679007811
 30
0.0
 11
-4525.913221186906
 21
2005.092679007811
 31
0.0
  0
ARC
  5
168
330
A2
100
AcDbEntity
  8
8738125157_03
  6
Continuous
 62
     7
100
AcDbCircle
 10
-4560.913221186906
 20
2060.492679007811
 30
0.0
 40
35.0
100
AcDbArc
 50
0.0
 51
90.0
  0
LINE
  5
169
330
A2
100
AcDbEntity
  8
8738125157_03
  6
Continuous
 62
     7
100
AcDbLine
 10
-4630.913221186906
 20
2095.492679007811
 30
0.0
 11
-4560.913221186906
 21
2095.492679007811
 31
0.0
  0
ARC
  5
16A
330
A2
100
AcDbEntity
  8
8738125157_03
  6
Continuous
 62
     7
100
AcDbCircle
 10
-4630.913221186906
 20
2060.492679007811
 30
0.0
 40
35.00000000000003
100
AcDbArc
 50
90.0
 51
180.0
  0
LINE
  5
16B
330
A2
100
AcDbEntity
  8
8738125157_03
  6
Continuous
 62
     7
100
AcDbLine
 10
-3270.913221186906
 20
2030.092679007812
 30
0.0
 11
-3270.913221186906
 21
2060.492679007802
 31
0.0
  0
ARC
  5
16C
330
A2
100
AcDbEntity
  8
8738125157_03
  6
Continuous
 62
     7
100
AcDbCircle
 10
-3340.913221186906
 20
2047.992679007802
 30
0.0
 40
27.5
100
AcDbArc
 50
319.3898214527014
 51
0.0
  0
ARC
  5
16D
330
A2
100
AcDbEntity
  8
8738125157_03
  6
Continuous
 62
     7
100
AcDbCircle
 10
-3340.913221186906
 20
2047.992679007802
 30
0.0
 40
27.5
100
AcDbArc
 50
0.0
 51
220.610178547298
  0
LINE
  5
16E
330
A2
100
AcDbEntity
  8
8738125157_03
  6
Continuous
 62
     7
100
AcDbLine
 10
-3410.913221186906
 20
2060.492679007802
 30
0.0
 11
-3410.913221186906
 21
2030.092679007812
 31
0.0
  0
ARC
  5
16F
330
A2
100
AcDbEntity
  8
8738125157_03
  6
Continuous
 62
     7
100
AcDbCircle
 10
-3375.913221186906
 20
2060.492679007802
 30
0.0
 40
35.00000000000003
100
AcDbArc
 50
90.0
 51
180.0
  0
LINE
  5
170
330
A2
100
AcDbEntity
  8
8738125157_03
  6
Continuous
 62
     7
100
AcDbLine
 10
-3305.913221186906
 20
2095.492679007802
 30
0.0
 11
-3375.913221186906
 21
2095.492679007802
 31
0.0
  0
ARC
  5
171
330
A2
100
AcDbEntity
  8
8738125157_03
  6
Continuous
 62
     7
100
AcDbCircle
 10
-3305.913221186906
 20
2060.492679007802
 30
0.0
 40
34.99999999999992
100
AcDbArc
 50
0.0
 51
90.0
  0
LINE
  5
173
330
A2
100
AcDbEntity
  8
8738124914_00
  6
Continuous
 62
     7
100
AcDbLine
 10
-2790.913221186906
 20
767.4926790078108
 30
0.0
 11
-2790.913221186906
 21
727.4926790078108
 31
0.0
  0
LINE
  5
174
330
A2
100
AcDbEntity
  8
8738124914_00
  6
Continuous
 62
     7
100
AcDbLine
 10
-2792.913221186906
 20
767.4926790078108
 30
0.0
 11
-2790.913221186906
 21
767.4926790078108
 31
0.0
  0
LINE
  5
175
330
A2
100
AcDbEntity
  8
8738124914_00
  6
Continuous
 62
     7
100
AcDbLine
 10
-2792.913221186906
 20
727.4926790078108
 30
0.0
 11
-2790.913221186906
 21
727.4926790078108
 31
0.0
  0
LINE
  5
176
330
A2
100
AcDbEntity
  8
8738124914_00
  6
Continuous
 62
     7
100
AcDbLine
 10
-2790.663221186906
 20
746.9936345308972
 30
0.0
 11
-2790.913221186906
 21
746.9936345308972
 31
0.0
  0
LINE
  5
177
330
A2
100
AcDbEntity
  8
8738124914_00
  6
Continuous
 62
     7
100
AcDbLine
 10
-2790.913221186906
 20
741.4932957433224
 30
0.0
 11
-2790.663221186906
 21
741.4932957433224
 31
0.0
  0
LINE
  5
178
330
A2
100
AcDbEntity
  8
8738124914_00
  6
Continuous
 62
     7
100
AcDbLine
 10
-2790.913221186906
 20
751.5313919814043
 30
0.0
 11
-2790.663221186906
 21
751.5313919814043
 31
0.0
  0
LINE
  5
179
330
A2
100
AcDbEntity
  8
8738124914_00
  6
Continuous
 62
     7
100
AcDbLine
 10
-2790.663221186906
 20
755.2925458275582
 30
0.0
 11
-2790.913191186905
 21
755.2925458275582
 31
0.0
  0
LINE
  5
17B
330
A2
100
AcDbEntity
  8
8738125635_00
  6
Continuous
 62
     7
100
AcDbLine
 10
-2787.913221186906
 20
802.492688925166
 30
0.0
 11
-2775.913221186906
 21
802.492688925166
 31
0.0
  0
LINE
  5
17C
330
A2
100
AcDbEntity
  8
8738125635_00
  6
Continuous
 62
     7
100
AcDbLine
 10
-2804.913221186906
 20
802.492688925166
 30
0.0
 11
-2802.913221186906
 21
802.492688925166
 31
0.0
  0
LINE
  5
17E
330
A2
100
AcDbEntity
  8
8738125641_01
  6
Continuous
 62
     7
100
AcDbLine
 10
-2544.913221186906
 20
802.4926790078108
 30
0.0
 11
-2544.913221186906
 21
1402.492679007811
 31
0.0
  0
LINE
  5
17F
330
A2
100
AcDbEntity
  8
8738125641_01
  6
Continuous
 62
     7
100
AcDbLine
 10
-2544.913221186906
 20
1402.492679007811
 30
0.0
 11
-2546.913221186907
 21
1402.492679007811
 31
0.0
  0
SPLINE
  5
180
330
A2
100
AcDbEntity
  8
8738125641_01
  6
Continuous
 62
     7
100
AcDbSpline
210
0.0
220
0.0
230
1.0
 70
    11
 71
     3
 72
    22
 73
    18
 74
     0
 42
0.0000000012100113
 43
0.0000000001
 40
0.0
 40
0.0
 40
0.0
 40
0.0
 40
0.125
 40
0.125
 40
0.25
 40
0.25
 40
0.375
 40
0.375
 40
0.5
 40
0.5
 40
0.625
 40
0.625
 40
0.75
 40
0.75
 40
0.875
 40
0.875
 40
1.0
 40
1.0
 40
1.0
 40
1.0
 10
-2566.913221186906
 20
803.5847451381452
 30
0.0
 10
-2566.384701826699
 20
803.5847451381454
 30
0.0
 10
-2565.867881379969
 20
803.6066216159453
 30
0.0
 10
-2565.129880031145
 20
803.6820532420696
 30
0.0
 10
-2564.913498504666
 20
803.7358527075882
 30
0.0
 10
-2564.912944433067
 20
803.8449212685508
 30
0.0
 10
-2565.125122988354
 20
803.8999799508874
 30
0.0
 10
-2565.871441054885
 20
803.9798160846098
 30
0.0
 10
-2566.390435564266
 20
804.0028390768778
 30
0.0
 10
-2567.434592820257
 20
804.0028788786038
 30
0.0
 10
-2567.956894209528
 20
803.9794975344022
 30
0.0
 10
-2568.695229110244
 20
803.9007468509194
 30
0.0
 10
-2568.912681670772
 20
803.8458515995043
 30
0.0
 10
-2568.913758618934
 20
803.7355712143674
 30
0.0
 10
-2568.697577460504
 20
803.6822112132439
 30
0.0
 10
-2567.959550651675
 20
803.6066687012907
 30
0.0
 10
-2567.441740547114
 20
803.5847451381451
 30
0.0
 10
-2566.913221186906
 20
803.5847451381452
 30
0.0
  0
LINE
  5
181
330
A2
100
AcDbEntity
  8
8738125641_01
  6
Continuous
 62
     7
100
AcDbLine
 10
-2576.913221186906
 20
800.4926790078107
 30
0.0
 11
-2546.913221186906
 21
800.4926790078107
 31
0.0
  0
ARC
  5
182
330
A2
100
AcDbEntity
  8
8738125641_01
  6
Continuous
 62
     7
100
AcDbCircle
 10
-2546.913221186906
 20
802.4926790078107
 30
0.0
 40
1.999999999999891
100
AcDbArc
 50
270.0
 51
0.0
  0
LINE
  5
184
330
A2
100
AcDbEntity
  8
8738125638_00
  6
Continuous
 62
     7
100
AcDbLine
 10
-4694.013352567779
 20
2004.092679007811
 30
0.0
 11
-4745.913221186906
 21
2004.092679007811
 31
0.0
  0
LINE
  5
186
330
A2
100
AcDbEntity
  8
8738125639_00
  6
Continuous
 62
     7
100
AcDbLine
 10
-2785.913221186906
 20
2004.092679007811
 30
0.0
 11
-2935.913221186906
 21
2004.092679007811
 31
0.0
  0
LINE
  5
188
330
A2
100
AcDbEntity
  8
8738125642_01
  6
Continuous
 62
     7
100
AcDbLine
 10
-2543.913221186907
 20
1177.492679007811
 30
0.0
 11
-2543.913221186907
 21
1997.492679007811
 31
0.0
  0
LINE
  5
189
330
A2
100
AcDbEntity
  8
8738125642_01
  6
Continuous
 62
     7
100
AcDbLine
 10
-2543.913221186907
 20
1177.492679007811
 30
0.0
 11
-2544.913221186907
 21
1177.492679007811
 31
0.0
  0
LINE
  5
18A
330
A2
100
AcDbEntity
  8
8738125642_01
  6
Continuous
 62
     7
100
AcDbLine
 10
-2543.913221186907
 20
1997.492679007811
 30
0.0
 11
-2544.913221186907
 21
1997.492679007811
 31
0.0
  0
LINE
  5
18C
330
A2
100
AcDbEntity
  8
8738125640_00
  6
Continuous
 62
     7
100
AcDbLine
 10
-2775.913221186906
 20
800.8269560677287
 30
0.0
 11
-2576.913221186906
 21
800.8269560677287
 31
0.0
  0
LINE
  5
18D
330
A2
100
AcDbEntity
  8
8738125640_00
  6
Continuous
 62
     7
100
AcDbLine
 10
-2775.913221186906
 20
800.8935117851287
 30
0.0
 11
-2775.913221186906
 21
800.8269560677287
 31
0.0
  0
LINE
  5
18E
330
A2
100
AcDbEntity
  8
8738125640_00
  6
Continuous
 62
     7
100
AcDbLine
 10
-2576.913221186907
 20
2004.092679007811
 30
0.0
 11
-2825.913221186906
 21
2004.092679007811
 31
0.0
  0
LINE
  5
190
330
A2
100
AcDbEntity
  8
8738127357_01
  6
Continuous
 62
     7
100
AcDbLine
 10
-2543.913221186907
 20
807.4926790078107
 30
0.0
 11
-2543.913221186907
 21
1197.492679007811
 31
0.0
  0
LINE
  5
191
330
A2
100
AcDbEntity
  8
8738127357_01
  6
Continuous
 62
     7
100
AcDbLine
 10
-2543.913221186907
 20
1197.492679007811
 30
0.0
 11
-2544.913221186907
 21
1197.492679007811
 31
0.0
  0
LINE
  5
192
330
A2
100
AcDbEntity
  8
8738127357_01
  6
Continuous
 62
     7
100
AcDbLine
 10
-2544.913221186907
 20
807.4926790078108
 30
0.0
 11
-2543.913221186907
 21
807.4926790078108
 31
0.0
  0
LINE
  5
193
330
A2
100
AcDbEntity
  8
8738125641_01
  6
Continuous
 62
     7
100
AcDbLine
 10
-2544.913221186907
 20
1402.49267900781
 30
0.0
 11
-2544.913221186907
 21
2002.492679007811
 31
0.0
  0
LINE
  5
194
330
A2
100
AcDbEntity
  8
8738125641_01
  6
Continuous
 62
     7
100
AcDbLine
 10
-2546.913221186907
 20
2004.492679007811
 30
0.0
 11
-2576.913221186907
 21
2004.492679007811
 31
0.0
  0
ARC
  5
195
330
A2
100
AcDbEntity
  8
8738125641_01
  6
Continuous
 62
     7
100
AcDbCircle
 10
-2546.913221186907
 20
2002.492679007811
 30
0.0
 40
2.000000000000224
100
AcDbArc
 50
0.0
 51
90.0
  0
LINE
  5
197
330
A2
100
AcDbEntity
  8
8738125643_02
  6
Continuous
 62
     7
100
AcDbLine
 10
-4700.913221186907
 20
2001.581332210101
 30
0.0
 11
-4692.487719832212
 21
2004.64796391198
 31
0.0
  0
LINE
  5
198
330
A2
100
AcDbEntity
  8
8738125643_02
  6
Continuous
 62
     7
100
AcDbLine
 10
-4700.913221186907
 20
2001.581332210101
 30
0.0
 11
-4700.571201043582
 21
2000.641639589315
 31
0.0
  0
LINE
  5
199
330
A2
100
AcDbEntity
  8
8738125643_02
  6
Continuous
 62
     7
100
AcDbLine
 10
-4700.571201043581
 20
2000.641639589315
 30
0.0
 11
-4700.568372616458
 21
2000.642669052598
 31
0.0
  0
LINE
  5
19A
330
A2
100
AcDbEntity
  8
8738125643_02
  6
Continuous
 62
     7
100
AcDbLine
 10
-4700.568372616453
 20
2001.581332210101
 30
0.0
 11
-4700.568372616455
 21
2000.641639589315
 31
0.0
  0
LINE
  5
19B
330
A2
100
AcDbEntity
  8
8738125643_02
  6
Continuous
 62
     7
100
AcDbLine
 10
-4700.568372616455
 20
2000.641639589315
 30
0.0
 11
-2931.258069757355
 21
2000.641639589315
 31
0.0
  0
LINE
  5
19C
330
A2
100
AcDbEntity
  8
8738125643_02
  6
Continuous
 62
     7
100
AcDbLine
 10
-4700.568372616453
 20
2001.581332210101
 30
0.0
 11
-2931.258069757351
 21
2001.581332210101
 31
0.0
  0
LINE
  5
19D
330
A2
100
AcDbEntity
  8
8738125643_02
  6
Continuous
 62
     7
100
AcDbLine
 10
-2931.258069757351
 20
2001.581332210101
 30
0.0
 11
-2939.681982454929
 21
2004.647385688074
 31
0.0
  0
LINE
  5
19E
330
A2
100
AcDbEntity
  8
8738125643_02
  6
Continuous
 62
     7
100
AcDbLine
 10
-2931.258069757351
 20
2001.581332210101
 30
0.0
 11
-2931.258069757355
 21
2000.641639589315
 31
0.0
  0
LINE
  5
19F
330
A2
100
AcDbEntity
  8
8738125643_02
  6
Continuous
 62
     7
100
AcDbLine
 10
-2930.913221186906
 20
2001.581332210101
 30
0.0
 11
-2931.255241330232
 21
2000.641639589315
 31
0.0
  0
LINE
  5
1A0
330
A2
100
AcDbEntity
  8
8738125643_02
  6
Continuous
 62
     7
100
AcDbLine
 10
-4692.143218702544
 20
2004.647837453877
 30
0.0
 11
-4700.568372616453
 21
2001.581332210101
 31
0.0
  0
LINE
  5
1A1
330
A2
100
AcDbEntity
  8
8738125643_02
  6
Continuous
 62
     7
100
AcDbLine
 10
-4688.910392759783
 20
2005.092679007811
 30
0.0
 11
-4533.819740798613
 21
2005.092679007811
 31
0.0
  0
LINE
  5
1A2
330
A2
100
AcDbEntity
  8
8738125643_02
  6
Continuous
 62
     7
100
AcDbLine
 10
-4692.486480062212
 20
2004.648415151357
 30
0.0
 11
-4691.597261473558
 21
2004.972064249383
 31
0.0
  0
ARC
  5
1A3
330
A2
100
AcDbEntity
  8
8738125643_02
  6
Continuous
 62
     7
100
AcDbCircle
 10
-4690.913221186908
 20
2003.092679007819
 30
0.0
 40
1.999999999992172
100
AcDbArc
 50
89.99999999997394
 51
110.0000000000472
  0
LINE
  5
1A4
330
A2
100
AcDbEntity
  8
8738125643_02
  6
Continuous
 62
     7
100
AcDbLine
 10
-4688.910392759783
 20
2005.092679007812
 30
0.0
 11
-4689.031007518211
 21
2004.972064249383
 31
0.0
  0
ELLIPSE
  5
1A5
330
A2
100
AcDbEntity
  8
8738125643_02
  6
Continuous
 62
     7
100
AcDbEllipse
 10
-4690.910392759784
 20
2005.221034552764
 30
0.0
 11
2.000000000000002
 21
0.0
 31
0.0
210
0.0
220
0.0
230
1.0
 40
0.3639702342662205
 41
4.048209846757929
 42
5.934119456780959
  0
LINE
  5
1A6
330
A2
100
AcDbEntity
  8
8738125643_02
  6
Continuous
 62
     7
100
AcDbLine
 10
-4688.910392759783
 20
2005.092679007811
 30
0.0
 11
-4690.913221186906
 21
2005.092679007811
 31
0.0
  0
LINE
  5
1A7
330
A2
100
AcDbEntity
  8
8738125643_02
  6
Continuous
 62
     7
100
AcDbLine
 10
-4529.819740798615
 20
2005.092679007811
 30
0.0
 11
-4374.729088837444
 21
2005.092679007811
 31
0.0
  0
LINE
  5
1A8
330
A2
100
AcDbEntity
  8
8738125643_02
  6
Continuous
 62
     7
100
AcDbLine
 10
-4529.819740798614
 20
2005.092679007812
 30
0.0
 11
-4529.940355557042
 21
2004.972064249383
 31
0.0
  0
LINE
  5
1A9
330
A2
100
AcDbEntity
  8
8738125643_02
  6
Continuous
 62
     7
100
AcDbLine
 10
-4533.699126040186
 20
2004.972064249383
 30
0.0
 11
-4533.819740798614
 21
2005.092679007812
 31
0.0
  0
ELLIPSE
  5
1AA
330
A2
100
AcDbEntity
  8
8738125643_02
  6
Continuous
 62
     7
100
AcDbEllipse
 10
-4531.819740798614
 20
2005.221034552764
 30
0.0
 11
2.000000000000029
 21
0.0
 31
0.0
210
0.0
220
0.0
230
1.0
 40
0.3639702342661864
 41
3.490658503988459
 42
5.934119456780921
  0
LINE
  5
1AB
330
A2
100
AcDbEntity
  8
8738125643_02
  6
Continuous
 62
     7
100
AcDbLine
 10
-4529.819740798615
 20
2005.092679007811
 30
0.0
 11
-4533.819740798613
 21
2005.092679007811
 31
0.0
  0
LINE
  5
1AC
330
A2
100
AcDbEntity
  8
8738125643_02
  6
Continuous
 62
     7
100
AcDbLine
 10
-4370.729088837445
 20
2005.092679007811
 30
0.0
 11
-4215.638436876272
 21
2005.092679007811
 31
0.0
  0
LINE
  5
1AD
330
A2
100
AcDbEntity
  8
8738125643_02
  6
Continuous
 62
     7
100
AcDbLine
 10
-4370.729088837443
 20
2005.092679007811
 30
0.0
 11
-4370.849703595871
 21
2004.972064249383
 31
0.0
  0
LINE
  5
1AE
330
A2
100
AcDbEntity
  8
8738125643_02
  6
Continuous
 62
     7
100
AcDbLine
 10
-4374.608474079015
 20
2004.972064249383
 30
0.0
 11
-4374.729088837443
 21
2005.092679007812
 31
0.0
  0
ELLIPSE
  5
1AF
330
A2
100
AcDbEntity
  8
8738125643_02
  6
Continuous
 62
     7
100
AcDbEllipse
 10
-4372.729088837443
 20
2005.221034552764
 30
0.0
 11
2.000000000000002
 21
-1.110223024625157E-13
 31
0.0
210
0.0
220
0.0
230
1.0
 40
0.3639702342662058
 41
3.490658503988441
 42
5.934119456780978
  0
LINE
  5
1B0
330
A2
100
AcDbEntity
  8
8738125643_02
  6
Continuous
 62
     7
100
AcDbLine
 10
-4370.729088837445
 20
2005.092679007811
 30
0.0
 11
-4374.729088837441
 21
2005.092679007811
 31
0.0
  0
LINE
  5
1B1
330
A2
100
AcDbEntity
  8
8738125643_02
  6
Continuous
 62
     7
100
AcDbLine
 10
-4211.638436876275
 20
2005.092679007811
 30
0.0
 11
-4056.547784915102
 21
2005.092679007811
 31
0.0
  0
LINE
  5
1B2
330
A2
100
AcDbEntity
  8
8738125643_02
  6
Continuous
 62
     7
100
AcDbLine
 10
-4211.638436876272
 20
2005.092679007812
 30
0.0
 11
-4211.7590516347
 21
2004.972064249383
 31
0.0
  0
LINE
  5
1B3
330
A2
100
AcDbEntity
  8
8738125643_02
  6
Continuous
 62
     7
100
AcDbLine
 10
-4215.517822117844
 20
2004.972064249383
 30
0.0
 11
-4215.638436876272
 21
2005.092679007812
 31
0.0
  0
ELLIPSE
  5
1B4
330
A2
100
AcDbEntity
  8
8738125643_02
  6
Continuous
 62
     7
100
AcDbEllipse
 10
-4213.638436876272
 20
2005.221034552764
 30
0.0
 11
2.000000000000002
 21
0.0
 31
0.0
210
0.0
220
0.0
230
1.0
 40
0.3639702342662045
 41
3.490658503988421
 42
5.934119456780959
  0
LINE
  5
1B5
330
A2
100
AcDbEntity
  8
8738125643_02
  6
Continuous
 62
     7
100
AcDbLine
 10
-4211.638436876275
 20
2005.092679007811
 30
0.0
 11
-4215.63843687627
 21
2005.092679007811
 31
0.0
  0
LINE
  5
1B6
330
A2
100
AcDbEntity
  8
8738125643_02
  6
Continuous
 62
     7
100
AcDbLine
 10
-4052.547784915103
 20
2005.092679007811
 30
0.0
 11
-3897.45713295393
 21
2005.092679007811
 31
0.0
  0
LINE
  5
1B7
330
A2
100
AcDbEntity
  8
8738125643_02
  6
Continuous
 62
     7
100
AcDbLine
 10
-4052.547784915102
 20
2005.092679007812
 30
0.0
 11
-4052.66839967353
 21
2004.972064249383
 31
0.0
  0
LINE
  5
1B8
330
A2
100
AcDbEntity
  8
8738125643_02
  6
Continuous
 62
     7
100
AcDbLine
 10
-4056.427170156674
 20
2004.972064249383
 30
0.0
 11
-4056.547784915102
 21
2005.092679007812
 31
0.0
  0
ELLIPSE
  5
1B9
330
A2
100
AcDbEntity
  8
8738125643_02
  6
Continuous
 62
     7
100
AcDbEllipse
 10
-4054.547784915101
 20
2005.221034552764
 30
0.0
 11
1.99999999999978
 21
0.0
 31
0.0
210
0.0
220
0.0
230
1.0
 40
0.3639702342663341
 41
3.490658503988116
 42
5.934119456780598
  0
LINE
  5
1BA
330
A2
100
AcDbEntity
  8
8738125643_02
  6
Continuous
 62
     7
100
AcDbLine
 10
-4052.547784915103
 20
2005.092679007811
 30
0.0
 11
-4056.547784915099
 21
2005.092679007811
 31
0.0
  0
LINE
  5
1BB
330
A2
100
AcDbEntity
  8
8738125643_02
  6
Continuous
 62
     7
100
AcDbLine
 10
-3893.457132953933
 20
2005.092679007811
 30
0.0
 11
-3738.36648099276
 21
2005.092679007811
 31
0.0
  0
LINE
  5
1BC
330
A2
100
AcDbEntity
  8
8738125643_02
  6
Continuous
 62
     7
100
AcDbLine
 10
-3893.45713295393
 20
2005.092679007811
 30
0.0
 11
-3893.577747712358
 21
2004.972064249383
 31
0.0
  0
LINE
  5
1BD
330
A2
100
AcDbEntity
  8
8738125643_02
  6
Continuous
 62
     7
100
AcDbLine
 10
-3897.336518195503
 20
2004.972064249383
 30
0.0
 11
-3897.457132953931
 21
2005.092679007811
 31
0.0
  0
ELLIPSE
  5
1BE
330
A2
100
AcDbEntity
  8
8738125643_02
  6
Continuous
 62
     7
100
AcDbEllipse
 10
-3895.45713295393
 20
2005.221034552764
 30
0.0
 11
1.999999999999891
 21
0.0
 31
0.0
210
0.0
220
0.0
230
1.0
 40
0.363970234266291
 41
3.490658503987603
 42
5.934119456780446
  0
LINE
  5
1BF
330
A2
100
AcDbEntity
  8
8738125643_02
  6
Continuous
 62
     7
100
AcDbLine
 10
-3893.457132953933
 20
2005.092679007811
 30
0.0
 11
-3897.457132953929
 21
2005.092679007811
 31
0.0
  0
LINE
  5
1C0
330
A2
100
AcDbEntity
  8
8738125643_02
  6
Continuous
 62
     7
100
AcDbLine
 10
-3734.366480992761
 20
2005.092679007811
 30
0.0
 11
-3579.27582903159
 21
2005.092679007811
 31
0.0
  0
LINE
  5
1C1
330
A2
100
AcDbEntity
  8
8738125643_02
  6
Continuous
 62
     7
100
AcDbLine
 10
-3734.36648099276
 20
2005.092679007811
 30
0.0
 11
-3734.487095751188
 21
2004.972064249383
 31
0.0
  0
LINE
  5
1C2
330
A2
100
AcDbEntity
  8
8738125643_02
  6
Continuous
 62
     7
100
AcDbLine
 10
-3738.245866234332
 20
2004.972064249383
 30
0.0
 11
-3738.36648099276
 21
2005.092679007811
 31
0.0
  0
ELLIPSE
  5
1C3
330
A2
100
AcDbEntity
  8
8738125643_02
  6
Continuous
 62
     7
100
AcDbEllipse
 10
-3736.36648099276
 20
2005.221034552764
 30
0.0
 11
2.000000000000002
 21
0.0
 31
0.0
210
0.0
220
0.0
230
1.0
 40
0.363970234266245
 41
3.490658503987091
 42
5.934119456780294
  0
LINE
  5
1C4
330
A2
100
AcDbEntity
  8
8738125643_02
  6
Continuous
 62
     7
100
AcDbLine
 10
-3734.366480992761
 20
2005.092679007811
 30
0.0
 11
-3738.366480992759
 21
2005.092679007811
 31
0.0
  0
LINE
  5
1C5
330
A2
100
AcDbEntity
  8
8738125643_02
  6
Continuous
 62
     7
100
AcDbLine
 10
-3575.275829031591
 20
2005.092679007811
 30
0.0
 11
-3420.185177070419
 21
2005.092679007811
 31
0.0
  0
LINE
  5
1C6
330
A2
100
AcDbEntity
  8
8738125643_02
  6
Continuous
 62
     7
100
AcDbLine
 10
-3575.27582903159
 20
2005.092679007811
 30
0.0
 11
-3575.396443790018
 21
2004.972064249383
 31
0.0
  0
LINE
  5
1C7
330
A2
100
AcDbEntity
  8
8738125643_02
  6
Continuous
 62
     7
100
AcDbLine
 10
-3579.155214273162
 20
2004.972064249383
 30
0.0
 11
-3579.27582903159
 21
2005.092679007811
 31
0.0
  0
ELLIPSE
  5
1C8
330
A2
100
AcDbEntity
  8
8738125643_02
  6
Continuous
 62
     7
100
AcDbEllipse
 10
-3577.275829031589
 20
2005.221034552764
 30
0.0
 11
2.000000000000002
 21
-1.110223024625157E-13
 31
0.0
210
0.0
220
0.0
230
1.0
 40
0.3639702342662824
 41
3.490658503987776
 42
5.934119456780314
  0
LINE
  5
1C9
330
A2
100
AcDbEntity
  8
8738125643_02
  6
Continuous
 62
     7
100
AcDbLine
 10
-3575.275829031591
 20
2005.092679007811
 30
0.0
 11
-3579.275829031588
 21
2005.092679007811
 31
0.0
  0
LINE
  5
1CA
330
A2
100
AcDbEntity
  8
8738125643_02
  6
Continuous
 62
     7
100
AcDbLine
 10
-3416.185177070421
 20
2005.092679007811
 30
0.0
 11
-3261.094525109248
 21
2005.092679007811
 31
0.0
  0
LINE
  5
1CB
330
A2
100
AcDbEntity
  8
8738125643_02
  6
Continuous
 62
     7
100
AcDbLine
 10
-3416.185177070418
 20
2005.092679007812
 30
0.0
 11
-3416.305791828846
 21
2004.972064249383
 31
0.0
  0
LINE
  5
1CC
330
A2
100
AcDbEntity
  8
8738125643_02
  6
Continuous
 62
     7
100
AcDbLine
 10
-3420.064562311991
 20
2004.972064249383
 30
0.0
 11
-3420.185177070419
 21
2005.092679007811
 31
0.0
  0
ELLIPSE
  5
1CD
330
A2
100
AcDbEntity
  8
8738125643_02
  6
Continuous
 62
     7
100
AcDbEllipse
 10
-3418.185177070418
 20
2005.221034552764
 30
0.0
 11
2.000000000000002
 21
-1.110223024625157E-13
 31
0.0
210
0.0
220
0.0
230
1.0
 40
0.3639702342662602
 41
3.490658503987776
 42
5.934119456780978
  0
LINE
  5
1CE
330
A2
100
AcDbEntity
  8
8738125643_02
  6
Continuous
 62
     7
100
AcDbLine
 10
-3416.185177070421
 20
2005.092679007811
 30
0.0
 11
-3420.185177070417
 21
2005.092679007811
 31
0.0
  0
LINE
  5
1CF
330
A2
100
AcDbEntity
  8
8738125643_02
  6
Continuous
 62
     7
100
AcDbLine
 10
-3257.094525109249
 20
2005.092679007811
 30
0.0
 11
-3102.003873148077
 21
2005.092679007811
 31
0.0
  0
LINE
  5
1D0
330
A2
100
AcDbEntity
  8
8738125643_02
  6
Continuous
 62
     7
100
AcDbLine
 10
-3257.094525109247
 20
2005.092679007811
 30
0.0
 11
-3257.215139867675
 21
2004.972064249383
 31
0.0
  0
LINE
  5
1D1
330
A2
100
AcDbEntity
  8
8738125643_02
  6
Continuous
 62
     7
100
AcDbLine
 10
-3260.97391035082
 20
2004.972064249383
 30
0.0
 11
-3261.094525109248
 21
2005.092679007812
 31
0.0
  0
ELLIPSE
  5
1D2
330
A2
100
AcDbEntity
  8
8738125643_02
  6
Continuous
 62
     7
100
AcDbEllipse
 10
-3259.094525109248
 20
2005.221034552764
 30
0.0
 11
2.000000000000002
 21
1.110223024625157E-13
 31
0.0
210
0.0
220
0.0
230
1.0
 40
0.3639702342661497
 41
3.490658503987736
 42
5.934119456780938
  0
LINE
  5
1D3
330
A2
100
AcDbEntity
  8
8738125643_02
  6
Continuous
 62
     7
100
AcDbLine
 10
-3257.094525109249
 20
2005.092679007811
 30
0.0
 11
-3261.094525109246
 21
2005.092679007811
 31
0.0
  0
LINE
  5
1D4
330
A2
100
AcDbEntity
  8
8738125643_02
  6
Continuous
 62
     7
100
AcDbLine
 10
-3098.003873148079
 20
2005.092679007811
 30
0.0
 11
-2942.913221186907
 21
2005.092679007811
 31
0.0
  0
LINE
  5
1D5
330
A2
100
AcDbEntity
  8
8738125643_02
  6
Continuous
 62
     7
100
AcDbLine
 10
-3098.003873148077
 20
2005.092679007812
 30
0.0
 11
-3098.124487906505
 21
2004.972064249383
 31
0.0
  0
LINE
  5
1D6
330
A2
100
AcDbEntity
  8
8738125643_02
  6
Continuous
 62
     7
100
AcDbLine
 10
-3101.883258389649
 20
2004.972064249383
 30
0.0
 11
-3102.003873148077
 21
2005.092679007811
 31
0.0
  0
ELLIPSE
  5
1D7
330
A2
100
AcDbEntity
  8
8738125643_02
  6
Continuous
 62
     7
100
AcDbEllipse
 10
-3100.003873148078
 20
2005.221034552764
 30
0.0
 11
2.000000000000002
 21
0.0
 31
0.0
210
0.0
220
0.0
230
1.0
 40
0.3639702342662481
 41
3.490658503988421
 42
5.934119456780959
  0
LINE
  5
1D8
330
A2
100
AcDbEntity
  8
8738125643_02
  6
Continuous
 62
     7
100
AcDbLine
 10
-3098.003873148079
 20
2005.092679007811
 30
0.0
 11
-3102.003873148075
 21
2005.092679007811
 31
0.0
  0
LINE
  5
1D9
330
A2
100
AcDbEntity
  8
8738125643_02
  6
Continuous
 62
     7
100
AcDbLine
 10
-2931.258069757358
 20
2000.642669052599
 30
0.0
 11
-2931.255241330233
 21
2000.641639589315
 31
0.0
  0
LINE
  5
1DA
330
A2
100
AcDbEntity
  8
8738125643_02
  6
Continuous
 62
     7
100
AcDbLine
 10
-2939.337133884478
 20
2004.647385688074
 30
0.0
 11
-2930.913221186906
 21
2001.581332210101
 31
0.0
  0
ELLIPSE
  5
1DB
330
A2
100
AcDbEntity
  8
8738125643_02
  6
Continuous
 62
     7
100
AcDbEllipse
 10
-2940.913221186907
 20
2005.221034552764
 30
0.0
 11
2.000000000000002
 21
0.0
 31
0.0
210
0.0
220
0.0
230
1.0
 40
0.3639702342661839
 41
3.490658503988421
 42
5.37556065974302
  0
LINE
  5
1DC
330
A2
100
AcDbEntity
  8
8738125643_02
  6
Continuous
 62
     7
100
AcDbLine
 10
-2942.792606428479
 20
2004.972064249383
 30
0.0
 11
-2942.913221186907
 21
2005.092679007812
 31
0.0
  0
ARC
  5
1DD
330
A2
100
AcDbEntity
  8
8738125643_02
  6
Continuous
 62
     7
100
AcDbCircle
 10
-2940.913221186906
 20
2003.092679007812
 30
0.0
 40
1.999999999999447
100
AcDbArc
 50
70.00000000000408
 51
90.0
  0
LINE
  5
1DE
330
A2
100
AcDbEntity
  8
8738125643_02
  6
Continuous
 62
     7
100
AcDbLine
 10
-2940.229180900255
 20
2004.972064249383
 30
0.0
 11
-2939.338375100821
 21
2004.647837453878
 31
0.0
  0
LINE
  5
1DF
330
A2
100
AcDbEntity
  8
8738125643_02
  6
Continuous
 62
     7
100
AcDbLine
 10
-2940.913221186907
 20
2005.092679007811
 30
0.0
 11
-2942.913221186907
 21
2005.092679007811
 31
0.0
  0
LINE
  5
1E0
330
A2
100
AcDbEntity
  8
8738125614_01
  6
Continuous
 62
     7
100
AcDbLine
 10
-5046.913221186906
 20
1754.080133613861
 30
0.0
 11
-5046.913221186906
 21
1957.492679007811
 31
0.0
  0
LINE
  5
1E1
330
A2
100
AcDbEntity
  8
8738125614_01
  6
Continuous
 62
     7
100
AcDbLine
 10
-5040.913221186905
 20
1754.080133613861
 30
0.0
 11
-5040.913221186905
 21
1763.887282645052
 31
0.0
  0
LINE
  5
1E2
330
A2
100
AcDbEntity
  8
8738125614_01
  6
Continuous
 62
     7
100
AcDbLine
 10
-5040.814471581484
 20
1051.799245472321
 30
0.0
 11
-5011.035547283731
 21
1097.749849874029
 31
0.0
  0
LINE
  5
1E3
330
A2
100
AcDbEntity
  8
8738125614_01
  6
Continuous
 62
     7
100
AcDbLine
 10
-5040.814471581485
 20
1753.1861125433
 30
0.0
 11
-5046.723318099558
 21
1753.1861125433
 31
0.0
  0
LINE
  5
1E4
330
A2
100
AcDbEntity
  8
8738125614_01
  6
Continuous
 62
     7
100
AcDbLine
 10
-5046.723318102167
 20
1051.799245468294
 30
0.0
 11
-5016.944393801805
 21
1097.749849874029
 31
0.0
  0
LINE
  5
1E5
330
A2
100
AcDbEntity
  8
8738125614_01
  6
Continuous
 62
     7
100
AcDbLine
 10
-5040.913221186905
 20
1050.905224401761
 30
0.0
 11
-5040.898610885662
 21
1051.600957817355
 31
0.0
  0
LINE
  5
1E6
330
A2
100
AcDbEntity
  8
8738125614_01
  6
Continuous
 62
     7
100
AcDbLine
 10
-5040.898610885662
 20
1051.600957817355
 30
0.0
 11
-5046.885124453746
 21
1051.600957817355
 31
0.0
  0
LINE
  5
1E7
330
A2
100
AcDbEntity
  8
8738125614_01
  6
Continuous
 62
     7
100
AcDbLine
 10
-5040.913221186905
 20
1754.080133613861
 30
0.0
 11
-5046.913221186905
 21
1754.080133613861
 31
0.0
  0
LINE
  5
1E8
330
A2
100
AcDbEntity
  8
8738125614_01
  6
Continuous
 62
     7
100
AcDbLine
 10
-5040.913221186905
 20
1050.905224401761
 30
0.0
 11
-5046.913221186905
 21
1050.905224401761
 31
0.0
  0
LINE
  5
1E9
330
A2
100
AcDbEntity
  8
8738125614_01
  6
Continuous
 62
     7
100
AcDbLine
 10
-5046.913221186906
 20
1050.905224401761
 30
0.0
 11
-5046.885124453746
 21
1051.600957817355
 31
0.0
  0
LINE
  5
1EA
330
A2
100
AcDbEntity
  8
8738125614_01
  6
Continuous
 62
     7
100
AcDbLine
 10
-5046.885124453745
 20
1051.600957817355
 30
0.0
 11
-5046.723318102355
 21
1051.799245472321
 31
0.0
  0
LINE
  5
1EB
330
A2
100
AcDbEntity
  8
8738125614_01
  6
Continuous
 62
     7
100
AcDbLine
 10
-5046.723318099558
 20
1753.1861125433
 30
0.0
 11
-5046.885124452667
 21
1753.384400198266
 31
0.0
  0
LINE
  5
1EC
330
A2
100
AcDbEntity
  8
8738125614_01
  6
Continuous
 62
     7
100
AcDbLine
 10
-5040.913221186906
 20
1753.384400198266
 30
0.0
 11
-5046.885124453746
 21
1753.384400198266
 31
0.0
  0
LINE
  5
1ED
330
A2
100
AcDbEntity
  8
8738125614_01
  6
Continuous
 62
     7
100
AcDbLine
 10
-5040.898610885662
 20
1051.600957817355
 30
0.0
 11
-5040.814471582939
 21
1051.799245472321
 31
0.0
  0
LINE
  5
1EE
330
A2
100
AcDbEntity
  8
8738125614_01
  6
Continuous
 62
     7
100
AcDbLine
 10
-5040.814471581484
 20
1051.799245472321
 30
0.0
 11
-5046.723317742853
 21
1051.799245472321
 31
0.0
  0
LINE
  5
1EF
330
A2
100
AcDbEntity
  8
8738125614_01
  6
Continuous
 62
     7
100
AcDbLine
 10
-5006.530882008853
 20
1131.557253794146
 30
0.0
 11
-5006.530882008853
 21
1673.428104221476
 31
0.0
  0
LINE
  5
1F0
330
A2
100
AcDbEntity
  8
8738125614_01
  6
Continuous
 62
     7
100
AcDbLine
 10
-5012.439728526926
 20
1131.557253794146
 30
0.0
 11
-5012.439728526926
 21
1673.428104221476
 31
0.0
  0
LINE
  5
1F1
330
A2
100
AcDbEntity
  8
8738125614_01
  6
Continuous
 62
     7
100
AcDbLine
 10
-5011.035547283732
 20
1707.235508141593
 30
0.0
 11
-5040.814471581485
 21
1753.1861125433
 31
0.0
  0
ELLIPSE
  5
1F2
330
A2
100
AcDbEntity
  8
8738125614_01
  6
Continuous
 62
     7
100
AcDbEllipse
 10
-5012.608568227195
 20
1673.428104221476
 30
0.0
 11
5.551115123125783E-14
 21
34.99999999999986
 31
0.0
210
0.0
220
0.0
230
1.0
 40
0.1736481776669322
 41
4.71238898038469
 42
6.021385919380452
  0
ELLIPSE
  5
1F3
330
A2
100
AcDbEntity
  8
8738125614_01
  6
Continuous
 62
     7
100
AcDbEllipse
 10
-5012.608568227195
 20
1131.557253794146
 30
0.0
 11
0.0
 21
-35.00000000000006
 31
0.0
210
0.0
220
0.0
230
1.0
 40
0.1736481776669293
 41
0.2617993877991305
 42
1.570796326794897
  0
LINE
  5
1F4
330
A2
100
AcDbEntity
  8
8738125614_01
  6
Continuous
 62
     7
100
AcDbLine
 10
-5016.944393801805
 20
1707.235508141593
 30
0.0
 11
-5046.723318099558
 21
1753.1861125433
 31
0.0
  0
ELLIPSE
  5
1F5
330
A2
100
AcDbEntity
  8
8738125614_01
  6
Continuous
 62
     7
100
AcDbEllipse
 10
-5018.517414745269
 20
1673.428104221476
 30
0.0
 11
0.0
 21
-34.99999999999998
 31
0.0
210
0.0
220
0.0
230
1.0
 40
0.1736481776669304
 41
1.570796326794897
 42
2.879793265790647
  0
ELLIPSE
  5
1F6
330
A2
100
AcDbEntity
  8
8738125614_01
  6
Continuous
 62
     7
100
AcDbEllipse
 10
-5018.517414745268
 20
1131.557253794146
 30
0.0
 11
5.551115123125783E-14
 21
-35.0
 31
0.0
210
0.0
220
0.0
230
1.0
 40
0.1736481776669319
 41
0.2617993877990987
 42
1.570796326794896
  0
LINE
  5
1F7
330
A2
100
AcDbEntity
  8
8738125614_01
  6
Continuous
 62
     7
100
AcDbLine
 10
-5046.913221186906
 20
847.4926790078108
 30
0.0
 11
-5046.913221186906
 21
1050.905224401761
 31
0.0
  0
LINE
  5
1F8
330
A2
100
AcDbEntity
  8
8738125614_01
  6
Continuous
 62
     7
100
AcDbLine
 10
-5040.913221186905
 20
1045.707254857371
 30
0.0
 11
-5040.913221186905
 21
847.4926790078106
 31
0.0
  0
LINE
  5
1F9
330
A2
100
AcDbEntity
  8
8738125614_01
  6
Continuous
 62
     7
100
AcDbLine
 10
-5040.913221186905
 20
1045.783859301631
 30
0.0
 11
-5040.913221186905
 21
1050.905224401761
 31
0.0
  0
LINE
  5
1FA
330
A2
100
AcDbEntity
  8
8738125614_01
  6
Continuous
 62
     7
100
AcDbLine
 10
-5041.113221186905
 20
1045.707253409652
 30
0.0
 11
-5041.113221186905
 21
1045.745554184126
 31
0.0
  0
LINE
  5
1FB
330
A2
100
AcDbEntity
  8
8738125614_01
  6
Continuous
 62
     7
100
AcDbLine
 10
-5041.113221186905
 20
1045.783857853912
 30
0.0
 11
-5041.113221186905
 21
1045.745555631846
 31
0.0
  0
LINE
  5
1FC
330
A2
100
AcDbEntity
  8
8738125614_01
  6
Continuous
 62
     7
100
AcDbLine
 10
-5041.113221186905
 20
1045.783857853912
 30
0.0
 11
-5040.913221186906
 21
1045.783857853912
 31
0.0
  0
LINE
  5
1FD
330
A2
100
AcDbEntity
  8
8738125614_01
  6
Continuous
 62
     7
100
AcDbLine
 10
-5041.113221186905
 20
1045.707253409652
 30
0.0
 11
-5040.913221186906
 21
1045.707253409652
 31
0.0
  0
LINE
  5
1FE
330
A2
100
AcDbEntity
  8
8738125614_01
  6
Continuous
 62
     7
100
AcDbLine
 10
-5040.913221186905
 20
1763.925741048728
 30
0.0
 11
-5040.913221186905
 21
1957.492679007811
 31
0.0
  0
LINE
  5
1FF
330
A2
100
AcDbEntity
  8
8738125614_01
  6
Continuous
 62
     7
100
AcDbLine
 10
-5041.013221186906
 20
1763.925741048728
 30
0.0
 11
-5041.013221186906
 21
1763.887282645053
 31
0.0
  0
LINE
  5
200
330
A2
100
AcDbEntity
  8
8738125614_01
  6
Continuous
 62
     7
100
AcDbLine
 10
-5041.013221186906
 20
1763.925741048728
 30
0.0
 11
-5040.913221186906
 21
1763.925741048728
 31
0.0
  0
LINE
  5
201
330
A2
100
AcDbEntity
  8
8738125614_01
  6
Continuous
 62
     7
100
AcDbLine
 10
-5040.913221186905
 20
1763.887282645052
 30
0.0
 11
-5041.013221186905
 21
1763.887282645052
 31
0.0
  0
LINE
  5
202
330
A2
100
AcDbEntity
  8
8738125614_01
  6
Continuous
 62
     7
100
AcDbLine
 10
-5046.913221186906
 20
847.4926790078108
 30
0.0
 11
-5040.913221186906
 21
847.4926790078108
 31
0.0
  0
LINE
  5
203
330
A2
100
AcDbEntity
  8
8738125614_01
  6
Continuous
 62
     7
100
AcDbLine
 10
-5040.913221186905
 20
1957.492679007811
 30
0.0
 11
-5046.913221186905
 21
1957.492679007811
 31
0.0
  0
LINE
  5
205
330
A2
100
AcDbEntity
  8
8738125615_01
  6
Continuous
 62
     7
100
AcDbLine
 10
-5040.913221186905
 20
1753.384349567682
 30
0.0
 11
-5040.913221186905
 21
1753.273728337727
 31
0.0
  0
LINE
  5
206
330
A2
100
AcDbEntity
  8
8738125615_01
  6
Continuous
 62
     7
100
AcDbLine
 10
-5040.913221186905
 20
1957.492679007811
 30
0.0
 11
-5040.913221186905
 21
1753.384349567682
 31
0.0
  0
LINE
  5
207
330
A2
100
AcDbEntity
  8
8738125615_01
  6
Continuous
 62
     7
100
AcDbLine
 10
-5040.913221186905
 20
847.4926790078108
 30
0.0
 11
-5040.913221186905
 21
1050.826702272381
 31
0.0
  0
LINE
  5
208
330
A2
100
AcDbEntity
  8
8738125615_01
  6
Continuous
 62
     7
100
AcDbLine
 10
-5040.913221186905
 20
1050.826702272381
 30
0.0
 11
-5040.913221186905
 21
1050.905397611852
 31
0.0
  0
ELLIPSE
  5
209
330
A2
100
AcDbEntity
  8
8738125615_01
  6
Continuous
 62
     7
100
AcDbEllipse
 10
-5116.808159226684
 20
1402.492679060096
 30
0.0
 11
0.2730486642098517
 21
-554.9999979695926
 31
0.0
210
0.0
220
0.0
230
1.0
 40
0.1763695985777779
 41
0.8844700916246316
 42
0.8864119190005431
  0
LINE
  5
20A
330
A2
100
AcDbEntity
  8
8738125615_01
  6
Continuous
 62
     7
100
AcDbLine
 10
-5040.913221186905
 20
847.4926790078109
 30
0.0
 11
-4785.913221186905
 21
847.4926790078109
 31
0.0
  0
LINE
  5
20C
330
A2
100
AcDbEntity
  8
8738125618_01
  6
Continuous
 62
     7
100
AcDbLine
 10
-5039.565884348388
 20
1751.259470148988
 30
0.0
 11
-4940.033008343458
 21
1751.259470148988
 31
0.0
  0
LINE
  5
20D
330
A2
100
AcDbEntity
  8
8738125618_01
  6
Continuous
 62
     7
100
AcDbLine
 10
-4940.033008343458
 20
1751.259470148988
 30
0.0
 11
-4940.033008343458
 21
1707.300082927928
 31
0.0
  0
LINE
  5
20E
330
A2
100
AcDbEntity
  8
8738125618_01
  6
Continuous
 62
     7
100
AcDbLine
 10
-4940.033008343458
 20
1707.300082927928
 30
0.0
 11
-4940.033008343458
 21
1673.492679007811
 31
0.0
  0
LINE
  5
20F
330
A2
100
AcDbEntity
  8
8738125618_01
  6
Continuous
 62
     7
100
AcDbLine
 10
-4940.033008343458
 20
1673.492679007811
 30
0.0
 11
-4940.033008343458
 21
1131.492679007811
 31
0.0
  0
LINE
  5
210
330
A2
100
AcDbEntity
  8
8738125618_01
  6
Continuous
 62
     7
100
AcDbLine
 10
-4940.033008343458
 20
1131.492679007811
 30
0.0
 11
-4940.033008343458
 21
1097.685275087694
 31
0.0
  0
LINE
  5
211
330
A2
100
AcDbEntity
  8
8738125618_01
  6
Continuous
 62
     7
100
AcDbLine
 10
-5039.565884348388
 20
1053.725887866634
 30
0.0
 11
-4940.033008343458
 21
1053.725887866634
 31
0.0
  0
LINE
  5
212
330
A2
100
AcDbEntity
  8
8738125618_01
  6
Continuous
 62
     7
100
AcDbLine
 10
-4940.033008343458
 20
1097.685275087693
 30
0.0
 11
-4940.033008343458
 21
1053.725887866634
 31
0.0
  0
ELLIPSE
  5
213
330
A2
100
AcDbEntity
  8
8738125618_01
  6
Continuous
 62
     7
100
AcDbEllipse
 10
-5012.702326333645
 20
1673.492679007811
 30
0.0
 11
0.0
 21
-34.99999999999998
 31
0.0
210
0.0
220
0.0
230
1.0
 40
0.1763269807084676
 41
1.570796326794897
 42
1.817191223010824
  0
ELLIPSE
  5
214
330
A2
100
AcDbEntity
  8
8738125618_01
  6
Continuous
 62
     7
100
AcDbEllipse
 10
-5012.702326333645
 20
1131.492679007811
 30
0.0
 11
0.0
 21
-35.00000000000003
 31
0.0
210
0.0
220
0.0
230
1.0
 40
0.1763269807084673
 41
0.261799387799127
 42
1.570796326794897
  0
LINE
  5
215
330
A2
100
AcDbEntity
  8
8738125618_01
  6
Continuous
 62
     7
100
AcDbLine
 10
-5006.530882008849
 20
1131.492679007811
 30
0.0
 11
-5006.530882008849
 21
1673.492679007811
 31
0.0
  0
LINE
  5
217
330
A2
100
AcDbEntity
  8
8738125433_01
  6
Continuous
 62
     7
100
AcDbLine
 10
-5079.913221186906
 20
1628.642679007811
 30
0.0
 11
-5079.913221186906
 21
1580.342679007811
 31
0.0
  0
LINE
  5
218
330
A2
100
AcDbEntity
  8
8738125433_01
  6
Continuous
 62
     7
100
AcDbLine
 10
-5079.913221186906
 20
1580.342679007811
 30
0.0
 11
-5046.913221186906
 21
1580.342679007811
 31
0.0
  0
LINE
  5
219
330
A2
100
AcDbEntity
  8
8738125433_01
  6
Continuous
 62
     7
100
AcDbLine
 10
-5073.913221186905
 20
1628.642679007811
 30
0.0
 11
-5079.913221186905
 21
1628.642679007811
 31
0.0
  0
LINE
  5
21A
330
A2
100
AcDbEntity
  8
8738125433_01
  6
Continuous
 62
     7
100
AcDbLine
 10
-5046.913221186906
 20
1628.642679007811
 30
0.0
 11
-5055.913221186906
 21
1628.642679007811
 31
0.0
  0
LINE
  5
21B
330
A2
100
AcDbEntity
  8
8738125433_01
  6
Continuous
 62
     7
100
AcDbLine
 10
-5087.413221186906
 20
1580.591179007811
 30
0.0
 11
-5079.913221186906
 21
1580.591179007811
 31
0.0
  0
LINE
  5
21C
330
A2
100
AcDbEntity
  8
8738125433_01
  6
Continuous
 62
     7
100
AcDbLine
 10
-5079.913221186906
 20
1628.394179007811
 30
0.0
 11
-5087.413221186906
 21
1628.394179007811
 31
0.0
  0
LINE
  5
21D
330
A2
100
AcDbEntity
  8
8738125433_01
  6
Continuous
 62
     7
100
AcDbLine
 10
-5087.413221186906
 20
1626.915179007811
 30
0.0
 11
-5079.913221186906
 21
1626.915179007811
 31
0.0
  0
LINE
  5
21E
330
A2
100
AcDbEntity
  8
8738125433_01
  6
Continuous
 62
     7
100
AcDbLine
 10
-5087.413221186906
 20
1582.070179007811
 30
0.0
 11
-5079.913221186906
 21
1582.070179007811
 31
0.0
  0
LINE
  5
220
330
A2
100
AcDbEntity
  8
8738118992_00
  6
Continuous
 62
     7
100
AcDbLine
 10
-5090.674388572719
 20
1578.492679007821
 30
0.0
 11
-5103.152053801082
 21
1578.492679007817
 31
0.0
  0
LINE
  5
221
330
A2
100
AcDbEntity
  8
8738118992_00
  6
Continuous
 62
     7
100
AcDbLine
 10
-5090.044952875712
 20
1593.72312638611
 30
0.0
 11
-5103.781489498098
 21
1593.72312638611
 31
0.0
  0
LINE
  5
222
330
A2
100
AcDbEntity
  8
8738118992_00
  6
Continuous
 62
     7
100
AcDbLine
 10
-5089.636811575442
 20
1615.262231629511
 30
0.0
 11
-5104.189630798369
 21
1615.262231629511
 31
0.0
  0
LINE
  5
223
330
A2
100
AcDbEntity
  8
8738118992_00
  6
Continuous
 62
     7
100
AcDbLine
 10
-5089.494755895439
 20
1630.492679007811
 30
0.0
 11
-5104.331686478373
 21
1630.492679007811
 31
0.0
  0
LINE
  5
224
330
A2
100
AcDbEntity
  8
8738118992_00
  6
Continuous
 62
     7
100
AcDbLine
 10
-5105.964758071708
 20
1578.492679007811
 30
0.0
 11
-5103.15205380108
 21
1578.492679007811
 31
0.0
  0
LINE
  5
225
330
A2
100
AcDbEntity
  8
8738118992_00
  6
Continuous
 62
     7
100
AcDbLine
 10
-5104.331686478372
 20
1630.492679007811
 30
0.0
 11
-5106.165572148566
 21
1630.492679007811
 31
0.0
  0
SPLINE
  5
226
330
A2
100
AcDbEntity
  8
8738118992_00
  6
Continuous
 62
     7
100
AcDbSpline
210
0.0
220
0.0
230
1.0
 70
     8
 71
     3
 72
    28
 73
    24
 74
     0
 42
0.0000000006211657
 43
0.0000000001
 40
0.0
 40
0.0
 40
0.0
 40
0.0
 40
0.0625
 40
0.0625
 40
0.1250000000000001
 40
0.1250000000000001
 40
0.2500000000000001
 40
0.2500000000000001
 40
0.3750000000000002
 40
0.3750000000000002
 40
0.5000000000000002
 40
0.5000000000000002
 40
0.6250000000000002
 40
0.6250000000000002
 40
0.7500000000000003
 40
0.7500000000000003
 40
0.8125000000000002
 40
0.8125000000000002
 40
0.8750000000000001
 40
0.8750000000000001
 40
0.9375000000000001
 40
0.9375000000000001
 40
1.0
 40
1.0
 40
1.0
 40
1.0
 10
-5104.331686478372
 20
1630.492679007811
 30
0.0
 10
-5104.601195128166
 20
1630.220436352997
 30
0.0
 10
-5104.809514506271
 20
1629.927480836595
 30
0.0
 10
-5105.161653567579
 20
1629.319736348089
 30
0.0
 10
-5105.303949416669
 20
1629.003376946928
 30
0.0
 10
-5105.657501748552
 20
1628.053774561016
 30
0.0
 10
-5105.802716176398
 20
1627.411579605393
 30
0.0
 10
-5106.011717727141
 20
1626.118976786122
 30
0.0
 10
-5106.073313607957
 20
1625.468347909758
 30
0.0
 10
-5106.150910180669
 20
1624.162491342257
 30
0.0
 10
-5106.166521792497
 20
1623.509090676767
 30
0.0
 10
-5106.163184055548
 20
1622.2033816445
 30
0.0
 10
-5106.144260476249
 20
1621.550725094143
 30
0.0
 10
-5106.057737231161
 20
1620.245970461161
 30
0.0
 10
-5105.990281827339
 20
1619.592597730154
 30
0.0
 10
-5105.820148606766
 20
1618.62120867437
 30
0.0
 10
-5105.751727052741
 20
1618.298742149374
 30
0.0
 10
-5105.581170285033
 20
1617.657637578712
 30
0.0
 10
-5105.479021950587
 20
1617.338435698277
 30
0.0
 10
-5105.224612830841
 20
1616.708099244106
 30
0.0
 10
-5105.074160983299
 20
1616.400504552302
 30
0.0
 10
-5104.700720845945
 20
1615.808946196651
 30
0.0
 10
-5104.480023270034
 20
1615.524236260688
 30
0.0
 10
-5104.189630798368
 20
1615.262231629511
 30
0.0
  0
SPLINE
  5
227
330
A2
100
AcDbEntity
  8
8738118992_00
  6
Continuous
 62
     7
100
AcDbSpline
210
0.0
220
0.0
230
1.0
 70
     8
 71
     3
 72
    38
 73
    34
 74
     0
 42
0.0000000004473868
 43
0.0000000001
 40
0.0
 40
0.0
 40
0.0
 40
0.0
 40
0.0312499999999999
 40
0.0312499999999999
 40
0.0624999999999998
 40
0.0624999999999998
 40
0.1249999999999997
 40
0.1249999999999997
 40
0.2499999999999996
 40
0.2499999999999996
 40
0.3749999999999996
 40
0.3749999999999996
 40
0.4374999999999996
 40
0.4374999999999996
 40
0.4687499999999996
 40
0.4687499999999996
 40
0.4999999999999997
 40
0.4999999999999997
 40
0.6249999999999997
 40
0.6249999999999997
 40
0.7499999999999998
 40
0.7499999999999998
 40
0.8124999999999998
 40
0.8124999999999998
 40
0.8749999999999999
 40
0.8749999999999999
 40
0.9062499999999999
 40
0.9062499999999999
 40
0.9374999999999999
 40
0.9374999999999999
 40
0.96875
 40
0.96875
 40
1.0
 40
1.0
 40
1.0
 40
1.0
 10
-5104.189630798368
 20
1615.262231629511
 30
0.0
 10
-5104.330587603217
 20
1615.076853759195
 30
0.0
 10
-5104.45607491937
 20
1614.880646285364
 30
0.0
 10
-5104.684664629825
 20
1614.472560501188
 30
0.0
 10
-5104.787302127735
 20
1614.261017789412
 30
0.0
 10
-5105.064000723624
 20
1613.62128685506
 30
0.0
 10
-5105.210251115128
 20
1613.183248380711
 30
0.0
 10
-5105.579725941751
 20
1611.848193096485
 30
0.0
 10
-5105.734774530376
 20
1610.926755786939
 30
0.0
 10
-5105.955150447365
 20
1609.08586016228
 30
0.0
 10
-5106.019780983223
 20
1608.162476141967
 30
0.0
 10
-5106.080236748881
 20
1606.775048302833
 30
0.0
 10
-5106.093989857229
 20
1606.312159948415
 30
0.0
 10
-5106.106660528236
 20
1605.617314454176
 30
0.0
 10
-5106.10954373029
 20
1605.38561290261
 30
0.0
 10
-5106.112741487891
 20
1604.9220442484
 30
0.0
 10
-5106.113061769495
 20
1604.691431631684
 30
0.0
 10
-5106.108199798008
 20
1603.524722010889
 30
0.0
 10
-5106.084686206232
 20
1602.593418940793
 30
0.0
 10
-5105.982520948398
 20
1600.736613832341
 30
0.0
 10
-5105.904426629316
 20
1599.811053155965
 30
0.0
 10
-5105.708909081972
 20
1598.430958023548
 30
0.0
 10
-5105.630420297942
 20
1597.972327306444
 30
0.0
 10
-5105.433987795074
 20
1597.059216893687
 30
0.0
 10
-5105.315617193142
 20
1596.602423531352
 30
0.0
 10
-5105.093661876846
 20
1595.930964104664
 30
0.0
 10
-5105.012379149952
 20
1595.709884281239
 30
0.0
 10
-5104.831044116545
 20
1595.27477191352
 30
0.0
 10
-5104.730641409072
 20
1595.060078363438
 30
0.0
 10
-5104.507679732344
 20
1594.645938313473
 30
0.0
 10
-5104.385088734045
 20
1594.445957306243
 30
0.0
 10
-5104.109024762362
 20
1594.065700036892
 30
0.0
 10
-5103.954035538194
 20
1593.883880354094
 30
0.0
 10
-5103.781489498098
 20
1593.72312638611
 30
0.0
  0
SPLINE
  5
228
330
A2
100
AcDbEntity
  8
8738118992_00
  6
Continuous
 62
     7
100
AcDbSpline
210
0.0
220
0.0
230
1.0
 70
     8
 71
     3
 72
    36
 73
    32
 74
     0
 42
0.0000000005939768
 43
0.0000000001
 40
0.0
 40
0.0
 40
0.0
 40
0.0
 40
0.0312499999999999
 40
0.0312499999999999
 40
0.0624999999999999
 40
0.0624999999999999
 40
0.0937499999999998
 40
0.0937499999999998
 40
0.1249999999999997
 40
0.1249999999999997
 40
0.1874999999999997
 40
0.1874999999999997
 40
0.2499999999999997
 40
0.2499999999999997
 40
0.3749999999999998
 40
0.3749999999999998
 40
0.4999999999999999
 40
0.4999999999999999
 40
0.6249999999999999
 40
0.6249999999999999
 40
0.7500000000000001
 40
0.7500000000000001
 40
0.8125000000000001
 40
0.8125000000000001
 40
0.875
 40
0.875
 40
0.9375
 40
0.9375
 40
0.9687500000000001
 40
0.9687500000000001
 40
1.0
 40
1.0
 40
1.0
 40
1.0
 10
-5103.781489498098
 20
1593.72312638611
 30
0.0
 10
-5103.955404522263
 20
1593.603623439222
 30
0.0
 10
-5104.105758797451
 20
1593.47290635721
 30
0.0
 10
-5104.376944913073
 20
1593.197420493352
 30
0.0
 10
-5104.497437378759
 20
1593.052490180381
 30
0.0
 10
-5104.716510804867
 20
1592.752200404625
 30
0.0
 10
-5104.814942307226
 20
1592.596645914908
 30
0.0
 10
-5104.991352473932
 20
1592.283891207313
 30
0.0
 10
-5105.069982975328
 20
1592.125766665099
 30
0.0
 10
-5105.284028340478
 20
1591.647406512338
 30
0.0
 10
-5105.397913074285
 20
1591.323242041628
 30
0.0
 10
-5105.588464826211
 20
1590.668121538756
 30
0.0
 10
-5105.66486345877
 20
1590.337116531075
 30
0.0
 10
-5105.854437691653
 20
1589.336871269252
 30
0.0
 10
-5105.927859208746
 20
1588.668615297782
 30
0.0
 10
-5106.018398465399
 20
1587.33199473028
 30
0.0
 10
-5106.034923146476
 20
1586.663283436588
 30
0.0
 10
-5106.021641041797
 20
1585.325214496346
 30
0.0
 10
-5105.991927209804
 20
1584.655858146559
 30
0.0
 10
-5105.86574787865
 20
1583.316214219597
 30
0.0
 10
-5105.77024689799
 20
1582.647850741609
 30
0.0
 10
-5105.531721951885
 20
1581.654714001321
 30
0.0
 10
-5105.435884577229
 20
1581.325301779822
 30
0.0
 10
-5105.198015782717
 20
1580.678363649777
 30
0.0
 10
-5105.056338822696
 20
1580.36000304432
 30
0.0
 10
-5104.69835157584
 20
1579.740046053701
 30
0.0
 10
-5104.480740559202
 20
1579.435395565112
 30
0.0
 10
-5104.063992573638
 20
1579.025145039965
 30
0.0
 10
-5103.907475152199
 20
1578.894564845791
 30
0.0
 10
-5103.560419802051
 20
1578.666252621588
 30
0.0
 10
-5103.369923635715
 20
1578.567246106176
 30
0.0
 10
-5103.152053801081
 20
1578.492679007817
 30
0.0
  0
LINE
  5
229
330
A2
100
AcDbEntity
  8
8738118992_00
  6
Continuous
 62
     7
100
AcDbLine
 10
-5106.413221186906
 20
1629.107089940909
 30
0.0
 11
-5106.413221186906
 21
1580.33367089711
 31
0.0
  0
LINE
  5
22A
330
A2
100
AcDbEntity
  8
8738118992_00
  6
Continuous
 62
     7
100
AcDbLine
 10
-5090.674388572718
 20
1578.492679007811
 30
0.0
 11
-5087.861759810948
 21
1578.492679007811
 31
0.0
  0
SPLINE
  5
22B
330
A2
100
AcDbEntity
  8
8738118992_00
  6
Continuous
 62
     7
100
AcDbSpline
210
0.0
220
0.0
230
1.0
 70
     8
 71
     3
 72
    36
 73
    32
 74
     0
 42
0.0000000005939701
 43
0.0000000001
 40
0.0
 40
0.0
 40
0.0
 40
0.0
 40
0.0312500000000002
 40
0.0312500000000002
 40
0.0625000000000005
 40
0.0625000000000005
 40
0.1250000000000007
 40
0.1250000000000007
 40
0.1875000000000009
 40
0.1875000000000009
 40
0.2500000000000011
 40
0.2500000000000011
 40
0.3125000000000013
 40
0.3125000000000013
 40
0.3750000000000015
 40
0.3750000000000015
 40
0.5000000000000012
 40
0.5000000000000012
 40
0.6250000000000009
 40
0.6250000000000009
 40
0.7500000000000007
 40
0.7500000000000007
 40
0.8125000000000006
 40
0.8125000000000006
 40
0.8750000000000006
 40
0.8750000000000006
 40
0.9375000000000007
 40
0.9375000000000007
 40
0.9687500000000003
 40
0.9687500000000003
 40
1.0
 40
1.0
 40
1.0
 40
1.0
 10
-5090.674388572719
 20
1578.492679007821
 30
0.0
 10
-5090.455570686989
 20
1578.567570581662
 30
0.0
 10
-5090.263439655676
 20
1578.66749688823
 30
0.0
 10
-5089.912923946828
 20
1578.89900669611
 30
0.0
 10
-5089.756647414539
 20
1579.030244431579
 30
0.0
 10
-5089.340574914159
 20
1579.441705272292
 30
0.0
 10
-5089.122592529271
 20
1579.748038173835
 30
0.0
 10
-5088.764556653258
 20
1580.371186649922
 30
0.0
 10
-5088.623377626151
 20
1580.690369288554
 30
0.0
 10
-5088.386586104936
 20
1581.337896786086
 30
0.0
 10
-5088.291515750573
 20
1581.666350654899
 30
0.0
 10
-5088.133049526416
 20
1582.329627290606
 30
0.0
 10
-5088.070058520824
 20
1582.663546120457
 30
0.0
 10
-5087.967518715612
 20
1583.329897241396
 30
0.0
 10
-5087.927834665332
 20
1583.663190441514
 30
0.0
 10
-5087.834177377486
 20
1584.663327894525
 30
0.0
 10
-5087.804664849949
 20
1585.330420514931
 30
0.0
 10
-5087.791586721694
 20
1586.665072288564
 30
0.0
 10
-5087.808081714293
 20
1587.332632057039
 30
0.0
 10
-5087.898569572761
 20
1588.668335412034
 30
0.0
 10
-5087.972327006944
 20
1589.338648159008
 30
0.0
 10
-5088.161491842678
 20
1590.336618982981
 30
0.0
 10
-5088.237801787985
 20
1590.667567075945
 30
0.0
 10
-5088.428910074586
 20
1591.324501297934
 30
0.0
 10
-5088.54400059824
 20
1591.651790790601
 30
0.0
 10
-5088.831283930572
 20
1592.292135117516
 30
0.0
 10
-5089.002061297418
 20
1592.604512731202
 30
0.0
 10
-5089.329213361545
 20
1593.052688890774
 30
0.0
 10
-5089.450939097469
 20
1593.199075314587
 30
0.0
 10
-5089.722642346083
 20
1593.474703459551
 30
0.0
 10
-5089.872794034492
 20
1593.604830172442
 30
0.0
 10
-5090.044952875712
 20
1593.72312638611
 30
0.0
  0
SPLINE
  5
22C
330
A2
100
AcDbEntity
  8
8738118992_00
  6
Continuous
 62
     7
100
AcDbSpline
210
0.0
220
0.0
230
1.0
 70
     8
 71
     3
 72
    36
 73
    32
 74
     0
 42
0.0000000004473457
 43
0.0000000001
 40
0.0
 40
0.0
 40
0.0
 40
0.0
 40
0.03125
 40
0.03125
 40
0.0625000000000001
 40
0.0625000000000001
 40
0.1250000000000001
 40
0.1250000000000001
 40
0.1875000000000002
 40
0.1875000000000002
 40
0.2500000000000002
 40
0.2500000000000002
 40
0.3750000000000002
 40
0.3750000000000002
 40
0.5000000000000002
 40
0.5000000000000002
 40
0.5312500000000002
 40
0.5312500000000002
 40
0.5625000000000002
 40
0.5625000000000002
 40
0.6250000000000003
 40
0.6250000000000003
 40
0.7500000000000003
 40
0.7500000000000003
 40
0.8125000000000003
 40
0.8125000000000003
 40
0.8750000000000004
 40
0.8750000000000004
 40
0.9375000000000002
 40
0.9375000000000002
 40
1.0
 40
1.0
 40
1.0
 40
1.0
 10
-5090.044952875712
 20
1593.72312638611
 30
0.0
 10
-5089.873695731461
 20
1593.882679543449
 30
0.0
 10
-5089.72224083986
 20
1594.059825227887
 30
0.0
 10
-5089.446444018437
 20
1594.438204033846
 30
0.0
 10
-5089.322933434767
 20
1594.639042650974
 30
0.0
 10
-5088.99090866012
 20
1595.253263976656
 30
0.0
 10
-5088.815939152536
 20
1595.683728481753
 30
0.0
 10
-5088.520434564924
 20
1596.569284981966
 30
0.0
 10
-5088.402071482483
 20
1597.020788996592
 30
0.0
 10
-5088.205111567143
 20
1597.924370430117
 30
0.0
 10
-5088.12614925089
 20
1598.378595290395
 30
0.0
 10
-5087.92901330179
 20
1599.746227418915
 30
0.0
 10
-5087.849602471687
 20
1600.664468991821
 30
0.0
 10
-5087.744901220483
 20
1602.507701766843
 30
0.0
 10
-5087.720159008692
 20
1603.433522261574
 30
0.0
 10
-5087.713513744699
 20
1604.590662354761
 30
0.0
 10
-5087.713460050512
 20
1604.825612995429
 30
0.0
 10
-5087.715977820913
 20
1605.292927590503
 30
0.0
 10
-5087.718537759775
 20
1605.526469278522
 30
0.0
 10
-5087.730268200396
 20
1606.226734410691
 30
0.0
 10
-5087.743433117257
 20
1606.693102917592
 30
0.0
 10
-5087.80211564238
 20
1608.090503443756
 30
0.0
 10
-5087.865572050182
 20
1609.019941450375
 30
0.0
 10
-5088.028593816221
 20
1610.408070560743
 30
0.0
 10
-5088.094481104885
 20
1610.869754243158
 30
0.0
 10
-5088.259780217642
 20
1611.790142672118
 30
0.0
 10
-5088.359376016411
 20
1612.250323778046
 30
0.0
 10
-5088.608305404099
 20
1613.159354026787
 30
0.0
 10
-5088.756354464011
 20
1613.605729795089
 30
0.0
 10
-5089.1296909356
 20
1614.471825094865
 30
0.0
 10
-5089.352365016704
 20
1614.888144707394
 30
0.0
 10
-5089.636811575442
 20
1615.262231629511
 30
0.0
  0
SPLINE
  5
22D
330
A2
100
AcDbEntity
  8
8738118992_00
  6
Continuous
 62
     7
100
AcDbSpline
210
0.0
220
0.0
230
1.0
 70
     8
 71
     3
 72
    26
 73
    22
 74
     0
 42
0.0000000006210464
 43
0.0000000001
 40
0.0
 40
0.0
 40
0.0
 40
0.0
 40
0.0624999999999998
 40
0.0624999999999998
 40
0.1249999999999996
 40
0.1249999999999996
 40
0.2499999999999996
 40
0.2499999999999996
 40
0.3749999999999996
 40
0.3749999999999996
 40
0.4999999999999997
 40
0.4999999999999997
 40
0.6249999999999997
 40
0.6249999999999997
 40
0.7499999999999997
 40
0.7499999999999997
 40
0.8749999999999998
 40
0.8749999999999998
 40
0.9374999999999999
 40
0.9374999999999999
 40
1.0
 40
1.0
 40
1.0
 40
1.0
 10
-5089.636811575442
 20
1615.262231629511
 30
0.0
 10
-5089.346517010506
 20
1615.524147925009
 30
0.0
 10
-5089.123804791738
 20
1615.811043723137
 30
0.0
 10
-5088.746810492391
 20
1616.410128179343
 30
0.0
 10
-5088.594420868487
 20
1616.724291087404
 30
0.0
 10
-5088.21608464787
 20
1617.668334538737
 30
0.0
 10
-5088.060490428795
 20
1618.309022513085
 30
0.0
 10
-5087.835269263155
 20
1619.600474400745
 30
0.0
 10
-5087.768106752172
 20
1620.25235317586
 30
0.0
 10
-5087.681885736265
 20
1621.557859550756
 30
0.0
 10
-5087.663112811322
 20
1622.210502198179
 30
0.0
 10
-5087.660032507108
 20
1623.515630952327
 30
0.0
 10
-5087.675740889821
 20
1624.168116987461
 30
0.0
 10
-5087.753524551623
 20
1625.47287846172
 30
0.0
 10
-5087.815496938146
 20
1626.126416723983
 30
0.0
 10
-5088.025955995668
 20
1627.422668236585
 30
0.0
 10
-5088.172245803092
 20
1628.066191440734
 30
0.0
 10
-5088.52794675589
 20
1629.016201813756
 30
0.0
 10
-5088.66952581766
 20
1629.328848829448
 30
0.0
 10
-5089.019250036159
 20
1629.930532425245
 30
0.0
 10
-5089.226116387587
 20
1630.221314311867
 30
0.0
 10
-5089.494755895439
 20
1630.492679007811
 30
0.0
  0
LINE
  5
22E
330
A2
100
AcDbEntity
  8
8738118992_00
  6
Continuous
 62
     7
100
AcDbLine
 10
-5087.660865929838
 20
1630.492679007811
 30
0.0
 11
-5089.49475589544
 21
1630.49267900781
 31
0.0
  0
LINE
  5
22F
330
A2
100
AcDbEntity
  8
8738118992_00
  6
Continuous
 62
     7
100
AcDbLine
 10
-5087.413221186905
 20
1629.107089940909
 30
0.0
 11
-5087.413221186905
 21
1580.33367089711
 31
0.0
  0
ARC
  5
230
330
A2
100
AcDbEntity
  8
8738118992_00
  6
Continuous
 62
     7
100
AcDbCircle
 10
-5102.413221186906
 20
1580.33367089711
 30
0.0
 40
4.000000000000004
100
AcDbArc
 50
180.0
 51
207.3889957790144
  0
ARC
  5
231
330
A2
100
AcDbEntity
  8
8738118992_00
  6
Continuous
 62
     7
100
AcDbCircle
 10
-5102.413221186906
 20
1629.107089940909
 30
0.0
 40
3.999999999999996
100
AcDbArc
 50
159.6823187448037
 51
180.0
  0
ARC
  5
232
330
A2
100
AcDbEntity
  8
8738118992_00
  6
Continuous
 62
     7
100
AcDbCircle
 10
-5091.413221186906
 20
1580.33367089711
 30
0.0
 40
3.99999999999997
100
AcDbArc
 50
332.530055202444
 51
0.0
  0
ARC
  5
233
330
A2
100
AcDbEntity
  8
8738118992_00
  6
Continuous
 62
     7
100
AcDbCircle
 10
-5091.413221186906
 20
1629.107089940909
 30
0.0
 40
4.000000000000004
100
AcDbArc
 50
0.0
 51
20.30903705800204
  0
LINE
  5
235
330
A2
100
AcDbEntity
  8
8738118991_00A
  6
Continuous
 62
     7
100
AcDbLine
 10
-5055.913221186906
 20
1628.642679007811
 30
0.0
 11
-5073.913221186906
 21
1628.642679007811
 31
0.0
  0
LINE
  5
237
330
A2
100
AcDbEntity
  8
8738125420_03
  6
Continuous
 62
     7
100
AcDbLine
 10
-4755.913221186906
 20
1747.492679007812
 30
0.0
 11
-4755.913221186906
 21
1747.286869523157
 31
0.0
  0
LINE
  5
238
330
A2
100
AcDbEntity
  8
8738125420_03
  6
Continuous
 62
     7
100
AcDbLine
 10
-4755.913221186906
 20
1057.698488492465
 30
0.0
 11
-4755.913221186906
 21
1057.492679007811
 31
0.0
  0
LINE
  5
239
330
A2
100
AcDbEntity
  8
8738118943_00
  6
Continuous
 62
     7
100
AcDbLine
 10
-3085.913221186906
 20
2154.49267900781
 30
0.0
 11
-2995.913221186906
 21
2154.49267900781
 31
0.0
  0
LINE
  5
23A
330
A2
100
AcDbEntity
  8
8738118943_00
  6
Continuous
 62
     7
100
AcDbLine
 10
-3085.913221186906
 20
2154.49267900781
 30
0.0
 11
-3085.913221186906
 21
2152.49267900781
 31
0.0
  0
LINE
  5
23B
330
A2
100
AcDbEntity
  8
8738118943_00
  6
Continuous
 62
     7
100
AcDbLine
 10
-2995.913221186906
 20
2152.492679007811
 30
0.0
 11
-2995.913221186906
 21
2154.492679007811
 31
0.0
  0
LINE
  5
23D
330
A2
100
AcDbEntity
  8
8738125154_07
  6
Continuous
 62
     7
100
AcDbLine
 10
-4745.913221186906
 20
1277.492679007811
 30
0.0
 11
-4745.913221186906
 21
1284.492679007811
 31
0.0
  0
LINE
  5
23E
330
A2
100
AcDbEntity
  8
8738125154_07
  6
Continuous
 62
     7
100
AcDbLine
 10
-4745.913221186906
 20
1284.492679007811
 30
0.0
 11
-4745.913221186906
 21
1520.492679007811
 31
0.0
  0
LINE
  5
23F
330
A2
100
AcDbEntity
  8
8738125154_07
  6
Continuous
 62
     7
100
AcDbLine
 10
-4745.913221186906
 20
1520.492679007811
 30
0.0
 11
-4745.913221186906
 21
1527.492679007811
 31
0.0
  0
LINE
  5
241
330
A2
100
AcDbEntity
  8
8738115594_00
  6
Continuous
 62
     7
100
AcDbLine
 10
-2513.313221186906
 20
1104.992699007747
 30
0.0
 11
-2513.313221186906
 21
1101.492699007747
 31
0.0
  0
LINE
  5
242
330
A2
100
AcDbEntity
  8
8738115594_00
  6
Continuous
 62
     7
100
AcDbLine
 10
-2513.313221186906
 20
1111.992699007747
 30
0.0
 11
-2513.313221186906
 21
1104.992699007747
 31
0.0
  0
LINE
  5
243
330
A2
100
AcDbEntity
  8
8738115594_00
  6
Continuous
 62
     7
100
AcDbLine
 10
-2513.313221186906
 20
1115.492797677128
 30
0.0
 11
-2513.313221186906
 21
1111.992699007747
 31
0.0
  0
LINE
  5
244
330
A2
100
AcDbEntity
  8
8738115594_00
  6
Continuous
 62
     7
100
AcDbLine
 10
-2518.313221186906
 20
1101.492699007747
 30
0.0
 11
-2513.313221186906
 21
1101.492699007747
 31
0.0
  0
LINE
  5
245
330
A2
100
AcDbEntity
  8
8738115594_00
  6
Continuous
 62
     7
100
AcDbLine
 10
-2518.313221186906
 20
1104.992699007747
 30
0.0
 11
-2513.313221186906
 21
1104.992699007747
 31
0.0
  0
LINE
  5
246
330
A2
100
AcDbEntity
  8
8738115594_00
  6
Continuous
 62
     7
100
AcDbLine
 10
-2518.313221186906
 20
1111.992699007747
 30
0.0
 11
-2513.313221186906
 21
1111.992699007747
 31
0.0
  0
LINE
  5
247
330
A2
100
AcDbEntity
  8
8738115594_00
  6
Continuous
 62
     7
100
AcDbLine
 10
-2518.313221186906
 20
1115.492797677128
 30
0.0
 11
-2513.313221186906
 21
1115.492797677128
 31
0.0
  0
LINE
  5
249
330
A2
100
AcDbEntity
  8
8738118940_00
  6
Continuous
 62
     7
100
AcDbLine
 10
-2484.913221186905
 20
756.7926790078112
 30
0.0
 11
-2484.913221186905
 21
798.1926790078112
 31
0.0
  0
LINE
  5
24A
330
A2
100
AcDbEntity
  8
8738118940_00
  6
Continuous
 62
     7
100
AcDbLine
 10
-2503.913221186905
 20
752.8926790078114
 30
0.0
 11
-2503.913221186905
 21
802.0926790078113
 31
0.0
  0
LINE
  5
24B
330
A2
100
AcDbEntity
  8
8738118940_00
  6
Continuous
 62
     7
100
AcDbLine
 10
-2504.913221186906
 20
752.8926790078114
 30
0.0
 11
-2504.913221186906
 21
802.0926790078113
 31
0.0
  0
LINE
  5
24C
330
A2
100
AcDbEntity
  8
8738118940_00
  6
Continuous
 62
     7
100
AcDbLine
 10
-2503.913221186905
 20
755.0926790078113
 30
0.0
 11
-2484.913221186905
 21
756.7926790078112
 31
0.0
  0
LINE
  5
24D
330
A2
100
AcDbEntity
  8
8738118940_00
  6
Continuous
 62
     7
100
AcDbLine
 10
-2484.913221186905
 20
798.1926790078113
 30
0.0
 11
-2503.913221186905
 21
799.8926790078112
 31
0.0
  0
LINE
  5
24E
330
A2
100
AcDbEntity
  8
8738118940_00
  6
Continuous
 62
     7
100
AcDbLine
 10
-2503.913221186905
 20
802.0926790078113
 30
0.0
 11
-2504.913221186905
 21
802.0926790078113
 31
0.0
  0
LINE
  5
24F
330
A2
100
AcDbEntity
  8
8738118940_00
  6
Continuous
 62
     7
100
AcDbLine
 10
-2504.913221186906
 20
752.8926790078114
 30
0.0
 11
-2503.913221186906
 21
752.8926790078114
 31
0.0
  0
LINE
  5
251
330
A2
100
AcDbEntity
  8
8738118946_00
  6
Continuous
 62
     7
100
AcDbLine
 10
-3705.663221186906
 20
2153.49267900781
 30
0.0
 11
-3566.163221186906
 21
2153.49267900781
 31
0.0
  0
LINE
  5
252
330
A2
100
AcDbEntity
  8
8738118946_00
  6
Continuous
 62
     7
100
AcDbLine
 10
-3566.163221186906
 20
2152.49267900781
 30
0.0
 11
-3566.163221186906
 21
2153.49267900781
 31
0.0
  0
LINE
  5
253
330
A2
100
AcDbEntity
  8
8738118946_00
  6
Continuous
 62
     7
100
AcDbLine
 10
-3705.663221186906
 20
2153.49267900781
 30
0.0
 11
-3705.663221186906
 21
2152.49267900781
 31
0.0
  0
LINE
  5
255
330
A2
100
AcDbEntity
  8
8738126003_03
  6
Continuous
 62
     7
100
AcDbLine
 10
-2519.913221186906
 20
1120.992699007747
 30
0.0
 11
-2519.913221186906
 21
875.9926990077472
 31
0.0
  0
LINE
  5
256
330
A2
100
AcDbEntity
  8
8738126003_03
  6
Continuous
 62
     7
100
AcDbLine
 10
-2519.913221186906
 20
875.9926990077471
 30
0.0
 11
-2521.913221186906
 21
875.9926990077471
 31
0.0
  0
ELLIPSE
  5
257
330
A2
100
AcDbEntity
  8
8738126003_03
  6
Continuous
 62
     7
100
AcDbEllipse
 10
-2521.913221186911
 20
1120.992699007747
 30
0.0
 11
-2.000000000004221
 21
-3.819722316222851E-10
 31
0.0
210
0.0
220
0.0
230
1.0
 40
0.9979999999980627
 41
3.141592653589793
 42
3.665191428996406
  0
LINE
  5
258
330
A2
100
AcDbEntity
  8
8738126003_03
  6
Continuous
 62
     7
100
AcDbLine
 10
-2521.913221186906
 20
1121.990699007747
 30
0.0
 11
-2520.181170379337
 21
1121.990699007747
 31
0.0
  0
LINE
  5
259
330
A2
100
AcDbEntity
  8
8738126003_03
  6
Continuous
 62
     7
100
AcDbLine
 10
-2540.913221186906
 20
875.9926990077471
 30
0.0
 11
-2521.913221186906
 21
875.9926990077471
 31
0.0
  0
LINE
  5
25A
330
A2
100
AcDbEntity
  8
8738126003_03
  6
Continuous
 62
     7
100
AcDbLine
 10
-2521.913221186906
 20
1121.990699007747
 30
0.0
 11
-2540.913221186906
 21
1121.990699007747
 31
0.0
  0
LINE
  5
25B
330
A2
100
AcDbEntity
  8
8738126003_03
  6
Continuous
 62
     7
100
AcDbLine
 10
-2540.913221186906
 20
1121.990699007747
 30
0.0
 11
-2540.913221186906
 21
875.992699007747
 31
0.0
  0
ARC
  5
25C
330
A2
100
AcDbEntity
  8
8738126003_03
  6
Continuous
 62
     7
100
AcDbCircle
 10
-2521.913221186906
 20
1120.992699007747
 30
0.0
 40
2.000000000000002
100
AcDbArc
 50
30.00000000000857
 51
90.0
  0
ARC
  5
25D
330
A2
100
AcDbEntity
  8
8738126003_03
  6
Continuous
 62
     7
100
AcDbCircle
 10
-2521.913221186907
 20
1120.992699007747
 30
0.0
 40
2.000000000001616
100
AcDbArc
 50
0.0
 51
29.99999999999467
  0
LINE
  5
25E
330
A2
100
AcDbEntity
  8
8738126003_03
  6
Continuous
 62
     7
100
AcDbLine
 10
-2520.181170379337
 20
1121.992699007747
 30
0.0
 11
-2521.913221186906
 21
1121.992699007747
 31
0.0
  0
LINE
  5
25F
330
A2
100
AcDbEntity
  8
8738126003_03
  6
Continuous
 62
     7
100
AcDbLine
 10
-2540.913221186906
 20
1122.992699007747
 30
0.0
 11
-2540.913221186906
 21
1121.992699007747
 31
0.0
  0
LINE
  5
260
330
A2
100
AcDbEntity
  8
8738126003_03
  6
Continuous
 62
     7
100
AcDbLine
 10
-2540.913221186906
 20
1121.992699007747
 30
0.0
 11
-2521.913221186906
 21
1121.992699007747
 31
0.0
  0
LINE
  5
261
330
A2
100
AcDbEntity
  8
8738126003_03
  6
Continuous
 62
     7
100
AcDbLine
 10
-2540.913221186906
 20
1122.992699007747
 30
0.0
 11
-2521.913221186906
 21
1122.992699007747
 31
0.0
  0
LINE
  5
262
330
A2
100
AcDbEntity
  8
8738126854_00
  6
Continuous
 62
     7
100
AcDbLine
 10
-4327.413221186906
 20
2153.492679007811
 30
0.0
 11
-4184.413221186906
 21
2153.492679007811
 31
0.0
  0
LINE
  5
263
330
A2
100
AcDbEntity
  8
8738126854_00
  6
Continuous
 62
     7
100
AcDbLine
 10
-4184.413221186906
 20
2152.492679007811
 30
0.0
 11
-4184.413221186906
 21
2153.492679007811
 31
0.0
  0
LINE
  5
264
330
A2
100
AcDbEntity
  8
8738126854_00
  6
Continuous
 62
     7
100
AcDbLine
 10
-4327.413221186906
 20
2153.492679007811
 30
0.0
 11
-4327.413221186906
 21
2152.492679007811
 31
0.0
  0
LINE
  5
266
330
A2
100
AcDbEntity
  8
8738101345_00
  6
Continuous
 62
     7
100
AcDbLine
 10
-2518.313221186906
 20
1099.992699007747
 30
0.0
 11
-2518.313221186906
 21
1116.992699007747
 31
0.0
  0
LINE
  5
267
330
A2
100
AcDbEntity
  8
8738101345_00
  6
Continuous
 62
     7
100
AcDbLine
 10
-2518.313221186906
 20
1116.992699007747
 30
0.0
 11
-2519.913221186906
 21
1116.992699007747
 31
0.0
  0
LINE
  5
268
330
A2
100
AcDbEntity
  8
8738101345_00
  6
Continuous
 62
     7
100
AcDbLine
 10
-2519.913221186906
 20
1099.992699007747
 30
0.0
 11
-2518.313221186906
 21
1099.992699007747
 31
0.0
  0
LINE
  5
269
330
A2
100
AcDbEntity
  8
8738101345_00
  6
Continuous
 62
     7
100
AcDbLine
 10
-2518.313221186906
 20
879.9926990077471
 30
0.0
 11
-2518.313221186906
 21
896.9926990077471
 31
0.0
  0
LINE
  5
26A
330
A2
100
AcDbEntity
  8
8738101345_00
  6
Continuous
 62
     7
100
AcDbLine
 10
-2518.313221186906
 20
896.9926990077472
 30
0.0
 11
-2519.913221186906
 21
896.9926990077472
 31
0.0
  0
LINE
  5
26B
330
A2
100
AcDbEntity
  8
8738101345_00
  6
Continuous
 62
     7
100
AcDbLine
 10
-2519.913221186906
 20
879.9926990077471
 30
0.0
 11
-2518.313221186906
 21
879.9926990077471
 31
0.0
  0
LINE
  5
26C
330
A2
100
AcDbEntity
  8
8738115594_00
  6
Continuous
 62
     7
100
AcDbLine
 10
-2513.313221186906
 20
888.4926990077472
 30
0.0
 11
-2513.313221186906
 21
882.4305211812562
 31
0.0
  0
LINE
  5
26D
330
A2
100
AcDbEntity
  8
8738115594_00
  6
Continuous
 62
     7
100
AcDbLine
 10
-2513.313221186906
 20
894.5548768342383
 30
0.0
 11
-2513.313221186906
 21
888.4926990077472
 31
0.0
  0
LINE
  5
26E
330
A2
100
AcDbEntity
  8
8738115594_00
  6
Continuous
 62
     7
100
AcDbLine
 10
-2518.313221186906
 20
882.430521181256
 30
0.0
 11
-2513.313221186906
 21
882.430521181256
 31
0.0
  0
LINE
  5
26F
330
A2
100
AcDbEntity
  8
8738115594_00
  6
Continuous
 62
     7
100
AcDbLine
 10
-2518.313221186906
 20
888.4926990077472
 30
0.0
 11
-2513.313221186906
 21
888.4926990077472
 31
0.0
  0
LINE
  5
270
330
A2
100
AcDbEntity
  8
8738115594_00
  6
Continuous
 62
     7
100
AcDbLine
 10
-2518.313221186906
 20
894.5548768342383
 30
0.0
 11
-2513.313221186906
 21
894.5548768342383
 31
0.0
  0
LINE
  5
271
330
A2
100
AcDbEntity
  8
8738119492_00
  6
Continuous
 62
     7
100
AcDbLine
 10
-4756.613221186906
 20
777.4926790078114
 30
0.0
 11
-4755.913221186906
 21
777.4926790078114
 31
0.0
  0
LINE
  5
272
330
A2
100
AcDbEntity
  8
8738119492_00
  6
Continuous
 62
     7
100
AcDbLine
 10
-4756.613221186906
 20
679.4926790078114
 30
0.0
 11
-4756.613221186906
 21
775.4926790078113
 31
0.0
  0
LINE
  5
273
330
A2
100
AcDbEntity
  8
8738119492_00
  6
Continuous
 62
     7
100
AcDbLine
 10
-4756.613221186906
 20
677.4926790078114
 30
0.0
 11
-4756.613221186906
 21
679.4926790078114
 31
0.0
  0
LINE
  5
274
330
A2
100
AcDbEntity
  8
8738119492_00
  6
Continuous
 62
     7
100
AcDbLine
 10
-4756.613221186906
 20
775.4926790078114
 30
0.0
 11
-4756.613221186906
 21
777.4926790078114
 31
0.0
  0
LINE
  5
275
330
A2
100
AcDbEntity
  8
8738119492_00
  6
Continuous
 62
     7
100
AcDbLine
 10
-4755.913221186906
 20
677.4926790078114
 30
0.0
 11
-4756.613221186905
 21
677.4926790078114
 31
0.0
  0
ENDBLK
  5
277
330
A2
100
AcDbEntity
  8
0
100
AcDbBlockEnd
  0
BLOCK
  5
398
330
278
100
AcDbEntity
  8
0
100
AcDbBlockBegin
  2
SE2
 70
     0
 10
0.0
 20
0.0
 30
0.0
  3
SE2
  1

  0
LINE
  5
27A
330
278
100
AcDbEntity
  8
8738125597_01
  6
Continuous
 62
     7
100
AcDbLine
 10
-872.0808681952401
 20
-1931.760970671579
 30
0.0
 11
-1823.024775279525
 21
-1931.760970671579
 31
0.0
  0
LINE
  5
27B
330
278
100
AcDbEntity
  8
8738125597_01
  6
Continuous
 62
     7
100
AcDbLine
 10
-1823.024775279525
 20
-1931.760970671579
 30
0.0
 11
-1946.611488315971
 21
-1931.760970671579
 31
0.0
  0
LINE
  5
27C
330
278
100
AcDbEntity
  8
8738125597_01
  6
Continuous
 62
     7
100
AcDbLine
 10
-872.0808681952401
 20
-1941.760970671579
 30
0.0
 11
-1823.024775279525
 21
-1941.760970671579
 31
0.0
  0
LINE
  5
27D
330
278
100
AcDbEntity
  8
8738125597_01
  6
Continuous
 62
     7
100
AcDbLine
 10
-1823.024775279525
 20
-1941.760970671579
 30
0.0
 11
-1946.611488315971
 21
-1941.760970671579
 31
0.0
  0
LINE
  5
27E
330
278
100
AcDbEntity
  8
8738125597_01
  6
Continuous
 62
     7
100
AcDbLine
 10
-1946.61148831597
 20
-1941.760970671579
 30
0.0
 11
-1972.552821737382
 21
-1941.760970671579
 31
0.0
  0
LINE
  5
27F
330
278
100
AcDbEntity
  8
8738125597_01
  6
Continuous
 62
     7
100
AcDbLine
 10
-1972.552821737382
 20
-1941.760970671579
 30
0.0
 11
-1972.552821737382
 21
-1931.760970671579
 31
0.0
  0
LINE
  5
280
330
278
100
AcDbEntity
  8
8738125597_01
  6
Continuous
 62
     7
100
AcDbLine
 10
-1972.552821737382
 20
-1931.760970671579
 30
0.0
 11
-1946.61148831597
 21
-1931.760970671579
 31
0.0
  0
LINE
  5
281
330
278
100
AcDbEntity
  8
8738125597_01
  6
Continuous
 62
     7
100
AcDbLine
 10
-722.5528217373824
 20
-1931.760970671579
 30
0.0
 11
-722.5528217373824
 21
-1941.760970671579
 31
0.0
  0
LINE
  5
282
330
278
100
AcDbEntity
  8
8738125597_01
  6
Continuous
 62
     7
100
AcDbLine
 10
-748.4941551587941
 20
-1941.760970671579
 30
0.0
 11
-872.08086819524
 21
-1941.760970671579
 31
0.0
  0
LINE
  5
283
330
278
100
AcDbEntity
  8
8738125597_01
  6
Continuous
 62
     7
100
AcDbLine
 10
-722.5528217373824
 20
-1941.760970671579
 30
0.0
 11
-748.4941551587942
 21
-1941.760970671579
 31
0.0
  0
LINE
  5
284
330
278
100
AcDbEntity
  8
8738125597_01
  6
Continuous
 62
     7
100
AcDbLine
 10
-748.4941551587941
 20
-1931.760970671579
 30
0.0
 11
-872.08086819524
 21
-1931.760970671579
 31
0.0
  0
LINE
  5
285
330
278
100
AcDbEntity
  8
8738125597_01
  6
Continuous
 62
     7
100
AcDbLine
 10
-748.4941551587941
 20
-1931.760970671579
 30
0.0
 11
-722.5528217373824
 21
-1931.760970671579
 31
0.0
  0
CIRCLE
  5
286
330
278
100
AcDbEntity
  8
8738125599_01
  6
Continuous
 62
     7
100
AcDbCircle
 10
-1347.55126155413
 20
-366.7609695689193
 30
0.0
 40
11.97185594074698
  0
CIRCLE
  5
287
330
278
100
AcDbEntity
  8
8738125599_01
  6
Continuous
 62
     7
100
AcDbCircle
 10
-1347.552933407945
 20
-366.7597530121647
 30
0.0
 40
12.02648556316771
  0
CIRCLE
  5
288
330
278
100
AcDbEntity
  8
8738118893_00
  6
Continuous
 62
     7
100
AcDbCircle
 10
-1347.552821737382
 20
-1441.760970671579
 30
0.0
 40
93.0
  0
ARC
  5
289
330
278
100
AcDbEntity
  8
8738118893_00
  6
Continuous
 62
     7
100
AcDbCircle
 10
-1347.552821737382
 20
-1441.760970671579
 30
0.0
 40
96.0
100
AcDbArc
 50
224.9999999999999
 51
270.0
  0
CIRCLE
  5
28A
330
278
100
AcDbEntity
  8
8738118893_00
  6
Continuous
 62
     7
100
AcDbCircle
 10
-1347.552821737382
 20
-1441.760970671579
 30
0.0
 40
125.0
  0
CIRCLE
  5
28B
330
278
100
AcDbEntity
  8
8738118893_00
  6
Continuous
 62
     7
100
AcDbCircle
 10
-1347.552821737382
 20
-1441.760970671579
 30
0.0
 40
65.35
  0
CIRCLE
  5
28C
330
278
100
AcDbEntity
  8
8738118893_00
  6
Continuous
 62
     7
100
AcDbCircle
 10
-1421.79903376197
 20
-1516.007182696166
 30
0.0
 40
9.000000000000002
  0
ARC
  5
28D
330
278
100
AcDbEntity
  8
8738118893_00
  6
Continuous
 62
     7
100
AcDbCircle
 10
-1347.552821737382
 20
-1441.760970671579
 30
0.0
 40
95.99999999999997
100
AcDbArc
 50
270.0
 51
315.0000000000001
  0
CIRCLE
  5
28E
330
278
100
AcDbEntity
  8
8738118893_00
  6
Continuous
 62
     7
100
AcDbCircle
 10
-1347.552821737382
 20
-1546.760970671579
 30
0.0
 40
9.000000000000002
  0
ARC
  5
28F
330
278
100
AcDbEntity
  8
8738118893_00
  6
Continuous
 62
     7
100
AcDbCircle
 10
-1347.552821737382
 20
-1441.760970671579
 30
0.0
 40
95.99999999999999
100
AcDbArc
 50
315.0000000000001
 51
0.0
  0
CIRCLE
  5
290
330
278
100
AcDbEntity
  8
8738118893_00
  6
Continuous
 62
     7
100
AcDbCircle
 10
-1273.306609712795
 20
-1516.007182696166
 30
0.0
 40
9.000000000000002
  0
ARC
  5
291
330
278
100
AcDbEntity
  8
8738118893_00
  6
Continuous
 62
     7
100
AcDbCircle
 10
-1347.552821737382
 20
-1441.760970671579
 30
0.0
 40
96.0
100
AcDbArc
 50
0.0
 51
45.0000000000001
  0
CIRCLE
  5
292
330
278
100
AcDbEntity
  8
8738118893_00
  6
Continuous
 62
     7
100
AcDbCircle
 10
-1242.552821737382
 20
-1441.760970671579
 30
0.0
 40
9.000000000000004
  0
ARC
  5
293
330
278
100
AcDbEntity
  8
8738118893_00
  6
Continuous
 62
     7
100
AcDbCircle
 10
-1347.552821737382
 20
-1441.760970671579
 30
0.0
 40
95.99999999999999
100
AcDbArc
 50
45.0000000000001
 51
89.99999999999987
  0
CIRCLE
  5
294
330
278
100
AcDbEntity
  8
8738118893_00
  6
Continuous
 62
     7
100
AcDbCircle
 10
-1273.306609712795
 20
-1367.514758646992
 30
0.0
 40
9.000000000000002
  0
ARC
  5
295
330
278
100
AcDbEntity
  8
8738118893_00
  6
Continuous
 62
     7
100
AcDbCircle
 10
-1347.552821737382
 20
-1441.760970671579
 30
0.0
 40
95.99999999999997
100
AcDbArc
 50
89.99999999999987
 51
135.0000000000002
  0
CIRCLE
  5
296
330
278
100
AcDbEntity
  8
8738118893_00
  6
Continuous
 62
     7
100
AcDbCircle
 10
-1347.552821737382
 20
-1336.760970671579
 30
0.0
 40
9.000000000000002
  0
ARC
  5
297
330
278
100
AcDbEntity
  8
8738118893_00
  6
Continuous
 62
     7
100
AcDbCircle
 10
-1347.552821737382
 20
-1441.760970671579
 30
0.0
 40
95.99999999999997
100
AcDbArc
 50
135.0
 51
180.0
  0
CIRCLE
  5
298
330
278
100
AcDbEntity
  8
8738118893_00
  6
Continuous
 62
     7
100
AcDbCircle
 10
-1421.79903376197
 20
-1367.514758646992
 30
0.0
 40
9.000000000000002
  0
ARC
  5
299
330
278
100
AcDbEntity
  8
8738118893_00
  6
Continuous
 62
     7
100
AcDbCircle
 10
-1347.552821737382
 20
-1441.760970671579
 30
0.0
 40
96.0
100
AcDbArc
 50
180.0
 51
224.9999999999999
  0
CIRCLE
  5
29A
330
278
100
AcDbEntity
  8
8738118893_00
  6
Continuous
 62
     7
100
AcDbCircle
 10
-1452.552821737382
 20
-1441.760970671579
 30
0.0
 40
9.000000000000002
  0
CIRCLE
  5
29B
330
278
100
AcDbEntity
  8
8738118893_00
  6
Continuous
 62
     7
100
AcDbCircle
 10
-1347.552821737382
 20
-821.7609706715791
 30
0.0
 40
93.0
  0
ARC
  5
29C
330
278
100
AcDbEntity
  8
8738118893_00
  6
Continuous
 62
     7
100
AcDbCircle
 10
-1347.552821737382
 20
-821.7609706715791
 30
0.0
 40
96.0
100
AcDbArc
 50
45.00000000000005
 51
90.0
  0
CIRCLE
  5
29D
330
278
100
AcDbEntity
  8
8738118893_00
  6
Continuous
 62
     7
100
AcDbCircle
 10
-1347.552821737382
 20
-821.7609706715791
 30
0.0
 40
125.0
  0
CIRCLE
  5
29E
330
278
100
AcDbEntity
  8
8738118893_00
  6
Continuous
 62
     7
100
AcDbCircle
 10
-1347.552821737382
 20
-821.7609706715791
 30
0.0
 40
65.35
  0
CIRCLE
  5
29F
330
278
100
AcDbEntity
  8
8738118893_00
  6
Continuous
 62
     7
100
AcDbCircle
 10
-1273.306609712795
 20
-747.5147586469917
 30
0.0
 40
9.000000000000002
  0
ARC
  5
2A0
330
278
100
AcDbEntity
  8
8738118893_00
  6
Continuous
 62
     7
100
AcDbCircle
 10
-1347.552821737382
 20
-821.7609706715791
 30
0.0
 40
96.00000000000009
100
AcDbArc
 50
90.0
 51
135.0000000000002
  0
CIRCLE
  5
2A1
330
278
100
AcDbEntity
  8
8738118893_00
  6
Continuous
 62
     7
100
AcDbCircle
 10
-1347.552821737382
 20
-716.7609706715792
 30
0.0
 40
9.000000000000002
  0
ARC
  5
2A2
330
278
100
AcDbEntity
  8
8738118893_00
  6
Continuous
 62
     7
100
AcDbCircle
 10
-1347.552821737382
 20
-821.7609706715791
 30
0.0
 40
95.99999999999999
100
AcDbArc
 50
135.0000000000001
 51
180.0
  0
CIRCLE
  5
2A3
330
278
100
AcDbEntity
  8
8738118893_00
  6
Continuous
 62
     7
100
AcDbCircle
 10
-1421.79903376197
 20
-747.5147586469917
 30
0.0
 40
9.000000000000002
  0
ARC
  5
2A4
330
278
100
AcDbEntity
  8
8738118893_00
  6
Continuous
 62
     7
100
AcDbCircle
 10
-1347.552821737382
 20
-821.7609706715791
 30
0.0
 40
96.0
100
AcDbArc
 50
180.0
 51
225.0
  0
CIRCLE
  5
2A5
330
278
100
AcDbEntity
  8
8738118893_00
  6
Continuous
 62
     7
100
AcDbCircle
 10
-1452.552821737382
 20
-821.7609706715791
 30
0.0
 40
9.000000000000004
  0
ARC
  5
2A6
330
278
100
AcDbEntity
  8
8738118893_00
  6
Continuous
 62
     7
100
AcDbCircle
 10
-1347.552821737382
 20
-821.7609706715791
 30
0.0
 40
95.99999999999999
100
AcDbArc
 50
225.0
 51
270.0
  0
CIRCLE
  5
2A7
330
278
100
AcDbEntity
  8
8738118893_00
  6
Continuous
 62
     7
100
AcDbCircle
 10
-1421.79903376197
 20
-896.0071826961666
 30
0.0
 40
9.000000000000002
  0
ARC
  5
2A8
330
278
100
AcDbEntity
  8
8738118893_00
  6
Continuous
 62
     7
100
AcDbCircle
 10
-1347.552821737382
 20
-821.7609706715791
 30
0.0
 40
96.00000000000009
100
AcDbArc
 50
270.0
 51
315.0000000000001
  0
CIRCLE
  5
2A9
330
278
100
AcDbEntity
  8
8738118893_00
  6
Continuous
 62
     7
100
AcDbCircle
 10
-1347.552821737382
 20
-926.7609706715791
 30
0.0
 40
9.000000000000002
  0
ARC
  5
2AA
330
278
100
AcDbEntity
  8
8738118893_00
  6
Continuous
 62
     7
100
AcDbCircle
 10
-1347.552821737382
 20
-821.7609706715791
 30
0.0
 40
95.99999999999997
100
AcDbArc
 50
314.9999999999999
 51
0.0
  0
CIRCLE
  5
2AB
330
278
100
AcDbEntity
  8
8738118893_00
  6
Continuous
 62
     7
100
AcDbCircle
 10
-1273.306609712795
 20
-896.0071826961666
 30
0.0
 40
9.000000000000002
  0
ARC
  5
2AC
330
278
100
AcDbEntity
  8
8738118893_00
  6
Continuous
 62
     7
100
AcDbCircle
 10
-1347.552821737382
 20
-821.7609706715791
 30
0.0
 40
96.0
100
AcDbArc
 50
0.0
 51
45.00000000000005
  0
CIRCLE
  5
2AD
330
278
100
AcDbEntity
  8
8738118893_00
  6
Continuous
 62
     7
100
AcDbCircle
 10
-1242.552821737382
 20
-821.7609706715791
 30
0.0
 40
9.000000000000002
  0
CIRCLE
  5
2AE
330
278
100
AcDbEntity
  8
8738118756_00
  6
Continuous
 62
     7
100
AcDbCircle
 10
-1347.552821737382
 20
-226.7609706715792
 30
0.0
 40
69.0
  0
CIRCLE
  5
2AF
330
278
100
AcDbEntity
  8
8738118756_00
  6
Continuous
 62
     7
100
AcDbCircle
 10
-1347.552821737382
 20
-226.7609706715792
 30
0.0
 40
100.0
  0
ARC
  5
2B0
330
278
100
AcDbEntity
  8
8738118756_00
  6
Continuous
 62
     7
100
AcDbCircle
 10
-1347.552821737382
 20
-226.7609706715792
 30
0.0
 40
71.99999999999996
100
AcDbArc
 50
228.1130727721597
 51
266.88692722784
  0
ARC
  5
2B1
330
278
100
AcDbEntity
  8
8738118756_00
  6
Continuous
 62
     7
100
AcDbCircle
 10
-1404.121364232306
 20
-283.329513166503
 30
0.0
 40
9.000000000000195
100
AcDbArc
 50
19.2494995260535
 51
70.75050047394606
  0
ARC
  5
2B2
330
278
100
AcDbEntity
  8
8738118756_00
  6
Continuous
 62
     7
100
AcDbCircle
 10
-1404.121364232306
 20
-283.329513166503
 30
0.0
 40
9.000000000000124
100
AcDbArc
 50
70.75050047394755
 51
19.24949952605384
  0
ARC
  5
2B3
330
278
100
AcDbEntity
  8
8738118756_00
  6
Continuous
 62
     7
100
AcDbCircle
 10
-1347.552821737382
 20
-226.7609706715792
 30
0.0
 40
72.00000000000009
100
AcDbArc
 50
273.11307277216
 51
311.88692722784
  0
ARC
  5
2B4
330
278
100
AcDbEntity
  8
8738118756_00
  6
Continuous
 62
     7
100
AcDbCircle
 10
-1347.552821737382
 20
-306.7609706715779
 30
0.0
 40
8.99999999999883
100
AcDbArc
 50
64.24949952604901
 51
115.750500473951
  0
ARC
  5
2B5
330
278
100
AcDbEntity
  8
8738118756_00
  6
Continuous
 62
     7
100
AcDbCircle
 10
-1347.552821737382
 20
-306.7609706715792
 30
0.0
 40
8.99999999999999
100
AcDbArc
 50
115.7505004739459
 51
64.24949952605249
  0
ARC
  5
2B6
330
278
100
AcDbEntity
  8
8738118756_00
  6
Continuous
 62
     7
100
AcDbCircle
 10
-1347.552821737382
 20
-226.7609706715792
 30
0.0
 40
71.99999999999993
100
AcDbArc
 50
318.1130727721599
 51
356.88692722784
  0
ARC
  5
2B7
330
278
100
AcDbEntity
  8
8738118756_00
  6
Continuous
 62
     7
100
AcDbCircle
 10
-1290.984279242458
 20
-283.3295131665033
 30
0.0
 40
9.000000000000554
100
AcDbArc
 50
109.249499526056
 51
160.7505004739466
  0
ARC
  5
2B8
330
278
100
AcDbEntity
  8
8738118756_00
  6
Continuous
 62
     7
100
AcDbCircle
 10
-1290.984279242459
 20
-283.329513166503
 30
0.0
 40
9.000000000000028
100
AcDbArc
 50
160.7505004739462
 51
109.2494995260526
  0
ARC
  5
2B9
330
278
100
AcDbEntity
  8
8738118756_00
  6
Continuous
 62
     7
100
AcDbCircle
 10
-1347.552821737382
 20
-226.7609706715792
 30
0.0
 40
72.00000000000001
100
AcDbArc
 50
3.113072772159994
 51
41.88692722784018
  0
ARC
  5
2BA
330
278
100
AcDbEntity
  8
8738118756_00
  6
Continuous
 62
     7
100
AcDbCircle
 10
-1267.552821737382
 20
-226.7609706715792
 30
0.0
 40
9.000000000000245
100
AcDbArc
 50
154.2494995260534
 51
205.7505004739467
  0
ARC
  5
2BB
330
278
100
AcDbEntity
  8
8738118756_00
  6
Continuous
 62
     7
100
AcDbCircle
 10
-1267.552821737382
 20
-226.7609706715792
 30
0.0
 40
9.00000000000004
100
AcDbArc
 50
205.7505004739473
 51
154.2494995260528
  0
ARC
  5
2BC
330
278
100
AcDbEntity
  8
8738118756_00
  6
Continuous
 62
     7
100
AcDbCircle
 10
-1347.552821737382
 20
-226.7609706715792
 30
0.0
 40
71.99999999999997
100
AcDbArc
 50
48.11307277215984
 51
86.88692722784003
  0
ARC
  5
2BD
330
278
100
AcDbEntity
  8
8738118756_00
  6
Continuous
 62
     7
100
AcDbCircle
 10
-1290.984279242459
 20
-170.192428176656
 30
0.0
 40
8.999999999999153
100
AcDbArc
 50
199.2494995260513
 51
250.7505004739485
  0
ARC
  5
2BE
330
278
100
AcDbEntity
  8
8738118756_00
  6
Continuous
 62
     7
100
AcDbCircle
 10
-1290.984279242459
 20
-170.1924281766554
 30
0.0
 40
8.999999999999922
100
AcDbArc
 50
250.7505004739456
 51
199.2494995260537
  0
ARC
  5
2BF
330
278
100
AcDbEntity
  8
8738118756_00
  6
Continuous
 62
     7
100
AcDbCircle
 10
-1347.552821737382
 20
-226.7609706715792
 30
0.0
 40
72.00000000000009
100
AcDbArc
 50
93.11307277215978
 51
131.88692722784
  0
ARC
  5
2C0
330
278
100
AcDbEntity
  8
8738118756_00
  6
Continuous
 62
     7
100
AcDbCircle
 10
-1347.552821737382
 20
-146.7609706715802
 30
0.0
 40
8.99999999999892
100
AcDbArc
 50
244.2494995260509
 51
295.7505004739506
  0
ARC
  5
2C1
330
278
100
AcDbEntity
  8
8738118756_00
  6
Continuous
 62
     7
100
AcDbCircle
 10
-1347.552821737382
 20
-146.7609706715791
 30
0.0
 40
8.999999999999988
100
AcDbArc
 50
295.7505004739473
 51
244.2494995260543
  0
ARC
  5
2C2
330
278
100
AcDbEntity
  8
8738118756_00
  6
Continuous
 62
     7
100
AcDbCircle
 10
-1347.552821737382
 20
-226.7609706715792
 30
0.0
 40
72.00000000000006
100
AcDbArc
 50
138.1130727721599
 51
176.88692722784
  0
ARC
  5
2C3
330
278
100
AcDbEntity
  8
8738118756_00
  6
Continuous
 62
     7
100
AcDbCircle
 10
-1404.121364232306
 20
-170.1924281766556
 30
0.0
 40
8.999999999999527
100
AcDbArc
 50
289.2494995260509
 51
340.7505004739466
  0
ARC
  5
2C4
330
278
100
AcDbEntity
  8
8738118756_00
  6
Continuous
 62
     7
100
AcDbCircle
 10
-1404.121364232306
 20
-170.1924281766554
 30
0.0
 40
9.00000000000004
100
AcDbArc
 50
340.7505004739465
 51
289.2494995260528
  0
ARC
  5
2C5
330
278
100
AcDbEntity
  8
8738118756_00
  6
Continuous
 62
     7
100
AcDbCircle
 10
-1347.552821737382
 20
-226.7609706715792
 30
0.0
 40
72.0
100
AcDbArc
 50
183.1130727721598
 51
221.8869272278398
  0
ARC
  5
2C6
330
278
100
AcDbEntity
  8
8738118756_00
  6
Continuous
 62
     7
100
AcDbCircle
 10
-1427.552821737382
 20
-226.760970671579
 30
0.0
 40
8.999999999999705
100
AcDbArc
 50
334.2494995260514
 51
25.7505004739467
  0
ARC
  5
2C7
330
278
100
AcDbEntity
  8
8738118756_00
  6
Continuous
 62
     7
100
AcDbCircle
 10
-1427.552821737383
 20
-226.7609706715792
 30
0.0
 40
9.00000000000004
100
AcDbArc
 50
25.75050047394673
 51
334.2494995260547
  0
ARC
  5
2C9
330
278
100
AcDbEntity
  8
8738125091_00
  6
Continuous
 62
     7
100
AcDbCircle
 10
-1347.552821737382
 20
-681.7609706715795
 30
0.0
 40
16.35
100
AcDbArc
 50
0.0
 51
247.9224463182162
  0
ARC
  5
2CA
330
278
100
AcDbEntity
  8
8738125091_00
  6
Continuous
 62
     7
100
AcDbCircle
 10
-1347.552821737382
 20
-681.7609706715795
 30
0.0
 40
16.35
100
AcDbArc
 50
292.0775536817831
 51
0.0
  0
ARC
  5
2CB
330
278
100
AcDbEntity
  8
8738125091_00
  6
Continuous
 62
     7
100
AcDbCircle
 10
-1347.552821737382
 20
-681.7609706715795
 30
0.0
 40
16.85
100
AcDbArc
 50
295.4851828854973
 51
0.0
  0
ARC
  5
2CC
330
278
100
AcDbEntity
  8
8738125091_00
  6
Continuous
 62
     7
100
AcDbCircle
 10
-1347.552821737382
 20
-681.7609706715795
 30
0.0
 40
16.85
100
AcDbArc
 50
0.0
 51
244.5148171145018
  0
CIRCLE
  5
2CD
330
278
100
AcDbEntity
  8
8738126851_00
  6
Continuous
 62
     7
100
AcDbCircle
 10
-1347.552821737382
 20
-366.7609706715791
 30
0.0
 40
16.85
  0
CIRCLE
  5
2CE
330
278
100
AcDbEntity
  8
8738126851_00
  6
Continuous
 62
     7
100
AcDbCircle
 10
-1347.552821737382
 20
-366.7609706715791
 30
0.0
 40
16.6245
  0
CIRCLE
  5
2CF
330
278
100
AcDbEntity
  8
8738126851_00
  6
Continuous
 62
     7
100
AcDbCircle
 10
-1347.552821737382
 20
-366.7609706715791
 30
0.0
 40
15.1245
  0
CIRCLE
  5
2D0
330
278
100
AcDbEntity
  8
8738126851_00
  6
Continuous
 62
     7
100
AcDbCircle
 10
-1347.552821737382
 20
-366.7609706715791
 30
0.0
 40
12.85000000000001
  0
ARC
  5
2D1
330
278
100
AcDbEntity
  8
8738126851_00
  6
Continuous
 62
     7
100
AcDbCircle
 10
-1347.552821737382
 20
-366.7609706715791
 30
0.0
 40
15.1455
100
AcDbArc
 50
254.9999999999997
 51
194.9999999999998
  0
LINE
  5
2D2
330
278
100
AcDbEntity
  8
8738125609_01
  6
Continuous
 62
     7
100
AcDbLine
 10
-1170.052841737382
 20
275.2390293284213
 30
0.0
 11
-1525.052812254534
 21
275.2390293284213
 31
0.0
  0
LINE
  5
2D3
330
278
100
AcDbEntity
  8
8738125609_01
  6
Continuous
 62
     7
100
AcDbLine
 10
-1525.052812254534
 20
275.2390293284213
 30
0.0
 11
-1525.052841737383
 21
275.2390293284213
 31
0.0
  0
LINE
  5
2D4
330
278
100
AcDbEntity
  8
8738123435_00
  6
Continuous
 62
     7
100
AcDbLine
 10
-1524.052776520039
 20
275.4234923932833
 30
0.0
 11
-1524.052834156926
 21
275.4234923932833
 31
0.0
  0
LINE
  5
2D5
330
278
100
AcDbEntity
  8
8738123435_00
  6
Continuous
 62
     7
100
AcDbLine
 10
-1521.052776895883
 20
340.407955458146
 30
0.0
 11
-1174.052841737382
 21
340.4079554581447
 31
0.0
  0
LINE
  5
2D6
330
278
100
AcDbEntity
  8
8738123435_00
  6
Continuous
 62
     7
100
AcDbLine
 10
-1524.052776520039
 20
275.4234923932833
 30
0.0
 11
-1171.052841737382
 21
275.4234923932833
 31
0.0
  0
LINE
  5
2D7
330
278
100
AcDbEntity
  8
8738123435_00
  6
Continuous
 62
     7
100
AcDbLine
 10
-1521.052777018457
 20
340.4079528030039
 30
0.0
 11
-1521.05283453277
 21
340.4079554581456
 31
0.0
  0
LINE
  5
2D8
330
278
100
AcDbEntity
  8
8738123435_00
  6
Continuous
 62
     7
100
AcDbLine
 10
-1521.05283453277
 20
340.4079554581456
 30
0.0
 11
-1524.052834156926
 21
275.4234923932833
 31
0.0
  0
LINE
  5
2D9
330
278
100
AcDbEntity
  8
8738123435_00
  6
Continuous
 62
     7
100
AcDbLine
 10
-1524.052776520039
 20
275.4234923932833
 30
0.0
 11
-1521.052776895883
 21
340.4079554581456
 31
0.0
  0
LINE
  5
2DA
330
278
100
AcDbEntity
  8
8738123435_00
  6
Continuous
 62
     7
100
AcDbLine
 10
-1171.052841737383
 20
275.4234923932833
 30
0.0
 11
-1174.052841737383
 21
340.4079554581452
 31
0.0
  0
LINE
  5
2DB
330
278
100
AcDbEntity
  8
8738123435_00
  6
Continuous
 62
     7
100
AcDbLine
 10
-1524.052841737382
 20
275.4234923932833
 30
0.0
 11
-1520.057097328927
 21
275.2390293284213
 31
0.0
  0
LINE
  5
2DC
330
278
100
AcDbEntity
  8
8738123435_00
  6
Continuous
 62
     7
100
AcDbLine
 10
-1175.048586145838
 20
275.2390293284208
 30
0.0
 11
-1171.052841737383
 21
275.4234923932833
 31
0.0
  0
ELLIPSE
  5
2DE
330
278
100
AcDbEntity
  8
8738126725_01
  6
Continuous
 62
     7
100
AcDbEllipse
 10
-826.9087226370186
 20
-1921.760970671579
 30
0.0
 11
-2.220446049250313E-13
 21
109.9999999999998
 31
0.0
210
0.0
220
0.0
230
1.0
 40
0.8660254037844397
 41
4.712388980384688
 42
5.892812834565475
  0
LINE
  5
2DF
330
278
100
AcDbEntity
  8
8738126725_01
  6
Continuous
 62
     7
100
AcDbLine
 10
-731.6459282207305
 20
-1921.760970671579
 30
0.0
 11
-731.6459282207305
 21
-1931.760970671579
 31
0.0
  0
LINE
  5
2E0
330
278
100
AcDbEntity
  8
8738126725_01
  6
Continuous
 62
     7
100
AcDbLine
 10
-726.6459282207305
 20
-1921.760970671579
 30
0.0
 11
-726.6459282207305
 21
-1931.760970671579
 31
0.0
  0
ELLIPSE
  5
2E1
330
278
100
AcDbEntity
  8
8738126725_01
  6
Continuous
 62
     7
100
AcDbEllipse
 10
-821.9087226370186
 20
-1921.760970671579
 30
0.0
 11
-2.220446049250313E-13
 21
109.9999999999998
 31
0.0
210
0.0
220
0.0
230
1.0
 40
0.8660254037844397
 41
4.712388980384688
 42
5.903380419638083
  0
ELLIPSE
  5
2E2
330
278
100
AcDbEntity
  8
8738126725_01
  6
Continuous
 62
     7
100
AcDbEllipse
 10
-1873.196920837746
 20
-1921.760970671579
 30
0.0
 11
2.220446049250313E-13
 21
110.0
 31
0.0
210
0.0
220
0.0
230
1.0
 40
0.8660254037844373
 41
0.3798048875415087
 42
1.570796326794898
  0
LINE
  5
2E3
330
278
100
AcDbEntity
  8
8738126725_01
  6
Continuous
 62
     7
100
AcDbLine
 10
-1968.459715254034
 20
-1921.760970671579
 30
0.0
 11
-1968.459715254034
 21
-1931.760970671579
 31
0.0
  0
LINE
  5
2E4
330
278
100
AcDbEntity
  8
8738126725_01
  6
Continuous
 62
     7
100
AcDbLine
 10
-1963.459715254034
 20
-1921.760970671579
 30
0.0
 11
-1963.459715254034
 21
-1931.760970671579
 31
0.0
  0
ELLIPSE
  5
2E5
330
278
100
AcDbEntity
  8
8738126725_01
  6
Continuous
 62
     7
100
AcDbEllipse
 10
-1868.196920837746
 20
-1921.760970671579
 30
0.0
 11
-2.220446049250313E-13
 21
110.0
 31
0.0
210
0.0
220
0.0
230
1.0
 40
0.8660254037844384
 41
0.3903724726141161
 42
1.570796326794895
  0
LINE
  5
2E6
330
278
100
AcDbEntity
  8
8738125641_01
  6
Continuous
 62
     7
100
AcDbLine
 10
-1645.052821737382
 20
269.2390293284206
 30
0.0
 11
-1647.552821737382
 21
269.2390293284206
 31
0.0
  0
ELLIPSE
  5
2E7
330
278
100
AcDbEntity
  8
8738125641_01
  6
Continuous
 62
     7
100
AcDbEllipse
 10
-1647.552821737382
 20
267.2390293284204
 30
0.0
 11
0.0
 21
2.000000000000224
 31
0.0
210
0.0
220
0.0
230
1.0
 40
0.4999999999999999
 41
0.0
 42
1.570796326794897
  0
LINE
  5
2E8
330
278
100
AcDbEntity
  8
8738125641_01
  6
Continuous
 62
     7
100
AcDbLine
 10
-1647.552821737382
 20
269.2390293284206
 30
0.0
 11
-1947.552821737383
 21
269.2390293284201
 31
0.0
  0
ARC
  5
2E9
330
278
100
AcDbEntity
  8
8738125641_01
  6
Continuous
 62
     7
100
AcDbCircle
 10
-2551.549348302674
 20
247.2390293284457
 30
0.0
 40
601.9998488344294
100
AcDbArc
 50
359.8096482742579
 51
0.1903517980801201
  0
LINE
  5
2EA
330
278
100
AcDbEntity
  8
8738125641_01
  6
Continuous
 62
     7
100
AcDbLine
 10
-1949.552821737382
 20
245.2425749278533
 30
0.0
 11
-1949.552821737382
 21
237.2390293284206
 31
0.0
  0
LINE
  5
2EB
330
278
100
AcDbEntity
  8
8738125641_01
  6
Continuous
 62
     7
100
AcDbLine
 10
-1949.552821737382
 20
267.2390293284204
 30
0.0
 11
-1949.552821737382
 21
249.213376942069
 31
0.0
  0
ARC
  5
2EC
330
278
100
AcDbEntity
  8
8738125641_01
  6
Continuous
 62
     7
100
AcDbCircle
 10
-1947.552821737383
 20
267.2390293284204
 30
0.0
 40
1.99999999999978
100
AcDbArc
 50
90.0
 51
179.9999999999935
  0
LINE
  5
2ED
330
278
100
AcDbEntity
  8
8738125641_01
  6
Continuous
 62
     7
100
AcDbLine
 10
-745.5528217373824
 20
267.2390293284204
 30
0.0
 11
-745.5528217373824
 21
237.2390293284206
 31
0.0
  0
LINE
  5
2EE
330
278
100
AcDbEntity
  8
8738125641_01
  6
Continuous
 62
     7
100
AcDbLine
 10
-745.5528217373824
 20
237.2390293284206
 30
0.0
 11
-745.9528217373824
 21
237.2390293284206
 31
0.0
  0
ARC
  5
2EF
330
278
100
AcDbEntity
  8
8738125641_01
  6
Continuous
 62
     7
100
AcDbCircle
 10
-747.5528217373821
 20
267.2390293284204
 30
0.0
 40
2.000000000000224
100
AcDbArc
 50
0.0
 51
90.00000000000325
  0
LINE
  5
2F0
330
278
100
AcDbEntity
  8
8738125641_01
  6
Continuous
 62
     7
100
AcDbLine
 10
-750.7181333045125
 20
269.2390293284206
 30
0.0
 11
-747.5528217373823
 21
269.2390293284206
 31
0.0
  0
LINE
  5
2F1
330
278
100
AcDbEntity
  8
8738125638_00
  6
Continuous
 62
     7
100
AcDbLine
 10
-1949.152821737382
 20
-931.760970671579
 30
0.0
 11
-1949.152821737382
 21
-1855.371201193397
 31
0.0
  0
LINE
  5
2F2
330
278
100
AcDbEntity
  8
8738125638_00
  6
Continuous
 62
     7
100
AcDbLine
 10
-745.9528217373825
 20
-1855.371201193397
 30
0.0
 11
-745.9528217373825
 21
-1594.260970671575
 31
0.0
  0
LINE
  5
2F3
330
278
100
AcDbEntity
  8
8738125638_00
  6
Continuous
 62
     7
100
AcDbLine
 10
-745.9528217373825
 20
-1593.260970671575
 30
0.0
 11
-745.9528217373825
 21
-1570.260970671575
 31
0.0
  0
LINE
  5
2F4
330
278
100
AcDbEntity
  8
8738125638_00
  6
Continuous
 62
     7
100
AcDbLine
 10
-745.9528217373825
 20
-1569.260970671575
 30
0.0
 11
-745.9528217373825
 21
-1245.358027603522
 31
0.0
  0
LINE
  5
2F5
330
278
100
AcDbEntity
  8
8738125638_00
  6
Continuous
 62
     7
100
AcDbLine
 10
-745.9528217373825
 20
-1231.760970671579
 30
0.0
 11
-745.9528217373825
 21
-931.760970671579
 31
0.0
  0
LINE
  5
2F6
330
278
100
AcDbEntity
  8
8738125639_00
  6
Continuous
 62
     7
100
AcDbLine
 10
-1949.152821737382
 20
28.23902932842049
 30
0.0
 11
-1949.152821737382
 21
-971.7609706715796
 31
0.0
  0
LINE
  5
2F7
330
278
100
AcDbEntity
  8
8738125639_00
  6
Continuous
 62
     7
100
AcDbLine
 10
-745.9528217373824
 20
-971.7609706715795
 30
0.0
 11
-745.9528217373825
 21
28.23902932842043
 31
0.0
  0
LINE
  5
2F8
330
278
100
AcDbEntity
  8
8738125642_01
  6
Continuous
 62
     7
100
AcDbLine
 10
-752.5528217373823
 20
270.2390293284196
 30
0.0
 11
-1942.552821737382
 21
270.2390293284196
 31
0.0
  0
LINE
  5
2F9
330
278
100
AcDbEntity
  8
8738125642_01
  6
Continuous
 62
     7
100
AcDbLine
 10
-752.5528217373824
 20
269.2390293284197
 30
0.0
 11
-752.5528217373824
 21
270.2390293284196
 31
0.0
  0
LINE
  5
2FA
330
278
100
AcDbEntity
  8
8738125642_01
  6
Continuous
 62
     7
100
AcDbLine
 10
-1942.552821737382
 20
270.2390293284196
 30
0.0
 11
-1942.552821737382
 21
269.2390293284197
 31
0.0
  0
LINE
  5
2FB
330
278
100
AcDbEntity
  8
8738125640_00
  6
Continuous
 62
     7
100
AcDbLine
 10
-1949.152821737382
 20
237.2390293284206
 30
0.0
 11
-1949.152821737382
 21
-11.76097067157906
 31
0.0
  0
LINE
  5
2FC
330
278
100
AcDbEntity
  8
8738125640_00
  6
Continuous
 62
     7
100
AcDbLine
 10
-745.9528217373824
 20
-11.76097067157911
 30
0.0
 11
-745.9528217373824
 21
237.2390293284205
 31
0.0
  0
LINE
  5
2FE
330
278
100
AcDbEntity
  8
8738125483_02
  6
Continuous
 62
     7
100
AcDbLine
 10
-743.9854822048179
 20
-360.9161221011294
 30
0.0
 11
-744.9803629136466
 21
-360.9161221011296
 31
0.0
  0
LINE
  5
2FF
330
278
100
AcDbEntity
  8
8738125483_02
  6
Continuous
 62
     7
100
AcDbLine
 10
-744.9803629136466
 20
-360.9161221011296
 30
0.0
 11
-745.8669129174626
 21
-352.6723558068285
 31
0.0
  0
LINE
  5
300
330
278
100
AcDbEntity
  8
8738125483_02
  6
Continuous
 62
     7
100
AcDbLine
 10
-744.135571027252
 20
-361.2609706715801
 30
0.0
 11
-744.9815939330937
 21
-360.9189505282544
 31
0.0
  0
LINE
  5
301
330
278
100
AcDbEntity
  8
8738125483_02
  6
Continuous
 62
     7
100
AcDbLine
 10
-745.8681442410842
 20
-352.6751814055233
 30
0.0
 11
-744.9815939330937
 21
-360.9189505282544
 31
0.0
  0
LINE
  5
302
330
278
100
AcDbEntity
  8
8738125483_02
  6
Continuous
 62
     7
100
AcDbLine
 10
-744.1726566857405
 20
-360.9161221011294
 30
0.0
 11
-744.1355710272521
 21
-361.2609706715801
 31
0.0
  0
ELLIPSE
  5
303
330
278
100
AcDbEntity
  8
8738125483_02
  6
Continuous
 62
     7
100
AcDbEllipse
 10
-746.0190000817948
 20
-351.2581422444552
 30
0.0
 11
0.0
 21
-2.000000000000002
 31
0.0
210
0.0
220
0.0
230
1.0
 40
0.1075418652307575
 41
0.7853981633974411
 42
2.969737902271497
  0
ELLIPSE
  5
304
330
278
100
AcDbEntity
  8
8738125483_02
  6
Continuous
 62
     7
100
AcDbEllipse
 10
-745.1764617636597
 20
-351.2581422444554
 30
0.0
 11
0.0
 21
-2.000000000000002
 31
0.0
210
0.0
220
0.0
230
1.0
 40
0.4352310993723343
 41
4.030108763350576
 42
4.243108583472157
  0
LINE
  5
305
330
278
100
AcDbEntity
  8
8738125641_01
  6
Continuous
 62
     7
100
AcDbLine
 10
-745.5528217373823
 20
267.2390293284199
 30
0.0
 11
-745.5528217373825
 21
237.2390293284197
 31
0.0
  0
ARC
  5
306
330
278
100
AcDbEntity
  8
8738125641_01
  6
Continuous
 62
     7
100
AcDbCircle
 10
-747.5528217373823
 20
267.2390293284199
 30
0.0
 40
1.99999999999978
100
AcDbArc
 50
0.0
 51
90.0
  0
LINE
  5
307
330
278
100
AcDbEntity
  8
8738125641_01
  6
Continuous
 62
     7
100
AcDbLine
 10
-747.5528217373823
 20
269.2390293284197
 30
0.0
 11
-1647.552821737382
 21
269.2390293284197
 31
0.0
  0
ELLIPSE
  5
308
330
278
100
AcDbEntity
  8
8738125641_01
  6
Continuous
 62
     7
100
AcDbEllipse
 10
-1647.552821737382
 20
267.2390293284195
 30
0.0
 11
0.0
 21
2.000000000000224
 31
0.0
210
0.0
220
0.0
230
1.0
 40
0.4999999999999999
 41
0.0
 42
1.570796326794897
  0
LINE
  5
309
330
278
100
AcDbEntity
  8
8738125614_01
  6
Continuous
 62
     7
100
AcDbLine
 10
-918.1214980503012
 20
-2232.760970671578
 30
0.0
 11
-1776.984145424464
 21
-2232.760970671578
 31
0.0
  0
LINE
  5
30A
330
278
100
AcDbEntity
  8
8738125614_01
  6
Continuous
 62
     7
100
AcDbLine
 10
-918.1214980503012
 20
-2226.760970671579
 30
0.0
 11
-926.3415440371276
 21
-2226.760970671579
 31
0.0
  0
LINE
  5
30B
330
278
100
AcDbEntity
  8
8738125614_01
  6
Continuous
 62
     7
100
AcDbLine
 10
-916.9927848954661
 20
-2226.662221066159
 30
0.0
 11
-915.9508958294646
 21
-2232.571067584232
 31
0.0
  0
LINE
  5
30C
330
278
100
AcDbEntity
  8
8738125614_01
  6
Continuous
 62
     7
100
AcDbLine
 10
-917.6859289337925
 20
-2226.746360370336
 30
0.0
 11
-918.1214980503012
 21
-2226.760970671579
 31
0.0
  0
LINE
  5
30D
330
278
100
AcDbEntity
  8
8738125614_01
  6
Continuous
 62
     7
100
AcDbLine
 10
-918.1214980503012
 20
-2226.760970671579
 30
0.0
 11
-918.1214980503012
 21
-2232.760970671579
 31
0.0
  0
LINE
  5
30E
330
278
100
AcDbEntity
  8
8738125614_01
  6
Continuous
 62
     7
100
AcDbLine
 10
-917.2838651339383
 20
-2232.732873938419
 30
0.0
 11
-918.1214980503012
 21
-2232.760970671579
 31
0.0
  0
LINE
  5
30F
330
278
100
AcDbEntity
  8
8738125614_01
  6
Continuous
 62
     7
100
AcDbLine
 10
-915.9508958294647
 20
-2232.571067584232
 30
0.0
 11
-917.2838651178674
 21
-2232.73287393734
 31
0.0
  0
LINE
  5
310
330
278
100
AcDbEntity
  8
8738125614_01
  6
Continuous
 62
     7
100
AcDbLine
 10
-916.9927848954662
 20
-2226.662221066159
 30
0.0
 11
-917.6859289254356
 21
-2226.746360369775
 31
0.0
  0
LINE
  5
311
330
278
100
AcDbEntity
  8
8738125614_01
  6
Continuous
 62
     7
100
AcDbLine
 10
-917.6849476826571
 20
-2226.760970671579
 30
0.0
 11
-917.2838651339383
 21
-2232.732873938419
 31
0.0
  0
LINE
  5
312
330
278
100
AcDbEntity
  8
8738125614_01
  6
Continuous
 62
     7
100
AcDbLine
 10
-722.5608866409656
 20
-2192.378631493526
 30
0.0
 11
-721.518997574964
 21
-2198.287478011599
 31
0.0
  0
LINE
  5
313
330
278
100
AcDbEntity
  8
8738125614_01
  6
Continuous
 62
     7
100
AcDbLine
 10
-748.1081129178467
 20
-2196.883296768405
 30
0.0
 11
-916.9927848954662
 21
-2226.662221066159
 31
0.0
  0
LINE
  5
314
330
278
100
AcDbEntity
  8
8738125614_01
  6
Continuous
 62
     7
100
AcDbLine
 10
-748.1081129178466
 20
-2196.883296768405
 30
0.0
 11
-722.5608866409655
 21
-2192.378631493527
 31
0.0
  0
LINE
  5
315
330
278
100
AcDbEntity
  8
8738125614_01
  6
Continuous
 62
     7
100
AcDbLine
 10
-747.0662238518452
 20
-2202.792143286478
 30
0.0
 11
-915.9508958294646
 21
-2232.571067584232
 31
0.0
  0
LINE
  5
316
330
278
100
AcDbEntity
  8
8738125614_01
  6
Continuous
 62
     7
100
AcDbLine
 10
-721.5189975749641
 20
-2198.2874780116
 30
0.0
 11
-747.0662238518453
 21
-2202.792143286478
 31
0.0
  0
LINE
  5
317
330
278
100
AcDbEntity
  8
8738125614_01
  6
Continuous
 62
     7
100
AcDbLine
 10
-1778.112858579299
 20
-2226.662221066159
 30
0.0
 11
-1946.997530556918
 21
-2196.883296768405
 31
0.0
  0
LINE
  5
318
330
278
100
AcDbEntity
  8
8738125614_01
  6
Continuous
 62
     7
100
AcDbLine
 10
-1779.1547476305
 20
-2232.571067586841
 30
0.0
 11
-1948.039419622919
 21
-2202.792143286479
 31
0.0
  0
LINE
  5
319
330
278
100
AcDbEntity
  8
8738125614_01
  6
Continuous
 62
     7
100
AcDbLine
 10
-1776.984145424464
 20
-2226.760970671579
 30
0.0
 11
-1777.419714540973
 21
-2226.746360370336
 31
0.0
  0
LINE
  5
31A
330
278
100
AcDbEntity
  8
8738125614_01
  6
Continuous
 62
     7
100
AcDbLine
 10
-1777.420695792108
 20
-2226.760970671579
 30
0.0
 11
-1777.821778340826
 21
-2232.732873938419
 31
0.0
  0
LINE
  5
31B
330
278
100
AcDbEntity
  8
8738125614_01
  6
Continuous
 62
     7
100
AcDbLine
 10
-1776.984145424464
 20
-2226.760970671579
 30
0.0
 11
-1776.984145424464
 21
-2232.760970671579
 31
0.0
  0
LINE
  5
31C
330
278
100
AcDbEntity
  8
8738125614_01
  6
Continuous
 62
     7
100
AcDbLine
 10
-1776.984145424464
 20
-2232.760970671578
 30
0.0
 11
-1777.821778340827
 21
-2232.732873938419
 31
0.0
  0
LINE
  5
31D
330
278
100
AcDbEntity
  8
8738125614_01
  6
Continuous
 62
     7
100
AcDbLine
 10
-1777.821778340826
 20
-2232.732873938419
 30
0.0
 11
-1779.154747629438
 21
-2232.571067587028
 31
0.0
  0
LINE
  5
31E
330
278
100
AcDbEntity
  8
8738125614_01
  6
Continuous
 62
     7
100
AcDbLine
 10
-1777.419714540972
 20
-2226.746360370336
 30
0.0
 11
-1778.11285857105
 21
-2226.662221067613
 31
0.0
  0
LINE
  5
31F
330
278
100
AcDbEntity
  8
8738125614_01
  6
Continuous
 62
     7
100
AcDbLine
 10
-1778.112858579299
 20
-2226.662221066159
 30
0.0
 11
-1779.154747582404
 21
-2232.571067227528
 31
0.0
  0
LINE
  5
320
330
278
100
AcDbEntity
  8
8738125614_01
  6
Continuous
 62
     7
100
AcDbLine
 10
-1972.544756833799
 20
-2192.378631493526
 30
0.0
 11
-1946.997530556918
 21
-2196.883296768405
 31
0.0
  0
LINE
  5
321
330
278
100
AcDbEntity
  8
8738125614_01
  6
Continuous
 62
     7
100
AcDbLine
 10
-1973.5866458998
 20
-2198.2874780116
 30
0.0
 11
-1972.544756833799
 21
-2192.378631493526
 31
0.0
  0
LINE
  5
322
330
278
100
AcDbEntity
  8
8738125614_01
  6
Continuous
 62
     7
100
AcDbLine
 10
-1948.03941962292
 20
-2202.792143286478
 30
0.0
 11
-1973.586645899801
 21
-2198.2874780116
 31
0.0
  0
LINE
  5
323
330
278
100
AcDbEntity
  8
8738125614_01
  6
Continuous
 62
     7
100
AcDbLine
 10
-1768.764099437637
 20
-2226.760970671579
 30
0.0
 11
-1776.984145424464
 21
-2226.760970671579
 31
0.0
  0
LINE
  5
324
330
278
100
AcDbEntity
  8
8738125614_01
  6
Continuous
 62
     7
100
AcDbLine
 10
-1768.764099437637
 20
-2226.860970671579
 30
0.0
 11
-1768.731099505511
 21
-2226.860970671579
 31
0.0
  0
LINE
  5
325
330
278
100
AcDbEntity
  8
8738125614_01
  6
Continuous
 62
     7
100
AcDbLine
 10
-1768.731099505511
 20
-2226.760970671579
 30
0.0
 11
-1768.731099505511
 21
-2226.860970671579
 31
0.0
  0
LINE
  5
326
330
278
100
AcDbEntity
  8
8738125614_01
  6
Continuous
 62
     7
100
AcDbLine
 10
-1768.764099437637
 20
-2226.860970671579
 30
0.0
 11
-1768.764099437637
 21
-2226.760970671579
 31
0.0
  0
LINE
  5
327
330
278
100
AcDbEntity
  8
8738125614_01
  6
Continuous
 62
     7
100
AcDbLine
 10
-1768.764099437637
 20
-2226.760970671579
 30
0.0
 11
-1768.731099505511
 21
-2226.760970671579
 31
0.0
  0
LINE
  5
328
330
278
100
AcDbEntity
  8
8738125614_01
  6
Continuous
 62
     7
100
AcDbLine
 10
-926.374543969254
 20
-2226.760970671579
 30
0.0
 11
-1768.731099505511
 21
-2226.760970671579
 31
0.0
  0
LINE
  5
329
330
278
100
AcDbEntity
  8
8738125614_01
  6
Continuous
 62
     7
100
AcDbLine
 10
-926.374543969254
 20
-2226.860970671579
 30
0.0
 11
-926.3415440371276
 21
-2226.860970671579
 31
0.0
  0
LINE
  5
32A
330
278
100
AcDbEntity
  8
8738125614_01
  6
Continuous
 62
     7
100
AcDbLine
 10
-926.3745439692541
 20
-2226.860970671579
 30
0.0
 11
-926.3745439692541
 21
-2226.760970671579
 31
0.0
  0
LINE
  5
32B
330
278
100
AcDbEntity
  8
8738125614_01
  6
Continuous
 62
     7
100
AcDbLine
 10
-926.3415440371276
 20
-2226.760970671579
 30
0.0
 11
-926.3415440371276
 21
-2226.860970671579
 31
0.0
  0
LINE
  5
32C
330
278
100
AcDbEntity
  8
8738125614_01
  6
Continuous
 62
     7
100
AcDbLine
 10
-926.3745439692539
 20
-2226.760970671579
 30
0.0
 11
-926.3415440371275
 21
-2226.760970671579
 31
0.0
  0
ELLIPSE
  5
32D
330
278
100
AcDbEntity
  8
8738125615_01
  6
Continuous
 62
     7
100
AcDbEllipse
 10
-1347.55282173738
 20
-2302.507272486838
 30
0.0
 11
-554.9999997954073
 21
-97.837494755034
 31
0.0
210
0.0
220
0.0
230
0.9999999999999999
 40
0.0001540277113733
 41
-3.826057233509202
 42
-3.824366399150346
  0
LINE
  5
32E
330
278
100
AcDbEntity
  8
8738125615_01
  6
Continuous
 62
     7
100
AcDbLine
 10
-1777.552780330124
 20
-2226.760970671579
 30
0.0
 11
-917.5527804214506
 21
-2226.760970671579
 31
0.0
  0
LINE
  5
32F
330
278
100
AcDbEntity
  8
8738125615_01
  6
Continuous
 62
     7
100
AcDbLine
 10
-1777.552780330124
 20
-2226.760970671579
 30
0.0
 11
-1777.558517960003
 21
-2226.760970671579
 31
0.0
  0
LINE
  5
330
330
278
100
AcDbEntity
  8
8738125618_01
  6
Continuous
 62
     7
100
AcDbLine
 10
-912.5608866409655
 20
-2125.880757828131
 30
0.0
 11
-748.5022200623773
 21
-2125.880757828131
 31
0.0
  0
LINE
  5
331
330
278
100
AcDbEntity
  8
8738125618_01
  6
Continuous
 62
     7
100
AcDbLine
 10
-748.5022200623772
 20
-2125.880757828131
 30
0.0
 11
-722.5608866409655
 21
-2125.880757828131
 31
0.0
  0
LINE
  5
332
330
278
100
AcDbEntity
  8
8738125618_01
  6
Continuous
 62
     7
100
AcDbLine
 10
-722.5608866409654
 20
-2192.378631493523
 30
0.0
 11
-722.5608866409655
 21
-2125.880757828131
 31
0.0
  0
LINE
  5
333
330
278
100
AcDbEntity
  8
8738125618_01
  6
Continuous
 62
     7
100
AcDbLine
 10
-912.5608866409655
 20
-2125.880757828131
 30
0.0
 11
-913.5961628213755
 21
-2125.880757828131
 31
0.0
  0
LINE
  5
334
330
278
100
AcDbEntity
  8
8738125618_01
  6
Continuous
 62
     7
100
AcDbLine
 10
-912.5608866409654
 20
-2225.880757828132
 30
0.0
 11
-913.5961628213754
 21
-2225.880757828132
 31
0.0
  0
LINE
  5
335
330
278
100
AcDbEntity
  8
8738125618_01
  6
Continuous
 62
     7
100
AcDbLine
 10
-722.5608866409654
 20
-2192.378631493523
 30
0.0
 11
-748.5022200623773
 21
-2196.952788491272
 31
0.0
  0
LINE
  5
336
330
278
100
AcDbEntity
  8
8738125433_01
  6
Continuous
 62
     7
100
AcDbLine
 10
-1371.702821737382
 20
-2265.760970671579
 30
0.0
 11
-1323.402821737383
 21
-2265.760970671579
 31
0.0
  0
LINE
  5
337
330
278
100
AcDbEntity
  8
8738125433_01
  6
Continuous
 62
     7
100
AcDbLine
 10
-1323.402821737383
 20
-2265.760970671579
 30
0.0
 11
-1323.402821737383
 21
-2232.760970671579
 31
0.0
  0
LINE
  5
338
330
278
100
AcDbEntity
  8
8738125433_01
  6
Continuous
 62
     7
100
AcDbLine
 10
-1371.702821737382
 20
-2232.760970671579
 30
0.0
 11
-1371.702821737382
 21
-2265.760970671579
 31
0.0
  0
LINE
  5
339
330
278
100
AcDbEntity
  8
8738125433_01
  6
Continuous
 62
     7
100
AcDbLine
 10
-1323.651321737382
 20
-2273.260970671578
 30
0.0
 11
-1323.651321737382
 21
-2265.760970671578
 31
0.0
  0
LINE
  5
33A
330
278
100
AcDbEntity
  8
8738125433_01
  6
Continuous
 62
     7
100
AcDbLine
 10
-1371.454321737383
 20
-2265.760970671579
 30
0.0
 11
-1371.454321737383
 21
-2273.260970671579
 31
0.0
  0
LINE
  5
33B
330
278
100
AcDbEntity
  8
8738125433_01
  6
Continuous
 62
     7
100
AcDbLine
 10
-1369.975321737383
 20
-2273.260970671578
 30
0.0
 11
-1369.975321737383
 21
-2265.760970671579
 31
0.0
  0
LINE
  5
33C
330
278
100
AcDbEntity
  8
8738125433_01
  6
Continuous
 62
     7
100
AcDbLine
 10
-1325.130321737382
 20
-2273.260970671578
 30
0.0
 11
-1325.130321737382
 21
-2265.760970671578
 31
0.0
  0
LINE
  5
33D
330
278
100
AcDbEntity
  8
8738125618_01
  6
Continuous
 62
     7
100
AcDbLine
 10
-1972.544756833799
 20
-2192.378631493523
 30
0.0
 11
-1972.544756833799
 21
-2125.880757828132
 31
0.0
  0
LINE
  5
33E
330
278
100
AcDbEntity
  8
8738125618_01
  6
Continuous
 62
     7
100
AcDbLine
 10
-1972.544756833799
 20
-2125.880757828131
 30
0.0
 11
-1946.603423412387
 21
-2125.880757828131
 31
0.0
  0
LINE
  5
33F
330
278
100
AcDbEntity
  8
8738125618_01
  6
Continuous
 62
     7
100
AcDbLine
 10
-1946.603423412387
 20
-2125.880757828131
 30
0.0
 11
-1782.544756833799
 21
-2125.880757828131
 31
0.0
  0
LINE
  5
340
330
278
100
AcDbEntity
  8
8738125618_01
  6
Continuous
 62
     7
100
AcDbLine
 10
-1782.544756833799
 20
-2225.880757828132
 30
0.0
 11
-1781.509480653389
 21
-2225.880757828132
 31
0.0
  0
LINE
  5
341
330
278
100
AcDbEntity
  8
8738125618_01
  6
Continuous
 62
     7
100
AcDbLine
 10
-1782.544756833799
 20
-2125.880757828131
 30
0.0
 11
-1781.509480653389
 21
-2125.880757828131
 31
0.0
  0
LINE
  5
342
330
278
100
AcDbEntity
  8
8738125618_01
  6
Continuous
 62
     7
100
AcDbLine
 10
-1946.603423412387
 20
-2196.952788491273
 30
0.0
 11
-1972.544756833799
 21
-2192.378631493524
 31
0.0
  0
LINE
  5
343
330
278
100
AcDbEntity
  8
8738118992_00
  6
Continuous
 62
     7
100
AcDbLine
 10
-1321.552821737382
 20
-2275.484561060116
 30
0.0
 11
-1321.552821737383
 21
-2290.037380283042
 31
0.0
  0
LINE
  5
344
330
278
100
AcDbEntity
  8
8738118992_00
  6
Continuous
 62
     7
100
AcDbLine
 10
-1336.783269115682
 20
-2275.342505380112
 30
0.0
 11
-1336.783269115682
 21
-2290.179435963045
 31
0.0
  0
LINE
  5
345
330
278
100
AcDbEntity
  8
8738118992_00
  6
Continuous
 62
     7
100
AcDbLine
 10
-1358.322374359084
 20
-2275.478421813884
 30
0.0
 11
-1358.322374359083
 21
-2290.043519529272
 31
0.0
  0
LINE
  5
346
330
278
100
AcDbEntity
  8
8738118992_00
  6
Continuous
 62
     7
100
AcDbLine
 10
-1373.552821737382
 20
-2275.880985302121
 30
0.0
 11
-1373.552821737382
 21
-2289.640956041053
 31
0.0
  0
LINE
  5
347
330
278
100
AcDbEntity
  8
8738118992_00
  6
Continuous
 62
     7
100
AcDbLine
 10
-1373.552821737384
 20
-2290.851858224657
 30
0.0
 11
-1373.552821737382
 21
-2291.879260872391
 31
0.0
  0
SPLINE
  5
348
330
278
100
AcDbEntity
  8
8738118992_00
  6
Continuous
 62
     7
100
AcDbSpline
210
0.0
220
0.0
230
1.0
 70
     8
 71
     3
 72
    34
 73
    30
 74
     0
 42
0.000000000613167
 43
0.0000000001
 40
0.0
 40
0.0
 40
0.0
 40
0.0
 40
0.0312500000000002
 40
0.0312500000000002
 40
0.0625000000000003
 40
0.0625000000000003
 40
0.0937500000000005
 40
0.0937500000000005
 40
0.1250000000000007
 40
0.1250000000000007
 40
0.1875000000000008
 40
0.1875000000000008
 40
0.2500000000000008
 40
0.2500000000000008
 40
0.3750000000000006
 40
0.3750000000000006
 40
0.5000000000000004
 40
0.5000000000000004
 40
0.6250000000000002
 40
0.6250000000000002
 40
0.75
 40
0.75
 40
0.875
 40
0.875
 40
0.90625
 40
0.90625
 40
0.9375000000000001
 40
0.9375000000000001
 40
1.0
 40
1.0
 40
1.0
 40
1.0
 10
-1373.552821737382
 20
-2289.640956041053
 30
0.0
 10
-1373.437668114744
 20
-2289.814072570909
 30
0.0
 10
-1373.311447748913
 20
-2289.964740306118
 30
0.0
 10
-1373.044845763201
 20
-2290.237349792876
 30
0.0
 10
-1372.904317938449
 20
-2290.358994969087
 30
0.0
 10
-1372.612650516434
 20
-2290.580759431024
 30
0.0
 10
-1372.461245044869
 20
-2290.680788880947
 30
0.0
 10
-1372.156540714305
 20
-2290.860410144126
 30
0.0
 10
-1372.002340871812
 20
-2290.940675640346
 30
0.0
 10
-1371.53550739588
 20
-2291.159599471329
 30
0.0
 10
-1371.218699501011
 20
-2291.276693492709
 30
0.0
 10
-1370.577829625324
 20
-2291.47340679044
 30
0.0
 10
-1370.253592929625
 20
-2291.552787828584
 30
0.0
 10
-1369.273928949994
 20
-2291.750928322906
 30
0.0
 10
-1368.619163143728
 20
-2291.829593938226
 30
0.0
 10
-1367.30795467203
 20
-2291.932840024986
 30
0.0
 10
-1366.651491373762
 20
-2291.956755008312
 30
0.0
 10
-1365.337361665903
 20
-2291.965780017226
 30
0.0
 10
-1364.678592318198
 20
-2291.950786039246
 30
0.0
 10
-1363.365877268562
 20
-2291.871401483614
 30
0.0
 10
-1362.712033192475
 20
-2291.807402705916
 30
0.0
 10
-1361.413557851877
 20
-2291.590311945339
 30
0.0
 10
-1360.7686715864
 20
-2291.439685968981
 30
0.0
 10
-1359.97478468196
 20
-2291.133220077115
 30
0.0
 10
-1359.816649378987
 20
-2291.06571763473
 30
0.0
 10
-1359.502036618686
 20
-2290.914680425722
 30
0.0
 10
-1359.344846606859
 20
-2290.830705642976
 30
0.0
 10
-1358.884662788464
 20
-2290.551422500192
 30
0.0
 10
-1358.590819927598
 20
-2290.33102511621
 30
0.0
 10
-1358.322374359083
 20
-2290.043519529273
 30
0.0
  0
SPLINE
  5
349
330
278
100
AcDbEntity
  8
8738118992_00
  6
Continuous
 62
     7
100
AcDbSpline
210
0.0
220
0.0
230
1.0
 70
     8
 71
     3
 72
    32
 73
    28
 74
     0
 42
0.0000000004508381
 43
0.0000000001
 40
0.0
 40
0.0
 40
0.0
 40
0.0
 40
0.0624999999999998
 40
0.0624999999999998
 40
0.1249999999999996
 40
0.1249999999999996
 40
0.2499999999999996
 40
0.2499999999999996
 40
0.3749999999999996
 40
0.3749999999999996
 40
0.4999999999999997
 40
0.4999999999999997
 40
0.5312499999999997
 40
0.5312499999999997
 40
0.5624999999999997
 40
0.5624999999999997
 40
0.6249999999999998
 40
0.6249999999999998
 40
0.7499999999999998
 40
0.7499999999999998
 40
0.8124999999999999
 40
0.8124999999999999
 40
0.8749999999999999
 40
0.8749999999999999
 40
0.9375
 40
0.9375
 40
1.0
 40
1.0
 40
1.0
 40
1.0
 10
-1358.322374359083
 20
-2290.043519529273
 30
0.0
 10
-1357.955056518105
 20
-2290.330085375125
 30
0.0
 10
-1357.550488997674
 20
-2290.552453466692
 30
0.0
 10
-1356.702063597684
 20
-2290.929474897432
 30
0.0
 10
-1356.263721976928
 20
-2291.079539344146
 30
0.0
 10
-1354.940457521872
 20
-2291.455224781826
 30
0.0
 10
-1354.037933348129
 20
-2291.611449825293
 30
0.0
 10
-1352.214258346791
 20
-2291.837639029376
 30
0.0
 10
-1351.293659775022
 20
-2291.905150371012
 30
0.0
 10
-1349.455425576767
 20
-2291.991939366515
 30
0.0
 10
-1348.535288924619
 20
-2292.011125900833
 30
0.0
 10
-1347.384214755799
 20
-2292.013660108936
 30
0.0
 10
-1347.15157368428
 20
-2292.013024291905
 30
0.0
 10
-1346.688661833986
 20
-2292.009422163233
 30
0.0
 10
-1346.457305741106
 20
-2292.006459422162
 30
0.0
 10
-1345.763552834333
 20
-2291.993901441963
 30
0.0
 10
-1345.301466852847
 20
-2291.980689268268
 30
0.0
 10
-1343.91674310429
 20
-2291.923200406095
 30
0.0
 10
-1342.99554008846
 20
-2291.862228542926
 30
0.0
 10
-1341.619301535113
 20
-2291.706003528991
 30
0.0
 10
-1341.161502471272
 20
-2291.642907558806
 30
0.0
 10
-1340.248648637177
 20
-2291.484782235465
 30
0.0
 10
-1339.792224014612
 20
-2291.389578914931
 30
0.0
 10
-1338.889800916807
 20
-2291.152231695964
 30
0.0
 10
-1338.446207971957
 20
-2291.011206325688
 30
0.0
 10
-1337.583315315404
 20
-2290.657883140415
 30
0.0
 10
-1337.16405431464
 20
-2290.446086641262
 30
0.0
 10
-1336.783269115682
 20
-2290.179435963045
 30
0.0
  0
SPLINE
  5
34A
330
278
100
AcDbEntity
  8
8738118992_00
  6
Continuous
 62
     7
100
AcDbSpline
210
0.0
220
0.0
230
1.0
 70
     8
 71
     3
 72
    28
 73
    24
 74
     0
 42
0.0000000006211657
 43
0.0000000001
 40
0.0
 40
0.0
 40
0.0
 40
0.0
 40
0.0625
 40
0.0625
 40
0.1250000000000001
 40
0.1250000000000001
 40
0.2500000000000001
 40
0.2500000000000001
 40
0.3750000000000002
 40
0.3750000000000002
 40
0.5000000000000002
 40
0.5000000000000002
 40
0.6250000000000002
 40
0.6250000000000002
 40
0.7500000000000003
 40
0.7500000000000003
 40
0.8125000000000002
 40
0.8125000000000002
 40
0.8750000000000001
 40
0.8750000000000001
 40
0.9375000000000001
 40
0.9375000000000001
 40
1.0
 40
1.0
 40
1.0
 40
1.0
 10
-1336.783269115682
 20
-2290.179435963045
 30
0.0
 10
-1336.511026460868
 20
-2290.448944612839
 30
0.0
 10
-1336.218070944466
 20
-2290.657263990944
 30
0.0
 10
-1335.610326455959
 20
-2291.009403052253
 30
0.0
 10
-1335.293967054799
 20
-2291.151698901343
 30
0.0
 10
-1334.344364668887
 20
-2291.505251233225
 30
0.0
 10
-1333.702169713264
 20
-2291.650465661073
 30
0.0
 10
-1332.409566893993
 20
-2291.859467211815
 30
0.0
 10
-1331.758938017629
 20
-2291.92106309263
 30
0.0
 10
-1330.453081450128
 20
-2291.998659665343
 30
0.0
 10
-1329.799680784638
 20
-2292.01427127717
 30
0.0
 10
-1328.493971752371
 20
-2292.010933540222
 30
0.0
 10
-1327.841315202014
 20
-2291.992009960923
 30
0.0
 10
-1326.536560569032
 20
-2291.905486715834
 30
0.0
 10
-1325.883187838025
 20
-2291.838031312012
 30
0.0
 10
-1324.911798782241
 20
-2291.667898091438
 30
0.0
 10
-1324.589332257245
 20
-2291.599476537414
 30
0.0
 10
-1323.948227686583
 20
-2291.428919769706
 30
0.0
 10
-1323.629025806148
 20
-2291.326771435261
 30
0.0
 10
-1322.998689351977
 20
-2291.072362315514
 30
0.0
 10
-1322.691094660173
 20
-2290.921910467973
 30
0.0
 10
-1322.099536304522
 20
-2290.548470330619
 30
0.0
 10
-1321.814826368559
 20
-2290.327772754707
 30
0.0
 10
-1321.552821737383
 20
-2290.037380283042
 30
0.0
  0
LINE
  5
34B
330
278
100
AcDbEntity
  8
8738118992_00
  6
Continuous
 62
     7
100
AcDbLine
 10
-1321.552821737382
 20
-2291.960388212042
 30
0.0
 11
-1321.552821737382
 21
-2290.037380283041
 31
0.0
  0
LINE
  5
34C
330
278
100
AcDbEntity
  8
8738118992_00
  6
Continuous
 62
     7
100
AcDbLine
 10
-1371.847533917498
 20
-2292.260970671579
 30
0.0
 11
-1323.0741148737
 21
-2292.260970671579
 31
0.0
  0
LINE
  5
34D
330
278
100
AcDbEntity
  8
8738118992_00
  6
Continuous
 62
     7
100
AcDbLine
 10
-1321.552821737382
 20
-2275.484561060116
 30
0.0
 11
-1321.552821737382
 21
-2273.561558732703
 31
0.0
  0
SPLINE
  5
34E
330
278
100
AcDbEntity
  8
8738118992_00
  6
Continuous
 62
     7
100
AcDbSpline
210
0.0
220
0.0
230
1.0
 70
     8
 71
     3
 72
    26
 73
    22
 74
     0
 42
0.0000000006210464
 43
0.0000000001
 40
0.0
 40
0.0
 40
0.0
 40
0.0
 40
0.0624999999999998
 40
0.0624999999999998
 40
0.1249999999999996
 40
0.1249999999999996
 40
0.2499999999999996
 40
0.2499999999999996
 40
0.3749999999999996
 40
0.3749999999999996
 40
0.4999999999999997
 40
0.4999999999999997
 40
0.6249999999999997
 40
0.6249999999999997
 40
0.7499999999999997
 40
0.7499999999999997
 40
0.8749999999999998
 40
0.8749999999999998
 40
0.9374999999999999
 40
0.9374999999999999
 40
1.0
 40
1.0
 40
1.0
 40
1.0
 10
-1321.552821737382
 20
-2275.484561060116
 30
0.0
 10
-1321.81473803288
 20
-2275.194266495179
 30
0.0
 10
-1322.101633831008
 20
-2274.971554276411
 30
0.0
 10
-1322.700718287214
 20
-2274.594559977064
 30
0.0
 10
-1323.014881195275
 20
-2274.442170353161
 30
0.0
 10
-1323.958924646608
 20
-2274.063834132543
 30
0.0
 10
-1324.599612620956
 20
-2273.908239913468
 30
0.0
 10
-1325.891064508616
 20
-2273.683018747828
 30
0.0
 10
-1326.542943283732
 20
-2273.615856236845
 30
0.0
 10
-1327.848449658627
 20
-2273.529635220938
 30
0.0
 10
-1328.50109230605
 20
-2273.510862295996
 30
0.0
 10
-1329.806221060198
 20
-2273.507781991781
 30
0.0
 10
-1330.458707095332
 20
-2273.523490374495
 30
0.0
 10
-1331.763468569591
 20
-2273.601274036297
 30
0.0
 10
-1332.417006831854
 20
-2273.663246422819
 30
0.0
 10
-1333.713258344455
 20
-2273.873705480341
 30
0.0
 10
-1334.356781548605
 20
-2274.019995287765
 30
0.0
 10
-1335.306791921627
 20
-2274.375696240564
 30
0.0
 10
-1335.61943893732
 20
-2274.517275302333
 30
0.0
 10
-1336.221122533116
 20
-2274.866999520832
 30
0.0
 10
-1336.511904419738
 20
-2275.07386587226
 30
0.0
 10
-1336.783269115682
 20
-2275.342505380112
 30
0.0
  0
SPLINE
  5
34F
330
278
100
AcDbEntity
  8
8738118992_00
  6
Continuous
 62
     7
100
AcDbSpline
210
0.0
220
0.0
230
1.0
 70
     8
 71
     3
 72
    30
 73
    26
 74
     0
 42
0.000000000450845
 43
0.0000000001
 40
0.0
 40
0.0
 40
0.0
 40
0.0
 40
0.0625000000000001
 40
0.0625000000000001
 40
0.1250000000000001
 40
0.1250000000000001
 40
0.2500000000000002
 40
0.2500000000000002
 40
0.3750000000000002
 40
0.3750000000000002
 40
0.5000000000000002
 40
0.5000000000000002
 40
0.5625000000000002
 40
0.5625000000000002
 40
0.6250000000000001
 40
0.6250000000000001
 40
0.75
 40
0.75
 40
0.8125
 40
0.8125
 40
0.875
 40
0.875
 40
0.9375
 40
0.9375
 40
1.0
 40
1.0
 40
1.0
 40
1.0
 10
-1336.783269115682
 20
-2275.342505380112
 30
0.0
 10
-1337.162211513445
 20
-2275.077145151707
 30
0.0
 10
-1337.582228392098
 20
-2274.864867979511
 30
0.0
 10
-1338.435948407163
 20
-2274.514576028118
 30
0.0
 10
-1338.873184335464
 20
-2274.37499229072
 30
0.0
 10
-1340.204156516552
 20
-2274.022267512529
 30
0.0
 10
-1341.120453254333
 20
-2273.873975485329
 30
0.0
 10
-1342.952083004014
 20
-2273.663298229636
 30
0.0
 10
-1343.870580916763
 20
-2273.601544254192
 30
0.0
 10
-1345.710371469188
 20
-2273.523435289797
 30
0.0
 10
-1346.631686802522
 20
-2273.507448948317
 30
0.0
 10
-1348.015249756811
 20
-2273.509297474089
 30
0.0
 10
-1348.478910062673
 20
-2273.514451581959
 30
0.0
 10
-1349.402437296949
 20
-2273.534685792034
 30
0.0
 10
-1349.863744399071
 20
-2273.549764645006
 30
0.0
 10
-1351.245950415074
 20
-2273.613644267467
 30
0.0
 10
-1352.165245987783
 20
-2273.679871352581
 30
0.0
 10
-1353.537887282713
 20
-2273.847707544857
 30
0.0
 10
-1353.99436280727
 20
-2273.915299610358
 30
0.0
 10
-1354.90419109248
 20
-2274.084424284065
 30
0.0
 10
-1355.359185838252
 20
-2274.186202391209
 30
0.0
 10
-1356.256643605679
 20
-2274.439806463534
 30
0.0
 10
-1356.697012580105
 20
-2274.590406172601
 30
0.0
 10
-1357.550460052364
 20
-2274.969291820704
 30
0.0
 10
-1357.958319607046
 20
-2275.19440169203
 30
0.0
 10
-1358.322374359084
 20
-2275.478421813884
 30
0.0
  0
SPLINE
  5
350
330
278
100
AcDbEntity
  8
8738118992_00
  6
Continuous
 62
     7
100
AcDbSpline
210
0.0
220
0.0
230
1.0
 70
     8
 71
     3
 72
    30
 73
    26
 74
     0
 42
0.0000000006130688
 43
0.0000000001
 40
0.0
 40
0.0
 40
0.0
 40
0.0
 40
0.0624999999999997
 40
0.0624999999999997
 40
0.1249999999999994
 40
0.1249999999999994
 40
0.2499999999999993
 40
0.2499999999999993
 40
0.3749999999999992
 40
0.3749999999999992
 40
0.4999999999999991
 40
0.4999999999999991
 40
0.624999999999999
 40
0.624999999999999
 40
0.7499999999999989
 40
0.7499999999999989
 40
0.812499999999999
 40
0.812499999999999
 40
0.8749999999999992
 40
0.8749999999999992
 40
0.9374999999999993
 40
0.9374999999999993
 40
0.9687499999999997
 40
0.9687499999999997
 40
1.0
 40
1.0
 40
1.0
 40
1.0
 10
-1358.322374359084
 20
-2275.478421813884
 30
0.0
 10
-1358.589319074585
 20
-2275.192523642666
 30
0.0
 10
-1358.880401395495
 20
-2274.973883036013
 30
0.0
 10
-1359.486858605622
 20
-2274.604291179357
 30
0.0
 10
-1359.804047208648
 20
-2274.455303009353
 30
0.0
 10
-1360.756581954156
 20
-2274.085616529002
 30
0.0
 10
-1361.402184667921
 20
-2273.934032972475
 30
0.0
 10
-1362.702836908436
 20
-2273.715581924261
 30
0.0
 10
-1363.358744004529
 20
-2273.651134331064
 30
0.0
 10
-1364.673424767558
 20
-2273.571306225011
 30
0.0
 10
-1365.330715050734
 20
-2273.55625126346
 30
0.0
 10
-1366.645217287411
 20
-2273.565008988444
 30
0.0
 10
-1367.302429316816
 20
-2273.588784010971
 30
0.0
 10
-1368.616741112594
 20
-2273.692039635738
 30
0.0
 10
-1369.270806636266
 20
-2273.770875246319
 30
0.0
 10
-1370.242166592777
 20
-2273.966600555995
 30
0.0
 10
-1370.564332049097
 20
-2274.045000977589
 30
0.0
 10
-1371.20394023799
 20
-2274.240134436077
 30
0.0
 10
-1371.521422302105
 20
-2274.356548233287
 30
0.0
 10
-1372.149008026272
 20
-2274.649263625434
 30
0.0
 10
-1372.460166098857
 20
-2274.826176974685
 30
0.0
 10
-1372.897534200598
 20
-2275.157337474935
 30
0.0
 10
-1373.038991939428
 20
-2275.279051355087
 30
0.0
 10
-1373.309540569767
 20
-2275.55481795983
 30
0.0
 10
-1373.4379328904
 20
-2275.708266823489
 30
0.0
 10
-1373.552821737382
 20
-2275.880985302121
 30
0.0
  0
LINE
  5
351
330
278
100
AcDbEntity
  8
8738118992_00
  6
Continuous
 62
     7
100
AcDbLine
 10
-1373.552821737382
 20
-2273.642681214049
 30
0.0
 11
-1373.552821737376
 21
-2275.880985302121
 31
0.0
  0
LINE
  5
352
330
278
100
AcDbEntity
  8
8738118992_00
  6
Continuous
 62
     7
100
AcDbLine
 10
-1371.847533917498
 20
-2273.260970671579
 30
0.0
 11
-1323.0741148737
 21
-2273.260970671579
 31
0.0
  0
ARC
  5
353
330
278
100
AcDbEntity
  8
8738118992_00
  6
Continuous
 62
     7
100
AcDbCircle
 10
-1323.074114873699
 20
-2288.260970671579
 30
0.0
 40
4.000000000000004
100
AcDbArc
 50
270.0
 51
292.4066518819885
  0
ARC
  5
354
330
278
100
AcDbEntity
  8
8738118992_00
  6
Continuous
 62
     7
100
AcDbCircle
 10
-1371.847533917498
 20
-2288.260970671579
 30
0.0
 40
4.000000000000025
100
AcDbArc
 50
244.6115519198023
 51
270.0
  0
ARC
  5
355
330
278
100
AcDbEntity
  8
8738118992_00
  6
Continuous
 62
     7
100
AcDbCircle
 10
-1323.074114873699
 20
-2277.260970671579
 30
0.0
 40
3.999999999999985
100
AcDbArc
 50
67.511176471558
 51
90.0
  0
ARC
  5
356
330
278
100
AcDbEntity
  8
8738118992_00
  6
Continuous
 62
     7
100
AcDbCircle
 10
-1371.847533917498
 20
-2277.260970671579
 30
0.0
 40
4.000000000000004
100
AcDbArc
 50
90.0
 51
115.2509122217222
  0
LINE
  5
357
330
278
100
AcDbEntity
  8
8738125420_03
  6
Continuous
 62
     7
100
AcDbLine
 10
-805.0528217373816
 20
-1951.760970671579
 30
0.0
 11
-730.0528217373816
 21
-1951.760970671579
 31
0.0
  0
LINE
  5
358
330
278
100
AcDbEntity
  8
8738125420_03
  6
Continuous
 62
     7
100
AcDbLine
 10
-748.4941551587941
 20
-1941.760970671579
 30
0.0
 11
-730.0528217373816
 21
-1941.760970671579
 31
0.0
  0
LINE
  5
359
330
278
100
AcDbEntity
  8
8738125420_03
  6
Continuous
 62
     7
100
AcDbLine
 10
-730.0528217373816
 20
-1951.760970671579
 30
0.0
 11
-730.0528217373816
 21
-1941.760970671579
 31
0.0
  0
LINE
  5
35A
330
278
100
AcDbEntity
  8
8738125420_03
  6
Continuous
 62
     7
100
AcDbLine
 10
-805.0528217373816
 20
-1951.760970671579
 30
0.0
 11
-805.0528217373816
 21
-1941.760970671579
 31
0.0
  0
LINE
  5
35C
330
278
100
AcDbEntity
  8
8738125419_03
  6
Continuous
 62
     7
100
AcDbLine
 10
-805.0528217373817
 20
-1951.760970671579
 30
0.0
 11
-805.0528217373816
 21
-2076.760970671579
 31
0.0
  0
LINE
  5
35D
330
278
100
AcDbEntity
  8
8738125419_03
  6
Continuous
 62
     7
100
AcDbLine
 10
-730.0528217373816
 20
-2076.760970671579
 30
0.0
 11
-730.0528217373816
 21
-1951.760970671579
 31
0.0
  0
LINE
  5
35E
330
278
100
AcDbEntity
  8
8738125419_03
  6
Continuous
 62
     7
100
AcDbLine
 10
-785.0528217373816
 20
-2096.760970671579
 30
0.0
 11
-750.0528217373817
 21
-2096.760970671579
 31
0.0
  0
LINE
  5
35F
330
278
100
AcDbEntity
  8
8738125419_03
  6
Continuous
 62
     7
100
AcDbLine
 10
-750.0528217373817
 20
-2096.760970671579
 30
0.0
 11
-730.0528217373817
 21
-2076.760970671579
 31
0.0
  0
LINE
  5
360
330
278
100
AcDbEntity
  8
8738125419_03
  6
Continuous
 62
     7
100
AcDbLine
 10
-805.0528217373816
 20
-2076.760970671579
 30
0.0
 11
-785.0528217373816
 21
-2096.760970671579
 31
0.0
  0
LINE
  5
362
330
278
100
AcDbEntity
  8
8738102769_00_10
  6
Continuous
 62
     7
100
AcDbLine
 10
-805.0528217373817
 20
-1971.760970671579
 30
0.0
 11
-1346.497266181827
 21
-1971.760970671579
 31
0.0
  0
LINE
  5
363
330
278
100
AcDbEntity
  8
8738102769_00_10
  6
Continuous
 62
     7
100
AcDbLine
 10
-1348.608377292938
 20
-1971.760970671579
 30
0.0
 11
-1890.052819574336
 21
-1971.760970671579
 31
0.0
  0
LINE
  5
364
330
278
100
AcDbEntity
  8
8738102769_00_10
  6
Continuous
 62
     7
100
AcDbLine
 10
-1346.497266181827
 20
-1971.760970671579
 30
0.0
 11
-1346.552821737383
 21
-1971.760970671579
 31
0.0
  0
LINE
  5
365
330
278
100
AcDbEntity
  8
8738102769_00_10
  6
Continuous
 62
     7
100
AcDbLine
 10
-1348.608377292938
 20
-1971.760970671579
 30
0.0
 11
-1348.552821737382
 21
-1971.760970671579
 31
0.0
  0
CIRCLE
  5
366
330
278
100
AcDbEntity
  8
8738118943_00
  6
Continuous
 62
     7
100
AcDbCircle
 10
-1347.552821737382
 20
-226.7609706715792
 30
0.0
 40
38.00000000000001
  0
CIRCLE
  5
367
330
278
100
AcDbEntity
  8
8738118943_00
  6
Continuous
 62
     7
100
AcDbCircle
 10
-1347.552821737382
 20
-226.7609706715792
 30
0.0
 40
40.99999999999999
  0
CIRCLE
  5
368
330
278
100
AcDbEntity
  8
8738118943_00
  6
Continuous
 62
     7
100
AcDbCircle
 10
-1347.552821737382
 20
-226.7609706715792
 30
0.0
 40
44.99999999999999
  0
CIRCLE
  5
369
330
278
100
AcDbEntity
  8
8738118946_00
  6
Continuous
 62
     7
100
AcDbCircle
 10
-1347.552821737382
 20
-821.7609706715791
 30
0.0
 40
69.75
  0
CIRCLE
  5
36A
330
278
100
AcDbEntity
  8
8738118946_00
  6
Continuous
 62
     7
100
AcDbCircle
 10
-1347.552821737382
 20
-821.7609706715791
 30
0.0
 40
62.0
  0
CIRCLE
  5
36B
330
278
100
AcDbEntity
  8
8738118946_00
  6
Continuous
 62
     7
100
AcDbCircle
 10
-1347.552821737382
 20
-821.7609706715791
 30
0.0
 40
66.0
  0
LINE
  5
36C
330
278
100
AcDbEntity
  8
8738125420_03
  6
Continuous
 62
     7
100
AcDbLine
 10
-1965.052819574336
 20
-1941.760970671579
 30
0.0
 11
-1946.61148831597
 21
-1941.760970671579
 31
0.0
  0
LINE
  5
36D
330
278
100
AcDbEntity
  8
8738125420_03
  6
Continuous
 62
     7
100
AcDbLine
 10
-1890.052819574336
 20
-1951.760970671579
 30
0.0
 11
-1890.052819574336
 21
-1941.760970671579
 31
0.0
  0
LINE
  5
36E
330
278
100
AcDbEntity
  8
8738125420_03
  6
Continuous
 62
     7
100
AcDbLine
 10
-1965.052819574336
 20
-1951.760970671579
 30
0.0
 11
-1965.052819574336
 21
-1941.760970671579
 31
0.0
  0
LINE
  5
36F
330
278
100
AcDbEntity
  8
8738125419_03
  6
Continuous
 62
     7
100
AcDbLine
 10
-1965.052819574336
 20
-1951.760970671579
 30
0.0
 11
-1965.052819574336
 21
-2076.760970671579
 31
0.0
  0
LINE
  5
370
330
278
100
AcDbEntity
  8
8738125419_03
  6
Continuous
 62
     7
100
AcDbLine
 10
-1890.052819574336
 20
-2076.760970671579
 30
0.0
 11
-1890.052819574336
 21
-1951.760970671579
 31
0.0
  0
LINE
  5
371
330
278
100
AcDbEntity
  8
8738125419_03
  6
Continuous
 62
     7
100
AcDbLine
 10
-1945.052819574336
 20
-2096.760970671579
 30
0.0
 11
-1910.052819574336
 21
-2096.760970671579
 31
0.0
  0
LINE
  5
372
330
278
100
AcDbEntity
  8
8738125419_03
  6
Continuous
 62
     7
100
AcDbLine
 10
-1910.052819574336
 20
-2096.760970671579
 30
0.0
 11
-1890.052819574336
 21
-2076.760970671579
 31
0.0
  0
LINE
  5
373
330
278
100
AcDbEntity
  8
8738125419_03
  6
Continuous
 62
     7
100
AcDbLine
 10
-1965.052819574336
 20
-2076.760970671579
 30
0.0
 11
-1945.052819574336
 21
-2096.760970671579
 31
0.0
  0
CIRCLE
  5
374
330
278
100
AcDbEntity
  8
8738126854_00
  6
Continuous
 62
     7
100
AcDbCircle
 10
-1347.552821737382
 20
-1441.760970671579
 30
0.0
 40
64.75
  0
CIRCLE
  5
375
330
278
100
AcDbEntity
  8
8738126854_00
  6
Continuous
 62
     7
100
AcDbCircle
 10
-1347.552821737382
 20
-1441.760970671579
 30
0.0
 40
62.5
  0
CIRCLE
  5
376
330
278
100
AcDbEntity
  8
8738126854_00
  6
Continuous
 62
     7
100
AcDbCircle
 10
-1347.552821737382
 20
-1441.760970671579
 30
0.0
 40
71.5
  0
LINE
  5
378
330
278
100
AcDbEntity
  8
8718220556_00
  6
Continuous
 62
     7
100
AcDbLine
 10
-728.0698435659428
 20
-1947.760970671579
 30
0.0
 11
-728.0698435659428
 21
-1941.760970671579
 31
0.0
  0
SPLINE
  5
379
330
278
100
AcDbEntity
  8
8718220556_00
  6
Continuous
 62
     7
100
AcDbSpline
210
0.0
220
0.0
230
1.0
 70
     8
 71
     3
 72
    12
 73
     8
 74
     0
 42
0.0000000008562476
 43
0.0000000001
 40
0.0
 40
0.0
 40
0.0
 40
0.0
 40
0.0625
 40
0.0625
 40
0.1249999999999999
 40
0.1249999999999999
 40
0.2420281886982749
 40
0.2420281886982749
 40
0.2420281886982749
 40
0.2420281886982749
 10
-728.0698435659428
 20
-1947.760970671579
 30
0.0
 10
-728.0698435659428
 20
-1948.027991104072
 30
0.0
 10
-728.1670345162115
 20
-1948.282393807927
 30
0.0
 10
-728.4552724127639
 20
-1948.692603413149
 30
0.0
 10
-728.641654759918
 20
-1948.853243961277
 30
0.0
 10
-729.2089014298533
 20
-1949.223206688415
 30
0.0
 10
-729.6238598550108
 20
-1949.362668301422
 30
0.0
 10
-730.0379739371955
 20
-1949.457587051373
 30
0.0
  0
LINE
  5
37A
330
278
100
AcDbEntity
  8
8718220556_00
  6
Continuous
 62
     7
100
AcDbLine
 10
-730.0528217373816
 20
-1949.760970671579
 30
0.0
 11
-728.6028217373824
 21
-1949.760970671579
 31
0.0
  0
CIRCLE
  5
37C
330
278
100
AcDbEntity
  8
8738118694_00
  6
Continuous
 62
     7
100
AcDbCircle
 10
-1347.552821737382
 20
-681.7609706715795
 30
0.0
 40
9.75
  0
LINE
  5
37D
330
278
100
AcDbEntity
  8
8738118694_00
  6
Continuous
 62
     7
100
AcDbLine
 10
-1356.691265942106
 20
-691.714409558892
 30
0.0
 11
-1357.506260624695
 21
-690.8994148763041
 31
0.0
  0
LINE
  5
37E
330
278
100
AcDbEntity
  8
8738118694_00
  6
Continuous
 62
     7
100
AcDbLine
 10
-1357.506260624694
 20
-690.8994148763041
 30
0.0
 11
-1361.052821737382
 21
-687.3528537636163
 31
0.0
  0
LINE
  5
37F
330
278
100
AcDbEntity
  8
8738118694_00
  6
Continuous
 62
     7
100
AcDbLine
 10
-1353.144704829419
 20
-695.2609706715796
 30
0.0
 11
-1356.691265942106
 21
-691.714409558892
 31
0.0
  0
LINE
  5
380
330
278
100
AcDbEntity
  8
8738118694_00
  6
Continuous
 62
     7
100
AcDbLine
 10
-1361.052821737382
 20
-682.337258938268
 30
0.0
 11
-1361.052821737382
 21
-681.1846824048911
 31
0.0
  0
LINE
  5
381
330
278
100
AcDbEntity
  8
8738118694_00
  6
Continuous
 62
     7
100
AcDbLine
 10
-1357.506260624694
 20
-672.6225264668549
 30
0.0
 11
-1356.691265942107
 21
-671.807531784268
 31
0.0
  0
LINE
  5
382
330
278
100
AcDbEntity
  8
8738118694_00
  6
Continuous
 62
     7
100
AcDbLine
 10
-1348.129110004071
 20
-668.2609706715795
 30
0.0
 11
-1346.976533470694
 21
-668.2609706715795
 31
0.0
  0
LINE
  5
383
330
278
100
AcDbEntity
  8
8738118694_00
  6
Continuous
 62
     7
100
AcDbLine
 10
-1338.414377532679
 20
-671.8075317842473
 30
0.0
 11
-1337.59938285007
 21
-672.6225264668548
 31
0.0
  0
LINE
  5
384
330
278
100
AcDbEntity
  8
8738118694_00
  6
Continuous
 62
     7
100
AcDbLine
 10
-1334.052821737382
 20
-681.1846824048909
 30
0.0
 11
-1334.052821737382
 21
-682.3372589382677
 31
0.0
  0
LINE
  5
385
330
278
100
AcDbEntity
  8
8738118694_00
  6
Continuous
 62
     7
100
AcDbLine
 10
-1337.599382850056
 20
-690.8994148762883
 30
0.0
 11
-1338.414377532657
 21
-691.7144095588914
 31
0.0
  0
LINE
  5
386
330
278
100
AcDbEntity
  8
8738118694_00
  6
Continuous
 62
     7
100
AcDbLine
 10
-1346.976533470694
 20
-695.2609706715796
 30
0.0
 11
-1348.12911000407
 21
-695.2609706715796
 31
0.0
  0
LINE
  5
387
330
278
100
AcDbEntity
  8
8738118694_00
  6
Continuous
 62
     7
100
AcDbLine
 10
-1338.414377532657
 20
-691.7144095588914
 30
0.0
 11
-1341.960938645346
 21
-695.2609706715795
 31
0.0
  0
LINE
  5
388
330
278
100
AcDbEntity
  8
8738118694_00
  6
Continuous
 62
     7
100
AcDbLine
 10
-1341.960938645346
 20
-695.2609706715796
 30
0.0
 11
-1346.976533470694
 21
-695.2609706715796
 31
0.0
  0
LINE
  5
389
330
278
100
AcDbEntity
  8
8738118694_00
  6
Continuous
 62
     7
100
AcDbLine
 10
-1334.052821737382
 20
-682.3372589382677
 30
0.0
 11
-1334.052821737382
 21
-687.3528537636163
 31
0.0
  0
LINE
  5
38A
330
278
100
AcDbEntity
  8
8738118694_00
  6
Continuous
 62
     7
100
AcDbLine
 10
-1334.052821737382
 20
-687.3528537636162
 30
0.0
 11
-1337.599382850055
 21
-690.8994148762883
 31
0.0
  0
LINE
  5
38B
330
278
100
AcDbEntity
  8
8738118694_00
  6
Continuous
 62
     7
100
AcDbLine
 10
-1337.59938285007
 20
-672.6225264668549
 30
0.0
 11
-1334.052821737382
 21
-676.1690875795427
 31
0.0
  0
LINE
  5
38C
330
278
100
AcDbEntity
  8
8738118694_00
  6
Continuous
 62
     7
100
AcDbLine
 10
-1334.052821737382
 20
-676.1690875795427
 30
0.0
 11
-1334.052821737382
 21
-681.1846824048909
 31
0.0
  0
LINE
  5
38D
330
278
100
AcDbEntity
  8
8738118694_00
  6
Continuous
 62
     7
100
AcDbLine
 10
-1346.976533470694
 20
-668.2609706715795
 30
0.0
 11
-1341.960938645345
 21
-668.2609706715795
 31
0.0
  0
LINE
  5
38E
330
278
100
AcDbEntity
  8
8738118694_00
  6
Continuous
 62
     7
100
AcDbLine
 10
-1341.960938645345
 20
-668.2609706715795
 30
0.0
 11
-1338.414377532679
 21
-671.8075317842474
 31
0.0
  0
LINE
  5
38F
330
278
100
AcDbEntity
  8
8738118694_00
  6
Continuous
 62
     7
100
AcDbLine
 10
-1356.691265942108
 20
-671.807531784268
 30
0.0
 11
-1353.144704829419
 21
-668.2609706715795
 31
0.0
  0
LINE
  5
390
330
278
100
AcDbEntity
  8
8738118694_00
  6
Continuous
 62
     7
100
AcDbLine
 10
-1353.144704829419
 20
-668.2609706715795
 30
0.0
 11
-1348.129110004071
 21
-668.2609706715795
 31
0.0
  0
LINE
  5
391
330
278
100
AcDbEntity
  8
8738118694_00
  6
Continuous
 62
     7
100
AcDbLine
 10
-1361.052821737382
 20
-676.1690875795427
 30
0.0
 11
-1357.506260624695
 21
-672.6225264668549
 31
0.0
  0
LINE
  5
392
330
278
100
AcDbEntity
  8
8738118694_00
  6
Continuous
 62
     7
100
AcDbLine
 10
-1361.052821737382
 20
-681.1846824048911
 30
0.0
 11
-1361.052821737382
 21
-676.1690875795427
 31
0.0
  0
LINE
  5
393
330
278
100
AcDbEntity
  8
8738118694_00
  6
Continuous
 62
     7
100
AcDbLine
 10
-1348.12911000407
 20
-695.2609706715796
 30
0.0
 11
-1353.144704829419
 21
-695.2609706715796
 31
0.0
  0
LINE
  5
394
330
278
100
AcDbEntity
  8
8738118694_00
  6
Continuous
 62
     7
100
AcDbLine
 10
-1361.052821737382
 20
-687.3528537636162
 30
0.0
 11
-1361.052821737382
 21
-682.3372589382678
 31
0.0
  0
LINE
  5
396
330
278
100
AcDbEntity
  8
8738118665_00
  6
Continuous
 62
     7
100
AcDbLine
 10
-968.2325296755263
 20
-1993.760970671579
 30
0.0
 11
-969.4940291446276
 21
-1993.760970671579
 31
0.0
  0
LINE
  5
397
330
278
100
AcDbEntity
  8
8738118665_00
  6
Continuous
 62
     7
100
AcDbLine
 10
-1144.399305823886
 20
-1993.760970671579
 30
0.0
 11
-1145.074930244288
 21
-1993.760970671579
 31
0.0
  0
ENDBLK
  5
399
330
278
100
AcDbEntity
  8
0
100
AcDbBlockEnd
  0
ENDSEC
  0
SECTION
  2
ENTITIES
  0
LINE
  5
40
330
1F
100
AcDbEntity
  8
Default
  6
Continuous
 62
     7
100
AcDbLine
 10
-5040.913221186905
 20
1957.492679007811
 30
0.0
 11
-4755.913221186906
 21
1957.492679007811
 31
0.0
  0
LINE
  5
41
330
1F
100
AcDbEntity
  8
Default
  6
Continuous
 62
     7
100
AcDbLine
 10
-5046.913221186906
 20
1754.080133613861
 30
0.0
 11
-5046.913221186906
 21
1050.905224401761
 31
0.0
  0
INSERT
  5
43
330
1F
100
AcDbEntity
  8
Default
100
AcDbBlockReference
  2
SE
 10
0.0
 20
0.0
 30
0.0
  0
INSERT
  5
A3
330
1F
100
AcDbEntity
  8
Default
100
AcDbBlockReference
  2
SE1
 10
0.0
 20
0.0
 30
0.0
  0
INSERT
  5
279
330
1F
100
AcDbEntity
  8
Default
100
AcDbBlockReference
  2
SE2
 10
0.0
 20
0.0
 30
0.0
  0
ENDSEC
  0
SECTION
  2
OBJECTS
  0
DICTIONARY
  5
C
330
0
100
AcDbDictionary
281
     1
  3
ACAD_GROUP
350
D
  3
ACAD_LAYOUT
350
1A
  3
ACAD_MATERIAL
350
3B
  3
ACAD_MLEADERSTYLE
350
39C
  3
ACAD_MLINESTYLE
350
17
  3
ACAD_PLOTSETTINGS
350
19
  3
ACAD_PLOTSTYLENAME
350
E
  3
ACAD_SCALELIST
350
433
  3
ACAD_TABLESTYLE
350
450
  3
ACAD_VISUALSTYLE
350
2A
  3
AcDbVariableDictionary
350
39A
  3
DWGPROPS
350
458
  0
DICTIONARY
  5
459
330
8
100
AcDbDictionary
280
     1
281
     1
  3
ACAD_XREC_ROUNDTRIP
360
45A
  0
DICTIONARY
  5
D
102
{ACAD_REACTORS
330
C
102
}
330
C
100
AcDbDictionary
281
     1
  0
DICTIONARY
  5
1A
102
{ACAD_REACTORS
330
C
102
}
330
C
100
AcDbDictionary
281
     1
  3
Layout1
350
1E
  3
Model
350
22
  0
DICTIONARY
  5
3B
102
{ACAD_REACTORS
330
C
102
}
330
C
100
AcDbDictionary
281
     1
  3
ByBlock
350
3D
  3
ByLayer
350
3C
  3
Global
350
3E
  0
DICTIONARY
  5
39C
102
{ACAD_REACTORS
330
C
102
}
330
C
100
AcDbDictionary
281
     1
  3
Standard
350
445
  0
DICTIONARY
  5
17
102
{ACAD_REACTORS
330
C
102
}
330
C
100
AcDbDictionary
281
     1
  3
Standard
350
18
  0
DICTIONARY
  5
19
102
{ACAD_REACTORS
330
C
102
}
330
C
100
AcDbDictionary
281
     1
  0
ACDBDICTIONARYWDFLT
  5
E
102
{ACAD_REACTORS
330
C
102
}
330
C
100
AcDbDictionary
281
     1
  3
Normal
350
F
100
AcDbDictionaryWithDefault
340
F
  0
DICTIONARY
  5
433
102
{ACAD_REACTORS
330
C
102
}
330
C
100
AcDbDictionary
281
     1
  3
A0
350
434
  3
A1
350
435
  3
A2
350
436
  3
A3
350
437
  3
A4
350
438
  3
A5
350
439
  3
A6
350
43A
  3
A7
350
43B
  3
A8
350
43C
  3
A9
350
43D
  3
B0
350
43E
  3
B1
350
43F
  3
B2
350
440
  3
B3
350
441
  3
B4
350
442
  3
B5
350
443
  3
B6
350
444
  0
DICTIONARY
  5
450
102
{ACAD_REACTORS
330
C
102
}
330
C
100
AcDbDictionary
281
     1
  3
Standard
350
451
  0
DICTIONARY
  5
2A
102
{ACAD_REACTORS
330
C
102
}
330
C
100
AcDbDictionary
281
     1
  3
2dWireframe
350
2F
  3
3D Hidden
350
31
  3
3dWireframe
350
30
  3
Basic
350
32
  3
Brighten
350
36
  3
ColorChange
350
3A
  3
Conceptual
350
34
  3
Dim
350
35
  3
EdgeColorOff
350
44A
  3
Facepattern
350
39
  3
Flat
350
2B
  3
FlatWithEdges
350
2C
  3
Gouraud
350
2D
  3
GouraudWithEdges
350
2E
  3
Hidden
350
447
  3
JitterOff
350
448
  3
Linepattern
350
38
  3
OverhangOff
350
449
  3
Realistic
350
33
  3
Shaded
350
44F
  3
Shaded with edges
350
44E
  3
Shades of Gray
350
44B
  3
Sketchy
350
44C
  3
Thicken
350
37
  3
Wireframe
350
446
  3
X-Ray
350
44D
  0
DICTIONARY
  5
39A
102
{ACAD_REACTORS
330
C
102
}
330
C
100
AcDbDictionary
281
     1
  3
CANNOSCALE
350
45B
  3
CMLEADERSTYLE
350
453
  3
CTABLESTYLE
350
452
  3
DIMASSOC
350
39F
  3
HIDETEXT
350
3A0
  3
MSLTSCALE
350
45C
  3
PSOLHEIGHT
350
455
  3
PSOLWIDTH
350
454
  0
XRECORD
  5
458
102
{ACAD_REACTORS
330
C
102
}
330
C
100
AcDbXrecord
280
     1
  1
DWGPROPS COOKIE
  2

  3

  4

  6

  7

  8
acae2
  9

300
=
301
=
302
=
303
=
304
=
305
=
306
=
307
=
308
=
309
=
 40
0.0
 41
2456541.242597234
 42
2460390.427074676
  1

 90
        0
  0
XRECORD
  5
45A
102
{ACAD_REACTORS
330
459
102
}
330
459
100
AcDbXrecord
280
     1
102
VTR_0.000_0.000_1.000_1.000_VISUALSTYLE
340
2F
102
VTR_0.000_0.000_1.000_1.000_GRIDDISPLAY
 70
     3
102
VTR_0.000_0.000_1.000_1.000_GRIDMAJOR
 70
     5
102
VTR_0.000_0.000_1.000_1.000_DEFAULTLIGHTING
280
     1
102
VTR_0.000_0.000_1.000_1.000_DEFAULTLIGHTINGTYPE
 70
     1
102
VTR_0.000_0.000_1.000_1.000_BRIGHTNESS
141
0.0
102
VTR_0.000_0.000_1.000_1.000_CONTRAST
142
0.0
  0
LAYOUT
  5
1E
102
{ACAD_REACTORS
330
1A
102
}
330
1A
100
AcDbPlotSettings
  1

  2
none_device
  4

  6

 40
0.0
 41
0.0
 42
0.0
 43
0.0
 44
0.0
 45
0.0
 46
0.0
 47
0.0
 48
0.0
 49
0.0
140
0.0
141
0.0
142
1.0
143
1.0
 70
   688
 72
     0
 73
     0
 74
     5
  7

 75
    16
147
1.0
148
0.0
149
0.0
100
AcDbLayout
  1
Layout1
 70
     1
 71
     1
 10
0.0
 20
0.0
 11
594.0
 21
420.0
 12
0.0
 22
0.0
 32
0.0
 14
0.0
 24
0.0
 34
0.0
 15
594.0
 25
420.0
 35
0.0
146
0.0
 13
0.0
 23
0.0
 33
0.0
 16
1.0
 26
0.0
 36
0.0
 17
0.0
 27
1.0
 37
0.0
 76
     0
330
1B
  0
LAYOUT
  5
22
102
{ACAD_REACTORS
330
1A
102
}
330
1A
100
AcDbPlotSettings
  1

  2
none_device
  4

  6

 40
0.0
 41
0.0
 42
0.0
 43
0.0
 44
0.0
 45
0.0
 46
0.0
 47
0.0
 48
0.0
 49
0.0
140
0.0
141
0.0
142
1.0
143
1.0
 70
  1712
 72
     0
 73
     0
 74
     0
  7

 75
     0
147
1.0
148
0.0
149
0.0
100
AcDbLayout
  1
Model
 70
     1
 71
     0
 10
0.0
 20
0.0
 11
594.0
 21
420.0
 12
0.0
 22
0.0
 32
0.0
 14
0.0
 24
0.0
 34
0.0
 15
594.0
 25
420.0
 35
0.0
146
0.0
 13
0.0
 23
0.0
 33
0.0
 16
1.0
 26
0.0
 36
0.0
 17
0.0
 27
1.0
 37
0.0
 76
     0
330
1F
331
29
  0
MATERIAL
  5
3D
102
{ACAD_REACTORS
330
3B
102
}
102
{ACAD_XDICTIONARY
360
493
102
}
330
3B
100
AcDbMaterial
  1
ByBlock
  0
MATERIAL
  5
3C
102
{ACAD_REACTORS
330
3B
102
}
102
{ACAD_XDICTIONARY
360
491
102
}
330
3B
100
AcDbMaterial
  1
ByLayer
  0
MATERIAL
  5
3E
102
{ACAD_REACTORS
330
3B
102
}
102
{ACAD_XDICTIONARY
360
495
102
}
330
3B
100
AcDbMaterial
  1
Global
  0
MLEADERSTYLE
  5
445
102
{ACAD_REACTORS
330
39C
102
}
102
{ACAD_XDICTIONARY
360
498
102
}
330
39C
100
AcDbMLeaderStyle
170
     2
171
     1
172
     0
 90
        2
 40
0.0
 41
0.0
173
     1
 91
-1056964608
340
14
 92
       -2
290
     1
 42
2.0
291
     1
 43
8.0
  3
Standard
341
0
 44
4.0
300

342
11
174
     1
178
     6
175
     1
176
     0
 93
-1056964608
 45
4.0
292
     0
297
     0
 46
4.0
343
0
 94
-1056964608
 47
1.0
 49
1.0
140
1.0
293
     1
141
0.0
294
     1
177
     0
142
1.0
295
     0
296
     0
143
3.75
1001
ACAD_MLEADERVER
1070
     2
  0
MLINESTYLE
  5
18
102
{ACAD_REACTORS
330
17
102
}
330
17
100
AcDbMlineStyle
  2
Standard
 70
     0
  3

 62
   256
 51
90.0
 52
90.0
 71
     2
 49
0.5
 62
   256
  6
BYLAYER
 49
-0.5
 62
   256
  6
BYLAYER
  0
ACDBPLACEHOLDER
  5
F
102
{ACAD_REACTORS
330
E
102
}
330
E
  0
SCALE
  5
434
102
{ACAD_REACTORS
330
433
102
}
330
433
100
AcDbScale
 70
     0
300
1:1
140
1.0
141
1.0
290
     1
  0
SCALE
  5
435
102
{ACAD_REACTORS
330
433
102
}
330
433
100
AcDbScale
 70
     0
300
1:2
140
1.0
141
2.0
290
     0
  0
SCALE
  5
436
102
{ACAD_REACTORS
330
433
102
}
330
433
100
AcDbScale
 70
     0
300
1:4
140
1.0
141
4.0
290
     0
  0
SCALE
  5
437
102
{ACAD_REACTORS
330
433
102
}
330
433
100
AcDbScale
 70
     0
300
1:5
140
1.0
141
5.0
290
     0
  0
SCALE
  5
438
102
{ACAD_REACTORS
330
433
102
}
330
433
100
AcDbScale
 70
     0
300
1:8
140
1.0
141
8.0
290
     0
  0
SCALE
  5
439
102
{ACAD_REACTORS
330
433
102
}
330
433
100
AcDbScale
 70
     0
300
1:10
140
1.0
141
10.0
290
     0
  0
SCALE
  5
43A
102
{ACAD_REACTORS
330
433
102
}
330
433
100
AcDbScale
 70
     0
300
1:16
140
1.0
141
16.0
290
     0
  0
SCALE
  5
43B
102
{ACAD_REACTORS
330
433
102
}
330
433
100
AcDbScale
 70
     0
300
1:20
140
1.0
141
20.0
290
     0
  0
SCALE
  5
43C
102
{ACAD_REACTORS
330
433
102
}
330
433
100
AcDbScale
 70
     0
300
1:30
140
1.0
141
30.0
290
     0
  0
SCALE
  5
43D
102
{ACAD_REACTORS
330
433
102
}
330
433
100
AcDbScale
 70
     0
300
1:40
140
1.0
141
40.0
290
     0
  0
SCALE
  5
43E
102
{ACAD_REACTORS
330
433
102
}
330
433
100
AcDbScale
 70
     0
300
1:50
140
1.0
141
50.0
290
     0
  0
SCALE
  5
43F
102
{ACAD_REACTORS
330
433
102
}
330
433
100
AcDbScale
 70
     0
300
1:100
140
1.0
141
100.0
290
     0
  0
SCALE
  5
440
102
{ACAD_REACTORS
330
433
102
}
330
433
100
AcDbScale
 70
     0
300
2:1
140
2.0
141
1.0
290
     0
  0
SCALE
  5
441
102
{ACAD_REACTORS
330
433
102
}
330
433
100
AcDbScale
 70
     0
300
4:1
140
4.0
141
1.0
290
     0
  0
SCALE
  5
442
102
{ACAD_REACTORS
330
433
102
}
330
433
100
AcDbScale
 70
     0
300
8:1
140
8.0
141
1.0
290
     0
  0
SCALE
  5
443
102
{ACAD_REACTORS
330
433
102
}
330
433
100
AcDbScale
 70
     0
300
10:1
140
10.0
141
1.0
290
     0
  0
SCALE
  5
444
102
{ACAD_REACTORS
330
433
102
}
330
433
100
AcDbScale
 70
     0
300
100:1
140
100.0
141
1.0
290
     0
  0
TABLESTYLE
  5
451
102
{ACAD_REACTORS
330
450
102
}
330
450
100
AcDbTableStyle
  3
Standard
 70
     0
 71
     0
 40
1.5
 41
1.5
280
     0
281
     0
  7
Standard
140
4.5
170
     2
 62
     0
 63
   257
283
     0
274
    -2
284
     1
 64
     0
275
    -2
285
     1
 65
     0
276
    -2
286
     1
 66
     0
277
    -2
287
     1
 67
     0
278
    -2
288
     1
 68
     0
279
    -2
289
     1
 69
     0
  7
Standard
140
6.0
170
     5
 62
     0
 63
   257
283
     0
274
    -2
284
     1
 64
     0
275
    -2
285
     1
 65
     0
276
    -2
286
     1
 66
     0
277
    -2
287
     1
 67
     0
278
    -2
288
     1
 68
     0
279
    -2
289
     1
 69
     0
  7
Standard
140
4.5
170
     5
 62
     0
 63
   257
283
     0
274
    -2
284
     1
 64
     0
275
    -2
285
     1
 65
     0
276
    -2
286
     1
 66
     0
277
    -2
287
     1
 67
     0
278
    -2
288
     1
 68
     0
279
    -2
289
     1
 69
     0
  0
VISUALSTYLE
  5
2F
102
{ACAD_REACTORS
330
2A
102
}
102
{ACAD_XDICTIONARY
360
465
102
}
330
2A
100
AcDbVisualStyle
  2
2dWireframe
 70
     4
 71
     0
 72
     2
 73
     0
 90
        0
 40
-0.6
 41
-30.0
 62
     5
 63
     7
 74
     1
 91
        4
 64
     7
 65
   257
 75
     1
175
     1
 42
1.0
 92
        0
 66
   257
 43
1.0
 76
     1
 77
     6
 78
     2
 67
     7
 79
     5
170
     0
171
     0
290
     0
174
     0
 93
        1
 44
0.0
173
     0
291
     0
 45
0.0
1001
ACAD
1000
AcDbSavedByObjectVersion
1070
     0
  0
VISUALSTYLE
  5
31
102
{ACAD_REACTORS
330
2A
102
}
102
{ACAD_XDICTIONARY
360
469
102
}
330
2A
100
AcDbVisualStyle
  2
3D Hidden
 70
     6
 71
     1
 72
     2
 73
     2
 90
        0
 40
-0.6
 41
-30.0
 62
     5
 63
     7
 74
     2
 91
        2
 64
     7
 65
   257
 75
     2
175
     1
 42
40.0
 92
        0
 66
   257
 43
1.0
 76
     1
 77
     6
 78
     2
 67
     7
 79
     3
170
     0
171
     0
290
     0
174
     0
 93
        1
 44
0.0
173
     0
291
     0
 45
0.0
1001
ACAD
1000
AcDbSavedByObjectVersion
1070
     0
  0
VISUALSTYLE
  5
30
102
{ACAD_REACTORS
330
2A
102
}
102
{ACAD_XDICTIONARY
360
467
102
}
330
2A
100
AcDbVisualStyle
  2
3dWireframe
 70
     5
 71
     0
 72
     2
 73
     0
 90
        0
 40
-0.6
 41
-30.0
 62
     5
 63
     7
 74
     1
 91
        4
 64
     7
 65
   257
 75
     1
175
     1
 42
1.0
 92
        0
 66
   257
 43
1.0
 76
     1
 77
     6
 78
     2
 67
     7
 79
     5
170
     0
171
     0
290
     0
174
     0
 93
        1
 44
0.0
173
     0
291
     0
 45
0.0
1001
ACAD
1000
AcDbSavedByObjectVersion
1070
     0
  0
VISUALSTYLE
  5
32
102
{ACAD_REACTORS
330
2A
102
}
102
{ACAD_XDICTIONARY
360
46B
102
}
330
2A
100
AcDbVisualStyle
  2
Basic
 70
     7
 71
     1
 72
     0
 73
     1
 90
        0
 40
-0.6
 41
-30.0
 62
     5
 63
     7
 74
     0
 91
        4
 64
     7
 65
   257
 75
     1
175
     1
 42
1.0
 92
        8
 66
     7
 43
1.0
 76
     1
 77
     6
 78
     2
 67
     7
 79
     5
170
     0
171
     0
290
     0
174
     0
 93
        1
 44
0.0
173
     0
291
     1
 45
0.0
1001
ACAD
1000
AcDbSavedByObjectVersion
1070
     0
  0
VISUALSTYLE
  5
36
102
{ACAD_REACTORS
330
2A
102
}
102
{ACAD_XDICTIONARY
360
473
102
}
330
2A
100
AcDbVisualStyle
  2
Brighten
 70
    12
 71
     2
 72
     2
 73
     0
 90
        0
 40
-0.6
 41
-30.0
 62
     5
 63
     7
 74
     1
 91
        4
 64
     7
 65
   257
 75
     1
175
     1
 42
1.0
 92
        8
 66
     7
 43
1.0
 76
     1
 77
     6
 78
     2
 67
     7
 79
     5
170
     0
171
     0
290
     0
174
     0
 93
        1
 44
50.0
173
     0
291
     1
 45
0.0
1001
ACAD
1000
AcDbSavedByObjectVersion
1070
     0
  0
VISUALSTYLE
  5
3A
102
{ACAD_REACTORS
330
2A
102
}
102
{ACAD_XDICTIONARY
360
47B
102
}
330
2A
100
AcDbVisualStyle
  2
ColorChange
 70
    16
 71
     2
 72
     2
 73
     3
 90
        0
 40
-0.6
 41
-30.0
 62
     5
 63
     8
 74
     1
 91
        4
 64
     7
 65
   257
 75
     1
175
     1
 42
1.0
 92
        8
 66
     8
 43
1.0
 76
     1
 77
     6
 78
     2
 67
     7
 79
     5
170
     0
171
     0
290
     0
174
     0
 93
        1
 44
0.0
173
     0
291
     1
 45
0.0
1001
ACAD
1000
AcDbSavedByObjectVersion
1070
     0
  0
VISUALSTYLE
  5
34
102
{ACAD_REACTORS
330
2A
102
}
102
{ACAD_XDICTIONARY
360
46F
102
}
330
2A
100
AcDbVisualStyle
  2
Conceptual
 70
     9
 71
     3
 72
     2
 73
     0
 90
        0
 40
-0.6
 41
-30.0
 62
     5
 63
     7
 74
     2
 91
        2
 64
     7
 65
   257
 75
     1
175
     1
 42
40.0
 92
        8
 66
     7
 43
1.0
 76
     1
 77
     6
 78
     2
 67
     7
 79
     3
170
     0
171
     0
290
     0
174
     0
 93
        1
 44
0.0
173
     0
291
     0
 45
0.0
1001
ACAD
1000
AcDbSavedByObjectVersion
1070
     0
  0
VISUALSTYLE
  5
35
102
{ACAD_REACTORS
330
2A
102
}
102
{ACAD_XDICTIONARY
360
471
102
}
330
2A
100
AcDbVisualStyle
  2
Dim
 70
    11
 71
     2
 72
     2
 73
     0
 90
        0
 40
-0.6
 41
-30.0
 62
     5
 63
     7
 74
     1
 91
        4
 64
     7
 65
   257
 75
     1
175
     1
 42
1.0
 92
        8
 66
     7
 43
1.0
 76
     1
 77
     6
 78
     2
 67
     7
 79
     5
170
     0
171
     0
290
     0
174
     0
 93
        1
 44
-50.0
173
     0
291
     1
 45
0.0
1001
ACAD
1000
AcDbSavedByObjectVersion
1070
     0
  0
VISUALSTYLE
  5
44A
102
{ACAD_REACTORS
330
2A
102
}
102
{ACAD_XDICTIONARY
360
485
102
}
330
2A
100
AcDbVisualStyle
  2
EdgeColorOff
 70
    22
 71
     2
 72
     2
 73
     0
 90
        0
 40
0.6
 41
30.0
 62
     5
 63
     7
 74
     1
 91
        4
 64
     7
 65
   257
 75
     1
175
     1
 42
1.0
 92
        8
 66
     7
 43
1.0
 76
     1
 77
     6
 78
     2
 67
     7
 79
     5
170
     0
171
     0
290
     0
174
     0
 93
        1
 44
0.0
173
     0
291
     1
 45
0.0
1001
ACAD
1000
AcDbSavedByObjectVersion
1070
     0
  0
VISUALSTYLE
  5
39
102
{ACAD_REACTORS
330
2A
102
}
102
{ACAD_XDICTIONARY
360
479
102
}
330
2A
100
AcDbVisualStyle
  2
Facepattern
 70
    15
 71
     2
 72
     2
 73
     0
 90
        0
 40
-0.6
 41
-30.0
 62
     5
 63
     7
 74
     1
 91
        4
 64
     7
 65
   257
 75
     1
175
     1
 42
1.0
 92
        8
 66
     7
 43
1.0
 76
     1
 77
     6
 78
     2
 67
     7
 79
     5
170
     0
171
     0
290
     0
174
     0
 93
        1
 44
0.0
173
     0
291
     1
 45
0.0
1001
ACAD
1000
AcDbSavedByObjectVersion
1070
     0
  0
VISUALSTYLE
  5
2B
102
{ACAD_REACTORS
330
2A
102
}
102
{ACAD_XDICTIONARY
360
45D
102
}
330
2A
100
AcDbVisualStyle
  2
Flat
 70
     0
 71
     2
 72
     1
 73
     1
 90
        2
 40
-0.6
 41
30.0
 62
     5
 63
     7
 74
     0
 91
        4
 64
     7
 65
   257
 75
     1
175
     1
 42
1.0
 92
        8
 66
     7
 43
1.0
 76
     1
 77
     6
 78
     2
 67
     7
 79
     5
170
     0
171
     0
290
     0
174
     0
 93
       13
 44
0.0
173
     0
291
     1
 45
0.0
1001
ACAD
1000
AcDbSavedByObjectVersion
1070
     0
  0
VISUALSTYLE
  5
2C
102
{ACAD_REACTORS
330
2A
102
}
102
{ACAD_XDICTIONARY
360
45F
102
}
330
2A
100
AcDbVisualStyle
  2
FlatWithEdges
 70
     1
 71
     2
 72
     1
 73
     1
 90
        2
 40
-0.6
 41
30.0
 62
     5
 63
     7
 74
     1
 91
        4
 64
     7
 65
   257
 75
     1
175
     1
 42
1.0
 92
        0
 66
   257
 43
1.0
 76
     1
 77
     6
 78
     2
 67
     7
 79
     5
170
     0
171
     0
290
     0
174
     0
 93
       13
 44
0.0
173
     0
291
     1
 45
0.0
1001
ACAD
1000
AcDbSavedByObjectVersion
1070
     0
  0
VISUALSTYLE
  5
2D
102
{ACAD_REACTORS
330
2A
102
}
102
{ACAD_XDICTIONARY
360
461
102
}
330
2A
100
AcDbVisualStyle
  2
Gouraud
 70
     2
 71
     2
 72
     2
 73
     1
 90
        2
 40
-0.6
 41
30.0
 62
     5
 63
     7
 74
     0
 91
        4
 64
     7
 65
   257
 75
     1
175
     1
 42
1.0
 92
        0
 66
     7
 43
1.0
 76
     1
 77
     6
 78
     2
 67
     7
 79
     5
170
     0
171
     0
290
     0
174
     0
 93
       13
 44
0.0
173
     0
291
     1
 45
0.0
1001
ACAD
1000
AcDbSavedByObjectVersion
1070
     0
  0
VISUALSTYLE
  5
2E
102
{ACAD_REACTORS
330
2A
102
}
102
{ACAD_XDICTIONARY
360
463
102
}
330
2A
100
AcDbVisualStyle
  2
GouraudWithEdges
 70
     3
 71
     2
 72
     2
 73
     1
 90
        2
 40
-0.6
 41
30.0
 62
     5
 63
     7
 74
     1
 91
        4
 64
     7
 65
   257
 75
     1
175
     1
 42
1.0
 92
        0
 66
   257
 43
1.0
 76
     1
 77
     6
 78
     2
 67
     7
 79
     5
170
     0
171
     0
290
     0
174
     0
 93
       13
 44
0.0
173
     0
291
     1
 45
0.0
1001
ACAD
1000
AcDbSavedByObjectVersion
1070
     0
  0
VISUALSTYLE
  5
447
102
{ACAD_REACTORS
330
2A
102
}
102
{ACAD_XDICTIONARY
360
47F
102
}
330
2A
100
AcDbVisualStyle
  2
Hidden
 70
     6
 71
     1
 72
     2
 73
     2
 90
        0
 40
0.6
 41
30.0
 62
     5
 63
     7
 74
     2
 91
        2
 64
     7
 65
   257
 75
     2
175
     1
 42
40.0
 92
        0
 66
   257
 43
1.0
 76
     1
 77
     6
 78
     2
 67
     7
 79
     3
170
     0
171
     0
290
     0
174
     0
 93
        1
 44
0.0
173
     0
291
     0
 45
0.0
1001
ACAD
1000
AcDbSavedByObjectVersion
1070
     0
  0
VISUALSTYLE
  5
448
102
{ACAD_REACTORS
330
2A
102
}
102
{ACAD_XDICTIONARY
360
481
102
}
330
2A
100
AcDbVisualStyle
  2
JitterOff
 70
    20
 71
     2
 72
     2
 73
     0
 90
        0
 40
0.6
 41
30.0
 62
     5
 63
     7
 74
     1
 91
        4
 64
     7
 65
   257
 75
     1
175
     1
 42
1.0
 92
       10
 66
     7
 43
1.0
 76
     1
 77
     6
 78
     2
 67
     7
 79
     5
170
     0
171
     0
290
     0
174
     0
 93
        1
 44
0.0
173
     0
291
     1
 45
0.0
1001
ACAD
1000
AcDbSavedByObjectVersion
1070
     0
  0
VISUALSTYLE
  5
38
102
{ACAD_REACTORS
330
2A
102
}
102
{ACAD_XDICTIONARY
360
477
102
}
330
2A
100
AcDbVisualStyle
  2
Linepattern
 70
    14
 71
     2
 72
     2
 73
     0
 90
        0
 40
-0.6
 41
-30.0
 62
     5
 63
     7
 74
     1
 91
        4
 64
     7
 65
   257
 75
     7
175
     7
 42
1.0
 92
        8
 66
     7
 43
1.0
 76
     1
 77
     6
 78
     2
 67
     7
 79
     5
170
     0
171
     0
290
     0
174
     0
 93
        1
 44
0.0
173
     0
291
     1
 45
0.0
1001
ACAD
1000
AcDbSavedByObjectVersion
1070
     0
  0
VISUALSTYLE
  5
449
102
{ACAD_REACTORS
330
2A
102
}
102
{ACAD_XDICTIONARY
360
483
102
}
330
2A
100
AcDbVisualStyle
  2
OverhangOff
 70
    21
 71
     2
 72
     2
 73
     0
 90
        0
 40
0.6
 41
30.0
 62
     5
 63
     7
 74
     1
 91
        4
 64
     7
 65
   257
 75
     1
175
     1
 42
1.0
 92
        9
 66
     7
 43
1.0
 76
     1
 77
     6
 78
     2
 67
     7
 79
     5
170
     0
171
     0
290
     0
174
     0
 93
        1
 44
0.0
173
     0
291
     1
 45
0.0
1001
ACAD
1000
AcDbSavedByObjectVersion
1070
     0
  0
VISUALSTYLE
  5
33
102
{ACAD_REACTORS
330
2A
102
}
102
{ACAD_XDICTIONARY
360
46D
102
}
330
2A
100
AcDbVisualStyle
  2
Realistic
 70
     8
 71
     2
 72
     2
 73
     0
 90
        0
 40
-0.6
 41
-30.0
 62
     5
 63
     7
 74
     1
 91
        0
 64
     7
 65
   257
 75
     1
175
     1
 42
1.0
 92
        8
 66
     8
 43
1.0
 76
     1
 77
     6
 78
     2
 67
     7
 79
     5
170
     0
171
     0
290
     0
174
     0
 93
       13
 44
0.0
173
     0
291
     0
 45
0.0
1001
ACAD
1000
AcDbSavedByObjectVersion
1070
     0
  0
VISUALSTYLE
  5
44F
102
{ACAD_REACTORS
330
2A
102
}
102
{ACAD_XDICTIONARY
360
48F
102
}
330
2A
100
AcDbVisualStyle
  2
Shaded
 70
    27
 71
     2
 72
     2
 73
     1
 90
        2
 40
0.6
 41
30.0
 62
     5
 63
     7
 74
     0
 91
        4
 64
     7
 65
   257
 75
     1
175
     1
 42
1.0
 92
        8
 66
   257
 43
1.0
 76
     1
 77
     6
 78
     2
 67
     8
 79
     3
170
     0
171
     0
290
     0
174
     0
 93
        5
 44
0.0
173
     0
291
     0
 45
0.0
1001
ACAD
1000
AcDbSavedByObjectVersion
1070
     0
  0
VISUALSTYLE
  5
44E
102
{ACAD_REACTORS
330
2A
102
}
102
{ACAD_XDICTIONARY
360
48D
102
}
330
2A
100
AcDbVisualStyle
  2
Shaded with edges
 70
    26
 71
     2
 72
     2
 73
     1
 90
        2
 40
0.6
 41
30.0
 62
     5
 63
     7
 74
     1
 91
       10
 64
     7
 65
   257
 75
     2
175
     1
 42
1.0
 92
        8
 66
   257
 43
1.0
 76
     1
 77
     6
 78
     2
 67
     7
 79
     3
170
     0
171
     0
290
     0
174
     0
 93
        5
 44
0.0
173
     0
291
     0
 45
0.0
1001
ACAD
1000
AcDbSavedByObjectVersion
1070
     0
  0
VISUALSTYLE
  5
44B
102
{ACAD_REACTORS
330
2A
102
}
102
{ACAD_XDICTIONARY
360
487
102
}
330
2A
100
AcDbVisualStyle
  2
Shades of Gray
 70
    23
 71
     2
 72
     2
 73
     3
 90
        0
 40
0.6
 41
30.0
 62
     5
 63
     7
 74
     2
 91
        2
 64
     7
 65
     7
 75
     1
175
     1
 42
40.0
 92
        8
 66
     7
 43
1.0
 76
     1
 77
     6
 78
     2
 67
     7
 79
     3
170
     0
171
     0
290
     0
174
     0
 93
        1
 44
0.0
173
     0
291
     0
 45
0.0
1001
ACAD
1000
AcDbSavedByObjectVersion
1070
     0
  0
VISUALSTYLE
  5
44C
102
{ACAD_REACTORS
330
2A
102
}
102
{ACAD_XDICTIONARY
360
489
102
}
330
2A
100
AcDbVisualStyle
  2
Sketchy
 70
    24
 71
     1
 72
     2
 73
     2
 90
        0
 40
0.6
 41
30.0
 62
     5
 63
     7
 74
     2
 91
        2
 64
     7
 65
     7
 75
     1
175
     1
 42
40.0
 92
       11
 66
     7
 43
1.0
 76
     1
 77
     6
 78
     2
 67
     7
 79
     6
170
     0
171
     0
290
     0
174
     0
 93
        1
 44
0.0
173
     0
291
     0
 45
0.0
1001
ACAD
1000
AcDbSavedByObjectVersion
1070
     0
  0
VISUALSTYLE
  5
37
102
{ACAD_REACTORS
330
2A
102
}
102
{ACAD_XDICTIONARY
360
475
102
}
330
2A
100
AcDbVisualStyle
  2
Thicken
 70
    13
 71
     2
 72
     2
 73
     0
 90
        0
 40
-0.6
 41
-30.0
 62
     5
 63
     7
 74
     1
 91
        4
 64
     7
 65
   257
 75
     1
175
     1
 42
1.0
 92
       12
 66
     7
 43
1.0
 76
     1
 77
     6
 78
     2
 67
     7
 79
     5
170
     0
171
     0
290
     0
174
     0
 93
        1
 44
0.0
173
     0
291
     1
 45
0.0
1001
ACAD
1000
AcDbSavedByObjectVersion
1070
     0
  0
VISUALSTYLE
  5
446
102
{ACAD_REACTORS
330
2A
102
}
102
{ACAD_XDICTIONARY
360
47D
102
}
330
2A
100
AcDbVisualStyle
  2
Wireframe
 70
     5
 71
     0
 72
     2
 73
     0
 90
        0
 40
0.6
 41
30.0
 62
     5
 63
     7
 74
     1
 91
        4
 64
     7
 65
   257
 75
     1
175
     1
 42
1.0
 92
        0
 66
   257
 43
1.0
 76
     1
 77
     6
 78
     2
 67
     7
 79
     3
170
     0
171
     0
290
     0
174
     0
 93
        1
 44
0.0
173
     0
291
     0
 45
0.0
1001
ACAD
1000
AcDbSavedByObjectVersion
1070
     0
  0
VISUALSTYLE
  5
44D
102
{ACAD_REACTORS
330
2A
102
}
102
{ACAD_XDICTIONARY
360
48B
102
}
330
2A
100
AcDbVisualStyle
  2
X-Ray
 70
    25
 71
     2
 72
     2
 73
     1
 90
        1
 40
0.5
 41
30.0
 62
     5
 63
     7
 74
     1
 91
        0
 64
     7
 65
   257
 75
     1
175
     1
 42
1.0
 92
        8
 66
     7
 43
1.0
 76
     1
 77
     6
 78
     2
 67
     7
 79
     3
170
     0
171
     0
290
     0
174
     0
 93
       13
 44
0.0
173
     0
291
     0
 45
0.0
1001
ACAD
1000
AcDbSavedByObjectVersion
1070
     0
  0
DICTIONARYVAR
  5
45B
102
{ACAD_REACTORS
330
39A
102
}
330
39A
100
DictionaryVariables
280
     0
  1
1:1
  0
DICTIONARYVAR
  5
453
102
{ACAD_REACTORS
330
39A
102
}
330
39A
100
DictionaryVariables
280
     0
  1
Standard
  0
DICTIONARYVAR
  5
452
102
{ACAD_REACTORS
330
39A
102
}
330
39A
100
DictionaryVariables
280
     0
  1
Standard
  0
DICTIONARYVAR
  5
39F
102
{ACAD_REACTORS
330
39A
102
}
330
39A
100
DictionaryVariables
280
     0
  1
2
  0
DICTIONARYVAR
  5
3A0
102
{ACAD_REACTORS
330
39A
102
}
330
39A
100
DictionaryVariables
280
     0
  1
1
  0
DICTIONARYVAR
  5
45C
102
{ACAD_REACTORS
330
39A
102
}
330
39A
100
DictionaryVariables
280
     0
  1
1
  0
DICTIONARYVAR
  5
455
102
{ACAD_REACTORS
330
39A
102
}
330
39A
100
DictionaryVariables
280
     0
  1
80.000000
  0
DICTIONARYVAR
  5
454
102
{ACAD_REACTORS
330
39A
102
}
330
39A
100
DictionaryVariables
280
     0
  1
5.000000
  0
DICTIONARY
  5
493
330
3D
100
AcDbDictionary
280
     1
281
     1
  3
ACAD_XREC_ROUNDTRIP
360
494
  0
DICTIONARY
  5
491
330
3C
100
AcDbDictionary
280
     1
281
     1
  3
ACAD_XREC_ROUNDTRIP
360
492
  0
DICTIONARY
  5
495
330
3E
100
AcDbDictionary
280
     1
281
     1
  3
ACAD_XREC_ROUNDTRIP
360
496
  0
DICTIONARY
  5
498
330
445
100
AcDbDictionary
280
     1
281
     1
  3
ACAD_XREC_ROUNDTRIP
360
499
  0
DICTIONARY
  5
465
330
2F
100
AcDbDictionary
280
     1
281
     1
  3
ACAD_XREC_ROUNDTRIP
360
466
  0
DICTIONARY
  5
469
330
31
100
AcDbDictionary
280
     1
281
     1
  3
ACAD_XREC_ROUNDTRIP
360
46A
  0
DICTIONARY
  5
467
330
30
100
AcDbDictionary
280
     1
281
     1
  3
ACAD_XREC_ROUNDTRIP
360
468
  0
DICTIONARY
  5
46B
330
32
100
AcDbDictionary
280
     1
281
     1
  3
ACAD_XREC_ROUNDTRIP
360
46C
  0
DICTIONARY
  5
473
330
36
100
AcDbDictionary
280
     1
281
     1
  3
ACAD_XREC_ROUNDTRIP
360
474
  0
DICTIONARY
  5
47B
330
3A
100
AcDbDictionary
280
     1
281
     1
  3
ACAD_XREC_ROUNDTRIP
360
47C
  0
DICTIONARY
  5
46F
330
34
100
AcDbDictionary
280
     1
281
     1
  3
ACAD_XREC_ROUNDTRIP
360
470
  0
DICTIONARY
  5
471
330
35
100
AcDbDictionary
280
     1
281
     1
  3
ACAD_XREC_ROUNDTRIP
360
472
  0
DICTIONARY
  5
485
330
44A
100
AcDbDictionary
280
     1
281
     1
  3
ACAD_XREC_ROUNDTRIP
360
486
  0
DICTIONARY
  5
479
330
39
100
AcDbDictionary
280
     1
281
     1
  3
ACAD_XREC_ROUNDTRIP
360
47A
  0
DICTIONARY
  5
45D
330
2B
100
AcDbDictionary
280
     1
281
     1
  3
ACAD_XREC_ROUNDTRIP
360
45E
  0
DICTIONARY
  5
45F
330
2C
100
AcDbDictionary
280
     1
281
     1
  3
ACAD_XREC_ROUNDTRIP
360
460
  0
DICTIONARY
  5
461
330
2D
100
AcDbDictionary
280
     1
281
     1
  3
ACAD_XREC_ROUNDTRIP
360
462
  0
DICTIONARY
  5
463
330
2E
100
AcDbDictionary
280
     1
281
     1
  3
ACAD_XREC_ROUNDTRIP
360
464
  0
DICTIONARY
  5
47F
330
447
100
AcDbDictionary
280
     1
281
     1
  3
ACAD_XREC_ROUNDTRIP
360
480
  0
DICTIONARY
  5
481
330
448
100
AcDbDictionary
280
     1
281
     1
  3
ACAD_XREC_ROUNDTRIP
360
482
  0
DICTIONARY
  5
477
330
38
100
AcDbDictionary
280
     1
281
     1
  3
ACAD_XREC_ROUNDTRIP
360
478
  0
DICTIONARY
  5
483
330
449
100
AcDbDictionary
280
     1
281
     1
  3
ACAD_XREC_ROUNDTRIP
360
484
  0
DICTIONARY
  5
46D
330
33
100
AcDbDictionary
280
     1
281
     1
  3
ACAD_XREC_ROUNDTRIP
360
46E
  0
DICTIONARY
  5
48F
330
44F
100
AcDbDictionary
280
     1
281
     1
  3
ACAD_XREC_ROUNDTRIP
360
490
  0
DICTIONARY
  5
48D
330
44E
100
AcDbDictionary
280
     1
281
     1
  3
ACAD_XREC_ROUNDTRIP
360
48E
  0
DICTIONARY
  5
487
330
44B
100
AcDbDictionary
280
     1
281
     1
  3
ACAD_XREC_ROUNDTRIP
360
488
  0
DICTIONARY
  5
489
330
44C
100
AcDbDictionary
280
     1
281
     1
  3
ACAD_XREC_ROUNDTRIP
360
48A
  0
DICTIONARY
  5
475
330
37
100
AcDbDictionary
280
     1
281
     1
  3
ACAD_XREC_ROUNDTRIP
360
476
  0
DICTIONARY
  5
47D
330
446
100
AcDbDictionary
280
     1
281
     1
  3
ACAD_XREC_ROUNDTRIP
360
47E
  0
DICTIONARY
  5
48B
330
44D
100
AcDbDictionary
280
     1
281
     1
  3
ACAD_XREC_ROUNDTRIP
360
48C
  0
XRECORD
  5
494
102
{ACAD_REACTORS
330
493
102
}
330
493
100
AcDbXrecord
280
     1
102
MATERIAL
148
0.0
149
0.0
149
0.0
 93
        0
 94
      127
282
     0
 72
     1
 77
     1
171
     1
175
     1
179
     1
273
     0
  0
XRECORD
  5
492
102
{ACAD_REACTORS
330
491
102
}
330
491
100
AcDbXrecord
280
     1
102
MATERIAL
148
0.0
149
0.0
149
0.0
 93
        0
 94
      127
282
     0
 72
     1
 77
     1
171
     1
175
     1
179
     1
273
     0
  0
XRECORD
  5
496
102
{ACAD_REACTORS
330
495
102
}
330
495
100
AcDbXrecord
280
     1
102
MATERIAL
148
0.0
149
0.0
149
0.0
 93
        0
 94
      127
282
     0
 72
     1
 77
     1
171
     1
175
     1
179
     1
273
     0
  0
XRECORD
  5
499
102
{ACAD_REACTORS
330
498
102
}
330
498
100
AcDbXrecord
280
     1
102
ACAD_ROUNDTRIP_2010_MLEADER_STYLE
  0
XRECORD
  5
466
102
{ACAD_REACTORS
330
465
102
}
330
465
100
AcDbXrecord
280
     1
102
RTVSPropertyOp0
 70
     1
102
RTVSPropertyOp1
 70
     1
102
RTVSPropertyOp2
 70
     1
102
RTVSPropertyOp3
 70
     1
102
RTVSPropertyOp4
 70
     1
102
RTVSPropertyOp5
 70
     1
102
RTVSPropertyOp6
 70
     1
102
RTVSPropertyOp7
 70
     1
102
RTVSPropertyOp8
 70
     1
102
RTVSPropertyOp9
 70
     1
102
RTVSPropertyOp10
 70
     1
102
RTVSPropertyOp11
 70
     1
102
RTVSPropertyOp12
 70
     1
102
RTVSPropertyOp13
 70
     1
102
RTVSPropertyOp14
 70
     1
102
RTVSPropertyOp15
 70
     1
102
RTVSPropertyOp16
 70
     1
102
RTVSPropertyOp17
 70
     1
102
RTVSPropertyOp18
 70
     1
102
RTVSPropertyOp19
 70
     1
102
RTVSPropertyOp20
 70
     1
102
RTVSPropertyOp21
 70
     1
102
RTVSPropertyOp22
 70
     1
102
RTVSPropertyOp23
 70
     1
102
RTVSPropertyOp24
 70
     1
102
RTVSPropertyOp25
 70
     1
102
RTVSPropertyOp26
 70
     1
102
RTVSPropertyOp27
 70
     1
102
RTVSPropertyOp28
 70
     1
102
RTVSPropertyOp29
 70
     1
102
RTVSPropertyOp30
 70
     1
102
RTVSPropertyOp31
 70
     1
102
RTVSPropertyOp32
 70
     1
102
RTVSPropertyOp33
 70
     1
102
RTVSPropertyOp34
 70
     1
102
RTVSPropertyOp35
 70
     1
102
RTVSPropertyOp36
 70
     1
102
RTVSPropertyOp37
 70
     1
102
RTVSPropertyOp38
 70
     1
102
RTVSPropertyOp39
 70
     1
102
RTVSPropertyOp40
 70
     1
102
RTVSPropertyOp41
 70
     1
102
RTVSPropertyOp42
 70
     1
102
RTVSPropertyOp43
 70
     1
102
RTVSPropertyOp44
 70
     1
102
RTVSPropertyOp45
 70
     1
102
RTVSPropertyOp46
 70
     1
102
RTVSPropertyOp47
 70
     1
102
RTVSPropertyOp48
 70
     1
102
RTVSPropertyOp49
 70
     1
102
RTVSPropertyOp50
 70
     1
102
RTVSPropertyOp51
 70
     0
102
RTVSPropertyOp52
 70
     0
102
RTVSPropertyOp53
 70
     1
102
RTVSPropertyOp54
 70
     1
102
RTVSPropertyOp55
 70
     1
102
RTVSPropertyOp56
 70
     1
102
RTVSPropertyOp57
 70
     1
102
RTVSPost2010Prop28
280
     1
102
RTVSPost2010PropOp28
 70
     1
102
RTVSPost2010Prop29
280
     1
102
RTVSPost2010PropOp29
 70
     1
102
RTVSPost2010Prop30
280
     0
102
RTVSPost2010PropOp30
 70
     1
102
RTVSPost2010Prop31
280
     0
102
RTVSPost2010PropOp31
 70
     1
102
RTVSPost2010Prop32
280
     0
102
RTVSPost2010PropOp32
 70
     1
102
RTVSPost2010Prop33
280
     0
102
RTVSPost2010PropOp33
 70
     1
102
RTVSPost2010Prop34
280
     0
102
RTVSPost2010PropOp34
 70
     1
102
RTVSPost2010Prop35
280
     0
102
RTVSPost2010PropOp35
 70
     1
102
RTVSPost2010Prop36
280
     0
102
RTVSPost2010PropOp36
 70
     1
102
RTVSPost2010Prop37
 90
       50
102
RTVSPost2010PropOp37
 70
     1
102
RTVSPost2010Prop38
140
0.0
102
RTVSPost2010PropOp38
 70
     1
102
RTVSPost2010Prop39
140
1.0
102
RTVSPost2010PropOp39
 70
     1
102
RTVSPost2010Prop40
 90
        0
102
RTVSPost2010PropOp40
 70
     1
102
RTVSPost2010Prop41ColorIndex
 90
       18
102
RTVSPost2010Prop41ColorRGB
 90
        0
102
RTVSPost2010PropOp41
 70
     1
102
RTVSPost2010Prop42
 90
       50
102
RTVSPost2010PropOp42
 70
     1
102
RTVSPost2010Prop43
 90
        3
102
RTVSPost2010PropOp43
 70
     1
102
RTVSPost2010Prop44ColorIndex
 90
        5
102
RTVSPost2010Prop44ColorRGB
 90
      255
102
RTVSPost2010PropOp44
 70
     1
102
RTVSPost2010Prop45
280
     0
102
RTVSPost2010PropOp45
 70
     1
102
RTVSPost2010Prop46
 90
       50
102
RTVSPost2010PropOp46
 70
     1
102
RTVSPost2010Prop47
 90
       50
102
RTVSPost2010PropOp47
 70
     1
102
RTVSPost2010Prop48
 90
       50
102
RTVSPost2010PropOp48
 70
     1
102
RTVSPost2010Prop49
280
     0
102
RTVSPost2010PropOp49
 70
     1
102
RTVSPost2010Prop50
 90
       50
102
RTVSPost2010PropOp50
 70
     1
102
RTVSPost2010Prop51ColorIndex
 90
      256
102
RTVSPost2010Prop51ColorRGB
 90
-16777216
102
RTVSPost2010PropOp51
 70
     0
102
RTVSPost2010Prop52
140
1.0
102
RTVSPost2010PropOp52
 70
     0
102
RTVSPost2010Prop53
 90
        2
102
RTVSPost2010PropOp53
 70
     1
102
RTVSPost2010Prop54
  1
strokes_ogs.tif
102
RTVSPost2010PropOp54
 70
     1
102
RTVSPost2010Prop55
280
     0
102
RTVSPost2010PropOp55
 70
     1
102
RTVSPost2010Prop56
140
1.0
102
RTVSPost2010PropOp56
 70
     1
102
RTVSPost2010Prop57
140
1.0
102
RTVSPost2010PropOp57
 70
     1
  0
XRECORD
  5
46A
102
{ACAD_REACTORS
330
469
102
}
330
469
100
AcDbXrecord
280
     1
102
RTVSPropertyOp0
 70
     1
102
RTVSPropertyOp1
 70
     1
102
RTVSPropertyOp2
 70
     1
102
RTVSPropertyOp3
 70
     1
102
RTVSPropertyOp4
 70
     1
102
RTVSPropertyOp5
 70
     1
102
RTVSPropertyOp6
 70
     1
102
RTVSPropertyOp7
 70
     1
102
RTVSPropertyOp8
 70
     1
102
RTVSPropertyOp9
 70
     1
102
RTVSPropertyOp10
 70
     1
102
RTVSPropertyOp11
 70
     1
102
RTVSPropertyOp12
 70
     1
102
RTVSPropertyOp13
 70
     1
102
RTVSPropertyOp14
 70
     1
102
RTVSPropertyOp15
 70
     1
102
RTVSPropertyOp16
 70
     1
102
RTVSPropertyOp17
 70
     1
102
RTVSPropertyOp18
 70
     1
102
RTVSPropertyOp19
 70
     1
102
RTVSPropertyOp20
 70
     1
102
RTVSPropertyOp21
 70
     1
102
RTVSPropertyOp22
 70
     1
102
RTVSPropertyOp23
 70
     1
102
RTVSPropertyOp24
 70
     1
102
RTVSPropertyOp25
 70
     1
102
RTVSPropertyOp26
 70
     1
102
RTVSPropertyOp27
 70
     1
102
RTVSPropertyOp28
 70
     1
102
RTVSPropertyOp29
 70
     1
102
RTVSPropertyOp30
 70
     1
102
RTVSPropertyOp31
 70
     1
102
RTVSPropertyOp32
 70
     1
102
RTVSPropertyOp33
 70
     1
102
RTVSPropertyOp34
 70
     1
102
RTVSPropertyOp35
 70
     1
102
RTVSPropertyOp36
 70
     1
102
RTVSPropertyOp37
 70
     1
102
RTVSPropertyOp38
 70
     1
102
RTVSPropertyOp39
 70
     1
102
RTVSPropertyOp40
 70
     1
102
RTVSPropertyOp41
 70
     1
102
RTVSPropertyOp42
 70
     1
102
RTVSPropertyOp43
 70
     1
102
RTVSPropertyOp44
 70
     1
102
RTVSPropertyOp45
 70
     1
102
RTVSPropertyOp46
 70
     1
102
RTVSPropertyOp47
 70
     1
102
RTVSPropertyOp48
 70
     1
102
RTVSPropertyOp49
 70
     1
102
RTVSPropertyOp50
 70
     1
102
RTVSPropertyOp51
 70
     0
102
RTVSPropertyOp52
 70
     0
102
RTVSPropertyOp53
 70
     1
102
RTVSPropertyOp54
 70
     1
102
RTVSPropertyOp55
 70
     1
102
RTVSPropertyOp56
 70
     1
102
RTVSPropertyOp57
 70
     1
102
RTVSPost2010Prop28
280
     0
102
RTVSPost2010PropOp28
 70
     1
102
RTVSPost2010Prop29
280
     1
102
RTVSPost2010PropOp29
 70
     1
102
RTVSPost2010Prop30
280
     1
102
RTVSPost2010PropOp30
 70
     1
102
RTVSPost2010Prop31
280
     0
102
RTVSPost2010PropOp31
 70
     1
102
RTVSPost2010Prop32
280
     0
102
RTVSPost2010PropOp32
 70
     1
102
RTVSPost2010Prop33
280
     0
102
RTVSPost2010PropOp33
 70
     1
102
RTVSPost2010Prop34
280
     0
102
RTVSPost2010PropOp34
 70
     1
102
RTVSPost2010Prop35
280
     0
102
RTVSPost2010PropOp35
 70
     1
102
RTVSPost2010Prop36
280
     0
102
RTVSPost2010PropOp36
 70
     1
102
RTVSPost2010Prop37
 90
       50
102
RTVSPost2010PropOp37
 70
     1
102
RTVSPost2010Prop38
140
0.0
102
RTVSPost2010PropOp38
 70
     1
102
RTVSPost2010Prop39
140
1.0
102
RTVSPost2010PropOp39
 70
     1
102
RTVSPost2010Prop40
 90
        0
102
RTVSPost2010PropOp40
 70
     1
102
RTVSPost2010Prop41ColorIndex
 90
       18
102
RTVSPost2010Prop41ColorRGB
 90
        0
102
RTVSPost2010PropOp41
 70
     1
102
RTVSPost2010Prop42
 90
       50
102
RTVSPost2010PropOp42
 70
     1
102
RTVSPost2010Prop43
 90
        3
102
RTVSPost2010PropOp43
 70
     1
102
RTVSPost2010Prop44ColorIndex
 90
        5
102
RTVSPost2010Prop44ColorRGB
 90
      255
102
RTVSPost2010PropOp44
 70
     1
102
RTVSPost2010Prop45
280
     0
102
RTVSPost2010PropOp45
 70
     1
102
RTVSPost2010Prop46
 90
       50
102
RTVSPost2010PropOp46
 70
     1
102
RTVSPost2010Prop47
 90
       50
102
RTVSPost2010PropOp47
 70
     1
102
RTVSPost2010Prop48
 90
       50
102
RTVSPost2010PropOp48
 70
     1
102
RTVSPost2010Prop49
280
     0
102
RTVSPost2010PropOp49
 70
     1
102
RTVSPost2010Prop50
 90
       50
102
RTVSPost2010PropOp50
 70
     1
102
RTVSPost2010Prop51ColorIndex
 90
      256
102
RTVSPost2010Prop51ColorRGB
 90
-16777216
102
RTVSPost2010PropOp51
 70
     0
102
RTVSPost2010Prop52
140
1.0
102
RTVSPost2010PropOp52
 70
     0
102
RTVSPost2010Prop53
 90
        2
102
RTVSPost2010PropOp53
 70
     1
102
RTVSPost2010Prop54
  1
strokes_ogs.tif
102
RTVSPost2010PropOp54
 70
     1
102
RTVSPost2010Prop55
280
     0
102
RTVSPost2010PropOp55
 70
     1
102
RTVSPost2010Prop56
140
1.0
102
RTVSPost2010PropOp56
 70
     1
102
RTVSPost2010Prop57
140
1.0
102
RTVSPost2010PropOp57
 70
     1
  0
XRECORD
  5
468
102
{ACAD_REACTORS
330
467
102
}
330
467
100
AcDbXrecord
280
     1
102
RTVSPropertyOp0
 70
     1
102
RTVSPropertyOp1
 70
     1
102
RTVSPropertyOp2
 70
     1
102
RTVSPropertyOp3
 70
     1
102
RTVSPropertyOp4
 70
     1
102
RTVSPropertyOp5
 70
     1
102
RTVSPropertyOp6
 70
     1
102
RTVSPropertyOp7
 70
     1
102
RTVSPropertyOp8
 70
     1
102
RTVSPropertyOp9
 70
     1
102
RTVSPropertyOp10
 70
     1
102
RTVSPropertyOp11
 70
     1
102
RTVSPropertyOp12
 70
     1
102
RTVSPropertyOp13
 70
     1
102
RTVSPropertyOp14
 70
     1
102
RTVSPropertyOp15
 70
     1
102
RTVSPropertyOp16
 70
     1
102
RTVSPropertyOp17
 70
     1
102
RTVSPropertyOp18
 70
     1
102
RTVSPropertyOp19
 70
     1
102
RTVSPropertyOp20
 70
     1
102
RTVSPropertyOp21
 70
     1
102
RTVSPropertyOp22
 70
     1
102
RTVSPropertyOp23
 70
     1
102
RTVSPropertyOp24
 70
     1
102
RTVSPropertyOp25
 70
     1
102
RTVSPropertyOp26
 70
     1
102
RTVSPropertyOp27
 70
     1
102
RTVSPropertyOp28
 70
     1
102
RTVSPropertyOp29
 70
     1
102
RTVSPropertyOp30
 70
     1
102
RTVSPropertyOp31
 70
     1
102
RTVSPropertyOp32
 70
     1
102
RTVSPropertyOp33
 70
     1
102
RTVSPropertyOp34
 70
     1
102
RTVSPropertyOp35
 70
     1
102
RTVSPropertyOp36
 70
     1
102
RTVSPropertyOp37
 70
     1
102
RTVSPropertyOp38
 70
     1
102
RTVSPropertyOp39
 70
     1
102
RTVSPropertyOp40
 70
     1
102
RTVSPropertyOp41
 70
     1
102
RTVSPropertyOp42
 70
     1
102
RTVSPropertyOp43
 70
     1
102
RTVSPropertyOp44
 70
     1
102
RTVSPropertyOp45
 70
     1
102
RTVSPropertyOp46
 70
     1
102
RTVSPropertyOp47
 70
     1
102
RTVSPropertyOp48
 70
     1
102
RTVSPropertyOp49
 70
     1
102
RTVSPropertyOp50
 70
     1
102
RTVSPropertyOp51
 70
     0
102
RTVSPropertyOp52
 70
     0
102
RTVSPropertyOp53
 70
     1
102
RTVSPropertyOp54
 70
     1
102
RTVSPropertyOp55
 70
     1
102
RTVSPropertyOp56
 70
     1
102
RTVSPropertyOp57
 70
     1
102
RTVSPost2010Prop28
280
     0
102
RTVSPost2010PropOp28
 70
     1
102
RTVSPost2010Prop29
280
     1
102
RTVSPost2010PropOp29
 70
     1
102
RTVSPost2010Prop30
280
     1
102
RTVSPost2010PropOp30
 70
     1
102
RTVSPost2010Prop31
280
     0
102
RTVSPost2010PropOp31
 70
     1
102
RTVSPost2010Prop32
280
     0
102
RTVSPost2010PropOp32
 70
     1
102
RTVSPost2010Prop33
280
     0
102
RTVSPost2010PropOp33
 70
     1
102
RTVSPost2010Prop34
280
     0
102
RTVSPost2010PropOp34
 70
     1
102
RTVSPost2010Prop35
280
     0
102
RTVSPost2010PropOp35
 70
     1
102
RTVSPost2010Prop36
280
     0
102
RTVSPost2010PropOp36
 70
     1
102
RTVSPost2010Prop37
 90
       50
102
RTVSPost2010PropOp37
 70
     1
102
RTVSPost2010Prop38
140
0.0
102
RTVSPost2010PropOp38
 70
     1
102
RTVSPost2010Prop39
140
1.0
102
RTVSPost2010PropOp39
 70
     1
102
RTVSPost2010Prop40
 90
        0
102
RTVSPost2010PropOp40
 70
     1
102
RTVSPost2010Prop41ColorIndex
 90
       18
102
RTVSPost2010Prop41ColorRGB
 90
        0
102
RTVSPost2010PropOp41
 70
     1
102
RTVSPost2010Prop42
 90
       50
102
RTVSPost2010PropOp42
 70
     1
102
RTVSPost2010Prop43
 90
        3
102
RTVSPost2010PropOp43
 70
     1
102
RTVSPost2010Prop44ColorIndex
 90
        5
102
RTVSPost2010Prop44ColorRGB
 90
      255
102
RTVSPost2010PropOp44
 70
     1
102
RTVSPost2010Prop45
280
     0
102
RTVSPost2010PropOp45
 70
     1
102
RTVSPost2010Prop46
 90
       50
102
RTVSPost2010PropOp46
 70
     1
102
RTVSPost2010Prop47
 90
       50
102
RTVSPost2010PropOp47
 70
     1
102
RTVSPost2010Prop48
 90
       50
102
RTVSPost2010PropOp48
 70
     1
102
RTVSPost2010Prop49
280
     0
102
RTVSPost2010PropOp49
 70
     1
102
RTVSPost2010Prop50
 90
       50
102
RTVSPost2010PropOp50
 70
     1
102
RTVSPost2010Prop51ColorIndex
 90
      256
102
RTVSPost2010Prop51ColorRGB
 90
-16777216
102
RTVSPost2010PropOp51
 70
     0
102
RTVSPost2010Prop52
140
1.0
102
RTVSPost2010PropOp52
 70
     0
102
RTVSPost2010Prop53
 90
        2
102
RTVSPost2010PropOp53
 70
     1
102
RTVSPost2010Prop54
  1
strokes_ogs.tif
102
RTVSPost2010PropOp54
 70
     1
102
RTVSPost2010Prop55
280
     0
102
RTVSPost2010PropOp55
 70
     1
102
RTVSPost2010Prop56
140
1.0
102
RTVSPost2010PropOp56
 70
     1
102
RTVSPost2010Prop57
140
1.0
102
RTVSPost2010PropOp57
 70
     1
  0
XRECORD
  5
46C
102
{ACAD_REACTORS
330
46B
102
}
330
46B
100
AcDbXrecord
280
     1
102
RTVSPropertyOp0
 70
     1
102
RTVSPropertyOp1
 70
     1
102
RTVSPropertyOp2
 70
     1
102
RTVSPropertyOp3
 70
     1
102
RTVSPropertyOp4
 70
     1
102
RTVSPropertyOp5
 70
     1
102
RTVSPropertyOp6
 70
     1
102
RTVSPropertyOp7
 70
     1
102
RTVSPropertyOp8
 70
     1
102
RTVSPropertyOp9
 70
     1
102
RTVSPropertyOp10
 70
     1
102
RTVSPropertyOp11
 70
     1
102
RTVSPropertyOp12
 70
     1
102
RTVSPropertyOp13
 70
     1
102
RTVSPropertyOp14
 70
     1
102
RTVSPropertyOp15
 70
     1
102
RTVSPropertyOp16
 70
     1
102
RTVSPropertyOp17
 70
     1
102
RTVSPropertyOp18
 70
     1
102
RTVSPropertyOp19
 70
     1
102
RTVSPropertyOp20
 70
     1
102
RTVSPropertyOp21
 70
     1
102
RTVSPropertyOp22
 70
     1
102
RTVSPropertyOp23
 70
     1
102
RTVSPropertyOp24
 70
     1
102
RTVSPropertyOp25
 70
     1
102
RTVSPropertyOp26
 70
     1
102
RTVSPropertyOp27
 70
     1
102
RTVSPropertyOp28
 70
     1
102
RTVSPropertyOp29
 70
     1
102
RTVSPropertyOp30
 70
     1
102
RTVSPropertyOp31
 70
     1
102
RTVSPropertyOp32
 70
     1
102
RTVSPropertyOp33
 70
     1
102
RTVSPropertyOp34
 70
     1
102
RTVSPropertyOp35
 70
     1
102
RTVSPropertyOp36
 70
     1
102
RTVSPropertyOp37
 70
     1
102
RTVSPropertyOp38
 70
     1
102
RTVSPropertyOp39
 70
     1
102
RTVSPropertyOp40
 70
     1
102
RTVSPropertyOp41
 70
     1
102
RTVSPropertyOp42
 70
     1
102
RTVSPropertyOp43
 70
     1
102
RTVSPropertyOp44
 70
     1
102
RTVSPropertyOp45
 70
     1
102
RTVSPropertyOp46
 70
     1
102
RTVSPropertyOp47
 70
     1
102
RTVSPropertyOp48
 70
     1
102
RTVSPropertyOp49
 70
     1
102
RTVSPropertyOp50
 70
     1
102
RTVSPropertyOp51
 70
     0
102
RTVSPropertyOp52
 70
     0
102
RTVSPropertyOp53
 70
     1
102
RTVSPropertyOp54
 70
     1
102
RTVSPropertyOp55
 70
     1
102
RTVSPropertyOp56
 70
     1
102
RTVSPropertyOp57
 70
     1
102
RTVSPost2010Prop28
280
     0
102
RTVSPost2010PropOp28
 70
     1
102
RTVSPost2010Prop29
280
     1
102
RTVSPost2010PropOp29
 70
     1
102
RTVSPost2010Prop30
280
     1
102
RTVSPost2010PropOp30
 70
     1
102
RTVSPost2010Prop31
280
     0
102
RTVSPost2010PropOp31
 70
     1
102
RTVSPost2010Prop32
280
     0
102
RTVSPost2010PropOp32
 70
     1
102
RTVSPost2010Prop33
280
     0
102
RTVSPost2010PropOp33
 70
     1
102
RTVSPost2010Prop34
280
     0
102
RTVSPost2010PropOp34
 70
     1
102
RTVSPost2010Prop35
280
     0
102
RTVSPost2010PropOp35
 70
     1
102
RTVSPost2010Prop36
280
     0
102
RTVSPost2010PropOp36
 70
     1
102
RTVSPost2010Prop37
 90
       50
102
RTVSPost2010PropOp37
 70
     1
102
RTVSPost2010Prop38
140
0.0
102
RTVSPost2010PropOp38
 70
     1
102
RTVSPost2010Prop39
140
1.0
102
RTVSPost2010PropOp39
 70
     1
102
RTVSPost2010Prop40
 90
        0
102
RTVSPost2010PropOp40
 70
     1
102
RTVSPost2010Prop41ColorIndex
 90
       18
102
RTVSPost2010Prop41ColorRGB
 90
        0
102
RTVSPost2010PropOp41
 70
     1
102
RTVSPost2010Prop42
 90
       50
102
RTVSPost2010PropOp42
 70
     1
102
RTVSPost2010Prop43
 90
        3
102
RTVSPost2010PropOp43
 70
     1
102
RTVSPost2010Prop44ColorIndex
 90
        5
102
RTVSPost2010Prop44ColorRGB
 90
      255
102
RTVSPost2010PropOp44
 70
     1
102
RTVSPost2010Prop45
280
     0
102
RTVSPost2010PropOp45
 70
     1
102
RTVSPost2010Prop46
 90
       50
102
RTVSPost2010PropOp46
 70
     1
102
RTVSPost2010Prop47
 90
       50
102
RTVSPost2010PropOp47
 70
     1
102
RTVSPost2010Prop48
 90
       50
102
RTVSPost2010PropOp48
 70
     1
102
RTVSPost2010Prop49
280
     0
102
RTVSPost2010PropOp49
 70
     1
102
RTVSPost2010Prop50
 90
       50
102
RTVSPost2010PropOp50
 70
     1
102
RTVSPost2010Prop51ColorIndex
 90
      256
102
RTVSPost2010Prop51ColorRGB
 90
-16777216
102
RTVSPost2010PropOp51
 70
     0
102
RTVSPost2010Prop52
140
1.0
102
RTVSPost2010PropOp52
 70
     0
102
RTVSPost2010Prop53
 90
        2
102
RTVSPost2010PropOp53
 70
     1
102
RTVSPost2010Prop54
  1
strokes_ogs.tif
102
RTVSPost2010PropOp54
 70
     1
102
RTVSPost2010Prop55
280
     0
102
RTVSPost2010PropOp55
 70
     1
102
RTVSPost2010Prop56
140
1.0
102
RTVSPost2010PropOp56
 70
     1
102
RTVSPost2010Prop57
140
1.0
102
RTVSPost2010PropOp57
 70
     1
  0
XRECORD
  5
474
102
{ACAD_REACTORS
330
473
102
}
330
473
100
AcDbXrecord
280
     1
102
RTVSPropertyOp0
 70
     1
102
RTVSPropertyOp1
 70
     1
102
RTVSPropertyOp2
 70
     1
102
RTVSPropertyOp3
 70
     1
102
RTVSPropertyOp4
 70
     1
102
RTVSPropertyOp5
 70
     1
102
RTVSPropertyOp6
 70
     1
102
RTVSPropertyOp7
 70
     1
102
RTVSPropertyOp8
 70
     1
102
RTVSPropertyOp9
 70
     1
102
RTVSPropertyOp10
 70
     1
102
RTVSPropertyOp11
 70
     1
102
RTVSPropertyOp12
 70
     1
102
RTVSPropertyOp13
 70
     1
102
RTVSPropertyOp14
 70
     1
102
RTVSPropertyOp15
 70
     1
102
RTVSPropertyOp16
 70
     1
102
RTVSPropertyOp17
 70
     1
102
RTVSPropertyOp18
 70
     1
102
RTVSPropertyOp19
 70
     1
102
RTVSPropertyOp20
 70
     1
102
RTVSPropertyOp21
 70
     1
102
RTVSPropertyOp22
 70
     1
102
RTVSPropertyOp23
 70
     1
102
RTVSPropertyOp24
 70
     1
102
RTVSPropertyOp25
 70
     1
102
RTVSPropertyOp26
 70
     1
102
RTVSPropertyOp27
 70
     1
102
RTVSPropertyOp28
 70
     1
102
RTVSPropertyOp29
 70
     1
102
RTVSPropertyOp30
 70
     1
102
RTVSPropertyOp31
 70
     1
102
RTVSPropertyOp32
 70
     1
102
RTVSPropertyOp33
 70
     1
102
RTVSPropertyOp34
 70
     1
102
RTVSPropertyOp35
 70
     1
102
RTVSPropertyOp36
 70
     1
102
RTVSPropertyOp37
 70
     1
102
RTVSPropertyOp38
 70
     1
102
RTVSPropertyOp39
 70
     1
102
RTVSPropertyOp40
 70
     1
102
RTVSPropertyOp41
 70
     1
102
RTVSPropertyOp42
 70
     1
102
RTVSPropertyOp43
 70
     1
102
RTVSPropertyOp44
 70
     1
102
RTVSPropertyOp45
 70
     1
102
RTVSPropertyOp46
 70
     1
102
RTVSPropertyOp47
 70
     1
102
RTVSPropertyOp48
 70
     1
102
RTVSPropertyOp49
 70
     1
102
RTVSPropertyOp50
 70
     1
102
RTVSPropertyOp51
 70
     0
102
RTVSPropertyOp52
 70
     0
102
RTVSPropertyOp53
 70
     1
102
RTVSPropertyOp54
 70
     1
102
RTVSPropertyOp55
 70
     1
102
RTVSPropertyOp56
 70
     1
102
RTVSPropertyOp57
 70
     1
102
RTVSPost2010Prop28
280
     0
102
RTVSPost2010PropOp28
 70
     1
102
RTVSPost2010Prop29
280
     1
102
RTVSPost2010PropOp29
 70
     1
102
RTVSPost2010Prop30
280
     1
102
RTVSPost2010PropOp30
 70
     1
102
RTVSPost2010Prop31
280
     0
102
RTVSPost2010PropOp31
 70
     1
102
RTVSPost2010Prop32
280
     0
102
RTVSPost2010PropOp32
 70
     1
102
RTVSPost2010Prop33
280
     0
102
RTVSPost2010PropOp33
 70
     1
102
RTVSPost2010Prop34
280
     0
102
RTVSPost2010PropOp34
 70
     1
102
RTVSPost2010Prop35
280
     0
102
RTVSPost2010PropOp35
 70
     1
102
RTVSPost2010Prop36
280
     0
102
RTVSPost2010PropOp36
 70
     1
102
RTVSPost2010Prop37
 90
       50
102
RTVSPost2010PropOp37
 70
     1
102
RTVSPost2010Prop38
140
0.0
102
RTVSPost2010PropOp38
 70
     1
102
RTVSPost2010Prop39
140
1.0
102
RTVSPost2010PropOp39
 70
     1
102
RTVSPost2010Prop40
 90
        0
102
RTVSPost2010PropOp40
 70
     1
102
RTVSPost2010Prop41ColorIndex
 90
       18
102
RTVSPost2010Prop41ColorRGB
 90
        0
102
RTVSPost2010PropOp41
 70
     1
102
RTVSPost2010Prop42
 90
       50
102
RTVSPost2010PropOp42
 70
     1
102
RTVSPost2010Prop43
 90
        3
102
RTVSPost2010PropOp43
 70
     1
102
RTVSPost2010Prop44ColorIndex
 90
        5
102
RTVSPost2010Prop44ColorRGB
 90
      255
102
RTVSPost2010PropOp44
 70
     1
102
RTVSPost2010Prop45
280
     0
102
RTVSPost2010PropOp45
 70
     1
102
RTVSPost2010Prop46
 90
       50
102
RTVSPost2010PropOp46
 70
     1
102
RTVSPost2010Prop47
 90
       50
102
RTVSPost2010PropOp47
 70
     1
102
RTVSPost2010Prop48
 90
       50
102
RTVSPost2010PropOp48
 70
     1
102
RTVSPost2010Prop49
280
     0
102
RTVSPost2010PropOp49
 70
     1
102
RTVSPost2010Prop50
 90
       50
102
RTVSPost2010PropOp50
 70
     1
102
RTVSPost2010Prop51ColorIndex
 90
      256
102
RTVSPost2010Prop51ColorRGB
 90
-16777216
102
RTVSPost2010PropOp51
 70
     0
102
RTVSPost2010Prop52
140
1.0
102
RTVSPost2010PropOp52
 70
     0
102
RTVSPost2010Prop53
 90
        2
102
RTVSPost2010PropOp53
 70
     1
102
RTVSPost2010Prop54
  1
strokes_ogs.tif
102
RTVSPost2010PropOp54
 70
     1
102
RTVSPost2010Prop55
280
     0
102
RTVSPost2010PropOp55
 70
     1
102
RTVSPost2010Prop56
140
1.0
102
RTVSPost2010PropOp56
 70
     1
102
RTVSPost2010Prop57
140
1.0
102
RTVSPost2010PropOp57
 70
     1
  0
XRECORD
  5
47C
102
{ACAD_REACTORS
330
47B
102
}
330
47B
100
AcDbXrecord
280
     1
102
RTVSPropertyOp0
 70
     1
102
RTVSPropertyOp1
 70
     1
102
RTVSPropertyOp2
 70
     1
102
RTVSPropertyOp3
 70
     1
102
RTVSPropertyOp4
 70
     1
102
RTVSPropertyOp5
 70
     1
102
RTVSPropertyOp6
 70
     1
102
RTVSPropertyOp7
 70
     1
102
RTVSPropertyOp8
 70
     1
102
RTVSPropertyOp9
 70
     1
102
RTVSPropertyOp10
 70
     1
102
RTVSPropertyOp11
 70
     1
102
RTVSPropertyOp12
 70
     1
102
RTVSPropertyOp13
 70
     1
102
RTVSPropertyOp14
 70
     1
102
RTVSPropertyOp15
 70
     1
102
RTVSPropertyOp16
 70
     1
102
RTVSPropertyOp17
 70
     1
102
RTVSPropertyOp18
 70
     1
102
RTVSPropertyOp19
 70
     1
102
RTVSPropertyOp20
 70
     1
102
RTVSPropertyOp21
 70
     1
102
RTVSPropertyOp22
 70
     1
102
RTVSPropertyOp23
 70
     1
102
RTVSPropertyOp24
 70
     1
102
RTVSPropertyOp25
 70
     1
102
RTVSPropertyOp26
 70
     1
102
RTVSPropertyOp27
 70
     1
102
RTVSPropertyOp28
 70
     1
102
RTVSPropertyOp29
 70
     1
102
RTVSPropertyOp30
 70
     1
102
RTVSPropertyOp31
 70
     1
102
RTVSPropertyOp32
 70
     1
102
RTVSPropertyOp33
 70
     1
102
RTVSPropertyOp34
 70
     1
102
RTVSPropertyOp35
 70
     1
102
RTVSPropertyOp36
 70
     1
102
RTVSPropertyOp37
 70
     1
102
RTVSPropertyOp38
 70
     1
102
RTVSPropertyOp39
 70
     1
102
RTVSPropertyOp40
 70
     1
102
RTVSPropertyOp41
 70
     1
102
RTVSPropertyOp42
 70
     1
102
RTVSPropertyOp43
 70
     1
102
RTVSPropertyOp44
 70
     1
102
RTVSPropertyOp45
 70
     1
102
RTVSPropertyOp46
 70
     1
102
RTVSPropertyOp47
 70
     1
102
RTVSPropertyOp48
 70
     1
102
RTVSPropertyOp49
 70
     1
102
RTVSPropertyOp50
 70
     1
102
RTVSPropertyOp51
 70
     0
102
RTVSPropertyOp52
 70
     0
102
RTVSPropertyOp53
 70
     1
102
RTVSPropertyOp54
 70
     1
102
RTVSPropertyOp55
 70
     1
102
RTVSPropertyOp56
 70
     1
102
RTVSPropertyOp57
 70
     1
102
RTVSPost2010Prop28
280
     0
102
RTVSPost2010PropOp28
 70
     1
102
RTVSPost2010Prop29
280
     1
102
RTVSPost2010PropOp29
 70
     1
102
RTVSPost2010Prop30
280
     1
102
RTVSPost2010PropOp30
 70
     1
102
RTVSPost2010Prop31
280
     0
102
RTVSPost2010PropOp31
 70
     1
102
RTVSPost2010Prop32
280
     0
102
RTVSPost2010PropOp32
 70
     1
102
RTVSPost2010Prop33
280
     0
102
RTVSPost2010PropOp33
 70
     1
102
RTVSPost2010Prop34
280
     0
102
RTVSPost2010PropOp34
 70
     1
102
RTVSPost2010Prop35
280
     0
102
RTVSPost2010PropOp35
 70
     1
102
RTVSPost2010Prop36
280
     0
102
RTVSPost2010PropOp36
 70
     1
102
RTVSPost2010Prop37
 90
       50
102
RTVSPost2010PropOp37
 70
     1
102
RTVSPost2010Prop38
140
0.0
102
RTVSPost2010PropOp38
 70
     1
102
RTVSPost2010Prop39
140
1.0
102
RTVSPost2010PropOp39
 70
     1
102
RTVSPost2010Prop40
 90
        0
102
RTVSPost2010PropOp40
 70
     1
102
RTVSPost2010Prop41ColorIndex
 90
       18
102
RTVSPost2010Prop41ColorRGB
 90
        0
102
RTVSPost2010PropOp41
 70
     1
102
RTVSPost2010Prop42
 90
       50
102
RTVSPost2010PropOp42
 70
     1
102
RTVSPost2010Prop43
 90
        3
102
RTVSPost2010PropOp43
 70
     1
102
RTVSPost2010Prop44ColorIndex
 90
        5
102
RTVSPost2010Prop44ColorRGB
 90
      255
102
RTVSPost2010PropOp44
 70
     1
102
RTVSPost2010Prop45
280
     0
102
RTVSPost2010PropOp45
 70
     1
102
RTVSPost2010Prop46
 90
       50
102
RTVSPost2010PropOp46
 70
     1
102
RTVSPost2010Prop47
 90
       50
102
RTVSPost2010PropOp47
 70
     1
102
RTVSPost2010Prop48
 90
       50
102
RTVSPost2010PropOp48
 70
     1
102
RTVSPost2010Prop49
280
     0
102
RTVSPost2010PropOp49
 70
     1
102
RTVSPost2010Prop50
 90
       50
102
RTVSPost2010PropOp50
 70
     1
102
RTVSPost2010Prop51ColorIndex
 90
      256
102
RTVSPost2010Prop51ColorRGB
 90
-16777216
102
RTVSPost2010PropOp51
 70
     0
102
RTVSPost2010Prop52
140
1.0
102
RTVSPost2010PropOp52
 70
     0
102
RTVSPost2010Prop53
 90
        2
102
RTVSPost2010PropOp53
 70
     1
102
RTVSPost2010Prop54
  1
strokes_ogs.tif
102
RTVSPost2010PropOp54
 70
     1
102
RTVSPost2010Prop55
280
     0
102
RTVSPost2010PropOp55
 70
     1
102
RTVSPost2010Prop56
140
1.0
102
RTVSPost2010PropOp56
 70
     1
102
RTVSPost2010Prop57
140
1.0
102
RTVSPost2010PropOp57
 70
     1
  0
XRECORD
  5
470
102
{ACAD_REACTORS
330
46F
102
}
330
46F
100
AcDbXrecord
280
     1
102
RTVSPropertyOp0
 70
     1
102
RTVSPropertyOp1
 70
     1
102
RTVSPropertyOp2
 70
     1
102
RTVSPropertyOp3
 70
     1
102
RTVSPropertyOp4
 70
     1
102
RTVSPropertyOp5
 70
     1
102
RTVSPropertyOp6
 70
     1
102
RTVSPropertyOp7
 70
     1
102
RTVSPropertyOp8
 70
     1
102
RTVSPropertyOp9
 70
     1
102
RTVSPropertyOp10
 70
     1
102
RTVSPropertyOp11
 70
     1
102
RTVSPropertyOp12
 70
     1
102
RTVSPropertyOp13
 70
     1
102
RTVSPropertyOp14
 70
     1
102
RTVSPropertyOp15
 70
     1
102
RTVSPropertyOp16
 70
     1
102
RTVSPropertyOp17
 70
     1
102
RTVSPropertyOp18
 70
     1
102
RTVSPropertyOp19
 70
     1
102
RTVSPropertyOp20
 70
     1
102
RTVSPropertyOp21
 70
     1
102
RTVSPropertyOp22
 70
     1
102
RTVSPropertyOp23
 70
     1
102
RTVSPropertyOp24
 70
     1
102
RTVSPropertyOp25
 70
     1
102
RTVSPropertyOp26
 70
     1
102
RTVSPropertyOp27
 70
     1
102
RTVSPropertyOp28
 70
     1
102
RTVSPropertyOp29
 70
     1
102
RTVSPropertyOp30
 70
     1
102
RTVSPropertyOp31
 70
     1
102
RTVSPropertyOp32
 70
     1
102
RTVSPropertyOp33
 70
     1
102
RTVSPropertyOp34
 70
     1
102
RTVSPropertyOp35
 70
     1
102
RTVSPropertyOp36
 70
     1
102
RTVSPropertyOp37
 70
     1
102
RTVSPropertyOp38
 70
     1
102
RTVSPropertyOp39
 70
     1
102
RTVSPropertyOp40
 70
     1
102
RTVSPropertyOp41
 70
     1
102
RTVSPropertyOp42
 70
     1
102
RTVSPropertyOp43
 70
     1
102
RTVSPropertyOp44
 70
     1
102
RTVSPropertyOp45
 70
     1
102
RTVSPropertyOp46
 70
     1
102
RTVSPropertyOp47
 70
     1
102
RTVSPropertyOp48
 70
     1
102
RTVSPropertyOp49
 70
     1
102
RTVSPropertyOp50
 70
     1
102
RTVSPropertyOp51
 70
     0
102
RTVSPropertyOp52
 70
     0
102
RTVSPropertyOp53
 70
     1
102
RTVSPropertyOp54
 70
     1
102
RTVSPropertyOp55
 70
     1
102
RTVSPropertyOp56
 70
     1
102
RTVSPropertyOp57
 70
     1
102
RTVSPost2010Prop28
280
     0
102
RTVSPost2010PropOp28
 70
     1
102
RTVSPost2010Prop29
280
     1
102
RTVSPost2010PropOp29
 70
     1
102
RTVSPost2010Prop30
280
     1
102
RTVSPost2010PropOp30
 70
     1
102
RTVSPost2010Prop31
280
     0
102
RTVSPost2010PropOp31
 70
     1
102
RTVSPost2010Prop32
280
     0
102
RTVSPost2010PropOp32
 70
     1
102
RTVSPost2010Prop33
280
     0
102
RTVSPost2010PropOp33
 70
     1
102
RTVSPost2010Prop34
280
     0
102
RTVSPost2010PropOp34
 70
     1
102
RTVSPost2010Prop35
280
     0
102
RTVSPost2010PropOp35
 70
     1
102
RTVSPost2010Prop36
280
     0
102
RTVSPost2010PropOp36
 70
     1
102
RTVSPost2010Prop37
 90
       50
102
RTVSPost2010PropOp37
 70
     1
102
RTVSPost2010Prop38
140
0.0
102
RTVSPost2010PropOp38
 70
     1
102
RTVSPost2010Prop39
140
1.0
102
RTVSPost2010PropOp39
 70
     1
102
RTVSPost2010Prop40
 90
        0
102
RTVSPost2010PropOp40
 70
     1
102
RTVSPost2010Prop41ColorIndex
 90
       18
102
RTVSPost2010Prop41ColorRGB
 90
        0
102
RTVSPost2010PropOp41
 70
     1
102
RTVSPost2010Prop42
 90
       50
102
RTVSPost2010PropOp42
 70
     1
102
RTVSPost2010Prop43
 90
        3
102
RTVSPost2010PropOp43
 70
     1
102
RTVSPost2010Prop44ColorIndex
 90
        5
102
RTVSPost2010Prop44ColorRGB
 90
      255
102
RTVSPost2010PropOp44
 70
     1
102
RTVSPost2010Prop45
280
     0
102
RTVSPost2010PropOp45
 70
     1
102
RTVSPost2010Prop46
 90
       50
102
RTVSPost2010PropOp46
 70
     1
102
RTVSPost2010Prop47
 90
       50
102
RTVSPost2010PropOp47
 70
     1
102
RTVSPost2010Prop48
 90
       50
102
RTVSPost2010PropOp48
 70
     1
102
RTVSPost2010Prop49
280
     0
102
RTVSPost2010PropOp49
 70
     1
102
RTVSPost2010Prop50
 90
       50
102
RTVSPost2010PropOp50
 70
     1
102
RTVSPost2010Prop51ColorIndex
 90
      256
102
RTVSPost2010Prop51ColorRGB
 90
-16777216
102
RTVSPost2010PropOp51
 70
     0
102
RTVSPost2010Prop52
140
1.0
102
RTVSPost2010PropOp52
 70
     0
102
RTVSPost2010Prop53
 90
        2
102
RTVSPost2010PropOp53
 70
     1
102
RTVSPost2010Prop54
  1
strokes_ogs.tif
102
RTVSPost2010PropOp54
 70
     1
102
RTVSPost2010Prop55
280
     0
102
RTVSPost2010PropOp55
 70
     1
102
RTVSPost2010Prop56
140
1.0
102
RTVSPost2010PropOp56
 70
     1
102
RTVSPost2010Prop57
140
1.0
102
RTVSPost2010PropOp57
 70
     1
  0
XRECORD
  5
472
102
{ACAD_REACTORS
330
471
102
}
330
471
100
AcDbXrecord
280
     1
102
RTVSPropertyOp0
 70
     1
102
RTVSPropertyOp1
 70
     1
102
RTVSPropertyOp2
 70
     1
102
RTVSPropertyOp3
 70
     1
102
RTVSPropertyOp4
 70
     1
102
RTVSPropertyOp5
 70
     1
102
RTVSPropertyOp6
 70
     1
102
RTVSPropertyOp7
 70
     1
102
RTVSPropertyOp8
 70
     1
102
RTVSPropertyOp9
 70
     1
102
RTVSPropertyOp10
 70
     1
102
RTVSPropertyOp11
 70
     1
102
RTVSPropertyOp12
 70
     1
102
RTVSPropertyOp13
 70
     1
102
RTVSPropertyOp14
 70
     1
102
RTVSPropertyOp15
 70
     1
102
RTVSPropertyOp16
 70
     1
102
RTVSPropertyOp17
 70
     1
102
RTVSPropertyOp18
 70
     1
102
RTVSPropertyOp19
 70
     1
102
RTVSPropertyOp20
 70
     1
102
RTVSPropertyOp21
 70
     1
102
RTVSPropertyOp22
 70
     1
102
RTVSPropertyOp23
 70
     1
102
RTVSPropertyOp24
 70
     1
102
RTVSPropertyOp25
 70
     1
102
RTVSPropertyOp26
 70
     1
102
RTVSPropertyOp27
 70
     1
102
RTVSPropertyOp28
 70
     1
102
RTVSPropertyOp29
 70
     1
102
RTVSPropertyOp30
 70
     1
102
RTVSPropertyOp31
 70
     1
102
RTVSPropertyOp32
 70
     1
102
RTVSPropertyOp33
 70
     1
102
RTVSPropertyOp34
 70
     1
102
RTVSPropertyOp35
 70
     1
102
RTVSPropertyOp36
 70
     1
102
RTVSPropertyOp37
 70
     1
102
RTVSPropertyOp38
 70
     1
102
RTVSPropertyOp39
 70
     1
102
RTVSPropertyOp40
 70
     1
102
RTVSPropertyOp41
 70
     1
102
RTVSPropertyOp42
 70
     1
102
RTVSPropertyOp43
 70
     1
102
RTVSPropertyOp44
 70
     1
102
RTVSPropertyOp45
 70
     1
102
RTVSPropertyOp46
 70
     1
102
RTVSPropertyOp47
 70
     1
102
RTVSPropertyOp48
 70
     1
102
RTVSPropertyOp49
 70
     1
102
RTVSPropertyOp50
 70
     1
102
RTVSPropertyOp51
 70
     0
102
RTVSPropertyOp52
 70
     0
102
RTVSPropertyOp53
 70
     1
102
RTVSPropertyOp54
 70
     1
102
RTVSPropertyOp55
 70
     1
102
RTVSPropertyOp56
 70
     1
102
RTVSPropertyOp57
 70
     1
102
RTVSPost2010Prop28
280
     0
102
RTVSPost2010PropOp28
 70
     1
102
RTVSPost2010Prop29
280
     1
102
RTVSPost2010PropOp29
 70
     1
102
RTVSPost2010Prop30
280
     1
102
RTVSPost2010PropOp30
 70
     1
102
RTVSPost2010Prop31
280
     0
102
RTVSPost2010PropOp31
 70
     1
102
RTVSPost2010Prop32
280
     0
102
RTVSPost2010PropOp32
 70
     1
102
RTVSPost2010Prop33
280
     0
102
RTVSPost2010PropOp33
 70
     1
102
RTVSPost2010Prop34
280
     0
102
RTVSPost2010PropOp34
 70
     1
102
RTVSPost2010Prop35
280
     0
102
RTVSPost2010PropOp35
 70
     1
102
RTVSPost2010Prop36
280
     0
102
RTVSPost2010PropOp36
 70
     1
102
RTVSPost2010Prop37
 90
       50
102
RTVSPost2010PropOp37
 70
     1
102
RTVSPost2010Prop38
140
0.0
102
RTVSPost2010PropOp38
 70
     1
102
RTVSPost2010Prop39
140
1.0
102
RTVSPost2010PropOp39
 70
     1
102
RTVSPost2010Prop40
 90
        0
102
RTVSPost2010PropOp40
 70
     1
102
RTVSPost2010Prop41ColorIndex
 90
       18
102
RTVSPost2010Prop41ColorRGB
 90
        0
102
RTVSPost2010PropOp41
 70
     1
102
RTVSPost2010Prop42
 90
       50
102
RTVSPost2010PropOp42
 70
     1
102
RTVSPost2010Prop43
 90
        3
102
RTVSPost2010PropOp43
 70
     1
102
RTVSPost2010Prop44ColorIndex
 90
        5
102
RTVSPost2010Prop44ColorRGB
 90
      255
102
RTVSPost2010PropOp44
 70
     1
102
RTVSPost2010Prop45
280
     0
102
RTVSPost2010PropOp45
 70
     1
102
RTVSPost2010Prop46
 90
       50
102
RTVSPost2010PropOp46
 70
     1
102
RTVSPost2010Prop47
 90
       50
102
RTVSPost2010PropOp47
 70
     1
102
RTVSPost2010Prop48
 90
       50
102
RTVSPost2010PropOp48
 70
     1
102
RTVSPost2010Prop49
280
     0
102
RTVSPost2010PropOp49
 70
     1
102
RTVSPost2010Prop50
 90
       50
102
RTVSPost2010PropOp50
 70
     1
102
RTVSPost2010Prop51ColorIndex
 90
      256
102
RTVSPost2010Prop51ColorRGB
 90
-16777216
102
RTVSPost2010PropOp51
 70
     0
102
RTVSPost2010Prop52
140
1.0
102
RTVSPost2010PropOp52
 70
     0
102
RTVSPost2010Prop53
 90
        2
102
RTVSPost2010PropOp53
 70
     1
102
RTVSPost2010Prop54
  1
strokes_ogs.tif
102
RTVSPost2010PropOp54
 70
     1
102
RTVSPost2010Prop55
280
     0
102
RTVSPost2010PropOp55
 70
     1
102
RTVSPost2010Prop56
140
1.0
102
RTVSPost2010PropOp56
 70
     1
102
RTVSPost2010Prop57
140
1.0
102
RTVSPost2010PropOp57
 70
     1
  0
XRECORD
  5
486
102
{ACAD_REACTORS
330
485
102
}
330
485
100
AcDbXrecord
280
     1
102
RTVSPropertyOp0
 70
     0
102
RTVSPropertyOp1
 70
     0
102
RTVSPropertyOp2
 70
     0
102
RTVSPropertyOp3
 70
     0
102
RTVSPropertyOp4
 70
     0
102
RTVSPropertyOp5
 70
     0
102
RTVSPropertyOp6
 70
     0
102
RTVSPropertyOp7
 70
     0
102
RTVSPropertyOp8
 70
     0
102
RTVSPropertyOp9
 70
     0
102
RTVSPropertyOp10
 70
     0
102
RTVSPropertyOp11
 70
     0
102
RTVSPropertyOp12
 70
     0
102
RTVSPropertyOp13
 70
     0
102
RTVSPropertyOp14
 70
     2
102
RTVSPropertyOp15
 70
     0
102
RTVSPropertyOp16
 70
     0
102
RTVSPropertyOp17
 70
     0
102
RTVSPropertyOp18
 70
     0
102
RTVSPropertyOp19
 70
     0
102
RTVSPropertyOp20
 70
     0
102
RTVSPropertyOp21
 70
     0
102
RTVSPropertyOp22
 70
     0
102
RTVSPropertyOp23
 70
     0
102
RTVSPropertyOp24
 70
     0
102
RTVSPropertyOp25
 70
     0
102
RTVSPropertyOp26
 70
     0
102
RTVSPropertyOp27
 70
     0
102
RTVSPropertyOp28
 70
     0
102
RTVSPropertyOp29
 70
     0
102
RTVSPropertyOp30
 70
     0
102
RTVSPropertyOp31
 70
     0
102
RTVSPropertyOp32
 70
     0
102
RTVSPropertyOp33
 70
     0
102
RTVSPropertyOp34
 70
     0
102
RTVSPropertyOp35
 70
     0
102
RTVSPropertyOp36
 70
     0
102
RTVSPropertyOp37
 70
     0
102
RTVSPropertyOp38
 70
     0
102
RTVSPropertyOp39
 70
     0
102
RTVSPropertyOp40
 70
     0
102
RTVSPropertyOp41
 70
     0
102
RTVSPropertyOp42
 70
     0
102
RTVSPropertyOp43
 70
     0
102
RTVSPropertyOp44
 70
     0
102
RTVSPropertyOp45
 70
     0
102
RTVSPropertyOp46
 70
     0
102
RTVSPropertyOp47
 70
     0
102
RTVSPropertyOp48
 70
     0
102
RTVSPropertyOp49
 70
     0
102
RTVSPropertyOp50
 70
     0
102
RTVSPropertyOp51
 70
     0
102
RTVSPropertyOp52
 70
     0
102
RTVSPropertyOp53
 70
     0
102
RTVSPropertyOp54
 70
     0
102
RTVSPropertyOp55
 70
     0
102
RTVSPropertyOp56
 70
     0
102
RTVSPropertyOp57
 70
     0
102
RTVSPost2010Prop28
280
     0
102
RTVSPost2010PropOp28
 70
     0
102
RTVSPost2010Prop29
280
     1
102
RTVSPost2010PropOp29
 70
     0
102
RTVSPost2010Prop30
280
     1
102
RTVSPost2010PropOp30
 70
     0
102
RTVSPost2010Prop31
280
     0
102
RTVSPost2010PropOp31
 70
     0
102
RTVSPost2010Prop32
280
     0
102
RTVSPost2010PropOp32
 70
     0
102
RTVSPost2010Prop33
280
     0
102
RTVSPost2010PropOp33
 70
     0
102
RTVSPost2010Prop34
280
     0
102
RTVSPost2010PropOp34
 70
     0
102
RTVSPost2010Prop35
280
     0
102
RTVSPost2010PropOp35
 70
     0
102
RTVSPost2010Prop36
280
     0
102
RTVSPost2010PropOp36
 70
     0
102
RTVSPost2010Prop37
 90
       50
102
RTVSPost2010PropOp37
 70
     0
102
RTVSPost2010Prop38
140
0.0
102
RTVSPost2010PropOp38
 70
     0
102
RTVSPost2010Prop39
140
1.0
102
RTVSPost2010PropOp39
 70
     0
102
RTVSPost2010Prop40
 90
        0
102
RTVSPost2010PropOp40
 70
     0
102
RTVSPost2010Prop41ColorIndex
 90
       18
102
RTVSPost2010Prop41ColorRGB
 90
        0
102
RTVSPost2010PropOp41
 70
     0
102
RTVSPost2010Prop42
 90
       50
102
RTVSPost2010PropOp42
 70
     0
102
RTVSPost2010Prop43
 90
        3
102
RTVSPost2010PropOp43
 70
     0
102
RTVSPost2010Prop44ColorIndex
 90
        5
102
RTVSPost2010Prop44ColorRGB
 90
      255
102
RTVSPost2010PropOp44
 70
     0
102
RTVSPost2010Prop45
280
     0
102
RTVSPost2010PropOp45
 70
     0
102
RTVSPost2010Prop46
 90
       50
102
RTVSPost2010PropOp46
 70
     0
102
RTVSPost2010Prop47
 90
       50
102
RTVSPost2010PropOp47
 70
     0
102
RTVSPost2010Prop48
 90
       50
102
RTVSPost2010PropOp48
 70
     0
102
RTVSPost2010Prop49
280
     0
102
RTVSPost2010PropOp49
 70
     0
102
RTVSPost2010Prop50
 90
       50
102
RTVSPost2010PropOp50
 70
     0
102
RTVSPost2010Prop51ColorIndex
 90
      256
102
RTVSPost2010Prop51ColorRGB
 90
-16777216
102
RTVSPost2010PropOp51
 70
     0
102
RTVSPost2010Prop52
140
1.0
102
RTVSPost2010PropOp52
 70
     0
102
RTVSPost2010Prop53
 90
        2
102
RTVSPost2010PropOp53
 70
     0
102
RTVSPost2010Prop54
  1
strokes_ogs.tif
102
RTVSPost2010PropOp54
 70
     0
102
RTVSPost2010Prop55
280
     0
102
RTVSPost2010PropOp55
 70
     0
102
RTVSPost2010Prop56
140
1.0
102
RTVSPost2010PropOp56
 70
     0
102
RTVSPost2010Prop57
140
1.0
102
RTVSPost2010PropOp57
 70
     0
  0
XRECORD
  5
47A
102
{ACAD_REACTORS
330
479
102
}
330
479
100
AcDbXrecord
280
     1
102
RTVSPropertyOp0
 70
     1
102
RTVSPropertyOp1
 70
     1
102
RTVSPropertyOp2
 70
     1
102
RTVSPropertyOp3
 70
     1
102
RTVSPropertyOp4
 70
     1
102
RTVSPropertyOp5
 70
     1
102
RTVSPropertyOp6
 70
     1
102
RTVSPropertyOp7
 70
     1
102
RTVSPropertyOp8
 70
     1
102
RTVSPropertyOp9
 70
     1
102
RTVSPropertyOp10
 70
     1
102
RTVSPropertyOp11
 70
     1
102
RTVSPropertyOp12
 70
     1
102
RTVSPropertyOp13
 70
     1
102
RTVSPropertyOp14
 70
     1
102
RTVSPropertyOp15
 70
     1
102
RTVSPropertyOp16
 70
     1
102
RTVSPropertyOp17
 70
     1
102
RTVSPropertyOp18
 70
     1
102
RTVSPropertyOp19
 70
     1
102
RTVSPropertyOp20
 70
     1
102
RTVSPropertyOp21
 70
     1
102
RTVSPropertyOp22
 70
     1
102
RTVSPropertyOp23
 70
     1
102
RTVSPropertyOp24
 70
     1
102
RTVSPropertyOp25
 70
     1
102
RTVSPropertyOp26
 70
     1
102
RTVSPropertyOp27
 70
     1
102
RTVSPropertyOp28
 70
     1
102
RTVSPropertyOp29
 70
     1
102
RTVSPropertyOp30
 70
     1
102
RTVSPropertyOp31
 70
     1
102
RTVSPropertyOp32
 70
     1
102
RTVSPropertyOp33
 70
     1
102
RTVSPropertyOp34
 70
     1
102
RTVSPropertyOp35
 70
     1
102
RTVSPropertyOp36
 70
     1
102
RTVSPropertyOp37
 70
     1
102
RTVSPropertyOp38
 70
     1
102
RTVSPropertyOp39
 70
     1
102
RTVSPropertyOp40
 70
     1
102
RTVSPropertyOp41
 70
     1
102
RTVSPropertyOp42
 70
     1
102
RTVSPropertyOp43
 70
     1
102
RTVSPropertyOp44
 70
     1
102
RTVSPropertyOp45
 70
     1
102
RTVSPropertyOp46
 70
     1
102
RTVSPropertyOp47
 70
     1
102
RTVSPropertyOp48
 70
     1
102
RTVSPropertyOp49
 70
     1
102
RTVSPropertyOp50
 70
     1
102
RTVSPropertyOp51
 70
     0
102
RTVSPropertyOp52
 70
     0
102
RTVSPropertyOp53
 70
     1
102
RTVSPropertyOp54
 70
     1
102
RTVSPropertyOp55
 70
     1
102
RTVSPropertyOp56
 70
     1
102
RTVSPropertyOp57
 70
     1
102
RTVSPost2010Prop28
280
     0
102
RTVSPost2010PropOp28
 70
     1
102
RTVSPost2010Prop29
280
     1
102
RTVSPost2010PropOp29
 70
     1
102
RTVSPost2010Prop30
280
     1
102
RTVSPost2010PropOp30
 70
     1
102
RTVSPost2010Prop31
280
     0
102
RTVSPost2010PropOp31
 70
     1
102
RTVSPost2010Prop32
280
     0
102
RTVSPost2010PropOp32
 70
     1
102
RTVSPost2010Prop33
280
     0
102
RTVSPost2010PropOp33
 70
     1
102
RTVSPost2010Prop34
280
     0
102
RTVSPost2010PropOp34
 70
     1
102
RTVSPost2010Prop35
280
     0
102
RTVSPost2010PropOp35
 70
     1
102
RTVSPost2010Prop36
280
     0
102
RTVSPost2010PropOp36
 70
     1
102
RTVSPost2010Prop37
 90
       50
102
RTVSPost2010PropOp37
 70
     1
102
RTVSPost2010Prop38
140
0.0
102
RTVSPost2010PropOp38
 70
     1
102
RTVSPost2010Prop39
140
1.0
102
RTVSPost2010PropOp39
 70
     1
102
RTVSPost2010Prop40
 90
        0
102
RTVSPost2010PropOp40
 70
     1
102
RTVSPost2010Prop41ColorIndex
 90
       18
102
RTVSPost2010Prop41ColorRGB
 90
        0
102
RTVSPost2010PropOp41
 70
     1
102
RTVSPost2010Prop42
 90
       50
102
RTVSPost2010PropOp42
 70
     1
102
RTVSPost2010Prop43
 90
        3
102
RTVSPost2010PropOp43
 70
     1
102
RTVSPost2010Prop44ColorIndex
 90
        5
102
RTVSPost2010Prop44ColorRGB
 90
      255
102
RTVSPost2010PropOp44
 70
     1
102
RTVSPost2010Prop45
280
     0
102
RTVSPost2010PropOp45
 70
     1
102
RTVSPost2010Prop46
 90
       50
102
RTVSPost2010PropOp46
 70
     1
102
RTVSPost2010Prop47
 90
       50
102
RTVSPost2010PropOp47
 70
     1
102
RTVSPost2010Prop48
 90
       50
102
RTVSPost2010PropOp48
 70
     1
102
RTVSPost2010Prop49
280
     0
102
RTVSPost2010PropOp49
 70
     1
102
RTVSPost2010Prop50
 90
       50
102
RTVSPost2010PropOp50
 70
     1
102
RTVSPost2010Prop51ColorIndex
 90
      256
102
RTVSPost2010Prop51ColorRGB
 90
-16777216
102
RTVSPost2010PropOp51
 70
     0
102
RTVSPost2010Prop52
140
1.0
102
RTVSPost2010PropOp52
 70
     0
102
RTVSPost2010Prop53
 90
        2
102
RTVSPost2010PropOp53
 70
     1
102
RTVSPost2010Prop54
  1
strokes_ogs.tif
102
RTVSPost2010PropOp54
 70
     1
102
RTVSPost2010Prop55
280
     0
102
RTVSPost2010PropOp55
 70
     1
102
RTVSPost2010Prop56
140
1.0
102
RTVSPost2010PropOp56
 70
     1
102
RTVSPost2010Prop57
140
1.0
102
RTVSPost2010PropOp57
 70
     1
  0
XRECORD
  5
45E
102
{ACAD_REACTORS
330
45D
102
}
330
45D
100
AcDbXrecord
280
     1
102
RTVSPropertyOp0
 70
     1
102
RTVSPropertyOp1
 70
     1
102
RTVSPropertyOp2
 70
     1
102
RTVSPropertyOp3
 70
     1
102
RTVSPropertyOp4
 70
     1
102
RTVSPropertyOp5
 70
     1
102
RTVSPropertyOp6
 70
     1
102
RTVSPropertyOp7
 70
     1
102
RTVSPropertyOp8
 70
     1
102
RTVSPropertyOp9
 70
     1
102
RTVSPropertyOp10
 70
     1
102
RTVSPropertyOp11
 70
     1
102
RTVSPropertyOp12
 70
     1
102
RTVSPropertyOp13
 70
     1
102
RTVSPropertyOp14
 70
     1
102
RTVSPropertyOp15
 70
     1
102
RTVSPropertyOp16
 70
     1
102
RTVSPropertyOp17
 70
     1
102
RTVSPropertyOp18
 70
     1
102
RTVSPropertyOp19
 70
     1
102
RTVSPropertyOp20
 70
     1
102
RTVSPropertyOp21
 70
     1
102
RTVSPropertyOp22
 70
     1
102
RTVSPropertyOp23
 70
     1
102
RTVSPropertyOp24
 70
     1
102
RTVSPropertyOp25
 70
     1
102
RTVSPropertyOp26
 70
     1
102
RTVSPropertyOp27
 70
     1
102
RTVSPropertyOp28
 70
     1
102
RTVSPropertyOp29
 70
     1
102
RTVSPropertyOp30
 70
     1
102
RTVSPropertyOp31
 70
     1
102
RTVSPropertyOp32
 70
     1
102
RTVSPropertyOp33
 70
     1
102
RTVSPropertyOp34
 70
     1
102
RTVSPropertyOp35
 70
     1
102
RTVSPropertyOp36
 70
     1
102
RTVSPropertyOp37
 70
     1
102
RTVSPropertyOp38
 70
     1
102
RTVSPropertyOp39
 70
     1
102
RTVSPropertyOp40
 70
     1
102
RTVSPropertyOp41
 70
     1
102
RTVSPropertyOp42
 70
     1
102
RTVSPropertyOp43
 70
     1
102
RTVSPropertyOp44
 70
     1
102
RTVSPropertyOp45
 70
     1
102
RTVSPropertyOp46
 70
     1
102
RTVSPropertyOp47
 70
     1
102
RTVSPropertyOp48
 70
     1
102
RTVSPropertyOp49
 70
     1
102
RTVSPropertyOp50
 70
     1
102
RTVSPropertyOp51
 70
     0
102
RTVSPropertyOp52
 70
     0
102
RTVSPropertyOp53
 70
     1
102
RTVSPropertyOp54
 70
     1
102
RTVSPropertyOp55
 70
     1
102
RTVSPropertyOp56
 70
     1
102
RTVSPropertyOp57
 70
     1
102
RTVSPost2010Prop28
280
     0
102
RTVSPost2010PropOp28
 70
     1
102
RTVSPost2010Prop29
280
     1
102
RTVSPost2010PropOp29
 70
     1
102
RTVSPost2010Prop30
280
     1
102
RTVSPost2010PropOp30
 70
     1
102
RTVSPost2010Prop31
280
     0
102
RTVSPost2010PropOp31
 70
     1
102
RTVSPost2010Prop32
280
     0
102
RTVSPost2010PropOp32
 70
     1
102
RTVSPost2010Prop33
280
     0
102
RTVSPost2010PropOp33
 70
     1
102
RTVSPost2010Prop34
280
     0
102
RTVSPost2010PropOp34
 70
     1
102
RTVSPost2010Prop35
280
     0
102
RTVSPost2010PropOp35
 70
     1
102
RTVSPost2010Prop36
280
     0
102
RTVSPost2010PropOp36
 70
     1
102
RTVSPost2010Prop37
 90
       50
102
RTVSPost2010PropOp37
 70
     1
102
RTVSPost2010Prop38
140
0.0
102
RTVSPost2010PropOp38
 70
     1
102
RTVSPost2010Prop39
140
1.0
102
RTVSPost2010PropOp39
 70
     1
102
RTVSPost2010Prop40
 90
        0
102
RTVSPost2010PropOp40
 70
     1
102
RTVSPost2010Prop41ColorIndex
 90
       18
102
RTVSPost2010Prop41ColorRGB
 90
        0
102
RTVSPost2010PropOp41
 70
     1
102
RTVSPost2010Prop42
 90
       50
102
RTVSPost2010PropOp42
 70
     1
102
RTVSPost2010Prop43
 90
        3
102
RTVSPost2010PropOp43
 70
     1
102
RTVSPost2010Prop44ColorIndex
 90
        5
102
RTVSPost2010Prop44ColorRGB
 90
      255
102
RTVSPost2010PropOp44
 70
     1
102
RTVSPost2010Prop45
280
     0
102
RTVSPost2010PropOp45
 70
     1
102
RTVSPost2010Prop46
 90
       50
102
RTVSPost2010PropOp46
 70
     1
102
RTVSPost2010Prop47
 90
       50
102
RTVSPost2010PropOp47
 70
     1
102
RTVSPost2010Prop48
 90
       50
102
RTVSPost2010PropOp48
 70
     1
102
RTVSPost2010Prop49
280
     0
102
RTVSPost2010PropOp49
 70
     1
102
RTVSPost2010Prop50
 90
       50
102
RTVSPost2010PropOp50
 70
     1
102
RTVSPost2010Prop51ColorIndex
 90
      256
102
RTVSPost2010Prop51ColorRGB
 90
-16777216
102
RTVSPost2010PropOp51
 70
     0
102
RTVSPost2010Prop52
140
1.0
102
RTVSPost2010PropOp52
 70
     0
102
RTVSPost2010Prop53
 90
        2
102
RTVSPost2010PropOp53
 70
     1
102
RTVSPost2010Prop54
  1
strokes_ogs.tif
102
RTVSPost2010PropOp54
 70
     1
102
RTVSPost2010Prop55
280
     0
102
RTVSPost2010PropOp55
 70
     1
102
RTVSPost2010Prop56
140
1.0
102
RTVSPost2010PropOp56
 70
     1
102
RTVSPost2010Prop57
140
1.0
102
RTVSPost2010PropOp57
 70
     1
  0
XRECORD
  5
460
102
{ACAD_REACTORS
330
45F
102
}
330
45F
100
AcDbXrecord
280
     1
102
RTVSPropertyOp0
 70
     1
102
RTVSPropertyOp1
 70
     1
102
RTVSPropertyOp2
 70
     1
102
RTVSPropertyOp3
 70
     1
102
RTVSPropertyOp4
 70
     1
102
RTVSPropertyOp5
 70
     1
102
RTVSPropertyOp6
 70
     1
102
RTVSPropertyOp7
 70
     1
102
RTVSPropertyOp8
 70
     1
102
RTVSPropertyOp9
 70
     1
102
RTVSPropertyOp10
 70
     1
102
RTVSPropertyOp11
 70
     1
102
RTVSPropertyOp12
 70
     1
102
RTVSPropertyOp13
 70
     1
102
RTVSPropertyOp14
 70
     1
102
RTVSPropertyOp15
 70
     1
102
RTVSPropertyOp16
 70
     1
102
RTVSPropertyOp17
 70
     1
102
RTVSPropertyOp18
 70
     1
102
RTVSPropertyOp19
 70
     1
102
RTVSPropertyOp20
 70
     1
102
RTVSPropertyOp21
 70
     1
102
RTVSPropertyOp22
 70
     1
102
RTVSPropertyOp23
 70
     1
102
RTVSPropertyOp24
 70
     1
102
RTVSPropertyOp25
 70
     1
102
RTVSPropertyOp26
 70
     1
102
RTVSPropertyOp27
 70
     1
102
RTVSPropertyOp28
 70
     1
102
RTVSPropertyOp29
 70
     1
102
RTVSPropertyOp30
 70
     1
102
RTVSPropertyOp31
 70
     1
102
RTVSPropertyOp32
 70
     1
102
RTVSPropertyOp33
 70
     1
102
RTVSPropertyOp34
 70
     1
102
RTVSPropertyOp35
 70
     1
102
RTVSPropertyOp36
 70
     1
102
RTVSPropertyOp37
 70
     1
102
RTVSPropertyOp38
 70
     1
102
RTVSPropertyOp39
 70
     1
102
RTVSPropertyOp40
 70
     1
102
RTVSPropertyOp41
 70
     1
102
RTVSPropertyOp42
 70
     1
102
RTVSPropertyOp43
 70
     1
102
RTVSPropertyOp44
 70
     1
102
RTVSPropertyOp45
 70
     1
102
RTVSPropertyOp46
 70
     1
102
RTVSPropertyOp47
 70
     1
102
RTVSPropertyOp48
 70
     1
102
RTVSPropertyOp49
 70
     1
102
RTVSPropertyOp50
 70
     1
102
RTVSPropertyOp51
 70
     0
102
RTVSPropertyOp52
 70
     0
102
RTVSPropertyOp53
 70
     1
102
RTVSPropertyOp54
 70
     1
102
RTVSPropertyOp55
 70
     1
102
RTVSPropertyOp56
 70
     1
102
RTVSPropertyOp57
 70
     1
102
RTVSPost2010Prop28
280
     0
102
RTVSPost2010PropOp28
 70
     1
102
RTVSPost2010Prop29
280
     1
102
RTVSPost2010PropOp29
 70
     1
102
RTVSPost2010Prop30
280
     1
102
RTVSPost2010PropOp30
 70
     1
102
RTVSPost2010Prop31
280
     0
102
RTVSPost2010PropOp31
 70
     1
102
RTVSPost2010Prop32
280
     0
102
RTVSPost2010PropOp32
 70
     1
102
RTVSPost2010Prop33
280
     0
102
RTVSPost2010PropOp33
 70
     1
102
RTVSPost2010Prop34
280
     0
102
RTVSPost2010PropOp34
 70
     1
102
RTVSPost2010Prop35
280
     0
102
RTVSPost2010PropOp35
 70
     1
102
RTVSPost2010Prop36
280
     0
102
RTVSPost2010PropOp36
 70
     1
102
RTVSPost2010Prop37
 90
       50
102
RTVSPost2010PropOp37
 70
     1
102
RTVSPost2010Prop38
140
0.0
102
RTVSPost2010PropOp38
 70
     1
102
RTVSPost2010Prop39
140
1.0
102
RTVSPost2010PropOp39
 70
     1
102
RTVSPost2010Prop40
 90
        0
102
RTVSPost2010PropOp40
 70
     1
102
RTVSPost2010Prop41ColorIndex
 90
       18
102
RTVSPost2010Prop41ColorRGB
 90
        0
102
RTVSPost2010PropOp41
 70
     1
102
RTVSPost2010Prop42
 90
       50
102
RTVSPost2010PropOp42
 70
     1
102
RTVSPost2010Prop43
 90
        3
102
RTVSPost2010PropOp43
 70
     1
102
RTVSPost2010Prop44ColorIndex
 90
        5
102
RTVSPost2010Prop44ColorRGB
 90
      255
102
RTVSPost2010PropOp44
 70
     1
102
RTVSPost2010Prop45
280
     0
102
RTVSPost2010PropOp45
 70
     1
102
RTVSPost2010Prop46
 90
       50
102
RTVSPost2010PropOp46
 70
     1
102
RTVSPost2010Prop47
 90
       50
102
RTVSPost2010PropOp47
 70
     1
102
RTVSPost2010Prop48
 90
       50
102
RTVSPost2010PropOp48
 70
     1
102
RTVSPost2010Prop49
280
     0
102
RTVSPost2010PropOp49
 70
     1
102
RTVSPost2010Prop50
 90
       50
102
RTVSPost2010PropOp50
 70
     1
102
RTVSPost2010Prop51ColorIndex
 90
      256
102
RTVSPost2010Prop51ColorRGB
 90
-16777216
102
RTVSPost2010PropOp51
 70
     0
102
RTVSPost2010Prop52
140
1.0
102
RTVSPost2010PropOp52
 70
     0
102
RTVSPost2010Prop53
 90
        2
102
RTVSPost2010PropOp53
 70
     1
102
RTVSPost2010Prop54
  1
strokes_ogs.tif
102
RTVSPost2010PropOp54
 70
     1
102
RTVSPost2010Prop55
280
     0
102
RTVSPost2010PropOp55
 70
     1
102
RTVSPost2010Prop56
140
1.0
102
RTVSPost2010PropOp56
 70
     1
102
RTVSPost2010Prop57
140
1.0
102
RTVSPost2010PropOp57
 70
     1
  0
XRECORD
  5
462
102
{ACAD_REACTORS
330
461
102
}
330
461
100
AcDbXrecord
280
     1
102
RTVSPropertyOp0
 70
     1
102
RTVSPropertyOp1
 70
     1
102
RTVSPropertyOp2
 70
     1
102
RTVSPropertyOp3
 70
     1
102
RTVSPropertyOp4
 70
     1
102
RTVSPropertyOp5
 70
     1
102
RTVSPropertyOp6
 70
     1
102
RTVSPropertyOp7
 70
     1
102
RTVSPropertyOp8
 70
     1
102
RTVSPropertyOp9
 70
     1
102
RTVSPropertyOp10
 70
     1
102
RTVSPropertyOp11
 70
     1
102
RTVSPropertyOp12
 70
     1
102
RTVSPropertyOp13
 70
     1
102
RTVSPropertyOp14
 70
     1
102
RTVSPropertyOp15
 70
     1
102
RTVSPropertyOp16
 70
     1
102
RTVSPropertyOp17
 70
     1
102
RTVSPropertyOp18
 70
     1
102
RTVSPropertyOp19
 70
     1
102
RTVSPropertyOp20
 70
     1
102
RTVSPropertyOp21
 70
     1
102
RTVSPropertyOp22
 70
     1
102
RTVSPropertyOp23
 70
     1
102
RTVSPropertyOp24
 70
     1
102
RTVSPropertyOp25
 70
     1
102
RTVSPropertyOp26
 70
     1
102
RTVSPropertyOp27
 70
     1
102
RTVSPropertyOp28
 70
     1
102
RTVSPropertyOp29
 70
     1
102
RTVSPropertyOp30
 70
     1
102
RTVSPropertyOp31
 70
     1
102
RTVSPropertyOp32
 70
     1
102
RTVSPropertyOp33
 70
     1
102
RTVSPropertyOp34
 70
     1
102
RTVSPropertyOp35
 70
     1
102
RTVSPropertyOp36
 70
     1
102
RTVSPropertyOp37
 70
     1
102
RTVSPropertyOp38
 70
     1
102
RTVSPropertyOp39
 70
     1
102
RTVSPropertyOp40
 70
     1
102
RTVSPropertyOp41
 70
     1
102
RTVSPropertyOp42
 70
     1
102
RTVSPropertyOp43
 70
     1
102
RTVSPropertyOp44
 70
     1
102
RTVSPropertyOp45
 70
     1
102
RTVSPropertyOp46
 70
     1
102
RTVSPropertyOp47
 70
     1
102
RTVSPropertyOp48
 70
     1
102
RTVSPropertyOp49
 70
     1
102
RTVSPropertyOp50
 70
     1
102
RTVSPropertyOp51
 70
     0
102
RTVSPropertyOp52
 70
     0
102
RTVSPropertyOp53
 70
     1
102
RTVSPropertyOp54
 70
     1
102
RTVSPropertyOp55
 70
     1
102
RTVSPropertyOp56
 70
     1
102
RTVSPropertyOp57
 70
     1
102
RTVSPost2010Prop28
280
     0
102
RTVSPost2010PropOp28
 70
     1
102
RTVSPost2010Prop29
280
     1
102
RTVSPost2010PropOp29
 70
     1
102
RTVSPost2010Prop30
280
     1
102
RTVSPost2010PropOp30
 70
     1
102
RTVSPost2010Prop31
280
     0
102
RTVSPost2010PropOp31
 70
     1
102
RTVSPost2010Prop32
280
     0
102
RTVSPost2010PropOp32
 70
     1
102
RTVSPost2010Prop33
280
     0
102
RTVSPost2010PropOp33
 70
     1
102
RTVSPost2010Prop34
280
     0
102
RTVSPost2010PropOp34
 70
     1
102
RTVSPost2010Prop35
280
     0
102
RTVSPost2010PropOp35
 70
     1
102
RTVSPost2010Prop36
280
     0
102
RTVSPost2010PropOp36
 70
     1
102
RTVSPost2010Prop37
 90
       50
102
RTVSPost2010PropOp37
 70
     1
102
RTVSPost2010Prop38
140
0.0
102
RTVSPost2010PropOp38
 70
     1
102
RTVSPost2010Prop39
140
1.0
102
RTVSPost2010PropOp39
 70
     1
102
RTVSPost2010Prop40
 90
        0
102
RTVSPost2010PropOp40
 70
     1
102
RTVSPost2010Prop41ColorIndex
 90
       18
102
RTVSPost2010Prop41ColorRGB
 90
        0
102
RTVSPost2010PropOp41
 70
     1
102
RTVSPost2010Prop42
 90
       50
102
RTVSPost2010PropOp42
 70
     1
102
RTVSPost2010Prop43
 90
        3
102
RTVSPost2010PropOp43
 70
     1
102
RTVSPost2010Prop44ColorIndex
 90
        5
102
RTVSPost2010Prop44ColorRGB
 90
      255
102
RTVSPost2010PropOp44
 70
     1
102
RTVSPost2010Prop45
280
     0
102
RTVSPost2010PropOp45
 70
     1
102
RTVSPost2010Prop46
 90
       50
102
RTVSPost2010PropOp46
 70
     1
102
RTVSPost2010Prop47
 90
       50
102
RTVSPost2010PropOp47
 70
     1
102
RTVSPost2010Prop48
 90
       50
102
RTVSPost2010PropOp48
 70
     1
102
RTVSPost2010Prop49
280
     0
102
RTVSPost2010PropOp49
 70
     1
102
RTVSPost2010Prop50
 90
       50
102
RTVSPost2010PropOp50
 70
     1
102
RTVSPost2010Prop51ColorIndex
 90
      256
102
RTVSPost2010Prop51ColorRGB
 90
-16777216
102
RTVSPost2010PropOp51
 70
     0
102
RTVSPost2010Prop52
140
1.0
102
RTVSPost2010PropOp52
 70
     0
102
RTVSPost2010Prop53
 90
        2
102
RTVSPost2010PropOp53
 70
     1
102
RTVSPost2010Prop54
  1
strokes_ogs.tif
102
RTVSPost2010PropOp54
 70
     1
102
RTVSPost2010Prop55
280
     0
102
RTVSPost2010PropOp55
 70
     1
102
RTVSPost2010Prop56
140
1.0
102
RTVSPost2010PropOp56
 70
     1
102
RTVSPost2010Prop57
140
1.0
102
RTVSPost2010PropOp57
 70
     1
  0
XRECORD
  5
464
102
{ACAD_REACTORS
330
463
102
}
330
463
100
AcDbXrecord
280
     1
102
RTVSPropertyOp0
 70
     1
102
RTVSPropertyOp1
 70
     1
102
RTVSPropertyOp2
 70
     1
102
RTVSPropertyOp3
 70
     1
102
RTVSPropertyOp4
 70
     1
102
RTVSPropertyOp5
 70
     1
102
RTVSPropertyOp6
 70
     1
102
RTVSPropertyOp7
 70
     1
102
RTVSPropertyOp8
 70
     1
102
RTVSPropertyOp9
 70
     1
102
RTVSPropertyOp10
 70
     1
102
RTVSPropertyOp11
 70
     1
102
RTVSPropertyOp12
 70
     1
102
RTVSPropertyOp13
 70
     1
102
RTVSPropertyOp14
 70
     1
102
RTVSPropertyOp15
 70
     1
102
RTVSPropertyOp16
 70
     1
102
RTVSPropertyOp17
 70
     1
102
RTVSPropertyOp18
 70
     1
102
RTVSPropertyOp19
 70
     1
102
RTVSPropertyOp20
 70
     1
102
RTVSPropertyOp21
 70
     1
102
RTVSPropertyOp22
 70
     1
102
RTVSPropertyOp23
 70
     1
102
RTVSPropertyOp24
 70
     1
102
RTVSPropertyOp25
 70
     1
102
RTVSPropertyOp26
 70
     1
102
RTVSPropertyOp27
 70
     1
102
RTVSPropertyOp28
 70
     1
102
RTVSPropertyOp29
 70
     1
102
RTVSPropertyOp30
 70
     1
102
RTVSPropertyOp31
 70
     1
102
RTVSPropertyOp32
 70
     1
102
RTVSPropertyOp33
 70
     1
102
RTVSPropertyOp34
 70
     1
102
RTVSPropertyOp35
 70
     1
102
RTVSPropertyOp36
 70
     1
102
RTVSPropertyOp37
 70
     1
102
RTVSPropertyOp38
 70
     1
102
RTVSPropertyOp39
 70
     1
102
RTVSPropertyOp40
 70
     1
102
RTVSPropertyOp41
 70
     1
102
RTVSPropertyOp42
 70
     1
102
RTVSPropertyOp43
 70
     1
102
RTVSPropertyOp44
 70
     1
102
RTVSPropertyOp45
 70
     1
102
RTVSPropertyOp46
 70
     1
102
RTVSPropertyOp47
 70
     1
102
RTVSPropertyOp48
 70
     1
102
RTVSPropertyOp49
 70
     1
102
RTVSPropertyOp50
 70
     1
102
RTVSPropertyOp51
 70
     0
102
RTVSPropertyOp52
 70
     0
102
RTVSPropertyOp53
 70
     1
102
RTVSPropertyOp54
 70
     1
102
RTVSPropertyOp55
 70
     1
102
RTVSPropertyOp56
 70
     1
102
RTVSPropertyOp57
 70
     1
102
RTVSPost2010Prop28
280
     0
102
RTVSPost2010PropOp28
 70
     1
102
RTVSPost2010Prop29
280
     1
102
RTVSPost2010PropOp29
 70
     1
102
RTVSPost2010Prop30
280
     1
102
RTVSPost2010PropOp30
 70
     1
102
RTVSPost2010Prop31
280
     0
102
RTVSPost2010PropOp31
 70
     1
102
RTVSPost2010Prop32
280
     0
102
RTVSPost2010PropOp32
 70
     1
102
RTVSPost2010Prop33
280
     0
102
RTVSPost2010PropOp33
 70
     1
102
RTVSPost2010Prop34
280
     0
102
RTVSPost2010PropOp34
 70
     1
102
RTVSPost2010Prop35
280
     0
102
RTVSPost2010PropOp35
 70
     1
102
RTVSPost2010Prop36
280
     0
102
RTVSPost2010PropOp36
 70
     1
102
RTVSPost2010Prop37
 90
       50
102
RTVSPost2010PropOp37
 70
     1
102
RTVSPost2010Prop38
140
0.0
102
RTVSPost2010PropOp38
 70
     1
102
RTVSPost2010Prop39
140
1.0
102
RTVSPost2010PropOp39
 70
     1
102
RTVSPost2010Prop40
 90
        0
102
RTVSPost2010PropOp40
 70
     1
102
RTVSPost2010Prop41ColorIndex
 90
       18
102
RTVSPost2010Prop41ColorRGB
 90
        0
102
RTVSPost2010PropOp41
 70
     1
102
RTVSPost2010Prop42
 90
       50
102
RTVSPost2010PropOp42
 70
     1
102
RTVSPost2010Prop43
 90
        3
102
RTVSPost2010PropOp43
 70
     1
102
RTVSPost2010Prop44ColorIndex
 90
        5
102
RTVSPost2010Prop44ColorRGB
 90
      255
102
RTVSPost2010PropOp44
 70
     1
102
RTVSPost2010Prop45
280
     0
102
RTVSPost2010PropOp45
 70
     1
102
RTVSPost2010Prop46
 90
       50
102
RTVSPost2010PropOp46
 70
     1
102
RTVSPost2010Prop47
 90
       50
102
RTVSPost2010PropOp47
 70
     1
102
RTVSPost2010Prop48
 90
       50
102
RTVSPost2010PropOp48
 70
     1
102
RTVSPost2010Prop49
280
     0
102
RTVSPost2010PropOp49
 70
     1
102
RTVSPost2010Prop50
 90
       50
102
RTVSPost2010PropOp50
 70
     1
102
RTVSPost2010Prop51ColorIndex
 90
      256
102
RTVSPost2010Prop51ColorRGB
 90
-16777216
102
RTVSPost2010PropOp51
 70
     0
102
RTVSPost2010Prop52
140
1.0
102
RTVSPost2010PropOp52
 70
     0
102
RTVSPost2010Prop53
 90
        2
102
RTVSPost2010PropOp53
 70
     1
102
RTVSPost2010Prop54
  1
strokes_ogs.tif
102
RTVSPost2010PropOp54
 70
     1
102
RTVSPost2010Prop55
280
     0
102
RTVSPost2010PropOp55
 70
     1
102
RTVSPost2010Prop56
140
1.0
102
RTVSPost2010PropOp56
 70
     1
102
RTVSPost2010Prop57
140
1.0
102
RTVSPost2010PropOp57
 70
     1
  0
XRECORD
  5
480
102
{ACAD_REACTORS
330
47F
102
}
330
47F
100
AcDbXrecord
280
     1
102
RTVSPropertyOp0
 70
     1
102
RTVSPropertyOp1
 70
     1
102
RTVSPropertyOp2
 70
     1
102
RTVSPropertyOp3
 70
     1
102
RTVSPropertyOp4
 70
     1
102
RTVSPropertyOp5
 70
     1
102
RTVSPropertyOp6
 70
     1
102
RTVSPropertyOp7
 70
     1
102
RTVSPropertyOp8
 70
     1
102
RTVSPropertyOp9
 70
     1
102
RTVSPropertyOp10
 70
     1
102
RTVSPropertyOp11
 70
     1
102
RTVSPropertyOp12
 70
     1
102
RTVSPropertyOp13
 70
     1
102
RTVSPropertyOp14
 70
     1
102
RTVSPropertyOp15
 70
     1
102
RTVSPropertyOp16
 70
     1
102
RTVSPropertyOp17
 70
     1
102
RTVSPropertyOp18
 70
     1
102
RTVSPropertyOp19
 70
     1
102
RTVSPropertyOp20
 70
     1
102
RTVSPropertyOp21
 70
     1
102
RTVSPropertyOp22
 70
     1
102
RTVSPropertyOp23
 70
     1
102
RTVSPropertyOp24
 70
     1
102
RTVSPropertyOp25
 70
     1
102
RTVSPropertyOp26
 70
     1
102
RTVSPropertyOp27
 70
     1
102
RTVSPropertyOp28
 70
     1
102
RTVSPropertyOp29
 70
     1
102
RTVSPropertyOp30
 70
     1
102
RTVSPropertyOp31
 70
     1
102
RTVSPropertyOp32
 70
     1
102
RTVSPropertyOp33
 70
     1
102
RTVSPropertyOp34
 70
     1
102
RTVSPropertyOp35
 70
     1
102
RTVSPropertyOp36
 70
     1
102
RTVSPropertyOp37
 70
     1
102
RTVSPropertyOp38
 70
     1
102
RTVSPropertyOp39
 70
     1
102
RTVSPropertyOp40
 70
     1
102
RTVSPropertyOp41
 70
     1
102
RTVSPropertyOp42
 70
     1
102
RTVSPropertyOp43
 70
     1
102
RTVSPropertyOp44
 70
     1
102
RTVSPropertyOp45
 70
     1
102
RTVSPropertyOp46
 70
     1
102
RTVSPropertyOp47
 70
     1
102
RTVSPropertyOp48
 70
     1
102
RTVSPropertyOp49
 70
     1
102
RTVSPropertyOp50
 70
     1
102
RTVSPropertyOp51
 70
     0
102
RTVSPropertyOp52
 70
     0
102
RTVSPropertyOp53
 70
     1
102
RTVSPropertyOp54
 70
     1
102
RTVSPropertyOp55
 70
     1
102
RTVSPropertyOp56
 70
     1
102
RTVSPropertyOp57
 70
     1
102
RTVSPost2010Prop28
280
     0
102
RTVSPost2010PropOp28
 70
     1
102
RTVSPost2010Prop29
280
     1
102
RTVSPost2010PropOp29
 70
     1
102
RTVSPost2010Prop30
280
     1
102
RTVSPost2010PropOp30
 70
     1
102
RTVSPost2010Prop31
280
     0
102
RTVSPost2010PropOp31
 70
     1
102
RTVSPost2010Prop32
280
     0
102
RTVSPost2010PropOp32
 70
     1
102
RTVSPost2010Prop33
280
     0
102
RTVSPost2010PropOp33
 70
     1
102
RTVSPost2010Prop34
280
     0
102
RTVSPost2010PropOp34
 70
     1
102
RTVSPost2010Prop35
280
     0
102
RTVSPost2010PropOp35
 70
     1
102
RTVSPost2010Prop36
280
     0
102
RTVSPost2010PropOp36
 70
     1
102
RTVSPost2010Prop37
 90
       50
102
RTVSPost2010PropOp37
 70
     1
102
RTVSPost2010Prop38
140
0.0
102
RTVSPost2010PropOp38
 70
     1
102
RTVSPost2010Prop39
140
1.0
102
RTVSPost2010PropOp39
 70
     1
102
RTVSPost2010Prop40
 90
        0
102
RTVSPost2010PropOp40
 70
     1
102
RTVSPost2010Prop41ColorIndex
 90
       18
102
RTVSPost2010Prop41ColorRGB
 90
        0
102
RTVSPost2010PropOp41
 70
     1
102
RTVSPost2010Prop42
 90
       50
102
RTVSPost2010PropOp42
 70
     1
102
RTVSPost2010Prop43
 90
        3
102
RTVSPost2010PropOp43
 70
     1
102
RTVSPost2010Prop44ColorIndex
 90
        5
102
RTVSPost2010Prop44ColorRGB
 90
      255
102
RTVSPost2010PropOp44
 70
     1
102
RTVSPost2010Prop45
280
     0
102
RTVSPost2010PropOp45
 70
     1
102
RTVSPost2010Prop46
 90
       50
102
RTVSPost2010PropOp46
 70
     1
102
RTVSPost2010Prop47
 90
       50
102
RTVSPost2010PropOp47
 70
     1
102
RTVSPost2010Prop48
 90
       50
102
RTVSPost2010PropOp48
 70
     1
102
RTVSPost2010Prop49
280
     0
102
RTVSPost2010PropOp49
 70
     1
102
RTVSPost2010Prop50
 90
       50
102
RTVSPost2010PropOp50
 70
     1
102
RTVSPost2010Prop51ColorIndex
 90
      256
102
RTVSPost2010Prop51ColorRGB
 90
-16777216
102
RTVSPost2010PropOp51
 70
     0
102
RTVSPost2010Prop52
140
1.0
102
RTVSPost2010PropOp52
 70
     0
102
RTVSPost2010Prop53
 90
        2
102
RTVSPost2010PropOp53
 70
     1
102
RTVSPost2010Prop54
  1
strokes_ogs.tif
102
RTVSPost2010PropOp54
 70
     1
102
RTVSPost2010Prop55
280
     0
102
RTVSPost2010PropOp55
 70
     1
102
RTVSPost2010Prop56
140
1.0
102
RTVSPost2010PropOp56
 70
     1
102
RTVSPost2010Prop57
140
1.0
102
RTVSPost2010PropOp57
 70
     1
  0
XRECORD
  5
482
102
{ACAD_REACTORS
330
481
102
}
330
481
100
AcDbXrecord
280
     1
102
RTVSPropertyOp0
 70
     0
102
RTVSPropertyOp1
 70
     0
102
RTVSPropertyOp2
 70
     0
102
RTVSPropertyOp3
 70
     0
102
RTVSPropertyOp4
 70
     0
102
RTVSPropertyOp5
 70
     0
102
RTVSPropertyOp6
 70
     0
102
RTVSPropertyOp7
 70
     0
102
RTVSPropertyOp8
 70
     0
102
RTVSPropertyOp9
 70
     0
102
RTVSPropertyOp10
 70
     0
102
RTVSPropertyOp11
 70
     0
102
RTVSPropertyOp12
 70
     0
102
RTVSPropertyOp13
 70
     0
102
RTVSPropertyOp14
 70
     2
102
RTVSPropertyOp15
 70
     0
102
RTVSPropertyOp16
 70
     0
102
RTVSPropertyOp17
 70
     0
102
RTVSPropertyOp18
 70
     0
102
RTVSPropertyOp19
 70
     0
102
RTVSPropertyOp20
 70
     0
102
RTVSPropertyOp21
 70
     0
102
RTVSPropertyOp22
 70
     0
102
RTVSPropertyOp23
 70
     0
102
RTVSPropertyOp24
 70
     0
102
RTVSPropertyOp25
 70
     0
102
RTVSPropertyOp26
 70
     0
102
RTVSPropertyOp27
 70
     0
102
RTVSPropertyOp28
 70
     0
102
RTVSPropertyOp29
 70
     0
102
RTVSPropertyOp30
 70
     0
102
RTVSPropertyOp31
 70
     0
102
RTVSPropertyOp32
 70
     0
102
RTVSPropertyOp33
 70
     0
102
RTVSPropertyOp34
 70
     0
102
RTVSPropertyOp35
 70
     0
102
RTVSPropertyOp36
 70
     0
102
RTVSPropertyOp37
 70
     0
102
RTVSPropertyOp38
 70
     0
102
RTVSPropertyOp39
 70
     0
102
RTVSPropertyOp40
 70
     0
102
RTVSPropertyOp41
 70
     0
102
RTVSPropertyOp42
 70
     0
102
RTVSPropertyOp43
 70
     0
102
RTVSPropertyOp44
 70
     0
102
RTVSPropertyOp45
 70
     0
102
RTVSPropertyOp46
 70
     0
102
RTVSPropertyOp47
 70
     0
102
RTVSPropertyOp48
 70
     0
102
RTVSPropertyOp49
 70
     0
102
RTVSPropertyOp50
 70
     0
102
RTVSPropertyOp51
 70
     0
102
RTVSPropertyOp52
 70
     0
102
RTVSPropertyOp53
 70
     0
102
RTVSPropertyOp54
 70
     0
102
RTVSPropertyOp55
 70
     0
102
RTVSPropertyOp56
 70
     0
102
RTVSPropertyOp57
 70
     0
102
RTVSPost2010Prop28
280
     0
102
RTVSPost2010PropOp28
 70
     0
102
RTVSPost2010Prop29
280
     1
102
RTVSPost2010PropOp29
 70
     0
102
RTVSPost2010Prop30
280
     1
102
RTVSPost2010PropOp30
 70
     0
102
RTVSPost2010Prop31
280
     0
102
RTVSPost2010PropOp31
 70
     0
102
RTVSPost2010Prop32
280
     0
102
RTVSPost2010PropOp32
 70
     0
102
RTVSPost2010Prop33
280
     0
102
RTVSPost2010PropOp33
 70
     0
102
RTVSPost2010Prop34
280
     0
102
RTVSPost2010PropOp34
 70
     0
102
RTVSPost2010Prop35
280
     0
102
RTVSPost2010PropOp35
 70
     0
102
RTVSPost2010Prop36
280
     0
102
RTVSPost2010PropOp36
 70
     0
102
RTVSPost2010Prop37
 90
       50
102
RTVSPost2010PropOp37
 70
     0
102
RTVSPost2010Prop38
140
0.0
102
RTVSPost2010PropOp38
 70
     0
102
RTVSPost2010Prop39
140
1.0
102
RTVSPost2010PropOp39
 70
     0
102
RTVSPost2010Prop40
 90
        0
102
RTVSPost2010PropOp40
 70
     0
102
RTVSPost2010Prop41ColorIndex
 90
       18
102
RTVSPost2010Prop41ColorRGB
 90
        0
102
RTVSPost2010PropOp41
 70
     0
102
RTVSPost2010Prop42
 90
       50
102
RTVSPost2010PropOp42
 70
     0
102
RTVSPost2010Prop43
 90
        3
102
RTVSPost2010PropOp43
 70
     0
102
RTVSPost2010Prop44ColorIndex
 90
        5
102
RTVSPost2010Prop44ColorRGB
 90
      255
102
RTVSPost2010PropOp44
 70
     0
102
RTVSPost2010Prop45
280
     0
102
RTVSPost2010PropOp45
 70
     0
102
RTVSPost2010Prop46
 90
       50
102
RTVSPost2010PropOp46
 70
     0
102
RTVSPost2010Prop47
 90
       50
102
RTVSPost2010PropOp47
 70
     0
102
RTVSPost2010Prop48
 90
       50
102
RTVSPost2010PropOp48
 70
     0
102
RTVSPost2010Prop49
280
     0
102
RTVSPost2010PropOp49
 70
     0
102
RTVSPost2010Prop50
 90
       50
102
RTVSPost2010PropOp50
 70
     0
102
RTVSPost2010Prop51ColorIndex
 90
      256
102
RTVSPost2010Prop51ColorRGB
 90
-16777216
102
RTVSPost2010PropOp51
 70
     0
102
RTVSPost2010Prop52
140
1.0
102
RTVSPost2010PropOp52
 70
     0
102
RTVSPost2010Prop53
 90
        2
102
RTVSPost2010PropOp53
 70
     0
102
RTVSPost2010Prop54
  1
strokes_ogs.tif
102
RTVSPost2010PropOp54
 70
     0
102
RTVSPost2010Prop55
280
     0
102
RTVSPost2010PropOp55
 70
     0
102
RTVSPost2010Prop56
140
1.0
102
RTVSPost2010PropOp56
 70
     0
102
RTVSPost2010Prop57
140
1.0
102
RTVSPost2010PropOp57
 70
     0
  0
XRECORD
  5
478
102
{ACAD_REACTORS
330
477
102
}
330
477
100
AcDbXrecord
280
     1
102
RTVSPropertyOp0
 70
     1
102
RTVSPropertyOp1
 70
     1
102
RTVSPropertyOp2
 70
     1
102
RTVSPropertyOp3
 70
     1
102
RTVSPropertyOp4
 70
     1
102
RTVSPropertyOp5
 70
     1
102
RTVSPropertyOp6
 70
     1
102
RTVSPropertyOp7
 70
     1
102
RTVSPropertyOp8
 70
     1
102
RTVSPropertyOp9
 70
     1
102
RTVSPropertyOp10
 70
     1
102
RTVSPropertyOp11
 70
     1
102
RTVSPropertyOp12
 70
     1
102
RTVSPropertyOp13
 70
     1
102
RTVSPropertyOp14
 70
     1
102
RTVSPropertyOp15
 70
     1
102
RTVSPropertyOp16
 70
     1
102
RTVSPropertyOp17
 70
     1
102
RTVSPropertyOp18
 70
     1
102
RTVSPropertyOp19
 70
     1
102
RTVSPropertyOp20
 70
     1
102
RTVSPropertyOp21
 70
     1
102
RTVSPropertyOp22
 70
     1
102
RTVSPropertyOp23
 70
     1
102
RTVSPropertyOp24
 70
     1
102
RTVSPropertyOp25
 70
     1
102
RTVSPropertyOp26
 70
     1
102
RTVSPropertyOp27
 70
     1
102
RTVSPropertyOp28
 70
     1
102
RTVSPropertyOp29
 70
     1
102
RTVSPropertyOp30
 70
     1
102
RTVSPropertyOp31
 70
     1
102
RTVSPropertyOp32
 70
     1
102
RTVSPropertyOp33
 70
     1
102
RTVSPropertyOp34
 70
     1
102
RTVSPropertyOp35
 70
     1
102
RTVSPropertyOp36
 70
     1
102
RTVSPropertyOp37
 70
     1
102
RTVSPropertyOp38
 70
     1
102
RTVSPropertyOp39
 70
     1
102
RTVSPropertyOp40
 70
     1
102
RTVSPropertyOp41
 70
     1
102
RTVSPropertyOp42
 70
     1
102
RTVSPropertyOp43
 70
     1
102
RTVSPropertyOp44
 70
     1
102
RTVSPropertyOp45
 70
     1
102
RTVSPropertyOp46
 70
     1
102
RTVSPropertyOp47
 70
     1
102
RTVSPropertyOp48
 70
     1
102
RTVSPropertyOp49
 70
     1
102
RTVSPropertyOp50
 70
     1
102
RTVSPropertyOp51
 70
     0
102
RTVSPropertyOp52
 70
     0
102
RTVSPropertyOp53
 70
     1
102
RTVSPropertyOp54
 70
     1
102
RTVSPropertyOp55
 70
     1
102
RTVSPropertyOp56
 70
     1
102
RTVSPropertyOp57
 70
     1
102
RTVSPost2010Prop28
280
     0
102
RTVSPost2010PropOp28
 70
     1
102
RTVSPost2010Prop29
280
     1
102
RTVSPost2010PropOp29
 70
     1
102
RTVSPost2010Prop30
280
     1
102
RTVSPost2010PropOp30
 70
     1
102
RTVSPost2010Prop31
280
     0
102
RTVSPost2010PropOp31
 70
     1
102
RTVSPost2010Prop32
280
     0
102
RTVSPost2010PropOp32
 70
     1
102
RTVSPost2010Prop33
280
     0
102
RTVSPost2010PropOp33
 70
     1
102
RTVSPost2010Prop34
280
     0
102
RTVSPost2010PropOp34
 70
     1
102
RTVSPost2010Prop35
280
     0
102
RTVSPost2010PropOp35
 70
     1
102
RTVSPost2010Prop36
280
     0
102
RTVSPost2010PropOp36
 70
     1
102
RTVSPost2010Prop37
 90
       50
102
RTVSPost2010PropOp37
 70
     1
102
RTVSPost2010Prop38
140
0.0
102
RTVSPost2010PropOp38
 70
     1
102
RTVSPost2010Prop39
140
1.0
102
RTVSPost2010PropOp39
 70
     1
102
RTVSPost2010Prop40
 90
        0
102
RTVSPost2010PropOp40
 70
     1
102
RTVSPost2010Prop41ColorIndex
 90
       18
102
RTVSPost2010Prop41ColorRGB
 90
        0
102
RTVSPost2010PropOp41
 70
     1
102
RTVSPost2010Prop42
 90
       50
102
RTVSPost2010PropOp42
 70
     1
102
RTVSPost2010Prop43
 90
        3
102
RTVSPost2010PropOp43
 70
     1
102
RTVSPost2010Prop44ColorIndex
 90
        5
102
RTVSPost2010Prop44ColorRGB
 90
      255
102
RTVSPost2010PropOp44
 70
     1
102
RTVSPost2010Prop45
280
     0
102
RTVSPost2010PropOp45
 70
     1
102
RTVSPost2010Prop46
 90
       50
102
RTVSPost2010PropOp46
 70
     1
102
RTVSPost2010Prop47
 90
       50
102
RTVSPost2010PropOp47
 70
     1
102
RTVSPost2010Prop48
 90
       50
102
RTVSPost2010PropOp48
 70
     1
102
RTVSPost2010Prop49
280
     0
102
RTVSPost2010PropOp49
 70
     1
102
RTVSPost2010Prop50
 90
       50
102
RTVSPost2010PropOp50
 70
     1
102
RTVSPost2010Prop51ColorIndex
 90
      256
102
RTVSPost2010Prop51ColorRGB
 90
-16777216
102
RTVSPost2010PropOp51
 70
     0
102
RTVSPost2010Prop52
140
1.0
102
RTVSPost2010PropOp52
 70
     0
102
RTVSPost2010Prop53
 90
        2
102
RTVSPost2010PropOp53
 70
     1
102
RTVSPost2010Prop54
  1
strokes_ogs.tif
102
RTVSPost2010PropOp54
 70
     1
102
RTVSPost2010Prop55
280
     0
102
RTVSPost2010PropOp55
 70
     1
102
RTVSPost2010Prop56
140
1.0
102
RTVSPost2010PropOp56
 70
     1
102
RTVSPost2010Prop57
140
1.0
102
RTVSPost2010PropOp57
 70
     1
  0
XRECORD
  5
484
102
{ACAD_REACTORS
330
483
102
}
330
483
100
AcDbXrecord
280
     1
102
RTVSPropertyOp0
 70
     0
102
RTVSPropertyOp1
 70
     0
102
RTVSPropertyOp2
 70
     0
102
RTVSPropertyOp3
 70
     0
102
RTVSPropertyOp4
 70
     0
102
RTVSPropertyOp5
 70
     0
102
RTVSPropertyOp6
 70
     0
102
RTVSPropertyOp7
 70
     0
102
RTVSPropertyOp8
 70
     0
102
RTVSPropertyOp9
 70
     0
102
RTVSPropertyOp10
 70
     0
102
RTVSPropertyOp11
 70
     0
102
RTVSPropertyOp12
 70
     0
102
RTVSPropertyOp13
 70
     0
102
RTVSPropertyOp14
 70
     2
102
RTVSPropertyOp15
 70
     0
102
RTVSPropertyOp16
 70
     0
102
RTVSPropertyOp17
 70
     0
102
RTVSPropertyOp18
 70
     0
102
RTVSPropertyOp19
 70
     0
102
RTVSPropertyOp20
 70
     0
102
RTVSPropertyOp21
 70
     0
102
RTVSPropertyOp22
 70
     0
102
RTVSPropertyOp23
 70
     0
102
RTVSPropertyOp24
 70
     0
102
RTVSPropertyOp25
 70
     0
102
RTVSPropertyOp26
 70
     0
102
RTVSPropertyOp27
 70
     0
102
RTVSPropertyOp28
 70
     0
102
RTVSPropertyOp29
 70
     0
102
RTVSPropertyOp30
 70
     0
102
RTVSPropertyOp31
 70
     0
102
RTVSPropertyOp32
 70
     0
102
RTVSPropertyOp33
 70
     0
102
RTVSPropertyOp34
 70
     0
102
RTVSPropertyOp35
 70
     0
102
RTVSPropertyOp36
 70
     0
102
RTVSPropertyOp37
 70
     0
102
RTVSPropertyOp38
 70
     0
102
RTVSPropertyOp39
 70
     0
102
RTVSPropertyOp40
 70
     0
102
RTVSPropertyOp41
 70
     0
102
RTVSPropertyOp42
 70
     0
102
RTVSPropertyOp43
 70
     0
102
RTVSPropertyOp44
 70
     0
102
RTVSPropertyOp45
 70
     0
102
RTVSPropertyOp46
 70
     0
102
RTVSPropertyOp47
 70
     0
102
RTVSPropertyOp48
 70
     0
102
RTVSPropertyOp49
 70
     0
102
RTVSPropertyOp50
 70
     0
102
RTVSPropertyOp51
 70
     0
102
RTVSPropertyOp52
 70
     0
102
RTVSPropertyOp53
 70
     0
102
RTVSPropertyOp54
 70
     0
102
RTVSPropertyOp55
 70
     0
102
RTVSPropertyOp56
 70
     0
102
RTVSPropertyOp57
 70
     0
102
RTVSPost2010Prop28
280
     0
102
RTVSPost2010PropOp28
 70
     0
102
RTVSPost2010Prop29
280
     1
102
RTVSPost2010PropOp29
 70
     0
102
RTVSPost2010Prop30
280
     1
102
RTVSPost2010PropOp30
 70
     0
102
RTVSPost2010Prop31
280
     0
102
RTVSPost2010PropOp31
 70
     0
102
RTVSPost2010Prop32
280
     0
102
RTVSPost2010PropOp32
 70
     0
102
RTVSPost2010Prop33
280
     0
102
RTVSPost2010PropOp33
 70
     0
102
RTVSPost2010Prop34
280
     0
102
RTVSPost2010PropOp34
 70
     0
102
RTVSPost2010Prop35
280
     0
102
RTVSPost2010PropOp35
 70
     0
102
RTVSPost2010Prop36
280
     0
102
RTVSPost2010PropOp36
 70
     0
102
RTVSPost2010Prop37
 90
       50
102
RTVSPost2010PropOp37
 70
     0
102
RTVSPost2010Prop38
140
0.0
102
RTVSPost2010PropOp38
 70
     0
102
RTVSPost2010Prop39
140
1.0
102
RTVSPost2010PropOp39
 70
     0
102
RTVSPost2010Prop40
 90
        0
102
RTVSPost2010PropOp40
 70
     0
102
RTVSPost2010Prop41ColorIndex
 90
       18
102
RTVSPost2010Prop41ColorRGB
 90
        0
102
RTVSPost2010PropOp41
 70
     0
102
RTVSPost2010Prop42
 90
       50
102
RTVSPost2010PropOp42
 70
     0
102
RTVSPost2010Prop43
 90
        3
102
RTVSPost2010PropOp43
 70
     0
102
RTVSPost2010Prop44ColorIndex
 90
        5
102
RTVSPost2010Prop44ColorRGB
 90
      255
102
RTVSPost2010PropOp44
 70
     0
102
RTVSPost2010Prop45
280
     0
102
RTVSPost2010PropOp45
 70
     0
102
RTVSPost2010Prop46
 90
       50
102
RTVSPost2010PropOp46
 70
     0
102
RTVSPost2010Prop47
 90
       50
102
RTVSPost2010PropOp47
 70
     0
102
RTVSPost2010Prop48
 90
       50
102
RTVSPost2010PropOp48
 70
     0
102
RTVSPost2010Prop49
280
     0
102
RTVSPost2010PropOp49
 70
     0
102
RTVSPost2010Prop50
 90
       50
102
RTVSPost2010PropOp50
 70
     0
102
RTVSPost2010Prop51ColorIndex
 90
      256
102
RTVSPost2010Prop51ColorRGB
 90
-16777216
102
RTVSPost2010PropOp51
 70
     0
102
RTVSPost2010Prop52
140
1.0
102
RTVSPost2010PropOp52
 70
     0
102
RTVSPost2010Prop53
 90
        2
102
RTVSPost2010PropOp53
 70
     0
102
RTVSPost2010Prop54
  1
strokes_ogs.tif
102
RTVSPost2010PropOp54
 70
     0
102
RTVSPost2010Prop55
280
     0
102
RTVSPost2010PropOp55
 70
     0
102
RTVSPost2010Prop56
140
1.0
102
RTVSPost2010PropOp56
 70
     0
102
RTVSPost2010Prop57
140
1.0
102
RTVSPost2010PropOp57
 70
     0
  0
XRECORD
  5
46E
102
{ACAD_REACTORS
330
46D
102
}
330
46D
100
AcDbXrecord
280
     1
102
RTVSPropertyOp0
 70
     1
102
RTVSPropertyOp1
 70
     1
102
RTVSPropertyOp2
 70
     1
102
RTVSPropertyOp3
 70
     1
102
RTVSPropertyOp4
 70
     1
102
RTVSPropertyOp5
 70
     1
102
RTVSPropertyOp6
 70
     1
102
RTVSPropertyOp7
 70
     1
102
RTVSPropertyOp8
 70
     1
102
RTVSPropertyOp9
 70
     1
102
RTVSPropertyOp10
 70
     1
102
RTVSPropertyOp11
 70
     1
102
RTVSPropertyOp12
 70
     1
102
RTVSPropertyOp13
 70
     1
102
RTVSPropertyOp14
 70
     1
102
RTVSPropertyOp15
 70
     1
102
RTVSPropertyOp16
 70
     1
102
RTVSPropertyOp17
 70
     1
102
RTVSPropertyOp18
 70
     1
102
RTVSPropertyOp19
 70
     1
102
RTVSPropertyOp20
 70
     1
102
RTVSPropertyOp21
 70
     1
102
RTVSPropertyOp22
 70
     1
102
RTVSPropertyOp23
 70
     1
102
RTVSPropertyOp24
 70
     1
102
RTVSPropertyOp25
 70
     1
102
RTVSPropertyOp26
 70
     1
102
RTVSPropertyOp27
 70
     1
102
RTVSPropertyOp28
 70
     1
102
RTVSPropertyOp29
 70
     1
102
RTVSPropertyOp30
 70
     1
102
RTVSPropertyOp31
 70
     1
102
RTVSPropertyOp32
 70
     1
102
RTVSPropertyOp33
 70
     1
102
RTVSPropertyOp34
 70
     1
102
RTVSPropertyOp35
 70
     1
102
RTVSPropertyOp36
 70
     1
102
RTVSPropertyOp37
 70
     1
102
RTVSPropertyOp38
 70
     1
102
RTVSPropertyOp39
 70
     1
102
RTVSPropertyOp40
 70
     1
102
RTVSPropertyOp41
 70
     1
102
RTVSPropertyOp42
 70
     1
102
RTVSPropertyOp43
 70
     1
102
RTVSPropertyOp44
 70
     1
102
RTVSPropertyOp45
 70
     1
102
RTVSPropertyOp46
 70
     1
102
RTVSPropertyOp47
 70
     1
102
RTVSPropertyOp48
 70
     1
102
RTVSPropertyOp49
 70
     1
102
RTVSPropertyOp50
 70
     1
102
RTVSPropertyOp51
 70
     0
102
RTVSPropertyOp52
 70
     0
102
RTVSPropertyOp53
 70
     1
102
RTVSPropertyOp54
 70
     1
102
RTVSPropertyOp55
 70
     1
102
RTVSPropertyOp56
 70
     1
102
RTVSPropertyOp57
 70
     1
102
RTVSPost2010Prop28
280
     0
102
RTVSPost2010PropOp28
 70
     1
102
RTVSPost2010Prop29
280
     1
102
RTVSPost2010PropOp29
 70
     1
102
RTVSPost2010Prop30
280
     1
102
RTVSPost2010PropOp30
 70
     1
102
RTVSPost2010Prop31
280
     0
102
RTVSPost2010PropOp31
 70
     1
102
RTVSPost2010Prop32
280
     0
102
RTVSPost2010PropOp32
 70
     1
102
RTVSPost2010Prop33
280
     0
102
RTVSPost2010PropOp33
 70
     1
102
RTVSPost2010Prop34
280
     0
102
RTVSPost2010PropOp34
 70
     1
102
RTVSPost2010Prop35
280
     0
102
RTVSPost2010PropOp35
 70
     1
102
RTVSPost2010Prop36
280
     0
102
RTVSPost2010PropOp36
 70
     1
102
RTVSPost2010Prop37
 90
       50
102
RTVSPost2010PropOp37
 70
     1
102
RTVSPost2010Prop38
140
0.0
102
RTVSPost2010PropOp38
 70
     1
102
RTVSPost2010Prop39
140
1.0
102
RTVSPost2010PropOp39
 70
     1
102
RTVSPost2010Prop40
 90
        0
102
RTVSPost2010PropOp40
 70
     1
102
RTVSPost2010Prop41ColorIndex
 90
       18
102
RTVSPost2010Prop41ColorRGB
 90
        0
102
RTVSPost2010PropOp41
 70
     1
102
RTVSPost2010Prop42
 90
       50
102
RTVSPost2010PropOp42
 70
     1
102
RTVSPost2010Prop43
 90
        3
102
RTVSPost2010PropOp43
 70
     1
102
RTVSPost2010Prop44ColorIndex
 90
        5
102
RTVSPost2010Prop44ColorRGB
 90
      255
102
RTVSPost2010PropOp44
 70
     1
102
RTVSPost2010Prop45
280
     0
102
RTVSPost2010PropOp45
 70
     1
102
RTVSPost2010Prop46
 90
       50
102
RTVSPost2010PropOp46
 70
     1
102
RTVSPost2010Prop47
 90
       50
102
RTVSPost2010PropOp47
 70
     1
102
RTVSPost2010Prop48
 90
       50
102
RTVSPost2010PropOp48
 70
     1
102
RTVSPost2010Prop49
280
     0
102
RTVSPost2010PropOp49
 70
     1
102
RTVSPost2010Prop50
 90
       50
102
RTVSPost2010PropOp50
 70
     1
102
RTVSPost2010Prop51ColorIndex
 90
      256
102
RTVSPost2010Prop51ColorRGB
 90
-16777216
102
RTVSPost2010PropOp51
 70
     0
102
RTVSPost2010Prop52
140
1.0
102
RTVSPost2010PropOp52
 70
     0
102
RTVSPost2010Prop53
 90
        2
102
RTVSPost2010PropOp53
 70
     1
102
RTVSPost2010Prop54
  1
strokes_ogs.tif
102
RTVSPost2010PropOp54
 70
     1
102
RTVSPost2010Prop55
280
     0
102
RTVSPost2010PropOp55
 70
     1
102
RTVSPost2010Prop56
140
1.0
102
RTVSPost2010PropOp56
 70
     1
102
RTVSPost2010Prop57
140
1.0
102
RTVSPost2010PropOp57
 70
     1
  0
XRECORD
  5
490
102
{ACAD_REACTORS
330
48F
102
}
330
48F
100
AcDbXrecord
280
     1
102
RTVSPropertyOp0
 70
     1
102
RTVSPropertyOp1
 70
     1
102
RTVSPropertyOp2
 70
     1
102
RTVSPropertyOp3
 70
     1
102
RTVSPropertyOp4
 70
     1
102
RTVSPropertyOp5
 70
     1
102
RTVSPropertyOp6
 70
     1
102
RTVSPropertyOp7
 70
     1
102
RTVSPropertyOp8
 70
     1
102
RTVSPropertyOp9
 70
     1
102
RTVSPropertyOp10
 70
     1
102
RTVSPropertyOp11
 70
     1
102
RTVSPropertyOp12
 70
     1
102
RTVSPropertyOp13
 70
     1
102
RTVSPropertyOp14
 70
     1
102
RTVSPropertyOp15
 70
     1
102
RTVSPropertyOp16
 70
     1
102
RTVSPropertyOp17
 70
     1
102
RTVSPropertyOp18
 70
     1
102
RTVSPropertyOp19
 70
     1
102
RTVSPropertyOp20
 70
     1
102
RTVSPropertyOp21
 70
     1
102
RTVSPropertyOp22
 70
     1
102
RTVSPropertyOp23
 70
     1
102
RTVSPropertyOp24
 70
     1
102
RTVSPropertyOp25
 70
     1
102
RTVSPropertyOp26
 70
     1
102
RTVSPropertyOp27
 70
     1
102
RTVSPropertyOp28
 70
     1
102
RTVSPropertyOp29
 70
     1
102
RTVSPropertyOp30
 70
     1
102
RTVSPropertyOp31
 70
     1
102
RTVSPropertyOp32
 70
     1
102
RTVSPropertyOp33
 70
     1
102
RTVSPropertyOp34
 70
     1
102
RTVSPropertyOp35
 70
     1
102
RTVSPropertyOp36
 70
     1
102
RTVSPropertyOp37
 70
     1
102
RTVSPropertyOp38
 70
     1
102
RTVSPropertyOp39
 70
     1
102
RTVSPropertyOp40
 70
     1
102
RTVSPropertyOp41
 70
     1
102
RTVSPropertyOp42
 70
     1
102
RTVSPropertyOp43
 70
     1
102
RTVSPropertyOp44
 70
     1
102
RTVSPropertyOp45
 70
     1
102
RTVSPropertyOp46
 70
     1
102
RTVSPropertyOp47
 70
     1
102
RTVSPropertyOp48
 70
     1
102
RTVSPropertyOp49
 70
     1
102
RTVSPropertyOp50
 70
     1
102
RTVSPropertyOp51
 70
     0
102
RTVSPropertyOp52
 70
     0
102
RTVSPropertyOp53
 70
     1
102
RTVSPropertyOp54
 70
     1
102
RTVSPropertyOp55
 70
     1
102
RTVSPropertyOp56
 70
     1
102
RTVSPropertyOp57
 70
     1
102
RTVSPost2010Prop28
280
     0
102
RTVSPost2010PropOp28
 70
     1
102
RTVSPost2010Prop29
280
     1
102
RTVSPost2010PropOp29
 70
     1
102
RTVSPost2010Prop30
280
     1
102
RTVSPost2010PropOp30
 70
     1
102
RTVSPost2010Prop31
280
     0
102
RTVSPost2010PropOp31
 70
     1
102
RTVSPost2010Prop32
280
     0
102
RTVSPost2010PropOp32
 70
     1
102
RTVSPost2010Prop33
280
     0
102
RTVSPost2010PropOp33
 70
     1
102
RTVSPost2010Prop34
280
     0
102
RTVSPost2010PropOp34
 70
     1
102
RTVSPost2010Prop35
280
     0
102
RTVSPost2010PropOp35
 70
     1
102
RTVSPost2010Prop36
280
     0
102
RTVSPost2010PropOp36
 70
     1
102
RTVSPost2010Prop37
 90
       50
102
RTVSPost2010PropOp37
 70
     1
102
RTVSPost2010Prop38
140
0.0
102
RTVSPost2010PropOp38
 70
     1
102
RTVSPost2010Prop39
140
1.0
102
RTVSPost2010PropOp39
 70
     1
102
RTVSPost2010Prop40
 90
        0
102
RTVSPost2010PropOp40
 70
     1
102
RTVSPost2010Prop41ColorIndex
 90
       18
102
RTVSPost2010Prop41ColorRGB
 90
        0
102
RTVSPost2010PropOp41
 70
     1
102
RTVSPost2010Prop42
 90
       50
102
RTVSPost2010PropOp42
 70
     1
102
RTVSPost2010Prop43
 90
        3
102
RTVSPost2010PropOp43
 70
     1
102
RTVSPost2010Prop44ColorIndex
 90
        5
102
RTVSPost2010Prop44ColorRGB
 90
      255
102
RTVSPost2010PropOp44
 70
     1
102
RTVSPost2010Prop45
280
     0
102
RTVSPost2010PropOp45
 70
     1
102
RTVSPost2010Prop46
 90
       50
102
RTVSPost2010PropOp46
 70
     1
102
RTVSPost2010Prop47
 90
       50
102
RTVSPost2010PropOp47
 70
     1
102
RTVSPost2010Prop48
 90
       50
102
RTVSPost2010PropOp48
 70
     1
102
RTVSPost2010Prop49
280
     0
102
RTVSPost2010PropOp49
 70
     1
102
RTVSPost2010Prop50
 90
       50
102
RTVSPost2010PropOp50
 70
     1
102
RTVSPost2010Prop51ColorIndex
 90
      256
102
RTVSPost2010Prop51ColorRGB
 90
-16777216
102
RTVSPost2010PropOp51
 70
     0
102
RTVSPost2010Prop52
140
1.0
102
RTVSPost2010PropOp52
 70
     0
102
RTVSPost2010Prop53
 90
        2
102
RTVSPost2010PropOp53
 70
     1
102
RTVSPost2010Prop54
  1
strokes_ogs.tif
102
RTVSPost2010PropOp54
 70
     1
102
RTVSPost2010Prop55
280
     0
102
RTVSPost2010PropOp55
 70
     1
102
RTVSPost2010Prop56
140
1.0
102
RTVSPost2010PropOp56
 70
     1
102
RTVSPost2010Prop57
140
1.0
102
RTVSPost2010PropOp57
 70
     1
  0
XRECORD
  5
48E
102
{ACAD_REACTORS
330
48D
102
}
330
48D
100
AcDbXrecord
280
     1
102
RTVSPropertyOp0
 70
     1
102
RTVSPropertyOp1
 70
     1
102
RTVSPropertyOp2
 70
     1
102
RTVSPropertyOp3
 70
     1
102
RTVSPropertyOp4
 70
     1
102
RTVSPropertyOp5
 70
     1
102
RTVSPropertyOp6
 70
     1
102
RTVSPropertyOp7
 70
     1
102
RTVSPropertyOp8
 70
     1
102
RTVSPropertyOp9
 70
     1
102
RTVSPropertyOp10
 70
     1
102
RTVSPropertyOp11
 70
     1
102
RTVSPropertyOp12
 70
     1
102
RTVSPropertyOp13
 70
     1
102
RTVSPropertyOp14
 70
     1
102
RTVSPropertyOp15
 70
     1
102
RTVSPropertyOp16
 70
     1
102
RTVSPropertyOp17
 70
     1
102
RTVSPropertyOp18
 70
     1
102
RTVSPropertyOp19
 70
     1
102
RTVSPropertyOp20
 70
     1
102
RTVSPropertyOp21
 70
     1
102
RTVSPropertyOp22
 70
     1
102
RTVSPropertyOp23
 70
     1
102
RTVSPropertyOp24
 70
     1
102
RTVSPropertyOp25
 70
     1
102
RTVSPropertyOp26
 70
     1
102
RTVSPropertyOp27
 70
     1
102
RTVSPropertyOp28
 70
     1
102
RTVSPropertyOp29
 70
     1
102
RTVSPropertyOp30
 70
     1
102
RTVSPropertyOp31
 70
     1
102
RTVSPropertyOp32
 70
     1
102
RTVSPropertyOp33
 70
     1
102
RTVSPropertyOp34
 70
     1
102
RTVSPropertyOp35
 70
     1
102
RTVSPropertyOp36
 70
     1
102
RTVSPropertyOp37
 70
     1
102
RTVSPropertyOp38
 70
     1
102
RTVSPropertyOp39
 70
     1
102
RTVSPropertyOp40
 70
     1
102
RTVSPropertyOp41
 70
     1
102
RTVSPropertyOp42
 70
     1
102
RTVSPropertyOp43
 70
     1
102
RTVSPropertyOp44
 70
     1
102
RTVSPropertyOp45
 70
     1
102
RTVSPropertyOp46
 70
     1
102
RTVSPropertyOp47
 70
     1
102
RTVSPropertyOp48
 70
     1
102
RTVSPropertyOp49
 70
     1
102
RTVSPropertyOp50
 70
     1
102
RTVSPropertyOp51
 70
     0
102
RTVSPropertyOp52
 70
     0
102
RTVSPropertyOp53
 70
     1
102
RTVSPropertyOp54
 70
     1
102
RTVSPropertyOp55
 70
     1
102
RTVSPropertyOp56
 70
     1
102
RTVSPropertyOp57
 70
     1
102
RTVSPost2010Prop28
280
     0
102
RTVSPost2010PropOp28
 70
     1
102
RTVSPost2010Prop29
280
     1
102
RTVSPost2010PropOp29
 70
     1
102
RTVSPost2010Prop30
280
     1
102
RTVSPost2010PropOp30
 70
     1
102
RTVSPost2010Prop31
280
     0
102
RTVSPost2010PropOp31
 70
     1
102
RTVSPost2010Prop32
280
     0
102
RTVSPost2010PropOp32
 70
     1
102
RTVSPost2010Prop33
280
     0
102
RTVSPost2010PropOp33
 70
     1
102
RTVSPost2010Prop34
280
     0
102
RTVSPost2010PropOp34
 70
     1
102
RTVSPost2010Prop35
280
     0
102
RTVSPost2010PropOp35
 70
     1
102
RTVSPost2010Prop36
280
     0
102
RTVSPost2010PropOp36
 70
     1
102
RTVSPost2010Prop37
 90
       50
102
RTVSPost2010PropOp37
 70
     1
102
RTVSPost2010Prop38
140
0.0
102
RTVSPost2010PropOp38
 70
     1
102
RTVSPost2010Prop39
140
1.0
102
RTVSPost2010PropOp39
 70
     1
102
RTVSPost2010Prop40
 90
        0
102
RTVSPost2010PropOp40
 70
     1
102
RTVSPost2010Prop41ColorIndex
 90
       18
102
RTVSPost2010Prop41ColorRGB
 90
        0
102
RTVSPost2010PropOp41
 70
     1
102
RTVSPost2010Prop42
 90
       50
102
RTVSPost2010PropOp42
 70
     1
102
RTVSPost2010Prop43
 90
        3
102
RTVSPost2010PropOp43
 70
     1
102
RTVSPost2010Prop44ColorIndex
 90
        5
102
RTVSPost2010Prop44ColorRGB
 90
      255
102
RTVSPost2010PropOp44
 70
     1
102
RTVSPost2010Prop45
280
     0
102
RTVSPost2010PropOp45
 70
     1
102
RTVSPost2010Prop46
 90
       50
102
RTVSPost2010PropOp46
 70
     1
102
RTVSPost2010Prop47
 90
       50
102
RTVSPost2010PropOp47
 70
     1
102
RTVSPost2010Prop48
 90
       50
102
RTVSPost2010PropOp48
 70
     1
102
RTVSPost2010Prop49
280
     0
102
RTVSPost2010PropOp49
 70
     1
102
RTVSPost2010Prop50
 90
       50
102
RTVSPost2010PropOp50
 70
     1
102
RTVSPost2010Prop51ColorIndex
 90
      256
102
RTVSPost2010Prop51ColorRGB
 90
-16777216
102
RTVSPost2010PropOp51
 70
     0
102
RTVSPost2010Prop52
140
1.0
102
RTVSPost2010PropOp52
 70
     0
102
RTVSPost2010Prop53
 90
        2
102
RTVSPost2010PropOp53
 70
     1
102
RTVSPost2010Prop54
  1
strokes_ogs.tif
102
RTVSPost2010PropOp54
 70
     1
102
RTVSPost2010Prop55
280
     0
102
RTVSPost2010PropOp55
 70
     1
102
RTVSPost2010Prop56
140
1.0
102
RTVSPost2010PropOp56
 70
     1
102
RTVSPost2010Prop57
140
1.0
102
RTVSPost2010PropOp57
 70
     1
  0
XRECORD
  5
488
102
{ACAD_REACTORS
330
487
102
}
330
487
100
AcDbXrecord
280
     1
102
RTVSPropertyOp0
 70
     1
102
RTVSPropertyOp1
 70
     1
102
RTVSPropertyOp2
 70
     1
102
RTVSPropertyOp3
 70
     1
102
RTVSPropertyOp4
 70
     1
102
RTVSPropertyOp5
 70
     1
102
RTVSPropertyOp6
 70
     1
102
RTVSPropertyOp7
 70
     1
102
RTVSPropertyOp8
 70
     1
102
RTVSPropertyOp9
 70
     1
102
RTVSPropertyOp10
 70
     1
102
RTVSPropertyOp11
 70
     1
102
RTVSPropertyOp12
 70
     1
102
RTVSPropertyOp13
 70
     1
102
RTVSPropertyOp14
 70
     1
102
RTVSPropertyOp15
 70
     1
102
RTVSPropertyOp16
 70
     1
102
RTVSPropertyOp17
 70
     1
102
RTVSPropertyOp18
 70
     1
102
RTVSPropertyOp19
 70
     1
102
RTVSPropertyOp20
 70
     1
102
RTVSPropertyOp21
 70
     1
102
RTVSPropertyOp22
 70
     1
102
RTVSPropertyOp23
 70
     1
102
RTVSPropertyOp24
 70
     1
102
RTVSPropertyOp25
 70
     1
102
RTVSPropertyOp26
 70
     1
102
RTVSPropertyOp27
 70
     1
102
RTVSPropertyOp28
 70
     1
102
RTVSPropertyOp29
 70
     1
102
RTVSPropertyOp30
 70
     1
102
RTVSPropertyOp31
 70
     1
102
RTVSPropertyOp32
 70
     1
102
RTVSPropertyOp33
 70
     1
102
RTVSPropertyOp34
 70
     1
102
RTVSPropertyOp35
 70
     1
102
RTVSPropertyOp36
 70
     1
102
RTVSPropertyOp37
 70
     1
102
RTVSPropertyOp38
 70
     1
102
RTVSPropertyOp39
 70
     1
102
RTVSPropertyOp40
 70
     1
102
RTVSPropertyOp41
 70
     1
102
RTVSPropertyOp42
 70
     1
102
RTVSPropertyOp43
 70
     1
102
RTVSPropertyOp44
 70
     1
102
RTVSPropertyOp45
 70
     1
102
RTVSPropertyOp46
 70
     1
102
RTVSPropertyOp47
 70
     1
102
RTVSPropertyOp48
 70
     1
102
RTVSPropertyOp49
 70
     1
102
RTVSPropertyOp50
 70
     1
102
RTVSPropertyOp51
 70
     0
102
RTVSPropertyOp52
 70
     0
102
RTVSPropertyOp53
 70
     1
102
RTVSPropertyOp54
 70
     1
102
RTVSPropertyOp55
 70
     1
102
RTVSPropertyOp56
 70
     1
102
RTVSPropertyOp57
 70
     1
102
RTVSPost2010Prop28
280
     0
102
RTVSPost2010PropOp28
 70
     1
102
RTVSPost2010Prop29
280
     1
102
RTVSPost2010PropOp29
 70
     1
102
RTVSPost2010Prop30
280
     1
102
RTVSPost2010PropOp30
 70
     1
102
RTVSPost2010Prop31
280
     0
102
RTVSPost2010PropOp31
 70
     1
102
RTVSPost2010Prop32
280
     0
102
RTVSPost2010PropOp32
 70
     1
102
RTVSPost2010Prop33
280
     0
102
RTVSPost2010PropOp33
 70
     1
102
RTVSPost2010Prop34
280
     0
102
RTVSPost2010PropOp34
 70
     1
102
RTVSPost2010Prop35
280
     0
102
RTVSPost2010PropOp35
 70
     1
102
RTVSPost2010Prop36
280
     0
102
RTVSPost2010PropOp36
 70
     1
102
RTVSPost2010Prop37
 90
       50
102
RTVSPost2010PropOp37
 70
     1
102
RTVSPost2010Prop38
140
0.0
102
RTVSPost2010PropOp38
 70
     1
102
RTVSPost2010Prop39
140
1.0
102
RTVSPost2010PropOp39
 70
     1
102
RTVSPost2010Prop40
 90
        0
102
RTVSPost2010PropOp40
 70
     1
102
RTVSPost2010Prop41ColorIndex
 90
       18
102
RTVSPost2010Prop41ColorRGB
 90
        0
102
RTVSPost2010PropOp41
 70
     1
102
RTVSPost2010Prop42
 90
       50
102
RTVSPost2010PropOp42
 70
     1
102
RTVSPost2010Prop43
 90
        3
102
RTVSPost2010PropOp43
 70
     1
102
RTVSPost2010Prop44ColorIndex
 90
        5
102
RTVSPost2010Prop44ColorRGB
 90
      255
102
RTVSPost2010PropOp44
 70
     1
102
RTVSPost2010Prop45
280
     0
102
RTVSPost2010PropOp45
 70
     1
102
RTVSPost2010Prop46
 90
       50
102
RTVSPost2010PropOp46
 70
     1
102
RTVSPost2010Prop47
 90
       50
102
RTVSPost2010PropOp47
 70
     1
102
RTVSPost2010Prop48
 90
       50
102
RTVSPost2010PropOp48
 70
     1
102
RTVSPost2010Prop49
280
     0
102
RTVSPost2010PropOp49
 70
     1
102
RTVSPost2010Prop50
 90
       50
102
RTVSPost2010PropOp50
 70
     1
102
RTVSPost2010Prop51ColorIndex
 90
      256
102
RTVSPost2010Prop51ColorRGB
 90
-16777216
102
RTVSPost2010PropOp51
 70
     0
102
RTVSPost2010Prop52
140
1.0
102
RTVSPost2010PropOp52
 70
     0
102
RTVSPost2010Prop53
 90
        2
102
RTVSPost2010PropOp53
 70
     1
102
RTVSPost2010Prop54
  1
strokes_ogs.tif
102
RTVSPost2010PropOp54
 70
     1
102
RTVSPost2010Prop55
280
     0
102
RTVSPost2010PropOp55
 70
     1
102
RTVSPost2010Prop56
140
1.0
102
RTVSPost2010PropOp56
 70
     1
102
RTVSPost2010Prop57
140
1.0
102
RTVSPost2010PropOp57
 70
     1
  0
XRECORD
  5
48A
102
{ACAD_REACTORS
330
489
102
}
330
489
100
AcDbXrecord
280
     1
102
RTVSPropertyOp0
 70
     1
102
RTVSPropertyOp1
 70
     1
102
RTVSPropertyOp2
 70
     1
102
RTVSPropertyOp3
 70
     1
102
RTVSPropertyOp4
 70
     1
102
RTVSPropertyOp5
 70
     1
102
RTVSPropertyOp6
 70
     1
102
RTVSPropertyOp7
 70
     1
102
RTVSPropertyOp8
 70
     1
102
RTVSPropertyOp9
 70
     1
102
RTVSPropertyOp10
 70
     1
102
RTVSPropertyOp11
 70
     1
102
RTVSPropertyOp12
 70
     1
102
RTVSPropertyOp13
 70
     1
102
RTVSPropertyOp14
 70
     1
102
RTVSPropertyOp15
 70
     1
102
RTVSPropertyOp16
 70
     1
102
RTVSPropertyOp17
 70
     1
102
RTVSPropertyOp18
 70
     1
102
RTVSPropertyOp19
 70
     1
102
RTVSPropertyOp20
 70
     1
102
RTVSPropertyOp21
 70
     1
102
RTVSPropertyOp22
 70
     1
102
RTVSPropertyOp23
 70
     1
102
RTVSPropertyOp24
 70
     1
102
RTVSPropertyOp25
 70
     1
102
RTVSPropertyOp26
 70
     1
102
RTVSPropertyOp27
 70
     1
102
RTVSPropertyOp28
 70
     1
102
RTVSPropertyOp29
 70
     1
102
RTVSPropertyOp30
 70
     1
102
RTVSPropertyOp31
 70
     1
102
RTVSPropertyOp32
 70
     1
102
RTVSPropertyOp33
 70
     1
102
RTVSPropertyOp34
 70
     1
102
RTVSPropertyOp35
 70
     1
102
RTVSPropertyOp36
 70
     1
102
RTVSPropertyOp37
 70
     1
102
RTVSPropertyOp38
 70
     1
102
RTVSPropertyOp39
 70
     1
102
RTVSPropertyOp40
 70
     1
102
RTVSPropertyOp41
 70
     1
102
RTVSPropertyOp42
 70
     1
102
RTVSPropertyOp43
 70
     1
102
RTVSPropertyOp44
 70
     1
102
RTVSPropertyOp45
 70
     1
102
RTVSPropertyOp46
 70
     1
102
RTVSPropertyOp47
 70
     1
102
RTVSPropertyOp48
 70
     1
102
RTVSPropertyOp49
 70
     1
102
RTVSPropertyOp50
 70
     1
102
RTVSPropertyOp51
 70
     0
102
RTVSPropertyOp52
 70
     0
102
RTVSPropertyOp53
 70
     1
102
RTVSPropertyOp54
 70
     1
102
RTVSPropertyOp55
 70
     1
102
RTVSPropertyOp56
 70
     1
102
RTVSPropertyOp57
 70
     1
102
RTVSPost2010Prop28
280
     0
102
RTVSPost2010PropOp28
 70
     1
102
RTVSPost2010Prop29
280
     1
102
RTVSPost2010PropOp29
 70
     1
102
RTVSPost2010Prop30
280
     1
102
RTVSPost2010PropOp30
 70
     1
102
RTVSPost2010Prop31
280
     0
102
RTVSPost2010PropOp31
 70
     1
102
RTVSPost2010Prop32
280
     0
102
RTVSPost2010PropOp32
 70
     1
102
RTVSPost2010Prop33
280
     0
102
RTVSPost2010PropOp33
 70
     1
102
RTVSPost2010Prop34
280
     0
102
RTVSPost2010PropOp34
 70
     1
102
RTVSPost2010Prop35
280
     0
102
RTVSPost2010PropOp35
 70
     1
102
RTVSPost2010Prop36
280
     0
102
RTVSPost2010PropOp36
 70
     1
102
RTVSPost2010Prop37
 90
       50
102
RTVSPost2010PropOp37
 70
     1
102
RTVSPost2010Prop38
140
0.0
102
RTVSPost2010PropOp38
 70
     1
102
RTVSPost2010Prop39
140
1.0
102
RTVSPost2010PropOp39
 70
     1
102
RTVSPost2010Prop40
 90
        0
102
RTVSPost2010PropOp40
 70
     1
102
RTVSPost2010Prop41ColorIndex
 90
       18
102
RTVSPost2010Prop41ColorRGB
 90
        0
102
RTVSPost2010PropOp41
 70
     1
102
RTVSPost2010Prop42
 90
       50
102
RTVSPost2010PropOp42
 70
     1
102
RTVSPost2010Prop43
 90
        3
102
RTVSPost2010PropOp43
 70
     1
102
RTVSPost2010Prop44ColorIndex
 90
        5
102
RTVSPost2010Prop44ColorRGB
 90
      255
102
RTVSPost2010PropOp44
 70
     1
102
RTVSPost2010Prop45
280
     0
102
RTVSPost2010PropOp45
 70
     1
102
RTVSPost2010Prop46
 90
       50
102
RTVSPost2010PropOp46
 70
     1
102
RTVSPost2010Prop47
 90
       50
102
RTVSPost2010PropOp47
 70
     1
102
RTVSPost2010Prop48
 90
       50
102
RTVSPost2010PropOp48
 70
     1
102
RTVSPost2010Prop49
280
     0
102
RTVSPost2010PropOp49
 70
     1
102
RTVSPost2010Prop50
 90
       50
102
RTVSPost2010PropOp50
 70
     1
102
RTVSPost2010Prop51ColorIndex
 90
      256
102
RTVSPost2010Prop51ColorRGB
 90
-16777216
102
RTVSPost2010PropOp51
 70
     0
102
RTVSPost2010Prop52
140
1.0
102
RTVSPost2010PropOp52
 70
     0
102
RTVSPost2010Prop53
 90
        2
102
RTVSPost2010PropOp53
 70
     1
102
RTVSPost2010Prop54
  1
strokes_ogs.tif
102
RTVSPost2010PropOp54
 70
     1
102
RTVSPost2010Prop55
280
     0
102
RTVSPost2010PropOp55
 70
     1
102
RTVSPost2010Prop56
140
1.0
102
RTVSPost2010PropOp56
 70
     1
102
RTVSPost2010Prop57
140
1.0
102
RTVSPost2010PropOp57
 70
     1
  0
XRECORD
  5
476
102
{ACAD_REACTORS
330
475
102
}
330
475
100
AcDbXrecord
280
     1
102
RTVSPropertyOp0
 70
     1
102
RTVSPropertyOp1
 70
     1
102
RTVSPropertyOp2
 70
     1
102
RTVSPropertyOp3
 70
     1
102
RTVSPropertyOp4
 70
     1
102
RTVSPropertyOp5
 70
     1
102
RTVSPropertyOp6
 70
     1
102
RTVSPropertyOp7
 70
     1
102
RTVSPropertyOp8
 70
     1
102
RTVSPropertyOp9
 70
     1
102
RTVSPropertyOp10
 70
     1
102
RTVSPropertyOp11
 70
     1
102
RTVSPropertyOp12
 70
     1
102
RTVSPropertyOp13
 70
     1
102
RTVSPropertyOp14
 70
     1
102
RTVSPropertyOp15
 70
     1
102
RTVSPropertyOp16
 70
     1
102
RTVSPropertyOp17
 70
     1
102
RTVSPropertyOp18
 70
     1
102
RTVSPropertyOp19
 70
     1
102
RTVSPropertyOp20
 70
     1
102
RTVSPropertyOp21
 70
     1
102
RTVSPropertyOp22
 70
     1
102
RTVSPropertyOp23
 70
     1
102
RTVSPropertyOp24
 70
     1
102
RTVSPropertyOp25
 70
     1
102
RTVSPropertyOp26
 70
     1
102
RTVSPropertyOp27
 70
     1
102
RTVSPropertyOp28
 70
     1
102
RTVSPropertyOp29
 70
     1
102
RTVSPropertyOp30
 70
     1
102
RTVSPropertyOp31
 70
     1
102
RTVSPropertyOp32
 70
     1
102
RTVSPropertyOp33
 70
     1
102
RTVSPropertyOp34
 70
     1
102
RTVSPropertyOp35
 70
     1
102
RTVSPropertyOp36
 70
     1
102
RTVSPropertyOp37
 70
     1
102
RTVSPropertyOp38
 70
     1
102
RTVSPropertyOp39
 70
     1
102
RTVSPropertyOp40
 70
     1
102
RTVSPropertyOp41
 70
     1
102
RTVSPropertyOp42
 70
     1
102
RTVSPropertyOp43
 70
     1
102
RTVSPropertyOp44
 70
     1
102
RTVSPropertyOp45
 70
     1
102
RTVSPropertyOp46
 70
     1
102
RTVSPropertyOp47
 70
     1
102
RTVSPropertyOp48
 70
     1
102
RTVSPropertyOp49
 70
     1
102
RTVSPropertyOp50
 70
     1
102
RTVSPropertyOp51
 70
     0
102
RTVSPropertyOp52
 70
     0
102
RTVSPropertyOp53
 70
     1
102
RTVSPropertyOp54
 70
     1
102
RTVSPropertyOp55
 70
     1
102
RTVSPropertyOp56
 70
     1
102
RTVSPropertyOp57
 70
     1
102
RTVSPost2010Prop28
280
     0
102
RTVSPost2010PropOp28
 70
     1
102
RTVSPost2010Prop29
280
     1
102
RTVSPost2010PropOp29
 70
     1
102
RTVSPost2010Prop30
280
     1
102
RTVSPost2010PropOp30
 70
     1
102
RTVSPost2010Prop31
280
     0
102
RTVSPost2010PropOp31
 70
     1
102
RTVSPost2010Prop32
280
     0
102
RTVSPost2010PropOp32
 70
     1
102
RTVSPost2010Prop33
280
     0
102
RTVSPost2010PropOp33
 70
     1
102
RTVSPost2010Prop34
280
     0
102
RTVSPost2010PropOp34
 70
     1
102
RTVSPost2010Prop35
280
     0
102
RTVSPost2010PropOp35
 70
     1
102
RTVSPost2010Prop36
280
     0
102
RTVSPost2010PropOp36
 70
     1
102
RTVSPost2010Prop37
 90
       50
102
RTVSPost2010PropOp37
 70
     1
102
RTVSPost2010Prop38
140
0.0
102
RTVSPost2010PropOp38
 70
     1
102
RTVSPost2010Prop39
140
1.0
102
RTVSPost2010PropOp39
 70
     1
102
RTVSPost2010Prop40
 90
        0
102
RTVSPost2010PropOp40
 70
     1
102
RTVSPost2010Prop41ColorIndex
 90
       18
102
RTVSPost2010Prop41ColorRGB
 90
        0
102
RTVSPost2010PropOp41
 70
     1
102
RTVSPost2010Prop42
 90
       50
102
RTVSPost2010PropOp42
 70
     1
102
RTVSPost2010Prop43
 90
        3
102
RTVSPost2010PropOp43
 70
     1
102
RTVSPost2010Prop44ColorIndex
 90
        5
102
RTVSPost2010Prop44ColorRGB
 90
      255
102
RTVSPost2010PropOp44
 70
     1
102
RTVSPost2010Prop45
280
     0
102
RTVSPost2010PropOp45
 70
     1
102
RTVSPost2010Prop46
 90
       50
102
RTVSPost2010PropOp46
 70
     1
102
RTVSPost2010Prop47
 90
       50
102
RTVSPost2010PropOp47
 70
     1
102
RTVSPost2010Prop48
 90
       50
102
RTVSPost2010PropOp48
 70
     1
102
RTVSPost2010Prop49
280
     0
102
RTVSPost2010PropOp49
 70
     1
102
RTVSPost2010Prop50
 90
       50
102
RTVSPost2010PropOp50
 70
     1
102
RTVSPost2010Prop51ColorIndex
 90
      256
102
RTVSPost2010Prop51ColorRGB
 90
-16777216
102
RTVSPost2010PropOp51
 70
     0
102
RTVSPost2010Prop52
140
1.0
102
RTVSPost2010PropOp52
 70
     0
102
RTVSPost2010Prop53
 90
        2
102
RTVSPost2010PropOp53
 70
     1
102
RTVSPost2010Prop54
  1
strokes_ogs.tif
102
RTVSPost2010PropOp54
 70
     1
102
RTVSPost2010Prop55
280
     0
102
RTVSPost2010PropOp55
 70
     1
102
RTVSPost2010Prop56
140
1.0
102
RTVSPost2010PropOp56
 70
     1
102
RTVSPost2010Prop57
140
1.0
102
RTVSPost2010PropOp57
 70
     1
  0
XRECORD
  5
47E
102
{ACAD_REACTORS
330
47D
102
}
330
47D
100
AcDbXrecord
280
     1
102
RTVSPropertyOp0
 70
     1
102
RTVSPropertyOp1
 70
     1
102
RTVSPropertyOp2
 70
     1
102
RTVSPropertyOp3
 70
     1
102
RTVSPropertyOp4
 70
     1
102
RTVSPropertyOp5
 70
     1
102
RTVSPropertyOp6
 70
     1
102
RTVSPropertyOp7
 70
     1
102
RTVSPropertyOp8
 70
     1
102
RTVSPropertyOp9
 70
     1
102
RTVSPropertyOp10
 70
     1
102
RTVSPropertyOp11
 70
     1
102
RTVSPropertyOp12
 70
     1
102
RTVSPropertyOp13
 70
     1
102
RTVSPropertyOp14
 70
     1
102
RTVSPropertyOp15
 70
     1
102
RTVSPropertyOp16
 70
     1
102
RTVSPropertyOp17
 70
     1
102
RTVSPropertyOp18
 70
     1
102
RTVSPropertyOp19
 70
     1
102
RTVSPropertyOp20
 70
     1
102
RTVSPropertyOp21
 70
     1
102
RTVSPropertyOp22
 70
     1
102
RTVSPropertyOp23
 70
     1
102
RTVSPropertyOp24
 70
     1
102
RTVSPropertyOp25
 70
     1
102
RTVSPropertyOp26
 70
     1
102
RTVSPropertyOp27
 70
     1
102
RTVSPropertyOp28
 70
     1
102
RTVSPropertyOp29
 70
     1
102
RTVSPropertyOp30
 70
     1
102
RTVSPropertyOp31
 70
     1
102
RTVSPropertyOp32
 70
     1
102
RTVSPropertyOp33
 70
     1
102
RTVSPropertyOp34
 70
     1
102
RTVSPropertyOp35
 70
     1
102
RTVSPropertyOp36
 70
     1
102
RTVSPropertyOp37
 70
     1
102
RTVSPropertyOp38
 70
     1
102
RTVSPropertyOp39
 70
     1
102
RTVSPropertyOp40
 70
     1
102
RTVSPropertyOp41
 70
     1
102
RTVSPropertyOp42
 70
     1
102
RTVSPropertyOp43
 70
     1
102
RTVSPropertyOp44
 70
     1
102
RTVSPropertyOp45
 70
     1
102
RTVSPropertyOp46
 70
     1
102
RTVSPropertyOp47
 70
     1
102
RTVSPropertyOp48
 70
     1
102
RTVSPropertyOp49
 70
     1
102
RTVSPropertyOp50
 70
     1
102
RTVSPropertyOp51
 70
     0
102
RTVSPropertyOp52
 70
     0
102
RTVSPropertyOp53
 70
     1
102
RTVSPropertyOp54
 70
     1
102
RTVSPropertyOp55
 70
     1
102
RTVSPropertyOp56
 70
     1
102
RTVSPropertyOp57
 70
     1
102
RTVSPost2010Prop28
280
     0
102
RTVSPost2010PropOp28
 70
     1
102
RTVSPost2010Prop29
280
     1
102
RTVSPost2010PropOp29
 70
     1
102
RTVSPost2010Prop30
280
     1
102
RTVSPost2010PropOp30
 70
     1
102
RTVSPost2010Prop31
280
     0
102
RTVSPost2010PropOp31
 70
     1
102
RTVSPost2010Prop32
280
     0
102
RTVSPost2010PropOp32
 70
     1
102
RTVSPost2010Prop33
280
     0
102
RTVSPost2010PropOp33
 70
     1
102
RTVSPost2010Prop34
280
     0
102
RTVSPost2010PropOp34
 70
     1
102
RTVSPost2010Prop35
280
     0
102
RTVSPost2010PropOp35
 70
     1
102
RTVSPost2010Prop36
280
     0
102
RTVSPost2010PropOp36
 70
     1
102
RTVSPost2010Prop37
 90
       50
102
RTVSPost2010PropOp37
 70
     1
102
RTVSPost2010Prop38
140
0.0
102
RTVSPost2010PropOp38
 70
     1
102
RTVSPost2010Prop39
140
1.0
102
RTVSPost2010PropOp39
 70
     1
102
RTVSPost2010Prop40
 90
        0
102
RTVSPost2010PropOp40
 70
     1
102
RTVSPost2010Prop41ColorIndex
 90
       18
102
RTVSPost2010Prop41ColorRGB
 90
        0
102
RTVSPost2010PropOp41
 70
     1
102
RTVSPost2010Prop42
 90
       50
102
RTVSPost2010PropOp42
 70
     1
102
RTVSPost2010Prop43
 90
        3
102
RTVSPost2010PropOp43
 70
     1
102
RTVSPost2010Prop44ColorIndex
 90
        5
102
RTVSPost2010Prop44ColorRGB
 90
      255
102
RTVSPost2010PropOp44
 70
     1
102
RTVSPost2010Prop45
280
     0
102
RTVSPost2010PropOp45
 70
     1
102
RTVSPost2010Prop46
 90
       50
102
RTVSPost2010PropOp46
 70
     1
102
RTVSPost2010Prop47
 90
       50
102
RTVSPost2010PropOp47
 70
     1
102
RTVSPost2010Prop48
 90
       50
102
RTVSPost2010PropOp48
 70
     1
102
RTVSPost2010Prop49
280
     0
102
RTVSPost2010PropOp49
 70
     1
102
RTVSPost2010Prop50
 90
       50
102
RTVSPost2010PropOp50
 70
     1
102
RTVSPost2010Prop51ColorIndex
 90
      256
102
RTVSPost2010Prop51ColorRGB
 90
-16777216
102
RTVSPost2010PropOp51
 70
     0
102
RTVSPost2010Prop52
140
1.0
102
RTVSPost2010PropOp52
 70
     0
102
RTVSPost2010Prop53
 90
        2
102
RTVSPost2010PropOp53
 70
     1
102
RTVSPost2010Prop54
  1
strokes_ogs.tif
102
RTVSPost2010PropOp54
 70
     1
102
RTVSPost2010Prop55
280
     0
102
RTVSPost2010PropOp55
 70
     1
102
RTVSPost2010Prop56
140
1.0
102
RTVSPost2010PropOp56
 70
     1
102
RTVSPost2010Prop57
140
1.0
102
RTVSPost2010PropOp57
 70
     1
  0
XRECORD
  5
48C
102
{ACAD_REACTORS
330
48B
102
}
330
48B
100
AcDbXrecord
280
     1
102
RTVSPropertyOp0
 70
     1
102
RTVSPropertyOp1
 70
     1
102
RTVSPropertyOp2
 70
     1
102
RTVSPropertyOp3
 70
     1
102
RTVSPropertyOp4
 70
     1
102
RTVSPropertyOp5
 70
     1
102
RTVSPropertyOp6
 70
     1
102
RTVSPropertyOp7
 70
     1
102
RTVSPropertyOp8
 70
     1
102
RTVSPropertyOp9
 70
     1
102
RTVSPropertyOp10
 70
     1
102
RTVSPropertyOp11
 70
     1
102
RTVSPropertyOp12
 70
     1
102
RTVSPropertyOp13
 70
     1
102
RTVSPropertyOp14
 70
     1
102
RTVSPropertyOp15
 70
     1
102
RTVSPropertyOp16
 70
     1
102
RTVSPropertyOp17
 70
     1
102
RTVSPropertyOp18
 70
     1
102
RTVSPropertyOp19
 70
     1
102
RTVSPropertyOp20
 70
     1
102
RTVSPropertyOp21
 70
     1
102
RTVSPropertyOp22
 70
     1
102
RTVSPropertyOp23
 70
     1
102
RTVSPropertyOp24
 70
     1
102
RTVSPropertyOp25
 70
     1
102
RTVSPropertyOp26
 70
     1
102
RTVSPropertyOp27
 70
     1
102
RTVSPropertyOp28
 70
     1
102
RTVSPropertyOp29
 70
     1
102
RTVSPropertyOp30
 70
     1
102
RTVSPropertyOp31
 70
     1
102
RTVSPropertyOp32
 70
     1
102
RTVSPropertyOp33
 70
     1
102
RTVSPropertyOp34
 70
     1
102
RTVSPropertyOp35
 70
     1
102
RTVSPropertyOp36
 70
     1
102
RTVSPropertyOp37
 70
     1
102
RTVSPropertyOp38
 70
     1
102
RTVSPropertyOp39
 70
     1
102
RTVSPropertyOp40
 70
     1
102
RTVSPropertyOp41
 70
     1
102
RTVSPropertyOp42
 70
     1
102
RTVSPropertyOp43
 70
     1
102
RTVSPropertyOp44
 70
     1
102
RTVSPropertyOp45
 70
     1
102
RTVSPropertyOp46
 70
     1
102
RTVSPropertyOp47
 70
     1
102
RTVSPropertyOp48
 70
     1
102
RTVSPropertyOp49
 70
     1
102
RTVSPropertyOp50
 70
     1
102
RTVSPropertyOp51
 70
     0
102
RTVSPropertyOp52
 70
     0
102
RTVSPropertyOp53
 70
     1
102
RTVSPropertyOp54
 70
     1
102
RTVSPropertyOp55
 70
     1
102
RTVSPropertyOp56
 70
     1
102
RTVSPropertyOp57
 70
     1
102
RTVSPost2010Prop28
280
     0
102
RTVSPost2010PropOp28
 70
     1
102
RTVSPost2010Prop29
280
     1
102
RTVSPost2010PropOp29
 70
     1
102
RTVSPost2010Prop30
280
     1
102
RTVSPost2010PropOp30
 70
     1
102
RTVSPost2010Prop31
280
     0
102
RTVSPost2010PropOp31
 70
     1
102
RTVSPost2010Prop32
280
     0
102
RTVSPost2010PropOp32
 70
     1
102
RTVSPost2010Prop33
280
     0
102
RTVSPost2010PropOp33
 70
     1
102
RTVSPost2010Prop34
280
     0
102
RTVSPost2010PropOp34
 70
     1
102
RTVSPost2010Prop35
280
     0
102
RTVSPost2010PropOp35
 70
     1
102
RTVSPost2010Prop36
280
     0
102
RTVSPost2010PropOp36
 70
     1
102
RTVSPost2010Prop37
 90
       50
102
RTVSPost2010PropOp37
 70
     1
102
RTVSPost2010Prop38
140
0.0
102
RTVSPost2010PropOp38
 70
     1
102
RTVSPost2010Prop39
140
1.0
102
RTVSPost2010PropOp39
 70
     1
102
RTVSPost2010Prop40
 90
        0
102
RTVSPost2010PropOp40
 70
     1
102
RTVSPost2010Prop41ColorIndex
 90
       18
102
RTVSPost2010Prop41ColorRGB
 90
        0
102
RTVSPost2010PropOp41
 70
     1
102
RTVSPost2010Prop42
 90
       50
102
RTVSPost2010PropOp42
 70
     1
102
RTVSPost2010Prop43
 90
        3
102
RTVSPost2010PropOp43
 70
     1
102
RTVSPost2010Prop44ColorIndex
 90
        5
102
RTVSPost2010Prop44ColorRGB
 90
      255
102
RTVSPost2010PropOp44
 70
     1
102
RTVSPost2010Prop45
280
     0
102
RTVSPost2010PropOp45
 70
     1
102
RTVSPost2010Prop46
 90
       50
102
RTVSPost2010PropOp46
 70
     1
102
RTVSPost2010Prop47
 90
       50
102
RTVSPost2010PropOp47
 70
     1
102
RTVSPost2010Prop48
 90
       50
102
RTVSPost2010PropOp48
 70
     1
102
RTVSPost2010Prop49
280
     0
102
RTVSPost2010PropOp49
 70
     1
102
RTVSPost2010Prop50
 90
       50
102
RTVSPost2010PropOp50
 70
     1
102
RTVSPost2010Prop51ColorIndex
 90
      256
102
RTVSPost2010Prop51ColorRGB
 90
-16777216
102
RTVSPost2010PropOp51
 70
     0
102
RTVSPost2010Prop52
140
1.0
102
RTVSPost2010PropOp52
 70
     0
102
RTVSPost2010Prop53
 90
        2
102
RTVSPost2010PropOp53
 70
     1
102
RTVSPost2010Prop54
  1
strokes_ogs.tif
102
RTVSPost2010PropOp54
 70
     1
102
RTVSPost2010Prop55
280
     0
102
RTVSPost2010PropOp55
 70
     1
102
RTVSPost2010Prop56
140
1.0
102
RTVSPost2010PropOp56
 70
     1
102
RTVSPost2010Prop57
140
1.0
102
RTVSPost2010PropOp57
 70
     1
  0
ENDSEC
  0
EOF
