  0
SECTION
  2
HEADER
  9
$ACADVER
  1
AC1015
  9
$ACADMAINTVER
 70
     6
  9
$DWGCODEPAGE
  3
ANSI_1252
  9
$INSBASE
 10
0.0
 20
0.0
 30
0.0
  9
$EXTMIN
 10
2387.239335946007
 20
124.7598577521953
 30
-0.0000000000112498
  9
$EXTMAX
 10
3156.687272757685
 20
1811.630288313802
 30
0.0000000000002956
  9
$LIMMIN
 10
0.0
 20
0.0
  9
$LIMMAX
 10
594.0
 20
420.0
  9
$ORTHOMODE
 70
     0
  9
$REGENMODE
 70
     1
  9
$FILLMODE
 70
     1
  9
$QTEXTMODE
 70
     0
  9
$MIRRTEXT
 70
     1
  9
$LTSCALE
 40
25.4
  9
$ATTMODE
 70
     1
  9
$TEXTSIZE
 40
0.2
  9
$TRACEWID
 40
0.05
  9
$TEXTSTYLE
  7
Standard
  9
$CLAYER
  8
0
  9
$CELTYPE
  6
CONTINUOUS
  9
$CECOLOR
 62
   256
  9
$CELTSCALE
 40
1.0
  9
$DISPSILH
 70
     0
  9
$DIMSCALE
 40
1.0
  9
$DIMASZ
 40
0.18
  9
$DIMEXO
 40
0.0625
  9
$DIMDLI
 40
0.38
  9
$DIMRND
 40
0.0
  9
$DIMDLE
 40
0.0
  9
$DIMEXE
 40
0.18
  9
$DIMTP
 40
0.0
  9
$DIMTM
 40
0.0
  9
$DIMTXT
 40
0.18
  9
$DIMCEN
 40
0.09
  9
$DIMTSZ
 40
0.0
  9
$DIMTOL
 70
     0
  9
$DIMLIM
 70
     0
  9
$DIMTIH
 70
     1
  9
$DIMTOH
 70
     1
  9
$DIMSE1
 70
     0
  9
$DIMSE2
 70
     0
  9
$DIMTAD
 70
     0
  9
$DIMZIN
 70
     0
  9
$DIMBLK
  1

  9
$DIMASO
 70
     1
  9
$DIMSHO
 70
     1
  9
$DIMPOST
  1

  9
$DIMAPOST
  1

  9
$DIMALT
 70
     0
  9
$DIMALTD
 70
     2
  9
$DIMALTF
 40
25.4
  9
$DIMLFAC
 40
1.0
  9
$DIMTOFL
 70
     0
  9
$DIMTVP
 40
0.0
  9
$DIMTIX
 70
     0
  9
$DIMSOXD
 70
     0
  9
$DIMSAH
 70
     0
  9
$DIMBLK1
  1

  9
$DIMBLK2
  1

  9
$DIMSTYLE
  2
Standard
  9
$DIMCLRD
 70
     0
  9
$DIMCLRE
 70
     0
  9
$DIMCLRT
 70
     0
  9
$DIMTFAC
 40
1.0
  9
$DIMGAP
 40
0.09
  9
$DIMJUST
 70
     0
  9
$DIMSD1
 70
     0
  9
$DIMSD2
 70
     0
  9
$DIMTOLJ
 70
     1
  9
$DIMTZIN
 70
     0
  9
$DIMALTZ
 70
     0
  9
$DIMALTTZ
 70
     0
  9
$DIMUPT
 70
     0
  9
$DIMDEC
 70
     4
  9
$DIMTDEC
 70
     4
  9
$DIMALTU
 70
     2
  9
$DIMALTTD
 70
     2
  9
$DIMTXSTY
  7
Standard
  9
$DIMAUNIT
 70
     0
  9
$DIMADEC
 70
     0
  9
$DIMALTRND
 40
0.0
  9
$DIMAZIN
 70
     0
  9
$DIMDSEP
 70
     0
  9
$DIMATFIT
 70
     3
  9
$DIMFRAC
 70
     0
  9
$DIMLDRBLK
  1

  9
$DIMLUNIT
 70
     2
  9
$DIMLWD
 70
     0
  9
$DIMLWE
 70
     0
  9
$DIMTMOVE
 70
     0
  9
$LUNITS
 70
     2
  9
$LUPREC
 70
     4
  9
$SKETCHINC
 40
0.1
  9
$FILLETRAD
 40
0.0
  9
$AUNITS
 70
     0
  9
$AUPREC
 70
     0
  9
$MENU
  1
acad
  9
$ELEVATION
 40
0.0
  9
$PELEVATION
 40
0.0
  9
$THICKNESS
 40
0.0
  9
$LIMCHECK
 70
     0
  9
$CHAMFERA
 40
0.0
  9
$CHAMFERB
 40
0.0
  9
$CHAMFERC
 40
0.0
  9
$CHAMFERD
 40
0.0
  9
$SKPOLY
 70
     0
  9
$TDCREATE
 40
2456573.571752361
  9
$TDUCREATE
 40
2456573.488419028
  9
$TDUPDATE
 40
2459842.453633761
  9
$TDUUPDATE
 40
2459842.370300428
  9
$TDINDWG
 40
0.0023073148
  9
$TDUSRTIMER
 40
0.0023072685
  9
$USRTIMER
 70
     1
  9
$ANGBASE
 50
0.0
  9
$ANGDIR
 70
     0
  9
$PDMODE
 70
     0
  9
$PDSIZE
 40
0.0
  9
$PLINEWID
 40
0.0
  9
$SPLFRAME
 70
     0
  9
$SPLINETYPE
 70
     6
  9
$SPLINESEGS
 70
     8
  9
$HANDSEED
  5
83B5
  9
$SURFTAB1
 70
     6
  9
$SURFTAB2
 70
     6
  9
$SURFTYPE
 70
     6
  9
$SURFU
 70
     6
  9
$SURFV
 70
     6
  9
$UCSBASE
  2

  9
$UCSNAME
  2

  9
$UCSORG
 10
0.0
 20
0.0
 30
0.0
  9
$UCSXDIR
 10
1.0
 20
0.0
 30
0.0
  9
$UCSYDIR
 10
0.0
 20
1.0
 30
0.0
  9
$UCSORTHOREF
  2

  9
$UCSORTHOVIEW
 70
     0
  9
$UCSORGTOP
 10
0.0
 20
0.0
 30
0.0
  9
$UCSORGBOTTOM
 10
0.0
 20
0.0
 30
0.0
  9
$UCSORGLEFT
 10
0.0
 20
0.0
 30
0.0
  9
$UCSORGRIGHT
 10
0.0
 20
0.0
 30
0.0
  9
$UCSORGFRONT
 10
0.0
 20
0.0
 30
0.0
  9
$UCSORGBACK
 10
0.0
 20
0.0
 30
0.0
  9
$PUCSBASE
  2

  9
$PUCSNAME
  2

  9
$PUCSORG
 10
0.0
 20
0.0
 30
0.0
  9
$PUCSXDIR
 10
1.0
 20
0.0
 30
0.0
  9
$PUCSYDIR
 10
0.0
 20
1.0
 30
0.0
  9
$PUCSORTHOREF
  2

  9
$PUCSORTHOVIEW
 70
     0
  9
$PUCSORGTOP
 10
0.0
 20
0.0
 30
0.0
  9
$PUCSORGBOTTOM
 10
0.0
 20
0.0
 30
0.0
  9
$PUCSORGLEFT
 10
0.0
 20
0.0
 30
0.0
  9
$PUCSORGRIGHT
 10
0.0
 20
0.0
 30
0.0
  9
$PUCSORGFRONT
 10
0.0
 20
0.0
 30
0.0
  9
$PUCSORGBACK
 10
0.0
 20
0.0
 30
0.0
  9
$USERI1
 70
     0
  9
$USERI2
 70
     0
  9
$USERI3
 70
     0
  9
$USERI4
 70
     0
  9
$USERI5
 70
     0
  9
$USERR1
 40
0.0
  9
$USERR2
 40
0.0
  9
$USERR3
 40
0.0
  9
$USERR4
 40
0.0
  9
$USERR5
 40
0.0
  9
$WORLDVIEW
 70
     1
  9
$SHADEDGE
 70
     3
  9
$SHADEDIF
 70
    70
  9
$TILEMODE
 70
     1
  9
$MAXACTVP
 70
    16
  9
$PINSBASE
 10
0.0
 20
0.0
 30
0.0
  9
$PLIMCHECK
 70
     0
  9
$PEXTMIN
 10
1.000000000000000E+20
 20
1.000000000000000E+20
 30
1.000000000000000E+20
  9
$PEXTMAX
 10
-1.000000000000000E+20
 20
-1.000000000000000E+20
 30
-1.000000000000000E+20
  9
$PLIMMIN
 10
0.0
 20
0.0
  9
$PLIMMAX
 10
12.0
 20
9.0
  9
$UNITMODE
 70
     0
  9
$VISRETAIN
 70
     0
  9
$PLINEGEN
 70
     1
  9
$PSLTSCALE
 70
     0
  9
$TREEDEPTH
 70
  3020
  9
$CMLSTYLE
  2
Standard
  9
$CMLJUST
 70
     0
  9
$CMLSCALE
 40
1.0
  9
$PROXYGRAPHICS
 70
     0
  9
$MEASUREMENT
 70
     0
  9
$CELWEIGHT
370
     0
  9
$ENDCAPS
280
     0
  9
$JOINSTYLE
280
     0
  9
$LWDISPLAY
290
     0
  9
$INSUNITS
 70
     0
  9
$HYPERLINKBASE
  1

  9
$STYLESHEET
  1

  9
$XEDIT
290
     1
  9
$CEPSNTYPE
380
     0
  9
$PSTYLEMODE
290
     1
  9
$FINGERPRINTGUID
  2

  9
$VERSIONGUID
  2
{8EAA6FA8-C37C-493E-AAA9-88F28F67C95E}
  9
$EXTNAMES
290
     1
  9
$PSVPSCALE
 40
0.0
  9
$OLESTARTUP
290
     0
  0
ENDSEC
  0
SECTION
  2
CLASSES
  0
CLASS
  1
LWPOLYLINE
  2
AcDbPolyline
  3
ObjectDBX Classes
 90
        0
280
     0
281
     1
  0
CLASS
  1
IMAGE
  2
AcDbRasterImage
  3
ISM
 90
      127
280
     0
281
     1
  0
CLASS
  1
OLE2FRAME
  2
AcDbOle2Frame
  3
ObjectDBX Classes
 90
        0
280
     0
281
     1
  0
CLASS
  1
HATCH
  2
AcDbHatch
  3
ObjectDBX Classes
 90
        0
280
     0
281
     1
  0
CLASS
  1
DICTIONARYVAR
  2
AcDbDictionaryVar
  3
ObjectDBX Classes
 90
        0
280
     0
281
     0
  0
CLASS
  1
RASTERVARIABLES
  2
AcDbRasterVariables
  3
ISM
 90
        0
280
     0
281
     0
  0
CLASS
  1
IMAGEDEF
  2
AcDbRasterImageDef
  3
ISM
 90
        0
280
     0
281
     0
  0
CLASS
  1
IMAGEDEF_REACTOR
  2
AcDbRasterImageDefReactor
  3
ISM
 90
        1
280
     0
281
     0
  0
CLASS
  1
IDBUFFER
  2
AcDbIdBuffer
  3
ObjectDBX Classes
 90
        0
280
     0
281
     0
  0
CLASS
  1
SPATIAL_FILTER
  2
AcDbSpatialFilter
  3
ObjectDBX Classes
 90
        0
280
     0
281
     0
  0
CLASS
  1
XRECORD
  2
AcDbXrecord
  3
ObjectDBX Classes
 90
        0
280
     0
281
     0
  0
CLASS
  1
SORTENTSTABLE
  2
AcDbSortentsTable
  3
ObjectDBX Classes
 90
        0
280
     0
281
     0
  0
CLASS
  1
LAYER_INDEX
  2
AcDbLayerIndex
  3
ObjectDBX Classes
 90
        0
280
     0
281
     0
  0
CLASS
  1
SPATIAL_INDEX
  2
AcDbSpatialIndex
  3
AutoCAD 2000
 90
        0
280
     0
281
     0
  0
CLASS
  1
OBJECT_PTR
  2
CAseDLPNTableRecord
  3
ASE-LPNTableRecord
 90
        1
280
     0
281
     0
  0
CLASS
  1
LAYOUT
  2
AcDbLayout
  3
ObjectDBX Classes
 90
        0
280
     0
281
     0
  0
CLASS
  1
PLOTSETTINGS
  2
AcDbPlotSettings
  3
ObjectDBX Classes
 90
        0
280
     0
281
     0
  0
CLASS
  1
ACDBDICTIONARYWDFLT
  2
AcDbDictionaryWithDefault
  3
ObjectDBX Classes
 90
        0
280
     0
281
     0
  0
CLASS
  1
ACDBPLACEHOLDER
  2
AcDbPlaceHolder
  3
ObjectDBX Classes
 90
        0
280
     0
281
     0
  0
CLASS
  1
VBA_PROJECT
  2
AcDbVbaProject
  3
ObjectDBX Classes
 90
        0
280
     0
281
     0
  0
CLASS
  1
WIPEOUT
  2
AcDbWipeout
  3
WipeOut|AutoCAD Express Tool|expresstools@autodesk.com
 90
      127
280
     0
281
     1
  0
CLASS
  1
WIPEOUTVARIABLES
  2
AcDbWipeoutVariables
  3
WipeOut|AutoCAD Express Tool|expresstools@autodesk.com
 90
        0
280
     0
281
     0
  0
CLASS
  1
RTEXT
  2
RText
  3
RText|AutoCAD Express Tool|expresstools@autodesk.com
 90
        0
280
     0
281
     1
  0
CLASS
  1
ARCALIGNEDTEXT
  2
AcDbArcAlignedText
  3
ATEXT|AutoCAD Express Tool|expresstools@autodesk.com
 90
        0
280
     0
281
     1
  0
CLASS
  1
MATERIAL
  2
AcDbMaterial
  3
ObjectDBX Classes
 90
     1153
280
     0
281
     0
  0
CLASS
  1
VISUALSTYLE
  2
AcDbVisualStyle
  3
ObjectDBX Classes
 90
     4095
280
     0
281
     0
  0
CLASS
  1
TABLESTYLE
  2
AcDbTableStyle
  3
ObjectDBX Classes
 90
     4095
280
     0
281
     0
  0
CLASS
  1
SCALE
  2
AcDbScale
  3
ObjectDBX Classes
 90
     1153
280
     0
281
     0
  0
CLASS
  1
MLEADERSTYLE
  2
AcDbMLeaderStyle
  3
ACDB_MLEADERSTYLE_CLASS
 90
     4095
280
     0
281
     0
  0
CLASS
  1
ACDBSECTIONVIEWSTYLE
  2
AcDbSectionViewStyle
  3
ObjectDBX Classes
 90
     1025
280
     0
281
     0
  0
CLASS
  1
ACDBDETAILVIEWSTYLE
  2
AcDbDetailViewStyle
  3
ObjectDBX Classes
 90
     1025
280
     0
281
     0
  0
CLASS
  1
EXACXREFPANELOBJECT
  2
ExAcXREFPanelObject
  3
EXAC_ESW
 90
     1025
280
     1
281
     0
  0
CLASS
  1
NPOCOLLECTION
  2
AcDbImpNonPersistentObjectsCollection
  3
ObjectDBX Classes
 90
     1153
280
     1
281
     0
  0
CLASS
  1
CELLSTYLEMAP
  2
AcDbCellStyleMap
  3
ObjectDBX Classes
 90
     1152
280
     0
281
     0
  0
ENDSEC
  0
SECTION
  2
TABLES
  0
TABLE
  2
VPORT
  5
7
102
{ACAD_XDICTIONARY
360
836E
102
}
330
0
100
AcDbSymbolTable
 70
     1
  0
VPORT
  5
15
330
7
100
AcDbSymbolTableRecord
100
AcDbViewportTableRecord
  2
*ACTIVE
 70
     0
 10
0.0
 20
0.0
 11
1.0
 21
1.0
 12
2771.963304351847
 22
968.1950730329988
 13
0.0
 23
0.0
 14
1.0
 24
1.0
 15
0.0
 25
0.0
 16
0.0
 26
0.0
 36
1.0
 17
0.0
 27
0.0
 37
0.0
 40
1700.329503145875
 41
1.549933422103862
 42
50.0
 43
0.0
 44
0.0
 50
0.0
 51
0.0
 71
     0
 72
   100
 73
     1
 74
     1
 75
     0
 76
     0
 77
     0
 78
     0
281
     0
 65
     0
110
0.0
120
0.0
130
0.0
111
1.0
121
0.0
131
0.0
112
0.0
122
1.0
132
0.0
 79
     0
146
0.0
1001
ACAD_NAV_VCDISPLAY
1070
     3
  0
ENDTAB
  0
TABLE
  2
LTYPE
  5
4
330
0
100
AcDbSymbolTable
 70
     1
  0
LTYPE
  5
11
330
4
100
AcDbSymbolTableRecord
100
AcDbLinetypeTableRecord
  2
ByBlock
 70
     0
  3

 72
    65
 73
     0
 40
0.0
  0
LTYPE
  5
12
330
4
100
AcDbSymbolTableRecord
100
AcDbLinetypeTableRecord
  2
ByLayer
 70
     0
  3

 72
    65
 73
     0
 40
0.0
  0
LTYPE
  5
13
330
4
100
AcDbSymbolTableRecord
100
AcDbLinetypeTableRecord
  2
CONTINUOUS
 70
     0
  3
Solid line
 72
    65
 73
     0
 40
0.0
  0
ENDTAB
  0
TABLE
  2
LAYER
  5
2
102
{ACAD_XDICTIONARY
360
82D4
102
}
330
0
100
AcDbSymbolTable
 70
     1
  0
LAYER
  5
14
102
{ACAD_XDICTIONARY
360
81BE
102
}
330
2
100
AcDbSymbolTableRecord
100
AcDbLayerTableRecord
  2
0
 70
     0
 62
     7
  6
CONTINUOUS
370
    -3
390
1D
  0
ENDTAB
  0
TABLE
  2
STYLE
  5
3
330
0
100
AcDbSymbolTable
 70
     1
  0
STYLE
  5
17
330
3
100
AcDbSymbolTableRecord
100
AcDbTextStyleTableRecord
  2
Standard
 70
     0
 40
0.0
 41
1.0
 50
0.0
 71
     0
 42
0.2
  3
txt
  4

  0
ENDTAB
  0
TABLE
  2
VIEW
  5
5
330
0
100
AcDbSymbolTable
 70
     0
  0
ENDTAB
  0
TABLE
  2
UCS
  5
6
330
0
100
AcDbSymbolTable
 70
     0
  0
ENDTAB
  0
TABLE
  2
APPID
  5
8
330
0
100
AcDbSymbolTable
 70
     4
  0
APPID
  5
16
330
8
100
AcDbSymbolTableRecord
100
AcDbRegAppTableRecord
  2
ACAD
 70
     0
  0
APPID
  5
81C2
330
8
100
AcDbSymbolTableRecord
100
AcDbRegAppTableRecord
  2
DCO15
 70
     0
  0
APPID
  5
81C4
330
8
100
AcDbSymbolTableRecord
100
AcDbRegAppTableRecord
  2
ACAD_NAV_VCDISPLAY
 70
     0
  0
APPID
  5
8317
330
8
100
AcDbSymbolTableRecord
100
AcDbRegAppTableRecord
  2
ACAD_MLEADERVER
 70
     0
  0
ENDTAB
  0
TABLE
  2
DIMSTYLE
  5
9
330
0
100
AcDbSymbolTable
 70
     1
100
AcDbDimStyleTable
  0
DIMSTYLE
105
18
330
9
100
AcDbSymbolTableRecord
100
AcDbDimStyleTableRecord
  2
Standard
 70
     0
178
     0
289
     0
340
17
  0
ENDTAB
  0
TABLE
  2
BLOCK_RECORD
  5
1
330
0
100
AcDbSymbolTable
 70
     6
  0
BLOCK_RECORD
  5
A
102
{ACAD_XDICTIONARY
360
5EDC
102
}
330
1
100
AcDbSymbolTableRecord
100
AcDbBlockTableRecord
  2
*MODEL_SPACE
340
20
  0
BLOCK_RECORD
  5
B
330
1
100
AcDbSymbolTableRecord
100
AcDbBlockTableRecord
  2
*PAPER_SPACE
340
21
  0
BLOCK_RECORD
  5
91
330
1
100
AcDbSymbolTableRecord
100
AcDbBlockTableRecord
  2
SE38
340
0
102
{BLKREFS
331
98
102
}
  0
BLOCK_RECORD
  5
99
330
1
100
AcDbSymbolTableRecord
100
AcDbBlockTableRecord
  2
SE40
340
0
102
{BLKREFS
331
A0
102
}
  0
BLOCK_RECORD
  5
B3
330
1
100
AcDbSymbolTableRecord
100
AcDbBlockTableRecord
  2
SE48
340
0
102
{BLKREFS
331
BA
102
}
  0
BLOCK_RECORD
  5
C4
330
1
100
AcDbSymbolTableRecord
100
AcDbBlockTableRecord
  2
SE53
340
0
102
{BLKREFS
331
CB
102
}
  0
BLOCK_RECORD
  5
CC
330
1
100
AcDbSymbolTableRecord
100
AcDbBlockTableRecord
  2
SE55
340
0
102
{BLKREFS
331
D3
102
}
  0
BLOCK_RECORD
  5
D4
330
1
100
AcDbSymbolTableRecord
100
AcDbBlockTableRecord
  2
SE57
340
0
102
{BLKREFS
331
DB
102
}
  0
ENDTAB
  0
ENDSEC
  0
SECTION
  2
BLOCKS
  0
BLOCK
  5
D
330
A
100
AcDbEntity
  8
0
100
AcDbBlockBegin
  2
*MODEL_SPACE
 70
     0
 10
0.0
 20
0.0
 30
0.0
  3
*MODEL_SPACE
  1

  0
ENDBLK
  5
E
330
A
100
AcDbEntity
  8
0
100
AcDbBlockEnd
  0
BLOCK
  5
F
330
B
100
AcDbEntity
 67
     1
  8
0
100
AcDbBlockBegin
  2
*PAPER_SPACE
 70
     0
 10
0.0
 20
0.0
 30
0.0
  3
*PAPER_SPACE
  1

  0
ENDBLK
  5
10
330
B
100
AcDbEntity
 67
     1
  8
0
100
AcDbBlockEnd
  0
BLOCK
  5
232
330
91
100
AcDbEntity
  8
0
 62
     1
370
     0
100
AcDbBlockBegin
  2
SE38
 70
     0
 10
0.0
 20
0.0
 30
0.0
  3
SE38
  1

  0
ENDBLK
  5
233
330
91
100
AcDbEntity
  8
0
 62
     1
370
     0
100
AcDbBlockEnd
  0
BLOCK
  5
245
330
99
100
AcDbEntity
  8
0
 62
     1
370
     0
100
AcDbBlockBegin
  2
SE40
 70
     0
 10
0.0
 20
0.0
 30
0.0
  3
SE40
  1

  0
ENDBLK
  5
246
330
99
100
AcDbEntity
  8
0
 62
     1
370
     0
100
AcDbBlockEnd
  0
BLOCK
  5
20F9
330
B3
100
AcDbEntity
  8
0
 62
     1
370
     0
100
AcDbBlockBegin
  2
SE48
 70
     0
 10
0.0
 20
0.0
 30
0.0
  3
SE48
  1

  0
ENDBLK
  5
20FA
330
B3
100
AcDbEntity
  8
0
 62
     1
370
     0
100
AcDbBlockEnd
  0
BLOCK
  5
2871
330
C4
100
AcDbEntity
  8
0
 62
     1
370
     0
100
AcDbBlockBegin
  2
SE53
 70
     0
 10
0.0
 20
0.0
 30
0.0
  3
SE53
  1

  0
ENDBLK
  5
2872
330
C4
100
AcDbEntity
  8
0
 62
     1
370
     0
100
AcDbBlockEnd
  0
BLOCK
  5
2EF4
330
CC
100
AcDbEntity
  8
0
 62
     1
370
     0
100
AcDbBlockBegin
  2
SE55
 70
     0
 10
0.0
 20
0.0
 30
0.0
  3
SE55
  1

  0
ENDBLK
  5
2EF5
330
CC
100
AcDbEntity
  8
0
 62
     1
370
     0
100
AcDbBlockEnd
  0
BLOCK
  5
3329
330
D4
100
AcDbEntity
  8
0
 62
     1
370
     0
100
AcDbBlockBegin
  2
SE57
 70
     0
 10
0.0
 20
0.0
 30
0.0
  3
SE57
  1

  0
ENDBLK
  5
332A
330
D4
100
AcDbEntity
  8
0
 62
     1
370
     0
100
AcDbBlockEnd
  0
ENDSEC
  0
SECTION
  2
ENTITIES
  0
INSERT
  5
98
330
A
100
AcDbEntity
  8
0
 62
     0
370
     0
100
AcDbBlockReference
  2
SE38
 10
0.0
 20
0.0
 30
0.0
  0
INSERT
  5
A0
330
A
100
AcDbEntity
  8
0
 62
     0
370
     0
100
AcDbBlockReference
  2
SE40
 10
0.0
 20
0.0
 30
0.0
  0
INSERT
  5
BA
330
A
100
AcDbEntity
  8
0
 62
     0
370
     0
100
AcDbBlockReference
  2
SE48
 10
0.0
 20
0.0
 30
0.0
  0
INSERT
  5
CB
330
A
100
AcDbEntity
  8
0
 62
     0
370
     0
100
AcDbBlockReference
  2
SE53
 10
0.0
 20
0.0
 30
0.0
  0
INSERT
  5
D3
330
A
100
AcDbEntity
  8
0
 62
     0
370
     0
100
AcDbBlockReference
  2
SE55
 10
0.0
 20
0.0
 30
0.0
  0
INSERT
  5
DB
330
A
100
AcDbEntity
  8
0
 62
     0
370
     0
100
AcDbBlockReference
  2
SE57
 10
0.0
 20
0.0
 30
0.0
  0
LINE
  5
655D
330
A
100
AcDbEntity
  8
0
  6
Continuous
370
     0
100
AcDbLine
 10
3114.1802602552
 20
465.7647857370946
 30
0.0
 11
3114.1802602552
 21
500.7394417834378
 31
0.0
  0
ARC
  5
655E
330
A
100
AcDbEntity
  8
0
  6
Continuous
370
     0
100
AcDbCircle
 10
3094.694380457951
 20
363.3390073156609
 30
0.0
 40
2.24837074583635
100
AcDbArc
 50
0.0
 51
180.0
  0
ARC
  5
655F
330
A
100
AcDbEntity
  8
0
  6
Continuous
370
     0
100
AcDbCircle
 10
3094.694380457951
 20
1374.606204998499
 30
0.0
 40
2.24837074583635
100
AcDbArc
 50
0.0
 51
180.0
  0
ARC
  5
6560
330
A
100
AcDbEntity
  8
0
  6
Continuous
370
     0
100
AcDbCircle
 10
3094.694380457951
 20
934.9248147016131
 30
0.0
 40
2.24837074583635
100
AcDbArc
 50
0.0
 51
180.0
  0
ARC
  5
6561
330
A
100
AcDbEntity
  8
0
  6
Continuous
370
     0
100
AcDbCircle
 10
3094.694380457951
 20
1352.622135483655
 30
0.0
 40
2.24837074583635
100
AcDbArc
 50
0.0
 51
180.0
  0
ARC
  5
6562
330
A
100
AcDbEntity
  8
0
  6
Continuous
370
     0
100
AcDbCircle
 10
3094.694380457951
 20
825.0044671273915
 30
0.0
 40
2.24837074583635
100
AcDbArc
 50
0.0
 51
180.0
  0
ARC
  5
6563
330
A
100
AcDbEntity
  8
0
  6
Continuous
370
     0
100
AcDbCircle
 10
3094.694380457951
 20
297.3867987711278
 30
0.0
 40
2.24837074583635
100
AcDbArc
 50
0.0
 51
180.0
  0
LINE
  5
6564
330
A
100
AcDbEntity
  8
0
  6
Continuous
370
     0
100
AcDbLine
 10
3113.180984368161
 20
1680.892214840112
 30
0.0
 11
3114.679898198719
 21
1680.892214840112
 31
0.0
  0
LINE
  5
6565
330
A
100
AcDbEntity
  8
0
  6
Continuous
370
     0
100
AcDbLine
 10
3114.679898198719
 20
1681.870248411243
 30
0.0
 11
3113.180984368161
 21
1681.870248411243
 31
0.0
  0
LINE
  5
6566
330
A
100
AcDbEntity
  8
0
  6
Continuous
370
     0
100
AcDbLine
 10
3114.679898198719
 20
1684.789657514068
 30
0.0
 11
3113.180984368161
 21
1684.789657514068
 31
0.0
  0
LINE
  5
6567
330
A
100
AcDbEntity
  8
0
  6
Continuous
370
     0
100
AcDbLine
 10
3114.679898198719
 20
1682.463443565239
 30
0.0
 11
3113.180984368161
 21
1682.463443565239
 31
0.0
  0
LINE
  5
6568
330
A
100
AcDbEntity
  8
0
  6
Continuous
370
     0
100
AcDbLine
 10
2430.67555352095
 20
1303.657617018774
 30
0.0
 11
2430.67555352095
 21
1308.818940438229
 31
0.0
  0
LINE
  5
6569
330
A
100
AcDbEntity
  8
0
  6
Continuous
370
     0
100
AcDbLine
 10
2430.67555352095
 20
1330.473121983438
 30
0.0
 11
2430.67555352095
 21
1341.630100726233
 31
0.0
  0
LINE
  5
656A
330
A
100
AcDbEntity
  8
0
  6
Continuous
370
     0
100
AcDbLine
 10
2430.67555352095
 20
275.237785270911
 30
0.0
 11
2430.67555352095
 21
297.5517427553907
 31
0.0
  0
CIRCLE
  5
656B
330
A
100
AcDbEntity
  8
0
  6
Continuous
370
     0
100
AcDbCircle
 10
2450.161433318198
 20
1610.235459162149
 30
0.0
 40
2.24837074583635
  0
ARC
  5
656C
330
A
100
AcDbEntity
  8
0
  6
Continuous
370
     0
100
AcDbCircle
 10
2450.161433318198
 20
1352.622135483655
 30
0.0
 40
2.24837074583635
100
AcDbArc
 50
237.7690473645011
 51
270.0
  0
ARC
  5
656D
330
A
100
AcDbEntity
  8
0
  6
Continuous
370
     0
100
AcDbCircle
 10
2450.161433318198
 20
297.3867987711278
 30
0.0
 40
2.24837074583635
100
AcDbArc
 50
0.0
 51
122.2309526354988
  0
ARC
  5
656E
330
A
100
AcDbEntity
  8
0
  6
Continuous
370
     0
100
AcDbCircle
 10
2450.161433318198
 20
297.3867987711278
 30
0.0
 40
2.24837074583635
100
AcDbArc
 50
237.7690473645011
 51
0.0
  0
ARC
  5
656F
330
A
100
AcDbEntity
  8
0
  6
Continuous
370
     0
100
AcDbCircle
 10
2450.161433318198
 20
825.0044671273915
 30
0.0
 40
2.24837074583635
100
AcDbArc
 50
0.0
 51
122.2309526354988
  0
ARC
  5
6570
330
A
100
AcDbEntity
  8
0
  6
Continuous
370
     0
100
AcDbCircle
 10
2450.161433318198
 20
825.0044671273915
 30
0.0
 40
2.24837074583635
100
AcDbArc
 50
237.7690473645011
 51
0.0
  0
LINE
  5
6571
330
A
100
AcDbEntity
  8
0
  6
Continuous
370
     0
100
AcDbLine
 10
2430.67555352095
 20
1341.630100726233
 30
0.0
 11
2430.67555352095
 21
1650.206494643684
 31
0.0
  0
LINE
  5
6572
330
A
100
AcDbEntity
  8
0
  6
Continuous
370
     0
100
AcDbLine
 10
2430.67555352095
 20
300.8842643757623
 30
0.0
 11
2430.67555352095
 21
1303.657617018774
 31
0.0
  0
LINE
  5
6573
330
A
100
AcDbEntity
  8
0
  6
Continuous
370
     0
100
AcDbLine
 10
2428.477146569465
 20
126.5605858819172
 30
0.0
 11
2428.477146569465
 21
1788.806060175907
 31
0.0
  0
LINE
  5
6574
330
A
100
AcDbEntity
  8
0
  6
Continuous
370
     0
100
AcDbLine
 10
2430.67555352095
 20
1685.181150690027
 30
0.0
 11
2430.67555352095
 21
1788.806060175907
 31
0.0
  0
LINE
  5
6575
330
A
100
AcDbEntity
  8
0
  6
Continuous
370
     0
100
AcDbLine
 10
2430.67555352095
 20
126.5605858819172
 30
0.0
 11
2430.67555352095
 21
265.9096083294189
 31
0.0
  0
LINE
  5
6576
330
A
100
AcDbEntity
  8
0
  6
Continuous
370
     0
100
AcDbLine
 10
2460.154192188581
 20
222.7550932793588
 30
0.0
 11
2460.154192188581
 21
1411.879195585031
 31
0.0
  0
LINE
  5
6577
330
A
100
AcDbEntity
  8
0
  6
Continuous
370
     0
100
AcDbLine
 10
2400.197638966279
 20
126.5605858819172
 30
0.0
 11
2400.197638966279
 21
1788.806060175907
 31
0.0
  0
LINE
  5
6578
330
A
100
AcDbEntity
  8
0
  6
Continuous
370
     0
100
AcDbLine
 10
2390.204880095895
 20
126.5605858819172
 30
0.0
 11
2390.204880095895
 21
1788.806060175907
 31
0.0
  0
LINE
  5
6579
330
A
100
AcDbEntity
  8
0
  6
Continuous
370
     0
100
AcDbLine
 10
2430.17591557743
 20
126.5605858819172
 30
0.0
 11
2430.17591557743
 21
1788.806060175907
 31
0.0
  0
CIRCLE
  5
657A
330
A
100
AcDbEntity
  8
0
  6
Continuous
370
     0
100
AcDbCircle
 10
2453.159260979312
 20
237.5301731375291
 30
0.0
 40
2.748008689355539
  0
LINE
  5
657B
330
A
100
AcDbEntity
  8
0
  6
Continuous
370
     0
100
AcDbLine
 10
2454.158536866351
 20
215.9316107063923
 30
0.0
 11
2454.158536866351
 21
129.5584135430324
 31
0.0
  0
LINE
  5
657C
330
A
100
AcDbEntity
  8
0
  6
Continuous
370
     0
100
AcDbLine
 10
2459.861511057468
 20
222.048498523433
 30
0.0
 11
2454.451217997464
 21
216.6382054634282
 31
0.0
  0
LINE
  5
657D
330
A
100
AcDbEntity
  8
0
  6
Continuous
370
     0
100
AcDbLine
 10
2430.67555352095
 20
1650.206494643684
 30
0.0
 11
2431.674829407988
 21
1650.206494643684
 31
0.0
  0
LINE
  5
657E
330
A
100
AcDbEntity
  8
0
  6
Continuous
370
     0
100
AcDbLine
 10
2430.17591557743
 20
1650.206494643684
 30
0.0
 11
2430.67555352095
 21
1650.206494643684
 31
0.0
  0
LINE
  5
657F
330
A
100
AcDbEntity
  8
0
  6
Continuous
370
     0
100
AcDbLine
 10
2430.67555352095
 20
1685.181150690027
 30
0.0
 11
2430.17591557743
 21
1685.181150690027
 31
0.0
  0
LINE
  5
6580
330
A
100
AcDbEntity
  8
0
  6
Continuous
370
     0
100
AcDbLine
 10
2431.674829407988
 20
1685.181150690027
 30
0.0
 11
2430.67555352095
 21
1685.181150690027
 31
0.0
  0
LINE
  5
6581
330
A
100
AcDbEntity
  8
0
  6
Continuous
370
     0
100
AcDbLine
 10
2430.17591557743
 20
300.8842643757623
 30
0.0
 11
2430.67555352095
 21
300.8842643757623
 31
0.0
  0
LINE
  5
6582
330
A
100
AcDbEntity
  8
0
  6
Continuous
370
     0
100
AcDbLine
 10
2430.67555352095
 20
265.9096083294189
 30
0.0
 11
2430.17591557743
 21
265.9096083294189
 31
0.0
  0
LINE
  5
6583
330
A
100
AcDbEntity
  8
0
  6
Continuous
370
     0
100
AcDbLine
 10
2434.173019125584
 20
300.8842643757623
 30
0.0
 11
2430.67555352095
 21
300.8842643757623
 31
0.0
  0
LINE
  5
6584
330
A
100
AcDbEntity
  8
0
  6
Continuous
370
     0
100
AcDbLine
 10
2435.172295012622
 20
266.9088842164574
 30
0.0
 11
2435.172295012622
 21
299.8849884887238
 31
0.0
  0
LINE
  5
6585
330
A
100
AcDbEntity
  8
0
  6
Continuous
370
     0
100
AcDbLine
 10
2430.67555352095
 20
265.9096083294189
 30
0.0
 11
2434.173019125584
 21
265.9096083294189
 31
0.0
  0
CIRCLE
  5
6586
330
A
100
AcDbEntity
  8
0
  6
Continuous
370
     0
100
AcDbCircle
 10
2450.161433318198
 20
297.3867987711278
 30
0.0
 40
3.447501810282404
  0
CIRCLE
  5
6587
330
A
100
AcDbEntity
  8
0
  6
Continuous
370
     0
100
AcDbCircle
 10
2450.161433318198
 20
934.9248147016131
 30
0.0
 40
2.24837074583635
  0
LINE
  5
6588
330
A
100
AcDbEntity
  8
0
  6
Continuous
370
     0
100
AcDbLine
 10
2430.17591557743
 20
1341.630100726233
 30
0.0
 11
2430.67555352095
 21
1341.630100726233
 31
0.0
  0
LINE
  5
6589
330
A
100
AcDbEntity
  8
0
  6
Continuous
370
     0
100
AcDbLine
 10
2430.67555352095
 20
1341.630100726233
 30
0.0
 11
2434.173019125584
 21
1341.630100726233
 31
0.0
  0
LINE
  5
658A
330
A
100
AcDbEntity
  8
0
  6
Continuous
370
     0
100
AcDbLine
 10
2430.67555352095
 20
1303.657617018774
 30
0.0
 11
2430.17591557743
 21
1303.657617018774
 31
0.0
  0
LINE
  5
658B
330
A
100
AcDbEntity
  8
0
  6
Continuous
370
     0
100
AcDbLine
 10
2434.173019125584
 20
1303.657617018774
 30
0.0
 11
2430.67555352095
 21
1303.657617018774
 31
0.0
  0
ARC
  5
658C
330
A
100
AcDbEntity
  8
0
  6
Continuous
370
     0
100
AcDbCircle
 10
2451.160709205236
 20
129.5584135430324
 30
0.0
 40
2.997827661115134
100
AcDbArc
 50
270.0
 51
0.0
  0
CIRCLE
  5
658D
330
A
100
AcDbEntity
  8
0
  6
Continuous
370
     0
100
AcDbCircle
 10
2446.164329770044
 20
154.7901296907514
 30
0.0
 40
2.748008689355539
  0
CIRCLE
  5
658E
330
A
100
AcDbEntity
  8
0
  6
Continuous
370
     0
100
AcDbCircle
 10
2408.891339183512
 20
1764.123945766059
 30
0.0
 40
0.9992758870383779
  0
ARC
  5
658F
330
A
100
AcDbEntity
  8
0
  6
Continuous
370
     0
100
AcDbCircle
 10
2459.154916301543
 20
222.7550932793588
 30
0.0
 40
0.9992758870383779
100
AcDbArc
 50
314.9999999999992
 51
0.0
  0
ARC
  5
6590
330
A
100
AcDbEntity
  8
0
  6
Continuous
370
     0
100
AcDbCircle
 10
2434.173019125584
 20
1304.656892905813
 30
0.0
 40
0.9992758870383779
100
AcDbArc
 50
270.0
 51
0.0
  0
ARC
  5
6591
330
A
100
AcDbEntity
  8
0
  6
Continuous
370
     0
100
AcDbCircle
 10
2455.157812753389
 20
215.9316107063923
 30
0.0
 40
0.9992758870383779
100
AcDbArc
 50
134.9999999999992
 51
180.0
  0
LINE
  5
6592
330
A
100
AcDbEntity
  8
0
  6
Continuous
370
     0
100
AcDbLine
 10
2435.172295012622
 20
1340.630824839194
 30
0.0
 11
2435.172295012622
 21
1304.656892905813
 31
0.0
  0
ARC
  5
6593
330
A
100
AcDbEntity
  8
0
  6
Continuous
370
     0
100
AcDbCircle
 10
2434.173019125584
 20
1340.630824839194
 30
0.0
 40
0.9992758870383779
100
AcDbArc
 50
0.0
 51
90.0
  0
CIRCLE
  5
6594
330
A
100
AcDbEntity
  8
0
  6
Continuous
370
     0
100
AcDbCircle
 10
2450.161433318198
 20
1157.46355474506
 30
0.0
 40
3.447501810282404
  0
CIRCLE
  5
6595
330
A
100
AcDbEntity
  8
0
  6
Continuous
370
     0
100
AcDbCircle
 10
2450.161433318198
 20
1157.46355474506
 30
0.0
 40
2.24837074583635
  0
CIRCLE
  5
6596
330
A
100
AcDbEntity
  8
0
  6
Continuous
370
     0
100
AcDbCircle
 10
2450.161433318198
 20
934.9248147016131
 30
0.0
 40
3.447501810282404
  0
CIRCLE
  5
6597
330
A
100
AcDbEntity
  8
0
  6
Continuous
370
     0
100
AcDbCircle
 10
2450.161433318198
 20
1352.622135483655
 30
0.0
 40
2.24837074583635
  0
CIRCLE
  5
6598
330
A
100
AcDbEntity
  8
0
  6
Continuous
370
     0
100
AcDbCircle
 10
2450.161433318198
 20
1352.622135483655
 30
0.0
 40
3.447501810282404
  0
CIRCLE
  5
6599
330
A
100
AcDbEntity
  8
0
  6
Continuous
370
     0
100
AcDbCircle
 10
2450.161433318198
 20
825.0044671273915
 30
0.0
 40
3.447501810282404
  0
CIRCLE
  5
659A
330
A
100
AcDbEntity
  8
0
  6
Continuous
370
     0
100
AcDbCircle
 10
2450.161433318198
 20
297.3867987711278
 30
0.0
 40
2.24837074583635
  0
CIRCLE
  5
659B
330
A
100
AcDbEntity
  8
0
  6
Continuous
370
     0
100
AcDbCircle
 10
2450.161433318198
 20
825.0044671273915
 30
0.0
 40
2.24837074583635
  0
ARC
  5
659C
330
A
100
AcDbEntity
  8
0
  6
Continuous
370
     0
100
AcDbCircle
 10
2434.173019125584
 20
299.8849884887238
 30
0.0
 40
0.9992758870383779
100
AcDbArc
 50
0.0
 51
90.0
  0
ARC
  5
659D
330
A
100
AcDbEntity
  8
0
  6
Continuous
370
     0
100
AcDbCircle
 10
2434.173019125584
 20
266.9088842164574
 30
0.0
 40
0.9992758870383779
100
AcDbArc
 50
270.0
 51
0.0
  0
CIRCLE
  5
659E
330
A
100
AcDbEntity
  8
0
  6
Continuous
370
     0
100
AcDbCircle
 10
2450.161433318198
 20
363.3390073156609
 30
0.0
 40
3.447501810282404
  0
CIRCLE
  5
659F
330
A
100
AcDbEntity
  8
0
  6
Continuous
370
     0
100
AcDbCircle
 10
2450.161433318198
 20
1374.606204998499
 30
0.0
 40
3.447501810282404
  0
CIRCLE
  5
65A0
330
A
100
AcDbEntity
  8
0
  6
Continuous
370
     0
100
AcDbCircle
 10
2450.161433318198
 20
1610.235459162149
 30
0.0
 40
3.447501810282404
  0
CIRCLE
  5
65A1
330
A
100
AcDbEntity
  8
0
  6
Continuous
370
     0
100
AcDbCircle
 10
2450.161433318198
 20
1610.235459162149
 30
0.0
 40
2.24837074583635
  0
CIRCLE
  5
65A2
330
A
100
AcDbEntity
  8
0
  6
Continuous
370
     0
100
AcDbCircle
 10
2450.161433318198
 20
363.3390073156609
 30
0.0
 40
2.24837074583635
  0
CIRCLE
  5
65A3
330
A
100
AcDbEntity
  8
0
  6
Continuous
370
     0
100
AcDbCircle
 10
2450.161433318198
 20
1374.606204998499
 30
0.0
 40
2.24837074583635
  0
CIRCLE
  5
65A4
330
A
100
AcDbEntity
  8
0
  6
Continuous
370
     0
100
AcDbCircle
 10
2450.161433318198
 20
495.2434244047267
 30
0.0
 40
3.447501810282404
  0
CIRCLE
  5
65A5
330
A
100
AcDbEntity
  8
0
  6
Continuous
370
     0
100
AcDbCircle
 10
2450.161433318198
 20
495.2434244047267
 30
0.0
 40
2.24837074583635
  0
CIRCLE
  5
65A6
330
A
100
AcDbEntity
  8
0
  6
Continuous
370
     0
100
AcDbCircle
 10
3098.691484006104
 20
154.7901296907514
 30
0.0
 40
2.748008689355539
  0
LINE
  5
65A7
330
A
100
AcDbEntity
  8
0
  6
Continuous
370
     0
100
AcDbLine
 10
3114.1802602552
 20
1685.181150690027
 30
0.0
 11
3114.1802602552
 21
1788.806060175907
 31
0.0
  0
LINE
  5
65A8
330
A
100
AcDbEntity
  8
0
  6
Continuous
370
     0
100
AcDbLine
 10
3114.1802602552
 20
500.7394417834378
 30
0.0
 11
3114.1802602552
 21
1650.206494643684
 31
0.0
  0
CIRCLE
  5
65A9
330
A
100
AcDbEntity
  8
0
  6
Continuous
370
     0
100
AcDbCircle
 10
3135.964474592636
 20
1764.123945766059
 30
0.0
 40
0.9992758870383779
  0
ARC
  5
65AA
330
A
100
AcDbEntity
  8
0
  6
Continuous
370
     0
100
AcDbCircle
 10
3093.695104570913
 20
129.5584135430324
 30
0.0
 40
2.997827661115134
100
AcDbArc
 50
180.0
 51
270.0
  0
ARC
  5
65AB
330
A
100
AcDbEntity
  8
0
  6
Continuous
370
     0
100
AcDbCircle
 10
3089.698001022759
 20
215.9316107063923
 30
0.0
 40
0.9992758870383779
100
AcDbArc
 50
0.0
 51
45.00000000000083
  0
ARC
  5
65AC
330
A
100
AcDbEntity
  8
0
  6
Continuous
370
     0
100
AcDbCircle
 10
3085.700897474606
 20
222.7550932793588
 30
0.0
 40
0.9992758870383779
100
AcDbArc
 50
180.0
 51
225.0000000000008
  0
CIRCLE
  5
65AD
330
A
100
AcDbEntity
  8
0
  6
Continuous
370
     0
100
AcDbCircle
 10
3094.694380457951
 20
934.9248147016131
 30
0.0
 40
2.24837074583635
  0
CIRCLE
  5
65AE
330
A
100
AcDbEntity
  8
0
  6
Continuous
370
     0
100
AcDbCircle
 10
3094.694380457951
 20
934.9248147016131
 30
0.0
 40
3.467487328023172
  0
CIRCLE
  5
65AF
330
A
100
AcDbEntity
  8
0
  6
Continuous
370
     0
100
AcDbCircle
 10
3094.694380457951
 20
1374.606204998499
 30
0.0
 40
3.467487328023172
  0
CIRCLE
  5
65B0
330
A
100
AcDbEntity
  8
0
  6
Continuous
370
     0
100
AcDbCircle
 10
3094.694380457951
 20
825.0044671273915
 30
0.0
 40
3.467487328023172
  0
CIRCLE
  5
65B1
330
A
100
AcDbEntity
  8
0
  6
Continuous
370
     0
100
AcDbCircle
 10
3094.694380457951
 20
297.3867987711278
 30
0.0
 40
3.467487328023172
  0
CIRCLE
  5
65B2
330
A
100
AcDbEntity
  8
0
  6
Continuous
370
     0
100
AcDbCircle
 10
3094.694380457951
 20
1374.606204998499
 30
0.0
 40
2.24837074583635
  0
CIRCLE
  5
65B3
330
A
100
AcDbEntity
  8
0
  6
Continuous
370
     0
100
AcDbCircle
 10
3094.694380457951
 20
297.3867987711278
 30
0.0
 40
2.24837074583635
  0
CIRCLE
  5
65B4
330
A
100
AcDbEntity
  8
0
  6
Continuous
370
     0
100
AcDbCircle
 10
3094.694380457951
 20
825.0044671273915
 30
0.0
 40
2.24837074583635
  0
ARC
  5
65B5
330
A
100
AcDbEntity
  8
0
  6
Continuous
370
     0
100
AcDbCircle
 10
3110.682794650565
 20
499.7401658963993
 30
0.0
 40
0.9992758870383779
100
AcDbArc
 50
90.0
 51
180.0
  0
LINE
  5
65B6
330
A
100
AcDbEntity
  8
0
  6
Continuous
370
     0
100
AcDbLine
 10
3109.683518763527
 20
499.7401658963993
 30
0.0
 11
3109.683518763527
 21
466.7640616241329
 31
0.0
  0
ARC
  5
65B7
330
A
100
AcDbEntity
  8
0
  6
Continuous
370
     0
100
AcDbCircle
 10
3110.682794650565
 20
466.7640616241329
 30
0.0
 40
0.9992758870383779
100
AcDbArc
 50
180.0
 51
270.0
  0
CIRCLE
  5
65B8
330
A
100
AcDbEntity
  8
0
  6
Continuous
370
     0
100
AcDbCircle
 10
3094.694380457951
 20
1352.622135483655
 30
0.0
 40
3.447501810282404
  0
CIRCLE
  5
65B9
330
A
100
AcDbEntity
  8
0
  6
Continuous
370
     0
100
AcDbCircle
 10
3094.694380457951
 20
1352.622135483655
 30
0.0
 40
2.24837074583635
  0
CIRCLE
  5
65BA
330
A
100
AcDbEntity
  8
0
  6
Continuous
370
     0
100
AcDbCircle
 10
3094.694380457951
 20
1610.235459162149
 30
0.0
 40
3.447501810282404
  0
CIRCLE
  5
65BB
330
A
100
AcDbEntity
  8
0
  6
Continuous
370
     0
100
AcDbCircle
 10
3094.694380457951
 20
1610.235459162149
 30
0.0
 40
2.24837074583635
  0
CIRCLE
  5
65BC
330
A
100
AcDbEntity
  8
0
  6
Continuous
370
     0
100
AcDbCircle
 10
3094.694380457951
 20
363.3390073156609
 30
0.0
 40
3.447501810282404
  0
CIRCLE
  5
65BD
330
A
100
AcDbEntity
  8
0
  6
Continuous
370
     0
100
AcDbCircle
 10
3094.694380457951
 20
363.3390073156609
 30
0.0
 40
2.24837074583635
  0
LINE
  5
65BE
330
A
100
AcDbEntity
  8
0
  6
Continuous
370
     0
100
AcDbLine
 10
3084.701621587567
 20
222.7550932793588
 30
0.0
 11
3084.701621587567
 21
1411.879195585031
 31
0.0
  0
LINE
  5
65BF
330
A
100
AcDbEntity
  8
0
  6
Continuous
370
     0
100
AcDbLine
 10
3144.658174809871
 20
126.5605858819172
 30
0.0
 11
3144.658174809871
 21
1788.806060175907
 31
0.0
  0
LINE
  5
65C0
330
A
100
AcDbEntity
  8
0
  6
Continuous
370
     0
100
AcDbLine
 10
3154.650933680254
 20
126.5605858819172
 30
0.0
 11
3154.650933680254
 21
1788.806060175907
 31
0.0
  0
LINE
  5
65C1
330
A
100
AcDbEntity
  8
0
  6
Continuous
370
     0
100
AcDbLine
 10
3116.378667206684
 20
126.5605858819172
 30
0.0
 11
3116.378667206684
 21
1788.806060175907
 31
0.0
  0
LINE
  5
65C2
330
A
100
AcDbEntity
  8
0
  6
Continuous
370
     0
100
AcDbLine
 10
3114.679898198719
 20
126.5605858819172
 30
0.0
 11
3114.679898198719
 21
1788.806060175907
 31
0.0
  0
CIRCLE
  5
65C3
330
A
100
AcDbEntity
  8
0
  6
Continuous
370
     0
100
AcDbCircle
 10
3091.696552796836
 20
237.5301731375291
 30
0.0
 40
2.748008689355539
  0
LINE
  5
65C4
330
A
100
AcDbEntity
  8
0
  6
Continuous
370
     0
100
AcDbLine
 10
3090.404595778685
 20
216.6382054634282
 30
0.0
 11
3084.99430271868
 21
222.048498523433
 31
0.0
  0
LINE
  5
65C5
330
A
100
AcDbEntity
  8
0
  6
Continuous
370
     0
100
AcDbLine
 10
3090.697276909798
 20
129.5584135430324
 30
0.0
 11
3090.697276909798
 21
215.9316107063923
 31
0.0
  0
LINE
  5
65C6
330
A
100
AcDbEntity
  8
0
  6
Continuous
370
     0
100
AcDbLine
 10
3114.679898198719
 20
1685.181150690027
 30
0.0
 11
3114.1802602552
 21
1685.181150690027
 31
0.0
  0
LINE
  5
65C7
330
A
100
AcDbEntity
  8
0
  6
Continuous
370
     0
100
AcDbLine
 10
3114.1802602552
 20
1685.181150690027
 30
0.0
 11
3113.180984368161
 21
1685.181150690027
 31
0.0
  0
LINE
  5
65C8
330
A
100
AcDbEntity
  8
0
  6
Continuous
370
     0
100
AcDbLine
 10
3114.1802602552
 20
1650.206494643684
 30
0.0
 11
3114.679898198719
 21
1650.206494643684
 31
0.0
  0
LINE
  5
65C9
330
A
100
AcDbEntity
  8
0
  6
Continuous
370
     0
100
AcDbLine
 10
3113.180984368161
 20
1650.206494643684
 30
0.0
 11
3114.1802602552
 21
1650.206494643684
 31
0.0
  0
LINE
  5
65CA
330
A
100
AcDbEntity
  8
0
  6
Continuous
370
     0
100
AcDbLine
 10
3114.1802602552
 20
465.7647857370946
 30
0.0
 11
3114.679898198719
 21
465.7647857370946
 31
0.0
  0
LINE
  5
65CB
330
A
100
AcDbEntity
  8
0
  6
Continuous
370
     0
100
AcDbLine
 10
3114.679898198719
 20
500.7394417834378
 30
0.0
 11
3114.1802602552
 21
500.7394417834378
 31
0.0
  0
LINE
  5
65CC
330
A
100
AcDbEntity
  8
0
  6
Continuous
370
     0
100
AcDbLine
 10
3110.682794650565
 20
465.7647857370946
 30
0.0
 11
3114.1802602552
 21
465.7647857370946
 31
0.0
  0
LINE
  5
65CD
330
A
100
AcDbEntity
  8
0
  6
Continuous
370
     0
100
AcDbLine
 10
3114.1802602552
 20
500.7394417834378
 30
0.0
 11
3110.682794650565
 21
500.7394417834378
 31
0.0
  0
LINE
  5
65CE
330
A
100
AcDbEntity
  8
0
  6
Continuous
370
     0
100
AcDbLine
 10
3114.1802602552
 20
126.5605858819172
 30
0.0
 11
3114.1802602552
 21
465.7647857370946
 31
0.0
  0
CIRCLE
  5
65CF
330
A
100
AcDbEntity
  8
0
  6
Continuous
370
     0
100
AcDbCircle
 10
2772.427906888074
 20
1462.644409198355
 30
0.0
 40
3.447501810282404
  0
CIRCLE
  5
65D0
330
A
100
AcDbEntity
  8
0
  6
Continuous
370
     0
100
AcDbCircle
 10
2772.427906888074
 20
1462.644409198355
 30
0.0
 40
2.24837074583635
  0
LINE
  5
65D1
330
A
100
AcDbEntity
  8
0
  6
Continuous
370
     0
100
AcDbLine
 10
2511.616900371057
 20
1527.69502231513
 30
0.0
 11
3033.238913405091
 21
1527.69502231513
 31
0.0
  0
ARC
  5
65D2
330
A
100
AcDbEntity
  8
0
  6
Continuous
370
     0
100
AcDbCircle
 10
2511.616900371057
 20
1522.598963868883
 30
0.0
 40
5.096058446246681
100
AcDbArc
 50
90.0
 51
270.0
  0
LINE
  5
65D3
330
A
100
AcDbEntity
  8
0
  6
Continuous
370
     0
100
AcDbLine
 10
3033.238913405091
 20
1517.502905422636
 30
0.0
 11
2511.616900371057
 21
1517.502905422636
 31
0.0
  0
LINE
  5
65D4
330
A
100
AcDbEntity
  8
0
  6
Continuous
370
     0
100
AcDbLine
 10
3033.238913405091
 20
1527.496158980107
 30
0.0
 11
2511.616900371057
 21
1527.496158980107
 31
0.0
  0
ARC
  5
65D5
330
A
100
AcDbEntity
  8
0
  6
Continuous
370
     0
100
AcDbCircle
 10
3033.238913405091
 20
1522.598963868883
 30
0.0
 40
4.897195112334057
100
AcDbArc
 50
270.0
 51
90.0
  0
LINE
  5
65D6
330
A
100
AcDbEntity
  8
0
  6
Continuous
370
     0
100
AcDbLine
 10
2511.616900371057
 20
1517.701768756549
 30
0.0
 11
3033.238913405091
 21
1517.701768756549
 31
0.0
  0
ARC
  5
65D7
330
A
100
AcDbEntity
  8
0
  6
Continuous
370
     0
100
AcDbCircle
 10
3033.238913405091
 20
1522.598963868883
 30
0.0
 40
5.096058446246681
100
AcDbArc
 50
270.0
 51
90.0
  0
ARC
  5
65D8
330
A
100
AcDbEntity
  8
0
  6
Continuous
370
     0
100
AcDbCircle
 10
3033.238913405091
 20
1582.555517091186
 30
0.0
 40
4.897195112334057
100
AcDbArc
 50
270.0
 51
90.0
  0
LINE
  5
65D9
330
A
100
AcDbEntity
  8
0
  6
Continuous
370
     0
100
AcDbLine
 10
2511.616900371057
 20
1577.658321978852
 30
0.0
 11
3033.238913405091
 21
1577.658321978852
 31
0.0
  0
LINE
  5
65DA
330
A
100
AcDbEntity
  8
0
  6
Continuous
370
     0
100
AcDbLine
 10
3033.238913405091
 20
1587.452712202409
 30
0.0
 11
2511.616900371057
 21
1587.452712202409
 31
0.0
  0
ARC
  5
65DB
330
A
100
AcDbEntity
  8
0
  6
Continuous
370
     0
100
AcDbCircle
 10
2511.616900371057
 20
1582.555517091186
 30
0.0
 40
4.897195112334057
100
AcDbArc
 50
90.0
 51
270.0
  0
ARC
  5
65DC
330
A
100
AcDbEntity
  8
0
  6
Continuous
370
     0
100
AcDbCircle
 10
2511.616900371057
 20
1522.598963868883
 30
0.0
 40
4.897195112334057
100
AcDbArc
 50
90.0
 51
270.0
  0
CIRCLE
  5
65DD
330
A
100
AcDbEntity
  8
0
  6
Continuous
370
     0
100
AcDbCircle
 10
2772.427906888074
 20
1462.64241064658
 30
0.0
 40
17.41027235505672
  0
LINE
  5
65DE
330
A
100
AcDbEntity
  8
0
  6
Continuous
370
     0
100
AcDbLine
 10
2511.616900371057
 20
1587.651575537432
 30
0.0
 11
3033.238913405091
 21
1587.651575537432
 31
0.0
  0
ARC
  5
65DF
330
A
100
AcDbEntity
  8
0
  6
Continuous
370
     0
100
AcDbCircle
 10
2511.616900371057
 20
1582.555517091186
 30
0.0
 40
5.096058446246681
100
AcDbArc
 50
90.0
 51
270.0
  0
LINE
  5
65E0
330
A
100
AcDbEntity
  8
0
  6
Continuous
370
     0
100
AcDbLine
 10
3033.238913405091
 20
1577.459458644939
 30
0.0
 11
2511.616900371057
 21
1577.459458644939
 31
0.0
  0
ARC
  5
65E1
330
A
100
AcDbEntity
  8
0
  6
Continuous
370
     0
100
AcDbCircle
 10
3033.238913405091
 20
1582.555517091186
 30
0.0
 40
5.096058446246681
100
AcDbArc
 50
270.0
 51
90.0
  0
CIRCLE
  5
65E2
330
A
100
AcDbEntity
  8
0
  6
Continuous
370
     0
100
AcDbCircle
 10
2772.427906888074
 20
1462.64241064658
 30
0.0
 40
15.19049153854695
  0
CIRCLE
  5
65E3
330
A
100
AcDbEntity
  8
0
  6
Continuous
370
     0
100
AcDbCircle
 10
3094.694380457951
 20
1610.235459162149
 30
0.0
 40
13.65694882582669
  0
CIRCLE
  5
65E4
330
A
100
AcDbEntity
  8
0
  6
Continuous
370
     0
100
AcDbCircle
 10
2772.427906888074
 20
1462.64241064658
 30
0.0
 40
11.69287834197442
  0
CIRCLE
  5
65E5
330
A
100
AcDbEntity
  8
0
  6
Continuous
370
     0
100
AcDbCircle
 10
2772.427906888074
 20
1462.64241064658
 30
0.0
 40
6.539815734202268
  0
CIRCLE
  5
65E6
330
A
100
AcDbEntity
  8
0
  6
Continuous
370
     0
100
AcDbCircle
 10
3094.694380457951
 20
1610.235459162149
 30
0.0
 40
15.87672964233647
  0
CIRCLE
  5
65E7
330
A
100
AcDbEntity
  8
0
  6
Continuous
370
     0
100
AcDbCircle
 10
2450.161433318198
 20
1610.235459162149
 30
0.0
 40
15.87672964233647
  0
CIRCLE
  5
65E8
330
A
100
AcDbEntity
  8
0
  6
Continuous
370
     0
100
AcDbCircle
 10
2450.161433318198
 20
1610.235459162149
 30
0.0
 40
13.65694882582669
  0
LINE
  5
65E9
330
A
100
AcDbEntity
  8
0
  6
Continuous
370
     0
100
AcDbLine
 10
2469.647313115446
 20
1411.879195585031
 30
0.0
 11
2432.474250117619
 21
1411.879195585031
 31
0.0
  0
CIRCLE
  5
65EA
330
A
100
AcDbEntity
  8
0
  6
Continuous
370
     0
100
AcDbCircle
 10
3094.694380457951
 20
1610.235459162149
 30
0.0
 40
11.69287834197442
  0
CIRCLE
  5
65EB
330
A
100
AcDbEntity
  8
0
  6
Continuous
370
     0
100
AcDbCircle
 10
2450.161433318198
 20
1610.235459162149
 30
0.0
 40
11.69287834197442
  0
CIRCLE
  5
65EC
330
A
100
AcDbEntity
  8
0
  6
Continuous
370
     0
100
AcDbCircle
 10
3094.694380457951
 20
1610.235459162149
 30
0.0
 40
6.539815734202268
  0
CIRCLE
  5
65ED
330
A
100
AcDbEntity
  8
0
  6
Continuous
370
     0
100
AcDbCircle
 10
2450.161433318198
 20
1610.235459162149
 30
0.0
 40
6.539815734202268
  0
LINE
  5
65EE
330
A
100
AcDbEntity
  8
0
  6
Continuous
370
     0
100
AcDbLine
 10
2471.645864889523
 20
1411.879195585031
 30
0.0
 11
2471.645864889523
 21
1788.806060175907
 31
0.0
  0
ELLIPSE
  5
65EF
330
A
100
AcDbEntity
  8
0
  6
Continuous
370
     0
100
AcDbEllipse
 10
3049.726965541225
 20
1801.498082388362
 30
0.0
 11
-2.148443157132498
 21
0.0
 31
0.0
210
0.0
220
0.0
230
1.0
 40
0.7071067812
 41
3.560675502118165
 42
5.849686150399167
  0
ELLIPSE
  5
65F0
330
A
100
AcDbEntity
  8
0
  6
Continuous
370
     0
100
AcDbEllipse
 10
2495.128848234925
 20
1801.498082388362
 30
0.0
 11
-2.148443157132498
 21
0.0
 31
0.0
210
0.0
220
0.0
230
1.0
 40
0.7071067812
 41
3.568375826362758
 42
5.854454526603875
  0
LINE
  5
65F1
330
A
100
AcDbEntity
  8
0
  6
Continuous
370
     0
100
AcDbLine
 10
3075.208500660703
 20
1788.806060175907
 30
0.0
 11
3075.208500660703
 21
1411.879195585031
 31
0.0
  0
LINE
  5
65F2
330
A
100
AcDbEntity
  8
0
  6
Continuous
370
     0
100
AcDbLine
 10
2469.647313115446
 20
1411.879195585031
 30
0.0
 11
2469.647313115446
 21
1788.806060175907
 31
0.0
  0
LINE
  5
65F3
330
A
100
AcDbEntity
  8
0
  6
Continuous
370
     0
100
AcDbLine
 10
2471.645864889523
 20
1411.879195585031
 30
0.0
 11
2469.647313115446
 21
1411.879195585031
 31
0.0
  0
ELLIPSE
  5
65F4
330
A
100
AcDbEntity
  8
0
  6
Continuous
370
     0
100
AcDbEllipse
 10
2772.427906888074
 20
1802.628633998065
 30
0.0
 11
-2.148443157132511
 21
0.0
 31
0.0
210
0.0
220
0.0
230
1.0
 40
0.7071067811999999
 41
0.0
 42
0.0009648172379365
  0
ELLIPSE
  5
65F5
330
A
100
AcDbEntity
  8
0
  6
Continuous
370
     0
100
AcDbEllipse
 10
2772.427906888074
 20
1802.628633998065
 30
0.0
 11
-2.148443157132511
 21
0.0
 31
0.0
210
0.0
220
0.0
230
1.0
 40
0.7071067811999999
 41
3.158143998961694
 42
6.283185307179585
  0
ELLIPSE
  5
65F6
330
A
100
AcDbEntity
  8
0
  6
Continuous
370
     0
100
AcDbEllipse
 10
3049.726965541225
 20
1803.193909803472
 30
0.0
 11
-2.947863866763222
 21
0.0
 31
0.0
210
0.0
220
0.0
230
1.0
 40
0.7071067812
 41
0.0
 42
0.2607776868067979
  0
ELLIPSE
  5
65F7
330
A
100
AcDbEntity
  8
0
  6
Continuous
370
     0
100
AcDbEllipse
 10
3049.726965541225
 20
1803.193909803472
 30
0.0
 11
-2.947863866763222
 21
0.0
 31
0.0
210
0.0
220
0.0
230
1.0
 40
0.7071067812
 41
2.88566490366302
 42
6.283185307179585
  0
ELLIPSE
  5
65F8
330
A
100
AcDbEntity
  8
0
  6
Continuous
370
     0
100
AcDbEllipse
 10
2495.128848234925
 20
1803.193909803472
 30
0.0
 11
-2.947863866763222
 21
0.0
 31
0.0
210
0.0
220
0.0
230
1.0
 40
0.7071067812
 41
0.0
 42
0.2607791891676136
  0
ELLIPSE
  5
65F9
330
A
100
AcDbEntity
  8
0
  6
Continuous
370
     0
100
AcDbEllipse
 10
2495.128848234925
 20
1803.193909803472
 30
0.0
 11
-2.947863866763222
 21
0.0
 31
0.0
210
0.0
220
0.0
230
1.0
 40
0.7071067812
 41
2.885663051466433
 42
6.283185307179585
  0
ELLIPSE
  5
65FA
330
A
100
AcDbEntity
  8
0
  6
Continuous
370
     0
100
AcDbEllipse
 10
2772.427906888074
 20
1803.193909803472
 30
0.0
 11
2.947863866763216
 21
0.0
 31
0.0
210
0.0
220
0.0
230
1.0
 40
0.7071067812
 41
0.0
 42
3.402375329614839
  0
ELLIPSE
  5
65FB
330
A
100
AcDbEntity
  8
0
  6
Continuous
370
     0
100
AcDbEllipse
 10
2772.427906888074
 20
1803.193909803472
 30
0.0
 11
2.947863866763216
 21
0.0
 31
0.0
210
0.0
220
0.0
230
1.0
 40
0.7071067812
 41
6.027252358645578
 42
6.283185307179585
  0
ELLIPSE
  5
65FC
330
A
100
AcDbEntity
  8
0
  6
Continuous
370
     0
100
AcDbEllipse
 10
3049.726965541225
 20
1802.628633998065
 30
0.0
 11
-2.148443157132498
 21
0.0
 31
0.0
210
0.0
220
0.0
230
1.0
 40
0.7071067812
 41
0.0
 42
0.0009648172311473
  0
ELLIPSE
  5
65FD
330
A
100
AcDbEntity
  8
0
  6
Continuous
370
     0
100
AcDbEllipse
 10
3049.726965541225
 20
1802.628633998065
 30
0.0
 11
-2.148443157132498
 21
0.0
 31
0.0
210
0.0
220
0.0
230
1.0
 40
0.7071067812
 41
3.158143998961305
 42
6.283185307179585
  0
ELLIPSE
  5
65FE
330
A
100
AcDbEntity
  8
0
  6
Continuous
370
     0
100
AcDbEllipse
 10
2495.128848234925
 20
1802.628633998065
 30
0.0
 11
-2.148443157132498
 21
0.0
 31
0.0
210
0.0
220
0.0
230
1.0
 40
0.7071067812
 41
0.0
 42
0.0009648172311473
  0
ELLIPSE
  5
65FF
330
A
100
AcDbEntity
  8
0
  6
Continuous
370
     0
100
AcDbEllipse
 10
2495.128848234925
 20
1802.628633998065
 30
0.0
 11
-2.148443157132498
 21
0.0
 31
0.0
210
0.0
220
0.0
230
1.0
 40
0.7071067812
 41
3.158143998943556
 42
6.283185307179585
  0
ELLIPSE
  5
6600
330
A
100
AcDbEntity
  8
0
  6
Continuous
370
     0
100
AcDbEllipse
 10
2772.427906888074
 20
1801.498082388362
 30
0.0
 11
2.148443157132513
 21
0.0
 31
0.0
210
0.0
220
0.0
230
1.0
 40
0.7071067811999999
 41
0.4190828485276656
 42
2.708093496809359
  0
LINE
  5
6601
330
A
100
AcDbEntity
  8
0
  6
Continuous
370
     0
100
AcDbLine
 10
2431.674829407988
 20
1411.879195585031
 30
0.0
 11
2431.674829407988
 21
1788.806060175907
 31
0.0
  0
LINE
  5
6602
330
A
100
AcDbEntity
  8
0
  6
Continuous
370
     0
100
AcDbLine
 10
2432.474250117619
 20
1788.806060175907
 30
0.0
 11
2432.474250117619
 21
1411.879195585031
 31
0.0
  0
LINE
  5
6603
330
A
100
AcDbEntity
  8
0
  6
Continuous
370
     0
100
AcDbLine
 10
2432.474250117619
 20
1411.879195585031
 30
0.0
 11
2431.674829407988
 21
1411.879195585031
 31
0.0
  0
LINE
  5
6604
330
A
100
AcDbEntity
  8
0
  6
Continuous
370
     0
100
AcDbLine
 10
3072.410528176996
 20
1411.879195585031
 30
0.0
 11
3072.410528176996
 21
1788.806060175907
 31
0.0
  0
LINE
  5
6605
330
A
100
AcDbEntity
  8
0
  6
Continuous
370
     0
100
AcDbLine
 10
3073.209948886627
 20
1788.806060175907
 30
0.0
 11
3073.209948886627
 21
1411.879195585031
 31
0.0
  0
LINE
  5
6606
330
A
100
AcDbEntity
  8
0
  6
Continuous
370
     0
100
AcDbLine
 10
3073.209948886627
 20
1411.879195585031
 30
0.0
 11
3072.410528176996
 21
1411.879195585031
 31
0.0
  0
LINE
  5
6607
330
A
100
AcDbEntity
  8
0
  6
Continuous
370
     0
100
AcDbLine
 10
3112.38156365853
 20
1411.879195585031
 30
0.0
 11
3112.38156365853
 21
1788.806060175907
 31
0.0
  0
LINE
  5
6608
330
A
100
AcDbEntity
  8
0
  6
Continuous
370
     0
100
AcDbLine
 10
3113.180984368161
 20
1411.879195585031
 30
0.0
 11
3112.38156365853
 21
1411.879195585031
 31
0.0
  0
LINE
  5
6609
330
A
100
AcDbEntity
  8
0
  6
Continuous
370
     0
100
AcDbLine
 10
3070.212121225511
 20
1411.0797748754
 30
0.0
 11
2474.643692550638
 21
1411.0797748754
 31
0.0
  0
LINE
  5
660A
330
A
100
AcDbEntity
  8
0
  6
Continuous
370
     0
100
AcDbLine
 10
2474.643692550638
 20
1411.0797748754
 30
0.0
 11
2474.643692550638
 21
1411.879195585031
 31
0.0
  0
LINE
  5
660B
330
A
100
AcDbEntity
  8
0
  6
Continuous
370
     0
100
AcDbLine
 10
2474.643692550638
 20
1411.879195585031
 30
0.0
 11
3070.212121225511
 21
1411.879195585031
 31
0.0
  0
LINE
  5
660C
330
A
100
AcDbEntity
  8
0
  6
Continuous
370
     0
100
AcDbLine
 10
3070.212121225511
 20
1411.879195585031
 30
0.0
 11
3070.212121225511
 21
1411.0797748754
 31
0.0
  0
LINE
  5
660D
330
A
100
AcDbEntity
  8
0
  6
Continuous
370
     0
100
AcDbLine
 10
2472.445285599154
 20
1411.879195585031
 30
0.0
 11
2471.645864889523
 21
1411.879195585031
 31
0.0
  0
LINE
  5
660E
330
A
100
AcDbEntity
  8
0
  6
Continuous
370
     0
100
AcDbLine
 10
3113.180984368161
 20
1788.806060175907
 30
0.0
 11
3113.180984368161
 21
1411.879195585031
 31
0.0
  0
LINE
  5
660F
330
A
100
AcDbEntity
  8
0
  6
Continuous
370
     0
100
AcDbLine
 10
2472.445285599154
 20
1411.879195585031
 30
0.0
 11
2474.643692550638
 21
1411.879195585031
 31
0.0
  0
LINE
  5
6610
330
A
100
AcDbEntity
  8
0
  6
Continuous
370
     0
100
AcDbLine
 10
2472.445285599154
 20
1788.806060175907
 30
0.0
 11
2472.445285599154
 21
1411.879195585031
 31
0.0
  0
LINE
  5
6611
330
A
100
AcDbEntity
  8
0
  6
Continuous
370
     0
100
AcDbLine
 10
3070.212121225511
 20
1411.879195585031
 30
0.0
 11
3072.410528176996
 21
1411.879195585031
 31
0.0
  0
LINE
  5
6612
330
A
100
AcDbEntity
  8
0
  6
Continuous
370
     0
100
AcDbLine
 10
3033.238913405091
 20
1522.598963868883
 30
0.0
 11
2511.616900371057
 21
1522.598963868883
 31
0.0
  0
LINE
  5
6613
330
A
100
AcDbEntity
  8
0
  6
Continuous
370
     0
100
AcDbLine
 10
3033.238913405091
 20
1522.598963868883
 30
0.0
 11
3033.238913405091
 21
1517.701768756549
 31
0.0
  0
LINE
  5
6614
330
A
100
AcDbEntity
  8
0
  6
Continuous
370
     0
100
AcDbLine
 10
3112.38156365853
 20
1411.879195585031
 30
0.0
 11
3075.208500660703
 21
1411.879195585031
 31
0.0
  0
LINE
  5
6615
330
A
100
AcDbEntity
  8
0
  6
Continuous
370
     0
100
AcDbLine
 10
3033.238913405091
 20
1582.555517091186
 30
0.0
 11
2511.616900371057
 21
1582.555517091186
 31
0.0
  0
LINE
  5
6616
330
A
100
AcDbEntity
  8
0
  6
Continuous
370
     0
100
AcDbLine
 10
3033.238913405091
 20
1582.555517091186
 30
0.0
 11
3033.238913405091
 21
1577.658321978852
 31
0.0
  0
LINE
  5
6617
330
A
100
AcDbEntity
  8
0
  6
Continuous
370
     0
100
AcDbLine
 10
2511.616900371057
 20
1527.496158980107
 30
0.0
 11
2511.616900371057
 21
1522.598963868883
 31
0.0
  0
LINE
  5
6618
330
A
100
AcDbEntity
  8
0
  6
Continuous
370
     0
100
AcDbLine
 10
3033.238913405091
 20
1527.496158980107
 30
0.0
 11
3033.238913405091
 21
1522.598963868883
 31
0.0
  0
LINE
  5
6619
330
A
100
AcDbEntity
  8
0
  6
Continuous
370
     0
100
AcDbLine
 10
2511.616900371057
 20
1522.598963868883
 30
0.0
 11
2511.616900371057
 21
1517.701768756549
 31
0.0
  0
LINE
  5
661A
330
A
100
AcDbEntity
  8
0
  6
Continuous
370
     0
100
AcDbLine
 10
3033.238913405091
 20
1577.459458644939
 30
0.0
 11
3033.238913405091
 21
1577.658321978852
 31
0.0
  0
LINE
  5
661B
330
A
100
AcDbEntity
  8
0
  6
Continuous
370
     0
100
AcDbLine
 10
3033.238913405091
 20
1587.651575537432
 30
0.0
 11
3033.238913405091
 21
1587.452712202409
 31
0.0
  0
LINE
  5
661C
330
A
100
AcDbEntity
  8
0
  6
Continuous
370
     0
100
AcDbLine
 10
2511.616900371057
 20
1587.452712202409
 30
0.0
 11
2511.616900371057
 21
1587.651575537432
 31
0.0
  0
LINE
  5
661D
330
A
100
AcDbEntity
  8
0
  6
Continuous
370
     0
100
AcDbLine
 10
2511.616900371057
 20
1587.452712202409
 30
0.0
 11
2511.616900371057
 21
1582.555517091186
 31
0.0
  0
LINE
  5
661E
330
A
100
AcDbEntity
  8
0
  6
Continuous
370
     0
100
AcDbLine
 10
3033.238913405091
 20
1587.452712202409
 30
0.0
 11
3033.238913405091
 21
1582.555517091186
 31
0.0
  0
LINE
  5
661F
330
A
100
AcDbEntity
  8
0
  6
Continuous
370
     0
100
AcDbLine
 10
2511.616900371057
 20
1582.555517091186
 30
0.0
 11
2511.616900371057
 21
1577.658321978852
 31
0.0
  0
LINE
  5
6620
330
A
100
AcDbEntity
  8
0
  6
Continuous
370
     0
100
AcDbLine
 10
2511.616900371057
 20
1527.496158980107
 30
0.0
 11
2511.616900371057
 21
1527.69502231513
 31
0.0
  0
LINE
  5
6621
330
A
100
AcDbEntity
  8
0
  6
Continuous
370
     0
100
AcDbLine
 10
3033.238913405091
 20
1527.496158980107
 30
0.0
 11
3033.238913405091
 21
1527.69502231513
 31
0.0
  0
LINE
  5
6622
330
A
100
AcDbEntity
  8
0
  6
Continuous
370
     0
100
AcDbLine
 10
3033.238913405091
 20
1517.502905422636
 30
0.0
 11
3033.238913405091
 21
1517.701768756549
 31
0.0
  0
LINE
  5
6623
330
A
100
AcDbEntity
  8
0
  6
Continuous
370
     0
100
AcDbLine
 10
2511.616900371057
 20
1577.658321978852
 30
0.0
 11
2511.616900371057
 21
1577.459458644939
 31
0.0
  0
LINE
  5
6624
330
A
100
AcDbEntity
  8
0
  6
Continuous
370
     0
100
AcDbLine
 10
2511.616900371057
 20
1517.502905422636
 30
0.0
 11
2511.616900371057
 21
1517.701768756549
 31
0.0
  0
CIRCLE
  5
6625
330
A
100
AcDbEntity
  8
0
  6
Continuous
370
     0
100
AcDbCircle
 10
2450.161433318198
 20
1610.235459162149
 30
0.0
 40
3.497465604634323
  0
CIRCLE
  5
6626
330
A
100
AcDbEntity
  8
0
  6
Continuous
370
     0
100
AcDbCircle
 10
2772.427906888074
 20
1462.64241064658
 30
0.0
 40
3.497465604634323
  0
CIRCLE
  5
6627
330
A
100
AcDbEntity
  8
0
  6
Continuous
370
     0
100
AcDbCircle
 10
3094.694380457951
 20
1610.235459162149
 30
0.0
 40
3.497465604634323
  0
LINE
  5
6628
330
A
100
AcDbEntity
  8
0
  6
Continuous
370
     0
100
AcDbLine
 10
3075.208500660703
 20
1411.879195585031
 30
0.0
 11
3073.209948886627
 21
1411.879195585031
 31
0.0
  0
SPLINE
  5
6629
330
A
100
AcDbEntity
  8
0
  6
Continuous
370
     0
100
AcDbSpline
210
0.0
220
0.0
230
1.0
 70
     8
 71
     3
 72
    10
 73
     6
 74
     0
 42
0.000000001
 43
0.0000000001
 40
0.0
 40
0.0
 40
0.0
 40
0.0
 40
0.0121680594158711
 40
0.1489597656794394
 40
0.1649236679310645
 40
0.1649236679310645
 40
0.1649236679310645
 40
0.1649236679310645
 10
2774.566787066817
 20
1802.645834127861
 30
0.0
 10
2774.570519004374
 20
1802.631711430562
 30
0.0
 10
2774.608747018173
 20
1802.482311140016
 30
0.0
 10
2774.525879233517
 20
1802.302066888198
 30
0.0
 10
2774.384924757896
 20
1802.123394557139
 30
0.0
 10
2774.369456965997
 20
1802.10465991877
 30
0.0
  0
SPLINE
  5
662A
330
A
100
AcDbEntity
  8
0
  6
Continuous
370
     0
100
AcDbSpline
210
0.0
220
0.0
230
1.0
 70
     8
 71
     3
 72
     9
 73
     5
 74
     0
 42
0.000000001
 43
0.0000000001
 40
0.848834245496686
 40
0.848834245496686
 40
0.848834245496686
 40
0.848834245496686
 40
0.9014773761131448
 40
1.0
 40
1.0
 40
1.0
 40
1.0
 10
2770.459904925818
 20
1802.134913327579
 30
0.0
 10
2770.413399177568
 20
1802.196969810986
 30
0.0
 10
2770.309740034243
 20
1802.372164890762
 30
0.0
 10
2770.296344584761
 20
1802.516130806389
 30
0.0
 10
2770.293016273072
 20
1802.625312920117
 30
0.0
  0
SPLINE
  5
662B
330
A
100
AcDbEntity
  8
0
  6
Continuous
370
     0
100
AcDbSpline
210
0.0
220
0.0
230
1.0
 70
     8
 71
     3
 72
    10
 73
     6
 74
     0
 42
0.000000001
 43
0.0000000001
 40
0.0
 40
0.0
 40
0.0
 40
0.0
 40
0.0121680594158976
 40
0.1489597656794489
 40
0.1649236679310888
 40
0.1649236679310888
 40
0.1649236679310888
 40
0.1649236679310888
 10
3051.865845719968
 20
1802.645834127861
 30
0.0
 10
3051.869577657522
 20
1802.631711430562
 30
0.0
 10
3051.907805671324
 20
1802.482311140018
 30
0.0
 10
3051.824937886668
 20
1802.302066888198
 30
0.0
 10
3051.683983411045
 20
1802.123394557138
 30
0.0
 10
3051.668515619149
 20
1802.10465991877
 30
0.0
  0
SPLINE
  5
662C
330
A
100
AcDbEntity
  8
0
  6
Continuous
370
     0
100
AcDbSpline
210
0.0
220
0.0
230
1.0
 70
     8
 71
     3
 72
     9
 73
     5
 74
     0
 42
0.000000001
 43
0.0000000001
 40
0.8488342454966583
 40
0.8488342454966583
 40
0.8488342454966583
 40
0.8488342454966583
 40
0.9014773761131728
 40
1.0
 40
1.0
 40
1.0
 40
1.0
 10
3047.758963578967
 20
1802.134913327579
 30
0.0
 10
3047.712457830719
 20
1802.196969810987
 30
0.0
 10
3047.608798687393
 20
1802.372164890762
 30
0.0
 10
3047.59540323791
 20
1802.516130806389
 30
0.0
 10
3047.592074926222
 20
1802.625312920117
 30
0.0
  0
SPLINE
  5
662D
330
A
100
AcDbEntity
  8
0
  6
Continuous
370
     0
100
AcDbSpline
210
0.0
220
0.0
230
1.0
 70
     8
 71
     3
 72
    10
 73
     6
 74
     0
 42
0.000000001
 43
0.0000000001
 40
0.0
 40
0.0
 40
0.0
 40
0.0
 40
0.0121680594158845
 40
0.1489597656794366
 40
0.1594773918593199
 40
0.1594773918593199
 40
0.1594773918593199
 40
0.1594773918593199
 10
2497.267728413669
 20
1802.645834127861
 30
0.0
 10
2497.271460351223
 20
1802.631711430562
 30
0.0
 10
2497.309688365023
 20
1802.482311140013
 30
0.0
 10
2497.229557124117
 20
1802.308019096077
 30
0.0
 10
2497.095835542672
 20
1802.136120247959
 30
0.0
 10
2497.085973404388
 20
1802.123810197504
 30
0.0
  0
SPLINE
  5
662E
330
A
100
AcDbEntity
  8
0
  6
Continuous
370
     0
100
AcDbSpline
210
0.0
220
0.0
230
1.0
 70
     8
 71
     3
 72
     9
 73
     5
 74
     0
 42
0.000000001
 43
0.0000000001
 40
0.8447560884545419
 40
0.8447560884545419
 40
0.8447560884545419
 40
0.8447560884545419
 40
0.9014773761131588
 40
1.0
 40
1.0
 40
1.0
 40
1.0
 10
2493.171841501382
 20
1802.120473613456
 30
0.0
 10
2493.119999262472
 20
1802.187494239245
 30
0.0
 10
2493.011042764178
 20
1802.368280971322
 30
0.0
 10
2492.997285931611
 20
1802.516130806389
 30
0.0
 10
2492.993957619923
 20
1802.625312920117
 30
0.0
  0
ARC
  5
662F
330
A
100
AcDbEntity
  8
0
  6
Continuous
370
     0
100
AcDbCircle
 10
2935.459767858386
 20
1395.391143448898
 30
0.0
 40
2.997827661115134
100
AcDbArc
 50
90.0
 51
180.0
  0
LINE
  5
6630
330
A
100
AcDbEntity
  8
0
  6
Continuous
370
     0
100
AcDbLine
 10
2932.46194019727
 20
1388.396212239629
 30
0.0
 11
2932.46194019727
 21
1395.391143448898
 31
0.0
  0
SPLINE
  5
6631
330
A
100
AcDbEntity
  8
0
  6
Continuous
370
     0
100
AcDbSpline
210
0.0
220
0.0
230
1.0
 70
     8
 71
     3
 72
    20
 73
    16
 74
     0
 42
0.000000001
 43
0.0000000001
 40
0.0
 40
0.0
 40
0.0
 40
0.0
 40
0.1249999999999994
 40
0.1249999999999994
 40
0.2499999999999989
 40
0.2499999999999989
 40
0.3749999999999983
 40
0.3749999999999983
 40
0.4999999999999978
 40
0.4999999999999978
 40
0.7499999999999912
 40
0.7499999999999912
 40
0.8749999999999957
 40
0.8749999999999957
 40
1.0
 40
1.0
 40
1.0
 40
1.0
 10
2975.947617470712
 20
1395.915218519016
 30
0.0
 10
2975.745667032596
 20
1395.868818557963
 30
0.0
 10
2975.545854095645
 20
1395.828685236093
 30
0.0
 10
2975.157657104918
 20
1395.762471955737
 30
0.0
 10
2974.968156883104
 20
1395.736128574643
 30
0.0
 10
2974.598614546155
 20
1395.697423621745
 30
0.0
 10
2974.417093589175
 20
1395.685048275379
 30
0.0
 10
2974.072533344005
 20
1395.675583741366
 30
0.0
 10
2973.909723573054
 20
1395.678346283763
 30
0.0
 10
2973.448920168076
 20
1395.70861115354
 30
0.0
 10
2973.175711541321
 20
1395.759386953981
 30
0.0
 10
2972.842671163267
 20
1395.875045578715
 30
0.0
 10
2972.743531077975
 20
1395.920122400149
 30
0.0
 10
2972.568383996776
 20
1396.023075909415
 30
0.0
 10
2972.492340208144
 20
1396.08123583448
 30
0.0
 10
2972.429470002864
 20
1396.14410603976
 30
0.0
  0
ARC
  5
6632
330
A
100
AcDbEntity
  8
0
  6
Continuous
370
     0
100
AcDbCircle
 10
2886.369124784816
 20
1409.367546591645
 30
0.0
 40
85.87815991267196
100
AcDbArc
 50
351.9570146864001
 51
353.7686743699006
  0
ELLIPSE
  5
6633
330
A
100
AcDbEntity
  8
0
  6
Continuous
370
     0
100
AcDbEllipse
 10
2982.246931928529
 20
1393.392591674821
 30
0.0
 11
-10.83437360639825
 21
4.003248835217162
 31
0.0
210
0.0
220
0.0
230
1.0
 40
0.1217495778
 41
0.0318404867012966
 42
0.2427250578760061
  0
LINE
  5
6634
330
A
100
AcDbEntity
  8
0
  6
Continuous
370
     0
100
AcDbLine
 10
2971.613006003064
 20
1396.96145248491
 30
0.0
 11
2971.648010588533
 21
1396.925565454449
 31
0.0
  0
LINE
  5
6635
330
A
100
AcDbEntity
  8
0
  6
Continuous
370
     0
100
AcDbLine
 10
2968.116801699998
 20
1398.388971110013
 30
0.0
 11
2968.476588705888
 21
1398.388971110013
 31
0.0
  0
LINE
  5
6636
330
A
100
AcDbEntity
  8
0
  6
Continuous
370
     0
100
AcDbLine
 10
2968.115036807795
 20
1398.388971110013
 30
0.0
 11
2968.116801699998
 21
1398.388971110013
 31
0.0
  0
ARC
  5
6637
330
A
100
AcDbEntity
  8
0
  6
Continuous
370
     0
100
AcDbCircle
 10
2728.110021297923
 20
1395.391143448898
 30
0.0
 40
2.997827661115134
100
AcDbArc
 50
0.0
 51
90.0
  0
LINE
  5
6638
330
A
100
AcDbEntity
  8
0
  6
Continuous
370
     0
100
AcDbLine
 10
2731.107848959037
 20
1395.391143448898
 30
0.0
 11
2731.107848959037
 21
1388.396212239629
 31
0.0
  0
SPLINE
  5
6639
330
A
100
AcDbEntity
  8
0
  6
Continuous
370
     0
100
AcDbSpline
210
0.0
220
0.0
230
1.0
 70
     8
 71
     3
 72
    16
 73
    12
 74
     0
 42
0.000000001
 43
0.0000000001
 40
0.0
 40
0.0
 40
0.0
 40
0.0
 40
0.1249999999999982
 40
0.1249999999999982
 40
0.2499999999999963
 40
0.2499999999999963
 40
0.4999999999999976
 40
0.4999999999999976
 40
0.7499999999999988
 40
0.7499999999999988
 40
1.0
 40
1.0
 40
1.0
 40
1.0
 10
2691.829892524908
 20
1400.04608403876
 30
0.0
 10
2691.97672869782
 20
1399.918776220751
 30
0.0
 10
2692.126312822556
 20
1399.795605043701
 30
0.0
 10
2692.420777138709
 20
1399.565875047071
 30
0.0
 10
2692.566993389228
 20
1399.45813089004
 30
0.0
 10
2693.002165782774
 20
1399.156102440332
 30
0.0
 10
2693.287701153961
 20
1398.982825041247
 30
0.0
 10
2693.846346065948
 20
1398.695974079759
 30
0.0
 10
2694.118611302332
 20
1398.583284030038
 30
0.0
 10
2694.63007824529
 20
1398.430409650694
 30
0.0
 10
2694.871363044444
 20
1398.388971109567
 30
0.0
 10
2695.0932004509
 20
1398.388971109567
 30
0.0
  0
ELLIPSE
  5
663A
330
A
100
AcDbEntity
  8
0
  6
Continuous
370
     0
100
AcDbEllipse
 10
2681.32285722778
 20
1393.392591674821
 30
0.0
 11
10.83437360637219
 21
4.003248835207619
 31
0.0
210
0.0
220
0.0
230
1.0
 40
0.1217495778
 41
6.024655839101881
 42
6.251344820476707
  0
LINE
  5
663B
330
A
100
AcDbEntity
  8
0
  6
Continuous
370
     0
100
AcDbLine
 10
2695.09320045042
 20
1398.388971110013
 30
0.0
 11
2695.454752348514
 21
1398.388971110013
 31
0.0
  0
ARC
  5
663C
330
A
100
AcDbEntity
  8
0
  6
Continuous
370
     0
100
AcDbCircle
 10
2686.752532742528
 20
1438.360006591548
 30
0.0
 40
44.967414916727
100
AcDbArc
 50
254.7285053728
 51
263.2053225013998
  0
LINE
  5
663D
330
A
100
AcDbEntity
  8
0
  6
Continuous
370
     0
100
AcDbLine
 10
2968.186053158893
 20
1398.388971110013
 30
0.0
 11
2940.955785237097
 21
1398.388971110013
 31
0.0
  0
LINE
  5
663E
330
A
100
AcDbEntity
  8
0
  6
Continuous
370
     0
100
AcDbLine
 10
2722.614003919211
 20
1398.388971110013
 30
0.0
 11
2695.383735997415
 21
1398.388971110013
 31
0.0
  0
LINE
  5
663F
330
A
100
AcDbEntity
  8
0
  6
Continuous
370
     0
100
AcDbLine
 10
2968.476588705888
 20
1398.388971110013
 30
0.0
 11
2695.09320045042
 21
1398.388971110013
 31
0.0
  0
LINE
  5
6640
330
A
100
AcDbEntity
  8
0
  6
Continuous
370
     0
100
AcDbLine
 10
2686.752532742528
 20
1405.633721291041
 30
0.0
 11
2975.109210306129
 21
1405.633721291041
 31
0.0
  0
LINE
  5
6641
330
A
100
AcDbEntity
  8
0
  6
Continuous
370
     0
100
AcDbLine
 10
2986.330208776706
 20
1407.617545028719
 30
0.0
 11
2995.815769999395
 21
1411.0797748754
 31
0.0
  0
ARC
  5
6642
330
A
100
AcDbEntity
  8
0
  6
Continuous
370
     0
100
AcDbCircle
 10
2975.109210306129
 20
1438.360006591548
 30
0.0
 40
32.72628530050687
100
AcDbArc
 50
270.0
 51
290.0520821460992
  0
ARC
  5
6643
330
A
100
AcDbEntity
  8
0
  6
Continuous
370
     0
100
AcDbCircle
 10
2686.752532742528
 20
1438.360006591548
 30
0.0
 40
32.72628530050687
100
AcDbArc
 50
254.7285053728
 51
270.0
  0
LINE
  5
6644
330
A
100
AcDbEntity
  8
0
  6
Continuous
370
     0
100
AcDbLine
 10
2662.418727476972
 20
1411.0797748754
 30
0.0
 11
2678.132653767197
 21
1406.789332920199
 31
0.0
  0
LINE
  5
6645
330
A
100
AcDbEntity
  8
0
  6
Continuous
370
     0
100
AcDbLine
 10
2731.107848959037
 20
1395.391143448898
 30
0.0
 11
2932.46194019727
 21
1395.391143448898
 31
0.0
  0
LINE
  5
6646
330
A
100
AcDbEntity
  8
0
  6
Continuous
370
     0
100
AcDbLine
 10
2932.46194019727
 20
1388.396212239629
 30
0.0
 11
2731.107848959037
 21
1388.396212239629
 31
0.0
  0
LINE
  5
6647
330
A
100
AcDbEntity
  8
0
  6
Continuous
370
     0
100
AcDbLine
 10
2686.752532742528
 20
1405.633721291041
 30
0.0
 11
2686.752532742528
 21
1400.046084039098
 31
0.0
  0
LINE
  5
6648
330
A
100
AcDbEntity
  8
0
  6
Continuous
370
     0
100
AcDbLine
 10
2678.132653767197
 20
1406.789332920199
 30
0.0
 11
2676.660908458193
 21
1401.399003078538
 31
0.0
  0
LINE
  5
6649
330
A
100
AcDbEntity
  8
0
  6
Continuous
370
     0
100
AcDbLine
 10
2975.109210306129
 20
1405.633721291041
 30
0.0
 11
2975.109210306129
 21
1400.046084039098
 31
0.0
  0
LINE
  5
664A
330
A
100
AcDbEntity
  8
0
  6
Continuous
370
     0
100
AcDbLine
 10
2986.330208776706
 20
1407.617545028719
 30
0.0
 11
2988.246065357059
 21
1402.368622889931
 31
0.0
  0
LINE
  5
664B
330
A
100
AcDbEntity
  8
0
  6
Continuous
370
     0
100
AcDbLine
 10
2686.752532742528
 20
1400.046084039098
 30
0.0
 11
2691.829892525197
 21
1400.046084039098
 31
0.0
  0
LINE
  5
664C
330
A
100
AcDbEntity
  8
0
  6
Continuous
370
     0
100
AcDbLine
 10
2686.752532742528
 20
1396.023387566542
 30
0.0
 11
2686.752532742528
 21
1400.046084039098
 31
0.0
  0
LINE
  5
664D
330
A
100
AcDbEntity
  8
0
  6
Continuous
370
     0
100
AcDbLine
 10
2620.282879884309
 20
1411.0797748754
 30
0.0
 11
2675.209439519502
 21
1396.082936305282
 31
0.0
  0
ARC
  5
664E
330
A
100
AcDbEntity
  8
0
  6
Continuous
370
     0
100
AcDbCircle
 10
2686.752532742528
 20
1438.360006591548
 30
0.0
 40
43.82457841356504
100
AcDbArc
 50
254.7285053728
 51
264.4797425795005
  0
ARC
  5
664F
330
A
100
AcDbEntity
  8
0
  6
Continuous
370
     0
100
AcDbCircle
 10
2975.109210306129
 20
1438.360006591548
 30
0.0
 40
44.967414916727
100
AcDbArc
 50
278.9956256461996
 51
290.0520821460992
  0
LINE
  5
6650
330
A
100
AcDbEntity
  8
0
  6
Continuous
370
     0
100
AcDbLine
 10
2675.209439519502
 20
1396.082936305282
 30
0.0
 11
2674.908424226524
 21
1394.980454982569
 31
0.0
  0
ARC
  5
6651
330
A
100
AcDbEntity
  8
0
  6
Continuous
370
     0
100
AcDbCircle
 10
2686.752532742528
 20
1438.360006591548
 30
0.0
 40
38.31392255244991
100
AcDbArc
 50
254.7285053728
 51
270.0
  0
LINE
  5
6652
330
A
100
AcDbEntity
  8
0
  6
Continuous
370
     0
100
AcDbLine
 10
2641.204669671517
 20
1411.0797748754
 30
0.0
 11
2676.660908458193
 21
1401.399003078538
 31
0.0
  0
LINE
  5
6653
330
A
100
AcDbEntity
  8
0
  6
Continuous
370
     0
100
AcDbLine
 10
2675.209439519502
 20
1396.082936305282
 30
0.0
 11
2676.660908458193
 21
1401.399003078538
 31
0.0
  0
LINE
  5
6654
330
A
100
AcDbEntity
  8
0
  6
Continuous
370
     0
100
AcDbLine
 10
2975.109210306129
 20
1400.046084039098
 30
0.0
 11
2971.739896631111
 21
1400.046084039098
 31
0.0
  0
ARC
  5
6655
330
A
100
AcDbEntity
  8
0
  6
Continuous
370
     0
100
AcDbCircle
 10
2975.109210306129
 20
1438.360006591548
 30
0.0
 40
43.82457841356504
100
AcDbArc
 50
277.7685828910001
 51
290.0520821460992
  0
LINE
  5
6656
330
A
100
AcDbEntity
  8
0
  6
Continuous
370
     0
100
AcDbLine
 10
3028.18418246582
 20
1411.0797748754
 30
0.0
 11
2990.135527006395
 21
1397.192015632388
 31
0.0
  0
LINE
  5
6657
330
A
100
AcDbEntity
  8
0
  6
Continuous
370
     0
100
AcDbLine
 10
2990.135527006395
 20
1397.192015632388
 30
0.0
 11
2990.5273761433
 21
1396.118456352783
 31
0.0
  0
ARC
  5
6658
330
A
100
AcDbEntity
  8
0
  6
Continuous
370
     0
100
AcDbCircle
 10
2975.109210306129
 20
1438.360006591548
 30
0.0
 40
38.31392255244991
100
AcDbArc
 50
270.0
 51
290.0520821460992
  0
LINE
  5
6659
330
A
100
AcDbEntity
  8
0
  6
Continuous
370
     0
100
AcDbLine
 10
2975.109210306129
 20
1400.046084039098
 30
0.0
 11
2975.109210306129
 21
1396.67677036408
 31
0.0
  0
LINE
  5
665A
330
A
100
AcDbEntity
  8
0
  6
Continuous
370
     0
100
AcDbLine
 10
2988.246065357059
 20
1402.368622889931
 30
0.0
 11
2990.135527006395
 21
1397.192015632388
 31
0.0
  0
LINE
  5
665B
330
A
100
AcDbEntity
  8
0
  6
Continuous
370
     0
100
AcDbLine
 10
3012.112235178878
 20
1411.0797748754
 30
0.0
 11
2988.246065357059
 21
1402.368622889931
 31
0.0
  0
ARC
  5
665C
330
A
100
AcDbEntity
  8
0
  6
Continuous
370
     0
100
AcDbCircle
 10
2968.115036807795
 20
1393.392591674821
 30
0.0
 40
4.99637943519189
100
AcDbArc
 50
45.00000000000083
 51
90.0
  0
ELLIPSE
  5
665D
330
A
100
AcDbEntity
  8
0
  6
Continuous
370
     0
100
AcDbEllipse
 10
2968.116801699998
 20
1393.392591674821
 30
0.0
 11
2.422133719526913E-10
 21
4.996379435195553
 31
0.0
210
0.0
220
0.0
230
1.0
 40
0.9998529609000001
 41
5.507997183710756
 42
6.283185307179558
  0
SPLINE
  5
665E
330
A
100
AcDbEntity
  8
0
  6
Continuous
370
     0
100
AcDbSpline
210
0.0
220
0.0
230
1.0
 70
     8
 71
     3
 72
    16
 73
    12
 74
     0
 42
0.000000001
 43
0.0000000001
 40
0.0
 40
0.0
 40
0.0
 40
0.0
 40
0.2499999999999967
 40
0.2499999999999967
 40
0.4999999999999935
 40
0.4999999999999935
 40
0.7499999999999902
 40
0.7499999999999902
 40
0.8749999999999951
 40
0.8749999999999951
 40
1.0
 40
1.0
 40
1.0
 40
1.0
 10
2968.476588705586
 20
1398.388971109567
 30
0.0
 10
2968.698426112041
 20
1398.388971109567
 30
0.0
 10
2968.939710911192
 20
1398.430409650694
 30
0.0
 10
2969.451177854152
 20
1398.583284030038
 30
0.0
 10
2969.723443090537
 20
1398.695974079759
 30
0.0
 10
2970.282088002524
 20
1398.982825041247
 30
0.0
 10
2970.567623373711
 20
1399.156102440331
 30
0.0
 10
2971.002795767258
 20
1399.458130890038
 30
0.0
 10
2971.14901201778
 20
1399.565875047068
 30
0.0
 10
2971.443476333939
 20
1399.795605043695
 30
0.0
 10
2971.593060461903
 20
1399.918776219237
 30
0.0
 10
2971.739896631573
 20
1400.046084038761
 30
0.0
  0
ELLIPSE
  5
665F
330
A
100
AcDbEntity
  8
0
  6
Continuous
370
     0
100
AcDbEllipse
 10
2975.109210306129
 20
1400.53031329611
 30
0.0
 11
-3.532973780004575
 21
-3.532973780006655
 31
0.0
210
0.0
220
0.0
230
1.0
 40
0.6506446949999999
 41
0.0158044102040519
 42
0.9939680270486908
  0
LINE
  5
6660
330
A
100
AcDbEntity
  8
0
  6
Continuous
370
     0
100
AcDbLine
 10
2972.429470002485
 20
1396.144106039388
 30
0.0
 11
2971.648010588533
 21
1396.925565454449
 31
0.0
  0
LINE
  5
6661
330
A
100
AcDbEntity
  8
0
  6
Continuous
370
     0
100
AcDbLine
 10
2687.678607833622
 20
1395.894799347521
 30
0.0
 11
2691.829892525197
 21
1400.046084039098
 31
0.0
  0
LINE
  5
6662
330
A
100
AcDbEntity
  8
0
  6
Continuous
370
     0
100
AcDbLine
 10
2691.921778567776
 20
1396.925565454449
 30
0.0
 11
2691.137648268138
 21
1396.141435153701
 31
0.0
  0
ARC
  5
6663
330
A
100
AcDbEntity
  8
0
  6
Continuous
370
     0
100
AcDbCircle
 10
2686.212684042794
 20
1390.235384622684
 30
0.0
 40
5.81312434882935
100
AcDbArc
 50
84.6714221893002
 51
129.2242845848997
  0
SPLINE
  5
6664
330
A
100
AcDbEntity
  8
0
  6
Continuous
370
     0
100
AcDbSpline
210
0.0
220
0.0
230
1.0
 70
     8
 71
     3
 72
    18
 73
    14
 74
     0
 42
0.000000001
 43
0.0000000001
 40
0.0
 40
0.0
 40
0.0
 40
0.0
 40
0.1249999999999953
 40
0.1249999999999953
 40
0.1874999999999962
 40
0.1874999999999962
 40
0.2499999999999971
 40
0.2499999999999971
 40
0.3749999999999976
 40
0.3749999999999976
 40
0.4999999999999981
 40
0.4999999999999981
 40
0.5002573870015684
 40
0.5002573870015684
 40
0.5002573870015684
 40
0.5002573870015684
 10
2682.536710081857
 20
1394.738675657203
 30
0.0
 10
2682.368388428404
 20
1394.585837329785
 30
0.0
 10
2682.213941476482
 20
1394.446398199835
 30
0.0
 10
2682.005881348413
 20
1394.25926584119
 30
0.0
 10
2681.940483132459
 20
1394.20057817549
 30
0.0
 10
2681.818399103116
 20
1394.091210458919
 30
0.0
 10
2681.761648026359
 20
1394.040473111911
 30
0.0
 10
2681.60957901249
 20
1393.904706334835
 30
0.0
 10
2681.530756741613
 20
1393.834598775011
 30
0.0
 10
2681.4226197546
 20
1393.738506345118
 30
0.0
 10
2681.39407148998
 20
1393.713198213851
 30
0.0
 10
2681.393874236064
 20
1393.713023219221
 30
0.0
 10
2681.393873947008
 20
1393.713022962702
 30
0.0
 10
2681.393873774223
 20
1393.71302280925
 30
0.0
  0
ELLIPSE
  5
6665
330
A
100
AcDbEntity
  8
0
  6
Continuous
370
     0
100
AcDbEllipse
 10
2686.39025301407
 20
1391.910826737529
 30
0.0
 11
4.996379435219117
 21
1.531001689596910E-11
 31
0.0
210
0.0
220
0.0
230
1.0
 40
0.8252804940999999
 41
1.309992082738
 42
1.498224190804469
  0
ARC
  5
6666
330
A
100
AcDbEntity
  8
0
  6
Continuous
370
     0
100
AcDbCircle
 10
2777.200664503619
 20
1409.367546607189
 30
0.0
 40
85.87816004479845
100
AcDbArc
 50
186.2313256315006
 51
188.0429853122006
  0
SPLINE
  5
6667
330
A
100
AcDbEntity
  8
0
  6
Continuous
370
     0
100
AcDbSpline
210
0.0
220
0.0
230
1.0
 70
     8
 71
     3
 72
    18
 73
    14
 74
     0
 42
0.000000001
 43
0.0000000001
 40
0.0
 40
0.0
 40
0.0
 40
0.0
 40
0.2500000000000033
 40
0.2500000000000033
 40
0.3750000000000027
 40
0.3750000000000027
 40
0.5000000000000022
 40
0.5000000000000022
 40
0.6250000000000017
 40
0.6250000000000017
 40
0.750000000000001
 40
0.750000000000001
 40
1.0
 40
1.0
 40
1.0
 40
1.0
 10
2687.678607834015
 20
1395.894799347867
 30
0.0
 10
2688.073196751858
 20
1395.807889860703
 30
0.0
 10
2688.454470997009
 20
1395.745028917079
 30
0.0
 10
2689.004816213623
 20
1395.690951603605
 30
0.0
 10
2689.182454461728
 20
1395.680016909743
 30
0.0
 10
2689.518659596947
 20
1395.672672137824
 30
0.0
 10
2689.678459824057
 20
1395.676132512069
 30
0.0
 10
2689.981412989945
 20
1395.697482650144
 30
0.0
 10
2690.12559364989
 20
1395.715620880692
 30
0.0
 10
2690.389821983809
 20
1395.765717182685
 30
0.0
 10
2690.510271800935
 20
1395.79754656312
 30
0.0
 10
2690.838254152867
 20
1395.912640586055
 30
0.0
 10
2691.013221015094
 20
1396.017007901235
 30
0.0
 10
2691.137648267925
 20
1396.141435154066
 30
0.0
  0
ELLIPSE
  5
6668
330
A
100
AcDbEntity
  8
0
  6
Continuous
370
     0
100
AcDbEllipse
 10
2968.476588705888
 20
1393.392591674821
 30
0.0
 11
1.943036447019069E-13
 21
4.996379435192226
 31
0.0
210
0.0
220
0.0
230
1.0
 40
0.9600576058999999
 41
5.62715376543838
 42
6.283185307179585
  0
ELLIPSE
  5
6669
330
A
100
AcDbEntity
  8
0
  6
Continuous
370
     0
100
AcDbEllipse
 10
2695.09320045042
 20
1393.392591674821
 30
0.0
 11
-3.608496258749698E-13
 21
4.996379435192449
 31
0.0
210
0.0
220
0.0
230
1.0
 40
0.9600576059
 41
0.0000000000000564
 42
0.6560315417411283
  0
ARC
  5
666A
330
A
100
AcDbEntity
  8
0
  6
Continuous
370
     0
100
AcDbCircle
 10
2695.454752348514
 20
1393.392591674821
 30
0.0
 40
4.99637943519189
100
AcDbArc
 50
90.0
 51
134.9999999999992
  0
LINE
  5
666B
330
A
100
AcDbEntity
  8
0
  6
Continuous
370
     0
100
AcDbLine
 10
2971.739896631111
 20
1400.046084039098
 30
0.0
 11
2975.109210306129
 21
1396.67677036408
 31
0.0
  0
LINE
  5
666C
330
A
100
AcDbEntity
  8
0
  6
Continuous
370
     0
100
AcDbLine
 10
2975.109210306129
 20
1396.67677036408
 30
0.0
 11
2975.947617470262
 21
1395.915218518799
 31
0.0
  0
ARC
  5
666D
330
A
100
AcDbEntity
  8
0
  6
Continuous
370
     0
100
AcDbCircle
 10
2977.486664897392
 20
1390.205141460242
 30
0.0
 40
5.913852128795558
100
AcDbArc
 50
53.15307373300079
 51
105.0845697562006
  0
SPLINE
  5
666E
330
A
100
AcDbEntity
  8
0
  6
Continuous
370
     0
100
AcDbSpline
210
0.0
220
0.0
230
1.0
 70
     8
 71
     3
 72
    18
 73
    14
 74
     0
 42
0.000000001
 43
0.0000000001
 40
0.0
 40
0.0
 40
0.0
 40
0.0
 40
0.1250000000000039
 40
0.1250000000000039
 40
0.1875000000000058
 40
0.1875000000000058
 40
0.2500000000000077
 40
0.2500000000000077
 40
0.3750000000000064
 40
0.3750000000000064
 40
0.5000000000000051
 40
0.5000000000000051
 40
0.5002552833039293
 40
0.5002552833039293
 40
0.5002552833039293
 40
0.5002552833039293
 10
2981.033079074624
 20
1394.937645393558
 30
0.0
 10
2981.202372531628
 20
1394.789879542466
 30
0.0
 10
2981.35735359143
 20
1394.655357499007
 30
0.0
 10
2981.565717313767
 20
1394.475159611925
 30
0.0
 10
2981.631133702914
 20
1394.418709357232
 30
0.0
 10
2981.75311878645
 20
1394.313619167617
 30
0.0
 10
2981.809782026633
 20
1394.264898882124
 30
0.0
 10
2981.961499540935
 20
1394.134622657437
 30
0.0
 10
2982.03992270033
 20
1394.06752713032
 30
0.0
 10
2982.147370863532
 20
1393.975679852321
 30
0.0
 10
2982.17570622796
 20
1393.95151402554
 30
0.0
 10
2982.175914806025
 20
1393.95133601398
 30
0.0
 10
2982.175915118208
 20
1393.951335747472
 30
0.0
 10
2982.175915317467
 20
1393.951335577263
 30
0.0
  0
LINE
  5
666F
330
A
100
AcDbEntity
  8
0
  6
Continuous
370
     0
100
AcDbLine
 10
2615.943979820346
 20
1411.0797748754
 30
0.0
 11
2674.908424226524
 21
1394.980454982569
 31
0.0
  0
LINE
  5
6670
330
A
100
AcDbEntity
  8
0
  6
Continuous
370
     0
100
AcDbLine
 10
2990.5273761433
 20
1396.118456352783
 30
0.0
 11
3031.517289902798
 21
1411.0797748754
 31
0.0
  0
LINE
  5
6671
330
A
100
AcDbEntity
  8
0
  6
Continuous
370
     0
100
AcDbLine
 10
3064.781702001906
 20
1798.689809653049
 30
0.0
 11
3084.439122602002
 21
1810.54169100212
 31
0.0
  0
LINE
  5
6672
330
A
100
AcDbEntity
  8
0
  6
Continuous
370
     0
100
AcDbLine
 10
3156.446540861186
 20
1808.591722739267
 30
0.0
 11
3144.655085394133
 21
1808.591722739267
 31
0.0
  0
LINE
  5
6673
330
A
100
AcDbEntity
  8
0
  6
Continuous
370
     0
100
AcDbLine
 10
2459.234834568644
 20
1808.591722739267
 30
0.0
 11
2400.194549550542
 21
1808.591722739267
 31
0.0
  0
LINE
  5
6674
330
A
100
AcDbEntity
  8
0
  6
Continuous
370
     0
100
AcDbLine
 10
2478.892255167631
 20
1796.739841389086
 30
0.0
 11
2459.234834568644
 21
1808.591722739267
 31
0.0
  0
LINE
  5
6675
330
A
100
AcDbEntity
  8
0
  6
Continuous
370
     0
100
AcDbLine
 10
3156.446540861186
 20
1796.739841389086
 30
0.0
 11
3156.446540861186
 21
1795.358671219257
 31
0.0
  0
LINE
  5
6676
330
A
100
AcDbEntity
  8
0
  6
Continuous
370
     0
100
AcDbLine
 10
3156.446540861186
 20
1808.591722739267
 30
0.0
 11
3156.446540861186
 21
1796.739841389086
 31
0.0
  0
LINE
  5
6677
330
A
100
AcDbEntity
  8
0
  6
Continuous
370
     0
100
AcDbLine
 10
3144.655085394133
 20
1811.589550400382
 30
0.0
 11
3153.448713200071
 21
1811.589550400382
 31
0.0
  0
LINE
  5
6678
330
A
100
AcDbEntity
  8
0
  6
Continuous
370
     0
100
AcDbLine
 10
3140.215661680061
 20
1811.589550400382
 30
0.0
 11
3141.59683184989
 21
1811.589550400382
 31
0.0
  0
LINE
  5
6679
330
A
100
AcDbEntity
  8
0
  6
Continuous
370
     0
100
AcDbLine
 10
3085.614800376031
 20
1811.589550400382
 30
0.0
 11
3144.655085394133
 21
1811.589550400382
 31
0.0
  0
LINE
  5
667A
330
A
100
AcDbEntity
  8
0
  6
Continuous
370
     0
100
AcDbLine
 10
3065.957379775934
 20
1811.589550400382
 30
0.0
 11
3085.614800376031
 21
1811.589550400382
 31
0.0
  0
LINE
  5
667B
330
A
100
AcDbEntity
  8
0
  6
Continuous
370
     0
100
AcDbLine
 10
3061.176290161404
 20
1811.589550400382
 30
0.0
 11
3065.957379775934
 21
1811.589550400382
 31
0.0
  0
LINE
  5
667C
330
A
100
AcDbEntity
  8
0
  6
Continuous
370
     0
100
AcDbLine
 10
2483.673344782161
 20
1811.589550400382
 30
0.0
 11
3061.176290161404
 21
1811.589550400382
 31
0.0
  0
LINE
  5
667D
330
A
100
AcDbEntity
  8
0
  6
Continuous
370
     0
100
AcDbLine
 10
3141.59683184989
 20
1811.589550400382
 30
0.0
 11
3153.448713200071
 21
1811.589550400382
 31
0.0
  0
LINE
  5
667E
330
A
100
AcDbEntity
  8
0
  6
Continuous
370
     0
100
AcDbLine
 10
2400.194549550542
 20
1811.589550400382
 30
0.0
 11
2459.234834568644
 21
1811.589550400382
 31
0.0
  0
LINE
  5
667F
330
A
100
AcDbEntity
  8
0
  6
Continuous
370
     0
100
AcDbLine
 10
2391.400921744604
 20
1811.589550400382
 30
0.0
 11
2400.194549550542
 21
1811.589550400382
 31
0.0
  0
LINE
  5
6680
330
A
100
AcDbEntity
  8
0
  6
Continuous
370
     0
100
AcDbLine
 10
2459.234834568644
 20
1811.589550400382
 30
0.0
 11
2478.892255167631
 21
1811.589550400382
 31
0.0
  0
LINE
  5
6681
330
A
100
AcDbEntity
  8
0
  6
Continuous
370
     0
100
AcDbLine
 10
2478.892255167631
 20
1811.589550400382
 30
0.0
 11
2483.673344782161
 21
1811.589550400382
 31
0.0
  0
LINE
  5
6682
330
A
100
AcDbEntity
  8
0
  6
Continuous
370
     0
100
AcDbLine
 10
2403.252803093675
 20
1811.589550400382
 30
0.0
 11
2404.633973263503
 21
1811.589550400382
 31
0.0
  0
LINE
  5
6683
330
A
100
AcDbEntity
  8
0
  6
Continuous
370
     0
100
AcDbLine
 10
2391.400921744604
 20
1811.589550400382
 30
0.0
 11
2403.252803093675
 21
1811.589550400382
 31
0.0
  0
LINE
  5
6684
330
A
100
AcDbEntity
  8
0
  6
Continuous
370
     0
100
AcDbLine
 10
3061.176290161404
 20
1797.478455487034
 30
0.0
 11
3061.176290161404
 21
1810.711507007044
 31
0.0
  0
LINE
  5
6685
330
A
100
AcDbEntity
  8
0
  6
Continuous
370
     0
100
AcDbLine
 10
2483.673344782161
 20
1810.711507007044
 30
0.0
 11
2483.673344782161
 21
1797.478455487034
 31
0.0
  0
LINE
  5
6686
330
A
100
AcDbEntity
  8
0
  6
Continuous
370
     0
100
AcDbLine
 10
2480.067932941659
 20
1798.689809653049
 30
0.0
 11
2480.067932941659
 21
1810.54169100212
 31
0.0
  0
LINE
  5
6687
330
A
100
AcDbEntity
  8
0
  6
Continuous
370
     0
100
AcDbLine
 10
3064.781702001906
 20
1810.54169100212
 30
0.0
 11
3064.781702001906
 21
1798.689809653049
 31
0.0
  0
LINE
  5
6688
330
A
100
AcDbEntity
  8
0
  6
Continuous
370
     0
100
AcDbLine
 10
3061.176290161404
 20
1797.478455487034
 30
0.0
 11
3061.176290161404
 21
1795.358671219257
 31
0.0
  0
LINE
  5
6689
330
A
100
AcDbEntity
  8
0
  6
Continuous
370
     0
100
AcDbLine
 10
3061.176290161404
 20
1811.589550400382
 30
0.0
 11
3061.176290161404
 21
1810.711507007044
 31
0.0
  0
LINE
  5
668A
330
A
100
AcDbEntity
  8
0
  6
Continuous
370
     0
100
AcDbLine
 10
2480.067932941659
 20
1798.689809653049
 30
0.0
 11
2478.892255167631
 21
1796.739841389086
 31
0.0
  0
ELLIPSE
  5
668B
330
A
100
AcDbEntity
  8
0
  6
Continuous
370
     0
100
AcDbEllipse
 10
2478.892255167631
 20
1808.591722739267
 30
0.0
 11
0.0
 21
2.997827661114804
 31
0.0
210
0.0
220
0.0
230
1.0
 40
0.5163342243
 41
5.420579452979459
 42
6.283185307179585
  0
LINE
  5
668C
330
A
100
AcDbEntity
  8
0
  6
Continuous
370
     0
100
AcDbLine
 10
2483.673344782161
 20
1797.478455487034
 30
0.0
 11
2483.673344782161
 21
1795.358671219257
 31
0.0
  0
LINE
  5
668D
330
A
100
AcDbEntity
  8
0
  6
Continuous
370
     0
100
AcDbLine
 10
2483.673344782161
 20
1811.589550400382
 30
0.0
 11
2483.673344782161
 21
1810.711507007044
 31
0.0
  0
LINE
  5
668E
330
A
100
AcDbEntity
  8
0
  6
Continuous
370
     0
100
AcDbLine
 10
2460.410512342673
 20
1810.54169100212
 30
0.0
 11
2459.234834568644
 21
1808.591722739267
 31
0.0
  0
ELLIPSE
  5
668F
330
A
100
AcDbEntity
  8
0
  6
Continuous
370
     0
100
AcDbEllipse
 10
2459.234834568644
 20
1808.591722739267
 30
0.0
 11
-7.205889452087858E-13
 21
2.997827661115025
 31
0.0
210
0.0
220
0.0
230
1.0
 40
0.5163342243
 41
5.420579452979272
 42
6.283185307179585
  0
LINE
  5
6690
330
A
100
AcDbEntity
  8
0
  6
Continuous
370
     0
100
AcDbLine
 10
2459.234834568644
 20
1811.589550400382
 30
0.0
 11
2459.234834568644
 21
1808.591722739267
 31
0.0
  0
LINE
  5
6691
330
A
100
AcDbEntity
  8
0
  6
Continuous
370
     0
100
AcDbLine
 10
2400.194549550542
 20
1811.589550400382
 30
0.0
 11
2400.194549550542
 21
1808.591722739267
 31
0.0
  0
ARC
  5
6692
330
A
100
AcDbEntity
  8
0
  6
Continuous
370
     0
100
AcDbCircle
 10
2391.400921744604
 20
1808.591722739267
 30
0.0
 40
2.997827661115134
100
AcDbArc
 50
90.0
 51
180.0
  0
ELLIPSE
  5
6693
330
A
100
AcDbEntity
  8
0
  6
Continuous
370
     0
100
AcDbEllipse
 10
3049.723876125487
 20
1804.09480280912
 30
0.0
 11
3.497465604634326
 21
0.0
 31
0.0
210
0.0
220
0.0
230
1.0
 40
0.7071067812
 41
0.0
 42
6.283185307179585
  0
ELLIPSE
  5
6694
330
A
100
AcDbEntity
  8
0
  6
Continuous
370
     0
100
AcDbEllipse
 10
2495.125758819187
 20
1804.09480280912
 30
0.0
 11
3.497465604634326
 21
0.0
 31
0.0
210
0.0
220
0.0
230
1.0
 40
0.7071067812
 41
0.0
 42
6.283185307179585
  0
ELLIPSE
  5
6695
330
A
100
AcDbEntity
  8
0
  6
Continuous
370
     0
100
AcDbEllipse
 10
2772.424817472337
 20
1804.09480280912
 30
0.0
 11
3.497465604634321
 21
0.0
 31
0.0
210
0.0
220
0.0
230
1.0
 40
0.7071067812
 41
0.0
 42
6.283185307179585
  0
ELLIPSE
  5
6696
330
A
100
AcDbEntity
  8
0
  6
Continuous
370
     0
100
AcDbEllipse
 10
2772.424817472337
 20
1803.529527004823
 30
0.0
 11
3.497465604634321
 21
0.0
 31
0.0
210
0.0
220
0.0
230
1.0
 40
0.7071067812
 41
0.1145359733800471
 42
3.027056680211325
  0
ELLIPSE
  5
6697
330
A
100
AcDbEntity
  8
0
  6
Continuous
370
     0
100
AcDbEllipse
 10
2495.125758819187
 20
1803.529527004823
 30
0.0
 11
-3.497465604634326
 21
0.0
 31
0.0
210
0.0
220
0.0
230
1.0
 40
0.7071067812
 41
3.256128627061432
 42
6.168649333707948
  0
ELLIPSE
  5
6698
330
A
100
AcDbEntity
  8
0
  6
Continuous
370
     0
100
AcDbEllipse
 10
3049.723876125487
 20
1803.529527004823
 30
0.0
 11
-3.497465604634326
 21
0.0
 31
0.0
210
0.0
220
0.0
230
1.0
 40
0.7071067812
 41
3.256128627059852
 42
6.16864933370479
  0
LINE
  5
6699
330
A
100
AcDbEntity
  8
0
  6
Continuous
370
     0
100
AcDbLine
 10
2400.194549550542
 20
1788.806060175907
 30
0.0
 11
3144.655085394133
 21
1788.806060175907
 31
0.0
  0
LINE
  5
669A
330
A
100
AcDbEntity
  8
0
  6
Continuous
370
     0
100
AcDbLine
 10
3144.655085394133
 20
1788.806060175907
 30
0.0
 11
3156.446540861186
 21
1788.806060175907
 31
0.0
  0
LINE
  5
669B
330
A
100
AcDbEntity
  8
0
  6
Continuous
370
     0
100
AcDbLine
 10
2388.403094083489
 20
1788.806060175907
 30
0.0
 11
2400.194549550542
 21
1788.806060175907
 31
0.0
  0
LINE
  5
669C
330
A
100
AcDbEntity
  8
0
  6
Continuous
370
     0
100
AcDbLine
 10
3156.446540861186
 20
1808.591722739267
 30
0.0
 11
3156.446540861186
 21
1788.806060175907
 31
0.0
  0
LINE
  5
669D
330
A
100
AcDbEntity
  8
0
  6
Continuous
370
     0
100
AcDbLine
 10
2400.194549550542
 20
1808.591722739267
 30
0.0
 11
2400.194549550542
 21
1788.806060175907
 31
0.0
  0
LINE
  5
669E
330
A
100
AcDbEntity
  8
0
  6
Continuous
370
     0
100
AcDbLine
 10
2388.403094083489
 20
1788.806060175907
 30
0.0
 11
2388.403094083489
 21
1808.591722739267
 31
0.0
  0
LINE
  5
669F
330
A
100
AcDbEntity
  8
0
  6
Continuous
370
     0
100
AcDbLine
 10
3144.655085394133
 20
1788.806060175907
 30
0.0
 11
3144.655085394133
 21
1808.591722739267
 31
0.0
  0
LINE
  5
66A0
330
A
100
AcDbEntity
  8
0
  6
Continuous
370
     0
100
AcDbLine
 10
2388.403094083489
 20
1795.358671219257
 30
0.0
 11
2388.403094083489
 21
1796.739841389086
 31
0.0
  0
LINE
  5
66A1
330
A
100
AcDbEntity
  8
0
  6
Continuous
370
     0
100
AcDbLine
 10
2388.403094083489
 20
1796.739841389086
 30
0.0
 11
2388.403094083489
 21
1808.591722739267
 31
0.0
  0
LINE
  5
66A2
330
A
100
AcDbEntity
  8
0
  6
Continuous
370
     0
100
AcDbLine
 10
2400.194549550542
 20
1808.591722739267
 30
0.0
 11
2388.403094083489
 21
1808.591722739267
 31
0.0
  0
LINE
  5
66A3
330
A
100
AcDbEntity
  8
0
  6
Continuous
370
     0
100
AcDbLine
 10
2460.410512342673
 20
1810.54169100212
 30
0.0
 11
2480.067932941659
 21
1798.689809653049
 31
0.0
  0
LINE
  5
66A4
330
A
100
AcDbEntity
  8
0
  6
Continuous
370
     0
100
AcDbLine
 10
2480.067932941659
 20
1810.54169100212
 30
0.0
 11
2460.410512342673
 21
1810.54169100212
 31
0.0
  0
ELLIPSE
  5
66A5
330
A
100
AcDbEntity
  8
0
  6
Continuous
370
     0
100
AcDbEllipse
 10
2483.673344782161
 20
1812.599583265842
 30
0.0
 11
-6.106685976345643E-13
 21
15.12112777842052
 31
0.0
210
0.0
220
0.0
230
1.0
 40
0.6079796623
 41
2.738596129304379
 42
3.141592653589793
  0
ELLIPSE
  5
66A6
330
A
100
AcDbEntity
  8
0
  6
Continuous
370
     0
100
AcDbEllipse
 10
2483.673344782161
 20
1808.591722739267
 30
0.0
 11
9.193338160752619
 21
2.220613082307507E-13
 31
0.0
210
0.0
220
0.0
230
1.0
 40
0.2305782982
 41
1.570796326794822
 42
1.973792851080288
  0
ELLIPSE
  5
66A7
330
A
100
AcDbEntity
  8
0
  6
Continuous
370
     0
100
AcDbEllipse
 10
3061.176290161404
 20
1812.599583265842
 30
0.0
 11
-5.551532705768766E-14
 21
-15.12112777842318
 31
0.0
210
0.0
220
0.0
230
1.0
 40
0.6079796623
 41
0.000000000000006
 42
0.4029965242853799
  0
LINE
  5
66A8
330
A
100
AcDbEntity
  8
0
  6
Continuous
370
     0
100
AcDbLine
 10
2483.673344782161
 20
1797.478455487034
 30
0.0
 11
3061.176290161404
 21
1797.478455487034
 31
0.0
  0
ELLIPSE
  5
66A9
330
A
100
AcDbEntity
  8
0
  6
Continuous
370
     0
100
AcDbEllipse
 10
3061.176290161404
 20
1808.591722739267
 30
0.0
 11
9.193338160752951
 21
-2.220613082307507E-13
 31
0.0
210
0.0
220
0.0
230
1.0
 40
0.2305782982
 41
1.167799802509521
 42
1.570796326794971
  0
LINE
  5
66AA
330
A
100
AcDbEntity
  8
0
  6
Continuous
370
     0
100
AcDbLine
 10
3061.176290161404
 20
1810.711507007044
 30
0.0
 11
2483.673344782161
 21
1810.711507007044
 31
0.0
  0
LINE
  5
66AB
330
A
100
AcDbEntity
  8
0
  6
Continuous
370
     0
100
AcDbLine
 10
3084.439122602002
 20
1810.54169100212
 30
0.0
 11
3064.781702001906
 21
1810.54169100212
 31
0.0
  0
LINE
  5
66AC
330
A
100
AcDbEntity
  8
0
  6
Continuous
370
     0
100
AcDbLine
 10
3144.655085394133
 20
1808.591722739267
 30
0.0
 11
3085.614800376031
 21
1808.591722739267
 31
0.0
  0
ELLIPSE
  5
66AD
330
A
100
AcDbEntity
  8
0
  6
Continuous
370
     0
100
AcDbEllipse
 10
3061.176290161404
 20
1812.599583265842
 30
0.0
 11
1.110306541153753E-15
 21
17.24091204642535
 31
0.0
210
0.0
220
0.0
230
1.0
 40
0.7071067812000001
 41
3.141592653589793
 42
3.544589177875331
  0
ELLIPSE
  5
66AE
330
A
100
AcDbEntity
  8
0
  6
Continuous
370
     0
100
AcDbEllipse
 10
2483.673344782161
 20
1812.599583265842
 30
0.0
 11
-1.110306541153753E-15
 21
17.24091204642535
 31
0.0
210
0.0
220
0.0
230
1.0
 40
0.7071067812000001
 41
2.738596129304256
 42
3.141592653589793
  0
LINE
  5
66AF
330
A
100
AcDbEntity
  8
0
  6
Continuous
370
     0
100
AcDbLine
 10
3061.176290161404
 20
1795.358671219257
 30
0.0
 11
2483.673344782161
 21
1795.358671219257
 31
0.0
  0
LINE
  5
66B0
330
A
100
AcDbEntity
  8
0
  6
Continuous
370
     0
100
AcDbLine
 10
3085.614800376031
 20
1808.591722739267
 30
0.0
 11
3065.957379775934
 21
1796.739841389086
 31
0.0
  0
LINE
  5
66B1
330
A
100
AcDbEntity
  8
0
  6
Continuous
370
     0
100
AcDbLine
 10
3085.614800376031
 20
1811.589550400382
 30
0.0
 11
3085.614800376031
 21
1808.591722739267
 31
0.0
  0
LINE
  5
66B2
330
A
100
AcDbEntity
  8
0
  6
Continuous
370
     0
100
AcDbLine
 10
3084.439122602002
 20
1810.54169100212
 30
0.0
 11
3085.614800376031
 21
1808.591722739267
 31
0.0
  0
ELLIPSE
  5
66B3
330
A
100
AcDbEntity
  8
0
  6
Continuous
370
     0
100
AcDbEllipse
 10
3085.614800376031
 20
1808.591722739267
 30
0.0
 11
0.0
 21
2.997827661115025
 31
0.0
210
0.0
220
0.0
230
1.0
 40
0.5163342243
 41
0.0
 42
0.8626058542001902
  0
ARC
  5
66B4
330
A
100
AcDbEntity
  8
0
  6
Continuous
370
     0
100
AcDbCircle
 10
3153.448713200071
 20
1808.591722739267
 30
0.0
 40
2.997827661115134
100
AcDbArc
 50
0.0
 51
90.0
  0
LINE
  5
66B5
330
A
100
AcDbEntity
  8
0
  6
Continuous
370
     0
100
AcDbLine
 10
3144.655085394133
 20
1811.589550400382
 30
0.0
 11
3144.655085394133
 21
1808.591722739267
 31
0.0
  0
LINE
  5
66B6
330
A
100
AcDbEntity
  8
0
  6
Continuous
370
     0
100
AcDbLine
 10
3064.781702001906
 20
1798.689809653049
 30
0.0
 11
3065.957379775934
 21
1796.739841389086
 31
0.0
  0
ELLIPSE
  5
66B7
330
A
100
AcDbEntity
  8
0
  6
Continuous
370
     0
100
AcDbEllipse
 10
3065.957379775934
 20
1808.591722739267
 30
0.0
 11
0.0
 21
2.997827661115025
 31
0.0
210
0.0
220
0.0
230
1.0
 40
0.5163342243
 41
0.0
 42
0.8626058542001902
  0
LINE
  5
66B8
330
A
100
AcDbEntity
  8
0
  6
Continuous
370
     0
100
AcDbLine
 10
3062.85958477381
 20
224.7394417834378
 30
0.0
 11
3062.85958477381
 21
252.9190217979201
 31
0.0
  0
LINE
  5
66B9
330
A
100
AcDbEntity
  8
0
  6
Continuous
370
     0
100
AcDbLine
 10
3076.991479894544
 20
252.9190217979201
 30
0.0
 11
3076.991479894544
 21
224.7394417834378
 31
0.0
  0
LINE
  5
66BA
330
A
100
AcDbEntity
  8
0
  6
Continuous
370
     0
100
AcDbLine
 10
2467.864333881606
 20
224.7394417834378
 30
0.0
 11
2467.864333881606
 21
252.9190217979201
 31
0.0
  0
LINE
  5
66BB
330
A
100
AcDbEntity
  8
0
  6
Continuous
370
     0
100
AcDbLine
 10
2506.604803573037
 20
252.9190217979201
 30
0.0
 11
2506.604803573037
 21
224.7394417834378
 31
0.0
  0
LINE
  5
66BC
330
A
100
AcDbEntity
  8
0
  6
Continuous
370
     0
100
AcDbLine
 10
3038.251010203112
 20
224.7394417834378
 30
0.0
 11
3038.251010203112
 21
252.9190217979201
 31
0.0
  0
LINE
  5
66BD
330
A
100
AcDbEntity
  8
0
  6
Continuous
370
     0
100
AcDbLine
 10
2492.472908452304
 20
224.7394417834378
 30
0.0
 11
2492.472908452304
 21
252.9190217979201
 31
0.0
  0
LINE
  5
66BE
330
A
100
AcDbEntity
  8
0
  6
Continuous
370
     0
100
AcDbLine
 10
3052.382905323846
 20
252.9190217979201
 30
0.0
 11
3052.382905323846
 21
224.7394417834378
 31
0.0
  0
LINE
  5
66BF
330
A
100
AcDbEntity
  8
0
  6
Continuous
370
     0
100
AcDbLine
 10
2481.99622900234
 20
252.9190217979201
 30
0.0
 11
2481.99622900234
 21
224.7394417834378
 31
0.0
  0
LINE
  5
66C0
330
A
100
AcDbEntity
  8
0
  6
Continuous
370
     0
100
AcDbLine
 10
3038.251010203112
 20
224.7394417834378
 30
0.0
 11
2506.604803573037
 21
224.7394417834378
 31
0.0
  0
LINE
  5
66C1
330
A
100
AcDbEntity
  8
0
  6
Continuous
370
     0
100
AcDbLine
 10
2506.604803573037
 20
224.7394417834378
 30
0.0
 11
2492.472908452304
 21
224.7394417834378
 31
0.0
  0
LINE
  5
66C2
330
A
100
AcDbEntity
  8
0
  6
Continuous
370
     0
100
AcDbLine
 10
3052.382905323846
 20
224.7394417834378
 30
0.0
 11
3038.251010203112
 21
224.7394417834378
 31
0.0
  0
LINE
  5
66C3
330
A
100
AcDbEntity
  8
0
  6
Continuous
370
     0
100
AcDbLine
 10
2492.472908452304
 20
224.7394417834378
 30
0.0
 11
2481.99622900234
 21
224.7394417834378
 31
0.0
  0
LINE
  5
66C4
330
A
100
AcDbEntity
  8
0
  6
Continuous
370
     0
100
AcDbLine
 10
3062.85958477381
 20
224.7394417834378
 30
0.0
 11
3052.382905323846
 21
224.7394417834378
 31
0.0
  0
LINE
  5
66C5
330
A
100
AcDbEntity
  8
0
  6
Continuous
370
     0
100
AcDbLine
 10
2481.99622900234
 20
224.7394417834378
 30
0.0
 11
2467.864333881606
 21
224.7394417834378
 31
0.0
  0
LINE
  5
66C6
330
A
100
AcDbEntity
  8
0
  6
Continuous
370
     0
100
AcDbLine
 10
2467.864333881606
 20
224.7394417834378
 30
0.0
 11
2460.154192188581
 21
224.7394417834378
 31
0.0
  0
LINE
  5
66C7
330
A
100
AcDbEntity
  8
0
  6
Continuous
370
     0
100
AcDbLine
 10
3076.991479894544
 20
224.7394417834378
 30
0.0
 11
3062.85958477381
 21
224.7394417834378
 31
0.0
  0
LINE
  5
66C8
330
A
100
AcDbEntity
  8
0
  6
Continuous
370
     0
100
AcDbLine
 10
3084.701621587567
 20
224.7394417834378
 30
0.0
 11
3076.991479894544
 21
224.7394417834378
 31
0.0
  0
LINE
  5
66C9
330
A
100
AcDbEntity
  8
0
  6
Continuous
370
     0
100
AcDbLine
 10
3010.585180238208
 20
224.7394417834378
 30
0.0
 11
3010.457822092275
 21
214.746682913054
 31
0.0
  0
LINE
  5
66CA
330
A
100
AcDbEntity
  8
0
  6
Continuous
370
     0
100
AcDbLine
 10
3017.642115891165
 20
214.746682913054
 30
0.0
 11
3019.386931420974
 21
224.7394417834378
 31
0.0
  0
LINE
  5
66CB
330
A
100
AcDbEntity
  8
0
  6
Continuous
370
     0
100
AcDbLine
 10
2824.574192572314
 20
214.746682913054
 30
0.0
 11
2821.958305611463
 21
224.7394417834378
 31
0.0
  0
LINE
  5
66CC
330
A
100
AcDbEntity
  8
0
  6
Continuous
370
     0
100
AcDbLine
 10
2836.758920893481
 20
214.746682913054
 30
0.0
 11
2836.886279038304
 21
224.7394417834378
 31
0.0
  0
LINE
  5
66CD
330
A
100
AcDbEntity
  8
0
  6
Continuous
370
     0
100
AcDbLine
 10
2886.793521256696
 20
224.7394417834378
 30
0.0
 11
2886.666163111874
 21
214.746682913054
 31
0.0
  0
LINE
  5
66CE
330
A
100
AcDbEntity
  8
0
  6
Continuous
370
     0
100
AcDbLine
 10
2900.566415611801
 20
224.7394417834378
 30
0.0
 11
2897.90807593601
 21
214.746682913054
 31
0.0
  0
LINE
  5
66CF
330
A
100
AcDbEntity
  8
0
  6
Continuous
370
     0
100
AcDbLine
 10
2960.396875013105
 20
224.7394417834378
 30
0.0
 11
2963.012761975066
 21
214.746682913054
 31
0.0
  0
LINE
  5
66D0
330
A
100
AcDbEntity
  8
0
  6
Continuous
370
     0
100
AcDbLine
 10
2975.197490296233
 20
214.746682913054
 30
0.0
 11
2975.324848441055
 21
224.7394417834378
 31
0.0
  0
LINE
  5
66D1
330
A
100
AcDbEntity
  8
0
  6
Continuous
370
     0
100
AcDbLine
 10
2915.003418111343
 20
214.746682913054
 30
0.0
 11
2915.130776256166
 21
224.7394417834378
 31
0.0
  0
LINE
  5
66D2
330
A
100
AcDbEntity
  8
0
  6
Continuous
370
     0
100
AcDbLine
 10
2944.611058097537
 20
224.7394417834378
 30
0.0
 11
2944.483699952714
 21
214.746682913054
 31
0.0
  0
LINE
  5
66D3
330
A
100
AcDbEntity
  8
0
  6
Continuous
370
     0
100
AcDbLine
 10
2691.780653184767
 20
224.7394417834378
 30
0.0
 11
2694.396540146728
 21
214.746682913054
 31
0.0
  0
LINE
  5
66D4
330
A
100
AcDbEntity
  8
0
  6
Continuous
370
     0
100
AcDbLine
 10
2706.581268467897
 20
214.746682913054
 30
0.0
 11
2706.708626612719
 21
224.7394417834378
 31
0.0
  0
LINE
  5
66D5
330
A
100
AcDbEntity
  8
0
  6
Continuous
370
     0
100
AcDbLine
 10
2757.453514149528
 20
224.7394417834378
 30
0.0
 11
2757.326156003595
 21
214.746682913054
 31
0.0
  0
LINE
  5
66D6
330
A
100
AcDbEntity
  8
0
  6
Continuous
370
     0
100
AcDbLine
 10
2768.568068828842
 20
214.746682913054
 30
0.0
 11
2771.226408504633
 21
224.7394417834378
 31
0.0
  0
LINE
  5
66D7
330
A
100
AcDbEntity
  8
0
  6
Continuous
370
     0
100
AcDbLine
 10
2604.277144420008
 20
214.746682913054
 30
0.0
 11
2604.40450256483
 21
224.7394417834378
 31
0.0
  0
LINE
  5
66D8
330
A
100
AcDbEntity
  8
0
  6
Continuous
370
     0
100
AcDbLine
 10
2675.994836269199
 20
224.7394417834378
 30
0.0
 11
2675.867478124377
 21
214.746682913054
 31
0.0
  0
LINE
  5
66D9
330
A
100
AcDbEntity
  8
0
  6
Continuous
370
     0
100
AcDbLine
 10
2785.663411004174
 20
214.746682913054
 30
0.0
 11
2785.790769148997
 21
224.7394417834378
 31
0.0
  0
LINE
  5
66DA
330
A
100
AcDbEntity
  8
0
  6
Continuous
370
     0
100
AcDbLine
 10
2806.172488694785
 20
224.7394417834378
 30
0.0
 11
2806.045130549963
 21
214.746682913054
 31
0.0
  0
LINE
  5
66DB
330
A
100
AcDbEntity
  8
0
  6
Continuous
370
     0
100
AcDbLine
 10
2537.038586165168
 20
224.7394417834378
 30
0.0
 11
2538.639418860365
 21
214.746682913054
 31
0.0
  0
LINE
  5
66DC
330
A
100
AcDbEntity
  8
0
  6
Continuous
370
     0
100
AcDbLine
 10
2546.315559729445
 20
214.746682913054
 30
0.0
 11
2546.442917874268
 21
224.7394417834378
 31
0.0
  0
LINE
  5
66DD
330
A
100
AcDbEntity
  8
0
  6
Continuous
370
     0
100
AcDbLine
 10
2576.067247565362
 20
224.7394417834378
 30
0.0
 11
2575.93988942054
 21
214.746682913054
 31
0.0
  0
LINE
  5
66DE
330
A
100
AcDbEntity
  8
0
  6
Continuous
370
     0
100
AcDbLine
 10
2589.840141921576
 20
224.7394417834378
 30
0.0
 11
2587.181802244676
 21
214.746682913054
 31
0.0
  0
LINE
  5
66DF
330
A
100
AcDbEntity
  8
0
  6
Continuous
370
     0
100
AcDbLine
 10
2471.067872414649
 20
214.746682913054
 30
0.0
 11
2469.467039719453
 21
224.7394417834378
 31
0.0
  0
LINE
  5
66E0
330
A
100
AcDbEntity
  8
0
  6
Continuous
370
     0
100
AcDbLine
 10
3010.457822092275
 20
214.746682913054
 30
0.0
 11
2975.197490296233
 21
214.746682913054
 31
0.0
  0
LINE
  5
66E1
330
A
100
AcDbEntity
  8
0
  6
Continuous
370
     0
100
AcDbLine
 10
3010.457822092275
 20
214.746682913054
 30
0.0
 11
3017.642115891165
 21
214.746682913054
 31
0.0
  0
LINE
  5
66E2
330
A
100
AcDbEntity
  8
0
  6
Continuous
370
     0
100
AcDbLine
 10
3078.705966265337
 20
214.746682913054
 30
0.0
 11
3017.642115891165
 21
214.746682913054
 31
0.0
  0
LINE
  5
66E3
330
A
100
AcDbEntity
  8
0
  6
Continuous
370
     0
100
AcDbLine
 10
2824.574192572314
 20
214.746682913054
 30
0.0
 11
2836.758920893481
 21
214.746682913054
 31
0.0
  0
LINE
  5
66E4
330
A
100
AcDbEntity
  8
0
  6
Continuous
370
     0
100
AcDbLine
 10
2886.666163111874
 20
214.746682913054
 30
0.0
 11
2836.758920893481
 21
214.746682913054
 31
0.0
  0
LINE
  5
66E5
330
A
100
AcDbEntity
  8
0
  6
Continuous
370
     0
100
AcDbLine
 10
2886.666163111874
 20
214.746682913054
 30
0.0
 11
2897.90807593601
 21
214.746682913054
 31
0.0
  0
LINE
  5
66E6
330
A
100
AcDbEntity
  8
0
  6
Continuous
370
     0
100
AcDbLine
 10
2963.012761975066
 20
214.746682913054
 30
0.0
 11
2975.197490296233
 21
214.746682913054
 31
0.0
  0
LINE
  5
66E7
330
A
100
AcDbEntity
  8
0
  6
Continuous
370
     0
100
AcDbLine
 10
2806.045130549963
 20
214.746682913054
 30
0.0
 11
2824.574192572314
 21
214.746682913054
 31
0.0
  0
LINE
  5
66E8
330
A
100
AcDbEntity
  8
0
  6
Continuous
370
     0
100
AcDbLine
 10
2897.90807593601
 20
214.746682913054
 30
0.0
 11
2915.003418111343
 21
214.746682913054
 31
0.0
  0
LINE
  5
66E9
330
A
100
AcDbEntity
  8
0
  6
Continuous
370
     0
100
AcDbLine
 10
2944.483699952714
 20
214.746682913054
 30
0.0
 11
2963.012761975066
 21
214.746682913054
 31
0.0
  0
LINE
  5
66EA
330
A
100
AcDbEntity
  8
0
  6
Continuous
370
     0
100
AcDbLine
 10
2944.483699952714
 20
214.746682913054
 30
0.0
 11
2915.003418111343
 21
214.746682913054
 31
0.0
  0
LINE
  5
66EB
330
A
100
AcDbEntity
  8
0
  6
Continuous
370
     0
100
AcDbLine
 10
2694.396540146728
 20
214.746682913054
 30
0.0
 11
2706.581268467897
 21
214.746682913054
 31
0.0
  0
LINE
  5
66EC
330
A
100
AcDbEntity
  8
0
  6
Continuous
370
     0
100
AcDbLine
 10
2757.326156003595
 20
214.746682913054
 30
0.0
 11
2706.581268467897
 21
214.746682913054
 31
0.0
  0
LINE
  5
66ED
330
A
100
AcDbEntity
  8
0
  6
Continuous
370
     0
100
AcDbLine
 10
2757.326156003595
 20
214.746682913054
 30
0.0
 11
2768.568068828842
 21
214.746682913054
 31
0.0
  0
LINE
  5
66EE
330
A
100
AcDbEntity
  8
0
  6
Continuous
370
     0
100
AcDbLine
 10
2587.181802244676
 20
214.746682913054
 30
0.0
 11
2604.277144420008
 21
214.746682913054
 31
0.0
  0
LINE
  5
66EF
330
A
100
AcDbEntity
  8
0
  6
Continuous
370
     0
100
AcDbLine
 10
2675.867478124377
 20
214.746682913054
 30
0.0
 11
2694.396540146728
 21
214.746682913054
 31
0.0
  0
LINE
  5
66F0
330
A
100
AcDbEntity
  8
0
  6
Continuous
370
     0
100
AcDbLine
 10
2768.568068828842
 20
214.746682913054
 30
0.0
 11
2785.663411004174
 21
214.746682913054
 31
0.0
  0
LINE
  5
66F1
330
A
100
AcDbEntity
  8
0
  6
Continuous
370
     0
100
AcDbLine
 10
2675.867478124377
 20
214.746682913054
 30
0.0
 11
2604.277144420008
 21
214.746682913054
 31
0.0
  0
LINE
  5
66F2
330
A
100
AcDbEntity
  8
0
  6
Continuous
370
     0
100
AcDbLine
 10
2806.045130549963
 20
214.746682913054
 30
0.0
 11
2785.663411004174
 21
214.746682913054
 31
0.0
  0
LINE
  5
66F3
330
A
100
AcDbEntity
  8
0
  6
Continuous
370
     0
100
AcDbLine
 10
2538.639418860365
 20
214.746682913054
 30
0.0
 11
2546.315559729445
 21
214.746682913054
 31
0.0
  0
LINE
  5
66F4
330
A
100
AcDbEntity
  8
0
  6
Continuous
370
     0
100
AcDbLine
 10
2575.93988942054
 20
214.746682913054
 30
0.0
 11
2546.315559729445
 21
214.746682913054
 31
0.0
  0
LINE
  5
66F5
330
A
100
AcDbEntity
  8
0
  6
Continuous
370
     0
100
AcDbLine
 10
2575.93988942054
 20
214.746682913054
 30
0.0
 11
2587.181802244676
 21
214.746682913054
 31
0.0
  0
LINE
  5
66F6
330
A
100
AcDbEntity
  8
0
  6
Continuous
370
     0
100
AcDbLine
 10
2538.639418860365
 20
214.746682913054
 30
0.0
 11
2471.067872414649
 21
214.746682913054
 31
0.0
  0
LINE
  5
66F7
330
A
100
AcDbEntity
  8
0
  6
Continuous
370
     0
100
AcDbLine
 10
2471.067872414649
 20
214.746682913054
 30
0.0
 11
2466.149847510812
 21
214.746682913054
 31
0.0
  0
LINE
  5
66F8
330
A
100
AcDbEntity
  8
0
  6
Continuous
370
     0
100
AcDbLine
 10
2506.604803573037
 20
252.9190217979201
 30
0.0
 11
3038.251010203112
 21
252.9190217979201
 31
0.0
  0
LINE
  5
66F9
330
A
100
AcDbEntity
  8
0
  6
Continuous
370
     0
100
AcDbLine
 10
2492.472908452304
 20
252.9190217979201
 30
0.0
 11
2506.604803573037
 21
252.9190217979201
 31
0.0
  0
LINE
  5
66FA
330
A
100
AcDbEntity
  8
0
  6
Continuous
370
     0
100
AcDbLine
 10
3038.251010203112
 20
252.9190217979201
 30
0.0
 11
3052.382905323846
 21
252.9190217979201
 31
0.0
  0
LINE
  5
66FB
330
A
100
AcDbEntity
  8
0
  6
Continuous
370
     0
100
AcDbLine
 10
2481.99622900234
 20
252.9190217979201
 30
0.0
 11
2492.472908452304
 21
252.9190217979201
 31
0.0
  0
LINE
  5
66FC
330
A
100
AcDbEntity
  8
0
  6
Continuous
370
     0
100
AcDbLine
 10
3052.382905323846
 20
252.9190217979201
 30
0.0
 11
3062.85958477381
 21
252.9190217979201
 31
0.0
  0
LINE
  5
66FD
330
A
100
AcDbEntity
  8
0
  6
Continuous
370
     0
100
AcDbLine
 10
3062.85958477381
 20
252.9190217979201
 30
0.0
 11
3076.991479894544
 21
252.9190217979201
 31
0.0
  0
LINE
  5
66FE
330
A
100
AcDbEntity
  8
0
  6
Continuous
370
     0
100
AcDbLine
 10
2467.864333881606
 20
252.9190217979201
 30
0.0
 11
2481.99622900234
 21
252.9190217979201
 31
0.0
  0
LINE
  5
66FF
330
A
100
AcDbEntity
  8
0
  6
Continuous
370
     0
100
AcDbLine
 10
3076.991479894544
 20
252.9190217979201
 30
0.0
 11
3084.701621587567
 21
252.9190217979201
 31
0.0
  0
LINE
  5
6700
330
A
100
AcDbEntity
  8
0
  6
Continuous
370
     0
100
AcDbLine
 10
2460.154192188581
 20
252.9190217979201
 30
0.0
 11
2467.864333881606
 21
252.9190217979201
 31
0.0
  0
CIRCLE
  5
6701
330
A
100
AcDbEntity
  8
0
  6
Continuous
370
     0
100
AcDbCircle
 10
2453.159260979312
 20
237.5301731375291
 30
0.0
 40
2.148443157132513
  0
CIRCLE
  5
6702
330
A
100
AcDbEntity
  8
0
  6
Continuous
370
     0
100
AcDbCircle
 10
3091.696552796836
 20
237.5301731375291
 30
0.0
 40
2.148443157132513
  0
LINE
  5
6703
330
A
100
AcDbEntity
  8
0
  6
Continuous
370
     0
100
AcDbLine
 10
3103.79843781605
 20
126.5605858819172
 30
0.0
 11
3105.988752032946
 21
126.5605858819172
 31
0.0
  0
LINE
  5
6704
330
A
100
AcDbEntity
  8
0
  6
Continuous
370
     0
100
AcDbLine
 10
3091.510396191817
 20
126.8104048536768
 30
0.0
 11
3091.760215163577
 21
126.5605858819172
 31
0.0
  0
LINE
  5
6705
330
A
100
AcDbEntity
  8
0
  6
Continuous
370
     0
100
AcDbLine
 10
3080.454699067654
 20
126.5605858819172
 30
0.0
 11
3080.454699067654
 21
126.8104048536768
 31
0.0
  0
LINE
  5
6706
330
A
100
AcDbEntity
  8
0
  6
Continuous
370
     0
100
AcDbLine
 10
3144.658174809871
 20
124.8118530796
 30
0.0
 11
3144.658174809871
 21
126.5605858819172
 31
0.0
  0
LINE
  5
6707
330
A
100
AcDbEntity
  8
0
  6
Continuous
370
     0
100
AcDbLine
 10
3155.650209567292
 20
124.8118530796
 30
0.0
 11
3155.650209567292
 21
126.5605858819172
 31
0.0
  0
LINE
  5
6708
330
A
100
AcDbEntity
  8
0
  6
Continuous
370
     0
100
AcDbLine
 10
3080.454699067654
 20
124.8118530796
 30
0.0
 11
3080.454699067654
 21
126.5605858819172
 31
0.0
  0
LINE
  5
6709
330
A
100
AcDbEntity
  8
0
  6
Continuous
370
     0
100
AcDbLine
 10
3144.658174809871
 20
124.8118530796
 30
0.0
 11
3105.988752032946
 21
124.8118530796
 31
0.0
  0
LINE
  5
670A
330
A
100
AcDbEntity
  8
0
  6
Continuous
370
     0
100
AcDbLine
 10
3144.658174809871
 20
126.5605858819172
 30
0.0
 11
3105.988752032946
 21
126.5605858819172
 31
0.0
  0
LINE
  5
670B
330
A
100
AcDbEntity
  8
0
  6
Continuous
370
     0
100
AcDbLine
 10
3155.650209567292
 20
124.8118530796
 30
0.0
 11
3144.658174809871
 21
124.8118530796
 31
0.0
  0
LINE
  5
670C
330
A
100
AcDbEntity
  8
0
  6
Continuous
370
     0
100
AcDbLine
 10
3103.79843781605
 20
124.8118530796
 30
0.0
 11
3080.454699067654
 21
124.8118530796
 31
0.0
  0
LINE
  5
670D
330
A
100
AcDbEntity
  8
0
  6
Continuous
370
     0
100
AcDbLine
 10
3103.79843781605
 20
126.5605858819172
 30
0.0
 11
3080.454699067654
 21
126.5605858819172
 31
0.0
  0
LINE
  5
670E
330
A
100
AcDbEntity
  8
0
  6
Continuous
370
     0
100
AcDbLine
 10
3155.650209567292
 20
126.5605858819172
 30
0.0
 11
3144.658174809871
 21
126.5605858819172
 31
0.0
  0
LINE
  5
670F
330
A
100
AcDbEntity
  8
0
  6
Continuous
370
     0
100
AcDbLine
 10
3080.454699067654
 20
126.8104048536768
 30
0.0
 11
3092.497014870744
 21
126.8104048536768
 31
0.0
  0
CIRCLE
  5
6710
330
A
100
AcDbEntity
  8
0
  6
Continuous
370
     0
100
AcDbCircle
 10
3098.691484006104
 20
154.7901296907514
 30
0.0
 40
2.348298334540188
  0
LINE
  5
6711
330
A
100
AcDbEntity
  8
0
  6
Continuous
370
     0
100
AcDbLine
 10
3080.704518039414
 20
222.890781392417
 30
0.0
 11
3080.454699067654
 21
222.890781392417
 31
0.0
  0
LINE
  5
6712
330
A
100
AcDbEntity
  8
0
  6
Continuous
370
     0
100
AcDbLine
 10
3080.704518039414
 20
222.9907089811206
 30
0.0
 11
3078.705966265337
 21
222.9907089811206
 31
0.0
  0
LINE
  5
6713
330
A
100
AcDbEntity
  8
0
  6
Continuous
370
     0
100
AcDbLine
 10
3080.704518039414
 20
222.9907089811206
 30
0.0
 11
3080.704518039414
 21
222.890781392417
 31
0.0
  0
LINE
  5
6714
330
A
100
AcDbEntity
  8
0
  6
Continuous
370
     0
100
AcDbLine
 10
3078.705966265337
 20
222.9907089811206
 30
0.0
 11
3078.705966265337
 21
224.7394417834378
 31
0.0
  0
LINE
  5
6715
330
A
100
AcDbEntity
  8
0
  6
Continuous
370
     0
100
AcDbLine
 10
3078.705966265337
 20
146.2962846509251
 30
0.0
 11
3078.705966265337
 21
163.0341557588179
 31
0.0
  0
LINE
  5
6716
330
A
100
AcDbEntity
  8
0
  6
Continuous
370
     0
100
AcDbLine
 10
3078.705966265337
 20
163.0341557588179
 30
0.0
 11
3078.705966265337
 21
208.0015706755451
 31
0.0
  0
LINE
  5
6717
330
A
100
AcDbEntity
  8
0
  6
Continuous
370
     0
100
AcDbLine
 10
3078.705966265337
 20
203.4411668171333
 30
0.0
 11
3078.705966265337
 21
212.9979501107368
 31
0.0
  0
LINE
  5
6718
330
A
100
AcDbEntity
  8
0
  6
Continuous
370
     0
100
AcDbLine
 10
3078.705966265337
 20
124.8118530796
 30
0.0
 11
3080.454699067654
 21
124.8118530796
 31
0.0
  0
LINE
  5
6719
330
A
100
AcDbEntity
  8
0
  6
Continuous
370
     0
100
AcDbLine
 10
3078.705966265337
 20
126.5605858819172
 30
0.0
 11
3078.705966265337
 21
126.8104048536768
 31
0.0
  0
LINE
  5
671A
330
A
100
AcDbEntity
  8
0
  6
Continuous
370
     0
100
AcDbLine
 10
3078.705966265337
 20
124.8118530796
 30
0.0
 11
3078.705966265337
 21
126.5605858819172
 31
0.0
  0
LINE
  5
671B
330
A
100
AcDbEntity
  8
0
  6
Continuous
370
     0
100
AcDbLine
 10
3078.705966265337
 20
126.8104048536768
 30
0.0
 11
3078.705966265337
 21
136.1173691755209
 31
0.0
  0
LINE
  5
671C
330
A
100
AcDbEntity
  8
0
  6
Continuous
370
     0
100
AcDbLine
 10
3078.705966265337
 20
212.9979501107368
 30
0.0
 11
3078.705966265337
 21
214.746682913054
 31
0.0
  0
LINE
  5
671D
330
A
100
AcDbEntity
  8
0
  6
Continuous
370
     0
100
AcDbLine
 10
3078.705966265337
 20
146.2962846509251
 30
0.0
 11
3078.705966265337
 21
163.0341557588179
 31
0.0
  0
LINE
  5
671E
330
A
100
AcDbEntity
  8
0
  6
Continuous
370
     0
100
AcDbLine
 10
3078.705966265337
 20
163.0341557588179
 30
0.0
 11
3078.705966265337
 21
208.0015706755451
 31
0.0
  0
LINE
  5
671F
330
A
100
AcDbEntity
  8
0
  6
Continuous
370
     0
100
AcDbLine
 10
3080.454699067654
 20
222.890781392417
 30
0.0
 11
3080.454699067654
 21
126.8104048536768
 31
0.0
  0
LINE
  5
6720
330
A
100
AcDbEntity
  8
0
  6
Continuous
370
     0
100
AcDbLine
 10
3078.705966265337
 20
126.8104048536768
 30
0.0
 11
3078.705966265337
 21
222.890781392417
 31
0.0
  0
LINE
  5
6721
330
A
100
AcDbEntity
  8
0
  6
Continuous
370
     0
100
AcDbLine
 10
3078.705966265337
 20
222.890781392417
 30
0.0
 11
3080.454699067654
 21
222.890781392417
 31
0.0
  0
LINE
  5
6722
330
A
100
AcDbEntity
  8
0
  6
Continuous
370
     0
100
AcDbLine
 10
3080.454699067654
 20
126.8104048536768
 30
0.0
 11
3078.705966265337
 21
126.8104048536768
 31
0.0
  0
ARC
  5
6723
330
A
100
AcDbEntity
  8
0
  6
Continuous
370
     0
100
AcDbCircle
 10
3080.454699067654
 20
126.5605858819172
 30
0.0
 40
1.748732802317161
100
AcDbArc
 50
180.0
 51
270.0
  0
LINE
  5
6724
330
A
100
AcDbEntity
  8
0
  6
Continuous
370
     0
100
AcDbLine
 10
3084.701621587567
 20
222.9907089811206
 30
0.0
 11
3080.704518039414
 21
222.9907089811206
 31
0.0
  0
LINE
  5
6725
330
A
100
AcDbEntity
  8
0
  6
Continuous
370
     0
100
AcDbLine
 10
3080.704518039414
 20
222.9907089811206
 30
0.0
 11
3080.704518039414
 21
224.7394417834378
 31
0.0
  0
LINE
  5
6726
330
A
100
AcDbEntity
  8
0
  6
Continuous
370
     0
100
AcDbLine
 10
3105.988752032946
 20
124.8118530796
 30
0.0
 11
3103.79843781605
 21
124.8118530796
 31
0.0
  0
LINE
  5
6727
330
A
100
AcDbEntity
  8
0
  6
Continuous
370
     0
100
AcDbLine
 10
3105.988752032946
 20
126.5605858819172
 30
0.0
 11
3105.988752032946
 21
124.8118530796
 31
0.0
  0
LINE
  5
6728
330
A
100
AcDbEntity
  8
0
  6
Continuous
370
     0
100
AcDbLine
 10
3103.79843781605
 20
124.8118530796
 30
0.0
 11
3103.79843781605
 21
126.5605858819172
 31
0.0
  0
LINE
  5
6729
330
A
100
AcDbEntity
  8
0
  6
Continuous
370
     0
100
AcDbLine
 10
2466.149847510812
 20
212.9979501107368
 30
0.0
 11
2466.149847510812
 21
214.746682913054
 31
0.0
  0
LINE
  5
672A
330
A
100
AcDbEntity
  8
0
  6
Continuous
370
     0
100
AcDbLine
 10
2466.149847510812
 20
212.9979501107368
 30
0.0
 11
2466.149847510812
 21
203.4411668171333
 31
0.0
  0
LINE
  5
672B
330
A
100
AcDbEntity
  8
0
  6
Continuous
370
     0
100
AcDbLine
 10
2466.149847510812
 20
126.5605858819172
 30
0.0
 11
2466.149847510812
 21
126.8104048536768
 31
0.0
  0
LINE
  5
672C
330
A
100
AcDbEntity
  8
0
  6
Continuous
370
     0
100
AcDbLine
 10
2466.149847510812
 20
136.1173691755209
 30
0.0
 11
2466.149847510812
 21
126.8104048536768
 31
0.0
  0
LINE
  5
672D
330
A
100
AcDbEntity
  8
0
  6
Continuous
370
     0
100
AcDbLine
 10
2466.149847510812
 20
126.5605858819172
 30
0.0
 11
2466.149847510812
 21
124.8118530796
 31
0.0
  0
LINE
  5
672E
330
A
100
AcDbEntity
  8
0
  6
Continuous
370
     0
100
AcDbLine
 10
2466.149847510812
 20
163.0341557588179
 30
0.0
 11
2466.149847510812
 21
146.2962846509251
 31
0.0
  0
LINE
  5
672F
330
A
100
AcDbEntity
  8
0
  6
Continuous
370
     0
100
AcDbLine
 10
2466.149847510812
 20
208.0015706755451
 30
0.0
 11
2466.149847510812
 21
163.0341557588179
 31
0.0
  0
LINE
  5
6730
330
A
100
AcDbEntity
  8
0
  6
Continuous
370
     0
100
AcDbLine
 10
2466.149847510812
 20
163.0341557588179
 30
0.0
 11
2466.149847510812
 21
146.2962846509251
 31
0.0
  0
LINE
  5
6731
330
A
100
AcDbEntity
  8
0
  6
Continuous
370
     0
100
AcDbLine
 10
2466.149847510812
 20
208.0015706755451
 30
0.0
 11
2466.149847510812
 21
163.0341557588179
 31
0.0
  0
LINE
  5
6732
330
A
100
AcDbEntity
  8
0
  6
Continuous
370
     0
100
AcDbLine
 10
2466.149847510812
 20
222.890781392417
 30
0.0
 11
2466.149847510812
 21
126.8104048536768
 31
0.0
  0
LINE
  5
6733
330
A
100
AcDbEntity
  8
0
  6
Continuous
370
     0
100
AcDbLine
 10
2466.149847510812
 20
126.8104048536768
 30
0.0
 11
2464.401114708495
 21
126.8104048536768
 31
0.0
  0
LINE
  5
6734
330
A
100
AcDbEntity
  8
0
  6
Continuous
370
     0
100
AcDbLine
 10
2464.401114708495
 20
222.890781392417
 30
0.0
 11
2466.149847510812
 21
222.890781392417
 31
0.0
  0
LINE
  5
6735
330
A
100
AcDbEntity
  8
0
  6
Continuous
370
     0
100
AcDbLine
 10
2464.401114708495
 20
126.8104048536768
 30
0.0
 11
2464.401114708495
 21
222.890781392417
 31
0.0
  0
ARC
  5
6736
330
A
100
AcDbEntity
  8
0
  6
Continuous
370
     0
100
AcDbCircle
 10
2464.401114708495
 20
126.5605858819172
 30
0.0
 40
1.748732802317161
100
AcDbArc
 50
270.0
 51
0.0
  0
LINE
  5
6737
330
A
100
AcDbEntity
  8
0
  6
Continuous
370
     0
100
AcDbLine
 10
2464.151295736735
 20
222.9907089811206
 30
0.0
 11
2460.154192188581
 21
222.9907089811206
 31
0.0
  0
LINE
  5
6738
330
A
100
AcDbEntity
  8
0
  6
Continuous
370
     0
100
AcDbLine
 10
2464.151295736735
 20
224.7394417834378
 30
0.0
 11
2464.151295736735
 21
222.9907089811206
 31
0.0
  0
LINE
  5
6739
330
A
100
AcDbEntity
  8
0
  6
Continuous
370
     0
100
AcDbLine
 10
2438.867061743204
 20
124.8118530796
 30
0.0
 11
2438.867061743204
 21
126.5605858819172
 31
0.0
  0
LINE
  5
673A
330
A
100
AcDbEntity
  8
0
  6
Continuous
370
     0
100
AcDbLine
 10
2438.867061743204
 20
126.5605858819172
 30
0.0
 11
2441.0573759601
 21
126.5605858819172
 31
0.0
  0
LINE
  5
673B
330
A
100
AcDbEntity
  8
0
  6
Continuous
370
     0
100
AcDbLine
 10
2441.0573759601
 20
126.5605858819172
 30
0.0
 11
2441.0573759601
 21
124.8118530796
 31
0.0
  0
LINE
  5
673C
330
A
100
AcDbEntity
  8
0
  6
Continuous
370
     0
100
AcDbLine
 10
2441.0573759601
 20
124.8118530796
 30
0.0
 11
2438.867061743204
 21
124.8118530796
 31
0.0
  0
LINE
  5
673D
330
A
100
AcDbEntity
  8
0
  6
Continuous
370
     0
100
AcDbLine
 10
2464.401114708495
 20
126.5605858819172
 30
0.0
 11
2464.401114708495
 21
126.8104048536768
 31
0.0
  0
LINE
  5
673E
330
A
100
AcDbEntity
  8
0
  6
Continuous
370
     0
100
AcDbLine
 10
2464.401114708495
 20
124.8118530796
 30
0.0
 11
2466.149847510812
 21
124.8118530796
 31
0.0
  0
LINE
  5
673F
330
A
100
AcDbEntity
  8
0
  6
Continuous
370
     0
100
AcDbLine
 10
2453.345417584334
 20
126.8104048536768
 30
0.0
 11
2453.095598612575
 21
126.5605858819172
 31
0.0
  0
LINE
  5
6740
330
A
100
AcDbEntity
  8
0
  6
Continuous
370
     0
100
AcDbLine
 10
2400.197638966279
 20
124.8118530796
 30
0.0
 11
2400.197638966279
 21
126.5605858819172
 31
0.0
  0
LINE
  5
6741
330
A
100
AcDbEntity
  8
0
  6
Continuous
370
     0
100
AcDbLine
 10
2438.867061743204
 20
124.8118530796
 30
0.0
 11
2400.197638966279
 21
124.8118530796
 31
0.0
  0
LINE
  5
6742
330
A
100
AcDbEntity
  8
0
  6
Continuous
370
     0
100
AcDbLine
 10
2400.197638966279
 20
124.8118530796
 30
0.0
 11
2389.205604208857
 21
124.8118530796
 31
0.0
  0
LINE
  5
6743
330
A
100
AcDbEntity
  8
0
  6
Continuous
370
     0
100
AcDbLine
 10
2389.205604208857
 20
124.8118530796
 30
0.0
 11
2389.205604208857
 21
126.5605858819172
 31
0.0
  0
LINE
  5
6744
330
A
100
AcDbEntity
  8
0
  6
Continuous
370
     0
100
AcDbLine
 10
2464.401114708495
 20
124.8118530796
 30
0.0
 11
2464.401114708495
 21
126.5605858819172
 31
0.0
  0
LINE
  5
6745
330
A
100
AcDbEntity
  8
0
  6
Continuous
370
     0
100
AcDbLine
 10
2464.401114708495
 20
124.8118530796
 30
0.0
 11
2441.0573759601
 21
124.8118530796
 31
0.0
  0
LINE
  5
6746
330
A
100
AcDbEntity
  8
0
  6
Continuous
370
     0
100
AcDbLine
 10
2438.867061743204
 20
126.5605858819172
 30
0.0
 11
2400.197638966279
 21
126.5605858819172
 31
0.0
  0
LINE
  5
6747
330
A
100
AcDbEntity
  8
0
  6
Continuous
370
     0
100
AcDbLine
 10
2400.197638966279
 20
126.5605858819172
 30
0.0
 11
2389.205604208857
 21
126.5605858819172
 31
0.0
  0
LINE
  5
6748
330
A
100
AcDbEntity
  8
0
  6
Continuous
370
     0
100
AcDbLine
 10
2464.401114708495
 20
126.5605858819172
 30
0.0
 11
2441.0573759601
 21
126.5605858819172
 31
0.0
  0
LINE
  5
6749
330
A
100
AcDbEntity
  8
0
  6
Continuous
370
     0
100
AcDbLine
 10
2452.358798905405
 20
126.8104048536768
 30
0.0
 11
2464.401114708495
 21
126.8104048536768
 31
0.0
  0
CIRCLE
  5
674A
330
A
100
AcDbEntity
  8
0
  6
Continuous
370
     0
100
AcDbCircle
 10
2446.164329770044
 20
154.7901296907514
 30
0.0
 40
2.348298334540188
  0
LINE
  5
674B
330
A
100
AcDbEntity
  8
0
  6
Continuous
370
     0
100
AcDbLine
 10
2464.151295736735
 20
222.9907089811206
 30
0.0
 11
2466.149847510812
 21
222.9907089811206
 31
0.0
  0
LINE
  5
674C
330
A
100
AcDbEntity
  8
0
  6
Continuous
370
     0
100
AcDbLine
 10
2464.151295736735
 20
222.9907089811206
 30
0.0
 11
2464.151295736735
 21
222.890781392417
 31
0.0
  0
LINE
  5
674D
330
A
100
AcDbEntity
  8
0
  6
Continuous
370
     0
100
AcDbLine
 10
2464.151295736735
 20
222.890781392417
 30
0.0
 11
2464.401114708495
 21
222.890781392417
 31
0.0
  0
LINE
  5
674E
330
A
100
AcDbEntity
  8
0
  6
Continuous
370
     0
100
AcDbLine
 10
2466.149847510812
 20
222.9907089811206
 30
0.0
 11
2466.149847510812
 21
224.7394417834378
 31
0.0
  0
LINE
  5
674F
330
A
100
AcDbEntity
  8
0
  6
Continuous
370
     0
100
AcDbLine
 10
2467.348978575258
 20
1411.879195585031
 30
0.0
 11
2467.348978575258
 21
252.9190217979201
 31
0.0
  0
ARC
  5
6750
330
A
100
AcDbEntity
  8
0
  6
Continuous
370
     0
100
AcDbCircle
 10
2433.423562210305
 20
277.4012810303602
 30
0.0
 40
3.497465604634323
100
AcDbArc
 50
201.7867892982005
 51
300.0000000000001
  0
ARC
  5
6751
330
A
100
AcDbEntity
  8
0
  6
Continuous
370
     0
100
AcDbCircle
 10
2433.423562210305
 20
295.3882469970511
 30
0.0
 40
3.497465604634323
100
AcDbArc
 50
59.99999999999994
 51
158.2132107017995
  0
LINE
  5
6752
330
A
100
AcDbEntity
  8
0
  6
Continuous
370
     0
100
AcDbLine
 10
2448.962302253752
 20
299.2887072077197
 30
0.0
 11
2448.962302253752
 21
295.4848903345362
 31
0.0
  0
LINE
  5
6753
330
A
100
AcDbEntity
  8
0
  6
Continuous
370
     0
100
AcDbLine
 10
2448.962302253752
 20
826.9063755639834
 30
0.0
 11
2448.962302253752
 21
823.1025586907992
 31
0.0
  0
ARC
  5
6754
330
A
100
AcDbEntity
  8
0
  6
Continuous
370
     0
100
AcDbCircle
 10
2433.423562210305
 20
1306.65544467989
 30
0.0
 40
3.497465604634323
100
AcDbArc
 50
59.99999999999994
 51
158.2132107017995
  0
ARC
  5
6755
330
A
100
AcDbEntity
  8
0
  6
Continuous
370
     0
100
AcDbCircle
 10
2433.423562210305
 20
1332.636617742887
 30
0.0
 40
3.497465604634323
100
AcDbArc
 50
201.7867892982005
 51
300.0000000000001
  0
LINE
  5
6756
330
A
100
AcDbEntity
  8
0
  6
Continuous
370
     0
100
AcDbLine
 10
2448.962302253752
 20
1354.524043920247
 30
0.0
 11
2448.962302253752
 21
1350.720227047063
 31
0.0
  0
LINE
  5
6757
330
A
100
AcDbEntity
  8
0
  6
Continuous
370
     0
100
AcDbLine
 10
2468.348254462296
 20
1411.879195585031
 30
0.0
 11
2468.348254462296
 21
252.9190217979201
 31
0.0
  0
LINE
  5
6758
330
A
100
AcDbEntity
  8
0
  6
Continuous
370
     0
100
AcDbLine
 10
2389.686914894109
 20
259.2134986883377
 30
0.0
 11
2390.204880095895
 21
258.3163566423805
 31
0.0
  0
LINE
  5
6759
330
A
100
AcDbEntity
  8
0
  6
Continuous
370
     0
100
AcDbLine
 10
2390.204880095895
 20
255.3192063226609
 30
0.0
 11
2387.438544149383
 21
255.3192063226609
 31
0.0
  0
LINE
  5
675A
330
A
100
AcDbEntity
  8
0
  6
Continuous
370
     0
100
AcDbLine
 10
2390.204880095895
 20
243.3278956782001
 30
0.0
 11
2387.438544149383
 21
243.3278956782001
 31
0.0
  0
ARC
  5
675B
330
A
100
AcDbEntity
  8
0
  6
Continuous
370
     0
100
AcDbCircle
 10
2391.935285639946
 20
255.3192063226609
 30
0.0
 40
4.496741490562394
100
AcDbArc
 50
120.0000000000999
 51
180.0000000000998
  0
LINE
  5
675C
330
A
100
AcDbEntity
  8
0
  6
Continuous
370
     0
100
AcDbLine
 10
2387.438544149383
 20
255.3192063226609
 30
0.0
 11
2387.438544149383
 21
243.3278956782001
 31
0.0
  0
LINE
  5
675D
330
A
100
AcDbEntity
  8
0
  6
Continuous
370
     0
100
AcDbLine
 10
2390.204880095895
 20
259.5125460362501
 30
0.0
 11
2389.686914894109
 21
259.2134986883377
 31
0.0
  0
LINE
  5
675E
330
A
100
AcDbEntity
  8
0
  6
Continuous
370
     0
100
AcDbLine
 10
2481.99622900234
 20
229.7358212186298
 30
0.0
 11
2492.472908452304
 21
229.7358212186298
 31
0.0
  0
LINE
  5
675F
330
A
100
AcDbEntity
  8
0
  6
Continuous
370
     0
100
AcDbLine
 10
2467.864333881606
 20
229.7358212186298
 30
0.0
 11
2481.99622900234
 21
229.7358212186298
 31
0.0
  0
LINE
  5
6760
330
A
100
AcDbEntity
  8
0
  6
Continuous
370
     0
100
AcDbLine
 10
2460.154192188581
 20
229.7358212186298
 30
0.0
 11
2467.864333881606
 21
229.7358212186298
 31
0.0
  0
LINE
  5
6761
330
A
100
AcDbEntity
  8
0
  6
Continuous
370
     0
100
AcDbLine
 10
3038.251010203112
 20
224.7394417834378
 30
0.0
 11
3038.251010203112
 21
229.7358212186298
 31
0.0
  0
ELLIPSE
  5
6762
330
A
100
AcDbEntity
  8
0
  6
Continuous
370
     0
100
AcDbEllipse
 10
3048.849931543108
 20
229.7358212186298
 30
0.0
 11
0.0
 21
-4.996379435191887
 31
0.0
210
0.0
220
0.0
230
1.0
 40
0.7071067812
 41
0.0
 42
1.570796326794897
  0
LINE
  5
6763
330
A
100
AcDbEntity
  8
0
  6
Continuous
370
     0
100
AcDbLine
 10
3018.120608786072
 20
217.4870666599525
 30
0.0
 11
3078.705966265337
 21
217.4870666599525
 31
0.0
  0
LINE
  5
6764
330
A
100
AcDbEntity
  8
0
  6
Continuous
370
     0
100
AcDbLine
 10
2962.295389103812
 20
217.4870666599525
 30
0.0
 11
2975.232416606202
 21
217.4870666599525
 31
0.0
  0
LINE
  5
6765
330
A
100
AcDbEntity
  8
0
  6
Continuous
370
     0
100
AcDbLine
 10
2975.232416606202
 20
217.4870666599525
 30
0.0
 11
3010.492748402243
 21
217.4870666599525
 31
0.0
  0
LINE
  5
6766
330
A
100
AcDbEntity
  8
0
  6
Continuous
370
     0
100
AcDbLine
 10
3010.492748402243
 20
217.4870666599525
 30
0.0
 11
3018.120608786072
 21
217.4870666599525
 31
0.0
  0
LINE
  5
6767
330
A
100
AcDbEntity
  8
0
  6
Continuous
370
     0
100
AcDbLine
 10
2944.518626262683
 20
217.4870666599525
 30
0.0
 11
2962.295389103812
 21
217.4870666599525
 31
0.0
  0
LINE
  5
6768
330
A
100
AcDbEntity
  8
0
  6
Continuous
370
     0
100
AcDbLine
 10
2836.793847203449
 20
217.4870666599525
 30
0.0
 11
2886.701089421843
 21
217.4870666599525
 31
0.0
  0
LINE
  5
6769
330
A
100
AcDbEntity
  8
0
  6
Continuous
370
     0
100
AcDbLine
 10
2886.701089421843
 20
217.4870666599525
 30
0.0
 11
2898.637090909846
 21
217.4870666599525
 31
0.0
  0
LINE
  5
676A
330
A
100
AcDbEntity
  8
0
  6
Continuous
370
     0
100
AcDbLine
 10
2898.637090909846
 20
217.4870666599525
 30
0.0
 11
2915.038344421312
 21
217.4870666599525
 31
0.0
  0
LINE
  5
676B
330
A
100
AcDbEntity
  8
0
  6
Continuous
370
     0
100
AcDbLine
 10
2915.038344421312
 20
217.4870666599525
 30
0.0
 11
2944.518626262683
 21
217.4870666599525
 31
0.0
  0
LINE
  5
676C
330
A
100
AcDbEntity
  8
0
  6
Continuous
370
     0
100
AcDbLine
 10
2823.856819701061
 20
217.4870666599525
 30
0.0
 11
2836.793847203449
 21
217.4870666599525
 31
0.0
  0
LINE
  5
676D
330
A
100
AcDbEntity
  8
0
  6
Continuous
370
     0
100
AcDbLine
 10
2769.297083802678
 20
217.4870666599525
 30
0.0
 11
2785.698337313032
 21
217.4870666599525
 31
0.0
  0
LINE
  5
676E
330
A
100
AcDbEntity
  8
0
  6
Continuous
370
     0
100
AcDbLine
 10
2806.080056859931
 20
217.4870666599525
 30
0.0
 11
2823.856819701061
 21
217.4870666599525
 31
0.0
  0
LINE
  5
676F
330
A
100
AcDbEntity
  8
0
  6
Continuous
370
     0
100
AcDbLine
 10
2785.698337313032
 20
217.4870666599525
 30
0.0
 11
2806.080056859931
 21
217.4870666599525
 31
0.0
  0
LINE
  5
6770
330
A
100
AcDbEntity
  8
0
  6
Continuous
370
     0
100
AcDbLine
 10
2693.679167275475
 20
217.4870666599525
 30
0.0
 11
2706.616194777865
 21
217.4870666599525
 31
0.0
  0
LINE
  5
6771
330
A
100
AcDbEntity
  8
0
  6
Continuous
370
     0
100
AcDbLine
 10
2706.616194777865
 20
217.4870666599525
 30
0.0
 11
2757.361082313563
 21
217.4870666599525
 31
0.0
  0
LINE
  5
6772
330
A
100
AcDbEntity
  8
0
  6
Continuous
370
     0
100
AcDbLine
 10
2757.361082313563
 20
217.4870666599525
 30
0.0
 11
2769.297083802678
 21
217.4870666599525
 31
0.0
  0
LINE
  5
6773
330
A
100
AcDbEntity
  8
0
  6
Continuous
370
     0
100
AcDbLine
 10
2675.902404434346
 20
217.4870666599525
 30
0.0
 11
2693.679167275475
 21
217.4870666599525
 31
0.0
  0
LINE
  5
6774
330
A
100
AcDbEntity
  8
0
  6
Continuous
370
     0
100
AcDbLine
 10
2546.350486039414
 20
217.4870666599525
 30
0.0
 11
2575.974815730508
 21
217.4870666599525
 31
0.0
  0
LINE
  5
6775
330
A
100
AcDbEntity
  8
0
  6
Continuous
370
     0
100
AcDbLine
 10
2575.974815730508
 20
217.4870666599525
 30
0.0
 11
2587.910817218512
 21
217.4870666599525
 31
0.0
  0
LINE
  5
6776
330
A
100
AcDbEntity
  8
0
  6
Continuous
370
     0
100
AcDbLine
 10
2587.910817218512
 20
217.4870666599525
 30
0.0
 11
2604.312070729977
 21
217.4870666599525
 31
0.0
  0
LINE
  5
6777
330
A
100
AcDbEntity
  8
0
  6
Continuous
370
     0
100
AcDbLine
 10
2604.312070729977
 20
217.4870666599525
 30
0.0
 11
2675.902404434346
 21
217.4870666599525
 31
0.0
  0
LINE
  5
6778
330
A
100
AcDbEntity
  8
0
  6
Continuous
370
     0
100
AcDbLine
 10
2538.200411379506
 20
217.4870666599525
 30
0.0
 11
2546.350486039414
 21
217.4870666599525
 31
0.0
  0
LINE
  5
6779
330
A
100
AcDbEntity
  8
0
  6
Continuous
370
     0
100
AcDbLine
 10
2470.62886493268
 20
217.4870666599525
 30
0.0
 11
2538.200411379506
 21
217.4870666599525
 31
0.0
  0
LINE
  5
677A
330
A
100
AcDbEntity
  8
0
  6
Continuous
370
     0
100
AcDbLine
 10
2466.149847510812
 20
217.4870666599525
 30
0.0
 11
2470.62886493268
 21
217.4870666599525
 31
0.0
  0
LINE
  5
677B
330
A
100
AcDbEntity
  8
0
  6
Continuous
370
     0
100
AcDbLine
 10
2481.99622900234
 20
252.9190217979201
 30
0.0
 11
2481.99622900234
 21
229.7358212186298
 31
0.0
  0
LINE
  5
677C
330
A
100
AcDbEntity
  8
0
  6
Continuous
370
     0
100
AcDbLine
 10
3062.85958477381
 20
229.7358212186298
 30
0.0
 11
3062.85958477381
 21
252.9190217979201
 31
0.0
  0
LINE
  5
677D
330
A
100
AcDbEntity
  8
0
  6
Continuous
370
     0
100
AcDbLine
 10
3076.991479894544
 20
252.9190217979201
 30
0.0
 11
3076.991479894544
 21
229.7358212186298
 31
0.0
  0
LINE
  5
677E
330
A
100
AcDbEntity
  8
0
  6
Continuous
370
     0
100
AcDbLine
 10
2467.864333881606
 20
229.7358212186298
 30
0.0
 11
2467.864333881606
 21
252.9190217979201
 31
0.0
  0
LINE
  5
677F
330
A
100
AcDbEntity
  8
0
  6
Continuous
370
     0
100
AcDbLine
 10
2506.604803573037
 20
252.9190217979201
 30
0.0
 11
2506.604803573037
 21
229.7358212186298
 31
0.0
  0
LINE
  5
6780
330
A
100
AcDbEntity
  8
0
  6
Continuous
370
     0
100
AcDbLine
 10
2492.472908452304
 20
229.7358212186298
 30
0.0
 11
2492.472908452304
 21
252.9190217979201
 31
0.0
  0
LINE
  5
6781
330
A
100
AcDbEntity
  8
0
  6
Continuous
370
     0
100
AcDbLine
 10
3038.251010203112
 20
229.7358212186298
 30
0.0
 11
3038.251010203112
 21
252.9190217979201
 31
0.0
  0
LINE
  5
6782
330
A
100
AcDbEntity
  8
0
  6
Continuous
370
     0
100
AcDbLine
 10
3052.382905323846
 20
252.9190217979201
 30
0.0
 11
3052.382905323846
 21
229.7358212186298
 31
0.0
  0
LINE
  5
6783
330
A
100
AcDbEntity
  8
0
  6
Continuous
370
     0
100
AcDbLine
 10
2975.232416606202
 20
217.4870666599525
 30
0.0
 11
2975.324848441055
 21
224.7394417834378
 31
0.0
  0
LINE
  5
6784
330
A
100
AcDbEntity
  8
0
  6
Continuous
370
     0
100
AcDbLine
 10
3010.585180238208
 20
224.7394417834378
 30
0.0
 11
3010.492748402243
 21
217.4870666599525
 31
0.0
  0
LINE
  5
6785
330
A
100
AcDbEntity
  8
0
  6
Continuous
370
     0
100
AcDbLine
 10
3018.120608786072
 20
217.4870666599525
 30
0.0
 11
3019.386931420974
 21
224.7394417834378
 31
0.0
  0
LINE
  5
6786
330
A
100
AcDbEntity
  8
0
  6
Continuous
370
     0
100
AcDbLine
 10
2944.611058097537
 20
224.7394417834378
 30
0.0
 11
2944.518626262683
 21
217.4870666599525
 31
0.0
  0
LINE
  5
6787
330
A
100
AcDbEntity
  8
0
  6
Continuous
370
     0
100
AcDbLine
 10
2769.297083802678
 20
217.4870666599525
 30
0.0
 11
2771.226408504633
 21
224.7394417834378
 31
0.0
  0
LINE
  5
6788
330
A
100
AcDbEntity
  8
0
  6
Continuous
370
     0
100
AcDbLine
 10
2836.793847203449
 20
217.4870666599525
 30
0.0
 11
2836.886279038304
 21
224.7394417834378
 31
0.0
  0
LINE
  5
6789
330
A
100
AcDbEntity
  8
0
  6
Continuous
370
     0
100
AcDbLine
 10
2886.793521256696
 20
224.7394417834378
 30
0.0
 11
2886.701089421843
 21
217.4870666599525
 31
0.0
  0
LINE
  5
678A
330
A
100
AcDbEntity
  8
0
  6
Continuous
370
     0
100
AcDbLine
 10
2900.566415611801
 20
224.7394417834378
 30
0.0
 11
2898.637090909846
 21
217.4870666599525
 31
0.0
  0
LINE
  5
678B
330
A
100
AcDbEntity
  8
0
  6
Continuous
370
     0
100
AcDbLine
 10
2785.698337313032
 20
217.4870666599525
 30
0.0
 11
2785.790769148997
 21
224.7394417834378
 31
0.0
  0
LINE
  5
678C
330
A
100
AcDbEntity
  8
0
  6
Continuous
370
     0
100
AcDbLine
 10
2806.172488694785
 20
224.7394417834378
 30
0.0
 11
2806.080056859931
 21
217.4870666599525
 31
0.0
  0
LINE
  5
678D
330
A
100
AcDbEntity
  8
0
  6
Continuous
370
     0
100
AcDbLine
 10
2915.038344421312
 20
217.4870666599525
 30
0.0
 11
2915.130776256166
 21
224.7394417834378
 31
0.0
  0
LINE
  5
678E
330
A
100
AcDbEntity
  8
0
  6
Continuous
370
     0
100
AcDbLine
 10
2546.350486039414
 20
217.4870666599525
 30
0.0
 11
2546.442917874268
 21
224.7394417834378
 31
0.0
  0
LINE
  5
678F
330
A
100
AcDbEntity
  8
0
  6
Continuous
370
     0
100
AcDbLine
 10
2576.067247565362
 20
224.7394417834378
 30
0.0
 11
2575.974815730508
 21
217.4870666599525
 31
0.0
  0
LINE
  5
6790
330
A
100
AcDbEntity
  8
0
  6
Continuous
370
     0
100
AcDbLine
 10
2589.840141921576
 20
224.7394417834378
 30
0.0
 11
2587.910817218512
 21
217.4870666599525
 31
0.0
  0
LINE
  5
6791
330
A
100
AcDbEntity
  8
0
  6
Continuous
370
     0
100
AcDbLine
 10
2706.616194777865
 20
217.4870666599525
 30
0.0
 11
2706.708626612719
 21
224.7394417834378
 31
0.0
  0
LINE
  5
6792
330
A
100
AcDbEntity
  8
0
  6
Continuous
370
     0
100
AcDbLine
 10
2757.453514149528
 20
224.7394417834378
 30
0.0
 11
2757.361082313563
 21
217.4870666599525
 31
0.0
  0
LINE
  5
6793
330
A
100
AcDbEntity
  8
0
  6
Continuous
370
     0
100
AcDbLine
 10
2604.312070729977
 20
217.4870666599525
 30
0.0
 11
2604.40450256483
 21
224.7394417834378
 31
0.0
  0
LINE
  5
6794
330
A
100
AcDbEntity
  8
0
  6
Continuous
370
     0
100
AcDbLine
 10
2675.994836269199
 20
224.7394417834378
 30
0.0
 11
2675.902404434346
 21
217.4870666599525
 31
0.0
  0
LINE
  5
6795
330
A
100
AcDbEntity
  8
0
  6
Continuous
370
     0
100
AcDbLine
 10
2537.038586165168
 20
224.7394417834378
 30
0.0
 11
2538.200411379506
 21
217.4870666599525
 31
0.0
  0
LINE
  5
6796
330
A
100
AcDbEntity
  8
0
  6
Continuous
370
     0
100
AcDbLine
 10
2470.62886493268
 20
217.4870666599525
 30
0.0
 11
2469.467039719453
 21
224.7394417834378
 31
0.0
  0
LINE
  5
6797
330
A
100
AcDbEntity
  8
0
  6
Continuous
370
     0
100
AcDbLine
 10
3062.85958477381
 20
252.9190217979201
 30
0.0
 11
3076.991479894544
 21
252.9190217979201
 31
0.0
  0
LINE
  5
6798
330
A
100
AcDbEntity
  8
0
  6
Continuous
370
     0
100
AcDbLine
 10
3076.991479894544
 20
252.9190217979201
 30
0.0
 11
3084.701621587567
 21
252.9190217979201
 31
0.0
  0
LINE
  5
6799
330
A
100
AcDbEntity
  8
0
  6
Continuous
370
     0
100
AcDbLine
 10
2492.472908452304
 20
252.9190217979201
 30
0.0
 11
2506.604803573037
 21
252.9190217979201
 31
0.0
  0
LINE
  5
679A
330
A
100
AcDbEntity
  8
0
  6
Continuous
370
     0
100
AcDbLine
 10
2506.604803573037
 20
252.9190217979201
 30
0.0
 11
3038.251010203112
 21
252.9190217979201
 31
0.0
  0
LINE
  5
679B
330
A
100
AcDbEntity
  8
0
  6
Continuous
370
     0
100
AcDbLine
 10
3038.251010203112
 20
252.9190217979201
 30
0.0
 11
3052.382905323846
 21
252.9190217979201
 31
0.0
  0
LINE
  5
679C
330
A
100
AcDbEntity
  8
0
  6
Continuous
370
     0
100
AcDbLine
 10
2481.99622900234
 20
252.9190217979201
 30
0.0
 11
2492.472908452304
 21
252.9190217979201
 31
0.0
  0
LINE
  5
679D
330
A
100
AcDbEntity
  8
0
  6
Continuous
370
     0
100
AcDbLine
 10
3052.382905323846
 20
252.9190217979201
 30
0.0
 11
3062.85958477381
 21
252.9190217979201
 31
0.0
  0
LINE
  5
679E
330
A
100
AcDbEntity
  8
0
  6
Continuous
370
     0
100
AcDbLine
 10
2467.864333881606
 20
252.9190217979201
 30
0.0
 11
2481.99622900234
 21
252.9190217979201
 31
0.0
  0
LINE
  5
679F
330
A
100
AcDbEntity
  8
0
  6
Continuous
370
     0
100
AcDbLine
 10
2460.154192188581
 20
252.9190217979201
 30
0.0
 11
2467.864333881606
 21
252.9190217979201
 31
0.0
  0
CIRCLE
  5
67A0
330
A
100
AcDbEntity
  8
0
  6
Continuous
370
     0
100
AcDbCircle
 10
2453.159260979312
 20
237.5301731375291
 30
0.0
 40
2.148443157132513
  0
CIRCLE
  5
67A1
330
A
100
AcDbEntity
  8
0
  6
Continuous
370
     0
100
AcDbCircle
 10
3091.696552796836
 20
237.5301731375291
 30
0.0
 40
2.148443157132513
  0
ELLIPSE
  5
67A2
330
A
100
AcDbEntity
  8
0
  6
Continuous
370
     0
100
AcDbEllipse
 10
2540.335613516026
 20
218.4440036950959
 30
0.0
 11
-2.775766352884383E-14
 21
-3.697320782042004
 31
0.0
210
0.0
220
0.0
230
1.0
 40
0.5978718219
 41
4.974188368183793
 42
6.283185307179585
  0
LINE
  5
67A3
330
A
100
AcDbEntity
  8
0
  6
Continuous
370
     0
100
AcDbLine
 10
2539.657455336108
 20
224.7394417834378
 30
0.0
 11
2539.657455336108
 21
229.7358212186298
 31
0.0
  0
LINE
  5
67A4
330
A
100
AcDbEntity
  8
0
  6
Continuous
370
     0
100
AcDbLine
 10
2546.442917874268
 20
224.7394417834378
 30
0.0
 11
2546.380137986941
 21
229.5583365273915
 31
0.0
  0
LINE
  5
67A5
330
A
100
AcDbEntity
  8
0
  6
Continuous
370
     0
100
AcDbLine
 10
2506.604803573037
 20
224.7394417834378
 30
0.0
 11
2506.604803573037
 21
229.7358212186298
 31
0.0
  0
ELLIPSE
  5
67A6
330
A
100
AcDbEntity
  8
0
  6
Continuous
370
     0
100
AcDbEllipse
 10
2496.005882233042
 20
229.7358212186298
 30
0.0
 11
0.0
 21
-4.996379435191887
 31
0.0
210
0.0
220
0.0
230
1.0
 40
0.7071067812
 41
4.71238898038469
 42
6.283185307179585
  0
ELLIPSE
  5
67A7
330
A
100
AcDbEntity
  8
0
  6
Continuous
370
     0
100
AcDbEllipse
 10
2485.529202781968
 20
229.7358212186298
 30
0.0
 11
0.0
 21
-4.996379435191887
 31
0.0
210
0.0
220
0.0
230
1.0
 40
0.7071067812
 41
4.71238898038469
 42
6.283185307179585
  0
LINE
  5
67A8
330
A
100
AcDbEntity
  8
0
  6
Continuous
370
     0
100
AcDbLine
 10
2467.864333881606
 20
224.7394417834378
 30
0.0
 11
2467.864333881606
 21
229.7358212186298
 31
0.0
  0
ELLIPSE
  5
67A9
330
A
100
AcDbEntity
  8
0
  6
Continuous
370
     0
100
AcDbEllipse
 10
2546.180614831159
 20
218.4440036950959
 30
0.0
 11
0.0
 21
-3.697320782042001
 31
0.0
210
0.0
220
0.0
230
1.0
 40
0.0475651494
 41
0.0
 42
1.308996938995798
  0
ELLIPSE
  5
67AA
330
A
100
AcDbEntity
  8
0
  6
Continuous
370
     0
100
AcDbEllipse
 10
2472.7640670692
 20
218.4440036950959
 30
0.0
 11
0.0
 21
-3.697320782041988
 31
0.0
210
0.0
220
0.0
230
1.0
 40
0.5978718218999999
 41
4.974188368183789
 42
6.283185307179585
  0
ELLIPSE
  5
67AB
330
A
100
AcDbEntity
  8
0
  6
Continuous
370
     0
100
AcDbEllipse
 10
2575.804944522253
 20
218.4440036950959
 30
0.0
 11
0.0
 21
-3.69732078204201
 31
0.0
210
0.0
220
0.0
230
1.0
 40
0.0475651494
 41
0.0
 42
1.308996938995799
  0
ELLIPSE
  5
67AC
330
A
100
AcDbEntity
  8
0
  6
Continuous
370
     0
100
AcDbEllipse
 10
3010.322877193988
 20
218.4440036950959
 30
0.0
 11
2.775766352884383E-14
 21
-3.697320782042001
 31
0.0
210
0.0
220
0.0
230
1.0
 40
0.0475651494
 41
0.0
 42
1.308996938995798
  0
ELLIPSE
  5
67AD
330
A
100
AcDbEntity
  8
0
  6
Continuous
370
     0
100
AcDbEllipse
 10
3015.79336131062
 20
218.4440036950959
 30
0.0
 11
5.551532705768768E-14
 21
-3.697320782042
 31
0.0
210
0.0
220
0.0
230
1.0
 40
0.6516458860000001
 41
0.0
 42
1.308996938995788
  0
ELLIPSE
  5
67AE
330
A
100
AcDbEntity
  8
0
  6
Continuous
370
     0
100
AcDbEllipse
 10
2975.062545397946
 20
218.4440036950959
 30
0.0
 11
2.775766352884383E-14
 21
-3.697320782042004
 31
0.0
210
0.0
220
0.0
230
1.0
 40
0.0475651494
 41
0.0
 42
1.308996938995798
  0
ELLIPSE
  5
67AF
330
A
100
AcDbEntity
  8
0
  6
Continuous
370
     0
100
AcDbEllipse
 10
2914.868473213056
 20
218.4440036950959
 30
0.0
 11
0.0
 21
-3.697320782042004
 31
0.0
210
0.0
220
0.0
230
1.0
 40
0.0475651494
 41
0.0
 42
1.308996938995798
  0
ELLIPSE
  5
67B0
330
A
100
AcDbEntity
  8
0
  6
Continuous
370
     0
100
AcDbEllipse
 10
2944.348755054427
 20
218.4440036950959
 30
0.0
 11
0.0
 21
-3.697320782041997
 31
0.0
210
0.0
220
0.0
230
1.0
 40
0.0475651494
 41
0.0
 42
1.308996938995798
  0
ELLIPSE
  5
67B1
330
A
100
AcDbEntity
  8
0
  6
Continuous
370
     0
100
AcDbEllipse
 10
2836.623975995195
 20
218.4440036950959
 30
0.0
 11
0.0
 21
-3.697320782042004
 31
0.0
210
0.0
220
0.0
230
1.0
 40
0.0475651494
 41
0.0
 42
1.308996938995798
  0
ELLIPSE
  5
67B2
330
A
100
AcDbEntity
  8
0
  6
Continuous
370
     0
100
AcDbEllipse
 10
2886.531218213588
 20
218.4440036950959
 30
0.0
 11
1.332367849384504E-14
 21
-3.69732078204201
 31
0.0
210
0.0
220
0.0
230
1.0
 40
0.0475651494
 41
0.0
 42
1.308996938995798
  0
ELLIPSE
  5
67B3
330
A
100
AcDbEntity
  8
0
  6
Continuous
370
     0
100
AcDbEllipse
 10
2895.091378372314
 20
218.4440036950959
 30
0.0
 11
1.538884866039102E-12
 21
-3.697320782041986
 31
0.0
210
0.0
220
0.0
230
1.0
 40
0.9928247907999999
 41
0.0
 42
1.308996938995383
  0
ELLIPSE
  5
67B4
330
A
100
AcDbEntity
  8
0
  6
Continuous
370
     0
100
AcDbEllipse
 10
2757.191211105309
 20
218.4440036950959
 30
0.0
 11
0.0
 21
-3.69732078204199
 31
0.0
210
0.0
220
0.0
230
1.0
 40
0.0475651494
 41
0.0
 42
1.308996938995797
  0
ELLIPSE
  5
67B5
330
A
100
AcDbEntity
  8
0
  6
Continuous
370
     0
100
AcDbEllipse
 10
2765.751371265144
 20
218.4440036950959
 30
0.0
 11
-9.992758870383780E-15
 21
-3.697320782041942
 31
0.0
210
0.0
220
0.0
230
1.0
 40
0.9928247908
 41
0.0000000000000028
 42
1.308996938995796
  0
ELLIPSE
  5
67B6
330
A
100
AcDbEntity
  8
0
  6
Continuous
370
     0
100
AcDbEllipse
 10
2785.528466105888
 20
218.4440036950959
 30
0.0
 11
-2.220613082307506E-15
 21
-3.697320782042004
 31
0.0
210
0.0
220
0.0
230
1.0
 40
0.0475651494
 41
0.0
 42
1.308996938995798
  0
ELLIPSE
  5
67B7
330
A
100
AcDbEntity
  8
0
  6
Continuous
370
     0
100
AcDbEllipse
 10
2805.910185651676
 20
218.4440036950959
 30
0.0
 11
6.661839246922520E-15
 21
-3.697320782042009
 31
0.0
210
0.0
220
0.0
230
1.0
 40
0.0475651494
 41
0.0
 42
1.308996938995798
  0
ELLIPSE
  5
67B8
330
A
100
AcDbEntity
  8
0
  6
Continuous
370
     0
100
AcDbEllipse
 10
2706.44632356961
 20
218.4440036950959
 30
0.0
 11
-1.332367849384504E-14
 21
-3.697320782041997
 31
0.0
210
0.0
220
0.0
230
1.0
 40
0.0475651494
 41
0.0
 42
1.308996938995798
  0
ELLIPSE
  5
67B9
330
A
100
AcDbEntity
  8
0
  6
Continuous
370
     0
100
AcDbEllipse
 10
2604.142199521722
 20
218.4440036950959
 30
0.0
 11
2.775766352884383E-14
 21
-3.697320782041993
 31
0.0
210
0.0
220
0.0
230
1.0
 40
0.0475651494
 41
0.0
 42
1.308996938995797
  0
ELLIPSE
  5
67BA
330
A
100
AcDbEntity
  8
0
  6
Continuous
370
     0
100
AcDbEllipse
 10
2675.732533226091
 20
218.4440036950959
 30
0.0
 11
1.332367849384504E-14
 21
-3.69732078204201
 31
0.0
210
0.0
220
0.0
230
1.0
 40
0.0475651494
 41
0.0
 42
1.308996938995798
  0
ELLIPSE
  5
67BB
330
A
100
AcDbEntity
  8
0
  6
Continuous
370
     0
100
AcDbEllipse
 10
2584.365104682089
 20
218.4440036950959
 30
0.0
 11
-4.718802799903452E-13
 21
-3.697320782041986
 31
0.0
210
0.0
220
0.0
230
1.0
 40
0.9928247907999999
 41
0.0
 42
1.308996938995924
  0
LINE
  5
67BC
330
A
100
AcDbEntity
  8
0
  6
Continuous
370
     0
100
AcDbLine
 10
2574.128848239221
 20
224.7394417834378
 30
0.0
 11
2574.128848239221
 21
229.7358212186298
 31
0.0
  0
ELLIPSE
  5
67BD
330
A
100
AcDbEntity
  8
0
  6
Continuous
370
     0
100
AcDbEllipse
 10
3059.326610994181
 20
229.7358212186298
 30
0.0
 11
0.0
 21
-4.996379435191887
 31
0.0
210
0.0
220
0.0
230
1.0
 40
0.7071067812
 41
0.0
 42
1.570796326794833
  0
LINE
  5
67BE
330
A
100
AcDbEntity
  8
0
  6
Continuous
370
     0
100
AcDbLine
 10
3076.991479894544
 20
224.7394417834378
 30
0.0
 11
3076.991479894544
 21
229.7358212186298
 31
0.0
  0
LINE
  5
67BF
330
A
100
AcDbEntity
  8
0
  6
Continuous
370
     0
100
AcDbLine
 10
3062.85958477381
 20
229.7358212186298
 30
0.0
 11
3076.991479894544
 21
229.7358212186298
 31
0.0
  0
LINE
  5
67C0
330
A
100
AcDbEntity
  8
0
  6
Continuous
370
     0
100
AcDbLine
 10
2506.604803573037
 20
229.7358212186298
 30
0.0
 11
2539.657455336108
 21
229.7358212186298
 31
0.0
  0
LINE
  5
67C1
330
A
100
AcDbEntity
  8
0
  6
Continuous
370
     0
100
AcDbLine
 10
2539.657455336108
 20
229.7358212186298
 30
0.0
 11
2546.380137986941
 21
229.5583365273915
 31
0.0
  0
ARC
  5
67C2
330
A
100
AcDbEntity
  8
0
  6
Continuous
370
     0
100
AcDbCircle
 10
2573.877116769996
 20
-1900.17174771731
 30
0.0
 40
2129.907583811827
100
AcDbArc
 50
89.99322827389963
 51
90.73970561519941
  0
LINE
  5
67C3
330
A
100
AcDbEntity
  8
0
  6
Continuous
370
     0
100
AcDbLine
 10
3038.251010203112
 20
229.7358212186298
 30
0.0
 11
3052.382905323846
 21
229.7358212186298
 31
0.0
  0
LINE
  5
67C4
330
A
100
AcDbEntity
  8
0
  6
Continuous
370
     0
100
AcDbLine
 10
3052.382905323846
 20
229.7358212186298
 30
0.0
 11
3062.85958477381
 21
229.7358212186298
 31
0.0
  0
LINE
  5
67C5
330
A
100
AcDbEntity
  8
0
  6
Continuous
370
     0
100
AcDbLine
 10
3076.991479894544
 20
229.7358212186298
 30
0.0
 11
3084.701621587567
 21
229.7358212186298
 31
0.0
  0
LINE
  5
67C6
330
A
100
AcDbEntity
  8
0
  6
Continuous
370
     0
100
AcDbLine
 10
2574.128848239221
 20
229.7358212186298
 30
0.0
 11
3038.251010203112
 21
229.7358212186298
 31
0.0
  0
LINE
  5
67C7
330
A
100
AcDbEntity
  8
0
  6
Continuous
370
     0
100
AcDbLine
 10
2492.472908452304
 20
229.7358212186298
 30
0.0
 11
2506.604803573037
 21
229.7358212186298
 31
0.0
  0
ENDSEC
  0
SECTION
  2
OBJECTS
  0
DICTIONARY
  5
19
330
0
100
AcDbDictionary
281
     1
  3
ACAD_CIP_PREVIOUS_PRODUCT_INFO
350
339B
  3
ACAD_COLOR
350
337E
  3
ACAD_DETAILVIEWSTYLE
350
3397
  3
ACAD_GROUP
350
1A
  3
ACAD_LAYOUT
350
1E
  3
ACAD_MATERIAL
350
334C
  3
ACAD_MLEADERSTYLE
350
3393
  3
ACAD_MLINESTYLE
350
1B
  3
ACAD_PLOTSETTINGS
350
22
  3
ACAD_PLOTSTYLENAME
350
1F
  3
ACAD_SCALELIST
350
3381
  3
ACAD_SECTIONVIEWSTYLE
350
3395
  3
ACAD_TABLESTYLE
350
337F
  3
ACAD_VISUALSTYLE
350
3365
  3
ACAD_WIPEOUT_VARS
350
23
  3
ACDBHEADERROUNDTRIPXREC
350
836A
  3
AcDbVariableDictionary
350
831C
  3
AcDsDecomposeData
350
83AC
  3
ASE_INDEX_DICTIONARY
350
81C1
  3
DWGPROPS
350
836D
  0
DICTIONARY
  5
836E
330
7
100
AcDbDictionary
280
     1
281
     1
  3
ACAD_XREC_ROUNDTRIP
360
836F
  0
DICTIONARY
  5
82D4
330
2
100
AcDbDictionary
280
     1
281
     1
  3
ACAD_LAYERSTATES
360
82D5
  0
DICTIONARY
  5
81BE
330
14
100
AcDbDictionary
280
     1
281
     1
  3
ADSK_XREC_LAYER_RECONCILED
360
81BF
  0
DICTIONARY
  5
5EDC
330
A
100
AcDbDictionary
280
     1
281
     1
  3
ACAD_SORTENTS
360
5EDD
  0
XRECORD
  5
339B
102
{ACAD_REACTORS
330
19
102
}
330
19
100
AcDbXrecord
280
     1
300
ACD
300
2014
300
ACD_F_S
  0
DICTIONARY
  5
337E
102
{ACAD_REACTORS
330
19
102
}
330
19
100
AcDbDictionary
281
     1
  0
DICTIONARY
  5
3397
102
{ACAD_REACTORS
330
19
102
}
330
19
100
AcDbDictionary
281
     1
  3
Imperial24
350
3398
  0
DICTIONARY
  5
1A
102
{ACAD_REACTORS
330
19
102
}
330
19
100
AcDbDictionary
281
     1
  0
DICTIONARY
  5
1E
102
{ACAD_REACTORS
330
19
102
}
330
19
100
AcDbDictionary
281
     1
  3
Layout1
350
21
  3
Model
350
20
  0
DICTIONARY
  5
334C
102
{ACAD_REACTORS
330
19
102
}
330
19
100
AcDbDictionary
281
     1
  3
ByBlock
350
3355
  3
ByLayer
350
334D
  3
Global
350
335D
  0
DICTIONARY
  5
3393
102
{ACAD_REACTORS
330
19
102
}
330
19
100
AcDbDictionary
281
     1
  3
Standard
350
3394
  0
DICTIONARY
  5
1B
102
{ACAD_REACTORS
330
19
102
}
330
19
100
AcDbDictionary
281
     1
  3
Standard
350
1C
  0
DICTIONARY
  5
22
102
{ACAD_REACTORS
330
19
102
}
330
19
100
AcDbDictionary
281
     1
  0
ACDBDICTIONARYWDFLT
  5
1F
102
{ACAD_REACTORS
330
19
102
}
330
19
100
AcDbDictionary
281
     1
  3
Normal
350
1D
100
AcDbDictionaryWithDefault
340
1D
  0
DICTIONARY
  5
3381
102
{ACAD_REACTORS
330
19
102
}
330
19
100
AcDbDictionary
281
     1
  3
A0
350
3382
  3
A1
350
3383
  3
A2
350
3384
  3
A3
350
3385
  3
A4
350
3386
  3
A5
350
3387
  3
A6
350
3388
  3
A7
350
3389
  3
A8
350
338A
  3
A9
350
338B
  3
B0
350
338C
  3
B1
350
338D
  3
B2
350
338E
  3
B3
350
338F
  3
B4
350
3390
  3
B5
350
3391
  3
B6
350
3392
  0
DICTIONARY
  5
3395
102
{ACAD_REACTORS
330
19
102
}
330
19
100
AcDbDictionary
281
     1
  3
Imperial24
350
3396
  0
DICTIONARY
  5
337F
102
{ACAD_REACTORS
330
19
102
}
330
19
100
AcDbDictionary
281
     1
  3
Standard
350
3380
  0
DICTIONARY
  5
3365
102
{ACAD_REACTORS
330
19
102
}
330
19
100
AcDbDictionary
281
     1
  3
2dWireframe
350
336B
  3
Basic
350
336A
  3
Brighten
350
3371
  3
ColorChange
350
3375
  3
Conceptual
350
336E
  3
Dim
350
3370
  3
EdgeColorOff
350
337D
  3
Facepattern
350
3374
  3
Flat
350
3366
  3
FlatWithEdges
350
3367
  3
Gouraud
350
3368
  3
GouraudWithEdges
350
3369
  3
Hidden
350
336D
  3
JitterOff
350
337B
  3
Linepattern
350
3373
  3
OverhangOff
350
337C
  3
Realistic
350
336F
  3
Shaded
350
337A
  3
Shaded with edges
350
3379
  3
Shades of Gray
350
3376
  3
Sketchy
350
3377
  3
Thicken
350
3372
  3
Wireframe
350
336C
  3
X-Ray
350
3378
  0
WIPEOUTVARIABLES
  5
23
330
19
100
AcDbWipeoutVariables
 70
     1
  0
DICTIONARY
  5
836A
102
{ACAD_REACTORS
330
19
102
}
330
19
100
AcDbDictionary
281
     1
  3
COLORDICT
350
836B
  3
MATERIALDICT
350
836C
  0
DICTIONARY
  5
831C
102
{ACAD_REACTORS
330
19
102
}
330
19
100
AcDbDictionary
281
     1
  3
CANNOSCALE
350
8322
  3
CMLEADERSTYLE
350
831E
  3
CTABLESTYLE
350
831D
  3
CVIEWDETAILSTYLE
350
831F
  3
CVIEWSECTIONSTYLE
350
8320
  3
DIMASSOC
350
8368
  3
HIDETEXT
350
8369
  3
LAYEREVAL
350
8324
  3
LAYERNOTIFY
350
8325
  3
LIGHTINGUNITS
350
8323
  3
MSLTSCALE
350
8321
  3
XCLIPFRAME
350
8367
  0
DICTIONARY
  5
83AC
102
{ACAD_REACTORS
330
19
102
}
330
19
100
AcDbDictionary
281
     1
  3
AcDsRecords
350
83AD
  3
AcDsSchemas
350
83AE
1001
ACAD
1070
     2
  0
DICTIONARY
  5
81C1
102
{ACAD_REACTORS
330
19
102
}
330
19
100
AcDbDictionary
281
     1
  3
ASEBlockHierarchyIndexRecord
350
81C3
1001
DCO15
1040
1794559282.463
  0
XRECORD
  5
836D
102
{ACAD_REACTORS
330
19
102
}
330
19
100
AcDbXrecord
280
     1
  1
DWGPROPS COOKIE
  2

  3

  4

  6

  7

  8
New
  9

300
=
301
=
302
=
303
=
304
=
305
=
306
=
307
=
308
=
309
=
 40
0.0
 41
2456573.488419028
 42
2459842.370300428
  1

 90
        0
  0
XRECORD
  5
836F
102
{ACAD_REACTORS
330
836E
102
}
330
836E
100
AcDbXrecord
280
     1
102
VTR_0.000_0.000_1.000_1.000_VISUALSTYLE
340
336B
102
VTR_0.000_0.000_1.000_1.000_GRIDDISPLAY
 70
     3
102
VTR_0.000_0.000_1.000_1.000_GRIDMAJOR
 70
     5
102
VTR_0.000_0.000_1.000_1.000_DEFAULTLIGHTING
280
     1
102
VTR_0.000_0.000_1.000_1.000_DEFAULTLIGHTINGTYPE
 70
     1
102
VTR_0.000_0.000_1.000_1.000_BRIGHTNESS
141
0.0
102
VTR_0.000_0.000_1.000_1.000_CONTRAST
142
0.0
  0
DICTIONARY
  5
82D5
102
{ACAD_REACTORS
330
82D4
102
}
330
82D4
100
AcDbDictionary
281
     1
  0
XRECORD
  5
81BF
102
{ACAD_REACTORS
330
81BE
102
}
330
81BE
100
AcDbXrecord
280
     1
290
     1
  0
SORTENTSTABLE
  5
5EDD
102
{ACAD_REACTORS
330
5EDC
102
}
330
5EDC
100
AcDbSortentsTable
330
A
331
98
  5
5AAB
331
A0
  5
5AAC
331
BA
  5
749F
331
CB
  5
770B
331
D3
  5
7D8B
331
DB
  5
81BD
331
655D
  5
74A0
331
655E
  5
74A1
331
655F
  5
74A2
331
6560
  5
74A3
331
6561
  5
74A4
331
6562
  5
74A5
331
6563
  5
74A6
331
6564
  5
74A7
331
6565
  5
74A8
331
6566
  5
74A9
331
6567
  5
74AA
331
6568
  5
74AB
331
6569
  5
74AC
331
656A
  5
74AD
331
656B
  5
74AE
331
656C
  5
74AF
331
656D
  5
74B0
331
656E
  5
74B1
331
656F
  5
74B2
331
6570
  5
74B3
331
6571
  5
74B4
331
6572
  5
74B5
331
6573
  5
74B6
331
6574
  5
74B7
331
6575
  5
74B8
331
6576
  5
74B9
331
6577
  5
74BA
331
6578
  5
74BB
331
6579
  5
74BC
331
657A
  5
74BD
331
657B
  5
74BE
331
657C
  5
74BF
331
657D
  5
74C0
331
657E
  5
74C1
331
657F
  5
74C2
331
6580
  5
74C3
331
6581
  5
74C4
331
6582
  5
74C5
331
6583
  5
74C6
331
6584
  5
74C7
331
6585
  5
74C8
331
6586
  5
74C9
331
6587
  5
74CA
331
6588
  5
74CB
331
6589
  5
74CC
331
658A
  5
74CD
331
658B
  5
74CE
331
658C
  5
74CF
331
658D
  5
74D0
331
658E
  5
74D1
331
658F
  5
74D2
331
6590
  5
74D3
331
6591
  5
74D4
331
6592
  5
74D5
331
6593
  5
74D6
331
6594
  5
74D7
331
6595
  5
74D8
331
6596
  5
74D9
331
6597
  5
74DA
331
6598
  5
74DB
331
6599
  5
74DC
331
659A
  5
74DD
331
659B
  5
74DE
331
659C
  5
74DF
331
659D
  5
74E0
331
659E
  5
74E1
331
659F
  5
74E2
331
65A0
  5
74E3
331
65A1
  5
74E4
331
65A2
  5
74E5
331
65A3
  5
74E6
331
65A4
  5
74E7
331
65A5
  5
74E8
331
65A6
  5
74E9
331
65A7
  5
74EA
331
65A8
  5
74EB
331
65A9
  5
74EC
331
65AA
  5
74ED
331
65AB
  5
74EE
331
65AC
  5
74EF
331
65AD
  5
74F0
331
65AE
  5
74F1
331
65AF
  5
74F2
331
65B0
  5
74F3
331
65B1
  5
74F4
331
65B2
  5
74F5
331
65B3
  5
74F6
331
65B4
  5
74F7
331
65B5
  5
74F8
331
65B6
  5
74F9
331
65B7
  5
74FA
331
65B8
  5
74FB
331
65B9
  5
74FC
331
65BA
  5
74FD
331
65BB
  5
74FE
331
65BC
  5
74FF
331
65BD
  5
7500
331
65BE
  5
7501
331
65BF
  5
7502
331
65C0
  5
7503
331
65C1
  5
7504
331
65C2
  5
7505
331
65C3
  5
7506
331
65C4
  5
7507
331
65C5
  5
7508
331
65C6
  5
7509
331
65C7
  5
750A
331
65C8
  5
750B
331
65C9
  5
750C
331
65CA
  5
750D
331
65CB
  5
750E
331
65CC
  5
750F
331
65CD
  5
7510
331
65CE
  5
7511
331
65CF
  5
7512
331
65D0
  5
7513
331
65D1
  5
7514
331
65D2
  5
7515
331
65D3
  5
7516
331
65D4
  5
7517
331
65D5
  5
7518
331
65D6
  5
7519
331
65D7
  5
751A
331
65D8
  5
751B
331
65D9
  5
751C
331
65DA
  5
751D
331
65DB
  5
751E
331
65DC
  5
751F
331
65DD
  5
7520
331
65DE
  5
7521
331
65DF
  5
7522
331
65E0
  5
7523
331
65E1
  5
7524
331
65E2
  5
7525
331
65E3
  5
7526
331
65E4
  5
7527
331
65E5
  5
7528
331
65E6
  5
7529
331
65E7
  5
752A
331
65E8
  5
752B
331
65E9
  5
752C
331
65EA
  5
752D
331
65EB
  5
752E
331
65EC
  5
752F
331
65ED
  5
7530
331
65EE
  5
7531
331
65EF
  5
7532
331
65F0
  5
7533
331
65F1
  5
7534
331
65F2
  5
7535
331
65F3
  5
7536
331
65F4
  5
7537
331
65F5
  5
7538
331
65F6
  5
7539
331
65F7
  5
753A
331
65F8
  5
753B
331
65F9
  5
753C
331
65FA
  5
753D
331
65FB
  5
753E
331
65FC
  5
753F
331
65FD
  5
7540
331
65FE
  5
7541
331
65FF
  5
7542
331
6600
  5
7543
331
6601
  5
7544
331
6602
  5
7545
331
6603
  5
7546
331
6604
  5
7547
331
6605
  5
7548
331
6606
  5
7549
331
6607
  5
754A
331
6608
  5
754B
331
6609
  5
754C
331
660A
  5
754D
331
660B
  5
754E
331
660C
  5
754F
331
660D
  5
7550
331
660E
  5
7551
331
660F
  5
7552
331
6610
  5
7553
331
6611
  5
7554
331
6612
  5
7555
331
6613
  5
7556
331
6614
  5
7557
331
6615
  5
7558
331
6616
  5
7559
331
6617
  5
755A
331
6618
  5
755B
331
6619
  5
755C
331
661A
  5
755D
331
661B
  5
755E
331
661C
  5
755F
331
661D
  5
7560
331
661E
  5
7561
331
661F
  5
7562
331
6620
  5
7563
331
6621
  5
7564
331
6622
  5
7565
331
6623
  5
7566
331
6624
  5
7567
331
6625
  5
7568
331
6626
  5
7569
331
6627
  5
756A
331
6628
  5
756B
331
6629
  5
756C
331
662A
  5
756D
331
662B
  5
756E
331
662C
  5
756F
331
662D
  5
7570
331
662E
  5
7571
331
662F
  5
7572
331
6630
  5
7573
331
6631
  5
7574
331
6632
  5
7575
331
6633
  5
7576
331
6634
  5
7577
331
6635
  5
7578
331
6636
  5
7579
331
6637
  5
757A
331
6638
  5
757B
331
6639
  5
757C
331
663A
  5
757D
331
663B
  5
757E
331
663C
  5
757F
331
663D
  5
7580
331
663E
  5
7581
331
663F
  5
7582
331
6640
  5
7583
331
6641
  5
7584
331
6642
  5
7585
331
6643
  5
7586
331
6644
  5
7587
331
6645
  5
7588
331
6646
  5
7589
331
6647
  5
758A
331
6648
  5
758B
331
6649
  5
758C
331
664A
  5
758D
331
664B
  5
758E
331
664C
  5
758F
331
664D
  5
7590
331
664E
  5
7591
331
664F
  5
7592
331
6650
  5
7593
331
6651
  5
7594
331
6652
  5
7595
331
6653
  5
7596
331
6654
  5
7597
331
6655
  5
7598
331
6656
  5
7599
331
6657
  5
759A
331
6658
  5
759B
331
6659
  5
759C
331
665A
  5
759D
331
665B
  5
759E
331
665C
  5
759F
331
665D
  5
75A0
331
665E
  5
75A1
331
665F
  5
75A2
331
6660
  5
75A3
331
6661
  5
75A4
331
6662
  5
75A5
331
6663
  5
75A6
331
6664
  5
75A7
331
6665
  5
75A8
331
6666
  5
75A9
331
6667
  5
75AA
331
6668
  5
75AB
331
6669
  5
75AC
331
666A
  5
75AD
331
666B
  5
75AE
331
666C
  5
75AF
331
666D
  5
75B0
331
666E
  5
75B1
331
666F
  5
75B2
331
6670
  5
75B3
331
6671
  5
75B4
331
6672
  5
75B5
331
6673
  5
75B6
331
6674
  5
75B7
331
6675
  5
75B8
331
6676
  5
75B9
331
6677
  5
75BA
331
6678
  5
75BB
331
6679
  5
75BC
331
667A
  5
75BD
331
667B
  5
75BE
331
667C
  5
75BF
331
667D
  5
75C0
331
667E
  5
75C1
331
667F
  5
75C2
331
6680
  5
75C3
331
6681
  5
75C4
331
6682
  5
75C5
331
6683
  5
75C6
331
6684
  5
75C7
331
6685
  5
75C8
331
6686
  5
75C9
331
6687
  5
75CA
331
6688
  5
75CB
331
6689
  5
75CC
331
668A
  5
75CD
331
668B
  5
75CE
331
668C
  5
75CF
331
668D
  5
75D0
331
668E
  5
75D1
331
668F
  5
75D2
331
6690
  5
75D3
331
6691
  5
75D4
331
6692
  5
75D5
331
6693
  5
75D6
331
6694
  5
75D7
331
6695
  5
75D8
331
6696
  5
75D9
331
6697
  5
75DA
331
6698
  5
75DB
331
6699
  5
75DC
331
669A
  5
75DD
331
669B
  5
75DE
331
669C
  5
75DF
331
669D
  5
75E0
331
669E
  5
75E1
331
669F
  5
75E2
331
66A0
  5
75E3
331
66A1
  5
75E4
331
66A2
  5
75E5
331
66A3
  5
75E6
331
66A4
  5
75E7
331
66A5
  5
75E8
331
66A6
  5
75E9
331
66A7
  5
75EA
331
66A8
  5
75EB
331
66A9
  5
75EC
331
66AA
  5
75ED
331
66AB
  5
75EE
331
66AC
  5
75EF
331
66AD
  5
75F0
331
66AE
  5
75F1
331
66AF
  5
75F2
331
66B0
  5
75F3
331
66B1
  5
75F4
331
66B2
  5
75F5
331
66B3
  5
75F6
331
66B4
  5
75F7
331
66B5
  5
75F8
331
66B6
  5
75F9
331
66B7
  5
75FA
331
66B8
  5
75FB
331
66B9
  5
75FC
331
66BA
  5
75FD
331
66BB
  5
75FE
331
66BC
  5
75FF
331
66BD
  5
7600
331
66BE
  5
7601
331
66BF
  5
7602
331
66C0
  5
7603
331
66C1
  5
7604
331
66C2
  5
7605
331
66C3
  5
7606
331
66C4
  5
7607
331
66C5
  5
7608
331
66C6
  5
7609
331
66C7
  5
760A
331
66C8
  5
760B
331
66C9
  5
760C
331
66CA
  5
760D
331
66CB
  5
760E
331
66CC
  5
760F
331
66CD
  5
7610
331
66CE
  5
7611
331
66CF
  5
7612
331
66D0
  5
7613
331
66D1
  5
7614
331
66D2
  5
7615
331
66D3
  5
7616
331
66D4
  5
7617
331
66D5
  5
7618
331
66D6
  5
7619
331
66D7
  5
761A
331
66D8
  5
761B
331
66D9
  5
761C
331
66DA
  5
761D
331
66DB
  5
761E
331
66DC
  5
761F
331
66DD
  5
7620
331
66DE
  5
7621
331
66DF
  5
7622
331
66E0
  5
7623
331
66E1
  5
7624
331
66E2
  5
7625
331
66E3
  5
7626
331
66E4
  5
7627
331
66E5
  5
7628
331
66E6
  5
7629
331
66E7
  5
762A
331
66E8
  5
762B
331
66E9
  5
762C
331
66EA
  5
762D
331
66EB
  5
762E
331
66EC
  5
762F
331
66ED
  5
7630
331
66EE
  5
7631
331
66EF
  5
7632
331
66F0
  5
7633
331
66F1
  5
7634
331
66F2
  5
7635
331
66F3
  5
7636
331
66F4
  5
7637
331
66F5
  5
7638
331
66F6
  5
7639
331
66F7
  5
763A
331
66F8
  5
763B
331
66F9
  5
763C
331
66FA
  5
763D
331
66FB
  5
763E
331
66FC
  5
763F
331
66FD
  5
7640
331
66FE
  5
7641
331
66FF
  5
7642
331
6700
  5
7643
331
6701
  5
7644
331
6702
  5
7645
331
6703
  5
7646
331
6704
  5
7647
331
6705
  5
7648
331
6706
  5
7649
331
6707
  5
764A
331
6708
  5
764B
331
6709
  5
764C
331
670A
  5
764D
331
670B
  5
764E
331
670C
  5
764F
331
670D
  5
7650
331
670E
  5
7651
331
670F
  5
7652
331
6710
  5
7653
331
6711
  5
7654
331
6712
  5
7655
331
6713
  5
7656
331
6714
  5
7657
331
6715
  5
7658
331
6716
  5
7659
331
6717
  5
765A
331
6718
  5
765B
331
6719
  5
765C
331
671A
  5
765D
331
671B
  5
765E
331
671C
  5
765F
331
671D
  5
7660
331
671E
  5
7661
331
671F
  5
7662
331
6720
  5
7663
331
6721
  5
7664
331
6722
  5
7665
331
6723
  5
7666
331
6724
  5
7667
331
6725
  5
7668
331
6726
  5
7669
331
6727
  5
766A
331
6728
  5
766B
331
6729
  5
766C
331
672A
  5
766D
331
672B
  5
766E
331
672C
  5
766F
331
672D
  5
7670
331
672E
  5
7671
331
672F
  5
7672
331
6730
  5
7673
331
6731
  5
7674
331
6732
  5
7675
331
6733
  5
7676
331
6734
  5
7677
331
6735
  5
7678
331
6736
  5
7679
331
6737
  5
767A
331
6738
  5
767B
331
6739
  5
767C
331
673A
  5
767D
331
673B
  5
767E
331
673C
  5
767F
331
673D
  5
7680
331
673E
  5
7681
331
673F
  5
7682
331
6740
  5
7683
331
6741
  5
7684
331
6742
  5
7685
331
6743
  5
7686
331
6744
  5
7687
331
6745
  5
7688
331
6746
  5
7689
331
6747
  5
768A
331
6748
  5
768B
331
6749
  5
768C
331
674A
  5
768D
331
674B
  5
768E
331
674C
  5
768F
331
674D
  5
7690
331
674E
  5
7691
331
674F
  5
7692
331
6750
  5
7693
331
6751
  5
7694
331
6752
  5
7695
331
6753
  5
7696
331
6754
  5
7697
331
6755
  5
7698
331
6756
  5
7699
331
6757
  5
769A
331
6758
  5
769B
331
6759
  5
769C
331
675A
  5
769D
331
675B
  5
769E
331
675C
  5
769F
331
675D
  5
76A0
331
675E
  5
76A1
331
675F
  5
76A2
331
6760
  5
76A3
331
6761
  5
76A4
331
6762
  5
76A5
331
6763
  5
76A6
331
6764
  5
76A7
331
6765
  5
76A8
331
6766
  5
76A9
331
6767
  5
76AA
331
6768
  5
76AB
331
6769
  5
76AC
331
676A
  5
76AD
331
676B
  5
76AE
331
676C
  5
76AF
331
676D
  5
76B0
331
676E
  5
76B1
331
676F
  5
76B2
331
6770
  5
76B3
331
6771
  5
76B4
331
6772
  5
76B5
331
6773
  5
76B6
331
6774
  5
76B7
331
6775
  5
76B8
331
6776
  5
76B9
331
6777
  5
76BA
331
6778
  5
76BB
331
6779
  5
76BC
331
677A
  5
76BD
331
677B
  5
76BE
331
677C
  5
76BF
331
677D
  5
76C0
331
677E
  5
76C1
331
677F
  5
76C2
331
6780
  5
76C3
331
6781
  5
76C4
331
6782
  5
76C5
331
6783
  5
76C6
331
6784
  5
76C7
331
6785
  5
76C8
331
6786
  5
76C9
331
6787
  5
76CA
331
6788
  5
76CB
331
6789
  5
76CC
331
678A
  5
76CD
331
678B
  5
76CE
331
678C
  5
76CF
331
678D
  5
76D0
331
678E
  5
76D1
331
678F
  5
76D2
331
6790
  5
76D3
331
6791
  5
76D4
331
6792
  5
76D5
331
6793
  5
76D6
331
6794
  5
76D7
331
6795
  5
76D8
331
6796
  5
76D9
331
6797
  5
76DA
331
6798
  5
76DB
331
6799
  5
76DC
331
679A
  5
76DD
331
679B
  5
76DE
331
679C
  5
76DF
331
679D
  5
76E0
331
679E
  5
76E1
331
679F
  5
76E2
331
67A0
  5
76E3
331
67A1
  5
76E4
331
67A2
  5
76E5
331
67A3
  5
76E6
331
67A4
  5
76E7
331
67A5
  5
76E8
331
67A6
  5
76E9
331
67A7
  5
76EA
331
67A8
  5
76EB
331
67A9
  5
76EC
331
67AA
  5
76ED
331
67AB
  5
76EE
331
67AC
  5
76EF
331
67AD
  5
76F0
331
67AE
  5
76F1
331
67AF
  5
76F2
331
67B0
  5
76F3
331
67B1
  5
76F4
331
67B2
  5
76F5
331
67B3
  5
76F6
331
67B4
  5
76F7
331
67B5
  5
76F8
331
67B6
  5
76F9
331
67B7
  5
76FA
331
67B8
  5
76FB
331
67B9
  5
76FC
331
67BA
  5
76FD
331
67BB
  5
76FE
331
67BC
  5
76FF
331
67BD
  5
7700
331
67BE
  5
7701
331
67BF
  5
7702
331
67C0
  5
7703
331
67C1
  5
7704
331
67C2
  5
7705
331
67C3
  5
7706
331
67C4
  5
7707
331
67C5
  5
7708
331
67C6
  5
7709
331
67C7
  5
770A
  0
ACDBDETAILVIEWSTYLE
  5
3398
102
{ACAD_REACTORS
330
3397
102
}
102
{ACAD_XDICTIONARY
360
8365
102
}
330
3397
100
AcDbModelDocViewStyle
 70
     0
  3
Imperial24
290
     0
100
AcDbDetailViewStyle
 70
     0
 71
     0
 90
        3
 71
     1
340
17
 40
0.24
340
0
 40
0.24
300

 40
0.36
280
     3
 71
     2
340
13
 90
       25
 71
     3
340
17
 40
0.24
 90
        1
 40
0.75
 90
        1
300
%<\AcVar ViewType \f "%tc1">% %<\AcVar ViewDetailId>%\PSCALE %<\AcVar ViewScale \f "%sn">%
 71
     4
340
13
 90
       25
340
13
 90
       25
280
     0
  0
LAYOUT
  5
21
102
{ACAD_REACTORS
330
1E
102
}
330
1E
100
AcDbPlotSettings
  1

  2

  4

  6

 40
0.0
 41
0.0
 42
0.0
 43
0.0
 44
0.0
 45
0.0
 46
0.0
 47
0.0
 48
0.0
 49
0.0
140
0.0
141
0.0
142
1.0
143
1.0
 70
     0
 72
     0
 73
     0
 74
     0
  7

 75
     0
147
1.0
148
0.0
149
0.0
100
AcDbLayout
  1
Layout1
 70
     0
 71
     1
 10
0.0
 20
0.0
 11
12.0
 21
9.0
 12
0.0
 22
0.0
 32
0.0
 14
1.000000000000000E+20
 24
1.000000000000000E+20
 34
1.000000000000000E+20
 15
-1.000000000000000E+20
 25
-1.000000000000000E+20
 35
-1.000000000000000E+20
146
0.0
 13
0.0
 23
0.0
 33
0.0
 16
1.0
 26
0.0
 36
0.0
 17
0.0
 27
1.0
 37
0.0
 76
     0
330
B
  0
LAYOUT
  5
20
102
{ACAD_REACTORS
330
1E
102
}
102
{ACAD_XDICTIONARY
360
8371
102
}
330
1E
100
AcDbPlotSettings
  1

  2

  4

  6

 40
0.0
 41
0.0
 42
0.0
 43
0.0
 44
0.0
 45
0.0
 46
0.0
 47
0.0
 48
0.0
 49
0.0
140
0.0
141
0.0
142
1.0
143
1.0
 70
  1024
 72
     0
 73
     0
 74
     0
  7

 75
     0
147
1.0
148
0.0
149
0.0
100
AcDbLayout
  1
Model
 70
     0
 71
     0
 10
0.0
 20
0.0
 11
0.0
 21
0.0
 12
0.0
 22
0.0
 32
0.0
 14
0.0
 24
0.0
 34
0.0
 15
0.0
 25
0.0
 35
0.0
146
0.0
 13
0.0
 23
0.0
 33
0.0
 16
0.0
 26
0.0
 36
0.0
 17
0.0
 27
0.0
 37
0.0
 76
     0
330
A
331
15
  0
MATERIAL
  5
3355
102
{ACAD_REACTORS
330
334C
102
}
102
{ACAD_XDICTIONARY
360
8373
102
}
330
334C
100
AcDbMaterial
  1
ByBlock
 72
     0
 73
     2
 43
0.0208333333333333
 43
0.0
 43
0.0
 43
0.0
 43
0.0
 43
0.0208333333333333
 43
0.0
 43
0.0
 43
0.0
 43
0.0
 43
1.0
 43
0.0
 43
0.0
 43
0.0
 43
0.0
 43
1.0
 77
     0
 78
     2
 47
0.0208333333333333
 47
0.0
 47
0.0
 47
0.0
 47
0.0
 47
0.0208333333333333
 47
0.0
 47
0.0
 47
0.0
 47
0.0
 47
1.0
 47
0.0
 47
0.0
 47
0.0
 47
0.0
 47
1.0
171
     0
172
     2
 49
0.0208333333333333
 49
0.0
 49
0.0
 49
0.0
 49
0.0
 49
0.0208333333333333
 49
0.0
 49
0.0
 49
0.0
 49
0.0
 49
1.0
 49
0.0
 49
0.0
 49
0.0
 49
0.0
 49
1.0
175
     0
176
     2
142
0.0208333333333333
142
0.0
142
0.0
142
0.0
142
0.0
142
0.0208333333333333
142
0.0
142
0.0
142
0.0
142
0.0
142
1.0
142
0.0
142
0.0
142
0.0
142
0.0
142
1.0
179
     0
270
     2
144
0.0208333333333333
144
0.0
144
0.0
144
0.0
144
0.0
144
0.0208333333333333
144
0.0
144
0.0
144
0.0
144
0.0
144
1.0
144
0.0
144
0.0
144
0.0
144
0.0
144
1.0
274
     2
147
0.0208333333333333
147
0.0
147
0.0
147
0.0
147
0.0
147
0.0208333333333333
147
0.0
147
0.0
147
0.0
147
0.0
147
1.0
147
0.0
147
0.0
147
0.0
147
0.0
147
1.0
  0
MATERIAL
  5
334D
102
{ACAD_REACTORS
330
334C
102
}
102
{ACAD_XDICTIONARY
360
8375
102
}
330
334C
100
AcDbMaterial
  1
ByLayer
 72
     0
 73
     2
 43
0.0208333333333333
 43
0.0
 43
0.0
 43
0.0
 43
0.0
 43
0.0208333333333333
 43
0.0
 43
0.0
 43
0.0
 43
0.0
 43
1.0
 43
0.0
 43
0.0
 43
0.0
 43
0.0
 43
1.0
 77
     0
 78
     2
 47
0.0208333333333333
 47
0.0
 47
0.0
 47
0.0
 47
0.0
 47
0.0208333333333333
 47
0.0
 47
0.0
 47
0.0
 47
0.0
 47
1.0
 47
0.0
 47
0.0
 47
0.0
 47
0.0
 47
1.0
171
     0
172
     2
 49
0.0208333333333333
 49
0.0
 49
0.0
 49
0.0
 49
0.0
 49
0.0208333333333333
 49
0.0
 49
0.0
 49
0.0
 49
0.0
 49
1.0
 49
0.0
 49
0.0
 49
0.0
 49
0.0
 49
1.0
175
     0
176
     2
142
0.0208333333333333
142
0.0
142
0.0
142
0.0
142
0.0
142
0.0208333333333333
142
0.0
142
0.0
142
0.0
142
0.0
142
1.0
142
0.0
142
0.0
142
0.0
142
0.0
142
1.0
179
     0
270
     2
144
0.0208333333333333
144
0.0
144
0.0
144
0.0
144
0.0
144
0.0208333333333333
144
0.0
144
0.0
144
0.0
144
0.0
144
1.0
144
0.0
144
0.0
144
0.0
144
0.0
144
1.0
274
     2
147
0.0208333333333333
147
0.0
147
0.0
147
0.0
147
0.0
147
0.0208333333333333
147
0.0
147
0.0
147
0.0
147
0.0
147
1.0
147
0.0
147
0.0
147
0.0
147
0.0
147
1.0
  0
MATERIAL
  5
335D
102
{ACAD_REACTORS
330
334C
102
}
102
{ACAD_XDICTIONARY
360
8377
102
}
330
334C
100
AcDbMaterial
  1
Global
 72
     0
 73
     2
 43
0.0208333333333333
 43
0.0
 43
0.0
 43
0.0
 43
0.0
 43
0.0208333333333333
 43
0.0
 43
0.0
 43
0.0
 43
0.0
 43
1.0
 43
0.0
 43
0.0
 43
0.0
 43
0.0
 43
1.0
 77
     0
 78
     2
 47
0.0208333333333333
 47
0.0
 47
0.0
 47
0.0
 47
0.0
 47
0.0208333333333333
 47
0.0
 47
0.0
 47
0.0
 47
0.0
 47
1.0
 47
0.0
 47
0.0
 47
0.0
 47
0.0
 47
1.0
171
     0
172
     2
 49
0.0208333333333333
 49
0.0
 49
0.0
 49
0.0
 49
0.0
 49
0.0208333333333333
 49
0.0
 49
0.0
 49
0.0
 49
0.0
 49
1.0
 49
0.0
 49
0.0
 49
0.0
 49
0.0
 49
1.0
175
     0
176
     2
142
0.0208333333333333
142
0.0
142
0.0
142
0.0
142
0.0
142
0.0208333333333333
142
0.0
142
0.0
142
0.0
142
0.0
142
1.0
142
0.0
142
0.0
142
0.0
142
0.0
142
1.0
179
     0
270
     2
144
0.0208333333333333
144
0.0
144
0.0
144
0.0
144
0.0
144
0.0208333333333333
144
0.0
144
0.0
144
0.0
144
0.0
144
1.0
144
0.0
144
0.0
144
0.0
144
0.0
144
1.0
274
     2
147
0.0208333333333333
147
0.0
147
0.0
147
0.0
147
0.0
147
0.0208333333333333
147
0.0
147
0.0
147
0.0
147
0.0
147
1.0
147
0.0
147
0.0
147
0.0
147
0.0
147
1.0
  0
MLEADERSTYLE
  5
3394
102
{ACAD_REACTORS
330
3393
102
}
102
{ACAD_XDICTIONARY
360
8379
102
}
330
3393
100
AcDbMLeaderStyle
170
     2
171
     1
172
     0
 90
        2
 40
0.0
 41
0.0
173
     1
 91
-1056964608
340
11
 92
       -2
290
     1
 42
0.09
291
     1
 43
0.36
  3
Standard
341
0
 44
0.18
300

342
17
174
     1
178
     6
175
     1
176
     0
 93
-1056964608
 45
0.18
292
     0
297
     0
 46
0.18
343
0
 94
-1056964608
 47
1.0
 49
1.0
140
1.0
293
     1
141
0.0
294
     1
177
     0
142
1.0
295
     0
296
     0
143
0.125
1001
ACAD_MLEADERVER
1070
     2
  0
MLINESTYLE
  5
1C
102
{ACAD_REACTORS
330
1B
102
}
330
1B
100
AcDbMlineStyle
  2
STANDARD
 70
     0
  3

 62
     0
 51
90.0
 52
90.0
 71
     2
 49
0.5
 62
   256
  6
BYLAYER
 49
-0.5
 62
   256
  6
BYLAYER
  0
ACDBPLACEHOLDER
  5
1D
102
{ACAD_REACTORS
330
1F
102
}
330
1F
  0
SCALE
  5
3382
102
{ACAD_REACTORS
330
3381
102
}
330
3381
100
AcDbScale
 70
     0
300
1:1
140
1.0
141
1.0
290
     1
  0
SCALE
  5
3383
102
{ACAD_REACTORS
330
3381
102
}
330
3381
100
AcDbScale
 70
     0
300
1/128" = 1'-0"
140
0.0078125
141
12.0
290
     0
  0
SCALE
  5
3384
102
{ACAD_REACTORS
330
3381
102
}
330
3381
100
AcDbScale
 70
     0
300
1/64" = 1'-0"
140
0.015625
141
12.0
290
     0
  0
SCALE
  5
3385
102
{ACAD_REACTORS
330
3381
102
}
330
3381
100
AcDbScale
 70
     0
300
1/32" = 1'-0"
140
0.03125
141
12.0
290
     0
  0
SCALE
  5
3386
102
{ACAD_REACTORS
330
3381
102
}
330
3381
100
AcDbScale
 70
     0
300
1/16" = 1'-0"
140
0.0625
141
12.0
290
     0
  0
SCALE
  5
3387
102
{ACAD_REACTORS
330
3381
102
}
330
3381
100
AcDbScale
 70
     0
300
3/32" = 1'-0"
140
0.09375
141
12.0
290
     0
  0
SCALE
  5
3388
102
{ACAD_REACTORS
330
3381
102
}
330
3381
100
AcDbScale
 70
     0
300
1/8" = 1'-0"
140
0.125
141
12.0
290
     0
  0
SCALE
  5
3389
102
{ACAD_REACTORS
330
3381
102
}
330
3381
100
AcDbScale
 70
     0
300
3/16" = 1'-0"
140
0.1875
141
12.0
290
     0
  0
SCALE
  5
338A
102
{ACAD_REACTORS
330
3381
102
}
330
3381
100
AcDbScale
 70
     0
300
1/4" = 1'-0"
140
0.25
141
12.0
290
     0
  0
SCALE
  5
338B
102
{ACAD_REACTORS
330
3381
102
}
330
3381
100
AcDbScale
 70
     0
300
3/8" = 1'-0"
140
0.375
141
12.0
290
     0
  0
SCALE
  5
338C
102
{ACAD_REACTORS
330
3381
102
}
330
3381
100
AcDbScale
 70
     0
300
1/2" = 1'-0"
140
0.5
141
12.0
290
     0
  0
SCALE
  5
338D
102
{ACAD_REACTORS
330
3381
102
}
330
3381
100
AcDbScale
 70
     0
300
3/4" = 1'-0"
140
0.75
141
12.0
290
     0
  0
SCALE
  5
338E
102
{ACAD_REACTORS
330
3381
102
}
330
3381
100
AcDbScale
 70
     0
300
1" = 1'-0"
140
1.0
141
12.0
290
     0
  0
SCALE
  5
338F
102
{ACAD_REACTORS
330
3381
102
}
330
3381
100
AcDbScale
 70
     0
300
1-1/2" = 1'-0"
140
1.5
141
12.0
290
     0
  0
SCALE
  5
3390
102
{ACAD_REACTORS
330
3381
102
}
330
3381
100
AcDbScale
 70
     0
300
3" = 1'-0"
140
3.0
141
12.0
290
     0
  0
SCALE
  5
3391
102
{ACAD_REACTORS
330
3381
102
}
330
3381
100
AcDbScale
 70
     0
300
6" = 1'-0"
140
6.0
141
12.0
290
     0
  0
SCALE
  5
3392
102
{ACAD_REACTORS
330
3381
102
}
330
3381
100
AcDbScale
 70
     0
300
1'-0" = 1'-0"
140
12.0
141
12.0
290
     0
  0
ACDBSECTIONVIEWSTYLE
  5
3396
102
{ACAD_REACTORS
330
3395
102
}
102
{ACAD_XDICTIONARY
360
8363
102
}
330
3395
100
AcDbModelDocViewStyle
 70
     0
  3
Imperial24
290
     0
100
AcDbSectionViewStyle
 70
     0
 71
     0
 90
       78
 71
     1
340
17
 40
0.24
340
0
340
0
 40
0.24
300
I, O, Q, S, X, Z
 40
0.48
 90
        3
 40
0.18
 90
        1
 71
     2
340
13
 90
       25
340
13
 90
       50
 40
0.24
 40
0.0
 40
0.24
 71
     3
340
17
 40
0.24
 90
        1
 40
0.75
 90
        1
300
%<\AcVar ViewType \f "%tc1">% %<\AcVar ViewSectionStartId>%-%<\AcVar ViewSectionEndId>%\PSCALE %<\AcVar ViewScale \f "%sn">%
 71
     4
300
ANSI31
 40
1.0
 90
        0
290
     0
290
     0
 90
        6
 40
0.0
 40
1.570796326794897
 40
0.2617993877991494
 40
1.308996938995747
 40
-0.2617993877991494
 40
1.832595714594046
  0
TABLESTYLE
  5
3380
102
{ACAD_REACTORS
330
337F
102
}
330
337F
100
AcDbTableStyle
  3
Standard
 70
     0
 71
     0
 40
0.06
 41
0.06
280
     0
281
     0
  7
Standard
140
0.18
170
     2
 62
     0
 63
   257
283
     0
274
    -2
284
     1
 64
     0
275
    -2
285
     1
 65
     0
276
    -2
286
     1
 66
     0
277
    -2
287
     1
 67
     0
278
    -2
288
     1
 68
     0
279
    -2
289
     1
 69
     0
  7
Standard
140
0.25
170
     5
 62
     0
 63
   257
283
     0
274
    -2
284
     1
 64
     0
275
    -2
285
     1
 65
     0
276
    -2
286
     1
 66
     0
277
    -2
287
     1
 67
     0
278
    -2
288
     1
 68
     0
279
    -2
289
     1
 69
     0
  7
Standard
140
0.18
170
     5
 62
     0
 63
   257
283
     0
274
    -2
284
     1
 64
     0
275
    -2
285
     1
 65
     0
276
    -2
286
     1
 66
     0
277
    -2
287
     1
 67
     0
278
    -2
288
     1
 68
     0
279
    -2
289
     1
 69
     0
  0
VISUALSTYLE
  5
336B
102
{ACAD_REACTORS
330
3365
102
}
102
{ACAD_XDICTIONARY
360
837C
102
}
330
3365
100
AcDbVisualStyle
  2
2dWireframe
 70
     4
 71
     0
 72
     2
 73
     0
 90
        0
 40
-0.6
 41
-30.0
 62
     5
 63
     7
 74
     1
 91
        4
 64
     7
 65
   257
 75
     1
175
     1
 42
1.0
 92
        0
 66
   257
 43
1.0
 76
     1
 77
     6
 78
     2
 67
     7
 79
     5
170
     0
171
     0
290
     0
174
     0
 93
        1
 44
0.0
173
     0
291
     0
 45
0.0
1001
ACAD
1000
AcDbSavedByObjectVersion
1070
     0
  0
VISUALSTYLE
  5
336A
102
{ACAD_REACTORS
330
3365
102
}
102
{ACAD_XDICTIONARY
360
837E
102
}
330
3365
100
AcDbVisualStyle
  2
Basic
 70
     7
 71
     1
 72
     0
 73
     1
 90
        0
 40
-0.6
 41
-30.0
 62
     5
 63
     7
 74
     0
 91
        4
 64
     7
 65
   257
 75
     1
175
     1
 42
1.0
 92
        8
 66
     7
 43
1.0
 76
     1
 77
     6
 78
     2
 67
     7
 79
     5
170
     0
171
     0
290
     0
174
     0
 93
        1
 44
0.0
173
     0
291
     1
 45
0.0
1001
ACAD
1000
AcDbSavedByObjectVersion
1070
     0
  0
VISUALSTYLE
  5
3371
102
{ACAD_REACTORS
330
3365
102
}
102
{ACAD_XDICTIONARY
360
8380
102
}
330
3365
100
AcDbVisualStyle
  2
Brighten
 70
    12
 71
     2
 72
     2
 73
     0
 90
        0
 40
-0.6
 41
-30.0
 62
     5
 63
     7
 74
     1
 91
        4
 64
     7
 65
   257
 75
     1
175
     1
 42
1.0
 92
        8
 66
     7
 43
1.0
 76
     1
 77
     6
 78
     2
 67
     7
 79
     5
170
     0
171
     0
290
     0
174
     0
 93
        1
 44
50.0
173
     0
291
     1
 45
0.0
1001
ACAD
1000
AcDbSavedByObjectVersion
1070
     0
  0
VISUALSTYLE
  5
3375
102
{ACAD_REACTORS
330
3365
102
}
102
{ACAD_XDICTIONARY
360
8382
102
}
330
3365
100
AcDbVisualStyle
  2
ColorChange
 70
    16
 71
     2
 72
     2
 73
     3
 90
        0
 40
-0.6
 41
-30.0
 62
     5
 63
     8
 74
     1
 91
        4
 64
     7
 65
   257
 75
     1
175
     1
 42
1.0
 92
        8
 66
     8
 43
1.0
 76
     1
 77
     6
 78
     2
 67
     7
 79
     5
170
     0
171
     0
290
     0
174
     0
 93
        1
 44
0.0
173
     0
291
     1
 45
0.0
1001
ACAD
1000
AcDbSavedByObjectVersion
1070
     0
  0
VISUALSTYLE
  5
336E
102
{ACAD_REACTORS
330
3365
102
}
102
{ACAD_XDICTIONARY
360
8384
102
}
330
3365
100
AcDbVisualStyle
  2
Conceptual
 70
     9
 71
     3
 72
     2
 73
     0
 90
        0
 40
-0.6
 41
-30.0
 62
     5
 63
     7
 74
     2
 91
        2
 64
     7
 65
   257
 75
     1
175
     1
 42
179.0
 92
        8
 66
     7
 43
1.0
 76
     1
 77
     6
 78
     2
 67
     7
 79
     3
170
     0
171
     0
290
     0
174
     0
 93
        1
 44
0.0
173
     0
291
     0
 45
0.0
1001
ACAD
1000
AcDbSavedByObjectVersion
1070
     0
  0
VISUALSTYLE
  5
3370
102
{ACAD_REACTORS
330
3365
102
}
102
{ACAD_XDICTIONARY
360
8386
102
}
330
3365
100
AcDbVisualStyle
  2
Dim
 70
    11
 71
     2
 72
     2
 73
     0
 90
        0
 40
-0.6
 41
-30.0
 62
     5
 63
     7
 74
     1
 91
        4
 64
     7
 65
   257
 75
     1
175
     1
 42
1.0
 92
        8
 66
     7
 43
1.0
 76
     1
 77
     6
 78
     2
 67
     7
 79
     5
170
     0
171
     0
290
     0
174
     0
 93
        1
 44
-50.0
173
     0
291
     1
 45
0.0
1001
ACAD
1000
AcDbSavedByObjectVersion
1070
     0
  0
VISUALSTYLE
  5
337D
102
{ACAD_REACTORS
330
3365
102
}
102
{ACAD_XDICTIONARY
360
8388
102
}
330
3365
100
AcDbVisualStyle
  2
EdgeColorOff
 70
    22
 71
     2
 72
     2
 73
     0
 90
        0
 40
-0.6
 41
-30.0
 62
     5
 63
     7
 74
     1
 91
        4
 64
     7
 65
   257
 75
     1
175
     1
 42
1.0
 92
        8
 66
     7
 43
1.0
 76
     1
 77
     6
 78
     2
 67
     7
 79
     5
170
     0
171
     0
290
     0
174
     0
 93
        1
 44
0.0
173
     0
291
     1
 45
0.0
1001
ACAD
1000
AcDbSavedByObjectVersion
1070
     0
  0
VISUALSTYLE
  5
3374
102
{ACAD_REACTORS
330
3365
102
}
102
{ACAD_XDICTIONARY
360
838A
102
}
330
3365
100
AcDbVisualStyle
  2
Facepattern
 70
    15
 71
     2
 72
     2
 73
     0
 90
        0
 40
-0.6
 41
-30.0
 62
     5
 63
     7
 74
     1
 91
        4
 64
     7
 65
   257
 75
     1
175
     1
 42
1.0
 92
        8
 66
     7
 43
1.0
 76
     1
 77
     6
 78
     2
 67
     7
 79
     5
170
     0
171
     0
290
     0
174
     0
 93
        1
 44
0.0
173
     0
291
     1
 45
0.0
1001
ACAD
1000
AcDbSavedByObjectVersion
1070
     0
  0
VISUALSTYLE
  5
3366
102
{ACAD_REACTORS
330
3365
102
}
102
{ACAD_XDICTIONARY
360
838C
102
}
330
3365
100
AcDbVisualStyle
  2
Flat
 70
     0
 71
     2
 72
     1
 73
     1
 90
        2
 40
-0.6
 41
30.0
 62
     5
 63
     7
 74
     0
 91
        0
 64
     7
 65
   257
 75
     1
175
     1
 42
1.0
 92
        8
 66
     7
 43
1.0
 76
     1
 77
     6
 78
     2
 67
     7
 79
     5
170
     0
171
     0
290
     0
174
     0
 93
       13
 44
0.0
173
     0
291
     1
 45
0.0
1001
ACAD
1000
AcDbSavedByObjectVersion
1070
     0
  0
VISUALSTYLE
  5
3367
102
{ACAD_REACTORS
330
3365
102
}
102
{ACAD_XDICTIONARY
360
838E
102
}
330
3365
100
AcDbVisualStyle
  2
FlatWithEdges
 70
     1
 71
     2
 72
     1
 73
     1
 90
        2
 40
-0.6
 41
30.0
 62
     5
 63
     7
 74
     1
 91
        0
 64
     7
 65
   257
 75
     1
175
     1
 42
1.0
 92
        0
 66
   257
 43
1.0
 76
     1
 77
     6
 78
     2
 67
     7
 79
     5
170
     0
171
     0
290
     0
174
     0
 93
       13
 44
0.0
173
     0
291
     1
 45
0.0
1001
ACAD
1000
AcDbSavedByObjectVersion
1070
     0
  0
VISUALSTYLE
  5
3368
102
{ACAD_REACTORS
330
3365
102
}
102
{ACAD_XDICTIONARY
360
8390
102
}
330
3365
100
AcDbVisualStyle
  2
Gouraud
 70
     2
 71
     2
 72
     2
 73
     1
 90
        2
 40
-0.6
 41
30.0
 62
     5
 63
     7
 74
     0
 91
        0
 64
     7
 65
   257
 75
     1
175
     1
 42
1.0
 92
        0
 66
     7
 43
1.0
 76
     1
 77
     6
 78
     2
 67
     7
 79
     5
170
     0
171
     0
290
     0
174
     0
 93
       13
 44
0.0
173
     0
291
     1
 45
0.0
1001
ACAD
1000
AcDbSavedByObjectVersion
1070
     0
  0
VISUALSTYLE
  5
3369
102
{ACAD_REACTORS
330
3365
102
}
102
{ACAD_XDICTIONARY
360
8392
102
}
330
3365
100
AcDbVisualStyle
  2
GouraudWithEdges
 70
     3
 71
     2
 72
     2
 73
     1
 90
        2
 40
-0.6
 41
30.0
 62
     5
 63
     7
 74
     1
 91
        0
 64
     7
 65
   257
 75
     1
175
     1
 42
1.0
 92
        0
 66
   257
 43
1.0
 76
     1
 77
     6
 78
     2
 67
     7
 79
     5
170
     0
171
     0
290
     0
174
     0
 93
       13
 44
0.0
173
     0
291
     1
 45
0.0
1001
ACAD
1000
AcDbSavedByObjectVersion
1070
     0
  0
VISUALSTYLE
  5
336D
102
{ACAD_REACTORS
330
3365
102
}
102
{ACAD_XDICTIONARY
360
8394
102
}
330
3365
100
AcDbVisualStyle
  2
Hidden
 70
     6
 71
     1
 72
     2
 73
     2
 90
        0
 40
-0.6
 41
-30.0
 62
     5
 63
     7
 74
     2
 91
        2
 64
     7
 65
   257
 75
     2
175
     1
 42
40.0
 92
        0
 66
   257
 43
1.0
 76
     1
 77
     6
 78
     2
 67
     7
 79
     3
170
     0
171
     0
290
     0
174
     0
 93
        1
 44
0.0
173
     0
291
     0
 45
0.0
1001
ACAD
1000
AcDbSavedByObjectVersion
1070
     0
  0
VISUALSTYLE
  5
337B
102
{ACAD_REACTORS
330
3365
102
}
102
{ACAD_XDICTIONARY
360
8396
102
}
330
3365
100
AcDbVisualStyle
  2
JitterOff
 70
    20
 71
     2
 72
     2
 73
     0
 90
        0
 40
-0.6
 41
-30.0
 62
     5
 63
     7
 74
     1
 91
        4
 64
     7
 65
   257
 75
     1
175
     1
 42
1.0
 92
       10
 66
     7
 43
1.0
 76
     1
 77
     6
 78
     2
 67
     7
 79
     5
170
     0
171
     0
290
     0
174
     0
 93
        1
 44
0.0
173
     0
291
     1
 45
0.0
1001
ACAD
1000
AcDbSavedByObjectVersion
1070
     0
  0
VISUALSTYLE
  5
3373
102
{ACAD_REACTORS
330
3365
102
}
102
{ACAD_XDICTIONARY
360
8398
102
}
330
3365
100
AcDbVisualStyle
  2
Linepattern
 70
    14
 71
     2
 72
     2
 73
     0
 90
        0
 40
-0.6
 41
-30.0
 62
     5
 63
     7
 74
     1
 91
        4
 64
     7
 65
   257
 75
     7
175
     7
 42
1.0
 92
        8
 66
     7
 43
1.0
 76
     1
 77
     6
 78
     2
 67
     7
 79
     5
170
     0
171
     0
290
     0
174
     0
 93
        1
 44
0.0
173
     0
291
     1
 45
0.0
1001
ACAD
1000
AcDbSavedByObjectVersion
1070
     0
  0
VISUALSTYLE
  5
337C
102
{ACAD_REACTORS
330
3365
102
}
102
{ACAD_XDICTIONARY
360
839A
102
}
330
3365
100
AcDbVisualStyle
  2
OverhangOff
 70
    21
 71
     2
 72
     2
 73
     0
 90
        0
 40
-0.6
 41
-30.0
 62
     5
 63
     7
 74
     1
 91
        4
 64
     7
 65
   257
 75
     1
175
     1
 42
1.0
 92
        9
 66
     7
 43
1.0
 76
     1
 77
     6
 78
     2
 67
     7
 79
     5
170
     0
171
     0
290
     0
174
     0
 93
        1
 44
0.0
173
     0
291
     1
 45
0.0
1001
ACAD
1000
AcDbSavedByObjectVersion
1070
     0
  0
VISUALSTYLE
  5
336F
102
{ACAD_REACTORS
330
3365
102
}
102
{ACAD_XDICTIONARY
360
839C
102
}
330
3365
100
AcDbVisualStyle
  2
Realistic
 70
     8
 71
     2
 72
     2
 73
     0
 90
        2
 40
-0.6
 41
30.0
 62
     5
 63
     7
 74
     0
 91
        0
 64
     7
 65
   257
 75
     1
175
     1
 42
1.0
 92
        8
 66
   257
 43
1.0
 76
     1
 77
     6
 78
     2
 67
     7
 79
     3
170
     0
171
     0
290
     0
174
     0
 93
       13
 44
0.0
173
     0
291
     0
 45
0.0
1001
ACAD
1000
AcDbSavedByObjectVersion
1070
     0
  0
VISUALSTYLE
  5
337A
102
{ACAD_REACTORS
330
3365
102
}
102
{ACAD_XDICTIONARY
360
839E
102
}
330
3365
100
AcDbVisualStyle
  2
Shaded
 70
    27
 71
     2
 72
     2
 73
     1
 90
        2
 40
-0.6
 41
30.0
 62
     5
 63
     7
 74
     0
 91
        4
 64
     7
 65
   257
 75
     1
175
     1
 42
1.0
 92
        8
 66
   257
 43
1.0
 76
     1
 77
     6
 78
     2
 67
     8
 79
     3
170
     0
171
     0
290
     0
174
     0
 93
        5
 44
0.0
173
     0
291
     0
 45
0.0
1001
ACAD
1000
AcDbSavedByObjectVersion
1070
     0
  0
VISUALSTYLE
  5
3379
102
{ACAD_REACTORS
330
3365
102
}
102
{ACAD_XDICTIONARY
360
83A0
102
}
330
3365
100
AcDbVisualStyle
  2
Shaded with edges
 70
    26
 71
     2
 72
     2
 73
     1
 90
        2
 40
-0.6
 41
30.0
 62
     5
 63
     7
 74
     1
 91
       10
 64
     7
 65
   257
 75
     2
175
     1
 42
1.0
 92
        8
 66
   257
 43
1.0
 76
     1
 77
     6
 78
     2
 67
     7
 79
     3
170
     0
171
     0
290
     0
174
     0
 93
        5
 44
0.0
173
     0
291
     0
 45
0.0
1001
ACAD
1000
AcDbSavedByObjectVersion
1070
     0
  0
VISUALSTYLE
  5
3376
102
{ACAD_REACTORS
330
3365
102
}
102
{ACAD_XDICTIONARY
360
83A2
102
}
330
3365
100
AcDbVisualStyle
  2
Shades of Gray
 70
    23
 71
     2
 72
     2
 73
     3
 90
        0
 40
-0.6
 41
-30.0
 62
     5
 63
     7
 74
     2
 91
        2
 64
     7
 65
     7
 75
     1
175
     1
 42
40.0
 92
        8
 66
     7
 43
1.0
 76
     1
 77
     6
 78
     2
 67
     7
 79
     3
170
     0
171
     0
290
     0
174
     0
 93
        1
 44
0.0
173
     0
291
     0
 45
0.0
1001
ACAD
1000
AcDbSavedByObjectVersion
1070
     0
  0
VISUALSTYLE
  5
3377
102
{ACAD_REACTORS
330
3365
102
}
102
{ACAD_XDICTIONARY
360
83A4
102
}
330
3365
100
AcDbVisualStyle
  2
Sketchy
 70
    24
 71
     1
 72
     2
 73
     2
 90
        0
 40
-0.6
 41
-30.0
 62
     5
 63
     7
 74
     2
 91
        2
 64
     7
 65
     7
 75
     1
175
     1
 42
40.0
 92
       11
 66
     7
 43
1.0
 76
     1
 77
     6
 78
     2
 67
     7
 79
     6
170
     0
171
     0
290
     0
174
     0
 93
        1
 44
0.0
173
     0
291
     0
 45
0.0
1001
ACAD
1000
AcDbSavedByObjectVersion
1070
     0
  0
VISUALSTYLE
  5
3372
102
{ACAD_REACTORS
330
3365
102
}
102
{ACAD_XDICTIONARY
360
83A6
102
}
330
3365
100
AcDbVisualStyle
  2
Thicken
 70
    13
 71
     2
 72
     2
 73
     0
 90
        0
 40
-0.6
 41
-30.0
 62
     5
 63
     7
 74
     1
 91
        4
 64
     7
 65
   257
 75
     1
175
     1
 42
1.0
 92
       12
 66
     7
 43
1.0
 76
     1
 77
     6
 78
     2
 67
     7
 79
     5
170
     0
171
     0
290
     0
174
     0
 93
        1
 44
0.0
173
     0
291
     1
 45
0.0
1001
ACAD
1000
AcDbSavedByObjectVersion
1070
     0
  0
VISUALSTYLE
  5
336C
102
{ACAD_REACTORS
330
3365
102
}
102
{ACAD_XDICTIONARY
360
83A8
102
}
330
3365
100
AcDbVisualStyle
  2
Wireframe
 70
     5
 71
     0
 72
     2
 73
     0
 90
        0
 40
-0.6
 41
-30.0
 62
     5
 63
     7
 74
     1
 91
        4
 64
     7
 65
   257
 75
     1
175
     1
 42
1.0
 92
        0
 66
   257
 43
1.0
 76
     1
 77
     6
 78
     2
 67
     7
 79
     3
170
     0
171
     0
290
     0
174
     0
 93
        1
 44
0.0
173
     0
291
     0
 45
0.0
1001
ACAD
1000
AcDbSavedByObjectVersion
1070
     0
  0
VISUALSTYLE
  5
3378
102
{ACAD_REACTORS
330
3365
102
}
102
{ACAD_XDICTIONARY
360
83AA
102
}
330
3365
100
AcDbVisualStyle
  2
X-Ray
 70
    25
 71
     2
 72
     2
 73
     1
 90
        1
 40
0.5
 41
-30.0
 62
     5
 63
     7
 74
     1
 91
        0
 64
     7
 65
   257
 75
     1
175
     1
 42
1.0
 92
        8
 66
     7
 43
1.0
 76
     1
 77
     6
 78
     2
 67
     7
 79
     3
170
     0
171
     0
290
     0
174
     0
 93
       13
 44
0.0
173
     0
291
     0
 45
0.0
1001
ACAD
1000
AcDbSavedByObjectVersion
1070
     0
  0
XRECORD
  5
836B
102
{ACAD_REACTORS
330
836A
102
}
330
836A
100
AcDbXrecord
280
     1
340
337E
  0
XRECORD
  5
836C
102
{ACAD_REACTORS
330
836A
102
}
330
836A
100
AcDbXrecord
280
     1
340
334C
  0
DICTIONARYVAR
  5
8322
102
{ACAD_REACTORS
330
831C
102
}
330
831C
100
DictionaryVariables
280
     0
  1
1:1
  0
DICTIONARYVAR
  5
831E
102
{ACAD_REACTORS
330
831C
102
}
330
831C
100
DictionaryVariables
280
     0
  1
Standard
  0
DICTIONARYVAR
  5
831D
102
{ACAD_REACTORS
330
831C
102
}
330
831C
100
DictionaryVariables
280
     0
  1
Standard
  0
DICTIONARYVAR
  5
831F
102
{ACAD_REACTORS
330
831C
102
}
330
831C
100
DictionaryVariables
280
     0
  1
Imperial24
  0
DICTIONARYVAR
  5
8320
102
{ACAD_REACTORS
330
831C
102
}
330
831C
100
DictionaryVariables
280
     0
  1
Imperial24
  0
DICTIONARYVAR
  5
8368
102
{ACAD_REACTORS
330
831C
102
}
330
831C
100
DictionaryVariables
280
     0
  1
1
  0
DICTIONARYVAR
  5
8369
102
{ACAD_REACTORS
330
831C
102
}
330
831C
100
DictionaryVariables
280
     0
  1
0
  0
DICTIONARYVAR
  5
8324
102
{ACAD_REACTORS
330
831C
102
}
330
831C
100
DictionaryVariables
280
     0
  1
1
  0
DICTIONARYVAR
  5
8325
102
{ACAD_REACTORS
330
831C
102
}
330
831C
100
DictionaryVariables
280
     0
  1
15
  0
DICTIONARYVAR
  5
8323
102
{ACAD_REACTORS
330
831C
102
}
330
831C
100
DictionaryVariables
280
     0
  1
0
  0
DICTIONARYVAR
  5
8321
102
{ACAD_REACTORS
330
831C
102
}
330
831C
100
DictionaryVariables
280
     0
  1
0
  0
DICTIONARYVAR
  5
8367
102
{ACAD_REACTORS
330
831C
102
}
330
831C
100
DictionaryVariables
280
     0
  1
2
  0
DICTIONARY
  5
83AD
102
{ACAD_REACTORS
330
83AC
102
}
330
83AC
100
AcDbDictionary
281
     1
  0
DICTIONARY
  5
83AE
102
{ACAD_REACTORS
330
83AC
102
}
330
83AC
100
AcDbDictionary
281
     1
  3
8796078885416
350
83AF
  3
8796078885432
350
83B0
  3
8796078885448
350
83B1
  3
8796078885464
350
83B2
  3
8796078885480
350
83B3
  3
8796078885496
350
83B4
  0
XRECORD
  5
81C3
102
{ACAD_REACTORS
330
81C1
102
}
330
81C1
100
AcDbXrecord
280
     1
330
98
330
A0
330
BA
330
CB
330
D3
330
DB
  0
DICTIONARY
  5
8365
330
3398
100
AcDbDictionary
280
     1
281
     1
  3
ACAD_XREC_ROUNDTRIP
360
8370
  0
DICTIONARY
  5
8371
330
20
100
AcDbDictionary
280
     1
281
     1
  3
ADSK_XREC_LAYOUTTHUMBNAIL
360
8372
  0
DICTIONARY
  5
8373
330
3355
100
AcDbDictionary
280
     1
281
     1
  3
ACAD_XREC_ROUNDTRIP
360
8374
  0
DICTIONARY
  5
8375
330
334D
100
AcDbDictionary
280
     1
281
     1
  3
ACAD_XREC_ROUNDTRIP
360
8376
  0
DICTIONARY
  5
8377
330
335D
100
AcDbDictionary
280
     1
281
     1
  3
ACAD_XREC_ROUNDTRIP
360
8378
  0
DICTIONARY
  5
8379
330
3394
100
AcDbDictionary
280
     1
281
     1
  3
ACAD_XREC_ROUNDTRIP
360
837A
  0
DICTIONARY
  5
8363
330
3396
100
AcDbDictionary
280
     1
281
     1
  3
ACAD_XREC_ROUNDTRIP
360
837B
  0
DICTIONARY
  5
837C
330
336B
100
AcDbDictionary
280
     1
281
     1
  3
ACAD_XREC_ROUNDTRIP
360
837D
  0
DICTIONARY
  5
837E
330
336A
100
AcDbDictionary
280
     1
281
     1
  3
ACAD_XREC_ROUNDTRIP
360
837F
  0
DICTIONARY
  5
8380
330
3371
100
AcDbDictionary
280
     1
281
     1
  3
ACAD_XREC_ROUNDTRIP
360
8381
  0
DICTIONARY
  5
8382
330
3375
100
AcDbDictionary
280
     1
281
     1
  3
ACAD_XREC_ROUNDTRIP
360
8383
  0
DICTIONARY
  5
8384
330
336E
100
AcDbDictionary
280
     1
281
     1
  3
ACAD_XREC_ROUNDTRIP
360
8385
  0
DICTIONARY
  5
8386
330
3370
100
AcDbDictionary
280
     1
281
     1
  3
ACAD_XREC_ROUNDTRIP
360
8387
  0
DICTIONARY
  5
8388
330
337D
100
AcDbDictionary
280
     1
281
     1
  3
ACAD_XREC_ROUNDTRIP
360
8389
  0
DICTIONARY
  5
838A
330
3374
100
AcDbDictionary
280
     1
281
     1
  3
ACAD_XREC_ROUNDTRIP
360
838B
  0
DICTIONARY
  5
838C
330
3366
100
AcDbDictionary
280
     1
281
     1
  3
ACAD_XREC_ROUNDTRIP
360
838D
  0
DICTIONARY
  5
838E
330
3367
100
AcDbDictionary
280
     1
281
     1
  3
ACAD_XREC_ROUNDTRIP
360
838F
  0
DICTIONARY
  5
8390
330
3368
100
AcDbDictionary
280
     1
281
     1
  3
ACAD_XREC_ROUNDTRIP
360
8391
  0
DICTIONARY
  5
8392
330
3369
100
AcDbDictionary
280
     1
281
     1
  3
ACAD_XREC_ROUNDTRIP
360
8393
  0
DICTIONARY
  5
8394
330
336D
100
AcDbDictionary
280
     1
281
     1
  3
ACAD_XREC_ROUNDTRIP
360
8395
  0
DICTIONARY
  5
8396
330
337B
100
AcDbDictionary
280
     1
281
     1
  3
ACAD_XREC_ROUNDTRIP
360
8397
  0
DICTIONARY
  5
8398
330
3373
100
AcDbDictionary
280
     1
281
     1
  3
ACAD_XREC_ROUNDTRIP
360
8399
  0
DICTIONARY
  5
839A
330
337C
100
AcDbDictionary
280
     1
281
     1
  3
ACAD_XREC_ROUNDTRIP
360
839B
  0
DICTIONARY
  5
839C
330
336F
100
AcDbDictionary
280
     1
281
     1
  3
ACAD_XREC_ROUNDTRIP
360
839D
  0
DICTIONARY
  5
839E
330
337A
100
AcDbDictionary
280
     1
281
     1
  3
ACAD_XREC_ROUNDTRIP
360
839F
  0
DICTIONARY
  5
83A0
330
3379
100
AcDbDictionary
280
     1
281
     1
  3
ACAD_XREC_ROUNDTRIP
360
83A1
  0
DICTIONARY
  5
83A2
330
3376
100
AcDbDictionary
280
     1
281
     1
  3
ACAD_XREC_ROUNDTRIP
360
83A3
  0
DICTIONARY
  5
83A4
330
3377
100
AcDbDictionary
280
     1
281
     1
  3
ACAD_XREC_ROUNDTRIP
360
83A5
  0
DICTIONARY
  5
83A6
330
3372
100
AcDbDictionary
280
     1
281
     1
  3
ACAD_XREC_ROUNDTRIP
360
83A7
  0
DICTIONARY
  5
83A8
330
336C
100
AcDbDictionary
280
     1
281
     1
  3
ACAD_XREC_ROUNDTRIP
360
83A9
  0
DICTIONARY
  5
83AA
330
3378
100
AcDbDictionary
280
     1
281
     1
  3
ACAD_XREC_ROUNDTRIP
360
83AB
  0
XRECORD
  5
83AF
102
{ACAD_REACTORS
330
83AE
102
}
330
83AE
100
AcDbXrecord
280
     1
  1
AcDb_Thumbnail_Schema
102
{ATTRRECORD
341
83B1
  2
AcDbDs::TreatedAsObjectData
280
     1
291
     1
102
ATTRRECORD}
102
{ATTRRECORD
341
83B2
  2
AcDbDs::Legacy
280
     1
291
     1
102
ATTRRECORD}
  2
AcDbDs::ID
280
    10
 91
        8
102
{ATTRRECORD
341
83B3
  2
AcDs:Indexable
280
     1
291
     1
102
ATTRRECORD}
102
{ATTRRECORD
341
83B4
  2
AcDbDs::HandleAttribute
280
     7
282
     1
102
ATTRRECORD}
  2
Thumbnail_Data
280
    15
 91
        0
  0
XRECORD
  5
83B0
102
{ACAD_REACTORS
330
83AE
102
}
330
83AE
100
AcDbXrecord
280
     1
  1
AcDb3DSolid_ASM_Data
102
{ATTRRECORD
341
83B1
  2
AcDbDs::TreatedAsObjectData
280
     1
291
     1
102
ATTRRECORD}
102
{ATTRRECORD
341
83B2
  2
AcDbDs::Legacy
280
     1
291
     1
102
ATTRRECORD}
  2
AcDbDs::ID
280
    10
 91
        8
102
{ATTRRECORD
341
83B3
  2
AcDs:Indexable
280
     1
291
     1
102
ATTRRECORD}
102
{ATTRRECORD
341
83B4
  2
AcDbDs::HandleAttribute
280
     7
282
     1
102
ATTRRECORD}
  2
ASM_Data
280
    15
 91
        0
  0
XRECORD
  5
83B1
102
{ACAD_REACTORS
330
83AE
102
}
330
83AE
100
AcDbXrecord
280
     1
  1
AcDbDs::TreatedAsObjectDataSchema
  2
AcDbDs::TreatedAsObjectData
280
     1
 91
        0
  0
XRECORD
  5
83B2
102
{ACAD_REACTORS
330
83AE
102
}
330
83AE
100
AcDbXrecord
280
     1
  1
AcDbDs::LegacySchema
  2
AcDbDs::Legacy
280
     1
 91
        0
  0
XRECORD
  5
83B3
102
{ACAD_REACTORS
330
83AE
102
}
330
83AE
100
AcDbXrecord
280
     1
  1
AcDbDs::IndexedPropertySchema
  2
AcDs:Indexable
280
     1
 91
        0
  0
XRECORD
  5
83B4
102
{ACAD_REACTORS
330
83AE
102
}
330
83AE
100
AcDbXrecord
280
     1
  1
AcDbDs::HandleAttributeSchema
  2
AcDbDs::HandleAttribute
280
     7
 91
        1
284
     1
  0
XRECORD
  5
8370
102
{ACAD_REACTORS
330
8365
102
}
330
8365
100
AcDbXrecord
280
     1
102
DISPLAYNAME
  1
Imperial24
102
FLAGS
 90
        0
  0
XRECORD
  5
8372
102
{ACAD_REACTORS
330
8371
102
}
330
8371
100
AcDbXrecord
280
     1
310
2800000000010000700000000100080000000000007000000100000001000000000100000000000000000000000000C8C8C8C8FF000000FF000000FF000000FF000000FF000000FF000000FF000000FF000000FF330000FF660000FF990000FFCC0000FFFF0000FF003300FF333300FF663300FF993300FFCC3300FFFF3300
310
FF006600FF336600FF666600FF996600FFCC6600FFFF6600FF009900FF339900FF669900FF999900FFCC9900FFFF9900FF00CC00FF33CC00FF66CC00FF99CC00FFCCCC00FFFFCC00FF00FF00FF33FF00FF66FF00FF99FF00FFCCFF00FFFFFF00FF000033FF330033FF660033FF990033FFCC0033FFFF0033FF003333FF3333
310
33FF663333FF993333FFCC3333FFFF3333FF006633FF336633FF666633FF996633FFCC6633FFFF6633FF009933FF339933FF669933FF999933FFCC9933FFFF9933FF00CC33FF33CC33FF66CC33FF99CC33FFCCCC33FFFFCC33FF00FF33FF33FF33FF66FF33FF99FF33FFCCFF33FFFFFF33FF000066FF330066FF660066FF99
310
0066FFCC0066FFFF0066FF003366FF333366FF663366FF993366FFCC3366FFFF3366FF006666FF336666FF666666FF996666FFCC6666FFFF6666FF009966FF339966FF669966FF999966FFCC9966FFFF9966FF00CC66FF33CC66FF66CC66FF99CC66FFCCCC66FFFFCC66FF00FF66FF33FF66FF66FF66FF99FF66FFCCFF66FF
310
FFFF66FF000099FF330099FF660099FF990099FFCC0099FFFF0099FF003399FF333399FF663399FF993399FFCC3399FFFF3399FF006699FF336699FF666699FF996699FFCC6699FFFF6699FF009999FF339999FF669999FF999999FFCC9999FFFF9999FF00CC99FF33CC99FF66CC99FF99CC99FFCCCC99FFFFCC99FF00FF99
310
FF33FF99FF66FF99FF99FF99FFCCFF99FFFFFF99FF0000CCFF3300CCFF6600CCFF9900CCFFCC00CCFFFF00CCFF0033CCFF3333CCFF6633CCFF9933CCFFCC33CCFFFF33CCFF0066CCFF3366CCFF6666CCFF9966CCFFCC66CCFFFF66CCFF0099CCFF3399CCFF6699CCFF9999CCFFCC99CCFFFF99CCFF00CCCCFF33CCCCFF66CC
310
CCFF99CCCCFFCCCCCCFFFFCCCCFF00FFCCFF33FFCCFF66FFCCFF99FFCCFFCCFFCCFFFFFFCCFF0000FFFF3300FFFF6600FFFF9900FFFFCC00FFFFFF00FFFF0033FFFF3333FFFF6633FFFF9933FFFFCC33FFFFFF33FFFF0066FFFF3366FFFF6666FFFF9966FFFFCC66FFFFFF66FFFF0099FFFF3399FFFF6699FFFF9999FFFFCC
310
99FFFFFF99FFFF00CCFFFF33CCFFFF66CCFFFF99CCFFFFCCCCFFFFFFCCFFFF00FFFFFF33FFFFFF66FFFFFF99FFFFFFCCFFFFFFFFFFFFFF000000FF0D0D0DFF1A1A1AFF282828FF353535FF434343FF505050FF5D5D5DFF6B6B6BFF787878FF868686FF939393FFA1A1A1FFAEAEAEFFBBBBBBFFC9C9C9FFD6D6D6FFE4E4E4FF
310
F1F1F1FFFFFFFFFF000000FF000000FF000000FF000000FF000000FF000000FF000000FF000000FF000000FF000000FF00000000000000000000000000000000000000000000000000000000000000000000000000000000000000000000000000000000000000000000000000000000000000000000000000000000000000
310
0000000000000000000000000000000000000000000000F5F5F5F5F5F500000000000000000000000000000000000000000000000000000000000000000000000000000000F5F5F5F5F5F500000000000000000000000000000000000000000000000000000000000000000000000000000000000000000000000000000000
310
00000000000000000000000000000000000000000000000000000000000000000000000000000000000000000000000000000000000000000000000000000000000000000000000000000000000000000000000000000000000000000000000000000000000000000000000000000000000000000000000000000000000000
310
00000000000000000000000000000000000000000000000000F5F5F5F5F5F500000000000000000000000000000000000000000000000000000000000000000000000000000000F5F5F5F5F5F50000000000000000000000000000000000000000000000000000000000000000000000000000000000000000000000000000
310
00000000000000000000000000000000000000000000000000000000000000000000000000000000000000000000000000000000000000000000000000000000000000000000000000000000000000000000000000000000000000000000000000000000000000000000000000000000000000000000000000000000000000
310
000000000000000000000000000000000000000000000000000000F5F500F5F5F500000000000000000000000000000000000000000000000000000000000000000000000000000000F5F5F500F5F5000000000000000000000000000000000000000000000000000000000000000000000000000000000000000000000000
310
00000000000000000000000000000000000000000000000000000000000000000000000000000000000000000000000000000000000000000000000000000000000000000000000000000000000000000000000000000000000000000000000000000000000000000000000000000000000000000000000000000000000000
310
0000000000000000000000000000000000000000000000000000000000F5F500F5F5F500000000000000000000000000000000000000000000000000000000000000000000000000000000F5F5F500F5F500000000000000000000000000000000000000000000000000000000000000000000000000000000000000000000
310
00000000000000000000000000000000000000000000000000000000000000000000000000000000000000000000000000000000000000000000000000000000000000000000000000000000000000000000000000000000000000000000000000000000000000000000000000000000000000000000000000000000000000
310
00000000000000000000000000000000000000000000000000000000000000F5F500F500F500000000000000000000000000000000000000000000000000000000000000000000000000000000F5F5F500F5F50000000000000000000000000000000000000000000000000000000000000000000000000000000000000000
310
00000000000000000000000000000000000000000000000000000000000000000000000000000000000000000000000000000000000000000000000000000000000000000000000000000000000000000000000000000000000000000000000000000000000000000000000000000000000000000000000000000000000000
310
000000000000000000000000000000000000000000000000000000000000000000F5F500F500F500000000000000000000000000000000000000000000000000000000000000000000000000000000F5F5F500F5F5000000000000000000000000000000000000000000000000000000000000000000000000000000000000
310
00000000000000000000000000000000000000000000000000000000000000000000000000000000000000000000000000000000000000000000000000000000000000000000000000000000000000000000000000000000000000000000000000000000000000000000000000000000000000000000000000000000000000
310
0000000000000000000000000000000000000000000000000000000000000000000000F5F500F500F5F5F5F5F5F5F5F5F5F5F5F5F5F5F5F5F5F5F5F5F5F5F5F5F5F5F5F5F5F5F5F5F5F5F5F5F5F5F5F5F5F5F5F500F5F500000000000000000000000000000000000000000000000000000000000000000000000000000000
310
00000000000000000000000000000000000000000000000000000000000000000000000000000000000000000000000000000000000000000000000000000000000000000000000000000000000000000000000000000000000000000000000000000000000000000000000000000000000000000000000000000000000000
310
00000000000000000000000000000000000000000000000000000000000000000000000000F5F500F500F5F5F5F5F5F5F5F5F5F5F5F5F5F5F5F5F5F5F5F5F5F5F5F5F5F5F5F5F5F5F5F5F5F5F5F5F5F5F5F5F5F500F500F5F50000000000000000000000000000000000000000000000000000000000000000000000000000
310
00000000000000000000000000000000000000000000000000000000000000000000000000000000000000000000000000000000000000000000000000000000000000000000000000000000000000000000000000000000000000000000000000000000000000000000000000000000000000000000000000000000000000
310
000000000000000000000000000000000000000000000000000000000000000000000000000000F5F500F5F5F5F5F5F500000000000000000000000000000000000000000000000000000000000000000000F5F5F5F5F5F500F5F5000000000000000000000000000000000000000000000000000000000000000000000000
310
00000000000000000000000000000000000000000000000000000000000000000000000000000000000000000000000000000000000000000000000000000000000000000000000000000000000000000000000000000000000000000000000000000000000000000000000000000000000000000000000000000000000000
310
0000000000000000000000000000000000000000000000000000000000000000000000000000000000F5F500F500F5F5F5F5F5F5F5F5F5F5F5F5F5F5F5F5F5F5F5F5F5F5F5F5F5F5F5F5F5F5F5F5F5F5F5F5F5F5F5F5F5F500F500F5F500000000000000000000000000000000000000000000000000000000000000000000
310
00000000000000000000000000000000000000000000000000000000000000000000000000000000000000000000000000000000000000000000000000000000000000000000000000000000000000000000000000000000000000000000000000000000000000000000000000000000000000000000000000000000000000
310
00000000000000000000000000000000000000000000000000000000000000000000000000000000000000F5F500F500F500000000000000000000000000000000000000000000000000000000000000000000000000000000F500F500F5F50000000000000000000000000000000000000000000000000000000000000000
310
00000000000000000000000000000000000000000000000000000000000000000000000000000000000000000000000000000000000000000000000000000000000000000000000000000000000000000000000000000000000000000000000000000000000000000000000000000000000000000000000000000000000000
310
000000000000000000000000000000000000000000000000000000000000000000000000000000000000000000F5F500F5F5F500000000000000000000000000000000000000000000000000000000000000000000000000000000F5F5F500F5F5000000000000000000000000000000000000000000000000000000000000
310
00000000000000000000000000000000000000000000000000000000000000000000000000000000000000000000000000000000000000000000000000000000000000000000000000000000000000000000000000000000000000000000000000000000000000000000000000000000000000000000000000000000000000
310
0000000000000000000000000000000000000000000000000000000000000000000000000000000000000000000000F5F500F5F5F500000000000000000000000000000000000000000000000000000000000000000000000000000000F5F5F500F5F500000000000000000000000000000000000000000000000000000000
310
00000000000000000000000000000000000000000000000000000000000000000000000000000000000000000000000000000000000000000000000000000000000000000000000000000000000000000000000000000000000000000000000000000000000000000000000000000000000000000000000000000000000000
310
00000000000000000000000000000000000000000000000000000000000000000000000000000000000000000000000000F5F500F500F500000000000000000000000000000000000000000000000000000000000000000000000000000000F500F500F5F50000000000000000000000000000000000000000000000000000
310
00000000000000000000000000000000000000000000000000000000000000000000000000000000000000000000000000000000000000000000000000000000000000000000000000000000000000000000000000000000000000000000000000000000000000000000000000000000000000000000000000000000000000
310
000000000000000000000000000000000000000000000000000000000000000000000000000000000000000000000000000000F5F500F500F500000000000000000000000000000000000000000000000000000000000000000000000000000000F500F500F5F5000000000000000000000000000000000000000000000000
310
00000000000000000000000000000000000000000000000000000000000000000000000000000000000000000000000000000000000000000000000000000000000000000000000000000000000000000000000000000000000000000000000000000000000000000000000000000000000000000000000000000000000000
310
0000000000000000000000000000000000000000000000000000000000000000000000000000000000000000000000000000000000F5F500F500F500000000000000000000000000000000000000000000000000000000000000000000000000000000F500F500F5F500000000000000000000000000000000000000000000
310
00000000000000000000000000000000000000000000000000000000000000000000000000000000000000000000000000000000000000000000000000000000000000000000000000000000000000000000000000000000000000000000000000000000000000000000000000000000000000000000000000000000000000
310
00000000000000000000000000000000000000000000000000000000000000000000000000000000000000000000000000000000000000F5F500F5F5F500000000000000000000000000000000000000000000000000000000000000000000000000000000F5F5F500F5F50000000000000000000000000000000000000000
310
00000000000000000000000000000000000000000000000000000000000000000000000000000000000000000000000000000000000000000000000000000000000000000000000000000000000000000000000000000000000000000000000000000000000000000000000000000000000000000000000000000000000000
310
000000000000000000000000000000000000000000000000000000000000000000000000000000000000000000000000000000000000000000F5F500F500F500000000000000000000000000000000000000000000000000000000000000000000000000000000F500F500F5F5000000000000000000000000000000000000
310
00000000000000000000000000000000000000000000000000000000000000000000000000000000000000000000000000000000000000000000000000000000000000000000000000000000000000000000000000000000000000000000000000000000000000000000000000000000000000000000000000000000000000
310
0000000000000000000000000000000000000000000000000000000000000000000000000000000000000000000000000000000000000000000000F5F500F500F500000000000000000000000000000000000000000000000000000000000000000000000000000000F500F500F5F500000000000000000000000000000000
310
00000000000000000000000000000000000000000000000000000000000000000000000000000000000000000000000000000000000000000000000000000000000000000000000000000000000000000000000000000000000000000000000000000000000000000000000000000000000000000000000000000000000000
310
00000000000000000000000000000000000000000000000000000000000000000000000000000000000000000000000000000000000000000000000000F5F500F500F500000000000000000000000000000000000000000000000000000000000000000000000000000000F500F500F5F50000000000000000000000000000
310
00000000000000000000000000000000000000000000000000000000000000000000000000000000000000000000000000000000000000000000000000000000000000000000000000000000000000000000000000000000000000000000000000000000000000000000000000000000000000000000000000000000000000
310
000000000000000000000000000000000000000000000000000000000000000000000000000000000000000000000000000000000000000000000000000000F5F500F500F500000000000000000000000000000000000000000000000000000000000000000000000000000000F500F500F5F5000000000000000000000000
310
00000000000000000000000000000000000000000000000000000000000000000000000000000000000000000000000000000000000000000000000000000000000000000000000000000000000000000000000000000000000000000000000000000000000000000000000000000000000000000000000000000000000000
310
0000000000000000000000000000000000000000000000000000000000000000000000000000000000000000000000000000000000000000000000000000000000F5F500F500F500000000000000000000000000000000000000000000000000000000000000000000000000000000F500F500F5F500000000000000000000
310
00000000000000000000000000000000000000000000000000000000000000000000000000000000000000000000000000000000000000000000000000000000000000000000000000000000000000000000000000000000000000000000000000000000000000000000000000000000000000000000000000000000000000
310
00000000000000000000000000000000000000000000000000000000000000000000000000000000000000000000000000000000000000000000000000000000000000F5F500F500F500000000000000000000000000000000000000000000000000000000000000000000000000000000F500F500F5F50000000000000000
310
00000000000000000000000000000000000000000000000000000000000000000000000000000000000000000000000000000000000000000000000000000000000000000000000000000000000000000000000000000000000000000000000000000000000000000000000000000000000000000000000000000000000000
310
000000000000000000000000000000000000000000000000000000000000000000000000000000000000000000000000000000000000000000000000000000000000000000F5F500F500F500000000000000000000000000000000000000000000000000000000000000000000000000000000F500F500F5F5000000000000
310
00000000000000000000000000000000000000000000000000000000000000000000000000000000000000000000000000000000000000000000000000000000000000000000000000000000000000000000000000000000000000000000000000000000000000000000000000000000000000000000000000000000000000
310
0000000000000000000000000000000000000000000000000000000000000000000000000000000000000000000000000000000000000000000000000000000000000000000000F5F500F5F5F500000000000000000000000000000000000000000000000000000000000000000000000000000000F500F500F5F500000000
310
00000000000000000000000000000000000000000000000000000000000000000000000000000000000000000000000000000000000000000000000000000000000000000000000000000000000000000000000000000000000000000000000000000000000000000000000000000000000000000000000000000000000000
310
00000000000000000000000000000000000000000000000000000000000000000000000000000000000000000000000000000000000000000000000000000000000000000000000000F5F500F5F5F500000000000000000000000000000000000000000000000000000000000000000000000000000000F500F500F5F50000
310
00000000000000000000000000000000000000000000000000000000000000000000000000000000000000000000000000000000000000000000000000000000000000000000000000000000000000000000000000000000000000000000000000000000000000000000000000000000000000000000000000000000000000
310
000000000000000000000000000000000000000000000000000000000000000000000000000000000000000000000000000000000000000000000000000000000000000000000000000000F5F500F500F500000000000000000000000000000000000000000000000000000000000000000000000000000000F500F500F5F5
310
00000000000000000000000000000000000000000000000000000000000000000000000000000000000000000000000000000000000000000000000000000000000000000000000000000000000000000000000000000000000000000000000000000000000000000000000000000000000000000000000000000000000000
310
0000000000000000000000000000000000000000000000000000000000000000000000000000000000000000000000000000000000000000000000000000000000000000000000000000000000F5F500F500F500000000000000000000000000000000000000000000000000000000000000000000000000000000F500F500
310
F5F50000000000000000000000000000000000000000000000000000000000000000000000000000000000000000000000000000000000000000000000000000000000000000000000000000000000000000000000000000000000000000000000000000000000000000000000000000000000000000000000000000000000
310
00000000000000000000000000000000000000000000000000000000000000000000000000000000000000000000000000000000000000000000000000000000000000000000000000000000000000F5F500F500F500000000000000000000000000000000000000000000000000000000000000000000000000000000F500
310
F500F5F5000000000000000000000000000000000000000000000000000000000000000000000000000000000000000000000000000000000000000000000000000000000000000000000000000000000000000000000000000000000000000000000000000000000000000000000000000000000000000000000000000000
310
000000000000000000000000000000000000000000000000000000000000000000000000000000000000000000000000000000000000000000000000000000000000000000000000000000000000000000F5F500F500F500000000000000000000000000000000000000000000000000000000000000000000000000000000
310
F500F500F5F500000000000000000000000000000000000000000000000000000000000000000000000000000000000000000000000000000000000000000000000000000000000000000000000000000000000000000000000000000000000000000000000000000000000000000000000000000000000000000000000000
310
0000000000000000000000000000000000000000000000000000000000000000000000000000000000000000000000000000000000000000000000000000000000000000000000000000000000000000000000F5F500F500F50000000000000000000000000000000000000000000000000000000000000000000000000000
310
0000F500F500F5F50000000000000000000000000000000000000000000000000000000000000000000000000000000000000000000000000000000000000000000000000000000000000000000000000000000000000000000000000000000000000000000000000000000000000000000000000000000000000000000000
310
00000000000000000000000000000000000000000000000000000000000000000000000000000000000000000000000000000000000000000000000000000000000000000000000000000000000000000000000000F5F500F500F5000000000000000000000000000000000000000000000000000000000000000000000000
310
00000000F500F500F5F5000000000000000000000000000000000000000000000000000000000000000000000000000000000000000000000000000000000000000000000000000000000000000000000000000000000000000000000000000000000000000000000000000000000000000000000000000000000000000000
310
000000000000000000000000000000000000000000000000000000000000000000000000000000000000000000000000000000000000000000000000000000000000000000000000000000000000000000000000000000F5F500F500F500000000000000000000000000000000000000000000000000000000000000000000
310
000000000000F500F500F5F500000000000000000000000000000000000000000000000000000000000000000000000000000000000000000000000000000000000000000000000000000000000000000000000000000000000000000000000000000000000000000000000000000000000000000000000000000000000000
310
0000000000000000000000000000000000000000000000000000000000000000000000000000000000000000000000000000000000000000000000000000000000000000000000000000000000000000000000000000000000F5F500F500F50000000000000000000000000000000000000000000000000000000000000000
310
0000000000000000F500F500F5F50000000000000000000000000000000000000000000000000000000000000000000000000000000000000000000000000000000000000000000000000000000000000000000000000000000000000000000000000000000000000000000000000000000000000000000000000000000000
310
00000000000000000000000000000000000000000000000000000000000000000000000000000000000000000000000000000000000000000000000000000000000000000000000000000000000000000000000000000000000000F5F500F500F5000000000000000000000000000000000000000000000000000000000000
310
00000000000000000000F500F500F5F5000000000000000000000000000000000000000000000000000000000000000000000000000000000000000000000000000000000000000000000000000000000000000000000000000000000000000000000000000000000000000000000000000000000000000000000000000000
310
000000000000000000000000000000000000000000000000000000000000000000000000000000000000000000000000000000000000000000000000000000000000000000000000000000000000000000000000000000000000000000F5F500F500F500000000000000000000000000000000000000000000000000000000
310
000000000000000000000000F500F500F5F500000000000000000000000000000000000000000000000000000000000000000000000000000000000000000000000000000000000000000000000000000000000000000000000000000000000000000000000000000000000000000000000000000000000000000000000000
310
0000000000000000000000000000000000000000000000000000000000000000000000000000000000000000000000000000000000000000000000000000000000000000000000000000000000000000000000000000000000000000000000F5F500F500F50000000000000000000000000000000000000000000000000000
310
0000000000000000000000000000F500F500F5F50000000000000000000000000000000000000000000000000000000000000000000000000000000000000000000000000000000000000000000000000000000000000000000000000000000000000000000000000000000000000000000000000000000000000000000000
310
00000000000000000000000000000000000000000000000000000000000000000000000000000000000000000000000000000000000000000000000000000000000000000000000000000000000000000000000000000000000000000000000000F5F500F500F5000000000000000000000000000000000000000000000000
310
00000000000000000000000000000000F500F500F5F5000000000000000000000000000000000000000000000000000000000000000000000000000000000000000000000000000000000000000000000000000000000000000000000000000000000000000000000000000000000000000000000000000000000000000000
310
000000000000000000000000000000000000000000000000000000000000000000000000000000000000000000000000000000000000000000000000000000000000000000000000000000000000000000000000000000000000000000000000000000F5F500F500F500000000000000000000000000000000000000000000
310
000000000000000000000000000000000000F500F500F5F500000000000000000000000000000000000000000000000000000000000000000000000000000000000000000000000000000000000000000000000000000000000000000000000000000000000000000000000000000000000000000000000000000000000000
310
0000000000000000000000000000000000000000000000000000000000000000000000000000000000000000000000000000000000000000000000000000000000000000000000000000000000000000000000000000000000000000000000000000000000F5F500F500F50000000000000000000000000000000000000000
310
0000000000000000000000000000000000000000F500F500F5F50000000000000000000000000000000000000000000000000000000000000000000000000000000000000000000000000000000000000000000000000000000000000000000000000000000000000000000000000000000000000000000000000000000000
310
00000000000000000000000000000000000000000000000000000000000000000000000000000000000000000000000000000000000000000000000000000000000000000000000000000000000000000000000000000000000000000000000000000000000000F5F500F500F5000000000000000000000000000000000000
310
00000000000000000000000000000000000000000000F500F500F5F5000000000000000000000000000000000000000000000000000000000000000000000000000000000000000000000000000000000000000000000000000000000000000000000000000000000000000000000000000000000000000000000000000000
310
000000000000000000000000000000000000000000000000000000000000000000000000000000000000000000000000000000000000000000000000000000000000000000000000000000000000000000000000000000000000000000000000000000000000000000F5F500F500F500000000000000000000000000000000
310
000000000000000000000000000000000000000000000000F500F500F5F500000000000000000000000000000000000000000000000000000000000000000000000000000000000000000000000000000000000000000000000000000000000000000000000000000000000000000000000000000000000000000000000000
310
0000000000000000000000000000000000000000000000000000000000000000000000000000000000000000000000000000000000000000000000000000000000000000000000000000000000000000000000000000000000000000000000000000000000000000000000F5F500F500F50000000000000000000000000000
310
0000000000000000000000000000000000000000000000000000F500F500F5F50000000000000000000000000000000000000000000000000000000000000000000000000000000000000000000000000000000000000000000000000000000000000000000000000000000000000000000000000000000000000000000000
310
00000000000000000000000000000000000000000000000000000000000000000000000000000000000000000000000000000000000000000000000000000000000000000000000000000000000000000000000000000000000000000000000000000000000000000000000000F5F500F500F5000000000000000000000000
310
00000000000000000000000000000000000000000000000000000000F500F500F5F5000000000000000000000000000000000000000000000000000000000000000000000000000000000000000000000000000000000000000000000000000000000000000000000000000000000000000000000000000000000000000000
310
000000000000000000000000000000000000000000000000000000000000000000000000000000000000000000000000000000000000000000000000000000000000000000000000000000000000000000000000000000000000000000000000000000000000000000000000000000F5F500F500F500000000000000000000
310
000000000000000000000000000000000000000000000000000000000000F500F500F5F500000000000000000000000000000000000000000000000000000000000000000000000000000000000000000000000000000000000000000000000000000000000000000000000000000000000000000000000000000000000000
310
0000000000000000000000000000000000000000000000000000000000000000000000000000000000000000000000000000000000000000000000000000000000000000000000000000000000000000000000000000000000000000000000000000000000000000000000000000000000F5F500F500F50000000000000000
310
0000000000000000000000000000000000000000000000000000000000000000F500F500F5F50000000000000000000000000000000000000000000000000000000000000000000000000000000000000000000000000000000000000000000000000000000000000000000000000000000000000000000000000000000000
310
00000000000000000000000000000000000000000000000000000000000000000000000000000000000000000000000000000000000000000000000000000000000000000000000000000000000000000000000000000000000000000000000000000000000000000000000000000000000000F5F500F5F5F5000000000000
310
00000000000000000000000000000000000000000000000000000000000000000000F5F5F500F5F5000000000000000000000000000000000000000000000000000000000000000000000000000000000000000000000000000000000000000000000000000000000000000000000000000000000000000000000000000000
310
000000000000000000000000000000000000000000000000000000000000000000000000000000000000000000000000000000000000000000000000000000000000000000000000000000000000000000000000000000000000000000000000000000000000000000000000000000000000000000F5F500F500F500000000
310
000000000000000000000000000000000000000000000000000000000000000000000000F500F500F5F500000000000000000000000000000000000000000000000000000000000000000000000000000000000000000000000000000000000000000000000000000000000000000000000000000000000000000000000000
310
0000000000000000000000000000000000000000000000000000000000000000000000000000000000000000000000000000000000000000000000000000000000000000000000000000000000000000000000000000000000000000000000000000000000000000000000000000000000000000000000F5F500F500F50000
310
0000000000000000000000000000000000000000000000000000000000000000000000000000F500F500F5F50000000000000000000000000000000000000000000000000000000000000000000000000000000000000000000000000000000000000000000000000000000000000000000000000000000000000000000000
310
00000000000000000000000000000000000000000000000000000000000000000000000000000000000000000000000000000000000000000000000000000000000000000000000000000000000000000000000000000000000000000000000000000000000000000000000000000000000000000000000000F5F500F500F5
310
00000000000000000000000000000000000000000000000000000000000000000000000000000000F500F500F5F5000000000000000000000000000000000000000000000000000000000000000000000000000000000000000000000000000000000000000000000000000000000000000000000000000000000000000000
310
000000000000000000000000000000000000000000000000000000000000000000000000000000000000000000000000000000000000000000000000000000000000000000000000000000000000000000000000000000000000000000000000000000000000000000000000000000000000000000000000000000F5F500F5
310
00F500000000000000000000000000000000000000000000000000000000000000000000000000000000F500F500F5F500000000000000000000000000000000000000000000000000000000000000000000000000000000000000000000000000000000000000000000000000000000000000000000000000000000000000
310
0000000000000000000000000000000000000000000000000000000000000000000000000000000000000000000000000000000000000000000000000000000000000000000000000000000000000000000000000000000000000000000000000000000000000000000000000000000000000000000000000000000000F5F5
310
00F500F500000000000000000000000000000000000000000000000000000000000000000000000000000000F500F500F5F50000000000000000000000000000000000000000000000000000000000000000000000000000000000000000000000000000000000000000000000000000000000000000000000000000000000
310
00000000000000000000000000000000000000000000000000000000000000000000000000000000000000000000000000000000000000000000000000000000000000000000000000000000000000000000000000000000000000000000000000000000000000000000000000000000000000000000000000000000000000
310
F5F500F500F500000000000000000000000000000000000000000000000000000000000000000000000000000000F500F500F5F5000000000000000000000000000000000000000000000000000000000000000000000000000000000000000000000000000000000000000000000000000000000000000000000000000000
310
00000000000000000000000000000000000000000000000000000000000000000000000000000000000000000000000000000000000000000000000000000000000000000000000000000000000000000000000000000000000000000000000000000000000000000000000000000000000000000000000000000000000000
310
0000F5F500F5F5F500000000000000000000000000000000000000000000000000000000000000000000000000000000F5F5F500F5F500000000000000000000000000000000000000000000000000000000000000000000000000000000000000000000000000000000000000000000000000000000000000000000000000
310
00000000000000000000000000000000000000000000000000000000000000000000000000000000000000000000000000000000000000000000000000000000000000000000000000000000000000000000000000000000000000000000000000000000000000000000000000000000000000000000000000000000000000
310
00000000F5F500F5F5F500000000000000000000000000000000000000000000000000000000000000000000000000000000F5F5F500F5F50000000000000000000000000000000000000000000000000000000000000000000000000000000000000000000000000000000000000000000000000000000000000000000000
310
00000000000000000000000000000000000000000000000000000000000000000000000000000000000000000000000000000000000000000000000000000000000000000000000000000000000000000000000000000000000000000000000000000000000000000000000000000000000000000000000000000000000000
310
000000000000F5F500F500F500000000000000000000000000000000000000000000000000000000000000000000000000000000F500F500F5F5000000000000000000000000000000000000000000000000000000000000000000000000000000000000000000000000000000000000000000000000000000000000000000
310
00000000000000000000000000000000000000000000000000000000000000000000000000000000000000000000000000000000000000000000000000000000000000000000000000000000000000000000000000000000000000000000000000000000000000000000000000000000000000000000000000000000000000
310
0000000000000000F5F500F500F500000000000000000000000000000000000000000000000000000000000000000000000000000000F500F500F5F500000000000000000000000000000000000000000000000000000000000000000000000000000000000000000000000000000000000000000000000000000000000000
310
00000000000000000000000000000000000000000000000000000000000000000000000000000000000000000000000000000000000000000000000000000000000000000000000000000000000000000000000000000000000000000000000000000000000000000000000000000000000000000000000000000000000000
310
00000000000000000000F5F500F500F500000000000000000000000000000000000000000000000000000000000000000000000000000000F500F500F5F50000000000000000000000000000000000000000000000000000000000000000000000000000000000000000000000000000000000000000000000000000000000
310
00000000000000000000000000000000000000000000000000000000000000000000000000000000000000000000000000000000000000000000000000000000000000000000000000000000000000000000000000000000000000000000000000000000000000000000000000000000000000000000000000000000000000
310
000000000000000000000000F5F500F500F500000000000000000000000000000000000000000000000000000000000000000000000000000000F500F500F5F5000000000000000000000000000000000000000000000000000000000000000000000000000000000000000000000000000000000000000000000000000000
310
00000000000000000000000000000000000000000000000000000000000000000000000000000000000000000000000000000000000000000000000000000000000000000000000000000000000000000000000000000000000000000000000000000000000000000000000000000000000000000000000000000000000000
310
0000000000000000000000000000F5F500F500F500000000000000000000000000000000000000000000000000000000000000000000000000000000F500F500F5F500000000000000000000000000000000000000000000000000000000000000000000000000000000000000000000000000000000000000000000000000
310
00000000000000000000000000000000000000000000000000000000000000000000000000000000000000000000000000000000000000000000000000000000000000000000000000000000000000000000000000000000000000000000000000000000000000000000000000000000000000000000000000000000000000
310
00000000000000000000000000000000F5F500F500F500000000000000000000000000000000000000000000000000000000000000000000000000000000F500F500F5F50000000000000000000000000000000000000000000000000000000000000000000000000000000000000000000000000000000000000000000000
310
00000000000000000000000000000000000000000000000000000000000000000000000000000000000000000000000000000000000000000000000000000000000000000000000000000000000000000000000000000000000000000000000000000000000000000000000000000000000000000000000000000000000000
310
000000000000000000000000000000000000F5F500F500F500000000000000000000000000000000000000000000000000000000000000000000000000000000F500F500F5F5000000000000000000000000000000000000000000000000000000000000000000000000000000000000000000000000000000000000000000
310
00000000000000000000000000000000000000000000000000000000000000000000000000000000000000000000000000000000000000000000000000000000000000000000000000000000000000000000000000000000000000000000000000000000000000000000000000000000000000000000000000000000000000
310
0000000000000000000000000000000000000000F5F500F500F500000000000000000000000000000000000000000000000000000000000000000000000000000000F500F500F5F500000000000000000000000000000000000000000000000000000000000000000000000000000000000000000000000000000000000000
310
00000000000000000000000000000000000000000000000000000000000000000000000000000000000000000000000000000000000000000000000000000000000000000000000000000000000000000000000000000000000000000000000000000000000000000000000000000000000000000000000000000000000000
310
00000000000000000000000000000000000000000000F5F500F500F500000000000000000000000000000000000000000000000000000000000000000000000000000000F500F500F5F50000000000000000000000000000000000000000000000000000000000000000000000000000000000000000000000000000000000
310
00000000000000000000000000000000000000000000000000000000000000000000000000000000000000000000000000000000000000000000000000000000000000000000000000000000000000000000000000000000000000000000000000000000000000000000000000000000000000000000000000000000000000
310
000000000000000000000000000000000000000000000000F5F500F500F500000000000000000000000000000000000000000000000000000000000000000000000000000000F500F500F5F5000000000000000000000000000000000000000000000000000000000000000000000000000000000000000000000000000000
310
00000000000000000000000000000000000000000000000000000000000000000000000000000000000000000000000000000000000000000000000000000000000000000000000000000000000000000000000000000000000000000000000000000000000000000000000000000000000000000000000000000000000000
310
0000000000000000000000000000000000000000000000000000F5F500F500F500000000000000000000000000000000000000000000000000000000000000000000000000000000F500F500F5F500000000000000000000000000000000000000000000000000000000000000000000000000000000000000000000000000
310
00000000000000000000000000000000000000000000000000000000000000000000000000000000000000000000000000000000000000000000000000000000000000000000000000000000000000000000000000000000000000000000000000000000000000000000000000000000000000000000000000000000000000
310
00000000000000000000000000000000000000000000000000000000F5F500F500F500000000000000000000000000000000000000000000000000000000000000000000000000000000F500F500F5F50000000000000000000000000000000000000000000000000000000000000000000000000000000000000000000000
310
00000000000000000000000000000000000000000000000000000000000000000000000000000000000000000000000000000000000000000000000000000000000000000000000000000000000000000000000000000000000000000000000000000000000000000000000000000000000000000000000000000000000000
310
000000000000000000000000000000000000000000000000000000000000F5F500F500F500000000000000000000000000000000000000000000000000000000000000000000000000000000F500F500F5F5000000000000000000000000000000000000000000000000000000000000000000000000000000000000000000
310
00000000000000000000000000000000000000000000000000000000000000000000000000000000000000000000000000000000000000000000000000000000000000000000000000000000000000000000000000000000000000000000000000000000000000000000000000000000000000000000000000000000000000
310
0000000000000000000000000000000000000000000000000000000000000000F5F500F5F5F500000000000000000000000000000000000000000000000000000000000000000000000000000000F500F500F5F500000000000000000000000000000000000000000000000000000000000000000000000000000000000000
310
00000000000000000000000000000000000000000000000000000000000000000000000000000000000000000000000000000000000000000000000000000000000000000000000000000000000000000000000000000000000000000000000000000000000000000000000000000000000000000000000000000000000000
310
00000000000000000000000000000000000000000000000000000000000000000000F5F500F500F500000000000000000000000000000000000000000000000000000000000000000000000000000000F500F500F5F50000000000000000000000000000000000000000000000000000000000000000000000000000000000
310
00000000000000000000000000000000000000000000000000000000000000000000000000000000000000000000000000000000000000000000000000000000000000000000000000000000000000000000000000000000000000000000000000000000000000000000000000000000000000000000000000000000000000
310
000000000000000000000000000000000000000000000000000000000000000000000000F5F500F500F500000000000000000000000000000000000000000000000000000000000000000000000000000000F500F500F5F5000000000000000000000000000000000000000000000000000000000000000000000000000000
310
00000000000000000000000000000000000000000000000000000000000000000000000000000000000000000000000000000000000000000000000000000000000000000000000000000000000000000000000000000000000000000000000000000000000000000000000000000000000000000000000000000000000000
310
0000000000000000000000000000000000000000000000000000000000000000000000000000F5F500F500F500000000000000000000000000000000000000000000000000000000000000000000000000000000F500F500F5F500000000000000000000000000000000000000000000000000000000000000000000000000
310
00000000000000000000000000000000000000000000000000000000000000000000000000000000000000000000000000000000000000000000000000000000000000000000000000000000000000000000000000000000000000000000000000000000000000000000000000000000000000000000000000000000000000
310
00000000000000000000000000000000000000000000000000000000000000000000000000000000F5F500F500F500000000000000000000000000000000000000000000000000000000000000000000000000000000F500F500F5F50000000000000000000000000000000000000000000000000000000000000000000000
310
00000000000000000000000000000000000000000000000000000000000000000000000000000000000000000000000000000000000000000000000000000000000000000000000000000000000000000000000000000000000000000000000000000000000000000000000000000000000000000000000000000000000000
310
000000000000000000000000000000000000000000000000000000000000000000000000000000000000F5F500F500F500000000000000000000000000000000000000000000000000000000000000000000000000000000F500F500F5F5000000000000000000000000000000000000000000000000000000000000000000
310
00000000000000000000000000000000000000000000000000000000000000000000000000000000000000000000000000000000000000000000000000000000000000000000000000000000000000000000000000000000000000000000000000000000000000000000000000000000000000000000000000000000000000
310
0000000000000000000000000000000000000000000000000000000000000000000000000000000000000000F5F500F500F500000000000000000000000000000000000000000000000000000000000000000000000000000000F500F500F5F500000000000000000000000000000000000000000000000000000000000000
310
00000000000000000000000000000000000000000000000000000000000000000000000000000000000000000000000000000000000000000000000000000000000000000000000000000000000000000000000000000000000000000000000000000000000000000000000000000000000000000000000000000000000000
310
00000000000000000000000000000000000000000000000000000000000000000000000000000000000000000000F5F500F500F500000000000000000000000000000000000000000000000000000000000000000000000000000000F500F500F5F50000000000000000000000000000000000000000000000000000000000
310
00000000000000000000000000000000000000000000000000000000000000000000000000000000000000000000000000000000000000000000000000000000000000000000000000000000000000000000000000000000000000000000000000000000000000000000000000000000000000000000000000000000000000
310
000000000000000000000000000000000000000000000000000000000000000000000000000000000000000000000000F5F500F500F500000000000000000000000000000000000000000000000000000000000000000000000000000000F500F500F5F5000000000000000000000000000000000000000000000000000000
310
00000000000000000000000000000000000000000000000000000000000000000000000000000000000000000000000000000000000000000000000000000000000000000000000000000000000000000000000000000000000000000000000000000000000000000000000000000000000000000000000000000000000000
310
0000000000000000000000000000000000000000000000000000000000000000000000000000000000000000000000000000F5F500F500F500000000000000000000000000000000000000000000000000000000000000000000000000000000F500F500F5F500000000000000000000000000000000000000000000000000
310
00000000000000000000000000000000000000000000000000000000000000000000000000000000000000000000000000000000000000000000000000000000000000000000000000000000000000000000000000000000000000000000000000000000000000000000000000000000000000000000000000000000000000
310
00000000000000000000000000000000000000000000000000000000000000000000000000000000000000000000000000000000F5F500F500F500000000000000000000000000000000000000000000000000000000000000000000000000000000F500F500F5F50000000000000000000000000000000000000000000000
310
00000000000000000000000000000000000000000000000000000000000000000000000000000000000000000000000000000000000000000000000000000000000000000000000000000000000000000000000000000000000000000000000000000000000000000000000000000000000000000000000000000000000000
310
000000000000000000000000000000000000000000000000000000000000000000000000000000000000000000000000000000000000F5F500F500F500000000000000000000000000000000000000000000000000000000000000000000000000000000F500F500F5F5000000000000000000000000000000000000000000
310
00000000000000000000000000000000000000000000000000000000000000000000000000000000000000000000000000000000000000000000000000000000000000000000000000000000000000000000000000000000000000000000000000000000000000000000000000000000000000000000000000000000000000
310
0000000000000000000000000000000000000000000000000000000000000000000000000000000000000000000000000000000000000000F5F500F5F5F500000000000000000000000000000000000000000000000000000000000000000000000000000000F5F5F500F5F500000000000000000000000000000000000000
310
00000000000000000000000000000000000000000000000000000000000000000000000000000000000000000000000000000000000000000000000000000000000000000000000000000000000000000000000000000000000000000000000000000000000000000000000000000000000000000000000000000000000000
310
00000000000000000000000000000000000000000000000000000000000000000000000000000000000000000000000000000000000000000000F5F500F5F5F500000000000000000000000000000000000000000000000000000000000000000000000000000000F5F5F500F5F50000000000000000000000000000000000
310
00000000000000000000000000000000000000000000000000000000000000000000000000000000000000000000000000000000000000000000000000000000000000000000000000000000000000000000000000000000000000000000000000000000000000000000000000000000000000000000000000000000000000
310
000000000000000000000000000000000000000000000000000000000000000000000000000000000000000000000000000000000000000000000000F5F500F5F5F500000000000000000000000000000000000000000000000000000000000000000000000000000000F5F5F500F5F5000000000000000000000000000000
310
00000000000000000000000000000000000000000000000000000000000000000000000000000000000000000000000000000000000000000000000000000000000000000000000000000000000000000000000000000000000000000000000000000000000000000000000000000000000000000000000000000000000000
310
0000000000000000000000000000000000000000000000000000000000000000000000000000000000000000000000000000000000000000000000000000F5F500F500F5000000000000000000000000F5F5F50000F5F5F5F5F5F5F5F5F5F5F5F5F5F50000F5F5F500000000F500F500F5F500000000000000000000000000
310
00000000000000000000000000000000000000000000000000000000000000000000000000000000000000000000000000000000000000000000000000000000000000000000000000000000000000000000000000000000000000000000000000000000000000000000000000000000000000000000000000000000000000
310
00000000000000000000000000000000000000000000000000000000000000000000000000000000000000000000000000000000000000000000000000000000F5F500F5F5F5F5F5F5F5F5F5F5F5F5F5F5F5F5F5F5F5F5F5F5F5F5F5F5F5F5F5F5F5F5F5F5F5F5F5F5F5F5F5F5F5F5F5F500F5F50000000000000000000000
310
00000000000000000000000000000000000000000000000000000000000000000000000000000000000000000000000000000000000000000000000000000000000000000000000000000000000000000000000000000000000000000000000000000000000000000000000000000000000000000000000000000000000000
310
000000000000000000000000000000000000000000000000000000000000000000000000000000000000000000000000000000000000000000000000000000000000F5F500F50000F50000000000000000000000000000000000000000000000000000000000000000000000000000F5F500F500F5F5000000000000000000
310
00000000000000000000000000000000000000000000000000000000000000000000000000000000000000000000000000000000000000000000000000000000000000000000000000000000000000000000000000000000000000000000000000000000000000000000000000000000000000000000000000000000000000
310
0000000000000000000000000000000000000000000000000000000000000000000000000000000000000000000000000000000000000000000000000000000000000000F5F500F50000F50000000000000000000000000000000000000000000000000000000000000000000000000000F5F500F500F5F500000000000000
310
00000000000000000000000000000000000000000000000000000000000000000000000000000000000000000000000000000000000000000000000000000000000000000000000000000000000000000000000000000000000000000000000000000000000000000000000000000000000000000000000000000000000000
310
00000000000000000000000000000000000000000000000000000000000000000000000000000000000000000000000000000000000000000000000000000000000000000000F5F500F50000F5000000000000000000000000000000000000F5F5000000000000000000000000000000000000F5F500F500F5F50000000000
310
00000000000000000000000000000000000000000000000000000000000000000000000000000000000000000000000000000000000000000000000000000000000000000000000000000000000000000000000000000000000000000000000000000000000000000000000000000000000000000000000000000000000000
310
000000000000000000000000000000000000000000000000000000000000000000000000000000000000000000000000000000000000000000000000000000000000000000000000F5F500F50000F50000000000000000000000000000000000F5F5F5F50000000000000000000000000000000000F5F500F500F5F5000000
310
00000000000000000000000000000000000000000000000000000000000000000000000000000000000000000000000000000000000000000000000000000000000000000000000000000000000000000000000000000000000000000000000000000000000000000000000000000000000000000000000000000000000000
310
0000000000000000000000000000000000000000000000000000000000000000000000000000000000000000000000000000000000000000000000000000000000000000000000000000F5F500F50000F5000000000000000000000000000000000000F5F5000000000000000000000000000000000000F5F500F500F5F500
310
00000000000000000000000000000000000000000000000000000000000000000000000000000000000000000000000000000000000000000000000000000000000000000000000000000000000000000000000000000000000000000000000000000000000000000000000000000000000000000000000000000000000000
310
00000000000000000000000000000000000000000000000000000000000000000000000000000000000000000000000000000000000000000000000000000000000000000000000000000000F5F500F50000F50000000000000000000000000000000000000000000000000000000000000000000000000000F5F500F500F5
310
F5000000000000000000000000000000000000000000000000000000000000000000000000000000000000000000000000000000000000000000000000000000000000000000000000000000000000000000000000000000000000000000000000000000000000000000000000000000000000000000000000000000000000
310
000000000000000000000000000000000000000000000000000000000000000000000000000000000000000000000000000000000000000000000000000000000000000000000000000000000000F5F500F50000F500F5F5F5F5F5F5F5F5F5F5F5F5F5F5F5F5F5F5F5F5F5F5F5F5F5F5F5F5F5F5F5F5F5F5F5F500F5F500F5
310
00F5F500000000000000000000000000000000000000000000000000000000000000000000000000000000000000000000000000000000000000000000000000000000000000000000000000000000000000000000000000000000000000000000000000000000000000000000000000000000000000000000000000000000
310
0000000000000000000000000000000000000000000000000000000000000000000000000000000000000000000000000000000000000000000000000000000000000000000000000000000000000000F5F500F50000F500F5F5F5F5F5F5F5F5F5F5F5F5F5F5F5F5F5F5F5F5F5F5F5F5F5F5F5F5F5F5F5F5F5F5F5F500F5F5
310
00F500F5F50000000000000000000000000000000000000000000000000000000000000000000000000000000000000000000000000000000000000000000000000000000000000000000000000000000000000000000000000000000000000000000000000000000000000000000000000000000000000000000000000000
310
00000000000000000000000000000000000000000000000000000000000000000000000000000000000000000000000000000000000000000000000000000000000000000000000000000000000000000000F5F500F50000F50000000000000000000000000000000000000000000000000000000000000000000000000000
310
F5F500F500F5F5000000000000000000000000000000000000000000000000000000000000000000000000000000000000000000000000000000000000000000000000000000000000000000000000000000000000000000000000000000000000000000000000000000000000000000000000000000000000000000000000
310
000000000000000000000000000000000000000000000000000000000000000000000000000000000000000000000000000000000000000000000000000000000000000000000000000000000000000000000000F5F500F50000F5000000000000000000000000000000000000000000000000000000000000000000000000
310
0000F5F500F500F5F500000000000000000000000000000000000000000000000000000000000000000000000000000000000000000000000000000000000000000000000000000000000000000000000000000000000000000000000000000000000000000000000000000000000000000000000000000000000000000000
310
0000000000000000000000000000000000000000000000000000000000000000000000000000000000000000000000000000000000000000000000000000000000000000000000000000000000000000000000000000F5F500F50000F500F5F5F5F5F5F5F5F5F5F5F5F5F5F5F5F5F5F5F5F5F5F5F5F5F5F5F5F5F5F5F5F5F5
310
F5F5F500F5F500F500F5F50000000000000000000000000000000000000000000000000000000000000000000000000000000000000000000000000000000000000000000000000000000000000000000000000000000000000000000000000000000000000000000000000000000000000000000000000000000000000000
310
00000000000000000000000000000000000000000000000000000000000000000000000000000000000000000000000000000000000000000000000000000000000000000000000000000000000000000000000000000000F5F500F5F500F500F5F5F5F5F5F5F5F5F5F5F5F5F5F5F5F5F5F5F5F5F5F5F5F5F5F5F5F5F5F5F5
310
F5F5F5F5F500F5F5F5F500F5F5000000000000000000000000000000000000000000000000000000000000000000000000000000000000000000000000000000000000000000000000000000000000000000000000000000000000000000000000000000000000000000000000000000000000000000000000000000000000
310
000000000000000000000000000000000000000000000000000000000000000000000000000000000000000000000000000000000000000000000000000000000000000000000000000000000000000000000000000000000000F5F500F5F5F5F5000000000000000000000000000000000000000000000000000000000000
310
0000000000000000F5F5F5F500F5F500000000000000000000000000000000000000000000000000000000000000000000000000000000000000000000000000000000000000000000000000000000000000000000000000000000000000000000000000000000000000000000000000000000000000000000000000000000
310
0000000000000000000000000000000000000000000000000000000000000000000000000000000000000000000000000000000000000000000000000000000000000000000000000000000000000000000000000000000000000000F5F500F5F5F5F500000000000000000000000000000000000000000000000000000000
310
00000000000000000000F5F5F5F500F5F50000000000000000000000000000000000000000000000000000000000000000000000000000000000000000000000000000000000000000000000000000000000000000000000000000000000000000000000000000000000000000000000000000000000000000000000000000
310
00000000000000000000000000000000000000000000000000000000000000000000000000000000000000000000000000000000000000000000000000000000000000000000000000000000000000000000000000000000000000000000F5F500F50000F50000000000000000000000000000000000000000000000000000
310
000000000000000000000000F5F500F500F5F5000000000000000000000000000000000000000000000000000000000000000000000000000000000000000000000000000000000000000000000000000000000000000000000000000000000000000000000000000000000000000000000000000000000000000000000000
310
000000000000000000000000000000000000000000000000000000000000000000000000000000000000000000000000000000000000000000000000000000000000000000000000000000000000000000000000000000000000000000000000F5F500F50000F5000000000000000000000000000000000000000000000000
310
0000000000000000000000000000F5F500F500F5F500000000000000000000000000000000000000000000000000000000000000000000000000000000000000000000000000000000000000000000000000000000000000000000000000000000000000000000000000000000000000000000000000000000000000000000
310
0000000000000000000000000000000000000000000000000000000000000000000000000000000000000000000000000000000000000000000000000000000000000000000000000000000000000000000000000000000000000000000000000000F5F500F50000F500000000000000000000000000000000000000000000
310
00000000000000000000000000000000F5F500F500F5F50000000000000000000000000000000000000000000000000000000000000000000000000000000000000000000000000000000000000000000000000000000000000000000000000000000000000000000000000000000000000000000000000000000000000000
310
00000000000000000000000000000000000000000000000000000000000000000000000000000000000000000000000000000000000000000000000000000000000000000000000000000000000000000000000000000000000000000000000000000000F5F500F50000F50000000000000000000000000000000000000000
310
000000000000000000000000000000000000F5F500F500F5F5000000000000000000000000000000000000000000000000000000000000000000000000000000000000000000000000000000000000000000000000000000000000000000000000000000000000000000000000000000000000000000000000000000000000
310
000000000000000000000000000000000000000000000000000000000000000000000000000000000000000000000000000000000000000000000000000000000000000000000000000000000000000000000000000000000000000000000000000000000000F5F500F50000F5000000000000000000000000000000000000
310
0000000000000000000000000000000000000000F5F500F500F5F500000000000000000000000000000000000000000000000000000000000000000000000000000000000000000000000000000000000000000000000000000000000000000000000000000000000000000000000000000000000000000000000000000000
310
0000000000000000000000000000000000000000000000000000000000000000000000000000000000000000000000000000000000000000000000000000000000000000000000000000000000000000000000000000000000000000000000000000000000000000F5F500F50000F500000000000000000000000000000000
310
00000000000000000000000000000000000000000000F5F500F500F5F50000000000000000000000000000000000000000000000000000000000000000000000000000000000000000000000000000000000000000000000000000000000000000000000000000000000000000000000000000000000000000000000000000
310
00000000000000000000000000000000000000000000000000000000000000000000000000000000000000000000000000000000000000000000000000000000000000000000000000000000000000000000000000000000000000000000000000000000000000000000F5F500F50000F50000000000000000000000000000
310
000000000000000000000000000000000000000000000000F5F500F500F5F5000000000000000000000000000000000000000000000000000000000000000000000000000000000000000000000000000000000000000000000000000000000000000000000000000000000000000000000000000000000000000000000000
310
000000000000000000000000000000000000000000000000000000000000000000000000000000000000000000000000000000000000000000000000000000000000000000000000000000000000000000000000000000000000000000000000000000000000000000000000F5F500F50000F5000000000000000000000000
310
0000000000000000000000000000000000000000000000000000F5F500F500F5F500000000000000000000000000000000000000000000000000000000000000000000000000000000000000000000000000000000000000000000000000000000000000000000000000000000000000000000000000000000000000000000
310
0000000000000000000000000000000000000000000000000000000000000000000000000000000000000000000000000000000000000000000000000000000000000000000000000000000000000000000000000000000000000000000000000000000000000000000000000000F5F5F5F50000F500000000000000000000
310
00000000000000000000000000000000000000000000000000000000F5F500F5F5F5F50000000000000000000000000000000000000000000000000000000000000000000000000000000000000000000000000000000000000000000000000000000000000000000000000000000000000000000000000000000000000000
310
00000000000000000000000000000000000000000000000000000000000000000000000000000000000000000000000000000000000000000000000000000000000000000000000000000000000000000000000000000000000000000000000000000000000000000000000000000000F5F5F5F50000F50000000000000000
310
000000000000000000000000000000000000000000000000000000000000F5F500F500F5F5000000000000000000000000000000000000000000000000000000000000000000000000000000000000000000000000000000000000000000000000000000000000000000000000000000000000000000000000000000000000
310
000000000000000000000000000000000000000000000000000000000000000000000000000000000000000000000000000000000000000000000000000000000000000000000000000000000000000000000000000000000000000000000000000000000000000000000000000000000000F5F5F5F5F5F5F5F5F5F5F5F5F5
310
F5F5F5F5F5F5F5F5F5F5F5F5F5F5F5F5F5F5F5F5F5F5F5F5F5F5F5F5F5F5F5F5F5F5F5F5F5F5F500000000000000000000000000000000000000000000000000000000000000000000000000000000000000000000000000000000000000000000000000000000000000000000000000000000000000000000000000000000
310
0000000000000000000000000000000000000000000000000000000000000000000000000000000000000000000000000000000000000000000000000000000000000000000000000000000000000000000000000000000000000000000000000000000000000000000000000000000000000000F5F5F5F5F5F5F5F5F5F5F5
310
F5F5F5F5F5F5F5F5F5F5F5F5F5F5F5F5F5F5F5F5F5F5F5F5F5F5F5F5F5F5F5F5F5F5F5F5F5F5F5F5F50000000000000000000000000000000000000000000000000000000000000000000000000000000000000000000000000000000000000000000000000000000000000000000000000000000000000000000000000000
310
00000000000000000000000000000000000000000000000000000000000000000000000000000000000000000000000000000000000000000000000000000000000000000000000000000000000000000000000000000000000000000000000000000000000000000000000000000000000000000000F5F5F5F5F5F5F5F5F5
310
F5F5F5F5F5F5F5F5F5F5F5F5F5F5F5F5F5F5F5F5F5F5F5F5F5F5F5F5F5F5F5F5F5F5F5F5F5F5F5F5F5F5F5000000000000000000000000000000000000000000000000000000000000000000000000000000000000000000000000000000000000000000000000000000000000000000000000000000000000000000000000
310
000000000000000000000000000000000000
  0
XRECORD
  5
8374
102
{ACAD_REACTORS
330
8373
102
}
330
8373
100
AcDbXrecord
280
     1
102
MATERIAL
148
0.0
149
0.0
149
0.0
 93
        0
 94
      127
282
     0
 72
     0
 77
     0
171
     0
175
     0
179
     0
273
     0
  0
XRECORD
  5
8376
102
{ACAD_REACTORS
330
8375
102
}
330
8375
100
AcDbXrecord
280
     1
102
MATERIAL
148
0.0
149
0.0
149
0.0
 93
        0
 94
      127
282
     0
 72
     0
 77
     0
171
     0
175
     0
179
     0
273
     0
  0
XRECORD
  5
8378
102
{ACAD_REACTORS
330
8377
102
}
330
8377
100
AcDbXrecord
280
     1
102
MATERIAL
148
0.0
149
0.0
149
0.0
 93
        0
 94
      127
282
     0
 72
     0
 77
     0
171
     0
175
     0
179
     0
273
     0
  0
XRECORD
  5
837A
102
{ACAD_REACTORS
330
8379
102
}
330
8379
100
AcDbXrecord
280
     1
102
ACAD_ROUNDTRIP_2010_MLEADER_STYLE
  0
XRECORD
  5
837B
102
{ACAD_REACTORS
330
8363
102
}
330
8363
100
AcDbXrecord
280
     1
102
DISPLAYNAME
  1
Imperial24
102
FLAGS
 90
        0
  0
XRECORD
  5
837D
102
{ACAD_REACTORS
330
837C
102
}
330
837C
100
AcDbXrecord
280
     1
102
RTVSPropertyOp0
 70
     1
102
RTVSPropertyOp1
 70
     1
102
RTVSPropertyOp2
 70
     1
102
RTVSPropertyOp3
 70
     1
102
RTVSPropertyOp4
 70
     1
102
RTVSPropertyOp5
 70
     1
102
RTVSPropertyOp6
 70
     1
102
RTVSPropertyOp7
 70
     1
102
RTVSPropertyOp8
 70
     1
102
RTVSPropertyOp9
 70
     1
102
RTVSPropertyOp10
 70
     1
102
RTVSPropertyOp11
 70
     1
102
RTVSPropertyOp12
 70
     1
102
RTVSPropertyOp13
 70
     1
102
RTVSPropertyOp14
 70
     1
102
RTVSPropertyOp15
 70
     1
102
RTVSPropertyOp16
 70
     1
102
RTVSPropertyOp17
 70
     1
102
RTVSPropertyOp18
 70
     1
102
RTVSPropertyOp19
 70
     1
102
RTVSPropertyOp20
 70
     1
102
RTVSPropertyOp21
 70
     1
102
RTVSPropertyOp22
 70
     1
102
RTVSPropertyOp23
 70
     1
102
RTVSPropertyOp24
 70
     1
102
RTVSPropertyOp25
 70
     1
102
RTVSPropertyOp26
 70
     1
102
RTVSPropertyOp27
 70
     1
102
RTVSPropertyOp28
 70
     1
102
RTVSPropertyOp29
 70
     1
102
RTVSPropertyOp30
 70
     1
102
RTVSPropertyOp31
 70
     1
102
RTVSPropertyOp32
 70
     1
102
RTVSPropertyOp33
 70
     1
102
RTVSPropertyOp34
 70
     1
102
RTVSPropertyOp35
 70
     1
102
RTVSPropertyOp36
 70
     1
102
RTVSPropertyOp37
 70
     1
102
RTVSPropertyOp38
 70
     1
102
RTVSPropertyOp39
 70
     1
102
RTVSPropertyOp40
 70
     1
102
RTVSPropertyOp41
 70
     1
102
RTVSPropertyOp42
 70
     1
102
RTVSPropertyOp43
 70
     1
102
RTVSPropertyOp44
 70
     1
102
RTVSPropertyOp45
 70
     1
102
RTVSPropertyOp46
 70
     1
102
RTVSPropertyOp47
 70
     1
102
RTVSPropertyOp48
 70
     1
102
RTVSPropertyOp49
 70
     1
102
RTVSPropertyOp50
 70
     1
102
RTVSPropertyOp51
 70
     0
102
RTVSPropertyOp52
 70
     0
102
RTVSPropertyOp53
 70
     1
102
RTVSPropertyOp54
 70
     1
102
RTVSPropertyOp55
 70
     1
102
RTVSPropertyOp56
 70
     1
102
RTVSPropertyOp57
 70
     1
102
RTVSPost2010Prop28
280
     1
102
RTVSPost2010PropOp28
 70
     1
102
RTVSPost2010Prop29
280
     1
102
RTVSPost2010PropOp29
 70
     1
102
RTVSPost2010Prop30
280
     0
102
RTVSPost2010PropOp30
 70
     1
102
RTVSPost2010Prop31
280
     0
102
RTVSPost2010PropOp31
 70
     1
102
RTVSPost2010Prop32
280
     0
102
RTVSPost2010PropOp32
 70
     1
102
RTVSPost2010Prop33
280
     0
102
RTVSPost2010PropOp33
 70
     1
102
RTVSPost2010Prop34
280
     0
102
RTVSPost2010PropOp34
 70
     1
102
RTVSPost2010Prop35
280
     0
102
RTVSPost2010PropOp35
 70
     1
102
RTVSPost2010Prop36
280
     0
102
RTVSPost2010PropOp36
 70
     1
102
RTVSPost2010Prop37
 90
       50
102
RTVSPost2010PropOp37
 70
     1
102
RTVSPost2010Prop38
140
0.0
102
RTVSPost2010PropOp38
 70
     1
102
RTVSPost2010Prop39
140
1.0
102
RTVSPost2010PropOp39
 70
     1
102
RTVSPost2010Prop40
 90
        0
102
RTVSPost2010PropOp40
 70
     1
102
RTVSPost2010Prop41ColorIndex
 90
       18
102
RTVSPost2010Prop41ColorRGB
 90
        0
102
RTVSPost2010PropOp41
 70
     1
102
RTVSPost2010Prop42
 90
       50
102
RTVSPost2010PropOp42
 70
     1
102
RTVSPost2010Prop43
 90
        3
102
RTVSPost2010PropOp43
 70
     1
102
RTVSPost2010Prop44ColorIndex
 90
        5
102
RTVSPost2010Prop44ColorRGB
 90
      255
102
RTVSPost2010PropOp44
 70
     1
102
RTVSPost2010Prop45
280
     0
102
RTVSPost2010PropOp45
 70
     1
102
RTVSPost2010Prop46
 90
       50
102
RTVSPost2010PropOp46
 70
     1
102
RTVSPost2010Prop47
 90
       50
102
RTVSPost2010PropOp47
 70
     1
102
RTVSPost2010Prop48
 90
       50
102
RTVSPost2010PropOp48
 70
     1
102
RTVSPost2010Prop49
280
     0
102
RTVSPost2010PropOp49
 70
     1
102
RTVSPost2010Prop50
 90
       50
102
RTVSPost2010PropOp50
 70
     1
102
RTVSPost2010Prop51ColorIndex
 90
      256
102
RTVSPost2010Prop51ColorRGB
 90
-16777216
102
RTVSPost2010PropOp51
 70
     0
102
RTVSPost2010Prop52
140
1.0
102
RTVSPost2010PropOp52
 70
     0
102
RTVSPost2010Prop53
 90
        2
102
RTVSPost2010PropOp53
 70
     1
102
RTVSPost2010Prop54
  1
strokes_ogs.tif
102
RTVSPost2010PropOp54
 70
     1
102
RTVSPost2010Prop55
280
     0
102
RTVSPost2010PropOp55
 70
     1
102
RTVSPost2010Prop56
140
1.0
102
RTVSPost2010PropOp56
 70
     1
102
RTVSPost2010Prop57
140
1.0
102
RTVSPost2010PropOp57
 70
     1
  0
XRECORD
  5
837F
102
{ACAD_REACTORS
330
837E
102
}
330
837E
100
AcDbXrecord
280
     1
102
RTVSPropertyOp0
 70
     1
102
RTVSPropertyOp1
 70
     1
102
RTVSPropertyOp2
 70
     1
102
RTVSPropertyOp3
 70
     1
102
RTVSPropertyOp4
 70
     1
102
RTVSPropertyOp5
 70
     1
102
RTVSPropertyOp6
 70
     1
102
RTVSPropertyOp7
 70
     1
102
RTVSPropertyOp8
 70
     1
102
RTVSPropertyOp9
 70
     1
102
RTVSPropertyOp10
 70
     1
102
RTVSPropertyOp11
 70
     1
102
RTVSPropertyOp12
 70
     1
102
RTVSPropertyOp13
 70
     1
102
RTVSPropertyOp14
 70
     1
102
RTVSPropertyOp15
 70
     1
102
RTVSPropertyOp16
 70
     1
102
RTVSPropertyOp17
 70
     1
102
RTVSPropertyOp18
 70
     1
102
RTVSPropertyOp19
 70
     1
102
RTVSPropertyOp20
 70
     1
102
RTVSPropertyOp21
 70
     1
102
RTVSPropertyOp22
 70
     1
102
RTVSPropertyOp23
 70
     1
102
RTVSPropertyOp24
 70
     1
102
RTVSPropertyOp25
 70
     1
102
RTVSPropertyOp26
 70
     1
102
RTVSPropertyOp27
 70
     1
102
RTVSPropertyOp28
 70
     1
102
RTVSPropertyOp29
 70
     1
102
RTVSPropertyOp30
 70
     1
102
RTVSPropertyOp31
 70
     1
102
RTVSPropertyOp32
 70
     1
102
RTVSPropertyOp33
 70
     1
102
RTVSPropertyOp34
 70
     1
102
RTVSPropertyOp35
 70
     1
102
RTVSPropertyOp36
 70
     1
102
RTVSPropertyOp37
 70
     1
102
RTVSPropertyOp38
 70
     1
102
RTVSPropertyOp39
 70
     1
102
RTVSPropertyOp40
 70
     1
102
RTVSPropertyOp41
 70
     1
102
RTVSPropertyOp42
 70
     1
102
RTVSPropertyOp43
 70
     1
102
RTVSPropertyOp44
 70
     1
102
RTVSPropertyOp45
 70
     1
102
RTVSPropertyOp46
 70
     1
102
RTVSPropertyOp47
 70
     1
102
RTVSPropertyOp48
 70
     1
102
RTVSPropertyOp49
 70
     1
102
RTVSPropertyOp50
 70
     1
102
RTVSPropertyOp51
 70
     0
102
RTVSPropertyOp52
 70
     0
102
RTVSPropertyOp53
 70
     1
102
RTVSPropertyOp54
 70
     1
102
RTVSPropertyOp55
 70
     1
102
RTVSPropertyOp56
 70
     1
102
RTVSPropertyOp57
 70
     1
102
RTVSPost2010Prop28
280
     0
102
RTVSPost2010PropOp28
 70
     1
102
RTVSPost2010Prop29
280
     1
102
RTVSPost2010PropOp29
 70
     1
102
RTVSPost2010Prop30
280
     1
102
RTVSPost2010PropOp30
 70
     1
102
RTVSPost2010Prop31
280
     0
102
RTVSPost2010PropOp31
 70
     1
102
RTVSPost2010Prop32
280
     0
102
RTVSPost2010PropOp32
 70
     1
102
RTVSPost2010Prop33
280
     0
102
RTVSPost2010PropOp33
 70
     1
102
RTVSPost2010Prop34
280
     0
102
RTVSPost2010PropOp34
 70
     1
102
RTVSPost2010Prop35
280
     0
102
RTVSPost2010PropOp35
 70
     1
102
RTVSPost2010Prop36
280
     0
102
RTVSPost2010PropOp36
 70
     1
102
RTVSPost2010Prop37
 90
       50
102
RTVSPost2010PropOp37
 70
     1
102
RTVSPost2010Prop38
140
0.0
102
RTVSPost2010PropOp38
 70
     1
102
RTVSPost2010Prop39
140
1.0
102
RTVSPost2010PropOp39
 70
     1
102
RTVSPost2010Prop40
 90
        0
102
RTVSPost2010PropOp40
 70
     1
102
RTVSPost2010Prop41ColorIndex
 90
       18
102
RTVSPost2010Prop41ColorRGB
 90
        0
102
RTVSPost2010PropOp41
 70
     1
102
RTVSPost2010Prop42
 90
       50
102
RTVSPost2010PropOp42
 70
     1
102
RTVSPost2010Prop43
 90
        3
102
RTVSPost2010PropOp43
 70
     1
102
RTVSPost2010Prop44ColorIndex
 90
        5
102
RTVSPost2010Prop44ColorRGB
 90
      255
102
RTVSPost2010PropOp44
 70
     1
102
RTVSPost2010Prop45
280
     0
102
RTVSPost2010PropOp45
 70
     1
102
RTVSPost2010Prop46
 90
       50
102
RTVSPost2010PropOp46
 70
     1
102
RTVSPost2010Prop47
 90
       50
102
RTVSPost2010PropOp47
 70
     1
102
RTVSPost2010Prop48
 90
       50
102
RTVSPost2010PropOp48
 70
     1
102
RTVSPost2010Prop49
280
     0
102
RTVSPost2010PropOp49
 70
     1
102
RTVSPost2010Prop50
 90
       50
102
RTVSPost2010PropOp50
 70
     1
102
RTVSPost2010Prop51ColorIndex
 90
      256
102
RTVSPost2010Prop51ColorRGB
 90
-16777216
102
RTVSPost2010PropOp51
 70
     0
102
RTVSPost2010Prop52
140
1.0
102
RTVSPost2010PropOp52
 70
     0
102
RTVSPost2010Prop53
 90
        2
102
RTVSPost2010PropOp53
 70
     1
102
RTVSPost2010Prop54
  1
strokes_ogs.tif
102
RTVSPost2010PropOp54
 70
     1
102
RTVSPost2010Prop55
280
     0
102
RTVSPost2010PropOp55
 70
     1
102
RTVSPost2010Prop56
140
1.0
102
RTVSPost2010PropOp56
 70
     1
102
RTVSPost2010Prop57
140
1.0
102
RTVSPost2010PropOp57
 70
     1
  0
XRECORD
  5
8381
102
{ACAD_REACTORS
330
8380
102
}
330
8380
100
AcDbXrecord
280
     1
102
RTVSPropertyOp0
 70
     1
102
RTVSPropertyOp1
 70
     1
102
RTVSPropertyOp2
 70
     1
102
RTVSPropertyOp3
 70
     1
102
RTVSPropertyOp4
 70
     1
102
RTVSPropertyOp5
 70
     1
102
RTVSPropertyOp6
 70
     1
102
RTVSPropertyOp7
 70
     1
102
RTVSPropertyOp8
 70
     1
102
RTVSPropertyOp9
 70
     1
102
RTVSPropertyOp10
 70
     1
102
RTVSPropertyOp11
 70
     1
102
RTVSPropertyOp12
 70
     1
102
RTVSPropertyOp13
 70
     1
102
RTVSPropertyOp14
 70
     1
102
RTVSPropertyOp15
 70
     1
102
RTVSPropertyOp16
 70
     1
102
RTVSPropertyOp17
 70
     1
102
RTVSPropertyOp18
 70
     1
102
RTVSPropertyOp19
 70
     1
102
RTVSPropertyOp20
 70
     1
102
RTVSPropertyOp21
 70
     1
102
RTVSPropertyOp22
 70
     1
102
RTVSPropertyOp23
 70
     1
102
RTVSPropertyOp24
 70
     1
102
RTVSPropertyOp25
 70
     1
102
RTVSPropertyOp26
 70
     1
102
RTVSPropertyOp27
 70
     1
102
RTVSPropertyOp28
 70
     1
102
RTVSPropertyOp29
 70
     1
102
RTVSPropertyOp30
 70
     1
102
RTVSPropertyOp31
 70
     1
102
RTVSPropertyOp32
 70
     1
102
RTVSPropertyOp33
 70
     1
102
RTVSPropertyOp34
 70
     1
102
RTVSPropertyOp35
 70
     1
102
RTVSPropertyOp36
 70
     1
102
RTVSPropertyOp37
 70
     1
102
RTVSPropertyOp38
 70
     1
102
RTVSPropertyOp39
 70
     1
102
RTVSPropertyOp40
 70
     1
102
RTVSPropertyOp41
 70
     1
102
RTVSPropertyOp42
 70
     1
102
RTVSPropertyOp43
 70
     1
102
RTVSPropertyOp44
 70
     1
102
RTVSPropertyOp45
 70
     1
102
RTVSPropertyOp46
 70
     1
102
RTVSPropertyOp47
 70
     1
102
RTVSPropertyOp48
 70
     1
102
RTVSPropertyOp49
 70
     1
102
RTVSPropertyOp50
 70
     1
102
RTVSPropertyOp51
 70
     0
102
RTVSPropertyOp52
 70
     0
102
RTVSPropertyOp53
 70
     1
102
RTVSPropertyOp54
 70
     1
102
RTVSPropertyOp55
 70
     1
102
RTVSPropertyOp56
 70
     1
102
RTVSPropertyOp57
 70
     1
102
RTVSPost2010Prop28
280
     0
102
RTVSPost2010PropOp28
 70
     1
102
RTVSPost2010Prop29
280
     1
102
RTVSPost2010PropOp29
 70
     1
102
RTVSPost2010Prop30
280
     1
102
RTVSPost2010PropOp30
 70
     1
102
RTVSPost2010Prop31
280
     0
102
RTVSPost2010PropOp31
 70
     1
102
RTVSPost2010Prop32
280
     0
102
RTVSPost2010PropOp32
 70
     1
102
RTVSPost2010Prop33
280
     0
102
RTVSPost2010PropOp33
 70
     1
102
RTVSPost2010Prop34
280
     0
102
RTVSPost2010PropOp34
 70
     1
102
RTVSPost2010Prop35
280
     0
102
RTVSPost2010PropOp35
 70
     1
102
RTVSPost2010Prop36
280
     0
102
RTVSPost2010PropOp36
 70
     1
102
RTVSPost2010Prop37
 90
       50
102
RTVSPost2010PropOp37
 70
     1
102
RTVSPost2010Prop38
140
0.0
102
RTVSPost2010PropOp38
 70
     1
102
RTVSPost2010Prop39
140
1.0
102
RTVSPost2010PropOp39
 70
     1
102
RTVSPost2010Prop40
 90
        0
102
RTVSPost2010PropOp40
 70
     1
102
RTVSPost2010Prop41ColorIndex
 90
       18
102
RTVSPost2010Prop41ColorRGB
 90
        0
102
RTVSPost2010PropOp41
 70
     1
102
RTVSPost2010Prop42
 90
       50
102
RTVSPost2010PropOp42
 70
     1
102
RTVSPost2010Prop43
 90
        3
102
RTVSPost2010PropOp43
 70
     1
102
RTVSPost2010Prop44ColorIndex
 90
        5
102
RTVSPost2010Prop44ColorRGB
 90
      255
102
RTVSPost2010PropOp44
 70
     1
102
RTVSPost2010Prop45
280
     0
102
RTVSPost2010PropOp45
 70
     1
102
RTVSPost2010Prop46
 90
       50
102
RTVSPost2010PropOp46
 70
     1
102
RTVSPost2010Prop47
 90
       50
102
RTVSPost2010PropOp47
 70
     1
102
RTVSPost2010Prop48
 90
       50
102
RTVSPost2010PropOp48
 70
     1
102
RTVSPost2010Prop49
280
     0
102
RTVSPost2010PropOp49
 70
     1
102
RTVSPost2010Prop50
 90
       50
102
RTVSPost2010PropOp50
 70
     1
102
RTVSPost2010Prop51ColorIndex
 90
      256
102
RTVSPost2010Prop51ColorRGB
 90
-16777216
102
RTVSPost2010PropOp51
 70
     0
102
RTVSPost2010Prop52
140
1.0
102
RTVSPost2010PropOp52
 70
     0
102
RTVSPost2010Prop53
 90
        2
102
RTVSPost2010PropOp53
 70
     1
102
RTVSPost2010Prop54
  1
strokes_ogs.tif
102
RTVSPost2010PropOp54
 70
     1
102
RTVSPost2010Prop55
280
     0
102
RTVSPost2010PropOp55
 70
     1
102
RTVSPost2010Prop56
140
1.0
102
RTVSPost2010PropOp56
 70
     1
102
RTVSPost2010Prop57
140
1.0
102
RTVSPost2010PropOp57
 70
     1
  0
XRECORD
  5
8383
102
{ACAD_REACTORS
330
8382
102
}
330
8382
100
AcDbXrecord
280
     1
102
RTVSPropertyOp0
 70
     1
102
RTVSPropertyOp1
 70
     1
102
RTVSPropertyOp2
 70
     1
102
RTVSPropertyOp3
 70
     1
102
RTVSPropertyOp4
 70
     1
102
RTVSPropertyOp5
 70
     1
102
RTVSPropertyOp6
 70
     1
102
RTVSPropertyOp7
 70
     1
102
RTVSPropertyOp8
 70
     1
102
RTVSPropertyOp9
 70
     1
102
RTVSPropertyOp10
 70
     1
102
RTVSPropertyOp11
 70
     1
102
RTVSPropertyOp12
 70
     1
102
RTVSPropertyOp13
 70
     1
102
RTVSPropertyOp14
 70
     1
102
RTVSPropertyOp15
 70
     1
102
RTVSPropertyOp16
 70
     1
102
RTVSPropertyOp17
 70
     1
102
RTVSPropertyOp18
 70
     1
102
RTVSPropertyOp19
 70
     1
102
RTVSPropertyOp20
 70
     1
102
RTVSPropertyOp21
 70
     1
102
RTVSPropertyOp22
 70
     1
102
RTVSPropertyOp23
 70
     1
102
RTVSPropertyOp24
 70
     1
102
RTVSPropertyOp25
 70
     1
102
RTVSPropertyOp26
 70
     1
102
RTVSPropertyOp27
 70
     1
102
RTVSPropertyOp28
 70
     1
102
RTVSPropertyOp29
 70
     1
102
RTVSPropertyOp30
 70
     1
102
RTVSPropertyOp31
 70
     1
102
RTVSPropertyOp32
 70
     1
102
RTVSPropertyOp33
 70
     1
102
RTVSPropertyOp34
 70
     1
102
RTVSPropertyOp35
 70
     1
102
RTVSPropertyOp36
 70
     1
102
RTVSPropertyOp37
 70
     1
102
RTVSPropertyOp38
 70
     1
102
RTVSPropertyOp39
 70
     1
102
RTVSPropertyOp40
 70
     1
102
RTVSPropertyOp41
 70
     1
102
RTVSPropertyOp42
 70
     1
102
RTVSPropertyOp43
 70
     1
102
RTVSPropertyOp44
 70
     1
102
RTVSPropertyOp45
 70
     1
102
RTVSPropertyOp46
 70
     1
102
RTVSPropertyOp47
 70
     1
102
RTVSPropertyOp48
 70
     1
102
RTVSPropertyOp49
 70
     1
102
RTVSPropertyOp50
 70
     1
102
RTVSPropertyOp51
 70
     0
102
RTVSPropertyOp52
 70
     0
102
RTVSPropertyOp53
 70
     1
102
RTVSPropertyOp54
 70
     1
102
RTVSPropertyOp55
 70
     1
102
RTVSPropertyOp56
 70
     1
102
RTVSPropertyOp57
 70
     1
102
RTVSPost2010Prop28
280
     0
102
RTVSPost2010PropOp28
 70
     1
102
RTVSPost2010Prop29
280
     1
102
RTVSPost2010PropOp29
 70
     1
102
RTVSPost2010Prop30
280
     1
102
RTVSPost2010PropOp30
 70
     1
102
RTVSPost2010Prop31
280
     0
102
RTVSPost2010PropOp31
 70
     1
102
RTVSPost2010Prop32
280
     0
102
RTVSPost2010PropOp32
 70
     1
102
RTVSPost2010Prop33
280
     0
102
RTVSPost2010PropOp33
 70
     1
102
RTVSPost2010Prop34
280
     0
102
RTVSPost2010PropOp34
 70
     1
102
RTVSPost2010Prop35
280
     0
102
RTVSPost2010PropOp35
 70
     1
102
RTVSPost2010Prop36
280
     0
102
RTVSPost2010PropOp36
 70
     1
102
RTVSPost2010Prop37
 90
       50
102
RTVSPost2010PropOp37
 70
     1
102
RTVSPost2010Prop38
140
0.0
102
RTVSPost2010PropOp38
 70
     1
102
RTVSPost2010Prop39
140
1.0
102
RTVSPost2010PropOp39
 70
     1
102
RTVSPost2010Prop40
 90
        0
102
RTVSPost2010PropOp40
 70
     1
102
RTVSPost2010Prop41ColorIndex
 90
       18
102
RTVSPost2010Prop41ColorRGB
 90
        0
102
RTVSPost2010PropOp41
 70
     1
102
RTVSPost2010Prop42
 90
       50
102
RTVSPost2010PropOp42
 70
     1
102
RTVSPost2010Prop43
 90
        3
102
RTVSPost2010PropOp43
 70
     1
102
RTVSPost2010Prop44ColorIndex
 90
        5
102
RTVSPost2010Prop44ColorRGB
 90
      255
102
RTVSPost2010PropOp44
 70
     1
102
RTVSPost2010Prop45
280
     0
102
RTVSPost2010PropOp45
 70
     1
102
RTVSPost2010Prop46
 90
       50
102
RTVSPost2010PropOp46
 70
     1
102
RTVSPost2010Prop47
 90
       50
102
RTVSPost2010PropOp47
 70
     1
102
RTVSPost2010Prop48
 90
       50
102
RTVSPost2010PropOp48
 70
     1
102
RTVSPost2010Prop49
280
     0
102
RTVSPost2010PropOp49
 70
     1
102
RTVSPost2010Prop50
 90
       50
102
RTVSPost2010PropOp50
 70
     1
102
RTVSPost2010Prop51ColorIndex
 90
      256
102
RTVSPost2010Prop51ColorRGB
 90
-16777216
102
RTVSPost2010PropOp51
 70
     0
102
RTVSPost2010Prop52
140
1.0
102
RTVSPost2010PropOp52
 70
     0
102
RTVSPost2010Prop53
 90
        2
102
RTVSPost2010PropOp53
 70
     1
102
RTVSPost2010Prop54
  1
strokes_ogs.tif
102
RTVSPost2010PropOp54
 70
     1
102
RTVSPost2010Prop55
280
     0
102
RTVSPost2010PropOp55
 70
     1
102
RTVSPost2010Prop56
140
1.0
102
RTVSPost2010PropOp56
 70
     1
102
RTVSPost2010Prop57
140
1.0
102
RTVSPost2010PropOp57
 70
     1
  0
XRECORD
  5
8385
102
{ACAD_REACTORS
330
8384
102
}
330
8384
100
AcDbXrecord
280
     1
102
RTVSPropertyOp0
 70
     1
102
RTVSPropertyOp1
 70
     1
102
RTVSPropertyOp2
 70
     1
102
RTVSPropertyOp3
 70
     1
102
RTVSPropertyOp4
 70
     1
102
RTVSPropertyOp5
 70
     1
102
RTVSPropertyOp6
 70
     1
102
RTVSPropertyOp7
 70
     1
102
RTVSPropertyOp8
 70
     1
102
RTVSPropertyOp9
 70
     1
102
RTVSPropertyOp10
 70
     1
102
RTVSPropertyOp11
 70
     1
102
RTVSPropertyOp12
 70
     1
102
RTVSPropertyOp13
 70
     1
102
RTVSPropertyOp14
 70
     1
102
RTVSPropertyOp15
 70
     1
102
RTVSPropertyOp16
 70
     1
102
RTVSPropertyOp17
 70
     1
102
RTVSPropertyOp18
 70
     1
102
RTVSPropertyOp19
 70
     1
102
RTVSPropertyOp20
 70
     1
102
RTVSPropertyOp21
 70
     1
102
RTVSPropertyOp22
 70
     1
102
RTVSPropertyOp23
 70
     1
102
RTVSPropertyOp24
 70
     1
102
RTVSPropertyOp25
 70
     1
102
RTVSPropertyOp26
 70
     1
102
RTVSPropertyOp27
 70
     1
102
RTVSPropertyOp28
 70
     1
102
RTVSPropertyOp29
 70
     1
102
RTVSPropertyOp30
 70
     1
102
RTVSPropertyOp31
 70
     1
102
RTVSPropertyOp32
 70
     1
102
RTVSPropertyOp33
 70
     1
102
RTVSPropertyOp34
 70
     1
102
RTVSPropertyOp35
 70
     1
102
RTVSPropertyOp36
 70
     1
102
RTVSPropertyOp37
 70
     1
102
RTVSPropertyOp38
 70
     1
102
RTVSPropertyOp39
 70
     1
102
RTVSPropertyOp40
 70
     1
102
RTVSPropertyOp41
 70
     1
102
RTVSPropertyOp42
 70
     1
102
RTVSPropertyOp43
 70
     1
102
RTVSPropertyOp44
 70
     1
102
RTVSPropertyOp45
 70
     1
102
RTVSPropertyOp46
 70
     1
102
RTVSPropertyOp47
 70
     1
102
RTVSPropertyOp48
 70
     1
102
RTVSPropertyOp49
 70
     1
102
RTVSPropertyOp50
 70
     1
102
RTVSPropertyOp51
 70
     0
102
RTVSPropertyOp52
 70
     0
102
RTVSPropertyOp53
 70
     1
102
RTVSPropertyOp54
 70
     1
102
RTVSPropertyOp55
 70
     1
102
RTVSPropertyOp56
 70
     1
102
RTVSPropertyOp57
 70
     1
102
RTVSPost2010Prop28
280
     0
102
RTVSPost2010PropOp28
 70
     1
102
RTVSPost2010Prop29
280
     1
102
RTVSPost2010PropOp29
 70
     1
102
RTVSPost2010Prop30
280
     1
102
RTVSPost2010PropOp30
 70
     1
102
RTVSPost2010Prop31
280
     0
102
RTVSPost2010PropOp31
 70
     1
102
RTVSPost2010Prop32
280
     0
102
RTVSPost2010PropOp32
 70
     1
102
RTVSPost2010Prop33
280
     0
102
RTVSPost2010PropOp33
 70
     1
102
RTVSPost2010Prop34
280
     0
102
RTVSPost2010PropOp34
 70
     1
102
RTVSPost2010Prop35
280
     0
102
RTVSPost2010PropOp35
 70
     1
102
RTVSPost2010Prop36
280
     0
102
RTVSPost2010PropOp36
 70
     1
102
RTVSPost2010Prop37
 90
       50
102
RTVSPost2010PropOp37
 70
     1
102
RTVSPost2010Prop38
140
0.0
102
RTVSPost2010PropOp38
 70
     1
102
RTVSPost2010Prop39
140
1.0
102
RTVSPost2010PropOp39
 70
     1
102
RTVSPost2010Prop40
 90
        0
102
RTVSPost2010PropOp40
 70
     1
102
RTVSPost2010Prop41ColorIndex
 90
       18
102
RTVSPost2010Prop41ColorRGB
 90
        0
102
RTVSPost2010PropOp41
 70
     1
102
RTVSPost2010Prop42
 90
       50
102
RTVSPost2010PropOp42
 70
     1
102
RTVSPost2010Prop43
 90
        3
102
RTVSPost2010PropOp43
 70
     1
102
RTVSPost2010Prop44ColorIndex
 90
        5
102
RTVSPost2010Prop44ColorRGB
 90
      255
102
RTVSPost2010PropOp44
 70
     1
102
RTVSPost2010Prop45
280
     0
102
RTVSPost2010PropOp45
 70
     1
102
RTVSPost2010Prop46
 90
       50
102
RTVSPost2010PropOp46
 70
     1
102
RTVSPost2010Prop47
 90
       50
102
RTVSPost2010PropOp47
 70
     1
102
RTVSPost2010Prop48
 90
       50
102
RTVSPost2010PropOp48
 70
     1
102
RTVSPost2010Prop49
280
     0
102
RTVSPost2010PropOp49
 70
     1
102
RTVSPost2010Prop50
 90
       50
102
RTVSPost2010PropOp50
 70
     1
102
RTVSPost2010Prop51ColorIndex
 90
      256
102
RTVSPost2010Prop51ColorRGB
 90
-16777216
102
RTVSPost2010PropOp51
 70
     0
102
RTVSPost2010Prop52
140
1.0
102
RTVSPost2010PropOp52
 70
     0
102
RTVSPost2010Prop53
 90
        2
102
RTVSPost2010PropOp53
 70
     1
102
RTVSPost2010Prop54
  1
strokes_ogs.tif
102
RTVSPost2010PropOp54
 70
     1
102
RTVSPost2010Prop55
280
     0
102
RTVSPost2010PropOp55
 70
     1
102
RTVSPost2010Prop56
140
1.0
102
RTVSPost2010PropOp56
 70
     1
102
RTVSPost2010Prop57
140
1.0
102
RTVSPost2010PropOp57
 70
     1
  0
XRECORD
  5
8387
102
{ACAD_REACTORS
330
8386
102
}
330
8386
100
AcDbXrecord
280
     1
102
RTVSPropertyOp0
 70
     1
102
RTVSPropertyOp1
 70
     1
102
RTVSPropertyOp2
 70
     1
102
RTVSPropertyOp3
 70
     1
102
RTVSPropertyOp4
 70
     1
102
RTVSPropertyOp5
 70
     1
102
RTVSPropertyOp6
 70
     1
102
RTVSPropertyOp7
 70
     1
102
RTVSPropertyOp8
 70
     1
102
RTVSPropertyOp9
 70
     1
102
RTVSPropertyOp10
 70
     1
102
RTVSPropertyOp11
 70
     1
102
RTVSPropertyOp12
 70
     1
102
RTVSPropertyOp13
 70
     1
102
RTVSPropertyOp14
 70
     1
102
RTVSPropertyOp15
 70
     1
102
RTVSPropertyOp16
 70
     1
102
RTVSPropertyOp17
 70
     1
102
RTVSPropertyOp18
 70
     1
102
RTVSPropertyOp19
 70
     1
102
RTVSPropertyOp20
 70
     1
102
RTVSPropertyOp21
 70
     1
102
RTVSPropertyOp22
 70
     1
102
RTVSPropertyOp23
 70
     1
102
RTVSPropertyOp24
 70
     1
102
RTVSPropertyOp25
 70
     1
102
RTVSPropertyOp26
 70
     1
102
RTVSPropertyOp27
 70
     1
102
RTVSPropertyOp28
 70
     1
102
RTVSPropertyOp29
 70
     1
102
RTVSPropertyOp30
 70
     1
102
RTVSPropertyOp31
 70
     1
102
RTVSPropertyOp32
 70
     1
102
RTVSPropertyOp33
 70
     1
102
RTVSPropertyOp34
 70
     1
102
RTVSPropertyOp35
 70
     1
102
RTVSPropertyOp36
 70
     1
102
RTVSPropertyOp37
 70
     1
102
RTVSPropertyOp38
 70
     1
102
RTVSPropertyOp39
 70
     1
102
RTVSPropertyOp40
 70
     1
102
RTVSPropertyOp41
 70
     1
102
RTVSPropertyOp42
 70
     1
102
RTVSPropertyOp43
 70
     1
102
RTVSPropertyOp44
 70
     1
102
RTVSPropertyOp45
 70
     1
102
RTVSPropertyOp46
 70
     1
102
RTVSPropertyOp47
 70
     1
102
RTVSPropertyOp48
 70
     1
102
RTVSPropertyOp49
 70
     1
102
RTVSPropertyOp50
 70
     1
102
RTVSPropertyOp51
 70
     0
102
RTVSPropertyOp52
 70
     0
102
RTVSPropertyOp53
 70
     1
102
RTVSPropertyOp54
 70
     1
102
RTVSPropertyOp55
 70
     1
102
RTVSPropertyOp56
 70
     1
102
RTVSPropertyOp57
 70
     1
102
RTVSPost2010Prop28
280
     0
102
RTVSPost2010PropOp28
 70
     1
102
RTVSPost2010Prop29
280
     1
102
RTVSPost2010PropOp29
 70
     1
102
RTVSPost2010Prop30
280
     1
102
RTVSPost2010PropOp30
 70
     1
102
RTVSPost2010Prop31
280
     0
102
RTVSPost2010PropOp31
 70
     1
102
RTVSPost2010Prop32
280
     0
102
RTVSPost2010PropOp32
 70
     1
102
RTVSPost2010Prop33
280
     0
102
RTVSPost2010PropOp33
 70
     1
102
RTVSPost2010Prop34
280
     0
102
RTVSPost2010PropOp34
 70
     1
102
RTVSPost2010Prop35
280
     0
102
RTVSPost2010PropOp35
 70
     1
102
RTVSPost2010Prop36
280
     0
102
RTVSPost2010PropOp36
 70
     1
102
RTVSPost2010Prop37
 90
       50
102
RTVSPost2010PropOp37
 70
     1
102
RTVSPost2010Prop38
140
0.0
102
RTVSPost2010PropOp38
 70
     1
102
RTVSPost2010Prop39
140
1.0
102
RTVSPost2010PropOp39
 70
     1
102
RTVSPost2010Prop40
 90
        0
102
RTVSPost2010PropOp40
 70
     1
102
RTVSPost2010Prop41ColorIndex
 90
       18
102
RTVSPost2010Prop41ColorRGB
 90
        0
102
RTVSPost2010PropOp41
 70
     1
102
RTVSPost2010Prop42
 90
       50
102
RTVSPost2010PropOp42
 70
     1
102
RTVSPost2010Prop43
 90
        3
102
RTVSPost2010PropOp43
 70
     1
102
RTVSPost2010Prop44ColorIndex
 90
        5
102
RTVSPost2010Prop44ColorRGB
 90
      255
102
RTVSPost2010PropOp44
 70
     1
102
RTVSPost2010Prop45
280
     0
102
RTVSPost2010PropOp45
 70
     1
102
RTVSPost2010Prop46
 90
       50
102
RTVSPost2010PropOp46
 70
     1
102
RTVSPost2010Prop47
 90
       50
102
RTVSPost2010PropOp47
 70
     1
102
RTVSPost2010Prop48
 90
       50
102
RTVSPost2010PropOp48
 70
     1
102
RTVSPost2010Prop49
280
     0
102
RTVSPost2010PropOp49
 70
     1
102
RTVSPost2010Prop50
 90
       50
102
RTVSPost2010PropOp50
 70
     1
102
RTVSPost2010Prop51ColorIndex
 90
      256
102
RTVSPost2010Prop51ColorRGB
 90
-16777216
102
RTVSPost2010PropOp51
 70
     0
102
RTVSPost2010Prop52
140
1.0
102
RTVSPost2010PropOp52
 70
     0
102
RTVSPost2010Prop53
 90
        2
102
RTVSPost2010PropOp53
 70
     1
102
RTVSPost2010Prop54
  1
strokes_ogs.tif
102
RTVSPost2010PropOp54
 70
     1
102
RTVSPost2010Prop55
280
     0
102
RTVSPost2010PropOp55
 70
     1
102
RTVSPost2010Prop56
140
1.0
102
RTVSPost2010PropOp56
 70
     1
102
RTVSPost2010Prop57
140
1.0
102
RTVSPost2010PropOp57
 70
     1
  0
XRECORD
  5
8389
102
{ACAD_REACTORS
330
8388
102
}
330
8388
100
AcDbXrecord
280
     1
102
RTVSPropertyOp0
 70
     0
102
RTVSPropertyOp1
 70
     0
102
RTVSPropertyOp2
 70
     0
102
RTVSPropertyOp3
 70
     0
102
RTVSPropertyOp4
 70
     0
102
RTVSPropertyOp5
 70
     0
102
RTVSPropertyOp6
 70
     0
102
RTVSPropertyOp7
 70
     0
102
RTVSPropertyOp8
 70
     0
102
RTVSPropertyOp9
 70
     0
102
RTVSPropertyOp10
 70
     0
102
RTVSPropertyOp11
 70
     0
102
RTVSPropertyOp12
 70
     0
102
RTVSPropertyOp13
 70
     0
102
RTVSPropertyOp14
 70
     2
102
RTVSPropertyOp15
 70
     0
102
RTVSPropertyOp16
 70
     0
102
RTVSPropertyOp17
 70
     0
102
RTVSPropertyOp18
 70
     0
102
RTVSPropertyOp19
 70
     0
102
RTVSPropertyOp20
 70
     0
102
RTVSPropertyOp21
 70
     0
102
RTVSPropertyOp22
 70
     0
102
RTVSPropertyOp23
 70
     0
102
RTVSPropertyOp24
 70
     0
102
RTVSPropertyOp25
 70
     0
102
RTVSPropertyOp26
 70
     0
102
RTVSPropertyOp27
 70
     0
102
RTVSPropertyOp28
 70
     1
102
RTVSPropertyOp29
 70
     1
102
RTVSPropertyOp30
 70
     1
102
RTVSPropertyOp31
 70
     1
102
RTVSPropertyOp32
 70
     1
102
RTVSPropertyOp33
 70
     1
102
RTVSPropertyOp34
 70
     1
102
RTVSPropertyOp35
 70
     1
102
RTVSPropertyOp36
 70
     1
102
RTVSPropertyOp37
 70
     0
102
RTVSPropertyOp38
 70
     0
102
RTVSPropertyOp39
 70
     0
102
RTVSPropertyOp40
 70
     0
102
RTVSPropertyOp41
 70
     0
102
RTVSPropertyOp42
 70
     0
102
RTVSPropertyOp43
 70
     0
102
RTVSPropertyOp44
 70
     0
102
RTVSPropertyOp45
 70
     1
102
RTVSPropertyOp46
 70
     0
102
RTVSPropertyOp47
 70
     0
102
RTVSPropertyOp48
 70
     0
102
RTVSPropertyOp49
 70
     1
102
RTVSPropertyOp50
 70
     0
102
RTVSPropertyOp51
 70
     0
102
RTVSPropertyOp52
 70
     0
102
RTVSPropertyOp53
 70
     0
102
RTVSPropertyOp54
 70
     0
102
RTVSPropertyOp55
 70
     1
102
RTVSPropertyOp56
 70
     0
102
RTVSPropertyOp57
 70
     0
102
RTVSPost2010Prop28
280
     0
102
RTVSPost2010PropOp28
 70
     1
102
RTVSPost2010Prop29
280
     1
102
RTVSPost2010PropOp29
 70
     1
102
RTVSPost2010Prop30
280
     1
102
RTVSPost2010PropOp30
 70
     1
102
RTVSPost2010Prop31
280
     0
102
RTVSPost2010PropOp31
 70
     1
102
RTVSPost2010Prop32
280
     0
102
RTVSPost2010PropOp32
 70
     1
102
RTVSPost2010Prop33
280
     0
102
RTVSPost2010PropOp33
 70
     1
102
RTVSPost2010Prop34
280
     0
102
RTVSPost2010PropOp34
 70
     1
102
RTVSPost2010Prop35
280
     0
102
RTVSPost2010PropOp35
 70
     1
102
RTVSPost2010Prop36
280
     0
102
RTVSPost2010PropOp36
 70
     1
102
RTVSPost2010Prop37
 90
       50
102
RTVSPost2010PropOp37
 70
     0
102
RTVSPost2010Prop38
140
0.0
102
RTVSPost2010PropOp38
 70
     0
102
RTVSPost2010Prop39
140
1.0
102
RTVSPost2010PropOp39
 70
     0
102
RTVSPost2010Prop40
 90
        0
102
RTVSPost2010PropOp40
 70
     0
102
RTVSPost2010Prop41ColorIndex
 90
       18
102
RTVSPost2010Prop41ColorRGB
 90
        0
102
RTVSPost2010PropOp41
 70
     0
102
RTVSPost2010Prop42
 90
       50
102
RTVSPost2010PropOp42
 70
     0
102
RTVSPost2010Prop43
 90
        3
102
RTVSPost2010PropOp43
 70
     0
102
RTVSPost2010Prop44ColorIndex
 90
        5
102
RTVSPost2010Prop44ColorRGB
 90
      255
102
RTVSPost2010PropOp44
 70
     0
102
RTVSPost2010Prop45
280
     0
102
RTVSPost2010PropOp45
 70
     1
102
RTVSPost2010Prop46
 90
       50
102
RTVSPost2010PropOp46
 70
     0
102
RTVSPost2010Prop47
 90
       50
102
RTVSPost2010PropOp47
 70
     0
102
RTVSPost2010Prop48
 90
       50
102
RTVSPost2010PropOp48
 70
     0
102
RTVSPost2010Prop49
280
     0
102
RTVSPost2010PropOp49
 70
     1
102
RTVSPost2010Prop50
 90
       50
102
RTVSPost2010PropOp50
 70
     0
102
RTVSPost2010Prop51ColorIndex
 90
      256
102
RTVSPost2010Prop51ColorRGB
 90
-16777216
102
RTVSPost2010PropOp51
 70
     0
102
RTVSPost2010Prop52
140
1.0
102
RTVSPost2010PropOp52
 70
     0
102
RTVSPost2010Prop53
 90
        2
102
RTVSPost2010PropOp53
 70
     0
102
RTVSPost2010Prop54
  1
strokes_ogs.tif
102
RTVSPost2010PropOp54
 70
     0
102
RTVSPost2010Prop55
280
     0
102
RTVSPost2010PropOp55
 70
     1
102
RTVSPost2010Prop56
140
1.0
102
RTVSPost2010PropOp56
 70
     0
102
RTVSPost2010Prop57
140
1.0
102
RTVSPost2010PropOp57
 70
     0
  0
XRECORD
  5
838B
102
{ACAD_REACTORS
330
838A
102
}
330
838A
100
AcDbXrecord
280
     1
102
RTVSPropertyOp0
 70
     1
102
RTVSPropertyOp1
 70
     1
102
RTVSPropertyOp2
 70
     1
102
RTVSPropertyOp3
 70
     1
102
RTVSPropertyOp4
 70
     1
102
RTVSPropertyOp5
 70
     1
102
RTVSPropertyOp6
 70
     1
102
RTVSPropertyOp7
 70
     1
102
RTVSPropertyOp8
 70
     1
102
RTVSPropertyOp9
 70
     1
102
RTVSPropertyOp10
 70
     1
102
RTVSPropertyOp11
 70
     1
102
RTVSPropertyOp12
 70
     1
102
RTVSPropertyOp13
 70
     1
102
RTVSPropertyOp14
 70
     1
102
RTVSPropertyOp15
 70
     1
102
RTVSPropertyOp16
 70
     1
102
RTVSPropertyOp17
 70
     1
102
RTVSPropertyOp18
 70
     1
102
RTVSPropertyOp19
 70
     1
102
RTVSPropertyOp20
 70
     1
102
RTVSPropertyOp21
 70
     1
102
RTVSPropertyOp22
 70
     1
102
RTVSPropertyOp23
 70
     1
102
RTVSPropertyOp24
 70
     1
102
RTVSPropertyOp25
 70
     1
102
RTVSPropertyOp26
 70
     1
102
RTVSPropertyOp27
 70
     1
102
RTVSPropertyOp28
 70
     1
102
RTVSPropertyOp29
 70
     1
102
RTVSPropertyOp30
 70
     1
102
RTVSPropertyOp31
 70
     1
102
RTVSPropertyOp32
 70
     1
102
RTVSPropertyOp33
 70
     1
102
RTVSPropertyOp34
 70
     1
102
RTVSPropertyOp35
 70
     1
102
RTVSPropertyOp36
 70
     1
102
RTVSPropertyOp37
 70
     1
102
RTVSPropertyOp38
 70
     1
102
RTVSPropertyOp39
 70
     1
102
RTVSPropertyOp40
 70
     1
102
RTVSPropertyOp41
 70
     1
102
RTVSPropertyOp42
 70
     1
102
RTVSPropertyOp43
 70
     1
102
RTVSPropertyOp44
 70
     1
102
RTVSPropertyOp45
 70
     1
102
RTVSPropertyOp46
 70
     1
102
RTVSPropertyOp47
 70
     1
102
RTVSPropertyOp48
 70
     1
102
RTVSPropertyOp49
 70
     1
102
RTVSPropertyOp50
 70
     1
102
RTVSPropertyOp51
 70
     0
102
RTVSPropertyOp52
 70
     0
102
RTVSPropertyOp53
 70
     1
102
RTVSPropertyOp54
 70
     1
102
RTVSPropertyOp55
 70
     1
102
RTVSPropertyOp56
 70
     1
102
RTVSPropertyOp57
 70
     1
102
RTVSPost2010Prop28
280
     0
102
RTVSPost2010PropOp28
 70
     1
102
RTVSPost2010Prop29
280
     1
102
RTVSPost2010PropOp29
 70
     1
102
RTVSPost2010Prop30
280
     1
102
RTVSPost2010PropOp30
 70
     1
102
RTVSPost2010Prop31
280
     0
102
RTVSPost2010PropOp31
 70
     1
102
RTVSPost2010Prop32
280
     0
102
RTVSPost2010PropOp32
 70
     1
102
RTVSPost2010Prop33
280
     0
102
RTVSPost2010PropOp33
 70
     1
102
RTVSPost2010Prop34
280
     0
102
RTVSPost2010PropOp34
 70
     1
102
RTVSPost2010Prop35
280
     0
102
RTVSPost2010PropOp35
 70
     1
102
RTVSPost2010Prop36
280
     0
102
RTVSPost2010PropOp36
 70
     1
102
RTVSPost2010Prop37
 90
       50
102
RTVSPost2010PropOp37
 70
     1
102
RTVSPost2010Prop38
140
0.0
102
RTVSPost2010PropOp38
 70
     1
102
RTVSPost2010Prop39
140
1.0
102
RTVSPost2010PropOp39
 70
     1
102
RTVSPost2010Prop40
 90
        0
102
RTVSPost2010PropOp40
 70
     1
102
RTVSPost2010Prop41ColorIndex
 90
       18
102
RTVSPost2010Prop41ColorRGB
 90
        0
102
RTVSPost2010PropOp41
 70
     1
102
RTVSPost2010Prop42
 90
       50
102
RTVSPost2010PropOp42
 70
     1
102
RTVSPost2010Prop43
 90
        3
102
RTVSPost2010PropOp43
 70
     1
102
RTVSPost2010Prop44ColorIndex
 90
        5
102
RTVSPost2010Prop44ColorRGB
 90
      255
102
RTVSPost2010PropOp44
 70
     1
102
RTVSPost2010Prop45
280
     0
102
RTVSPost2010PropOp45
 70
     1
102
RTVSPost2010Prop46
 90
       50
102
RTVSPost2010PropOp46
 70
     1
102
RTVSPost2010Prop47
 90
       50
102
RTVSPost2010PropOp47
 70
     1
102
RTVSPost2010Prop48
 90
       50
102
RTVSPost2010PropOp48
 70
     1
102
RTVSPost2010Prop49
280
     0
102
RTVSPost2010PropOp49
 70
     1
102
RTVSPost2010Prop50
 90
       50
102
RTVSPost2010PropOp50
 70
     1
102
RTVSPost2010Prop51ColorIndex
 90
      256
102
RTVSPost2010Prop51ColorRGB
 90
-16777216
102
RTVSPost2010PropOp51
 70
     0
102
RTVSPost2010Prop52
140
1.0
102
RTVSPost2010PropOp52
 70
     0
102
RTVSPost2010Prop53
 90
        2
102
RTVSPost2010PropOp53
 70
     1
102
RTVSPost2010Prop54
  1
strokes_ogs.tif
102
RTVSPost2010PropOp54
 70
     1
102
RTVSPost2010Prop55
280
     0
102
RTVSPost2010PropOp55
 70
     1
102
RTVSPost2010Prop56
140
1.0
102
RTVSPost2010PropOp56
 70
     1
102
RTVSPost2010Prop57
140
1.0
102
RTVSPost2010PropOp57
 70
     1
  0
XRECORD
  5
838D
102
{ACAD_REACTORS
330
838C
102
}
330
838C
100
AcDbXrecord
280
     1
102
RTVSPropertyOp0
 70
     1
102
RTVSPropertyOp1
 70
     1
102
RTVSPropertyOp2
 70
     1
102
RTVSPropertyOp3
 70
     1
102
RTVSPropertyOp4
 70
     1
102
RTVSPropertyOp5
 70
     1
102
RTVSPropertyOp6
 70
     1
102
RTVSPropertyOp7
 70
     1
102
RTVSPropertyOp8
 70
     1
102
RTVSPropertyOp9
 70
     1
102
RTVSPropertyOp10
 70
     1
102
RTVSPropertyOp11
 70
     1
102
RTVSPropertyOp12
 70
     1
102
RTVSPropertyOp13
 70
     1
102
RTVSPropertyOp14
 70
     1
102
RTVSPropertyOp15
 70
     1
102
RTVSPropertyOp16
 70
     1
102
RTVSPropertyOp17
 70
     1
102
RTVSPropertyOp18
 70
     1
102
RTVSPropertyOp19
 70
     1
102
RTVSPropertyOp20
 70
     1
102
RTVSPropertyOp21
 70
     1
102
RTVSPropertyOp22
 70
     1
102
RTVSPropertyOp23
 70
     1
102
RTVSPropertyOp24
 70
     1
102
RTVSPropertyOp25
 70
     1
102
RTVSPropertyOp26
 70
     1
102
RTVSPropertyOp27
 70
     1
102
RTVSPropertyOp28
 70
     1
102
RTVSPropertyOp29
 70
     1
102
RTVSPropertyOp30
 70
     1
102
RTVSPropertyOp31
 70
     1
102
RTVSPropertyOp32
 70
     1
102
RTVSPropertyOp33
 70
     1
102
RTVSPropertyOp34
 70
     1
102
RTVSPropertyOp35
 70
     1
102
RTVSPropertyOp36
 70
     1
102
RTVSPropertyOp37
 70
     1
102
RTVSPropertyOp38
 70
     1
102
RTVSPropertyOp39
 70
     1
102
RTVSPropertyOp40
 70
     1
102
RTVSPropertyOp41
 70
     1
102
RTVSPropertyOp42
 70
     1
102
RTVSPropertyOp43
 70
     1
102
RTVSPropertyOp44
 70
     1
102
RTVSPropertyOp45
 70
     1
102
RTVSPropertyOp46
 70
     1
102
RTVSPropertyOp47
 70
     1
102
RTVSPropertyOp48
 70
     1
102
RTVSPropertyOp49
 70
     1
102
RTVSPropertyOp50
 70
     1
102
RTVSPropertyOp51
 70
     0
102
RTVSPropertyOp52
 70
     0
102
RTVSPropertyOp53
 70
     1
102
RTVSPropertyOp54
 70
     1
102
RTVSPropertyOp55
 70
     1
102
RTVSPropertyOp56
 70
     1
102
RTVSPropertyOp57
 70
     1
102
RTVSPost2010Prop28
280
     0
102
RTVSPost2010PropOp28
 70
     1
102
RTVSPost2010Prop29
280
     1
102
RTVSPost2010PropOp29
 70
     1
102
RTVSPost2010Prop30
280
     1
102
RTVSPost2010PropOp30
 70
     1
102
RTVSPost2010Prop31
280
     0
102
RTVSPost2010PropOp31
 70
     1
102
RTVSPost2010Prop32
280
     0
102
RTVSPost2010PropOp32
 70
     1
102
RTVSPost2010Prop33
280
     0
102
RTVSPost2010PropOp33
 70
     1
102
RTVSPost2010Prop34
280
     0
102
RTVSPost2010PropOp34
 70
     1
102
RTVSPost2010Prop35
280
     0
102
RTVSPost2010PropOp35
 70
     1
102
RTVSPost2010Prop36
280
     0
102
RTVSPost2010PropOp36
 70
     1
102
RTVSPost2010Prop37
 90
       50
102
RTVSPost2010PropOp37
 70
     1
102
RTVSPost2010Prop38
140
0.0
102
RTVSPost2010PropOp38
 70
     1
102
RTVSPost2010Prop39
140
1.0
102
RTVSPost2010PropOp39
 70
     1
102
RTVSPost2010Prop40
 90
        0
102
RTVSPost2010PropOp40
 70
     1
102
RTVSPost2010Prop41ColorIndex
 90
       18
102
RTVSPost2010Prop41ColorRGB
 90
        0
102
RTVSPost2010PropOp41
 70
     1
102
RTVSPost2010Prop42
 90
       50
102
RTVSPost2010PropOp42
 70
     1
102
RTVSPost2010Prop43
 90
        3
102
RTVSPost2010PropOp43
 70
     1
102
RTVSPost2010Prop44ColorIndex
 90
        5
102
RTVSPost2010Prop44ColorRGB
 90
      255
102
RTVSPost2010PropOp44
 70
     1
102
RTVSPost2010Prop45
280
     0
102
RTVSPost2010PropOp45
 70
     1
102
RTVSPost2010Prop46
 90
       50
102
RTVSPost2010PropOp46
 70
     1
102
RTVSPost2010Prop47
 90
       50
102
RTVSPost2010PropOp47
 70
     1
102
RTVSPost2010Prop48
 90
       50
102
RTVSPost2010PropOp48
 70
     1
102
RTVSPost2010Prop49
280
     0
102
RTVSPost2010PropOp49
 70
     1
102
RTVSPost2010Prop50
 90
       50
102
RTVSPost2010PropOp50
 70
     1
102
RTVSPost2010Prop51ColorIndex
 90
      256
102
RTVSPost2010Prop51ColorRGB
 90
-16777216
102
RTVSPost2010PropOp51
 70
     0
102
RTVSPost2010Prop52
140
1.0
102
RTVSPost2010PropOp52
 70
     0
102
RTVSPost2010Prop53
 90
        2
102
RTVSPost2010PropOp53
 70
     1
102
RTVSPost2010Prop54
  1
strokes_ogs.tif
102
RTVSPost2010PropOp54
 70
     1
102
RTVSPost2010Prop55
280
     0
102
RTVSPost2010PropOp55
 70
     1
102
RTVSPost2010Prop56
140
1.0
102
RTVSPost2010PropOp56
 70
     1
102
RTVSPost2010Prop57
140
1.0
102
RTVSPost2010PropOp57
 70
     1
  0
XRECORD
  5
838F
102
{ACAD_REACTORS
330
838E
102
}
330
838E
100
AcDbXrecord
280
     1
102
RTVSPropertyOp0
 70
     1
102
RTVSPropertyOp1
 70
     1
102
RTVSPropertyOp2
 70
     1
102
RTVSPropertyOp3
 70
     1
102
RTVSPropertyOp4
 70
     1
102
RTVSPropertyOp5
 70
     1
102
RTVSPropertyOp6
 70
     1
102
RTVSPropertyOp7
 70
     1
102
RTVSPropertyOp8
 70
     1
102
RTVSPropertyOp9
 70
     1
102
RTVSPropertyOp10
 70
     1
102
RTVSPropertyOp11
 70
     1
102
RTVSPropertyOp12
 70
     1
102
RTVSPropertyOp13
 70
     1
102
RTVSPropertyOp14
 70
     1
102
RTVSPropertyOp15
 70
     1
102
RTVSPropertyOp16
 70
     1
102
RTVSPropertyOp17
 70
     1
102
RTVSPropertyOp18
 70
     1
102
RTVSPropertyOp19
 70
     1
102
RTVSPropertyOp20
 70
     1
102
RTVSPropertyOp21
 70
     1
102
RTVSPropertyOp22
 70
     1
102
RTVSPropertyOp23
 70
     1
102
RTVSPropertyOp24
 70
     1
102
RTVSPropertyOp25
 70
     1
102
RTVSPropertyOp26
 70
     1
102
RTVSPropertyOp27
 70
     1
102
RTVSPropertyOp28
 70
     1
102
RTVSPropertyOp29
 70
     1
102
RTVSPropertyOp30
 70
     1
102
RTVSPropertyOp31
 70
     1
102
RTVSPropertyOp32
 70
     1
102
RTVSPropertyOp33
 70
     1
102
RTVSPropertyOp34
 70
     1
102
RTVSPropertyOp35
 70
     1
102
RTVSPropertyOp36
 70
     1
102
RTVSPropertyOp37
 70
     1
102
RTVSPropertyOp38
 70
     1
102
RTVSPropertyOp39
 70
     1
102
RTVSPropertyOp40
 70
     1
102
RTVSPropertyOp41
 70
     1
102
RTVSPropertyOp42
 70
     1
102
RTVSPropertyOp43
 70
     1
102
RTVSPropertyOp44
 70
     1
102
RTVSPropertyOp45
 70
     1
102
RTVSPropertyOp46
 70
     1
102
RTVSPropertyOp47
 70
     1
102
RTVSPropertyOp48
 70
     1
102
RTVSPropertyOp49
 70
     1
102
RTVSPropertyOp50
 70
     1
102
RTVSPropertyOp51
 70
     0
102
RTVSPropertyOp52
 70
     0
102
RTVSPropertyOp53
 70
     1
102
RTVSPropertyOp54
 70
     1
102
RTVSPropertyOp55
 70
     1
102
RTVSPropertyOp56
 70
     1
102
RTVSPropertyOp57
 70
     1
102
RTVSPost2010Prop28
280
     0
102
RTVSPost2010PropOp28
 70
     1
102
RTVSPost2010Prop29
280
     1
102
RTVSPost2010PropOp29
 70
     1
102
RTVSPost2010Prop30
280
     1
102
RTVSPost2010PropOp30
 70
     1
102
RTVSPost2010Prop31
280
     0
102
RTVSPost2010PropOp31
 70
     1
102
RTVSPost2010Prop32
280
     0
102
RTVSPost2010PropOp32
 70
     1
102
RTVSPost2010Prop33
280
     0
102
RTVSPost2010PropOp33
 70
     1
102
RTVSPost2010Prop34
280
     0
102
RTVSPost2010PropOp34
 70
     1
102
RTVSPost2010Prop35
280
     0
102
RTVSPost2010PropOp35
 70
     1
102
RTVSPost2010Prop36
280
     0
102
RTVSPost2010PropOp36
 70
     1
102
RTVSPost2010Prop37
 90
       50
102
RTVSPost2010PropOp37
 70
     1
102
RTVSPost2010Prop38
140
0.0
102
RTVSPost2010PropOp38
 70
     1
102
RTVSPost2010Prop39
140
1.0
102
RTVSPost2010PropOp39
 70
     1
102
RTVSPost2010Prop40
 90
        0
102
RTVSPost2010PropOp40
 70
     1
102
RTVSPost2010Prop41ColorIndex
 90
       18
102
RTVSPost2010Prop41ColorRGB
 90
        0
102
RTVSPost2010PropOp41
 70
     1
102
RTVSPost2010Prop42
 90
       50
102
RTVSPost2010PropOp42
 70
     1
102
RTVSPost2010Prop43
 90
        3
102
RTVSPost2010PropOp43
 70
     1
102
RTVSPost2010Prop44ColorIndex
 90
        5
102
RTVSPost2010Prop44ColorRGB
 90
      255
102
RTVSPost2010PropOp44
 70
     1
102
RTVSPost2010Prop45
280
     0
102
RTVSPost2010PropOp45
 70
     1
102
RTVSPost2010Prop46
 90
       50
102
RTVSPost2010PropOp46
 70
     1
102
RTVSPost2010Prop47
 90
       50
102
RTVSPost2010PropOp47
 70
     1
102
RTVSPost2010Prop48
 90
       50
102
RTVSPost2010PropOp48
 70
     1
102
RTVSPost2010Prop49
280
     0
102
RTVSPost2010PropOp49
 70
     1
102
RTVSPost2010Prop50
 90
       50
102
RTVSPost2010PropOp50
 70
     1
102
RTVSPost2010Prop51ColorIndex
 90
      256
102
RTVSPost2010Prop51ColorRGB
 90
-16777216
102
RTVSPost2010PropOp51
 70
     0
102
RTVSPost2010Prop52
140
1.0
102
RTVSPost2010PropOp52
 70
     0
102
RTVSPost2010Prop53
 90
        2
102
RTVSPost2010PropOp53
 70
     1
102
RTVSPost2010Prop54
  1
strokes_ogs.tif
102
RTVSPost2010PropOp54
 70
     1
102
RTVSPost2010Prop55
280
     0
102
RTVSPost2010PropOp55
 70
     1
102
RTVSPost2010Prop56
140
1.0
102
RTVSPost2010PropOp56
 70
     1
102
RTVSPost2010Prop57
140
1.0
102
RTVSPost2010PropOp57
 70
     1
  0
XRECORD
  5
8391
102
{ACAD_REACTORS
330
8390
102
}
330
8390
100
AcDbXrecord
280
     1
102
RTVSPropertyOp0
 70
     1
102
RTVSPropertyOp1
 70
     1
102
RTVSPropertyOp2
 70
     1
102
RTVSPropertyOp3
 70
     1
102
RTVSPropertyOp4
 70
     1
102
RTVSPropertyOp5
 70
     1
102
RTVSPropertyOp6
 70
     1
102
RTVSPropertyOp7
 70
     1
102
RTVSPropertyOp8
 70
     1
102
RTVSPropertyOp9
 70
     1
102
RTVSPropertyOp10
 70
     1
102
RTVSPropertyOp11
 70
     1
102
RTVSPropertyOp12
 70
     1
102
RTVSPropertyOp13
 70
     1
102
RTVSPropertyOp14
 70
     1
102
RTVSPropertyOp15
 70
     1
102
RTVSPropertyOp16
 70
     1
102
RTVSPropertyOp17
 70
     1
102
RTVSPropertyOp18
 70
     1
102
RTVSPropertyOp19
 70
     1
102
RTVSPropertyOp20
 70
     1
102
RTVSPropertyOp21
 70
     1
102
RTVSPropertyOp22
 70
     1
102
RTVSPropertyOp23
 70
     1
102
RTVSPropertyOp24
 70
     1
102
RTVSPropertyOp25
 70
     1
102
RTVSPropertyOp26
 70
     1
102
RTVSPropertyOp27
 70
     1
102
RTVSPropertyOp28
 70
     1
102
RTVSPropertyOp29
 70
     1
102
RTVSPropertyOp30
 70
     1
102
RTVSPropertyOp31
 70
     1
102
RTVSPropertyOp32
 70
     1
102
RTVSPropertyOp33
 70
     1
102
RTVSPropertyOp34
 70
     1
102
RTVSPropertyOp35
 70
     1
102
RTVSPropertyOp36
 70
     1
102
RTVSPropertyOp37
 70
     1
102
RTVSPropertyOp38
 70
     1
102
RTVSPropertyOp39
 70
     1
102
RTVSPropertyOp40
 70
     1
102
RTVSPropertyOp41
 70
     1
102
RTVSPropertyOp42
 70
     1
102
RTVSPropertyOp43
 70
     1
102
RTVSPropertyOp44
 70
     1
102
RTVSPropertyOp45
 70
     1
102
RTVSPropertyOp46
 70
     1
102
RTVSPropertyOp47
 70
     1
102
RTVSPropertyOp48
 70
     1
102
RTVSPropertyOp49
 70
     1
102
RTVSPropertyOp50
 70
     1
102
RTVSPropertyOp51
 70
     0
102
RTVSPropertyOp52
 70
     0
102
RTVSPropertyOp53
 70
     1
102
RTVSPropertyOp54
 70
     1
102
RTVSPropertyOp55
 70
     1
102
RTVSPropertyOp56
 70
     1
102
RTVSPropertyOp57
 70
     1
102
RTVSPost2010Prop28
280
     0
102
RTVSPost2010PropOp28
 70
     1
102
RTVSPost2010Prop29
280
     1
102
RTVSPost2010PropOp29
 70
     1
102
RTVSPost2010Prop30
280
     1
102
RTVSPost2010PropOp30
 70
     1
102
RTVSPost2010Prop31
280
     0
102
RTVSPost2010PropOp31
 70
     1
102
RTVSPost2010Prop32
280
     0
102
RTVSPost2010PropOp32
 70
     1
102
RTVSPost2010Prop33
280
     0
102
RTVSPost2010PropOp33
 70
     1
102
RTVSPost2010Prop34
280
     0
102
RTVSPost2010PropOp34
 70
     1
102
RTVSPost2010Prop35
280
     0
102
RTVSPost2010PropOp35
 70
     1
102
RTVSPost2010Prop36
280
     0
102
RTVSPost2010PropOp36
 70
     1
102
RTVSPost2010Prop37
 90
       50
102
RTVSPost2010PropOp37
 70
     1
102
RTVSPost2010Prop38
140
0.0
102
RTVSPost2010PropOp38
 70
     1
102
RTVSPost2010Prop39
140
1.0
102
RTVSPost2010PropOp39
 70
     1
102
RTVSPost2010Prop40
 90
        0
102
RTVSPost2010PropOp40
 70
     1
102
RTVSPost2010Prop41ColorIndex
 90
       18
102
RTVSPost2010Prop41ColorRGB
 90
        0
102
RTVSPost2010PropOp41
 70
     1
102
RTVSPost2010Prop42
 90
       50
102
RTVSPost2010PropOp42
 70
     1
102
RTVSPost2010Prop43
 90
        3
102
RTVSPost2010PropOp43
 70
     1
102
RTVSPost2010Prop44ColorIndex
 90
        5
102
RTVSPost2010Prop44ColorRGB
 90
      255
102
RTVSPost2010PropOp44
 70
     1
102
RTVSPost2010Prop45
280
     0
102
RTVSPost2010PropOp45
 70
     1
102
RTVSPost2010Prop46
 90
       50
102
RTVSPost2010PropOp46
 70
     1
102
RTVSPost2010Prop47
 90
       50
102
RTVSPost2010PropOp47
 70
     1
102
RTVSPost2010Prop48
 90
       50
102
RTVSPost2010PropOp48
 70
     1
102
RTVSPost2010Prop49
280
     0
102
RTVSPost2010PropOp49
 70
     1
102
RTVSPost2010Prop50
 90
       50
102
RTVSPost2010PropOp50
 70
     1
102
RTVSPost2010Prop51ColorIndex
 90
      256
102
RTVSPost2010Prop51ColorRGB
 90
-16777216
102
RTVSPost2010PropOp51
 70
     0
102
RTVSPost2010Prop52
140
1.0
102
RTVSPost2010PropOp52
 70
     0
102
RTVSPost2010Prop53
 90
        2
102
RTVSPost2010PropOp53
 70
     1
102
RTVSPost2010Prop54
  1
strokes_ogs.tif
102
RTVSPost2010PropOp54
 70
     1
102
RTVSPost2010Prop55
280
     0
102
RTVSPost2010PropOp55
 70
     1
102
RTVSPost2010Prop56
140
1.0
102
RTVSPost2010PropOp56
 70
     1
102
RTVSPost2010Prop57
140
1.0
102
RTVSPost2010PropOp57
 70
     1
  0
XRECORD
  5
8393
102
{ACAD_REACTORS
330
8392
102
}
330
8392
100
AcDbXrecord
280
     1
102
RTVSPropertyOp0
 70
     1
102
RTVSPropertyOp1
 70
     1
102
RTVSPropertyOp2
 70
     1
102
RTVSPropertyOp3
 70
     1
102
RTVSPropertyOp4
 70
     1
102
RTVSPropertyOp5
 70
     1
102
RTVSPropertyOp6
 70
     1
102
RTVSPropertyOp7
 70
     1
102
RTVSPropertyOp8
 70
     1
102
RTVSPropertyOp9
 70
     1
102
RTVSPropertyOp10
 70
     1
102
RTVSPropertyOp11
 70
     1
102
RTVSPropertyOp12
 70
     1
102
RTVSPropertyOp13
 70
     1
102
RTVSPropertyOp14
 70
     1
102
RTVSPropertyOp15
 70
     1
102
RTVSPropertyOp16
 70
     1
102
RTVSPropertyOp17
 70
     1
102
RTVSPropertyOp18
 70
     1
102
RTVSPropertyOp19
 70
     1
102
RTVSPropertyOp20
 70
     1
102
RTVSPropertyOp21
 70
     1
102
RTVSPropertyOp22
 70
     1
102
RTVSPropertyOp23
 70
     1
102
RTVSPropertyOp24
 70
     1
102
RTVSPropertyOp25
 70
     1
102
RTVSPropertyOp26
 70
     1
102
RTVSPropertyOp27
 70
     1
102
RTVSPropertyOp28
 70
     1
102
RTVSPropertyOp29
 70
     1
102
RTVSPropertyOp30
 70
     1
102
RTVSPropertyOp31
 70
     1
102
RTVSPropertyOp32
 70
     1
102
RTVSPropertyOp33
 70
     1
102
RTVSPropertyOp34
 70
     1
102
RTVSPropertyOp35
 70
     1
102
RTVSPropertyOp36
 70
     1
102
RTVSPropertyOp37
 70
     1
102
RTVSPropertyOp38
 70
     1
102
RTVSPropertyOp39
 70
     1
102
RTVSPropertyOp40
 70
     1
102
RTVSPropertyOp41
 70
     1
102
RTVSPropertyOp42
 70
     1
102
RTVSPropertyOp43
 70
     1
102
RTVSPropertyOp44
 70
     1
102
RTVSPropertyOp45
 70
     1
102
RTVSPropertyOp46
 70
     1
102
RTVSPropertyOp47
 70
     1
102
RTVSPropertyOp48
 70
     1
102
RTVSPropertyOp49
 70
     1
102
RTVSPropertyOp50
 70
     1
102
RTVSPropertyOp51
 70
     0
102
RTVSPropertyOp52
 70
     0
102
RTVSPropertyOp53
 70
     1
102
RTVSPropertyOp54
 70
     1
102
RTVSPropertyOp55
 70
     1
102
RTVSPropertyOp56
 70
     1
102
RTVSPropertyOp57
 70
     1
102
RTVSPost2010Prop28
280
     0
102
RTVSPost2010PropOp28
 70
     1
102
RTVSPost2010Prop29
280
     1
102
RTVSPost2010PropOp29
 70
     1
102
RTVSPost2010Prop30
280
     1
102
RTVSPost2010PropOp30
 70
     1
102
RTVSPost2010Prop31
280
     0
102
RTVSPost2010PropOp31
 70
     1
102
RTVSPost2010Prop32
280
     0
102
RTVSPost2010PropOp32
 70
     1
102
RTVSPost2010Prop33
280
     0
102
RTVSPost2010PropOp33
 70
     1
102
RTVSPost2010Prop34
280
     0
102
RTVSPost2010PropOp34
 70
     1
102
RTVSPost2010Prop35
280
     0
102
RTVSPost2010PropOp35
 70
     1
102
RTVSPost2010Prop36
280
     0
102
RTVSPost2010PropOp36
 70
     1
102
RTVSPost2010Prop37
 90
       50
102
RTVSPost2010PropOp37
 70
     1
102
RTVSPost2010Prop38
140
0.0
102
RTVSPost2010PropOp38
 70
     1
102
RTVSPost2010Prop39
140
1.0
102
RTVSPost2010PropOp39
 70
     1
102
RTVSPost2010Prop40
 90
        0
102
RTVSPost2010PropOp40
 70
     1
102
RTVSPost2010Prop41ColorIndex
 90
       18
102
RTVSPost2010Prop41ColorRGB
 90
        0
102
RTVSPost2010PropOp41
 70
     1
102
RTVSPost2010Prop42
 90
       50
102
RTVSPost2010PropOp42
 70
     1
102
RTVSPost2010Prop43
 90
        3
102
RTVSPost2010PropOp43
 70
     1
102
RTVSPost2010Prop44ColorIndex
 90
        5
102
RTVSPost2010Prop44ColorRGB
 90
      255
102
RTVSPost2010PropOp44
 70
     1
102
RTVSPost2010Prop45
280
     0
102
RTVSPost2010PropOp45
 70
     1
102
RTVSPost2010Prop46
 90
       50
102
RTVSPost2010PropOp46
 70
     1
102
RTVSPost2010Prop47
 90
       50
102
RTVSPost2010PropOp47
 70
     1
102
RTVSPost2010Prop48
 90
       50
102
RTVSPost2010PropOp48
 70
     1
102
RTVSPost2010Prop49
280
     0
102
RTVSPost2010PropOp49
 70
     1
102
RTVSPost2010Prop50
 90
       50
102
RTVSPost2010PropOp50
 70
     1
102
RTVSPost2010Prop51ColorIndex
 90
      256
102
RTVSPost2010Prop51ColorRGB
 90
-16777216
102
RTVSPost2010PropOp51
 70
     0
102
RTVSPost2010Prop52
140
1.0
102
RTVSPost2010PropOp52
 70
     0
102
RTVSPost2010Prop53
 90
        2
102
RTVSPost2010PropOp53
 70
     1
102
RTVSPost2010Prop54
  1
strokes_ogs.tif
102
RTVSPost2010PropOp54
 70
     1
102
RTVSPost2010Prop55
280
     0
102
RTVSPost2010PropOp55
 70
     1
102
RTVSPost2010Prop56
140
1.0
102
RTVSPost2010PropOp56
 70
     1
102
RTVSPost2010Prop57
140
1.0
102
RTVSPost2010PropOp57
 70
     1
  0
XRECORD
  5
8395
102
{ACAD_REACTORS
330
8394
102
}
330
8394
100
AcDbXrecord
280
     1
102
RTVSPropertyOp0
 70
     1
102
RTVSPropertyOp1
 70
     1
102
RTVSPropertyOp2
 70
     1
102
RTVSPropertyOp3
 70
     1
102
RTVSPropertyOp4
 70
     1
102
RTVSPropertyOp5
 70
     1
102
RTVSPropertyOp6
 70
     1
102
RTVSPropertyOp7
 70
     1
102
RTVSPropertyOp8
 70
     1
102
RTVSPropertyOp9
 70
     1
102
RTVSPropertyOp10
 70
     1
102
RTVSPropertyOp11
 70
     1
102
RTVSPropertyOp12
 70
     1
102
RTVSPropertyOp13
 70
     1
102
RTVSPropertyOp14
 70
     1
102
RTVSPropertyOp15
 70
     1
102
RTVSPropertyOp16
 70
     1
102
RTVSPropertyOp17
 70
     1
102
RTVSPropertyOp18
 70
     1
102
RTVSPropertyOp19
 70
     1
102
RTVSPropertyOp20
 70
     1
102
RTVSPropertyOp21
 70
     1
102
RTVSPropertyOp22
 70
     1
102
RTVSPropertyOp23
 70
     1
102
RTVSPropertyOp24
 70
     1
102
RTVSPropertyOp25
 70
     1
102
RTVSPropertyOp26
 70
     1
102
RTVSPropertyOp27
 70
     1
102
RTVSPropertyOp28
 70
     1
102
RTVSPropertyOp29
 70
     1
102
RTVSPropertyOp30
 70
     1
102
RTVSPropertyOp31
 70
     1
102
RTVSPropertyOp32
 70
     1
102
RTVSPropertyOp33
 70
     1
102
RTVSPropertyOp34
 70
     1
102
RTVSPropertyOp35
 70
     1
102
RTVSPropertyOp36
 70
     1
102
RTVSPropertyOp37
 70
     1
102
RTVSPropertyOp38
 70
     1
102
RTVSPropertyOp39
 70
     1
102
RTVSPropertyOp40
 70
     1
102
RTVSPropertyOp41
 70
     1
102
RTVSPropertyOp42
 70
     1
102
RTVSPropertyOp43
 70
     1
102
RTVSPropertyOp44
 70
     1
102
RTVSPropertyOp45
 70
     1
102
RTVSPropertyOp46
 70
     1
102
RTVSPropertyOp47
 70
     1
102
RTVSPropertyOp48
 70
     1
102
RTVSPropertyOp49
 70
     1
102
RTVSPropertyOp50
 70
     1
102
RTVSPropertyOp51
 70
     0
102
RTVSPropertyOp52
 70
     0
102
RTVSPropertyOp53
 70
     1
102
RTVSPropertyOp54
 70
     1
102
RTVSPropertyOp55
 70
     1
102
RTVSPropertyOp56
 70
     1
102
RTVSPropertyOp57
 70
     1
102
RTVSPost2010Prop28
280
     0
102
RTVSPost2010PropOp28
 70
     1
102
RTVSPost2010Prop29
280
     1
102
RTVSPost2010PropOp29
 70
     1
102
RTVSPost2010Prop30
280
     1
102
RTVSPost2010PropOp30
 70
     1
102
RTVSPost2010Prop31
280
     0
102
RTVSPost2010PropOp31
 70
     1
102
RTVSPost2010Prop32
280
     0
102
RTVSPost2010PropOp32
 70
     1
102
RTVSPost2010Prop33
280
     0
102
RTVSPost2010PropOp33
 70
     1
102
RTVSPost2010Prop34
280
     0
102
RTVSPost2010PropOp34
 70
     1
102
RTVSPost2010Prop35
280
     0
102
RTVSPost2010PropOp35
 70
     1
102
RTVSPost2010Prop36
280
     0
102
RTVSPost2010PropOp36
 70
     1
102
RTVSPost2010Prop37
 90
       50
102
RTVSPost2010PropOp37
 70
     1
102
RTVSPost2010Prop38
140
0.0
102
RTVSPost2010PropOp38
 70
     1
102
RTVSPost2010Prop39
140
1.0
102
RTVSPost2010PropOp39
 70
     1
102
RTVSPost2010Prop40
 90
        0
102
RTVSPost2010PropOp40
 70
     1
102
RTVSPost2010Prop41ColorIndex
 90
       18
102
RTVSPost2010Prop41ColorRGB
 90
        0
102
RTVSPost2010PropOp41
 70
     1
102
RTVSPost2010Prop42
 90
       50
102
RTVSPost2010PropOp42
 70
     1
102
RTVSPost2010Prop43
 90
        3
102
RTVSPost2010PropOp43
 70
     1
102
RTVSPost2010Prop44ColorIndex
 90
        5
102
RTVSPost2010Prop44ColorRGB
 90
      255
102
RTVSPost2010PropOp44
 70
     1
102
RTVSPost2010Prop45
280
     0
102
RTVSPost2010PropOp45
 70
     1
102
RTVSPost2010Prop46
 90
       50
102
RTVSPost2010PropOp46
 70
     1
102
RTVSPost2010Prop47
 90
       50
102
RTVSPost2010PropOp47
 70
     1
102
RTVSPost2010Prop48
 90
       50
102
RTVSPost2010PropOp48
 70
     1
102
RTVSPost2010Prop49
280
     0
102
RTVSPost2010PropOp49
 70
     1
102
RTVSPost2010Prop50
 90
       50
102
RTVSPost2010PropOp50
 70
     1
102
RTVSPost2010Prop51ColorIndex
 90
      256
102
RTVSPost2010Prop51ColorRGB
 90
-16777216
102
RTVSPost2010PropOp51
 70
     0
102
RTVSPost2010Prop52
140
1.0
102
RTVSPost2010PropOp52
 70
     0
102
RTVSPost2010Prop53
 90
        2
102
RTVSPost2010PropOp53
 70
     1
102
RTVSPost2010Prop54
  1
strokes_ogs.tif
102
RTVSPost2010PropOp54
 70
     1
102
RTVSPost2010Prop55
280
     0
102
RTVSPost2010PropOp55
 70
     1
102
RTVSPost2010Prop56
140
1.0
102
RTVSPost2010PropOp56
 70
     1
102
RTVSPost2010Prop57
140
1.0
102
RTVSPost2010PropOp57
 70
     1
  0
XRECORD
  5
8397
102
{ACAD_REACTORS
330
8396
102
}
330
8396
100
AcDbXrecord
280
     1
102
RTVSPropertyOp0
 70
     0
102
RTVSPropertyOp1
 70
     0
102
RTVSPropertyOp2
 70
     0
102
RTVSPropertyOp3
 70
     0
102
RTVSPropertyOp4
 70
     0
102
RTVSPropertyOp5
 70
     0
102
RTVSPropertyOp6
 70
     0
102
RTVSPropertyOp7
 70
     0
102
RTVSPropertyOp8
 70
     0
102
RTVSPropertyOp9
 70
     0
102
RTVSPropertyOp10
 70
     0
102
RTVSPropertyOp11
 70
     0
102
RTVSPropertyOp12
 70
     0
102
RTVSPropertyOp13
 70
     0
102
RTVSPropertyOp14
 70
     2
102
RTVSPropertyOp15
 70
     0
102
RTVSPropertyOp16
 70
     0
102
RTVSPropertyOp17
 70
     0
102
RTVSPropertyOp18
 70
     0
102
RTVSPropertyOp19
 70
     0
102
RTVSPropertyOp20
 70
     0
102
RTVSPropertyOp21
 70
     0
102
RTVSPropertyOp22
 70
     0
102
RTVSPropertyOp23
 70
     0
102
RTVSPropertyOp24
 70
     0
102
RTVSPropertyOp25
 70
     0
102
RTVSPropertyOp26
 70
     0
102
RTVSPropertyOp27
 70
     0
102
RTVSPropertyOp28
 70
     1
102
RTVSPropertyOp29
 70
     1
102
RTVSPropertyOp30
 70
     1
102
RTVSPropertyOp31
 70
     1
102
RTVSPropertyOp32
 70
     1
102
RTVSPropertyOp33
 70
     1
102
RTVSPropertyOp34
 70
     1
102
RTVSPropertyOp35
 70
     1
102
RTVSPropertyOp36
 70
     1
102
RTVSPropertyOp37
 70
     0
102
RTVSPropertyOp38
 70
     0
102
RTVSPropertyOp39
 70
     0
102
RTVSPropertyOp40
 70
     0
102
RTVSPropertyOp41
 70
     0
102
RTVSPropertyOp42
 70
     0
102
RTVSPropertyOp43
 70
     0
102
RTVSPropertyOp44
 70
     0
102
RTVSPropertyOp45
 70
     1
102
RTVSPropertyOp46
 70
     0
102
RTVSPropertyOp47
 70
     0
102
RTVSPropertyOp48
 70
     0
102
RTVSPropertyOp49
 70
     1
102
RTVSPropertyOp50
 70
     0
102
RTVSPropertyOp51
 70
     0
102
RTVSPropertyOp52
 70
     0
102
RTVSPropertyOp53
 70
     0
102
RTVSPropertyOp54
 70
     0
102
RTVSPropertyOp55
 70
     1
102
RTVSPropertyOp56
 70
     0
102
RTVSPropertyOp57
 70
     0
102
RTVSPost2010Prop28
280
     0
102
RTVSPost2010PropOp28
 70
     1
102
RTVSPost2010Prop29
280
     1
102
RTVSPost2010PropOp29
 70
     1
102
RTVSPost2010Prop30
280
     1
102
RTVSPost2010PropOp30
 70
     1
102
RTVSPost2010Prop31
280
     0
102
RTVSPost2010PropOp31
 70
     1
102
RTVSPost2010Prop32
280
     0
102
RTVSPost2010PropOp32
 70
     1
102
RTVSPost2010Prop33
280
     0
102
RTVSPost2010PropOp33
 70
     1
102
RTVSPost2010Prop34
280
     0
102
RTVSPost2010PropOp34
 70
     1
102
RTVSPost2010Prop35
280
     0
102
RTVSPost2010PropOp35
 70
     1
102
RTVSPost2010Prop36
280
     0
102
RTVSPost2010PropOp36
 70
     1
102
RTVSPost2010Prop37
 90
       50
102
RTVSPost2010PropOp37
 70
     0
102
RTVSPost2010Prop38
140
0.0
102
RTVSPost2010PropOp38
 70
     0
102
RTVSPost2010Prop39
140
1.0
102
RTVSPost2010PropOp39
 70
     0
102
RTVSPost2010Prop40
 90
        0
102
RTVSPost2010PropOp40
 70
     0
102
RTVSPost2010Prop41ColorIndex
 90
       18
102
RTVSPost2010Prop41ColorRGB
 90
        0
102
RTVSPost2010PropOp41
 70
     0
102
RTVSPost2010Prop42
 90
       50
102
RTVSPost2010PropOp42
 70
     0
102
RTVSPost2010Prop43
 90
        3
102
RTVSPost2010PropOp43
 70
     0
102
RTVSPost2010Prop44ColorIndex
 90
        5
102
RTVSPost2010Prop44ColorRGB
 90
      255
102
RTVSPost2010PropOp44
 70
     0
102
RTVSPost2010Prop45
280
     0
102
RTVSPost2010PropOp45
 70
     1
102
RTVSPost2010Prop46
 90
       50
102
RTVSPost2010PropOp46
 70
     0
102
RTVSPost2010Prop47
 90
       50
102
RTVSPost2010PropOp47
 70
     0
102
RTVSPost2010Prop48
 90
       50
102
RTVSPost2010PropOp48
 70
     0
102
RTVSPost2010Prop49
280
     0
102
RTVSPost2010PropOp49
 70
     1
102
RTVSPost2010Prop50
 90
       50
102
RTVSPost2010PropOp50
 70
     0
102
RTVSPost2010Prop51ColorIndex
 90
      256
102
RTVSPost2010Prop51ColorRGB
 90
-16777216
102
RTVSPost2010PropOp51
 70
     0
102
RTVSPost2010Prop52
140
1.0
102
RTVSPost2010PropOp52
 70
     0
102
RTVSPost2010Prop53
 90
        2
102
RTVSPost2010PropOp53
 70
     0
102
RTVSPost2010Prop54
  1
strokes_ogs.tif
102
RTVSPost2010PropOp54
 70
     0
102
RTVSPost2010Prop55
280
     0
102
RTVSPost2010PropOp55
 70
     1
102
RTVSPost2010Prop56
140
1.0
102
RTVSPost2010PropOp56
 70
     0
102
RTVSPost2010Prop57
140
1.0
102
RTVSPost2010PropOp57
 70
     0
  0
XRECORD
  5
8399
102
{ACAD_REACTORS
330
8398
102
}
330
8398
100
AcDbXrecord
280
     1
102
RTVSPropertyOp0
 70
     1
102
RTVSPropertyOp1
 70
     1
102
RTVSPropertyOp2
 70
     1
102
RTVSPropertyOp3
 70
     1
102
RTVSPropertyOp4
 70
     1
102
RTVSPropertyOp5
 70
     1
102
RTVSPropertyOp6
 70
     1
102
RTVSPropertyOp7
 70
     1
102
RTVSPropertyOp8
 70
     1
102
RTVSPropertyOp9
 70
     1
102
RTVSPropertyOp10
 70
     1
102
RTVSPropertyOp11
 70
     1
102
RTVSPropertyOp12
 70
     1
102
RTVSPropertyOp13
 70
     1
102
RTVSPropertyOp14
 70
     1
102
RTVSPropertyOp15
 70
     1
102
RTVSPropertyOp16
 70
     1
102
RTVSPropertyOp17
 70
     1
102
RTVSPropertyOp18
 70
     1
102
RTVSPropertyOp19
 70
     1
102
RTVSPropertyOp20
 70
     1
102
RTVSPropertyOp21
 70
     1
102
RTVSPropertyOp22
 70
     1
102
RTVSPropertyOp23
 70
     1
102
RTVSPropertyOp24
 70
     1
102
RTVSPropertyOp25
 70
     1
102
RTVSPropertyOp26
 70
     1
102
RTVSPropertyOp27
 70
     1
102
RTVSPropertyOp28
 70
     1
102
RTVSPropertyOp29
 70
     1
102
RTVSPropertyOp30
 70
     1
102
RTVSPropertyOp31
 70
     1
102
RTVSPropertyOp32
 70
     1
102
RTVSPropertyOp33
 70
     1
102
RTVSPropertyOp34
 70
     1
102
RTVSPropertyOp35
 70
     1
102
RTVSPropertyOp36
 70
     1
102
RTVSPropertyOp37
 70
     1
102
RTVSPropertyOp38
 70
     1
102
RTVSPropertyOp39
 70
     1
102
RTVSPropertyOp40
 70
     1
102
RTVSPropertyOp41
 70
     1
102
RTVSPropertyOp42
 70
     1
102
RTVSPropertyOp43
 70
     1
102
RTVSPropertyOp44
 70
     1
102
RTVSPropertyOp45
 70
     1
102
RTVSPropertyOp46
 70
     1
102
RTVSPropertyOp47
 70
     1
102
RTVSPropertyOp48
 70
     1
102
RTVSPropertyOp49
 70
     1
102
RTVSPropertyOp50
 70
     1
102
RTVSPropertyOp51
 70
     0
102
RTVSPropertyOp52
 70
     0
102
RTVSPropertyOp53
 70
     1
102
RTVSPropertyOp54
 70
     1
102
RTVSPropertyOp55
 70
     1
102
RTVSPropertyOp56
 70
     1
102
RTVSPropertyOp57
 70
     1
102
RTVSPost2010Prop28
280
     0
102
RTVSPost2010PropOp28
 70
     1
102
RTVSPost2010Prop29
280
     1
102
RTVSPost2010PropOp29
 70
     1
102
RTVSPost2010Prop30
280
     1
102
RTVSPost2010PropOp30
 70
     1
102
RTVSPost2010Prop31
280
     0
102
RTVSPost2010PropOp31
 70
     1
102
RTVSPost2010Prop32
280
     0
102
RTVSPost2010PropOp32
 70
     1
102
RTVSPost2010Prop33
280
     0
102
RTVSPost2010PropOp33
 70
     1
102
RTVSPost2010Prop34
280
     0
102
RTVSPost2010PropOp34
 70
     1
102
RTVSPost2010Prop35
280
     0
102
RTVSPost2010PropOp35
 70
     1
102
RTVSPost2010Prop36
280
     0
102
RTVSPost2010PropOp36
 70
     1
102
RTVSPost2010Prop37
 90
       50
102
RTVSPost2010PropOp37
 70
     1
102
RTVSPost2010Prop38
140
0.0
102
RTVSPost2010PropOp38
 70
     1
102
RTVSPost2010Prop39
140
1.0
102
RTVSPost2010PropOp39
 70
     1
102
RTVSPost2010Prop40
 90
        0
102
RTVSPost2010PropOp40
 70
     1
102
RTVSPost2010Prop41ColorIndex
 90
       18
102
RTVSPost2010Prop41ColorRGB
 90
        0
102
RTVSPost2010PropOp41
 70
     1
102
RTVSPost2010Prop42
 90
       50
102
RTVSPost2010PropOp42
 70
     1
102
RTVSPost2010Prop43
 90
        3
102
RTVSPost2010PropOp43
 70
     1
102
RTVSPost2010Prop44ColorIndex
 90
        5
102
RTVSPost2010Prop44ColorRGB
 90
      255
102
RTVSPost2010PropOp44
 70
     1
102
RTVSPost2010Prop45
280
     0
102
RTVSPost2010PropOp45
 70
     1
102
RTVSPost2010Prop46
 90
       50
102
RTVSPost2010PropOp46
 70
     1
102
RTVSPost2010Prop47
 90
       50
102
RTVSPost2010PropOp47
 70
     1
102
RTVSPost2010Prop48
 90
       50
102
RTVSPost2010PropOp48
 70
     1
102
RTVSPost2010Prop49
280
     0
102
RTVSPost2010PropOp49
 70
     1
102
RTVSPost2010Prop50
 90
       50
102
RTVSPost2010PropOp50
 70
     1
102
RTVSPost2010Prop51ColorIndex
 90
      256
102
RTVSPost2010Prop51ColorRGB
 90
-16777216
102
RTVSPost2010PropOp51
 70
     0
102
RTVSPost2010Prop52
140
1.0
102
RTVSPost2010PropOp52
 70
     0
102
RTVSPost2010Prop53
 90
        2
102
RTVSPost2010PropOp53
 70
     1
102
RTVSPost2010Prop54
  1
strokes_ogs.tif
102
RTVSPost2010PropOp54
 70
     1
102
RTVSPost2010Prop55
280
     0
102
RTVSPost2010PropOp55
 70
     1
102
RTVSPost2010Prop56
140
1.0
102
RTVSPost2010PropOp56
 70
     1
102
RTVSPost2010Prop57
140
1.0
102
RTVSPost2010PropOp57
 70
     1
  0
XRECORD
  5
839B
102
{ACAD_REACTORS
330
839A
102
}
330
839A
100
AcDbXrecord
280
     1
102
RTVSPropertyOp0
 70
     0
102
RTVSPropertyOp1
 70
     0
102
RTVSPropertyOp2
 70
     0
102
RTVSPropertyOp3
 70
     0
102
RTVSPropertyOp4
 70
     0
102
RTVSPropertyOp5
 70
     0
102
RTVSPropertyOp6
 70
     0
102
RTVSPropertyOp7
 70
     0
102
RTVSPropertyOp8
 70
     0
102
RTVSPropertyOp9
 70
     0
102
RTVSPropertyOp10
 70
     0
102
RTVSPropertyOp11
 70
     0
102
RTVSPropertyOp12
 70
     0
102
RTVSPropertyOp13
 70
     0
102
RTVSPropertyOp14
 70
     2
102
RTVSPropertyOp15
 70
     0
102
RTVSPropertyOp16
 70
     0
102
RTVSPropertyOp17
 70
     0
102
RTVSPropertyOp18
 70
     0
102
RTVSPropertyOp19
 70
     0
102
RTVSPropertyOp20
 70
     0
102
RTVSPropertyOp21
 70
     0
102
RTVSPropertyOp22
 70
     0
102
RTVSPropertyOp23
 70
     0
102
RTVSPropertyOp24
 70
     0
102
RTVSPropertyOp25
 70
     0
102
RTVSPropertyOp26
 70
     0
102
RTVSPropertyOp27
 70
     0
102
RTVSPropertyOp28
 70
     1
102
RTVSPropertyOp29
 70
     1
102
RTVSPropertyOp30
 70
     1
102
RTVSPropertyOp31
 70
     1
102
RTVSPropertyOp32
 70
     1
102
RTVSPropertyOp33
 70
     1
102
RTVSPropertyOp34
 70
     1
102
RTVSPropertyOp35
 70
     1
102
RTVSPropertyOp36
 70
     1
102
RTVSPropertyOp37
 70
     0
102
RTVSPropertyOp38
 70
     0
102
RTVSPropertyOp39
 70
     0
102
RTVSPropertyOp40
 70
     0
102
RTVSPropertyOp41
 70
     0
102
RTVSPropertyOp42
 70
     0
102
RTVSPropertyOp43
 70
     0
102
RTVSPropertyOp44
 70
     0
102
RTVSPropertyOp45
 70
     1
102
RTVSPropertyOp46
 70
     0
102
RTVSPropertyOp47
 70
     0
102
RTVSPropertyOp48
 70
     0
102
RTVSPropertyOp49
 70
     1
102
RTVSPropertyOp50
 70
     0
102
RTVSPropertyOp51
 70
     0
102
RTVSPropertyOp52
 70
     0
102
RTVSPropertyOp53
 70
     0
102
RTVSPropertyOp54
 70
     0
102
RTVSPropertyOp55
 70
     1
102
RTVSPropertyOp56
 70
     0
102
RTVSPropertyOp57
 70
     0
102
RTVSPost2010Prop28
280
     0
102
RTVSPost2010PropOp28
 70
     1
102
RTVSPost2010Prop29
280
     1
102
RTVSPost2010PropOp29
 70
     1
102
RTVSPost2010Prop30
280
     1
102
RTVSPost2010PropOp30
 70
     1
102
RTVSPost2010Prop31
280
     0
102
RTVSPost2010PropOp31
 70
     1
102
RTVSPost2010Prop32
280
     0
102
RTVSPost2010PropOp32
 70
     1
102
RTVSPost2010Prop33
280
     0
102
RTVSPost2010PropOp33
 70
     1
102
RTVSPost2010Prop34
280
     0
102
RTVSPost2010PropOp34
 70
     1
102
RTVSPost2010Prop35
280
     0
102
RTVSPost2010PropOp35
 70
     1
102
RTVSPost2010Prop36
280
     0
102
RTVSPost2010PropOp36
 70
     1
102
RTVSPost2010Prop37
 90
       50
102
RTVSPost2010PropOp37
 70
     0
102
RTVSPost2010Prop38
140
0.0
102
RTVSPost2010PropOp38
 70
     0
102
RTVSPost2010Prop39
140
1.0
102
RTVSPost2010PropOp39
 70
     0
102
RTVSPost2010Prop40
 90
        0
102
RTVSPost2010PropOp40
 70
     0
102
RTVSPost2010Prop41ColorIndex
 90
       18
102
RTVSPost2010Prop41ColorRGB
 90
        0
102
RTVSPost2010PropOp41
 70
     0
102
RTVSPost2010Prop42
 90
       50
102
RTVSPost2010PropOp42
 70
     0
102
RTVSPost2010Prop43
 90
        3
102
RTVSPost2010PropOp43
 70
     0
102
RTVSPost2010Prop44ColorIndex
 90
        5
102
RTVSPost2010Prop44ColorRGB
 90
      255
102
RTVSPost2010PropOp44
 70
     0
102
RTVSPost2010Prop45
280
     0
102
RTVSPost2010PropOp45
 70
     1
102
RTVSPost2010Prop46
 90
       50
102
RTVSPost2010PropOp46
 70
     0
102
RTVSPost2010Prop47
 90
       50
102
RTVSPost2010PropOp47
 70
     0
102
RTVSPost2010Prop48
 90
       50
102
RTVSPost2010PropOp48
 70
     0
102
RTVSPost2010Prop49
280
     0
102
RTVSPost2010PropOp49
 70
     1
102
RTVSPost2010Prop50
 90
       50
102
RTVSPost2010PropOp50
 70
     0
102
RTVSPost2010Prop51ColorIndex
 90
      256
102
RTVSPost2010Prop51ColorRGB
 90
-16777216
102
RTVSPost2010PropOp51
 70
     0
102
RTVSPost2010Prop52
140
1.0
102
RTVSPost2010PropOp52
 70
     0
102
RTVSPost2010Prop53
 90
        2
102
RTVSPost2010PropOp53
 70
     0
102
RTVSPost2010Prop54
  1
strokes_ogs.tif
102
RTVSPost2010PropOp54
 70
     0
102
RTVSPost2010Prop55
280
     0
102
RTVSPost2010PropOp55
 70
     1
102
RTVSPost2010Prop56
140
1.0
102
RTVSPost2010PropOp56
 70
     0
102
RTVSPost2010Prop57
140
1.0
102
RTVSPost2010PropOp57
 70
     0
  0
XRECORD
  5
839D
102
{ACAD_REACTORS
330
839C
102
}
330
839C
100
AcDbXrecord
280
     1
102
RTVSPropertyOp0
 70
     1
102
RTVSPropertyOp1
 70
     1
102
RTVSPropertyOp2
 70
     1
102
RTVSPropertyOp3
 70
     1
102
RTVSPropertyOp4
 70
     1
102
RTVSPropertyOp5
 70
     1
102
RTVSPropertyOp6
 70
     1
102
RTVSPropertyOp7
 70
     1
102
RTVSPropertyOp8
 70
     1
102
RTVSPropertyOp9
 70
     1
102
RTVSPropertyOp10
 70
     1
102
RTVSPropertyOp11
 70
     1
102
RTVSPropertyOp12
 70
     1
102
RTVSPropertyOp13
 70
     1
102
RTVSPropertyOp14
 70
     1
102
RTVSPropertyOp15
 70
     1
102
RTVSPropertyOp16
 70
     1
102
RTVSPropertyOp17
 70
     1
102
RTVSPropertyOp18
 70
     1
102
RTVSPropertyOp19
 70
     1
102
RTVSPropertyOp20
 70
     1
102
RTVSPropertyOp21
 70
     1
102
RTVSPropertyOp22
 70
     1
102
RTVSPropertyOp23
 70
     1
102
RTVSPropertyOp24
 70
     1
102
RTVSPropertyOp25
 70
     1
102
RTVSPropertyOp26
 70
     1
102
RTVSPropertyOp27
 70
     1
102
RTVSPropertyOp28
 70
     1
102
RTVSPropertyOp29
 70
     1
102
RTVSPropertyOp30
 70
     1
102
RTVSPropertyOp31
 70
     1
102
RTVSPropertyOp32
 70
     1
102
RTVSPropertyOp33
 70
     1
102
RTVSPropertyOp34
 70
     1
102
RTVSPropertyOp35
 70
     1
102
RTVSPropertyOp36
 70
     1
102
RTVSPropertyOp37
 70
     1
102
RTVSPropertyOp38
 70
     1
102
RTVSPropertyOp39
 70
     1
102
RTVSPropertyOp40
 70
     1
102
RTVSPropertyOp41
 70
     1
102
RTVSPropertyOp42
 70
     1
102
RTVSPropertyOp43
 70
     1
102
RTVSPropertyOp44
 70
     1
102
RTVSPropertyOp45
 70
     1
102
RTVSPropertyOp46
 70
     1
102
RTVSPropertyOp47
 70
     1
102
RTVSPropertyOp48
 70
     1
102
RTVSPropertyOp49
 70
     1
102
RTVSPropertyOp50
 70
     1
102
RTVSPropertyOp51
 70
     0
102
RTVSPropertyOp52
 70
     0
102
RTVSPropertyOp53
 70
     1
102
RTVSPropertyOp54
 70
     1
102
RTVSPropertyOp55
 70
     1
102
RTVSPropertyOp56
 70
     1
102
RTVSPropertyOp57
 70
     1
102
RTVSPost2010Prop28
280
     0
102
RTVSPost2010PropOp28
 70
     1
102
RTVSPost2010Prop29
280
     1
102
RTVSPost2010PropOp29
 70
     1
102
RTVSPost2010Prop30
280
     1
102
RTVSPost2010PropOp30
 70
     1
102
RTVSPost2010Prop31
280
     0
102
RTVSPost2010PropOp31
 70
     1
102
RTVSPost2010Prop32
280
     0
102
RTVSPost2010PropOp32
 70
     1
102
RTVSPost2010Prop33
280
     0
102
RTVSPost2010PropOp33
 70
     1
102
RTVSPost2010Prop34
280
     0
102
RTVSPost2010PropOp34
 70
     1
102
RTVSPost2010Prop35
280
     0
102
RTVSPost2010PropOp35
 70
     1
102
RTVSPost2010Prop36
280
     0
102
RTVSPost2010PropOp36
 70
     1
102
RTVSPost2010Prop37
 90
       50
102
RTVSPost2010PropOp37
 70
     1
102
RTVSPost2010Prop38
140
0.0
102
RTVSPost2010PropOp38
 70
     1
102
RTVSPost2010Prop39
140
1.0
102
RTVSPost2010PropOp39
 70
     1
102
RTVSPost2010Prop40
 90
        0
102
RTVSPost2010PropOp40
 70
     1
102
RTVSPost2010Prop41ColorIndex
 90
       18
102
RTVSPost2010Prop41ColorRGB
 90
        0
102
RTVSPost2010PropOp41
 70
     1
102
RTVSPost2010Prop42
 90
       50
102
RTVSPost2010PropOp42
 70
     1
102
RTVSPost2010Prop43
 90
        3
102
RTVSPost2010PropOp43
 70
     1
102
RTVSPost2010Prop44ColorIndex
 90
        5
102
RTVSPost2010Prop44ColorRGB
 90
      255
102
RTVSPost2010PropOp44
 70
     1
102
RTVSPost2010Prop45
280
     0
102
RTVSPost2010PropOp45
 70
     1
102
RTVSPost2010Prop46
 90
       50
102
RTVSPost2010PropOp46
 70
     1
102
RTVSPost2010Prop47
 90
       50
102
RTVSPost2010PropOp47
 70
     1
102
RTVSPost2010Prop48
 90
       50
102
RTVSPost2010PropOp48
 70
     1
102
RTVSPost2010Prop49
280
     0
102
RTVSPost2010PropOp49
 70
     1
102
RTVSPost2010Prop50
 90
       50
102
RTVSPost2010PropOp50
 70
     1
102
RTVSPost2010Prop51ColorIndex
 90
      256
102
RTVSPost2010Prop51ColorRGB
 90
-16777216
102
RTVSPost2010PropOp51
 70
     0
102
RTVSPost2010Prop52
140
1.0
102
RTVSPost2010PropOp52
 70
     0
102
RTVSPost2010Prop53
 90
        2
102
RTVSPost2010PropOp53
 70
     1
102
RTVSPost2010Prop54
  1
strokes_ogs.tif
102
RTVSPost2010PropOp54
 70
     1
102
RTVSPost2010Prop55
280
     0
102
RTVSPost2010PropOp55
 70
     1
102
RTVSPost2010Prop56
140
1.0
102
RTVSPost2010PropOp56
 70
     1
102
RTVSPost2010Prop57
140
1.0
102
RTVSPost2010PropOp57
 70
     1
  0
XRECORD
  5
839F
102
{ACAD_REACTORS
330
839E
102
}
330
839E
100
AcDbXrecord
280
     1
102
RTVSPropertyOp0
 70
     1
102
RTVSPropertyOp1
 70
     1
102
RTVSPropertyOp2
 70
     1
102
RTVSPropertyOp3
 70
     1
102
RTVSPropertyOp4
 70
     1
102
RTVSPropertyOp5
 70
     1
102
RTVSPropertyOp6
 70
     1
102
RTVSPropertyOp7
 70
     1
102
RTVSPropertyOp8
 70
     1
102
RTVSPropertyOp9
 70
     1
102
RTVSPropertyOp10
 70
     1
102
RTVSPropertyOp11
 70
     1
102
RTVSPropertyOp12
 70
     1
102
RTVSPropertyOp13
 70
     1
102
RTVSPropertyOp14
 70
     1
102
RTVSPropertyOp15
 70
     1
102
RTVSPropertyOp16
 70
     1
102
RTVSPropertyOp17
 70
     1
102
RTVSPropertyOp18
 70
     1
102
RTVSPropertyOp19
 70
     1
102
RTVSPropertyOp20
 70
     1
102
RTVSPropertyOp21
 70
     1
102
RTVSPropertyOp22
 70
     1
102
RTVSPropertyOp23
 70
     1
102
RTVSPropertyOp24
 70
     1
102
RTVSPropertyOp25
 70
     1
102
RTVSPropertyOp26
 70
     1
102
RTVSPropertyOp27
 70
     1
102
RTVSPropertyOp28
 70
     1
102
RTVSPropertyOp29
 70
     1
102
RTVSPropertyOp30
 70
     1
102
RTVSPropertyOp31
 70
     1
102
RTVSPropertyOp32
 70
     1
102
RTVSPropertyOp33
 70
     1
102
RTVSPropertyOp34
 70
     1
102
RTVSPropertyOp35
 70
     1
102
RTVSPropertyOp36
 70
     1
102
RTVSPropertyOp37
 70
     1
102
RTVSPropertyOp38
 70
     1
102
RTVSPropertyOp39
 70
     1
102
RTVSPropertyOp40
 70
     1
102
RTVSPropertyOp41
 70
     1
102
RTVSPropertyOp42
 70
     1
102
RTVSPropertyOp43
 70
     1
102
RTVSPropertyOp44
 70
     1
102
RTVSPropertyOp45
 70
     1
102
RTVSPropertyOp46
 70
     1
102
RTVSPropertyOp47
 70
     1
102
RTVSPropertyOp48
 70
     1
102
RTVSPropertyOp49
 70
     1
102
RTVSPropertyOp50
 70
     1
102
RTVSPropertyOp51
 70
     0
102
RTVSPropertyOp52
 70
     0
102
RTVSPropertyOp53
 70
     1
102
RTVSPropertyOp54
 70
     1
102
RTVSPropertyOp55
 70
     1
102
RTVSPropertyOp56
 70
     1
102
RTVSPropertyOp57
 70
     1
102
RTVSPost2010Prop28
280
     0
102
RTVSPost2010PropOp28
 70
     1
102
RTVSPost2010Prop29
280
     1
102
RTVSPost2010PropOp29
 70
     1
102
RTVSPost2010Prop30
280
     1
102
RTVSPost2010PropOp30
 70
     1
102
RTVSPost2010Prop31
280
     0
102
RTVSPost2010PropOp31
 70
     1
102
RTVSPost2010Prop32
280
     0
102
RTVSPost2010PropOp32
 70
     1
102
RTVSPost2010Prop33
280
     0
102
RTVSPost2010PropOp33
 70
     1
102
RTVSPost2010Prop34
280
     0
102
RTVSPost2010PropOp34
 70
     1
102
RTVSPost2010Prop35
280
     0
102
RTVSPost2010PropOp35
 70
     1
102
RTVSPost2010Prop36
280
     0
102
RTVSPost2010PropOp36
 70
     1
102
RTVSPost2010Prop37
 90
       50
102
RTVSPost2010PropOp37
 70
     1
102
RTVSPost2010Prop38
140
0.0
102
RTVSPost2010PropOp38
 70
     1
102
RTVSPost2010Prop39
140
1.0
102
RTVSPost2010PropOp39
 70
     1
102
RTVSPost2010Prop40
 90
        0
102
RTVSPost2010PropOp40
 70
     1
102
RTVSPost2010Prop41ColorIndex
 90
       18
102
RTVSPost2010Prop41ColorRGB
 90
        0
102
RTVSPost2010PropOp41
 70
     1
102
RTVSPost2010Prop42
 90
       50
102
RTVSPost2010PropOp42
 70
     1
102
RTVSPost2010Prop43
 90
        3
102
RTVSPost2010PropOp43
 70
     1
102
RTVSPost2010Prop44ColorIndex
 90
        5
102
RTVSPost2010Prop44ColorRGB
 90
      255
102
RTVSPost2010PropOp44
 70
     1
102
RTVSPost2010Prop45
280
     0
102
RTVSPost2010PropOp45
 70
     1
102
RTVSPost2010Prop46
 90
       50
102
RTVSPost2010PropOp46
 70
     1
102
RTVSPost2010Prop47
 90
       50
102
RTVSPost2010PropOp47
 70
     1
102
RTVSPost2010Prop48
 90
       50
102
RTVSPost2010PropOp48
 70
     1
102
RTVSPost2010Prop49
280
     0
102
RTVSPost2010PropOp49
 70
     1
102
RTVSPost2010Prop50
 90
       50
102
RTVSPost2010PropOp50
 70
     1
102
RTVSPost2010Prop51ColorIndex
 90
      256
102
RTVSPost2010Prop51ColorRGB
 90
-16777216
102
RTVSPost2010PropOp51
 70
     0
102
RTVSPost2010Prop52
140
1.0
102
RTVSPost2010PropOp52
 70
     0
102
RTVSPost2010Prop53
 90
        2
102
RTVSPost2010PropOp53
 70
     1
102
RTVSPost2010Prop54
  1
strokes_ogs.tif
102
RTVSPost2010PropOp54
 70
     1
102
RTVSPost2010Prop55
280
     0
102
RTVSPost2010PropOp55
 70
     1
102
RTVSPost2010Prop56
140
1.0
102
RTVSPost2010PropOp56
 70
     1
102
RTVSPost2010Prop57
140
1.0
102
RTVSPost2010PropOp57
 70
     1
  0
XRECORD
  5
83A1
102
{ACAD_REACTORS
330
83A0
102
}
330
83A0
100
AcDbXrecord
280
     1
102
RTVSPropertyOp0
 70
     1
102
RTVSPropertyOp1
 70
     1
102
RTVSPropertyOp2
 70
     1
102
RTVSPropertyOp3
 70
     1
102
RTVSPropertyOp4
 70
     1
102
RTVSPropertyOp5
 70
     1
102
RTVSPropertyOp6
 70
     1
102
RTVSPropertyOp7
 70
     1
102
RTVSPropertyOp8
 70
     1
102
RTVSPropertyOp9
 70
     1
102
RTVSPropertyOp10
 70
     1
102
RTVSPropertyOp11
 70
     1
102
RTVSPropertyOp12
 70
     1
102
RTVSPropertyOp13
 70
     1
102
RTVSPropertyOp14
 70
     1
102
RTVSPropertyOp15
 70
     1
102
RTVSPropertyOp16
 70
     1
102
RTVSPropertyOp17
 70
     1
102
RTVSPropertyOp18
 70
     1
102
RTVSPropertyOp19
 70
     1
102
RTVSPropertyOp20
 70
     1
102
RTVSPropertyOp21
 70
     1
102
RTVSPropertyOp22
 70
     1
102
RTVSPropertyOp23
 70
     1
102
RTVSPropertyOp24
 70
     1
102
RTVSPropertyOp25
 70
     1
102
RTVSPropertyOp26
 70
     1
102
RTVSPropertyOp27
 70
     1
102
RTVSPropertyOp28
 70
     1
102
RTVSPropertyOp29
 70
     1
102
RTVSPropertyOp30
 70
     1
102
RTVSPropertyOp31
 70
     1
102
RTVSPropertyOp32
 70
     1
102
RTVSPropertyOp33
 70
     1
102
RTVSPropertyOp34
 70
     1
102
RTVSPropertyOp35
 70
     1
102
RTVSPropertyOp36
 70
     1
102
RTVSPropertyOp37
 70
     1
102
RTVSPropertyOp38
 70
     1
102
RTVSPropertyOp39
 70
     1
102
RTVSPropertyOp40
 70
     1
102
RTVSPropertyOp41
 70
     1
102
RTVSPropertyOp42
 70
     1
102
RTVSPropertyOp43
 70
     1
102
RTVSPropertyOp44
 70
     1
102
RTVSPropertyOp45
 70
     1
102
RTVSPropertyOp46
 70
     1
102
RTVSPropertyOp47
 70
     1
102
RTVSPropertyOp48
 70
     1
102
RTVSPropertyOp49
 70
     1
102
RTVSPropertyOp50
 70
     1
102
RTVSPropertyOp51
 70
     0
102
RTVSPropertyOp52
 70
     0
102
RTVSPropertyOp53
 70
     1
102
RTVSPropertyOp54
 70
     1
102
RTVSPropertyOp55
 70
     1
102
RTVSPropertyOp56
 70
     1
102
RTVSPropertyOp57
 70
     1
102
RTVSPost2010Prop28
280
     0
102
RTVSPost2010PropOp28
 70
     1
102
RTVSPost2010Prop29
280
     1
102
RTVSPost2010PropOp29
 70
     1
102
RTVSPost2010Prop30
280
     1
102
RTVSPost2010PropOp30
 70
     1
102
RTVSPost2010Prop31
280
     0
102
RTVSPost2010PropOp31
 70
     1
102
RTVSPost2010Prop32
280
     0
102
RTVSPost2010PropOp32
 70
     1
102
RTVSPost2010Prop33
280
     0
102
RTVSPost2010PropOp33
 70
     1
102
RTVSPost2010Prop34
280
     0
102
RTVSPost2010PropOp34
 70
     1
102
RTVSPost2010Prop35
280
     0
102
RTVSPost2010PropOp35
 70
     1
102
RTVSPost2010Prop36
280
     0
102
RTVSPost2010PropOp36
 70
     1
102
RTVSPost2010Prop37
 90
       50
102
RTVSPost2010PropOp37
 70
     1
102
RTVSPost2010Prop38
140
0.0
102
RTVSPost2010PropOp38
 70
     1
102
RTVSPost2010Prop39
140
1.0
102
RTVSPost2010PropOp39
 70
     1
102
RTVSPost2010Prop40
 90
        0
102
RTVSPost2010PropOp40
 70
     1
102
RTVSPost2010Prop41ColorIndex
 90
       18
102
RTVSPost2010Prop41ColorRGB
 90
        0
102
RTVSPost2010PropOp41
 70
     1
102
RTVSPost2010Prop42
 90
       50
102
RTVSPost2010PropOp42
 70
     1
102
RTVSPost2010Prop43
 90
        3
102
RTVSPost2010PropOp43
 70
     1
102
RTVSPost2010Prop44ColorIndex
 90
        5
102
RTVSPost2010Prop44ColorRGB
 90
      255
102
RTVSPost2010PropOp44
 70
     1
102
RTVSPost2010Prop45
280
     0
102
RTVSPost2010PropOp45
 70
     1
102
RTVSPost2010Prop46
 90
       50
102
RTVSPost2010PropOp46
 70
     1
102
RTVSPost2010Prop47
 90
       50
102
RTVSPost2010PropOp47
 70
     1
102
RTVSPost2010Prop48
 90
       50
102
RTVSPost2010PropOp48
 70
     1
102
RTVSPost2010Prop49
280
     0
102
RTVSPost2010PropOp49
 70
     1
102
RTVSPost2010Prop50
 90
       50
102
RTVSPost2010PropOp50
 70
     1
102
RTVSPost2010Prop51ColorIndex
 90
      256
102
RTVSPost2010Prop51ColorRGB
 90
-16777216
102
RTVSPost2010PropOp51
 70
     0
102
RTVSPost2010Prop52
140
1.0
102
RTVSPost2010PropOp52
 70
     0
102
RTVSPost2010Prop53
 90
        2
102
RTVSPost2010PropOp53
 70
     1
102
RTVSPost2010Prop54
  1
strokes_ogs.tif
102
RTVSPost2010PropOp54
 70
     1
102
RTVSPost2010Prop55
280
     0
102
RTVSPost2010PropOp55
 70
     1
102
RTVSPost2010Prop56
140
1.0
102
RTVSPost2010PropOp56
 70
     1
102
RTVSPost2010Prop57
140
1.0
102
RTVSPost2010PropOp57
 70
     1
  0
XRECORD
  5
83A3
102
{ACAD_REACTORS
330
83A2
102
}
330
83A2
100
AcDbXrecord
280
     1
102
RTVSPropertyOp0
 70
     1
102
RTVSPropertyOp1
 70
     1
102
RTVSPropertyOp2
 70
     1
102
RTVSPropertyOp3
 70
     1
102
RTVSPropertyOp4
 70
     1
102
RTVSPropertyOp5
 70
     1
102
RTVSPropertyOp6
 70
     1
102
RTVSPropertyOp7
 70
     1
102
RTVSPropertyOp8
 70
     1
102
RTVSPropertyOp9
 70
     1
102
RTVSPropertyOp10
 70
     1
102
RTVSPropertyOp11
 70
     1
102
RTVSPropertyOp12
 70
     1
102
RTVSPropertyOp13
 70
     1
102
RTVSPropertyOp14
 70
     1
102
RTVSPropertyOp15
 70
     1
102
RTVSPropertyOp16
 70
     1
102
RTVSPropertyOp17
 70
     1
102
RTVSPropertyOp18
 70
     1
102
RTVSPropertyOp19
 70
     1
102
RTVSPropertyOp20
 70
     1
102
RTVSPropertyOp21
 70
     1
102
RTVSPropertyOp22
 70
     1
102
RTVSPropertyOp23
 70
     1
102
RTVSPropertyOp24
 70
     1
102
RTVSPropertyOp25
 70
     1
102
RTVSPropertyOp26
 70
     1
102
RTVSPropertyOp27
 70
     1
102
RTVSPropertyOp28
 70
     1
102
RTVSPropertyOp29
 70
     1
102
RTVSPropertyOp30
 70
     1
102
RTVSPropertyOp31
 70
     1
102
RTVSPropertyOp32
 70
     1
102
RTVSPropertyOp33
 70
     1
102
RTVSPropertyOp34
 70
     1
102
RTVSPropertyOp35
 70
     1
102
RTVSPropertyOp36
 70
     1
102
RTVSPropertyOp37
 70
     1
102
RTVSPropertyOp38
 70
     1
102
RTVSPropertyOp39
 70
     1
102
RTVSPropertyOp40
 70
     1
102
RTVSPropertyOp41
 70
     1
102
RTVSPropertyOp42
 70
     1
102
RTVSPropertyOp43
 70
     1
102
RTVSPropertyOp44
 70
     1
102
RTVSPropertyOp45
 70
     1
102
RTVSPropertyOp46
 70
     1
102
RTVSPropertyOp47
 70
     1
102
RTVSPropertyOp48
 70
     1
102
RTVSPropertyOp49
 70
     1
102
RTVSPropertyOp50
 70
     1
102
RTVSPropertyOp51
 70
     0
102
RTVSPropertyOp52
 70
     0
102
RTVSPropertyOp53
 70
     1
102
RTVSPropertyOp54
 70
     1
102
RTVSPropertyOp55
 70
     1
102
RTVSPropertyOp56
 70
     1
102
RTVSPropertyOp57
 70
     1
102
RTVSPost2010Prop28
280
     0
102
RTVSPost2010PropOp28
 70
     1
102
RTVSPost2010Prop29
280
     1
102
RTVSPost2010PropOp29
 70
     1
102
RTVSPost2010Prop30
280
     1
102
RTVSPost2010PropOp30
 70
     1
102
RTVSPost2010Prop31
280
     0
102
RTVSPost2010PropOp31
 70
     1
102
RTVSPost2010Prop32
280
     0
102
RTVSPost2010PropOp32
 70
     1
102
RTVSPost2010Prop33
280
     0
102
RTVSPost2010PropOp33
 70
     1
102
RTVSPost2010Prop34
280
     0
102
RTVSPost2010PropOp34
 70
     1
102
RTVSPost2010Prop35
280
     0
102
RTVSPost2010PropOp35
 70
     1
102
RTVSPost2010Prop36
280
     0
102
RTVSPost2010PropOp36
 70
     1
102
RTVSPost2010Prop37
 90
       50
102
RTVSPost2010PropOp37
 70
     1
102
RTVSPost2010Prop38
140
0.0
102
RTVSPost2010PropOp38
 70
     1
102
RTVSPost2010Prop39
140
1.0
102
RTVSPost2010PropOp39
 70
     1
102
RTVSPost2010Prop40
 90
        0
102
RTVSPost2010PropOp40
 70
     1
102
RTVSPost2010Prop41ColorIndex
 90
       18
102
RTVSPost2010Prop41ColorRGB
 90
        0
102
RTVSPost2010PropOp41
 70
     1
102
RTVSPost2010Prop42
 90
       50
102
RTVSPost2010PropOp42
 70
     1
102
RTVSPost2010Prop43
 90
        3
102
RTVSPost2010PropOp43
 70
     1
102
RTVSPost2010Prop44ColorIndex
 90
        5
102
RTVSPost2010Prop44ColorRGB
 90
      255
102
RTVSPost2010PropOp44
 70
     1
102
RTVSPost2010Prop45
280
     0
102
RTVSPost2010PropOp45
 70
     1
102
RTVSPost2010Prop46
 90
       50
102
RTVSPost2010PropOp46
 70
     1
102
RTVSPost2010Prop47
 90
       50
102
RTVSPost2010PropOp47
 70
     1
102
RTVSPost2010Prop48
 90
       50
102
RTVSPost2010PropOp48
 70
     1
102
RTVSPost2010Prop49
280
     0
102
RTVSPost2010PropOp49
 70
     1
102
RTVSPost2010Prop50
 90
       50
102
RTVSPost2010PropOp50
 70
     1
102
RTVSPost2010Prop51ColorIndex
 90
      256
102
RTVSPost2010Prop51ColorRGB
 90
-16777216
102
RTVSPost2010PropOp51
 70
     0
102
RTVSPost2010Prop52
140
1.0
102
RTVSPost2010PropOp52
 70
     0
102
RTVSPost2010Prop53
 90
        2
102
RTVSPost2010PropOp53
 70
     1
102
RTVSPost2010Prop54
  1
strokes_ogs.tif
102
RTVSPost2010PropOp54
 70
     1
102
RTVSPost2010Prop55
280
     0
102
RTVSPost2010PropOp55
 70
     1
102
RTVSPost2010Prop56
140
1.0
102
RTVSPost2010PropOp56
 70
     1
102
RTVSPost2010Prop57
140
1.0
102
RTVSPost2010PropOp57
 70
     1
  0
XRECORD
  5
83A5
102
{ACAD_REACTORS
330
83A4
102
}
330
83A4
100
AcDbXrecord
280
     1
102
RTVSPropertyOp0
 70
     1
102
RTVSPropertyOp1
 70
     1
102
RTVSPropertyOp2
 70
     1
102
RTVSPropertyOp3
 70
     1
102
RTVSPropertyOp4
 70
     1
102
RTVSPropertyOp5
 70
     1
102
RTVSPropertyOp6
 70
     1
102
RTVSPropertyOp7
 70
     1
102
RTVSPropertyOp8
 70
     1
102
RTVSPropertyOp9
 70
     1
102
RTVSPropertyOp10
 70
     1
102
RTVSPropertyOp11
 70
     1
102
RTVSPropertyOp12
 70
     1
102
RTVSPropertyOp13
 70
     1
102
RTVSPropertyOp14
 70
     1
102
RTVSPropertyOp15
 70
     1
102
RTVSPropertyOp16
 70
     1
102
RTVSPropertyOp17
 70
     1
102
RTVSPropertyOp18
 70
     1
102
RTVSPropertyOp19
 70
     1
102
RTVSPropertyOp20
 70
     1
102
RTVSPropertyOp21
 70
     1
102
RTVSPropertyOp22
 70
     1
102
RTVSPropertyOp23
 70
     1
102
RTVSPropertyOp24
 70
     1
102
RTVSPropertyOp25
 70
     1
102
RTVSPropertyOp26
 70
     1
102
RTVSPropertyOp27
 70
     1
102
RTVSPropertyOp28
 70
     1
102
RTVSPropertyOp29
 70
     1
102
RTVSPropertyOp30
 70
     1
102
RTVSPropertyOp31
 70
     1
102
RTVSPropertyOp32
 70
     1
102
RTVSPropertyOp33
 70
     1
102
RTVSPropertyOp34
 70
     1
102
RTVSPropertyOp35
 70
     1
102
RTVSPropertyOp36
 70
     1
102
RTVSPropertyOp37
 70
     1
102
RTVSPropertyOp38
 70
     1
102
RTVSPropertyOp39
 70
     1
102
RTVSPropertyOp40
 70
     1
102
RTVSPropertyOp41
 70
     1
102
RTVSPropertyOp42
 70
     1
102
RTVSPropertyOp43
 70
     1
102
RTVSPropertyOp44
 70
     1
102
RTVSPropertyOp45
 70
     1
102
RTVSPropertyOp46
 70
     1
102
RTVSPropertyOp47
 70
     1
102
RTVSPropertyOp48
 70
     1
102
RTVSPropertyOp49
 70
     1
102
RTVSPropertyOp50
 70
     1
102
RTVSPropertyOp51
 70
     0
102
RTVSPropertyOp52
 70
     0
102
RTVSPropertyOp53
 70
     1
102
RTVSPropertyOp54
 70
     1
102
RTVSPropertyOp55
 70
     1
102
RTVSPropertyOp56
 70
     1
102
RTVSPropertyOp57
 70
     1
102
RTVSPost2010Prop28
280
     0
102
RTVSPost2010PropOp28
 70
     1
102
RTVSPost2010Prop29
280
     1
102
RTVSPost2010PropOp29
 70
     1
102
RTVSPost2010Prop30
280
     1
102
RTVSPost2010PropOp30
 70
     1
102
RTVSPost2010Prop31
280
     0
102
RTVSPost2010PropOp31
 70
     1
102
RTVSPost2010Prop32
280
     0
102
RTVSPost2010PropOp32
 70
     1
102
RTVSPost2010Prop33
280
     0
102
RTVSPost2010PropOp33
 70
     1
102
RTVSPost2010Prop34
280
     0
102
RTVSPost2010PropOp34
 70
     1
102
RTVSPost2010Prop35
280
     0
102
RTVSPost2010PropOp35
 70
     1
102
RTVSPost2010Prop36
280
     0
102
RTVSPost2010PropOp36
 70
     1
102
RTVSPost2010Prop37
 90
       50
102
RTVSPost2010PropOp37
 70
     1
102
RTVSPost2010Prop38
140
0.0
102
RTVSPost2010PropOp38
 70
     1
102
RTVSPost2010Prop39
140
1.0
102
RTVSPost2010PropOp39
 70
     1
102
RTVSPost2010Prop40
 90
        0
102
RTVSPost2010PropOp40
 70
     1
102
RTVSPost2010Prop41ColorIndex
 90
       18
102
RTVSPost2010Prop41ColorRGB
 90
        0
102
RTVSPost2010PropOp41
 70
     1
102
RTVSPost2010Prop42
 90
       50
102
RTVSPost2010PropOp42
 70
     1
102
RTVSPost2010Prop43
 90
        3
102
RTVSPost2010PropOp43
 70
     1
102
RTVSPost2010Prop44ColorIndex
 90
        5
102
RTVSPost2010Prop44ColorRGB
 90
      255
102
RTVSPost2010PropOp44
 70
     1
102
RTVSPost2010Prop45
280
     0
102
RTVSPost2010PropOp45
 70
     1
102
RTVSPost2010Prop46
 90
       50
102
RTVSPost2010PropOp46
 70
     1
102
RTVSPost2010Prop47
 90
       50
102
RTVSPost2010PropOp47
 70
     1
102
RTVSPost2010Prop48
 90
       50
102
RTVSPost2010PropOp48
 70
     1
102
RTVSPost2010Prop49
280
     0
102
RTVSPost2010PropOp49
 70
     1
102
RTVSPost2010Prop50
 90
       50
102
RTVSPost2010PropOp50
 70
     1
102
RTVSPost2010Prop51ColorIndex
 90
      256
102
RTVSPost2010Prop51ColorRGB
 90
-16777216
102
RTVSPost2010PropOp51
 70
     0
102
RTVSPost2010Prop52
140
1.0
102
RTVSPost2010PropOp52
 70
     0
102
RTVSPost2010Prop53
 90
        2
102
RTVSPost2010PropOp53
 70
     1
102
RTVSPost2010Prop54
  1
strokes_ogs.tif
102
RTVSPost2010PropOp54
 70
     1
102
RTVSPost2010Prop55
280
     0
102
RTVSPost2010PropOp55
 70
     1
102
RTVSPost2010Prop56
140
1.0
102
RTVSPost2010PropOp56
 70
     1
102
RTVSPost2010Prop57
140
1.0
102
RTVSPost2010PropOp57
 70
     1
  0
XRECORD
  5
83A7
102
{ACAD_REACTORS
330
83A6
102
}
330
83A6
100
AcDbXrecord
280
     1
102
RTVSPropertyOp0
 70
     1
102
RTVSPropertyOp1
 70
     1
102
RTVSPropertyOp2
 70
     1
102
RTVSPropertyOp3
 70
     1
102
RTVSPropertyOp4
 70
     1
102
RTVSPropertyOp5
 70
     1
102
RTVSPropertyOp6
 70
     1
102
RTVSPropertyOp7
 70
     1
102
RTVSPropertyOp8
 70
     1
102
RTVSPropertyOp9
 70
     1
102
RTVSPropertyOp10
 70
     1
102
RTVSPropertyOp11
 70
     1
102
RTVSPropertyOp12
 70
     1
102
RTVSPropertyOp13
 70
     1
102
RTVSPropertyOp14
 70
     1
102
RTVSPropertyOp15
 70
     1
102
RTVSPropertyOp16
 70
     1
102
RTVSPropertyOp17
 70
     1
102
RTVSPropertyOp18
 70
     1
102
RTVSPropertyOp19
 70
     1
102
RTVSPropertyOp20
 70
     1
102
RTVSPropertyOp21
 70
     1
102
RTVSPropertyOp22
 70
     1
102
RTVSPropertyOp23
 70
     1
102
RTVSPropertyOp24
 70
     1
102
RTVSPropertyOp25
 70
     1
102
RTVSPropertyOp26
 70
     1
102
RTVSPropertyOp27
 70
     1
102
RTVSPropertyOp28
 70
     1
102
RTVSPropertyOp29
 70
     1
102
RTVSPropertyOp30
 70
     1
102
RTVSPropertyOp31
 70
     1
102
RTVSPropertyOp32
 70
     1
102
RTVSPropertyOp33
 70
     1
102
RTVSPropertyOp34
 70
     1
102
RTVSPropertyOp35
 70
     1
102
RTVSPropertyOp36
 70
     1
102
RTVSPropertyOp37
 70
     1
102
RTVSPropertyOp38
 70
     1
102
RTVSPropertyOp39
 70
     1
102
RTVSPropertyOp40
 70
     1
102
RTVSPropertyOp41
 70
     1
102
RTVSPropertyOp42
 70
     1
102
RTVSPropertyOp43
 70
     1
102
RTVSPropertyOp44
 70
     1
102
RTVSPropertyOp45
 70
     1
102
RTVSPropertyOp46
 70
     1
102
RTVSPropertyOp47
 70
     1
102
RTVSPropertyOp48
 70
     1
102
RTVSPropertyOp49
 70
     1
102
RTVSPropertyOp50
 70
     1
102
RTVSPropertyOp51
 70
     0
102
RTVSPropertyOp52
 70
     0
102
RTVSPropertyOp53
 70
     1
102
RTVSPropertyOp54
 70
     1
102
RTVSPropertyOp55
 70
     1
102
RTVSPropertyOp56
 70
     1
102
RTVSPropertyOp57
 70
     1
102
RTVSPost2010Prop28
280
     0
102
RTVSPost2010PropOp28
 70
     1
102
RTVSPost2010Prop29
280
     1
102
RTVSPost2010PropOp29
 70
     1
102
RTVSPost2010Prop30
280
     1
102
RTVSPost2010PropOp30
 70
     1
102
RTVSPost2010Prop31
280
     0
102
RTVSPost2010PropOp31
 70
     1
102
RTVSPost2010Prop32
280
     0
102
RTVSPost2010PropOp32
 70
     1
102
RTVSPost2010Prop33
280
     0
102
RTVSPost2010PropOp33
 70
     1
102
RTVSPost2010Prop34
280
     0
102
RTVSPost2010PropOp34
 70
     1
102
RTVSPost2010Prop35
280
     0
102
RTVSPost2010PropOp35
 70
     1
102
RTVSPost2010Prop36
280
     0
102
RTVSPost2010PropOp36
 70
     1
102
RTVSPost2010Prop37
 90
       50
102
RTVSPost2010PropOp37
 70
     1
102
RTVSPost2010Prop38
140
0.0
102
RTVSPost2010PropOp38
 70
     1
102
RTVSPost2010Prop39
140
1.0
102
RTVSPost2010PropOp39
 70
     1
102
RTVSPost2010Prop40
 90
        0
102
RTVSPost2010PropOp40
 70
     1
102
RTVSPost2010Prop41ColorIndex
 90
       18
102
RTVSPost2010Prop41ColorRGB
 90
        0
102
RTVSPost2010PropOp41
 70
     1
102
RTVSPost2010Prop42
 90
       50
102
RTVSPost2010PropOp42
 70
     1
102
RTVSPost2010Prop43
 90
        3
102
RTVSPost2010PropOp43
 70
     1
102
RTVSPost2010Prop44ColorIndex
 90
        5
102
RTVSPost2010Prop44ColorRGB
 90
      255
102
RTVSPost2010PropOp44
 70
     1
102
RTVSPost2010Prop45
280
     0
102
RTVSPost2010PropOp45
 70
     1
102
RTVSPost2010Prop46
 90
       50
102
RTVSPost2010PropOp46
 70
     1
102
RTVSPost2010Prop47
 90
       50
102
RTVSPost2010PropOp47
 70
     1
102
RTVSPost2010Prop48
 90
       50
102
RTVSPost2010PropOp48
 70
     1
102
RTVSPost2010Prop49
280
     0
102
RTVSPost2010PropOp49
 70
     1
102
RTVSPost2010Prop50
 90
       50
102
RTVSPost2010PropOp50
 70
     1
102
RTVSPost2010Prop51ColorIndex
 90
      256
102
RTVSPost2010Prop51ColorRGB
 90
-16777216
102
RTVSPost2010PropOp51
 70
     0
102
RTVSPost2010Prop52
140
1.0
102
RTVSPost2010PropOp52
 70
     0
102
RTVSPost2010Prop53
 90
        2
102
RTVSPost2010PropOp53
 70
     1
102
RTVSPost2010Prop54
  1
strokes_ogs.tif
102
RTVSPost2010PropOp54
 70
     1
102
RTVSPost2010Prop55
280
     0
102
RTVSPost2010PropOp55
 70
     1
102
RTVSPost2010Prop56
140
1.0
102
RTVSPost2010PropOp56
 70
     1
102
RTVSPost2010Prop57
140
1.0
102
RTVSPost2010PropOp57
 70
     1
  0
XRECORD
  5
83A9
102
{ACAD_REACTORS
330
83A8
102
}
330
83A8
100
AcDbXrecord
280
     1
102
RTVSPropertyOp0
 70
     1
102
RTVSPropertyOp1
 70
     1
102
RTVSPropertyOp2
 70
     1
102
RTVSPropertyOp3
 70
     1
102
RTVSPropertyOp4
 70
     1
102
RTVSPropertyOp5
 70
     1
102
RTVSPropertyOp6
 70
     1
102
RTVSPropertyOp7
 70
     1
102
RTVSPropertyOp8
 70
     1
102
RTVSPropertyOp9
 70
     1
102
RTVSPropertyOp10
 70
     1
102
RTVSPropertyOp11
 70
     1
102
RTVSPropertyOp12
 70
     1
102
RTVSPropertyOp13
 70
     1
102
RTVSPropertyOp14
 70
     1
102
RTVSPropertyOp15
 70
     1
102
RTVSPropertyOp16
 70
     1
102
RTVSPropertyOp17
 70
     1
102
RTVSPropertyOp18
 70
     1
102
RTVSPropertyOp19
 70
     1
102
RTVSPropertyOp20
 70
     1
102
RTVSPropertyOp21
 70
     1
102
RTVSPropertyOp22
 70
     1
102
RTVSPropertyOp23
 70
     1
102
RTVSPropertyOp24
 70
     1
102
RTVSPropertyOp25
 70
     1
102
RTVSPropertyOp26
 70
     1
102
RTVSPropertyOp27
 70
     1
102
RTVSPropertyOp28
 70
     1
102
RTVSPropertyOp29
 70
     1
102
RTVSPropertyOp30
 70
     1
102
RTVSPropertyOp31
 70
     1
102
RTVSPropertyOp32
 70
     1
102
RTVSPropertyOp33
 70
     1
102
RTVSPropertyOp34
 70
     1
102
RTVSPropertyOp35
 70
     1
102
RTVSPropertyOp36
 70
     1
102
RTVSPropertyOp37
 70
     1
102
RTVSPropertyOp38
 70
     1
102
RTVSPropertyOp39
 70
     1
102
RTVSPropertyOp40
 70
     1
102
RTVSPropertyOp41
 70
     1
102
RTVSPropertyOp42
 70
     1
102
RTVSPropertyOp43
 70
     1
102
RTVSPropertyOp44
 70
     1
102
RTVSPropertyOp45
 70
     1
102
RTVSPropertyOp46
 70
     1
102
RTVSPropertyOp47
 70
     1
102
RTVSPropertyOp48
 70
     1
102
RTVSPropertyOp49
 70
     1
102
RTVSPropertyOp50
 70
     1
102
RTVSPropertyOp51
 70
     0
102
RTVSPropertyOp52
 70
     0
102
RTVSPropertyOp53
 70
     1
102
RTVSPropertyOp54
 70
     1
102
RTVSPropertyOp55
 70
     1
102
RTVSPropertyOp56
 70
     1
102
RTVSPropertyOp57
 70
     1
102
RTVSPost2010Prop28
280
     0
102
RTVSPost2010PropOp28
 70
     1
102
RTVSPost2010Prop29
280
     1
102
RTVSPost2010PropOp29
 70
     1
102
RTVSPost2010Prop30
280
     1
102
RTVSPost2010PropOp30
 70
     1
102
RTVSPost2010Prop31
280
     0
102
RTVSPost2010PropOp31
 70
     1
102
RTVSPost2010Prop32
280
     0
102
RTVSPost2010PropOp32
 70
     1
102
RTVSPost2010Prop33
280
     0
102
RTVSPost2010PropOp33
 70
     1
102
RTVSPost2010Prop34
280
     0
102
RTVSPost2010PropOp34
 70
     1
102
RTVSPost2010Prop35
280
     0
102
RTVSPost2010PropOp35
 70
     1
102
RTVSPost2010Prop36
280
     0
102
RTVSPost2010PropOp36
 70
     1
102
RTVSPost2010Prop37
 90
       50
102
RTVSPost2010PropOp37
 70
     1
102
RTVSPost2010Prop38
140
0.0
102
RTVSPost2010PropOp38
 70
     1
102
RTVSPost2010Prop39
140
1.0
102
RTVSPost2010PropOp39
 70
     1
102
RTVSPost2010Prop40
 90
        0
102
RTVSPost2010PropOp40
 70
     1
102
RTVSPost2010Prop41ColorIndex
 90
       18
102
RTVSPost2010Prop41ColorRGB
 90
        0
102
RTVSPost2010PropOp41
 70
     1
102
RTVSPost2010Prop42
 90
       50
102
RTVSPost2010PropOp42
 70
     1
102
RTVSPost2010Prop43
 90
        3
102
RTVSPost2010PropOp43
 70
     1
102
RTVSPost2010Prop44ColorIndex
 90
        5
102
RTVSPost2010Prop44ColorRGB
 90
      255
102
RTVSPost2010PropOp44
 70
     1
102
RTVSPost2010Prop45
280
     0
102
RTVSPost2010PropOp45
 70
     1
102
RTVSPost2010Prop46
 90
       50
102
RTVSPost2010PropOp46
 70
     1
102
RTVSPost2010Prop47
 90
       50
102
RTVSPost2010PropOp47
 70
     1
102
RTVSPost2010Prop48
 90
       50
102
RTVSPost2010PropOp48
 70
     1
102
RTVSPost2010Prop49
280
     0
102
RTVSPost2010PropOp49
 70
     1
102
RTVSPost2010Prop50
 90
       50
102
RTVSPost2010PropOp50
 70
     1
102
RTVSPost2010Prop51ColorIndex
 90
      256
102
RTVSPost2010Prop51ColorRGB
 90
-16777216
102
RTVSPost2010PropOp51
 70
     0
102
RTVSPost2010Prop52
140
1.0
102
RTVSPost2010PropOp52
 70
     0
102
RTVSPost2010Prop53
 90
        2
102
RTVSPost2010PropOp53
 70
     1
102
RTVSPost2010Prop54
  1
strokes_ogs.tif
102
RTVSPost2010PropOp54
 70
     1
102
RTVSPost2010Prop55
280
     0
102
RTVSPost2010PropOp55
 70
     1
102
RTVSPost2010Prop56
140
1.0
102
RTVSPost2010PropOp56
 70
     1
102
RTVSPost2010Prop57
140
1.0
102
RTVSPost2010PropOp57
 70
     1
  0
XRECORD
  5
83AB
102
{ACAD_REACTORS
330
83AA
102
}
330
83AA
100
AcDbXrecord
280
     1
102
RTVSPropertyOp0
 70
     1
102
RTVSPropertyOp1
 70
     1
102
RTVSPropertyOp2
 70
     1
102
RTVSPropertyOp3
 70
     1
102
RTVSPropertyOp4
 70
     1
102
RTVSPropertyOp5
 70
     1
102
RTVSPropertyOp6
 70
     1
102
RTVSPropertyOp7
 70
     1
102
RTVSPropertyOp8
 70
     1
102
RTVSPropertyOp9
 70
     1
102
RTVSPropertyOp10
 70
     1
102
RTVSPropertyOp11
 70
     1
102
RTVSPropertyOp12
 70
     1
102
RTVSPropertyOp13
 70
     1
102
RTVSPropertyOp14
 70
     1
102
RTVSPropertyOp15
 70
     1
102
RTVSPropertyOp16
 70
     1
102
RTVSPropertyOp17
 70
     1
102
RTVSPropertyOp18
 70
     1
102
RTVSPropertyOp19
 70
     1
102
RTVSPropertyOp20
 70
     1
102
RTVSPropertyOp21
 70
     1
102
RTVSPropertyOp22
 70
     1
102
RTVSPropertyOp23
 70
     1
102
RTVSPropertyOp24
 70
     1
102
RTVSPropertyOp25
 70
     1
102
RTVSPropertyOp26
 70
     1
102
RTVSPropertyOp27
 70
     1
102
RTVSPropertyOp28
 70
     1
102
RTVSPropertyOp29
 70
     1
102
RTVSPropertyOp30
 70
     1
102
RTVSPropertyOp31
 70
     1
102
RTVSPropertyOp32
 70
     1
102
RTVSPropertyOp33
 70
     1
102
RTVSPropertyOp34
 70
     1
102
RTVSPropertyOp35
 70
     1
102
RTVSPropertyOp36
 70
     1
102
RTVSPropertyOp37
 70
     1
102
RTVSPropertyOp38
 70
     1
102
RTVSPropertyOp39
 70
     1
102
RTVSPropertyOp40
 70
     1
102
RTVSPropertyOp41
 70
     1
102
RTVSPropertyOp42
 70
     1
102
RTVSPropertyOp43
 70
     1
102
RTVSPropertyOp44
 70
     1
102
RTVSPropertyOp45
 70
     1
102
RTVSPropertyOp46
 70
     1
102
RTVSPropertyOp47
 70
     1
102
RTVSPropertyOp48
 70
     1
102
RTVSPropertyOp49
 70
     1
102
RTVSPropertyOp50
 70
     1
102
RTVSPropertyOp51
 70
     0
102
RTVSPropertyOp52
 70
     0
102
RTVSPropertyOp53
 70
     1
102
RTVSPropertyOp54
 70
     1
102
RTVSPropertyOp55
 70
     1
102
RTVSPropertyOp56
 70
     1
102
RTVSPropertyOp57
 70
     1
102
RTVSPost2010Prop28
280
     0
102
RTVSPost2010PropOp28
 70
     1
102
RTVSPost2010Prop29
280
     1
102
RTVSPost2010PropOp29
 70
     1
102
RTVSPost2010Prop30
280
     1
102
RTVSPost2010PropOp30
 70
     1
102
RTVSPost2010Prop31
280
     0
102
RTVSPost2010PropOp31
 70
     1
102
RTVSPost2010Prop32
280
     0
102
RTVSPost2010PropOp32
 70
     1
102
RTVSPost2010Prop33
280
     0
102
RTVSPost2010PropOp33
 70
     1
102
RTVSPost2010Prop34
280
     0
102
RTVSPost2010PropOp34
 70
     1
102
RTVSPost2010Prop35
280
     0
102
RTVSPost2010PropOp35
 70
     1
102
RTVSPost2010Prop36
280
     0
102
RTVSPost2010PropOp36
 70
     1
102
RTVSPost2010Prop37
 90
       50
102
RTVSPost2010PropOp37
 70
     1
102
RTVSPost2010Prop38
140
0.0
102
RTVSPost2010PropOp38
 70
     1
102
RTVSPost2010Prop39
140
1.0
102
RTVSPost2010PropOp39
 70
     1
102
RTVSPost2010Prop40
 90
        0
102
RTVSPost2010PropOp40
 70
     1
102
RTVSPost2010Prop41ColorIndex
 90
       18
102
RTVSPost2010Prop41ColorRGB
 90
        0
102
RTVSPost2010PropOp41
 70
     1
102
RTVSPost2010Prop42
 90
       50
102
RTVSPost2010PropOp42
 70
     1
102
RTVSPost2010Prop43
 90
        3
102
RTVSPost2010PropOp43
 70
     1
102
RTVSPost2010Prop44ColorIndex
 90
        5
102
RTVSPost2010Prop44ColorRGB
 90
      255
102
RTVSPost2010PropOp44
 70
     1
102
RTVSPost2010Prop45
280
     0
102
RTVSPost2010PropOp45
 70
     1
102
RTVSPost2010Prop46
 90
       50
102
RTVSPost2010PropOp46
 70
     1
102
RTVSPost2010Prop47
 90
       50
102
RTVSPost2010PropOp47
 70
     1
102
RTVSPost2010Prop48
 90
       50
102
RTVSPost2010PropOp48
 70
     1
102
RTVSPost2010Prop49
280
     0
102
RTVSPost2010PropOp49
 70
     1
102
RTVSPost2010Prop50
 90
       50
102
RTVSPost2010PropOp50
 70
     1
102
RTVSPost2010Prop51ColorIndex
 90
      256
102
RTVSPost2010Prop51ColorRGB
 90
-16777216
102
RTVSPost2010PropOp51
 70
     0
102
RTVSPost2010Prop52
140
1.0
102
RTVSPost2010PropOp52
 70
     0
102
RTVSPost2010Prop53
 90
        2
102
RTVSPost2010PropOp53
 70
     1
102
RTVSPost2010Prop54
  1
strokes_ogs.tif
102
RTVSPost2010PropOp54
 70
     1
102
RTVSPost2010Prop55
280
     0
102
RTVSPost2010PropOp55
 70
     1
102
RTVSPost2010Prop56
140
1.0
102
RTVSPost2010PropOp56
 70
     1
102
RTVSPost2010Prop57
140
1.0
102
RTVSPost2010PropOp57
 70
     1
  0
ENDSEC
  0
EOF
