  0
SECTION
  2
HEADER
  9
$ACADVER
  1
AC1015
  9
$ACADMAINTVER
 70
     6
  9
$DWGCODEPAGE
  3
ANSI_1252
  9
$INSBASE
 10
0.0
 20
0.0
 30
0.0
  9
$EXTMIN
 10
3.969119741924487
 20
-22.77229030683725
 30
-0.0015258207003583
  9
$EXTMAX
 10
661.9034833348801
 20
578.4907408355157
 30
0.0000000349246037
  9
$LIMMIN
 10
0.0
 20
0.0
  9
$LIMMAX
 10
12.0
 20
9.0
  9
$ORTHOMODE
 70
     1
  9
$REGENMODE
 70
     1
  9
$FILLMODE
 70
     1
  9
$QTEXTMODE
 70
     0
  9
$MIRRTEXT
 70
     0
  9
$LTSCALE
 40
1.0
  9
$ATTMODE
 70
     1
  9
$TEXTSIZE
 40
0.2
  9
$TRACEWID
 40
0.05
  9
$TEXTSTYLE
  7
Standard
  9
$CLAYER
  8
0
  9
$CELTYPE
  6
Continuous
  9
$CECOLOR
 62
   256
  9
$CELTSCALE
 40
1.0
  9
$DISPSILH
 70
     0
  9
$DIMSCALE
 40
1.0
  9
$DIMASZ
 40
0.18
  9
$DIMEXO
 40
0.0625
  9
$DIMDLI
 40
0.38
  9
$DIMRND
 40
0.0
  9
$DIMDLE
 40
0.0
  9
$DIMEXE
 40
0.18
  9
$DIMTP
 40
0.0
  9
$DIMTM
 40
0.0
  9
$DIMTXT
 40
0.18
  9
$DIMCEN
 40
0.09
  9
$DIMTSZ
 40
0.0
  9
$DIMTOL
 70
     0
  9
$DIMLIM
 70
     0
  9
$DIMTIH
 70
     1
  9
$DIMTOH
 70
     1
  9
$DIMSE1
 70
     0
  9
$DIMSE2
 70
     0
  9
$DIMTAD
 70
     0
  9
$DIMZIN
 70
     0
  9
$DIMBLK
  1

  9
$DIMASO
 70
     1
  9
$DIMSHO
 70
     1
  9
$DIMPOST
  1

  9
$DIMAPOST
  1

  9
$DIMALT
 70
     0
  9
$DIMALTD
 70
     2
  9
$DIMALTF
 40
25.4
  9
$DIMLFAC
 40
1.0
  9
$DIMTOFL
 70
     0
  9
$DIMTVP
 40
0.0
  9
$DIMTIX
 70
     0
  9
$DIMSOXD
 70
     0
  9
$DIMSAH
 70
     0
  9
$DIMBLK1
  1

  9
$DIMBLK2
  1

  9
$DIMSTYLE
  2
Standard
  9
$DIMCLRD
 70
     0
  9
$DIMCLRE
 70
     0
  9
$DIMCLRT
 70
     0
  9
$DIMTFAC
 40
1.0
  9
$DIMGAP
 40
0.09
  9
$DIMJUST
 70
     0
  9
$DIMSD1
 70
     0
  9
$DIMSD2
 70
     0
  9
$DIMTOLJ
 70
     1
  9
$DIMTZIN
 70
     0
  9
$DIMALTZ
 70
     0
  9
$DIMALTTZ
 70
     0
  9
$DIMUPT
 70
     0
  9
$DIMDEC
 70
     4
  9
$DIMTDEC
 70
     4
  9
$DIMALTU
 70
     2
  9
$DIMALTTD
 70
     2
  9
$DIMTXSTY
  7
Standard
  9
$DIMAUNIT
 70
     0
  9
$DIMADEC
 70
     0
  9
$DIMALTRND
 40
0.0
  9
$DIMAZIN
 70
     0
  9
$DIMDSEP
 70
    46
  9
$DIMATFIT
 70
     3
  9
$DIMFRAC
 70
     0
  9
$DIMLDRBLK
  1

  9
$DIMLUNIT
 70
     2
  9
$DIMLWD
 70
    -2
  9
$DIMLWE
 70
    -2
  9
$DIMTMOVE
 70
     0
  9
$LUNITS
 70
     2
  9
$LUPREC
 70
     4
  9
$SKETCHINC
 40
0.1
  9
$FILLETRAD
 40
0.0
  9
$AUNITS
 70
     0
  9
$AUPREC
 70
     0
  9
$MENU
  1
.
  9
$ELEVATION
 40
0.0
  9
$PELEVATION
 40
0.0
  9
$THICKNESS
 40
0.0
  9
$LIMCHECK
 70
     0
  9
$CHAMFERA
 40
0.0
  9
$CHAMFERB
 40
0.0
  9
$CHAMFERC
 40
0.0
  9
$CHAMFERD
 40
0.0
  9
$SKPOLY
 70
     0
  9
$TDCREATE
 40
2456350.94399632
  9
$TDUCREATE
 40
2456350.860662986
  9
$TDUPDATE
 40
2459842.452926609
  9
$TDUUPDATE
 40
2459842.369593275
  9
$TDINDWG
 40
0.0142251852
  9
$TDUSRTIMER
 40
0.0142251852
  9
$USRTIMER
 70
     1
  9
$ANGBASE
 50
0.0
  9
$ANGDIR
 70
     0
  9
$PDMODE
 70
     0
  9
$PDSIZE
 40
0.0
  9
$PLINEWID
 40
0.0
  9
$SPLFRAME
 70
     0
  9
$SPLINETYPE
 70
     6
  9
$SPLINESEGS
 70
     8
  9
$HANDSEED
  5
12243
  9
$SURFTAB1
 70
     6
  9
$SURFTAB2
 70
     6
  9
$SURFTYPE
 70
     6
  9
$SURFU
 70
     6
  9
$SURFV
 70
     6
  9
$UCSBASE
  2

  9
$UCSNAME
  2

  9
$UCSORG
 10
0.0
 20
0.0
 30
0.0
  9
$UCSXDIR
 10
1.0
 20
0.0
 30
0.0
  9
$UCSYDIR
 10
0.0
 20
1.0
 30
0.0
  9
$UCSORTHOREF
  2

  9
$UCSORTHOVIEW
 70
     0
  9
$UCSORGTOP
 10
0.0
 20
0.0
 30
0.0
  9
$UCSORGBOTTOM
 10
0.0
 20
0.0
 30
0.0
  9
$UCSORGLEFT
 10
0.0
 20
0.0
 30
0.0
  9
$UCSORGRIGHT
 10
0.0
 20
0.0
 30
0.0
  9
$UCSORGFRONT
 10
0.0
 20
0.0
 30
0.0
  9
$UCSORGBACK
 10
0.0
 20
0.0
 30
0.0
  9
$PUCSBASE
  2

  9
$PUCSNAME
  2

  9
$PUCSORG
 10
0.0
 20
0.0
 30
0.0
  9
$PUCSXDIR
 10
1.0
 20
0.0
 30
0.0
  9
$PUCSYDIR
 10
0.0
 20
1.0
 30
0.0
  9
$PUCSORTHOREF
  2

  9
$PUCSORTHOVIEW
 70
     0
  9
$PUCSORGTOP
 10
0.0
 20
0.0
 30
0.0
  9
$PUCSORGBOTTOM
 10
0.0
 20
0.0
 30
0.0
  9
$PUCSORGLEFT
 10
0.0
 20
0.0
 30
0.0
  9
$PUCSORGRIGHT
 10
0.0
 20
0.0
 30
0.0
  9
$PUCSORGFRONT
 10
0.0
 20
0.0
 30
0.0
  9
$PUCSORGBACK
 10
0.0
 20
0.0
 30
0.0
  9
$USERI1
 70
     0
  9
$USERI2
 70
     0
  9
$USERI3
 70
     0
  9
$USERI4
 70
     0
  9
$USERI5
 70
     0
  9
$USERR1
 40
0.0
  9
$USERR2
 40
0.0
  9
$USERR3
 40
0.0
  9
$USERR4
 40
0.0
  9
$USERR5
 40
0.0
  9
$WORLDVIEW
 70
     1
  9
$SHADEDGE
 70
     3
  9
$SHADEDIF
 70
    70
  9
$TILEMODE
 70
     1
  9
$MAXACTVP
 70
    64
  9
$PINSBASE
 10
0.0
 20
0.0
 30
0.0
  9
$PLIMCHECK
 70
     0
  9
$PEXTMIN
 10
1.000000000000000E+20
 20
1.000000000000000E+20
 30
1.000000000000000E+20
  9
$PEXTMAX
 10
-1.000000000000000E+20
 20
-1.000000000000000E+20
 30
-1.000000000000000E+20
  9
$PLIMMIN
 10
0.0
 20
0.0
  9
$PLIMMAX
 10
12.0
 20
9.0
  9
$UNITMODE
 70
     0
  9
$VISRETAIN
 70
     1
  9
$PLINEGEN
 70
     0
  9
$PSLTSCALE
 70
     1
  9
$TREEDEPTH
 70
  3020
  9
$CMLSTYLE
  2
Standard
  9
$CMLJUST
 70
     0
  9
$CMLSCALE
 40
1.0
  9
$PROXYGRAPHICS
 70
     1
  9
$MEASUREMENT
 70
     0
  9
$CELWEIGHT
370
    -1
  9
$ENDCAPS
280
     0
  9
$JOINSTYLE
280
     0
  9
$LWDISPLAY
290
     0
  9
$INSUNITS
 70
     0
  9
$HYPERLINKBASE
  1

  9
$STYLESHEET
  1

  9
$XEDIT
290
     1
  9
$CEPSNTYPE
380
     0
  9
$PSTYLEMODE
290
     1
  9
$FINGERPRINTGUID
  2
{36D72B96-9CB2-4C91-B507-A7507003768B}
  9
$VERSIONGUID
  2
{E8BA6D67-65B3-4708-A17A-362CF2709654}
  9
$EXTNAMES
290
     1
  9
$PSVPSCALE
 40
0.0
  9
$OLESTARTUP
290
     0
  0
ENDSEC
  0
SECTION
  2
CLASSES
  0
CLASS
  1
ACDBDICTIONARYWDFLT
  2
AcDbDictionaryWithDefault
  3
ObjectDBX Classes
 90
        0
280
     0
281
     0
  0
CLASS
  1
MATERIAL
  2
AcDbMaterial
  3
ObjectDBX Classes
 90
     1153
280
     0
281
     0
  0
CLASS
  1
VISUALSTYLE
  2
AcDbVisualStyle
  3
ObjectDBX Classes
 90
     4095
280
     0
281
     0
  0
CLASS
  1
SCALE
  2
AcDbScale
  3
ObjectDBX Classes
 90
     1153
280
     0
281
     0
  0
CLASS
  1
TABLESTYLE
  2
AcDbTableStyle
  3
ObjectDBX Classes
 90
     4095
280
     0
281
     0
  0
CLASS
  1
MLEADERSTYLE
  2
AcDbMLeaderStyle
  3
ACDB_MLEADERSTYLE_CLASS
 90
     4095
280
     0
281
     0
  0
CLASS
  1
DICTIONARYVAR
  2
AcDbDictionaryVar
  3
ObjectDBX Classes
 90
        0
280
     0
281
     0
  0
CLASS
  1
CELLSTYLEMAP
  2
AcDbCellStyleMap
  3
ObjectDBX Classes
 90
     1152
280
     0
281
     0
  0
CLASS
  1
ACDBSECTIONVIEWSTYLE
  2
AcDbSectionViewStyle
  3
ObjectDBX Classes
 90
     1025
280
     0
281
     0
  0
CLASS
  1
ACDBDETAILVIEWSTYLE
  2
AcDbDetailViewStyle
  3
ObjectDBX Classes
 90
     1025
280
     0
281
     0
  0
CLASS
  1
ACDBPLACEHOLDER
  2
AcDbPlaceHolder
  3
ObjectDBX Classes
 90
        0
280
     0
281
     0
  0
CLASS
  1
LAYOUT
  2
AcDbLayout
  3
ObjectDBX Classes
 90
        0
280
     0
281
     0
  0
ENDSEC
  0
SECTION
  2
TABLES
  0
TABLE
  2
VPORT
  5
8
102
{ACAD_XDICTIONARY
360
121FC
102
}
330
0
100
AcDbSymbolTable
 70
     1
  0
VPORT
  5
70
330
8
100
AcDbSymbolTableRecord
100
AcDbViewportTableRecord
  2
*Active
 70
     0
 10
0.0
 20
0.0
 11
1.0
 21
1.0
 12
332.9363015384022
 22
277.8592252643392
 13
0.0
 23
0.0
 14
1.0
 24
1.0
 15
0.0
 25
0.0
 16
0.0
 26
0.0
 36
1.0
 17
0.0
 27
0.0
 37
0.0
 40
606.0603425610418
 41
1.549933422103861
 42
50.0
 43
0.0
 44
0.0
 50
0.0
 51
0.0
 71
     0
 72
   100
 73
     1
 74
     1
 75
     0
 76
     0
 77
     0
 78
     0
281
     0
 65
     1
110
0.0
120
0.0
130
0.0
111
1.0
121
0.0
131
0.0
112
0.0
122
1.0
132
0.0
 79
     0
146
0.0
1001
ACAD_NAV_VCDISPLAY
1070
     3
  0
ENDTAB
  0
TABLE
  2
LTYPE
  5
5
330
0
100
AcDbSymbolTable
 70
     1
  0
LTYPE
  5
5A
330
5
100
AcDbSymbolTableRecord
100
AcDbLinetypeTableRecord
  2
ByBlock
 70
     0
  3

 72
    65
 73
     0
 40
0.0
  0
LTYPE
  5
5B
330
5
100
AcDbSymbolTableRecord
100
AcDbLinetypeTableRecord
  2
ByLayer
 70
     0
  3

 72
    65
 73
     0
 40
0.0
  0
LTYPE
  5
5C
330
5
100
AcDbSymbolTableRecord
100
AcDbLinetypeTableRecord
  2
Continuous
 70
     0
  3
Solid line
 72
    65
 73
     0
 40
0.0
  0
ENDTAB
  0
TABLE
  2
LAYER
  5
2
102
{ACAD_XDICTIONARY
360
1211A
102
}
330
0
100
AcDbSymbolTable
 70
     1
  0
LAYER
  5
54
102
{ACAD_XDICTIONARY
360
12021
102
}
330
2
100
AcDbSymbolTableRecord
100
AcDbLayerTableRecord
  2
0
 70
     0
 62
     7
  6
Continuous
370
    -3
390
F
  0
ENDTAB
  0
TABLE
  2
STYLE
  5
3
330
0
100
AcDbSymbolTable
 70
     1
  0
STYLE
  5
55
330
3
100
AcDbSymbolTableRecord
100
AcDbTextStyleTableRecord
  2
Standard
 70
     0
 40
0.0
 41
1.0
 50
0.0
 71
     0
 42
0.2
  3
txt
  4

  0
ENDTAB
  0
TABLE
  2
VIEW
  5
6
330
0
100
AcDbSymbolTable
 70
     0
  0
ENDTAB
  0
TABLE
  2
UCS
  5
7
330
0
100
AcDbSymbolTable
 70
     0
  0
ENDTAB
  0
TABLE
  2
APPID
  5
9
330
0
100
AcDbSymbolTable
 70
     5
  0
APPID
  5
56
330
9
100
AcDbSymbolTableRecord
100
AcDbRegAppTableRecord
  2
ACAD
 70
     0
  0
APPID
  5
5D
330
9
100
AcDbSymbolTableRecord
100
AcDbRegAppTableRecord
  2
AcadAnnotative
 70
     0
  0
APPID
  5
1200F
330
9
100
AcDbSymbolTableRecord
100
AcDbRegAppTableRecord
  2
ACAD_EXEMPT_FROM_CAD_STANDARDS
 70
     0
  0
APPID
  5
12016
330
9
100
AcDbSymbolTableRecord
100
AcDbRegAppTableRecord
  2
ACAD_NAV_VCDISPLAY
 70
     0
  0
APPID
  5
12155
330
9
100
AcDbSymbolTableRecord
100
AcDbRegAppTableRecord
  2
ACAD_MLEADERVER
 70
     0
  0
ENDTAB
  0
TABLE
  2
DIMSTYLE
  5
A
330
0
100
AcDbSymbolTable
 70
     1
100
AcDbDimStyleTable
  0
DIMSTYLE
105
57
330
A
100
AcDbSymbolTableRecord
100
AcDbDimStyleTableRecord
  2
Standard
 70
     0
178
     0
340
55
  0
ENDTAB
  0
TABLE
  2
BLOCK_RECORD
  5
1
330
0
100
AcDbSymbolTable
 70
     0
  0
BLOCK_RECORD
  5
6B
330
1
100
AcDbSymbolTableRecord
100
AcDbBlockTableRecord
  2
*Model_Space
340
6E
  0
BLOCK_RECORD
  5
67
330
1
100
AcDbSymbolTableRecord
100
AcDbBlockTableRecord
  2
*Paper_Space
340
6A
  0
ENDTAB
  0
ENDSEC
  0
SECTION
  2
BLOCKS
  0
BLOCK
  5
6C
330
6B
100
AcDbEntity
  8
0
100
AcDbBlockBegin
  2
*Model_Space
 70
     0
 10
0.0
 20
0.0
 30
0.0
  3
*Model_Space
  1

  0
ENDBLK
  5
6D
330
6B
100
AcDbEntity
  8
0
100
AcDbBlockEnd
  0
BLOCK
  5
68
330
67
100
AcDbEntity
 67
     1
  8
0
100
AcDbBlockBegin
  2
*Paper_Space
 70
     0
 10
0.0
 20
0.0
 30
0.0
  3
*Paper_Space
  1

  0
ENDBLK
  5
69
330
67
100
AcDbEntity
 67
     1
  8
0
100
AcDbBlockEnd
  0
ENDSEC
  0
SECTION
  2
ENTITIES
  0
LINE
  5
F643
330
6B
100
AcDbEntity
  8
0
100
AcDbLine
 10
330.9053548139996
 20
369.9664328549998
 30
0.0
 11
330.9053548139996
 21
428.6721044410001
 31
0.0
  0
LINE
  5
F644
330
6B
100
AcDbEntity
  8
0
100
AcDbLine
 10
283.3331945089994
 20
369.9664328549998
 30
0.0
 11
283.3331945089994
 21
428.6721044410001
 31
0.0
  0
LINE
  5
F661
330
6B
100
AcDbEntity
  8
0
100
AcDbLine
 10
330.9053548139996
 20
279.8834074100005
 30
0.0
 11
330.9053548139996
 21
338.5890789959999
 31
0.0
  0
LINE
  5
F662
330
6B
100
AcDbEntity
  8
0
100
AcDbLine
 10
283.3331945089994
 20
279.8834074100005
 30
0.0
 11
283.3331945089994
 21
338.5890789959999
 31
0.0
  0
LINE
  5
F6DC
330
6B
100
AcDbEntity
  8
0
100
AcDbLine
 10
501.9610744069996
 20
175.630762626
 30
0.0
 11
503.985592473
 21
175.630762626
 31
0.0
  0
LINE
  5
F6DD
330
6B
100
AcDbEntity
  8
0
100
AcDbLine
 10
503.985592473
 20
175.630762626
 30
0.0
 11
504.9978515059997
 21
176.6430216590002
 31
0.0
  0
LINE
  5
F6DE
330
6B
100
AcDbEntity
  8
0
100
AcDbLine
 10
504.9978515059997
 20
176.6430216590002
 30
0.0
 11
507.0217005310001
 21
176.6430216590002
 31
0.0
  0
LINE
  5
F6E6
330
6B
100
AcDbEntity
  8
0
100
AcDbLine
 10
591.0318408189996
 20
157.4114381140002
 30
0.0
 11
592.0440998520003
 21
157.4114381140002
 31
0.0
  0
LINE
  5
F70A
330
6B
100
AcDbEntity
  8
0
100
AcDbLine
 10
641.6401091819998
 20
149.3140348910001
 30
0.0
 11
643.6639582069997
 21
151.338552957
 31
0.0
  0
LINE
  5
F70B
330
6B
100
AcDbEntity
  8
0
100
AcDbLine
 10
643.6639582069997
 20
151.338552957
 30
0.0
 11
641.6401091819998
 21
153.3630710230004
 31
0.0
  0
LINE
  5
F70C
330
6B
100
AcDbEntity
  8
0
100
AcDbLine
 10
641.6401091819998
 20
153.3630710230004
 30
0.0
 11
639.6155911159995
 21
151.338552957
 31
0.0
  0
LINE
  5
F70D
330
6B
100
AcDbEntity
  8
0
100
AcDbLine
 10
639.6155911159995
 20
151.338552957
 30
0.0
 11
641.6401091819998
 21
149.3140348910001
 31
0.0
  0
LINE
  5
F70E
330
6B
100
AcDbEntity
  8
0
100
AcDbLine
 10
427.0605963749999
 20
149.3140348910001
 30
0.0
 11
429.0851144409994
 21
151.338552957
 31
0.0
  0
LINE
  5
F70F
330
6B
100
AcDbEntity
  8
0
100
AcDbLine
 10
429.0851144409994
 20
151.338552957
 30
0.0
 11
427.0605963749999
 21
153.3630710230004
 31
0.0
  0
LINE
  5
F710
330
6B
100
AcDbEntity
  8
0
100
AcDbLine
 10
427.0605963749999
 20
153.3630710230004
 30
0.0
 11
427.0605963749999
 21
149.3140348910001
 31
0.0
  0
LINE
  5
F712
330
6B
100
AcDbEntity
  8
0
100
AcDbLine
 10
501.9610744069996
 20
111.8644649160001
 30
0.0
 11
520.1797298779993
 21
119.9611990980002
 31
0.0
  0
LINE
  5
F723
330
6B
100
AcDbEntity
  8
0
100
AcDbLine
 10
573.8247753399996
 20
104.7793207260002
 30
0.0
 11
565.7273721169995
 21
111.8644649160001
 31
0.0
  0
LINE
  5
F724
330
6B
100
AcDbEntity
  8
0
100
AcDbLine
 10
565.7273721169995
 20
111.8644649160001
 30
0.0
 11
545.4841985799994
 21
120.9734581309999
 31
0.0
  0
LINE
  5
F725
330
6B
100
AcDbEntity
  8
0
100
AcDbLine
 10
545.4841985799994
 20
120.9734581309999
 30
0.0
 11
540.4235724559999
 21
120.9734581309999
 31
0.0
  0
LINE
  5
F775
330
6B
100
AcDbEntity
  8
0
100
AcDbLine
 10
273.2119422609999
 20
64.29230461100042
 30
0.0
 11
275.2364603269998
 21
66.31682267699989
 31
0.0
  0
LINE
  5
F776
330
6B
100
AcDbEntity
  8
0
100
AcDbLine
 10
275.2364603269998
 20
66.31682267699989
 30
0.0
 11
273.2119422609999
 21
68.34134074300027
 31
0.0
  0
LINE
  5
F777
330
6B
100
AcDbEntity
  8
0
100
AcDbLine
 10
273.2119422609999
 20
68.34134074300027
 30
0.0
 11
271.1874241949995
 21
66.31682267699989
 31
0.0
  0
LINE
  5
F778
330
6B
100
AcDbEntity
  8
0
100
AcDbLine
 10
271.1874241949995
 20
66.31682267699989
 30
0.0
 11
273.2119422609999
 21
64.29230461100042
 31
0.0
  0
LINE
  5
F779
330
6B
100
AcDbEntity
  8
0
100
AcDbLine
 10
538.39905439
 20
59.23167848700041
 30
0.0
 11
542.4474214809998
 21
64.29230461100042
 31
0.0
  0
LINE
  5
F77A
330
6B
100
AcDbEntity
  8
0
100
AcDbLine
 10
542.4474214809998
 20
64.29230461100042
 30
0.0
 11
539.4113134229997
 21
71.3774488009999
 31
0.0
  0
LINE
  5
F77B
330
6B
100
AcDbEntity
  8
0
100
AcDbLine
 10
539.4113134229997
 20
71.3774488009999
 30
0.0
 11
537.3867953569998
 21
72.38970783400009
 31
0.0
  0
LINE
  5
F77C
330
6B
100
AcDbEntity
  8
0
100
AcDbLine
 10
529.2893921339996
 20
58.21941945400022
 30
0.0
 11
526.2532840759995
 21
62.26845558600053
 31
0.0
  0
LINE
  5
F77D
330
6B
100
AcDbEntity
  8
0
100
AcDbLine
 10
526.2532840759995
 20
62.26845558600053
 30
0.0
 11
527.2655431089997
 21
70.36518976800016
 31
0.0
  0
LINE
  5
F77E
330
6B
100
AcDbEntity
  8
0
100
AcDbLine
 10
527.2655431089997
 20
70.36518976800016
 30
0.0
 11
528.2771331009999
 21
72.38970783400009
 31
0.0
  0
LINE
  5
F787
330
6B
100
AcDbEntity
  8
0
100
AcDbLine
 10
605.2021291989995
 20
46.07364914000027
 30
0.0
 11
608.2382372569996
 21
62.26845558600053
 31
0.0
  0
LINE
  5
F788
330
6B
100
AcDbEntity
  8
0
100
AcDbLine
 10
608.2382372569996
 20
62.26845558600053
 30
0.0
 11
607.2259782239998
 21
76.4387439660004
 31
0.0
  0
LINE
  5
F789
330
6B
100
AcDbEntity
  8
0
100
AcDbLine
 10
607.2259782239998
 20
76.4387439660004
 30
0.0
 11
602.1653520999998
 21
92.63288137100062
 31
0.0
  0
LINE
  5
F7A5
330
6B
100
AcDbEntity
  8
0
100
AcDbLine
 10
519.1681398860001
 20
10.64792819000013
 30
0.0
 11
501.9610744069996
 21
18.7453314129998
 31
0.0
  0
LINE
  5
F7A6
330
6B
100
AcDbEntity
  8
0
100
AcDbLine
 10
519.1681398860001
 20
10.64792819000013
 30
0.0
 11
521.191988911
 21
10.64792819000013
 31
0.0
  0
LINE
  5
F7A8
330
6B
100
AcDbEntity
  8
0
100
AcDbLine
 10
368.3555938300001
 20
7.611151091000465
 30
0.0
 11
368.3555938300001
 21
9.635669157000393
 31
0.0
  0
LINE
  5
F7AB
330
6B
100
AcDbEntity
  8
0
100
AcDbLine
 10
245.8836245339994
 20
-3.522360189999745
 30
0.0
 11
248.9197325919995
 21
-1.498511164999854
 31
0.0
  0
LINE
  5
F7AC
330
6B
100
AcDbEntity
  8
0
100
AcDbLine
 10
248.9197325919995
 20
-1.498511164999854
 30
0.0
 11
243.8591064679995
 21
0.5260069010000734
 31
0.0
  0
LINE
  5
F7AD
330
6B
100
AcDbEntity
  8
0
100
AcDbLine
 10
243.8591064679995
 20
0.5260069010000734
 30
0.0
 11
244.8713655010001
 21
-2.510101156999553
 31
0.0
  0
LINE
  5
F7AE
330
6B
100
AcDbEntity
  8
0
100
AcDbLine
 10
244.8713655010001
 20
-2.510101156999553
 30
0.0
 11
245.8836245339994
 21
-3.522360189999745
 31
0.0
  0
LINE
  5
F7AF
330
6B
100
AcDbEntity
  8
0
100
AcDbLine
 10
131.5090584609998
 20
-3.522360189999745
 30
0.0
 11
134.5451665189998
 21
-1.498511164999854
 31
0.0
  0
LINE
  5
F7B0
330
6B
100
AcDbEntity
  8
0
100
AcDbLine
 10
134.5451665189998
 20
-1.498511164999854
 30
0.0
 11
129.4845403949994
 21
0.5260069010000734
 31
0.0
  0
LINE
  5
F7B1
330
6B
100
AcDbEntity
  8
0
100
AcDbLine
 10
129.4845403949994
 20
0.5260069010000734
 30
0.0
 11
130.4967994279996
 21
-2.510101156999553
 31
0.0
  0
LINE
  5
F7B2
330
6B
100
AcDbEntity
  8
0
100
AcDbLine
 10
130.4967994279996
 20
-2.510101156999553
 30
0.0
 11
131.5090584609998
 21
-3.522360189999745
 31
0.0
  0
LINE
  5
F7B3
330
6B
100
AcDbEntity
  8
0
100
AcDbLine
 10
523.2165069770003
 20
-8.583655354999792
 30
0.0
 11
501.9610744069996
 21
-2.510101156999553
 31
0.0
  0
LINE
  5
F7B4
330
6B
100
AcDbEntity
  8
0
100
AcDbLine
 10
523.2165069770003
 20
-8.583655354999792
 30
0.0
 11
526.2532840759995
 21
-8.583655354999792
 31
0.0
  0
LINE
  5
FCE6
330
6B
100
AcDbEntity
  8
0
100
AcDbLine
 10
329.8930957809998
 20
551.1440737370003
 30
0.0
 11
321.7956925579997
 21
538.9976343820003
 31
0.0
  0
LINE
  5
FCE7
330
6B
100
AcDbEntity
  8
0
100
AcDbLine
 10
321.7956925579997
 20
538.9976343820003
 30
0.0
 11
319.7711744919998
 21
537.9853753490002
 31
0.0
  0
LINE
  5
FCE8
330
6B
100
AcDbEntity
  8
0
100
AcDbLine
 10
329.8930957809998
 20
551.1440737370003
 30
0.0
 11
330.9053548139996
 21
551.1440737370003
 31
0.0
  0
LINE
  5
FCE9
330
6B
100
AcDbEntity
  8
0
100
AcDbLine
 10
330.9053548139996
 20
551.1440737370003
 30
0.0
 11
330.9053548139996
 21
540.0098934150005
 31
0.0
  0
LINE
  5
FCEA
330
6B
100
AcDbEntity
  8
0
100
AcDbLine
 10
329.8930957809998
 20
551.1440737370003
 30
0.0
 11
328.8808367479996
 21
567.3382111420001
 31
0.0
  0
LINE
  5
FCEB
330
6B
100
AcDbEntity
  8
0
100
AcDbLine
 10
328.8808367479996
 20
567.3382111420001
 30
0.0
 11
319.7711744919998
 21
577.4601324310006
 31
0.0
  0
LINE
  5
FCEC
330
6B
100
AcDbEntity
  8
0
100
AcDbLine
 10
319.7711744919998
 20
577.4601324310006
 30
0.0
 11
318.7589154589996
 21
577.4601324310006
 31
0.0
  0
LINE
  5
FD33
330
6B
100
AcDbEntity
  8
0
100
AcDbLine
 10
283.3331945089994
 20
549.1195556710004
 30
0.0
 11
283.3331945089994
 21
540.0098934150005
 31
0.0
  0
LINE
  5
FD34
330
6B
100
AcDbEntity
  8
0
100
AcDbLine
 10
283.3331945089994
 20
549.1195556710004
 30
0.0
 11
284.3454535419996
 21
549.1195556710004
 31
0.0
  0
LINE
  5
FD35
330
6B
100
AcDbEntity
  8
0
100
AcDbLine
 10
284.3454535419996
 20
549.1195556710004
 30
0.0
 11
290.4183386989998
 21
541.0221524480003
 31
0.0
  0
LINE
  5
FD36
330
6B
100
AcDbEntity
  8
0
100
AcDbLine
 10
290.4183386989998
 20
541.0221524480003
 30
0.0
 11
295.4796338639999
 21
536.9737853570005
 31
0.0
  0
LINE
  5
FD37
330
6B
100
AcDbEntity
  8
0
100
AcDbLine
 10
283.3331945089994
 20
549.1195556710004
 30
0.0
 11
284.3454535419996
 21
565.3143621169997
 31
0.0
  0
LINE
  5
FD38
330
6B
100
AcDbEntity
  8
0
100
AcDbLine
 10
284.3454535419996
 20
565.3143621169997
 30
0.0
 11
291.4305977319996
 21
575.4356143650002
 31
0.0
  0
LINE
  5
FD39
330
6B
100
AcDbEntity
  8
0
100
AcDbLine
 10
291.4305977319996
 20
575.4356143650002
 30
0.0
 11
295.4796338639999
 21
578.4723914639999
 31
0.0
  0
LINE
  5
FD95
330
6B
100
AcDbEntity
  8
0
100
AcDbLine
 10
327.8685777149994
 20
505.5964314980006
 30
0.0
 11
314.7105483679993
 21
505.5964314980006
 31
0.0
  0
LINE
  5
FD96
330
6B
100
AcDbEntity
  8
0
100
AcDbLine
 10
327.8685777149994
 20
505.5964314980006
 30
0.0
 11
327.8685777149994
 21
499.5235463409999
 31
0.0
  0
LINE
  5
FD97
330
6B
100
AcDbEntity
  8
0
100
AcDbLine
 10
327.8685777149994
 20
505.5964314980006
 30
0.0
 11
330.9053548139996
 21
505.5964314980006
 31
0.0
  0
LINE
  5
FD98
330
6B
100
AcDbEntity
  8
0
100
AcDbLine
 10
330.9053548139996
 20
505.5964314980006
 30
0.0
 11
330.9053548139996
 21
521.7912379439999
 31
0.0
  0
LINE
  5
FD99
330
6B
100
AcDbEntity
  8
0
100
AcDbLine
 10
286.369971608
 20
505.5964314980006
 30
0.0
 11
283.3331945089994
 21
505.5964314980006
 31
0.0
  0
LINE
  5
FD9A
330
6B
100
AcDbEntity
  8
0
100
AcDbLine
 10
283.3331945089994
 20
505.5964314980006
 30
0.0
 11
283.3331945089994
 21
521.7912379439999
 31
0.0
  0
LINE
  5
FD9B
330
6B
100
AcDbEntity
  8
0
100
AcDbLine
 10
286.369971608
 20
505.5964314980006
 30
0.0
 11
286.369971608
 21
499.5235463409999
 31
0.0
  0
LINE
  5
FD9C
330
6B
100
AcDbEntity
  8
0
100
AcDbLine
 10
286.369971608
 20
505.5964314980006
 30
0.0
 11
298.515741922
 21
505.5964314980006
 31
0.0
  0
LINE
  5
FD9D
330
6B
100
AcDbEntity
  8
0
100
AcDbLine
 10
327.8685777149994
 20
489.4016250520003
 30
0.0
 11
314.7105483679993
 21
489.4016250520003
 31
0.0
  0
LINE
  5
FD9E
330
6B
100
AcDbEntity
  8
0
100
AcDbLine
 10
327.8685777149994
 20
489.4016250520003
 30
0.0
 11
330.9053548139996
 21
489.4016250520003
 31
0.0
  0
LINE
  5
FD9F
330
6B
100
AcDbEntity
  8
0
100
AcDbLine
 10
330.9053548139996
 20
489.4016250520003
 30
0.0
 11
330.9053548139996
 21
460.0487892590004
 31
0.0
  0
LINE
  5
FDA0
330
6B
100
AcDbEntity
  8
0
100
AcDbLine
 10
327.8685777149994
 20
489.4016250520003
 30
0.0
 11
327.8685777149994
 21
493.4506611840002
 31
0.0
  0
LINE
  5
FDA1
330
6B
100
AcDbEntity
  8
0
100
AcDbLine
 10
286.369971608
 20
489.4016250520003
 30
0.0
 11
283.3331945089994
 21
489.4016250520003
 31
0.0
  0
LINE
  5
FDA2
330
6B
100
AcDbEntity
  8
0
100
AcDbLine
 10
283.3331945089994
 20
489.4016250520003
 30
0.0
 11
283.3331945089994
 21
460.0487892590004
 31
0.0
  0
LINE
  5
FDA3
330
6B
100
AcDbEntity
  8
0
100
AcDbLine
 10
286.369971608
 20
489.4016250520003
 30
0.0
 11
298.515741922
 21
489.4016250520003
 31
0.0
  0
LINE
  5
FDA4
330
6B
100
AcDbEntity
  8
0
100
AcDbLine
 10
286.369971608
 20
489.4016250520003
 30
0.0
 11
286.369971608
 21
493.4506611840002
 31
0.0
  0
LINE
  5
FF22
330
6B
100
AcDbEntity
  8
0
100
AcDbLine
 10
277.2603093519997
 20
180.69138875
 30
0.0
 11
276.248050319
 21
179.6791297170003
 31
0.0
  0
LINE
  5
FF2C
330
6B
100
AcDbEntity
  8
0
100
AcDbLine
 10
512.0829956959997
 20
178.6668706840005
 30
0.0
 11
512.0829956959997
 21
179.6791297170003
 31
0.0
  0
LINE
  5
FF2D
330
6B
100
AcDbEntity
  8
0
100
AcDbLine
 10
512.0829956959997
 20
179.6791297170003
 30
0.0
 11
513.0945856880003
 21
180.69138875
 31
0.0
  0
LINE
  5
FF2E
330
6B
100
AcDbEntity
  8
0
100
AcDbLine
 10
513.0945856880003
 20
180.69138875
 30
0.0
 11
542.4474214809998
 21
180.69138875
 31
0.0
  0
LINE
  5
FF2F
330
6B
100
AcDbEntity
  8
0
100
AcDbLine
 10
542.4474214809998
 20
180.69138875
 30
0.0
 11
543.459680514
 21
179.6791297170003
 31
0.0
  0
LINE
  5
FF30
330
6B
100
AcDbEntity
  8
0
100
AcDbLine
 10
543.459680514
 20
179.6791297170003
 30
0.0
 11
543.459680514
 21
178.6668706840005
 31
0.0
  0
LINE
  5
FF47
330
6B
100
AcDbEntity
  8
0
100
AcDbLine
 10
253.9803587159995
 20
178.6668706840005
 30
0.0
 11
253.9803587159995
 21
179.6791297170003
 31
0.0
  0
LINE
  5
FF48
330
6B
100
AcDbEntity
  8
0
100
AcDbLine
 10
253.9803587159995
 20
179.6791297170003
 30
0.0
 11
254.9926177490001
 21
180.69138875
 31
0.0
  0
LINE
  5
FF49
330
6B
100
AcDbEntity
  8
0
100
AcDbLine
 10
254.9926177490001
 20
180.69138875
 30
0.0
 11
274.2242012939996
 21
180.69138875
 31
0.0
  0
LINE
  5
FF4A
330
6B
100
AcDbEntity
  8
0
100
AcDbLine
 10
157.8251171549996
 20
178.6668706840005
 30
0.0
 11
221.5914148649995
 21
178.6668706840005
 31
0.0
  0
LINE
  5
FF4B
330
6B
100
AcDbEntity
  8
0
100
AcDbLine
 10
104.1800716929997
 20
178.6668706840005
 30
0.0
 11
157.8251171549996
 21
178.6668706840005
 31
0.0
  0
LINE
  5
FF4F
330
6B
100
AcDbEntity
  8
0
100
AcDbLine
 10
539.4113134229997
 20
177.6546116509999
 30
0.0
 11
540.4235724559999
 21
176.6430216590002
 31
0.0
  0
LINE
  5
FF50
330
6B
100
AcDbEntity
  8
0
100
AcDbLine
 10
540.4235724559999
 20
176.6430216590002
 30
0.0
 11
544.4719395470001
 21
176.6430216590002
 31
0.0
  0
LINE
  5
FF51
330
6B
100
AcDbEntity
  8
0
100
AcDbLine
 10
544.4719395470001
 20
176.6430216590002
 30
0.0
 11
545.4841985799994
 21
175.630762626
 31
0.0
  0
LINE
  5
FF52
330
6B
100
AcDbEntity
  8
0
100
AcDbLine
 10
545.4841985799994
 20
175.630762626
 30
0.0
 11
547.5087166459998
 21
175.630762626
 31
0.0
  0
LINE
  5
FF54
330
6B
100
AcDbEntity
  8
0
100
AcDbLine
 10
343.051125128
 20
177.6546116509999
 30
0.0
 11
345.0756431939999
 21
177.6546116509999
 31
0.0
  0
LINE
  5
FF55
330
6B
100
AcDbEntity
  8
0
100
AcDbLine
 10
345.0756431939999
 20
177.6546116509999
 30
0.0
 11
345.0756431939999
 21
178.6668706840005
 31
0.0
  0
LINE
  5
FF59
330
6B
100
AcDbEntity
  8
0
100
AcDbLine
 10
271.1874241949995
 20
178.6668706840005
 30
0.0
 11
221.5914148649995
 21
178.6668706840005
 31
0.0
  0
LINE
  5
FF5A
330
6B
100
AcDbEntity
  8
0
100
AcDbLine
 10
595.0802079099999
 20
176.6430216590002
 30
0.0
 11
595.0802079099999
 21
178.6668706840005
 31
0.0
  0
LINE
  5
FF5B
330
6B
100
AcDbEntity
  8
0
100
AcDbLine
 10
95.07107847799944
 20
176.6430216590002
 30
0.0
 11
95.07107847799944
 21
178.6668706840005
 31
0.0
  0
LINE
  5
FF5C
330
6B
100
AcDbEntity
  8
0
100
AcDbLine
 10
270.1751651620002
 20
169.5578774690002
 30
0.0
 11
270.1751651620002
 21
168.5456184360005
 31
0.0
  0
LINE
  5
FF5F
330
6B
100
AcDbEntity
  8
0
100
AcDbLine
 10
626.4575617689998
 20
168.5456184360005
 30
0.0
 11
629.4936698270003
 21
164.4965823040002
 31
0.0
  0
LINE
  5
FF60
330
6B
100
AcDbEntity
  8
0
100
AcDbLine
 10
629.4936698270003
 20
164.4965823040002
 30
0.0
 11
635.566554984
 21
165.5088413370004
 31
0.0
  0
LINE
  5
FF61
330
6B
100
AcDbEntity
  8
0
100
AcDbLine
 10
635.566554984
 20
165.5088413370004
 30
0.0
 11
636.5788140169993
 21
168.5456184360005
 31
0.0
  0
LINE
  5
FF62
330
6B
100
AcDbEntity
  8
0
100
AcDbLine
 10
604.1898701659998
 20
168.5456184360005
 30
0.0
 11
604.1898701659998
 21
164.4965823040002
 31
0.0
  0
LINE
  5
FF63
330
6B
100
AcDbEntity
  8
0
100
AcDbLine
 10
604.1898701659998
 20
164.4965823040002
 30
0.0
 11
605.2021291989995
 21
164.4965823040002
 31
0.0
  0
LINE
  5
FF64
330
6B
100
AcDbEntity
  8
0
100
AcDbLine
 10
605.2021291989995
 20
164.4965823040002
 30
0.0
 11
606.2143882319997
 21
163.4843232710004
 31
0.0
  0
LINE
  5
FF65
330
6B
100
AcDbEntity
  8
0
100
AcDbLine
 10
606.2143882319997
 20
163.4843232710004
 30
0.0
 11
609.2504962899998
 21
166.5211003700006
 31
0.0
  0
LINE
  5
FF66
330
6B
100
AcDbEntity
  8
0
100
AcDbLine
 10
609.2504962899998
 20
166.5211003700006
 30
0.0
 11
608.2382372569996
 21
168.5456184360005
 31
0.0
  0
LINE
  5
FF67
330
6B
100
AcDbEntity
  8
0
100
AcDbLine
 10
567.7518901829994
 20
168.5456184360005
 30
0.0
 11
568.7641492159996
 21
164.4965823040002
 31
0.0
  0
LINE
  5
FF68
330
6B
100
AcDbEntity
  8
0
100
AcDbLine
 10
568.7641492159996
 20
164.4965823040002
 30
0.0
 11
569.7764082489998
 21
164.4965823040002
 31
0.0
  0
LINE
  5
FF69
330
6B
100
AcDbEntity
  8
0
100
AcDbLine
 10
569.7764082489998
 20
164.4965823040002
 30
0.0
 11
570.7879982409995
 21
163.4843232710004
 31
0.0
  0
LINE
  5
FF6A
330
6B
100
AcDbEntity
  8
0
100
AcDbLine
 10
570.7879982409995
 20
163.4843232710004
 30
0.0
 11
572.8125163069999
 21
166.5211003700006
 31
0.0
  0
LINE
  5
FF6B
330
6B
100
AcDbEntity
  8
0
100
AcDbLine
 10
572.8125163069999
 20
166.5211003700006
 30
0.0
 11
571.8002572739997
 21
168.5456184360005
 31
0.0
  0
LINE
  5
FF6C
330
6B
100
AcDbEntity
  8
0
100
AcDbLine
 10
413.9025670279998
 20
168.5456184360005
 30
0.0
 11
579.8976604970003
 21
169.5578774690002
 31
0.0
  0
LINE
  5
FF6D
330
6B
100
AcDbEntity
  8
0
100
AcDbLine
 10
579.8976604970003
 20
169.5578774690002
 30
0.0
 11
581.9221785630002
 21
171.5817264940006
 31
0.0
  0
LINE
  5
FF6E
330
6B
100
AcDbEntity
  8
0
100
AcDbLine
 10
581.9221785630002
 20
171.5817264940006
 30
0.0
 11
582.9344375959995
 21
176.6430216590002
 31
0.0
  0
LINE
  5
FF6F
330
6B
100
AcDbEntity
  8
0
100
AcDbLine
 10
582.9344375959995
 20
176.6430216590002
 30
0.0
 11
595.0802079099999
 21
176.6430216590002
 31
0.0
  0
LINE
  5
FF70
330
6B
100
AcDbEntity
  8
0
100
AcDbLine
 10
595.0802079099999
 20
176.6430216590002
 30
0.0
 11
596.0924669429996
 21
170.5694674610004
 31
0.0
  0
LINE
  5
FF71
330
6B
100
AcDbEntity
  8
0
100
AcDbLine
 10
596.0924669429996
 20
170.5694674610004
 30
0.0
 11
598.116985009
 21
168.5456184360005
 31
0.0
  0
LINE
  5
FF72
330
6B
100
AcDbEntity
  8
0
100
AcDbLine
 10
598.116985009
 20
168.5456184360005
 30
0.0
 11
644.6762172399995
 21
169.5578774690002
 31
0.0
  0
LINE
  5
FF73
330
6B
100
AcDbEntity
  8
0
100
AcDbLine
 10
644.6762172399995
 20
169.5578774690002
 30
0.0
 11
647.712994339
 21
170.5694674610004
 31
0.0
  0
LINE
  5
FF74
330
6B
100
AcDbEntity
  8
0
100
AcDbLine
 10
371.3917018880002
 20
168.5456184360005
 30
0.0
 11
373.4162199539996
 21
164.4965823040002
 31
0.0
  0
LINE
  5
FF75
330
6B
100
AcDbEntity
  8
0
100
AcDbLine
 10
373.4162199539996
 20
164.4965823040002
 30
0.0
 11
380.501364144
 21
165.5088413370004
 31
0.0
  0
LINE
  5
FF76
330
6B
100
AcDbEntity
  8
0
100
AcDbLine
 10
380.501364144
 20
165.5088413370004
 30
0.0
 11
381.5136231769998
 21
168.5456184360005
 31
0.0
  0
LINE
  5
FF77
330
6B
100
AcDbEntity
  8
0
100
AcDbLine
 10
293.4551157979995
 20
168.5456184360005
 30
0.0
 11
295.4796338639999
 21
164.4965823040002
 31
0.0
  0
LINE
  5
FF78
330
6B
100
AcDbEntity
  8
0
100
AcDbLine
 10
295.4796338639999
 20
164.4965823040002
 30
0.0
 11
302.5647780539994
 21
165.5088413370004
 31
0.0
  0
LINE
  5
FF79
330
6B
100
AcDbEntity
  8
0
100
AcDbLine
 10
302.5647780539994
 20
165.5088413370004
 30
0.0
 11
303.577037087
 21
168.5456184360005
 31
0.0
  0
LINE
  5
FF7C
330
6B
100
AcDbEntity
  8
0
100
AcDbLine
 10
102.1562226679998
 20
168.5456184360005
 30
0.0
 11
103.16781266
 21
164.4965823040002
 31
0.0
  0
LINE
  5
FF7D
330
6B
100
AcDbEntity
  8
0
100
AcDbLine
 10
103.16781266
 20
164.4965823040002
 30
0.0
 11
104.1800716929997
 21
164.4965823040002
 31
0.0
  0
LINE
  5
FF7E
330
6B
100
AcDbEntity
  8
0
100
AcDbLine
 10
104.1800716929997
 20
164.4965823040002
 30
0.0
 11
105.1923307259999
 21
163.4843232710004
 31
0.0
  0
LINE
  5
FF7F
330
6B
100
AcDbEntity
  8
0
100
AcDbLine
 10
105.1923307259999
 20
163.4843232710004
 30
0.0
 11
107.2168487919994
 21
168.5456184360005
 31
0.0
  0
LINE
  5
FF80
330
6B
100
AcDbEntity
  8
0
100
AcDbLine
 10
66.73050171799969
 20
168.5456184360005
 30
0.0
 11
66.73050171799969
 21
164.4965823040002
 31
0.0
  0
LINE
  5
FF81
330
6B
100
AcDbEntity
  8
0
100
AcDbLine
 10
66.73050171799969
 20
164.4965823040002
 30
0.0
 11
67.74209170999984
 21
164.4965823040002
 31
0.0
  0
LINE
  5
FF82
330
6B
100
AcDbEntity
  8
0
100
AcDbLine
 10
67.74209170999984
 20
164.4965823040002
 30
0.0
 11
68.75435074300003
 21
163.4843232710004
 31
0.0
  0
LINE
  5
FF83
330
6B
100
AcDbEntity
  8
0
100
AcDbLine
 10
68.75435074300003
 20
163.4843232710004
 30
0.0
 11
71.79112784199924
 21
166.5211003700006
 31
0.0
  0
LINE
  5
FF84
330
6B
100
AcDbEntity
  8
0
100
AcDbLine
 10
71.79112784199924
 20
166.5211003700006
 30
0.0
 11
70.77886880899996
 21
168.5456184360005
 31
0.0
  0
LINE
  5
FF85
330
6B
100
AcDbEntity
  8
0
100
AcDbLine
 10
38.38925591699945
 20
168.5456184360005
 30
0.0
 11
31.30411172699951
 21
168.5456184360005
 31
0.0
  0
LINE
  5
FF86
330
6B
100
AcDbEntity
  8
0
100
AcDbLine
 10
31.30411172699951
 20
168.5456184360005
 30
0.0
 11
30.29252173499981
 21
169.5578774690002
 31
0.0
  0
LINE
  5
FF87
330
6B
100
AcDbEntity
  8
0
100
AcDbLine
 10
30.29252173499981
 20
169.5578774690002
 30
0.0
 11
29.28026270200007
 21
170.5694674610004
 31
0.0
  0
LINE
  5
FF88
330
6B
100
AcDbEntity
  8
0
100
AcDbLine
 10
29.28026270200007
 20
170.5694674610004
 30
0.0
 11
27.25574463600014
 21
170.5694674610004
 31
0.0
  0
LINE
  5
FF89
330
6B
100
AcDbEntity
  8
0
100
AcDbLine
 10
38.38925591699945
 20
168.5456184360005
 30
0.0
 11
40.41377398299937
 21
164.4965823040002
 31
0.0
  0
LINE
  5
FF8A
330
6B
100
AcDbEntity
  8
0
100
AcDbLine
 10
40.41377398299937
 20
164.4965823040002
 30
0.0
 11
46.48665913999912
 21
165.5088413370004
 31
0.0
  0
LINE
  5
FF8B
330
6B
100
AcDbEntity
  8
0
100
AcDbLine
 10
46.48665913999912
 20
165.5088413370004
 30
0.0
 11
48.5111772059995
 21
168.5456184360005
 31
0.0
  0
LINE
  5
FF8C
330
6B
100
AcDbEntity
  8
0
100
AcDbLine
 10
38.38925591699945
 20
168.5456184360005
 30
0.0
 11
79.88853106499937
 21
169.5578774690002
 31
0.0
  0
LINE
  5
FF8E
330
6B
100
AcDbEntity
  8
0
100
AcDbLine
 10
408.8419409039998
 20
167.5333594030003
 30
0.0
 11
407.8296818709996
 21
168.5456184360005
 31
0.0
  0
LINE
  5
FF8F
330
6B
100
AcDbEntity
  8
0
100
AcDbLine
 10
408.8419409039998
 20
167.5333594030003
 30
0.0
 11
407.8296818709996
 21
167.5333594030003
 31
0.0
  0
LINE
  5
FF90
330
6B
100
AcDbEntity
  8
0
100
AcDbLine
 10
407.8296818709996
 20
167.5333594030003
 30
0.0
 11
406.8174228379999
 21
168.5456184360005
 31
0.0
  0
LINE
  5
FF91
330
6B
100
AcDbEntity
  8
0
100
AcDbLine
 10
406.8174228379999
 20
168.5456184360005
 30
0.0
 11
337.9904990039995
 21
168.5456184360005
 31
0.0
  0
LINE
  5
FF92
330
6B
100
AcDbEntity
  8
0
100
AcDbLine
 10
408.8419409039998
 20
167.5333594030003
 30
0.0
 11
409.8541999369995
 21
167.5333594030003
 31
0.0
  0
LINE
  5
FF93
330
6B
100
AcDbEntity
  8
0
100
AcDbLine
 10
334.9537219049998
 20
166.5211003700006
 30
0.0
 11
333.9414628719996
 21
167.5333594030003
 31
0.0
  0
LINE
  5
FF96
330
6B
100
AcDbEntity
  8
0
100
AcDbLine
 10
343.051125128
 20
178.6668706840005
 30
0.0
 11
275.2364603269998
 21
179.6791297170003
 31
0.0
  0
LINE
  5
FF97
330
6B
100
AcDbEntity
  8
0
100
AcDbLine
 10
275.2364603269998
 20
179.6791297170003
 30
0.0
 11
286.369971608
 21
179.6791297170003
 31
0.0
  0
LINE
  5
FF98
330
6B
100
AcDbEntity
  8
0
100
AcDbLine
 10
286.369971608
 20
179.6791297170003
 30
0.0
 11
286.369971608
 21
178.6668706840005
 31
0.0
  0
LINE
  5
FF99
330
6B
100
AcDbEntity
  8
0
100
AcDbLine
 10
408.8419409039998
 20
165.5088413370004
 30
0.0
 11
408.8419409039998
 21
167.5333594030003
 31
0.0
  0
LINE
  5
FF9A
330
6B
100
AcDbEntity
  8
0
100
AcDbLine
 10
408.8419409039998
 20
167.5333594030003
 30
0.0
 11
409.8541999369995
 21
168.5456184360005
 31
0.0
  0
LINE
  5
FF9B
330
6B
100
AcDbEntity
  8
0
100
AcDbLine
 10
409.8541999369995
 20
168.5456184360005
 30
0.0
 11
410.8664589699997
 21
168.5456184360005
 31
0.0
  0
LINE
  5
FF9C
330
6B
100
AcDbEntity
  8
0
100
AcDbLine
 10
410.8664589699997
 20
168.5456184360005
 30
0.0
 11
411.8787180029999
 21
169.5578774690002
 31
0.0
  0
LINE
  5
FF9D
330
6B
100
AcDbEntity
  8
0
100
AcDbLine
 10
411.8787180029999
 20
169.5578774690002
 30
0.0
 11
412.8903079949996
 21
168.5456184360005
 31
0.0
  0
LINE
  5
FF9E
330
6B
100
AcDbEntity
  8
0
100
AcDbLine
 10
412.8903079949996
 20
168.5456184360005
 30
0.0
 11
413.9025670279998
 21
168.5456184360005
 31
0.0
  0
LINE
  5
FFAF
330
6B
100
AcDbEntity
  8
0
100
AcDbLine
 10
647.712994339
 20
161.4604742460006
 30
0.0
 11
647.712994339
 21
173.6062445600005
 31
0.0
  0
LINE
  5
FFB8
330
6B
100
AcDbEntity
  8
0
100
AcDbLine
 10
587.99506372
 20
158.4236971470004
 30
0.0
 11
576.8615524390002
 21
165.5088413370004
 31
0.0
  0
LINE
  5
FFB9
330
6B
100
AcDbEntity
  8
0
100
AcDbLine
 10
647.712994339
 20
156.3991790810001
 30
0.0
 11
648.7252533720002
 21
156.3991790810001
 31
0.0
  0
LINE
  5
FFBA
330
6B
100
AcDbEntity
  8
0
100
AcDbLine
 10
398.7200196149997
 20
154.3753300560002
 30
0.0
 11
398.7200196149997
 21
153.3630710230004
 31
0.0
  0
LINE
  5
FFBD
330
6B
100
AcDbEntity
  8
0
100
AcDbLine
 10
407.8296818709996
 20
165.5088413370004
 30
0.0
 11
408.8419409039998
 21
165.5088413370004
 31
0.0
  0
LINE
  5
FFC6
330
6B
100
AcDbEntity
  8
0
100
AcDbLine
 10
90.00978331299984
 20
153.3630710230004
 30
0.0
 11
31.30411172699951
 21
153.3630710230004
 31
0.0
  0
LINE
  5
FFC7
330
6B
100
AcDbEntity
  8
0
100
AcDbLine
 10
31.30411172699951
 20
153.3630710230004
 30
0.0
 11
30.29252173499981
 21
154.3753300560002
 31
0.0
  0
LINE
  5
FFC8
330
6B
100
AcDbEntity
  8
0
100
AcDbLine
 10
30.29252173499981
 20
154.3753300560002
 30
0.0
 11
29.28026270200007
 21
155.3875890890004
 31
0.0
  0
LINE
  5
FFC9
330
6B
100
AcDbEntity
  8
0
100
AcDbLine
 10
29.28026270200007
 20
155.3875890890004
 30
0.0
 11
28.26800366899943
 21
156.3991790810001
 31
0.0
  0
LINE
  5
FFCA
330
6B
100
AcDbEntity
  8
0
100
AcDbLine
 10
28.26800366899943
 20
156.3991790810001
 30
0.0
 11
27.25574463600014
 21
156.3991790810001
 31
0.0
  0
LINE
  5
FFD2
330
6B
100
AcDbEntity
  8
0
100
AcDbLine
 10
330.9053548139996
 20
153.3630710230004
 30
0.0
 11
329.8930957809998
 21
153.3630710230004
 31
0.0
  0
LINE
  5
FFD3
330
6B
100
AcDbEntity
  8
0
100
AcDbLine
 10
329.8930957809998
 20
153.3630710230004
 30
0.0
 11
328.8808367479996
 21
154.3753300560002
 31
0.0
  0
LINE
  5
FFD4
330
6B
100
AcDbEntity
  8
0
100
AcDbLine
 10
330.9053548139996
 20
153.3630710230004
 30
0.0
 11
395.6839115569996
 21
153.3630710230004
 31
0.0
  0
LINE
  5
FFE4
330
6B
100
AcDbEntity
  8
0
100
AcDbLine
 10
658.8465056199998
 20
152.3508119899998
 30
0.0
 11
659.8587646529995
 21
153.3630710230004
 31
0.0
  0
LINE
  5
FFE5
330
6B
100
AcDbEntity
  8
0
100
AcDbLine
 10
659.8587646529995
 20
153.3630710230004
 30
0.0
 11
660.8710236860002
 21
154.3753300560002
 31
0.0
  0
LINE
  5
FFE6
330
6B
100
AcDbEntity
  8
0
100
AcDbLine
 10
660.8710236860002
 20
154.3753300560002
 30
0.0
 11
659.8587646529995
 21
155.3875890890004
 31
0.0
  0
LINE
  5
FFE7
330
6B
100
AcDbEntity
  8
0
100
AcDbLine
 10
659.8587646529995
 20
155.3875890890004
 30
0.0
 11
658.8465056199998
 21
156.3991790810001
 31
0.0
  0
LINE
  5
FFE8
330
6B
100
AcDbEntity
  8
0
100
AcDbLine
 10
258.0293948480003
 20
152.3508119899998
 30
0.0
 11
257.0171358149996
 21
152.3508119899998
 31
0.0
  0
LINE
  5
FFE9
330
6B
100
AcDbEntity
  8
0
100
AcDbLine
 10
258.0293948480003
 20
152.3508119899998
 30
0.0
 11
259.0416538809995
 21
152.3508119899998
 31
0.0
  0
LINE
  5
FFEA
330
6B
100
AcDbEntity
  8
0
100
AcDbLine
 10
259.0416538809995
 20
152.3508119899998
 30
0.0
 11
259.0416538809995
 21
153.3630710230004
 31
0.0
  0
LINE
  5
FFEB
330
6B
100
AcDbEntity
  8
0
100
AcDbLine
 10
259.0416538809995
 20
153.3630710230004
 30
0.0
 11
260.0539129140002
 21
154.3753300560002
 31
0.0
  0
LINE
  5
FFEC
330
6B
100
AcDbEntity
  8
0
100
AcDbLine
 10
260.0539129140002
 20
154.3753300560002
 30
0.0
 11
261.0661719469999
 21
154.3753300560002
 31
0.0
  0
LINE
  5
FFED
330
6B
100
AcDbEntity
  8
0
100
AcDbLine
 10
261.0661719469999
 20
154.3753300560002
 30
0.0
 11
262.0777619389996
 21
153.3630710230004
 31
0.0
  0
LINE
  5
FFEE
330
6B
100
AcDbEntity
  8
0
100
AcDbLine
 10
262.0777619389996
 20
153.3630710230004
 30
0.0
 11
283.3331945089994
 21
153.3630710230004
 31
0.0
  0
LINE
  5
FFEF
330
6B
100
AcDbEntity
  8
0
100
AcDbLine
 10
94.05881944499924
 20
152.3508119899998
 30
0.0
 11
93.04656041199996
 21
153.3630710230004
 31
0.0
  0
LINE
  5
FFF2
330
6B
100
AcDbEntity
  8
0
100
AcDbLine
 10
80.90079009800002
 20
167.5333594030003
 30
0.0
 11
82.9246391229999
 21
176.6430216590002
 31
0.0
  0
LINE
  5
FFF3
330
6B
100
AcDbEntity
  8
0
100
AcDbLine
 10
82.9246391229999
 20
176.6430216590002
 30
0.0
 11
95.07107847799944
 21
176.6430216590002
 31
0.0
  0
LINE
  5
FFF4
330
6B
100
AcDbEntity
  8
0
100
AcDbLine
 10
95.07107847799944
 20
176.6430216590002
 30
0.0
 11
96.08266846999959
 21
170.5694674610004
 31
0.0
  0
LINE
  5
FFF5
330
6B
100
AcDbEntity
  8
0
100
AcDbLine
 10
96.08266846999959
 20
170.5694674610004
 30
0.0
 11
98.10718653599952
 21
168.5456184360005
 31
0.0
  0
LINE
  5
FFF6
330
6B
100
AcDbEntity
  8
0
100
AcDbLine
 10
98.10718653599952
 20
168.5456184360005
 30
0.0
 11
265.1145390379997
 21
168.5456184360005
 31
0.0
  0
LINE
  5
FFF7
330
6B
100
AcDbEntity
  8
0
100
AcDbLine
 10
265.1145390379997
 20
168.5456184360005
 30
0.0
 11
268.1513161370003
 21
167.5333594030003
 31
0.0
  0
LINE
  5
FFF8
330
6B
100
AcDbEntity
  8
0
100
AcDbLine
 10
268.1513161370003
 20
167.5333594030003
 30
0.0
 11
270.1751651620002
 21
169.5578774690002
 31
0.0
  0
LINE
  5
FFF9
330
6B
100
AcDbEntity
  8
0
100
AcDbLine
 10
270.1751651620002
 20
169.5578774690002
 30
0.0
 11
334.9537219049998
 21
167.5333594030003
 31
0.0
  0
LINE
  5
FFFC
330
6B
100
AcDbEntity
  8
0
100
AcDbLine
 10
659.8587646529995
 20
151.338552957
 30
0.0
 11
658.8465056199998
 21
152.3508119899998
 31
0.0
  0
LINE
  5
FFFD
330
6B
100
AcDbEntity
  8
0
100
AcDbLine
 10
658.8465056199998
 20
152.3508119899998
 30
0.0
 11
654.798138529
 21
152.3508119899998
 31
0.0
  0
LINE
  5
FFFE
330
6B
100
AcDbEntity
  8
0
100
AcDbLine
 10
654.798138529
 20
150.3262939240003
 30
0.0
 11
661.8832827189995
 21
152.3508119899998
 31
0.0
  0
LINE
  5
FFFF
330
6B
100
AcDbEntity
  8
0
100
AcDbLine
 10
661.8832827189995
 20
152.3508119899998
 30
0.0
 11
660.8710236860002
 21
156.3991790810001
 31
0.0
  0
LINE
  5
10000
330
6B
100
AcDbEntity
  8
0
100
AcDbLine
 10
660.8710236860002
 20
156.3991790810001
 30
0.0
 11
654.798138529
 21
156.3991790810001
 31
0.0
  0
LINE
  5
10003
330
6B
100
AcDbEntity
  8
0
100
AcDbLine
 10
324.8324696569994
 20
149.3140348910001
 30
0.0
 11
325.8447286899996
 21
148.3024448990004
 31
0.0
  0
LINE
  5
10004
330
6B
100
AcDbEntity
  8
0
100
AcDbLine
 10
324.8324696569994
 20
149.3140348910001
 30
0.0
 11
324.8324696569994
 21
151.338552957
 31
0.0
  0
LINE
  5
10005
330
6B
100
AcDbEntity
  8
0
100
AcDbLine
 10
324.8324696569994
 20
151.338552957
 30
0.0
 11
325.8447286899996
 21
152.3508119899998
 31
0.0
  0
LINE
  5
10006
330
6B
100
AcDbEntity
  8
0
100
AcDbLine
 10
325.8447286899996
 20
152.3508119899998
 30
0.0
 11
325.8447286899996
 21
153.3630710230004
 31
0.0
  0
LINE
  5
10007
330
6B
100
AcDbEntity
  8
0
100
AcDbLine
 10
322.8079515909994
 20
146.2779268330005
 30
0.0
 11
322.8079515909994
 21
145.2656677999998
 31
0.0
  0
LINE
  5
10008
330
6B
100
AcDbEntity
  8
0
100
AcDbLine
 10
322.8079515909994
 20
146.2779268330005
 30
0.0
 11
322.8079515909994
 21
149.3140348910001
 31
0.0
  0
LINE
  5
10015
330
6B
100
AcDbEntity
  8
0
100
AcDbLine
 10
289.4067487069992
 20
144.2534087670001
 30
0.0
 11
289.4067487069992
 21
146.2779268330005
 31
0.0
  0
LINE
  5
10016
330
6B
100
AcDbEntity
  8
0
100
AcDbLine
 10
289.4067487069992
 20
146.2779268330005
 30
0.0
 11
290.4183386989998
 21
146.2779268330005
 31
0.0
  0
LINE
  5
10017
330
6B
100
AcDbEntity
  8
0
100
AcDbLine
 10
290.4183386989998
 20
146.2779268330005
 30
0.0
 11
291.4305977319996
 21
147.2901858660002
 31
0.0
  0
LINE
  5
10018
330
6B
100
AcDbEntity
  8
0
100
AcDbLine
 10
291.4305977319996
 20
147.2901858660002
 30
0.0
 11
293.4551157979995
 21
147.2901858660002
 31
0.0
  0
LINE
  5
10019
330
6B
100
AcDbEntity
  8
0
100
AcDbLine
 10
286.369971608
 20
143.2411497340004
 30
0.0
 11
289.4067487069992
 21
144.2534087670001
 31
0.0
  0
LINE
  5
1001A
330
6B
100
AcDbEntity
  8
0
100
AcDbLine
 10
289.4067487069992
 20
144.2534087670001
 30
0.0
 11
289.4067487069992
 21
142.2288907010002
 31
0.0
  0
LINE
  5
1001B
330
6B
100
AcDbEntity
  8
0
100
AcDbLine
 10
289.4067487069992
 20
142.2288907010002
 30
0.0
 11
291.4305977319996
 21
142.2288907010002
 31
0.0
  0
LINE
  5
1001C
330
6B
100
AcDbEntity
  8
0
100
AcDbLine
 10
291.4305977319996
 20
142.2288907010002
 30
0.0
 11
293.4551157979995
 21
141.2173007090005
 31
0.0
  0
LINE
  5
1001D
330
6B
100
AcDbEntity
  8
0
100
AcDbLine
 10
293.4551157979995
 20
141.2173007090005
 30
0.0
 11
295.4796338639999
 21
144.2534087670001
 31
0.0
  0
LINE
  5
1001E
330
6B
100
AcDbEntity
  8
0
100
AcDbLine
 10
295.4796338639999
 20
144.2534087670001
 30
0.0
 11
293.4551157979995
 21
148.3024448990004
 31
0.0
  0
LINE
  5
1001F
330
6B
100
AcDbEntity
  8
0
100
AcDbLine
 10
293.4551157979995
 20
148.3024448990004
 30
0.0
 11
294.4673748309997
 21
150.3262939240003
 31
0.0
  0
LINE
  5
10021
330
6B
100
AcDbEntity
  8
0
100
AcDbLine
 10
315.722807401
 20
139.1927826430001
 30
0.0
 11
316.7350664339997
 21
139.1927826430001
 31
0.0
  0
LINE
  5
10023
330
6B
100
AcDbEntity
  8
0
100
AcDbLine
 10
299.5280009549997
 20
138.1805236100004
 30
0.0
 11
304.5886270789997
 21
141.2173007090005
 31
0.0
  0
LINE
  5
10024
330
6B
100
AcDbEntity
  8
0
100
AcDbLine
 10
304.5886270789997
 20
141.2173007090005
 30
0.0
 11
308.6376632109996
 21
141.2173007090005
 31
0.0
  0
LINE
  5
10025
330
6B
100
AcDbEntity
  8
0
100
AcDbLine
 10
308.6376632109996
 20
141.2173007090005
 30
0.0
 11
315.722807401
 21
139.1927826430001
 31
0.0
  0
LINE
  5
10026
330
6B
100
AcDbEntity
  8
0
100
AcDbLine
 10
283.3331945089994
 20
137.1682645770002
 30
0.0
 11
284.3454535419996
 21
137.1682645770002
 31
0.0
  0
LINE
  5
10027
330
6B
100
AcDbEntity
  8
0
100
AcDbLine
 10
284.3454535419996
 20
137.1682645770002
 30
0.0
 11
285.3577125749998
 21
138.1805236100004
 31
0.0
  0
LINE
  5
10028
330
6B
100
AcDbEntity
  8
0
100
AcDbLine
 10
285.3577125749998
 20
138.1805236100004
 30
0.0
 11
286.369971608
 21
138.1805236100004
 31
0.0
  0
LINE
  5
10029
330
6B
100
AcDbEntity
  8
0
100
AcDbLine
 10
329.8930957809998
 20
136.1560055440004
 30
0.0
 11
328.8808367479996
 21
137.1682645770002
 31
0.0
  0
LINE
  5
1002A
330
6B
100
AcDbEntity
  8
0
100
AcDbLine
 10
328.8808367479996
 20
137.1682645770002
 30
0.0
 11
327.8685777149994
 21
137.1682645770002
 31
0.0
  0
LINE
  5
1002B
330
6B
100
AcDbEntity
  8
0
100
AcDbLine
 10
329.8930957809998
 20
136.1560055440004
 30
0.0
 11
330.9053548139996
 21
136.1560055440004
 31
0.0
  0
LINE
  5
1002C
330
6B
100
AcDbEntity
  8
0
100
AcDbLine
 10
649.7368433639999
 20
133.1198974860004
 30
0.0
 11
650.7491023969997
 21
133.1198974860004
 31
0.0
  0
LINE
  5
1002D
330
6B
100
AcDbEntity
  8
0
100
AcDbLine
 10
650.7491023969997
 20
133.1198974860004
 30
0.0
 11
650.7491023969997
 21
169.5578774690002
 31
0.0
  0
LINE
  5
1002E
330
6B
100
AcDbEntity
  8
0
100
AcDbLine
 10
16.12223335499948
 20
131.0953794200004
 30
0.0
 11
16.12223335499948
 21
133.1198974860004
 31
0.0
  0
LINE
  5
1002F
330
6B
100
AcDbEntity
  8
0
100
AcDbLine
 10
16.12223335499948
 20
133.1198974860004
 30
0.0
 11
15.10997432199974
 21
134.1321565190001
 31
0.0
  0
LINE
  5
10030
330
6B
100
AcDbEntity
  8
0
100
AcDbLine
 10
15.10997432199974
 20
134.1321565190001
 30
0.0
 11
14.09771528900001
 21
134.1321565190001
 31
0.0
  0
LINE
  5
10031
330
6B
100
AcDbEntity
  8
0
100
AcDbLine
 10
14.09771528900001
 20
134.1321565190001
 30
0.0
 11
13.08545625599982
 21
133.1198974860004
 31
0.0
  0
LINE
  5
10032
330
6B
100
AcDbEntity
  8
0
100
AcDbLine
 10
13.08545625599982
 20
133.1198974860004
 30
0.0
 11
13.08545625599982
 21
131.0953794200004
 31
0.0
  0
LINE
  5
10033
330
6B
100
AcDbEntity
  8
0
100
AcDbLine
 10
13.08545625599982
 20
131.0953794200004
 30
0.0
 11
22.19511851199968
 21
131.0953794200004
 31
0.0
  0
LINE
  5
1003C
330
6B
100
AcDbEntity
  8
0
100
AcDbLine
 10
618.3601585459996
 20
130.0831203870007
 30
0.0
 11
618.3601585459996
 21
128.0586023210003
 31
0.0
  0
LINE
  5
1003D
330
6B
100
AcDbEntity
  8
0
100
AcDbLine
 10
618.3601585459996
 20
128.0586023210003
 30
0.0
 11
619.3724175789998
 21
127.0463432880001
 31
0.0
  0
LINE
  5
1003E
330
6B
100
AcDbEntity
  8
0
100
AcDbLine
 10
614.3111224140002
 20
130.0831203870007
 30
0.0
 11
613.2995324220001
 21
135.1437465110007
 31
0.0
  0
LINE
  5
1003F
330
6B
100
AcDbEntity
  8
0
100
AcDbLine
 10
613.2995324220001
 20
135.1437465110007
 30
0.0
 11
594.0679488770002
 21
156.3991790810001
 31
0.0
  0
LINE
  5
10040
330
6B
100
AcDbEntity
  8
0
100
AcDbLine
 10
573.8247753399996
 20
130.0831203870007
 30
0.0
 11
576.8615524390002
 21
125.0224942630002
 31
0.0
  0
LINE
  5
10041
330
6B
100
AcDbEntity
  8
0
100
AcDbLine
 10
576.8615524390002
 20
125.0224942630002
 30
0.0
 11
577.8731424309999
 21
125.0224942630002
 31
0.0
  0
LINE
  5
10042
330
6B
100
AcDbEntity
  8
0
100
AcDbLine
 10
577.8731424309999
 20
125.0224942630002
 30
0.0
 11
590.0195817859999
 21
113.888313941
 31
0.0
  0
LINE
  5
10043
330
6B
100
AcDbEntity
  8
0
100
AcDbLine
 10
563.702854051
 20
130.0831203870007
 30
0.0
 11
562.6912640589999
 21
134.1321565190001
 31
0.0
  0
LINE
  5
10044
330
6B
100
AcDbEntity
  8
0
100
AcDbLine
 10
562.6912640589999
 20
134.1321565190001
 30
0.0
 11
556.6177098610001
 21
137.1682645770002
 31
0.0
  0
LINE
  5
10045
330
6B
100
AcDbEntity
  8
0
100
AcDbLine
 10
556.6177098610001
 20
137.1682645770002
 30
0.0
 11
550.5448247039999
 21
137.1682645770002
 31
0.0
  0
LINE
  5
10046
330
6B
100
AcDbEntity
  8
0
100
AcDbLine
 10
502.9733334399998
 20
130.0831203870007
 30
0.0
 11
503.985592473
 21
134.1321565190001
 31
0.0
  0
LINE
  5
10047
330
6B
100
AcDbEntity
  8
0
100
AcDbLine
 10
503.985592473
 20
134.1321565190001
 30
0.0
 11
525.2410250429998
 21
139.1927826430001
 31
0.0
  0
LINE
  5
10048
330
6B
100
AcDbEntity
  8
0
100
AcDbLine
 10
421.9999702510004
 20
130.0831203870007
 30
0.0
 11
421.9999702510004
 21
153.3630710230004
 31
0.0
  0
LINE
  5
10049
330
6B
100
AcDbEntity
  8
0
100
AcDbLine
 10
421.9999702510004
 20
153.3630710230004
 30
0.0
 11
423.0122292839997
 21
154.3753300560002
 31
0.0
  0
LINE
  5
1004A
330
6B
100
AcDbEntity
  8
0
100
AcDbLine
 10
423.0122292839997
 20
154.3753300560002
 30
0.0
 11
424.0244883169999
 21
155.3875890890004
 31
0.0
  0
LINE
  5
1004B
330
6B
100
AcDbEntity
  8
0
100
AcDbLine
 10
424.0244883169999
 20
155.3875890890004
 30
0.0
 11
425.03674735
 21
156.3991790810001
 31
0.0
  0
LINE
  5
1004C
330
6B
100
AcDbEntity
  8
0
100
AcDbLine
 10
425.03674735
 20
156.3991790810001
 30
0.0
 11
647.712994339
 21
156.3991790810001
 31
0.0
  0
LINE
  5
10058
330
6B
100
AcDbEntity
  8
0
100
AcDbLine
 10
318.7589154589996
 20
129.070861354
 30
0.0
 11
317.7473254669999
 21
136.1560055440004
 31
0.0
  0
LINE
  5
10059
330
6B
100
AcDbEntity
  8
0
100
AcDbLine
 10
317.7473254669999
 20
136.1560055440004
 30
0.0
 11
315.722807401
 21
139.1927826430001
 31
0.0
  0
LINE
  5
1005A
330
6B
100
AcDbEntity
  8
0
100
AcDbLine
 10
315.722807401
 20
139.1927826430001
 30
0.0
 11
322.8079515909994
 21
146.2779268330005
 31
0.0
  0
LINE
  5
1005B
330
6B
100
AcDbEntity
  8
0
100
AcDbLine
 10
322.8079515909994
 20
146.2779268330005
 30
0.0
 11
327.8685777149994
 21
142.2288907010002
 31
0.0
  0
LINE
  5
1005D
330
6B
100
AcDbEntity
  8
0
100
AcDbLine
 10
297.5034828889998
 20
129.070861354
 30
0.0
 11
297.5034828889998
 21
132.1076384530002
 31
0.0
  0
LINE
  5
1005E
330
6B
100
AcDbEntity
  8
0
100
AcDbLine
 10
297.5034828889998
 20
132.1076384530002
 30
0.0
 11
298.515741922
 21
133.1198974860004
 31
0.0
  0
LINE
  5
1005F
330
6B
100
AcDbEntity
  8
0
100
AcDbLine
 10
298.515741922
 20
133.1198974860004
 30
0.0
 11
298.515741922
 21
135.1437465110007
 31
0.0
  0
LINE
  5
10060
330
6B
100
AcDbEntity
  8
0
100
AcDbLine
 10
298.515741922
 20
135.1437465110007
 30
0.0
 11
299.5280009549997
 21
136.1560055440004
 31
0.0
  0
LINE
  5
10061
330
6B
100
AcDbEntity
  8
0
100
AcDbLine
 10
299.5280009549997
 20
136.1560055440004
 30
0.0
 11
300.5402599879999
 21
137.1682645770002
 31
0.0
  0
LINE
  5
10062
330
6B
100
AcDbEntity
  8
0
100
AcDbLine
 10
295.4796338639999
 20
129.070861354
 30
0.0
 11
297.5034828889998
 21
137.1682645770002
 31
0.0
  0
LINE
  5
10063
330
6B
100
AcDbEntity
  8
0
100
AcDbLine
 10
297.5034828889998
 20
137.1682645770002
 30
0.0
 11
302.5647780539994
 21
138.1805236100004
 31
0.0
  0
LINE
  5
10064
330
6B
100
AcDbEntity
  8
0
100
AcDbLine
 10
302.5647780539994
 20
138.1805236100004
 30
0.0
 11
311.6737712690001
 21
138.1805236100004
 31
0.0
  0
LINE
  5
10065
330
6B
100
AcDbEntity
  8
0
100
AcDbLine
 10
311.6737712690001
 20
138.1805236100004
 30
0.0
 11
315.722807401
 21
133.1198974860004
 31
0.0
  0
LINE
  5
10066
330
6B
100
AcDbEntity
  8
0
100
AcDbLine
 10
315.722807401
 20
133.1198974860004
 30
0.0
 11
315.722807401
 21
129.070861354
 31
0.0
  0
LINE
  5
10067
330
6B
100
AcDbEntity
  8
0
100
AcDbLine
 10
297.5034828889998
 20
121.9857171640001
 30
0.0
 11
296.4918928969996
 21
122.9979761970003
 31
0.0
  0
LINE
  5
10068
330
6B
100
AcDbEntity
  8
0
100
AcDbLine
 10
296.4918928969996
 20
122.9979761970003
 30
0.0
 11
296.4918928969996
 21
124.0102352300005
 31
0.0
  0
LINE
  5
10069
330
6B
100
AcDbEntity
  8
0
100
AcDbLine
 10
296.4918928969996
 20
124.0102352300005
 30
0.0
 11
295.4796338639999
 21
125.0224942630002
 31
0.0
  0
LINE
  5
1006A
330
6B
100
AcDbEntity
  8
0
100
AcDbLine
 10
295.4796338639999
 20
125.0224942630002
 30
0.0
 11
295.4796338639999
 21
129.070861354
 31
0.0
  0
LINE
  5
1006B
330
6B
100
AcDbEntity
  8
0
100
AcDbLine
 10
327.8685777149994
 20
120.9734581309999
 30
0.0
 11
329.8930957809998
 21
121.9857171640001
 31
0.0
  0
LINE
  5
1006C
330
6B
100
AcDbEntity
  8
0
100
AcDbLine
 10
329.8930957809998
 20
121.9857171640001
 30
0.0
 11
329.8930957809998
 21
154.3753300560002
 31
0.0
  0
LINE
  5
1006D
330
6B
100
AcDbEntity
  8
0
100
AcDbLine
 10
329.8930957809998
 20
154.3753300560002
 30
0.0
 11
283.3331945089994
 21
153.3630710230004
 31
0.0
  0
LINE
  5
1006E
330
6B
100
AcDbEntity
  8
0
100
AcDbLine
 10
306.6131451449996
 20
119.9611990980002
 30
0.0
 11
303.577037087
 21
119.9611990980002
 31
0.0
  0
LINE
  5
1006F
330
6B
100
AcDbEntity
  8
0
100
AcDbLine
 10
303.577037087
 20
119.9611990980002
 30
0.0
 11
302.5647780539994
 21
120.9734581309999
 31
0.0
  0
LINE
  5
10070
330
6B
100
AcDbEntity
  8
0
100
AcDbLine
 10
302.5647780539994
 20
120.9734581309999
 30
0.0
 11
301.5525190210001
 21
120.9734581309999
 31
0.0
  0
LINE
  5
10071
330
6B
100
AcDbEntity
  8
0
100
AcDbLine
 10
301.5525190210001
 20
120.9734581309999
 30
0.0
 11
300.5402599879999
 21
121.9857171640001
 31
0.0
  0
LINE
  5
10072
330
6B
100
AcDbEntity
  8
0
100
AcDbLine
 10
300.5402599879999
 20
121.9857171640001
 30
0.0
 11
299.5280009549997
 21
121.9857171640001
 31
0.0
  0
LINE
  5
10073
330
6B
100
AcDbEntity
  8
0
100
AcDbLine
 10
299.5280009549997
 20
121.9857171640001
 30
0.0
 11
298.515741922
 21
122.9979761970003
 31
0.0
  0
LINE
  5
10074
330
6B
100
AcDbEntity
  8
0
100
AcDbLine
 10
306.6131451449996
 20
119.9611990980002
 30
0.0
 11
311.6737712690001
 21
120.9734581309999
 31
0.0
  0
LINE
  5
10075
330
6B
100
AcDbEntity
  8
0
100
AcDbLine
 10
311.6737712690001
 20
120.9734581309999
 30
0.0
 11
315.722807401
 21
125.0224942630002
 31
0.0
  0
LINE
  5
10076
330
6B
100
AcDbEntity
  8
0
100
AcDbLine
 10
315.722807401
 20
125.0224942630002
 30
0.0
 11
315.722807401
 21
129.070861354
 31
0.0
  0
LINE
  5
10077
330
6B
100
AcDbEntity
  8
0
100
AcDbLine
 10
286.369971608
 20
119.9611990980002
 30
0.0
 11
285.3577125749998
 21
119.9611990980002
 31
0.0
  0
LINE
  5
10078
330
6B
100
AcDbEntity
  8
0
100
AcDbLine
 10
285.3577125749998
 20
119.9611990980002
 30
0.0
 11
284.3454535419996
 21
120.9734581309999
 31
0.0
  0
LINE
  5
10079
330
6B
100
AcDbEntity
  8
0
100
AcDbLine
 10
284.3454535419996
 20
120.9734581309999
 30
0.0
 11
284.3454535419996
 21
121.9857171640001
 31
0.0
  0
LINE
  5
1007A
330
6B
100
AcDbEntity
  8
0
100
AcDbLine
 10
284.3454535419996
 20
121.9857171640001
 30
0.0
 11
283.3331945089994
 21
122.9979761970003
 31
0.0
  0
LINE
  5
1007B
330
6B
100
AcDbEntity
  8
0
100
AcDbLine
 10
283.3331945089994
 20
122.9979761970003
 30
0.0
 11
283.3331945089994
 21
158.4236971470004
 31
0.0
  0
LINE
  5
10086
330
6B
100
AcDbEntity
  8
0
100
AcDbLine
 10
306.6131451449996
 20
116.9250910400001
 30
0.0
 11
297.5034828889998
 21
120.9734581309999
 31
0.0
  0
LINE
  5
10087
330
6B
100
AcDbEntity
  8
0
100
AcDbLine
 10
297.5034828889998
 20
120.9734581309999
 30
0.0
 11
297.5034828889998
 21
129.070861354
 31
0.0
  0
LINE
  5
10089
330
6B
100
AcDbEntity
  8
0
100
AcDbLine
 10
306.6131451449996
 20
116.9250910400001
 30
0.0
 11
315.722807401
 21
119.9611990980002
 31
0.0
  0
LINE
  5
1008A
330
6B
100
AcDbEntity
  8
0
100
AcDbLine
 10
315.722807401
 20
119.9611990980002
 30
0.0
 11
318.7589154589996
 21
124.0102352300005
 31
0.0
  0
LINE
  5
1008B
330
6B
100
AcDbEntity
  8
0
100
AcDbLine
 10
318.7589154589996
 20
124.0102352300005
 30
0.0
 11
318.7589154589996
 21
129.070861354
 31
0.0
  0
LINE
  5
1008D
330
6B
100
AcDbEntity
  8
0
100
AcDbLine
 10
324.8324696569994
 20
113.888313941
 30
0.0
 11
325.8447286899996
 21
114.9005729740006
 31
0.0
  0
LINE
  5
1008E
330
6B
100
AcDbEntity
  8
0
100
AcDbLine
 10
325.8447286899996
 20
114.9005729740006
 30
0.0
 11
326.8563186819997
 21
115.9128320070004
 31
0.0
  0
LINE
  5
1008F
330
6B
100
AcDbEntity
  8
0
100
AcDbLine
 10
326.8563186819997
 20
115.9128320070004
 30
0.0
 11
327.8685777149994
 21
115.9128320070004
 31
0.0
  0
LINE
  5
10090
330
6B
100
AcDbEntity
  8
0
100
AcDbLine
 10
321.7956925579997
 20
110.8522058830004
 30
0.0
 11
319.7711744919998
 21
115.9128320070004
 31
0.0
  0
LINE
  5
10091
330
6B
100
AcDbEntity
  8
0
100
AcDbLine
 10
319.7711744919998
 20
115.9128320070004
 30
0.0
 11
323.8202106240001
 21
115.9128320070004
 31
0.0
  0
LINE
  5
10092
330
6B
100
AcDbEntity
  8
0
100
AcDbLine
 10
323.8202106240001
 20
115.9128320070004
 30
0.0
 11
323.8202106240001
 21
111.8644649160001
 31
0.0
  0
LINE
  5
10093
330
6B
100
AcDbEntity
  8
0
100
AcDbLine
 10
323.8202106240001
 20
111.8644649160001
 30
0.0
 11
319.7711744919998
 21
109.8399468499997
 31
0.0
  0
LINE
  5
10094
330
6B
100
AcDbEntity
  8
0
100
AcDbLine
 10
295.4796338639999
 20
107.8154287840002
 30
0.0
 11
287.3822306409993
 21
109.8399468499997
 31
0.0
  0
LINE
  5
10095
330
6B
100
AcDbEntity
  8
0
100
AcDbLine
 10
287.3822306409993
 20
109.8399468499997
 30
0.0
 11
286.369971608
 21
114.9005729740006
 31
0.0
  0
LINE
  5
10096
330
6B
100
AcDbEntity
  8
0
100
AcDbLine
 10
295.4796338639999
 20
107.8154287840002
 30
0.0
 11
324.8324696569994
 21
108.827687817
 31
0.0
  0
LINE
  5
10097
330
6B
100
AcDbEntity
  8
0
100
AcDbLine
 10
324.8324696569994
 20
108.827687817
 30
0.0
 11
327.8685777149994
 21
111.8644649160001
 31
0.0
  0
LINE
  5
10098
330
6B
100
AcDbEntity
  8
0
100
AcDbLine
 10
327.8685777149994
 20
111.8644649160001
 30
0.0
 11
326.8563186819997
 21
129.070861354
 31
0.0
  0
LINE
  5
10099
330
6B
100
AcDbEntity
  8
0
100
AcDbLine
 10
295.4796338639999
 20
107.8154287840002
 30
0.0
 11
286.369971608
 21
114.9005729740006
 31
0.0
  0
LINE
  5
1009A
330
6B
100
AcDbEntity
  8
0
100
AcDbLine
 10
286.369971608
 20
114.9005729740006
 30
0.0
 11
287.3822306409993
 21
148.3024448990004
 31
0.0
  0
LINE
  5
1009B
330
6B
100
AcDbEntity
  8
0
100
AcDbLine
 10
287.3822306409993
 20
148.3024448990004
 30
0.0
 11
290.4183386989998
 21
150.3262939240003
 31
0.0
  0
LINE
  5
1009C
330
6B
100
AcDbEntity
  8
0
100
AcDbLine
 10
290.4183386989998
 20
150.3262939240003
 30
0.0
 11
322.8079515909994
 21
150.3262939240003
 31
0.0
  0
LINE
  5
1009D
330
6B
100
AcDbEntity
  8
0
100
AcDbLine
 10
322.8079515909994
 20
150.3262939240003
 30
0.0
 11
327.8685777149994
 21
146.2779268330005
 31
0.0
  0
LINE
  5
1009E
330
6B
100
AcDbEntity
  8
0
100
AcDbLine
 10
327.8685777149994
 20
146.2779268330005
 30
0.0
 11
326.8563186819997
 21
129.070861354
 31
0.0
  0
LINE
  5
100A0
330
6B
100
AcDbEntity
  8
0
100
AcDbLine
 10
225.6397819559998
 20
98.70576652800037
 30
0.0
 11
227.6643000219997
 21
98.70576652800037
 31
0.0
  0
LINE
  5
100A1
330
6B
100
AcDbEntity
  8
0
100
AcDbLine
 10
223.6159329309994
 20
98.70576652800037
 30
0.0
 11
225.6397819559998
 21
98.70576652800037
 31
0.0
  0
LINE
  5
100A2
330
6B
100
AcDbEntity
  8
0
100
AcDbLine
 10
216.5307887409999
 20
98.70576652800037
 30
0.0
 11
216.5307887409999
 21
99.71802556100056
 31
0.0
  0
LINE
  5
100A3
330
6B
100
AcDbEntity
  8
0
100
AcDbLine
 10
216.5307887409999
 20
99.71802556100056
 30
0.0
 11
217.5430477739997
 21
100.7302845940003
 31
0.0
  0
LINE
  5
100A4
330
6B
100
AcDbEntity
  8
0
100
AcDbLine
 10
217.5430477739997
 20
100.7302845940003
 30
0.0
 11
219.566896799
 21
100.7302845940003
 31
0.0
  0
LINE
  5
100A5
330
6B
100
AcDbEntity
  8
0
100
AcDbLine
 10
219.566896799
 20
100.7302845940003
 30
0.0
 11
219.566896799
 21
98.70576652800037
 31
0.0
  0
LINE
  5
100A7
330
6B
100
AcDbEntity
  8
0
100
AcDbLine
 10
220.5791558320002
 20
95.66965847000029
 30
0.0
 11
220.5791558320002
 21
98.70576652800037
 31
0.0
  0
LINE
  5
100AC
330
6B
100
AcDbEntity
  8
0
100
AcDbLine
 10
229.6888180880001
 20
91.62062233799998
 30
0.0
 11
227.6643000219997
 21
96.68191750300002
 31
0.0
  0
LINE
  5
100AD
330
6B
100
AcDbEntity
  8
0
100
AcDbLine
 10
227.6643000219997
 20
96.68191750300002
 30
0.0
 11
229.6888180880001
 21
96.68191750300002
 31
0.0
  0
LINE
  5
100AE
330
6B
100
AcDbEntity
  8
0
100
AcDbLine
 10
229.6888180880001
 20
96.68191750300002
 30
0.0
 11
232.7249261460001
 21
91.62062233799998
 31
0.0
  0
LINE
  5
100B2
330
6B
100
AcDbEntity
  8
0
100
AcDbLine
 10
212.4817526089996
 20
90.60903234600028
 30
0.0
 11
212.4817526089996
 21
93.64514040400036
 31
0.0
  0
LINE
  5
100B3
330
6B
100
AcDbEntity
  8
0
100
AcDbLine
 10
212.4817526089996
 20
93.64514040400036
 30
0.0
 11
213.4940116419998
 21
94.65739943700055
 31
0.0
  0
LINE
  5
100B4
330
6B
100
AcDbEntity
  8
0
100
AcDbLine
 10
213.4940116419998
 20
94.65739943700055
 30
0.0
 11
213.4940116419998
 21
95.66965847000029
 31
0.0
  0
LINE
  5
100B5
330
6B
100
AcDbEntity
  8
0
100
AcDbLine
 10
213.4940116419998
 20
95.66965847000029
 30
0.0
 11
214.5062706749995
 21
96.68191750300002
 31
0.0
  0
LINE
  5
100B6
330
6B
100
AcDbEntity
  8
0
100
AcDbLine
 10
214.5062706749995
 20
96.68191750300002
 30
0.0
 11
214.5062706749995
 21
97.69417653600067
 31
0.0
  0
LINE
  5
100B9
330
6B
100
AcDbEntity
  8
0
100
AcDbLine
 10
94.05881944499924
 20
152.3508119899998
 30
0.0
 11
258.0293948480003
 21
152.3508119899998
 31
0.0
  0
LINE
  5
100BB
330
6B
100
AcDbEntity
  8
0
100
AcDbLine
 10
227.6643000219997
 20
100.7302845940003
 30
0.0
 11
226.6520409890004
 21
97.69417653600067
 31
0.0
  0
LINE
  5
100BC
330
6B
100
AcDbEntity
  8
0
100
AcDbLine
 10
226.6520409890004
 20
97.69417653600067
 30
0.0
 11
223.6159329309994
 21
100.7302845940003
 31
0.0
  0
LINE
  5
100BD
330
6B
100
AcDbEntity
  8
0
100
AcDbLine
 10
223.6159329309994
 20
100.7302845940003
 30
0.0
 11
223.6159329309994
 21
98.70576652800037
 31
0.0
  0
LINE
  5
100BE
330
6B
100
AcDbEntity
  8
0
100
AcDbLine
 10
223.6159329309994
 20
98.70576652800037
 30
0.0
 11
213.4940116419998
 21
97.69417653600067
 31
0.0
  0
LINE
  5
100BF
330
6B
100
AcDbEntity
  8
0
100
AcDbLine
 10
213.4940116419998
 20
97.69417653600067
 30
0.0
 11
209.445644551
 21
93.64514040400036
 31
0.0
  0
LINE
  5
100C9
330
6B
100
AcDbEntity
  8
0
100
AcDbLine
 10
140.6180516760001
 20
89.59677331300009
 30
0.0
 11
138.5942026510002
 21
89.59677331300009
 31
0.0
  0
LINE
  5
100CA
330
6B
100
AcDbEntity
  8
0
100
AcDbLine
 10
138.5942026510002
 20
89.59677331300009
 30
0.0
 11
137.581943618
 21
88.58451428000035
 31
0.0
  0
LINE
  5
100CC
330
6B
100
AcDbEntity
  8
0
100
AcDbLine
 10
212.4817526089996
 20
86.55999621399997
 30
0.0
 11
213.4940116419998
 21
87.57225524700061
 31
0.0
  0
LINE
  5
100CD
330
6B
100
AcDbEntity
  8
0
100
AcDbLine
 10
213.4940116419998
 20
87.57225524700061
 30
0.0
 11
213.4940116419998
 21
88.58451428000035
 31
0.0
  0
LINE
  5
100CE
330
6B
100
AcDbEntity
  8
0
100
AcDbLine
 10
213.4940116419998
 20
88.58451428000035
 30
0.0
 11
212.4817526089996
 21
89.59677331300009
 31
0.0
  0
LINE
  5
100CF
330
6B
100
AcDbEntity
  8
0
100
AcDbLine
 10
212.4817526089996
 20
89.59677331300009
 30
0.0
 11
212.4817526089996
 21
88.58451428000035
 31
0.0
  0
LINE
  5
100D0
330
6B
100
AcDbEntity
  8
0
100
AcDbLine
 10
212.4817526089996
 20
88.58451428000035
 30
0.0
 11
213.4940116419998
 21
88.58451428000035
 31
0.0
  0
LINE
  5
100D1
330
6B
100
AcDbEntity
  8
0
100
AcDbLine
 10
227.6643000219997
 20
81.49937009000041
 30
0.0
 11
227.6643000219997
 21
80.48711105700022
 31
0.0
  0
LINE
  5
100D2
330
6B
100
AcDbEntity
  8
0
100
AcDbLine
 10
227.6643000219997
 20
80.48711105700022
 30
0.0
 11
227.6643000219997
 21
81.49937009000041
 31
0.0
  0
LINE
  5
100D3
330
6B
100
AcDbEntity
  8
0
100
AcDbLine
 10
227.6643000219997
 20
81.49937009000041
 30
0.0
 11
228.6765590549999
 21
82.5116291230006
 31
0.0
  0
LINE
  5
100D4
330
6B
100
AcDbEntity
  8
0
100
AcDbLine
 10
228.6765590549999
 20
82.5116291230006
 30
0.0
 11
228.6765590549999
 21
83.52388815600034
 31
0.0
  0
LINE
  5
100D5
330
6B
100
AcDbEntity
  8
0
100
AcDbLine
 10
228.6765590549999
 20
83.52388815600034
 30
0.0
 11
229.6888180880001
 21
84.5354781480005
 31
0.0
  0
LINE
  5
100D6
330
6B
100
AcDbEntity
  8
0
100
AcDbLine
 10
229.6888180880001
 20
84.5354781480005
 30
0.0
 11
229.6888180880001
 21
85.54773718100023
 31
0.0
  0
LINE
  5
100D7
330
6B
100
AcDbEntity
  8
0
100
AcDbLine
 10
229.6888180880001
 20
85.54773718100023
 30
0.0
 11
228.6765590549999
 21
85.54773718100023
 31
0.0
  0
LINE
  5
100D8
330
6B
100
AcDbEntity
  8
0
100
AcDbLine
 10
223.6159329309994
 20
80.48711105700022
 30
0.0
 11
223.6159329309994
 21
79.47485202400048
 31
0.0
  0
LINE
  5
100D9
330
6B
100
AcDbEntity
  8
0
100
AcDbLine
 10
214.5062706749995
 20
80.48711105700022
 30
0.0
 11
214.5062706749995
 21
81.49937009000041
 31
0.0
  0
LINE
  5
100DA
330
6B
100
AcDbEntity
  8
0
100
AcDbLine
 10
214.5062706749995
 20
81.49937009000041
 30
0.0
 11
213.4940116419998
 21
82.5116291230006
 31
0.0
  0
LINE
  5
100DB
330
6B
100
AcDbEntity
  8
0
100
AcDbLine
 10
213.4940116419998
 20
82.5116291230006
 30
0.0
 11
213.4940116419998
 21
83.52388815600034
 31
0.0
  0
LINE
  5
100DC
330
6B
100
AcDbEntity
  8
0
100
AcDbLine
 10
213.4940116419998
 20
83.52388815600034
 30
0.0
 11
212.4817526089996
 21
84.5354781480005
 31
0.0
  0
LINE
  5
100DD
330
6B
100
AcDbEntity
  8
0
100
AcDbLine
 10
212.4817526089996
 20
84.5354781480005
 30
0.0
 11
212.4817526089996
 21
86.55999621399997
 31
0.0
  0
LINE
  5
100DE
330
6B
100
AcDbEntity
  8
0
100
AcDbLine
 10
223.6159329309994
 20
79.47485202400048
 30
0.0
 11
223.6159329309994
 21
77.4503339580001
 31
0.0
  0
LINE
  5
100DF
330
6B
100
AcDbEntity
  8
0
100
AcDbLine
 10
223.6159329309994
 20
77.4503339580001
 30
0.0
 11
224.6281919640001
 21
77.4503339580001
 31
0.0
  0
LINE
  5
100E0
330
6B
100
AcDbEntity
  8
0
100
AcDbLine
 10
224.6281919640001
 20
77.4503339580001
 30
0.0
 11
225.6397819559998
 21
78.46259299099984
 31
0.0
  0
LINE
  5
100E1
330
6B
100
AcDbEntity
  8
0
100
AcDbLine
 10
225.6397819559998
 20
78.46259299099984
 30
0.0
 11
225.6397819559998
 21
79.47485202400048
 31
0.0
  0
LINE
  5
100E2
330
6B
100
AcDbEntity
  8
0
100
AcDbLine
 10
216.5307887409999
 20
79.47485202400048
 30
0.0
 11
211.4694935759999
 21
81.49937009000041
 31
0.0
  0
LINE
  5
100E3
330
6B
100
AcDbEntity
  8
0
100
AcDbLine
 10
211.4694935759999
 20
81.49937009000041
 30
0.0
 11
210.4579035839997
 21
86.55999621399997
 31
0.0
  0
LINE
  5
100E4
330
6B
100
AcDbEntity
  8
0
100
AcDbLine
 10
210.4579035839997
 20
86.55999621399997
 30
0.0
 11
214.5062706749995
 21
86.55999621399997
 31
0.0
  0
LINE
  5
100E5
330
6B
100
AcDbEntity
  8
0
100
AcDbLine
 10
214.5062706749995
 20
86.55999621399997
 30
0.0
 11
219.566896799
 21
80.48711105700022
 31
0.0
  0
LINE
  5
100E8
330
6B
100
AcDbEntity
  8
0
100
AcDbLine
 10
228.6765590549999
 20
88.58451428000035
 30
0.0
 11
226.6520409890004
 21
82.5116291230006
 31
0.0
  0
LINE
  5
100E9
330
6B
100
AcDbEntity
  8
0
100
AcDbLine
 10
226.6520409890004
 20
82.5116291230006
 30
0.0
 11
223.6159329309994
 21
80.48711105700022
 31
0.0
  0
LINE
  5
100EA
330
6B
100
AcDbEntity
  8
0
100
AcDbLine
 10
216.5307887409999
 20
79.47485202400048
 30
0.0
 11
216.5307887409999
 21
78.46259299099984
 31
0.0
  0
LINE
  5
100EB
330
6B
100
AcDbEntity
  8
0
100
AcDbLine
 10
216.5307887409999
 20
78.46259299099984
 30
0.0
 11
217.5430477739997
 21
77.4503339580001
 31
0.0
  0
LINE
  5
100EC
330
6B
100
AcDbEntity
  8
0
100
AcDbLine
 10
217.5430477739997
 20
77.4503339580001
 30
0.0
 11
219.566896799
 21
77.4503339580001
 31
0.0
  0
LINE
  5
100ED
330
6B
100
AcDbEntity
  8
0
100
AcDbLine
 10
219.566896799
 20
77.4503339580001
 30
0.0
 11
219.566896799
 21
78.46259299099984
 31
0.0
  0
LINE
  5
100EE
330
6B
100
AcDbEntity
  8
0
100
AcDbLine
 10
216.5307887409999
 20
79.47485202400048
 30
0.0
 11
229.6888180880001
 21
80.48711105700022
 31
0.0
  0
LINE
  5
100EF
330
6B
100
AcDbEntity
  8
0
100
AcDbLine
 10
229.6888180880001
 20
80.48711105700022
 30
0.0
 11
232.7249261460001
 21
87.57225524700061
 31
0.0
  0
LINE
  5
100F0
330
6B
100
AcDbEntity
  8
0
100
AcDbLine
 10
232.7249261460001
 20
87.57225524700061
 30
0.0
 11
229.6888180880001
 21
89.59677331300009
 31
0.0
  0
LINE
  5
100F1
330
6B
100
AcDbEntity
  8
0
100
AcDbLine
 10
229.6888180880001
 20
89.59677331300009
 30
0.0
 11
230.7010771209998
 21
89.59677331300009
 31
0.0
  0
LINE
  5
1010A
330
6B
100
AcDbEntity
  8
0
100
AcDbLine
 10
144.6670878079995
 20
88.58451428000035
 30
0.0
 11
186.1656939149993
 21
88.58451428000035
 31
0.0
  0
LINE
  5
1010B
330
6B
100
AcDbEntity
  8
0
100
AcDbLine
 10
196.2876152039994
 20
75.42648493300021
 30
0.0
 11
197.299205196
 21
75.42648493300021
 31
0.0
  0
LINE
  5
1010C
330
6B
100
AcDbEntity
  8
0
100
AcDbLine
 10
180.0928087579996
 20
75.42648493300021
 30
0.0
 11
196.2876152039994
 21
75.42648493300021
 31
0.0
  0
LINE
  5
1010D
330
6B
100
AcDbEntity
  8
0
100
AcDbLine
 10
166.9347794109995
 20
73.40196686700028
 30
0.0
 11
166.9347794109995
 21
74.41422590000002
 31
0.0
  0
LINE
  5
1010E
330
6B
100
AcDbEntity
  8
0
100
AcDbLine
 10
166.9347794109995
 20
74.41422590000002
 30
0.0
 11
165.9225203779997
 21
75.42648493300021
 31
0.0
  0
LINE
  5
1010F
330
6B
100
AcDbEntity
  8
0
100
AcDbLine
 10
165.9225203779997
 20
75.42648493300021
 30
0.0
 11
165.9225203779997
 21
76.4387439660004
 31
0.0
  0
LINE
  5
10110
330
6B
100
AcDbEntity
  8
0
100
AcDbLine
 10
165.9225203779997
 20
76.4387439660004
 30
0.0
 11
164.9102613449995
 21
77.4503339580001
 31
0.0
  0
LINE
  5
10111
330
6B
100
AcDbEntity
  8
0
100
AcDbLine
 10
164.9102613449995
 20
77.4503339580001
 30
0.0
 11
161.8734842459999
 21
77.4503339580001
 31
0.0
  0
LINE
  5
10112
330
6B
100
AcDbEntity
  8
0
100
AcDbLine
 10
161.8734842459999
 20
77.4503339580001
 30
0.0
 11
161.8734842459999
 21
76.4387439660004
 31
0.0
  0
LINE
  5
10113
330
6B
100
AcDbEntity
  8
0
100
AcDbLine
 10
156.8128581219999
 20
73.40196686700028
 30
0.0
 11
155.8005990890001
 21
74.41422590000002
 31
0.0
  0
LINE
  5
10114
330
6B
100
AcDbEntity
  8
0
100
AcDbLine
 10
155.8005990890001
 20
74.41422590000002
 30
0.0
 11
154.7883400559995
 21
74.41422590000002
 31
0.0
  0
LINE
  5
10115
330
6B
100
AcDbEntity
  8
0
100
AcDbLine
 10
149.7277139319999
 20
73.40196686700028
 30
0.0
 11
150.7399729649992
 21
73.40196686700028
 31
0.0
  0
LINE
  5
10116
330
6B
100
AcDbEntity
  8
0
100
AcDbLine
 10
150.7399729649992
 20
73.40196686700028
 30
0.0
 11
151.7522319979998
 21
74.41422590000002
 31
0.0
  0
LINE
  5
10117
330
6B
100
AcDbEntity
  8
0
100
AcDbLine
 10
151.7522319979998
 20
74.41422590000002
 30
0.0
 11
152.7644910309996
 21
75.42648493300021
 31
0.0
  0
LINE
  5
1012A
330
6B
100
AcDbEntity
  8
0
100
AcDbLine
 10
635.566554984
 20
70.36518976800016
 30
0.0
 11
620.384676612
 21
70.36518976800016
 31
0.0
  0
LINE
  5
1012B
330
6B
100
AcDbEntity
  8
0
100
AcDbLine
 10
635.566554984
 20
70.36518976800016
 30
0.0
 11
635.566554984
 21
66.31682267699989
 31
0.0
  0
LINE
  5
1012C
330
6B
100
AcDbEntity
  8
0
100
AcDbLine
 10
635.566554984
 20
66.31682267699989
 30
0.0
 11
634.5549649919994
 21
65.30456364400015
 31
0.0
  0
LINE
  5
1012D
330
6B
100
AcDbEntity
  8
0
100
AcDbLine
 10
634.5549649919994
 20
65.30456364400015
 30
0.0
 11
634.5549649919994
 21
58.21941945400022
 31
0.0
  0
LINE
  5
1012E
330
6B
100
AcDbEntity
  8
0
100
AcDbLine
 10
634.5549649919994
 20
58.21941945400022
 30
0.0
 11
633.5427059589997
 21
57.20716042100048
 31
0.0
  0
LINE
  5
1012F
330
6B
100
AcDbEntity
  8
0
100
AcDbLine
 10
633.5427059589997
 20
57.20716042100048
 30
0.0
 11
633.5427059589997
 21
53.15879333000021
 31
0.0
  0
LINE
  5
10130
330
6B
100
AcDbEntity
  8
0
100
AcDbLine
 10
635.566554984
 20
70.36518976800016
 30
0.0
 11
632.530446926
 21
95.66965847000029
 31
0.0
  0
LINE
  5
10131
330
6B
100
AcDbEntity
  8
0
100
AcDbLine
 10
632.530446926
 20
95.66965847000029
 30
0.0
 11
631.5181878929998
 21
98.70576652800037
 31
0.0
  0
LINE
  5
10132
330
6B
100
AcDbEntity
  8
0
100
AcDbLine
 10
590.0195817859999
 20
70.36518976800016
 30
0.0
 11
587.99506372
 21
51.13427526400028
 31
0.0
  0
LINE
  5
10133
330
6B
100
AcDbEntity
  8
0
100
AcDbLine
 10
587.99506372
 20
51.13427526400028
 30
0.0
 11
586.9828046869998
 21
49.10975719800035
 31
0.0
  0
LINE
  5
10134
330
6B
100
AcDbEntity
  8
0
100
AcDbLine
 10
590.0195817859999
 20
70.36518976800016
 30
0.0
 11
604.1898701659998
 21
70.36518976800016
 31
0.0
  0
LINE
  5
10135
330
6B
100
AcDbEntity
  8
0
100
AcDbLine
 10
590.0195817859999
 20
70.36518976800016
 30
0.0
 11
584.9582866209998
 21
87.57225524700061
 31
0.0
  0
LINE
  5
1015C
330
6B
100
AcDbEntity
  8
0
100
AcDbLine
 10
164.9102613449995
 20
66.31682267699989
 30
0.0
 11
164.9102613449995
 21
71.3774488009999
 31
0.0
  0
LINE
  5
1015D
330
6B
100
AcDbEntity
  8
0
100
AcDbLine
 10
164.9102613449995
 20
71.3774488009999
 30
0.0
 11
163.8980023120002
 21
72.38970783400009
 31
0.0
  0
LINE
  5
1015E
330
6B
100
AcDbEntity
  8
0
100
AcDbLine
 10
163.8980023120002
 20
72.38970783400009
 30
0.0
 11
162.8857432789996
 21
72.38970783400009
 31
0.0
  0
LINE
  5
1015F
330
6B
100
AcDbEntity
  8
0
100
AcDbLine
 10
162.8857432789996
 20
72.38970783400009
 30
0.0
 11
161.8734842459999
 21
73.40196686700028
 31
0.0
  0
LINE
  5
10160
330
6B
100
AcDbEntity
  8
0
100
AcDbLine
 10
161.8734842459999
 20
73.40196686700028
 30
0.0
 11
156.8128581219999
 21
73.40196686700028
 31
0.0
  0
LINE
  5
10168
330
6B
100
AcDbEntity
  8
0
100
AcDbLine
 10
165.9225203779997
 20
57.20716042100048
 30
0.0
 11
166.9347794109995
 21
58.21941945400022
 31
0.0
  0
LINE
  5
10169
330
6B
100
AcDbEntity
  8
0
100
AcDbLine
 10
156.8128581219999
 20
57.20716042100048
 30
0.0
 11
164.9102613449995
 21
60.24393752000015
 31
0.0
  0
LINE
  5
1016A
330
6B
100
AcDbEntity
  8
0
100
AcDbLine
 10
164.9102613449995
 20
60.24393752000015
 30
0.0
 11
165.9225203779997
 21
66.31682267699989
 31
0.0
  0
LINE
  5
1016B
330
6B
100
AcDbEntity
  8
0
100
AcDbLine
 10
156.8128581219999
 20
57.20716042100048
 30
0.0
 11
156.8128581219999
 21
56.19490138799983
 31
0.0
  0
LINE
  5
1016D
330
6B
100
AcDbEntity
  8
0
100
AcDbLine
 10
157.8251171549996
 20
76.4387439660004
 30
0.0
 11
161.8734842459999
 21
76.4387439660004
 31
0.0
  0
LINE
  5
1016E
330
6B
100
AcDbEntity
  8
0
100
AcDbLine
 10
161.8734842459999
 20
76.4387439660004
 30
0.0
 11
167.9463694029996
 21
71.3774488009999
 31
0.0
  0
LINE
  5
1016F
330
6B
100
AcDbEntity
  8
0
100
AcDbLine
 10
167.9463694029996
 20
71.3774488009999
 30
0.0
 11
167.9463694029996
 21
66.31682267699989
 31
0.0
  0
LINE
  5
10171
330
6B
100
AcDbEntity
  8
0
100
AcDbLine
 10
151.7522319979998
 20
57.20716042100048
 30
0.0
 11
150.7399729649992
 21
56.19490138799983
 31
0.0
  0
LINE
  5
10172
330
6B
100
AcDbEntity
  8
0
100
AcDbLine
 10
150.7399729649992
 20
56.19490138799983
 30
0.0
 11
149.7277139319999
 21
57.20716042100048
 31
0.0
  0
LINE
  5
10173
330
6B
100
AcDbEntity
  8
0
100
AcDbLine
 10
149.7277139319999
 20
57.20716042100048
 30
0.0
 11
149.7277139319999
 21
58.21941945400022
 31
0.0
  0
LINE
  5
10174
330
6B
100
AcDbEntity
  8
0
100
AcDbLine
 10
150.7399729649992
 20
56.19490138799983
 30
0.0
 11
151.7522319979998
 21
54.17105236299994
 31
0.0
  0
LINE
  5
10175
330
6B
100
AcDbEntity
  8
0
100
AcDbLine
 10
151.7522319979998
 20
54.17105236299994
 30
0.0
 11
154.7883400559995
 21
54.17105236299994
 31
0.0
  0
LINE
  5
10176
330
6B
100
AcDbEntity
  8
0
100
AcDbLine
 10
154.7883400559995
 20
54.17105236299994
 30
0.0
 11
154.7883400559995
 21
57.20716042100048
 31
0.0
  0
LINE
  5
10177
330
6B
100
AcDbEntity
  8
0
100
AcDbLine
 10
154.7883400559995
 20
57.20716042100048
 30
0.0
 11
151.7522319979998
 21
57.20716042100048
 31
0.0
  0
LINE
  5
10178
330
6B
100
AcDbEntity
  8
0
100
AcDbLine
 10
151.7522319979998
 20
57.20716042100048
 30
0.0
 11
146.6909368329998
 21
63.28004557800023
 31
0.0
  0
LINE
  5
10179
330
6B
100
AcDbEntity
  8
0
100
AcDbLine
 10
146.6909368329998
 20
63.28004557800023
 30
0.0
 11
149.7277139319999
 21
74.41422590000002
 31
0.0
  0
LINE
  5
1017A
330
6B
100
AcDbEntity
  8
0
100
AcDbLine
 10
149.7277139319999
 20
74.41422590000002
 30
0.0
 11
151.7522319979998
 21
76.4387439660004
 31
0.0
  0
LINE
  5
1017B
330
6B
100
AcDbEntity
  8
0
100
AcDbLine
 10
151.7522319979998
 20
76.4387439660004
 30
0.0
 11
154.7883400559995
 21
75.42648493300021
 31
0.0
  0
LINE
  5
1017C
330
6B
100
AcDbEntity
  8
0
100
AcDbLine
 10
161.8734842459999
 20
54.17105236299994
 30
0.0
 11
161.8734842459999
 21
55.1826423550001
 31
0.0
  0
LINE
  5
1017D
330
6B
100
AcDbEntity
  8
0
100
AcDbLine
 10
161.8734842459999
 20
55.1826423550001
 30
0.0
 11
162.8857432789996
 21
56.19490138799983
 31
0.0
  0
LINE
  5
1017E
330
6B
100
AcDbEntity
  8
0
100
AcDbLine
 10
162.8857432789996
 20
56.19490138799983
 30
0.0
 11
163.8980023120002
 21
57.20716042100048
 31
0.0
  0
LINE
  5
1017F
330
6B
100
AcDbEntity
  8
0
100
AcDbLine
 10
163.8980023120002
 20
57.20716042100048
 30
0.0
 11
165.9225203779997
 21
57.20716042100048
 31
0.0
  0
LINE
  5
10180
330
6B
100
AcDbEntity
  8
0
100
AcDbLine
 10
306.6131451449996
 20
43.03687204100015
 30
0.0
 11
278.2725683849999
 21
43.03687204100015
 31
0.0
  0
LINE
  5
10181
330
6B
100
AcDbEntity
  8
0
100
AcDbLine
 10
278.2725683849999
 20
43.03687204100015
 30
0.0
 11
278.2725683849999
 21
89.59677331300009
 31
0.0
  0
LINE
  5
10182
330
6B
100
AcDbEntity
  8
0
100
AcDbLine
 10
278.2725683849999
 20
89.59677331300009
 30
0.0
 11
306.6131451449996
 21
89.59677331300009
 31
0.0
  0
LINE
  5
10183
330
6B
100
AcDbEntity
  8
0
100
AcDbLine
 10
306.6131451449996
 20
43.03687204100015
 30
0.0
 11
340.0150170699999
 21
43.03687204100015
 31
0.0
  0
LINE
  5
10184
330
6B
100
AcDbEntity
  8
0
100
AcDbLine
 10
340.0150170699999
 20
43.03687204100015
 30
0.0
 11
340.0150170699999
 21
66.31682267699989
 31
0.0
  0
LINE
  5
10185
330
6B
100
AcDbEntity
  8
0
100
AcDbLine
 10
340.0150170699999
 20
66.31682267699989
 30
0.0
 11
341.0266070619996
 21
67.32908171000054
 31
0.0
  0
LINE
  5
10191
330
6B
100
AcDbEntity
  8
0
100
AcDbLine
 10
14.09771528900001
 20
31.9033607600004
 30
0.0
 11
22.19511851199968
 21
31.9033607600004
 31
0.0
  0
LINE
  5
101BF
330
6B
100
AcDbEntity
  8
0
100
AcDbLine
 10
649.7368433639999
 20
8.623410124000657
 30
0.0
 11
654.798138529
 21
8.623410124000657
 31
0.0
  0
LINE
  5
101C0
330
6B
100
AcDbEntity
  8
0
100
AcDbLine
 10
613.2995324220001
 20
8.623410124000657
 30
0.0
 11
628.4814107939997
 21
33.92720978500029
 31
0.0
  0
LINE
  5
101C1
330
6B
100
AcDbEntity
  8
0
100
AcDbLine
 10
611.2750143560002
 20
8.623410124000657
 30
0.0
 11
611.2750143560002
 21
7.611151091000465
 31
0.0
  0
LINE
  5
101C2
330
6B
100
AcDbEntity
  8
0
100
AcDbLine
 10
611.2750143560002
 20
7.611151091000465
 30
0.0
 11
610.262755323
 21
6.598892058000274
 31
0.0
  0
LINE
  5
101C3
330
6B
100
AcDbEntity
  8
0
100
AcDbLine
 10
610.262755323
 20
6.598892058000274
 30
0.0
 11
610.262755323
 21
5.586633025000083
 31
0.0
  0
LINE
  5
101C4
330
6B
100
AcDbEntity
  8
0
100
AcDbLine
 10
610.262755323
 20
5.586633025000083
 30
0.0
 11
609.2504962899998
 21
4.575043033000384
 31
0.0
  0
LINE
  5
101C5
330
6B
100
AcDbEntity
  8
0
100
AcDbLine
 10
609.2504962899998
 20
4.575043033000384
 30
0.0
 11
608.2382372569996
 21
3.562784000000192
 31
0.0
  0
LINE
  5
101C6
330
6B
100
AcDbEntity
  8
0
100
AcDbLine
 10
583.9466966289997
 20
8.623410124000657
 30
0.0
 11
594.0679488770002
 21
21.78143947100034
 31
0.0
  0
LINE
  5
101C7
330
6B
100
AcDbEntity
  8
0
100
AcDbLine
 10
580.9099195299996
 20
8.623410124000657
 30
0.0
 11
573.8247753399996
 21
2.550524967000456
 31
0.0
  0
LINE
  5
101C8
330
6B
100
AcDbEntity
  8
0
100
AcDbLine
 10
573.8247753399996
 20
2.550524967000456
 30
0.0
 11
552.5693427699998
 21
-6.559137288999409
 31
0.0
  0
LINE
  5
101C9
330
6B
100
AcDbEntity
  8
0
100
AcDbLine
 10
544.4719395470001
 20
8.623410124000657
 30
0.0
 11
545.4841985799994
 21
10.64792819000013
 31
0.0
  0
LINE
  5
101CA
330
6B
100
AcDbEntity
  8
0
100
AcDbLine
 10
545.4841985799994
 20
10.64792819000013
 30
0.0
 11
563.702854051
 21
17.73307238000007
 31
0.0
  0
LINE
  5
101CB
330
6B
100
AcDbEntity
  8
0
100
AcDbLine
 10
563.702854051
 20
17.73307238000007
 30
0.0
 11
576.8615524390002
 21
29.87884269400001
 31
0.0
  0
LINE
  5
101CF
330
6B
100
AcDbEntity
  8
0
100
AcDbLine
 10
412.8903079949996
 20
8.623410124000657
 30
0.0
 11
423.0122292839997
 21
8.623410124000657
 31
0.0
  0
LINE
  5
101D0
330
6B
100
AcDbEntity
  8
0
100
AcDbLine
 10
407.8296818709996
 20
8.623410124000657
 30
0.0
 11
408.8419409039998
 21
11.66018722300032
 31
0.0
  0
LINE
  5
101D1
330
6B
100
AcDbEntity
  8
0
100
AcDbLine
 10
408.8419409039998
 20
11.66018722300032
 30
0.0
 11
412.8903079949996
 21
11.66018722300032
 31
0.0
  0
LINE
  5
101D2
330
6B
100
AcDbEntity
  8
0
100
AcDbLine
 10
412.8903079949996
 20
11.66018722300032
 30
0.0
 11
412.8903079949996
 21
8.623410124000657
 31
0.0
  0
LINE
  5
101D3
330
6B
100
AcDbEntity
  8
0
100
AcDbLine
 10
412.8903079949996
 20
8.623410124000657
 30
0.0
 11
402.769055747
 21
8.623410124000657
 31
0.0
  0
LINE
  5
101D8
330
6B
100
AcDbEntity
  8
0
100
AcDbLine
 10
349.1240102850002
 20
6.598892058000274
 30
0.0
 11
348.111751252
 21
7.611151091000465
 31
0.0
  0
LINE
  5
101D9
330
6B
100
AcDbEntity
  8
0
100
AcDbLine
 10
348.111751252
 20
7.611151091000465
 30
0.0
 11
348.111751252
 21
9.635669157000393
 31
0.0
  0
LINE
  5
101DA
330
6B
100
AcDbEntity
  8
0
100
AcDbLine
 10
348.111751252
 20
9.635669157000393
 30
0.0
 11
349.1240102850002
 21
8.623410124000657
 31
0.0
  0
LINE
  5
101DB
330
6B
100
AcDbEntity
  8
0
100
AcDbLine
 10
349.1240102850002
 20
8.623410124000657
 30
0.0
 11
350.1362693179994
 21
8.623410124000657
 31
0.0
  0
LINE
  5
101DC
330
6B
100
AcDbEntity
  8
0
100
AcDbLine
 10
26.2434856029995
 20
3.562784000000192
 30
0.0
 11
3.975793999999951
 21
3.562784000000192
 31
0.0
  0
LINE
  5
101DD
330
6B
100
AcDbEntity
  8
0
100
AcDbLine
 10
3.975793999999951
 20
3.562784000000192
 30
0.0
 11
3.975793999999951
 21
159.4359561800002
 31
0.0
  0
LINE
  5
101DE
330
6B
100
AcDbEntity
  8
0
100
AcDbLine
 10
3.975793999999951
 20
159.4359561800002
 30
0.0
 11
27.25574463600014
 21
159.4359561800002
 31
0.0
  0
LINE
  5
101DF
330
6B
100
AcDbEntity
  8
0
100
AcDbLine
 10
359.2459315740002
 20
-1.498511164999854
 30
0.0
 11
358.2336725409996
 21
-1.498511164999854
 31
0.0
  0
LINE
  5
101E0
330
6B
100
AcDbEntity
  8
0
100
AcDbLine
 10
359.2459315740002
 20
-1.498511164999854
 30
0.0
 11
366.3310757639997
 21
2.550524967000456
 31
0.0
  0
LINE
  5
101E1
330
6B
100
AcDbEntity
  8
0
100
AcDbLine
 10
366.3310757639997
 20
2.550524967000456
 30
0.0
 11
366.3310757639997
 21
14.6962952810004
 31
0.0
  0
LINE
  5
101E2
330
6B
100
AcDbEntity
  8
0
100
AcDbLine
 10
366.3310757639997
 20
14.6962952810004
 30
0.0
 11
358.2336725409996
 21
17.73307238000007
 31
0.0
  0
LINE
  5
101E3
330
6B
100
AcDbEntity
  8
0
100
AcDbLine
 10
358.2336725409996
 20
-1.498511164999854
 30
0.0
 11
353.1730464169996
 21
-0.4862521320001179
 31
0.0
  0
LINE
  5
101E4
330
6B
100
AcDbEntity
  8
0
100
AcDbLine
 10
353.1730464169996
 20
-0.4862521320001179
 30
0.0
 11
349.1240102850002
 21
6.598892058000274
 31
0.0
  0
LINE
  5
101E5
330
6B
100
AcDbEntity
  8
0
100
AcDbLine
 10
349.1240102850002
 20
6.598892058000274
 30
0.0
 11
350.1362693179994
 21
14.6962952810004
 31
0.0
  0
LINE
  5
101E6
330
6B
100
AcDbEntity
  8
0
100
AcDbLine
 10
350.1362693179994
 20
14.6962952810004
 30
0.0
 11
354.1853054499998
 21
17.73307238000007
 31
0.0
  0
LINE
  5
101E7
330
6B
100
AcDbEntity
  8
0
100
AcDbLine
 10
354.1853054499998
 20
17.73307238000007
 30
0.0
 11
358.2336725409996
 21
17.73307238000007
 31
0.0
  0
LINE
  5
101E8
330
6B
100
AcDbEntity
  8
0
100
AcDbLine
 10
359.2459315740002
 20
-3.522360189999745
 30
0.0
 11
358.2336725409996
 21
-3.522360189999745
 31
0.0
  0
LINE
  5
101E9
330
6B
100
AcDbEntity
  8
0
100
AcDbLine
 10
359.2459315740002
 20
-3.522360189999745
 30
0.0
 11
359.2459315740002
 21
-1.498511164999854
 31
0.0
  0
LINE
  5
101EA
330
6B
100
AcDbEntity
  8
0
100
AcDbLine
 10
359.2459315740002
 20
-1.498511164999854
 30
0.0
 11
358.2336725409996
 21
-0.4862521320001179
 31
0.0
  0
LINE
  5
10207
330
6B
100
AcDbEntity
  8
0
100
AcDbLine
 10
382.52588221
 20
-11.61976341299942
 30
0.0
 11
382.52588221
 21
1.538265934000265
 31
0.0
  0
LINE
  5
10208
330
6B
100
AcDbEntity
  8
0
100
AcDbLine
 10
382.52588221
 20
1.538265934000265
 30
0.0
 11
381.5136231769998
 21
1.538265934000265
 31
0.0
  0
LINE
  5
1020A
330
6B
100
AcDbEntity
  8
0
100
AcDbLine
 10
367.3433347969999
 20
0.5260069010000734
 30
0.0
 11
369.3671838219998
 21
3.562784000000192
 31
0.0
  0
LINE
  5
1020B
330
6B
100
AcDbEntity
  8
0
100
AcDbLine
 10
369.3671838219998
 20
3.562784000000192
 30
0.0
 11
368.3555938300001
 21
15.70855431400014
 31
0.0
  0
LINE
  5
1020C
330
6B
100
AcDbEntity
  8
0
100
AcDbLine
 10
368.3555938300001
 20
15.70855431400014
 30
0.0
 11
363.2942986649996
 21
20.76918043800015
 31
0.0
  0
LINE
  5
1020D
330
6B
100
AcDbEntity
  8
0
100
AcDbLine
 10
363.2942986649996
 20
20.76918043800015
 30
0.0
 11
353.1730464169996
 21
20.76918043800015
 31
0.0
  0
LINE
  5
1020E
330
6B
100
AcDbEntity
  8
0
100
AcDbLine
 10
353.1730464169996
 20
20.76918043800015
 30
0.0
 11
347.1001612599998
 21
15.70855431400014
 31
0.0
  0
LINE
  5
1020F
330
6B
100
AcDbEntity
  8
0
100
AcDbLine
 10
347.1001612599998
 20
15.70855431400014
 30
0.0
 11
345.0756431939999
 21
11.66018722300032
 31
0.0
  0
LINE
  5
10210
330
6B
100
AcDbEntity
  8
0
100
AcDbLine
 10
345.0756431939999
 20
11.66018722300032
 30
0.0
 11
346.0879022270001
 21
2.550524967000456
 31
0.0
  0
LINE
  5
10211
330
6B
100
AcDbEntity
  8
0
100
AcDbLine
 10
346.0879022270001
 20
2.550524967000456
 30
0.0
 11
353.1730464169996
 21
-3.522360189999745
 31
0.0
  0
LINE
  5
10212
330
6B
100
AcDbEntity
  8
0
100
AcDbLine
 10
353.1730464169996
 20
-3.522360189999745
 30
0.0
 11
354.1853054499998
 21
-3.522360189999745
 31
0.0
  0
LINE
  5
10213
330
6B
100
AcDbEntity
  8
0
100
AcDbLine
 10
354.1853054499998
 20
-3.522360189999745
 30
0.0
 11
358.2336725409996
 21
-4.534619222999936
 31
0.0
  0
LINE
  5
10214
330
6B
100
AcDbEntity
  8
0
100
AcDbLine
 10
358.2336725409996
 20
-4.534619222999936
 30
0.0
 11
367.3433347969999
 21
-1.498511164999854
 31
0.0
  0
LINE
  5
10215
330
6B
100
AcDbEntity
  8
0
100
AcDbLine
 10
342.0388660949998
 20
-11.61976341299942
 30
0.0
 11
332.9298728799999
 21
2.550524967000456
 31
0.0
  0
LINE
  5
10216
330
6B
100
AcDbEntity
  8
0
100
AcDbLine
 10
332.9298728799999
 20
-11.61976341299942
 30
0.0
 11
333.9414628719996
 21
12.67177721500002
 31
0.0
  0
LINE
  5
10217
330
6B
100
AcDbEntity
  8
0
100
AcDbLine
 10
333.9414628719996
 20
12.67177721500002
 30
0.0
 11
342.0388660949998
 21
26.84206559500035
 31
0.0
  0
LINE
  5
10218
330
6B
100
AcDbEntity
  8
0
100
AcDbLine
 10
342.0388660949998
 20
26.84206559500035
 30
0.0
 11
351.1485283510001
 21
31.9033607600004
 31
0.0
  0
LINE
  5
10219
330
6B
100
AcDbEntity
  8
0
100
AcDbLine
 10
351.1485283510001
 20
31.9033607600004
 30
0.0
 11
364.3065576979998
 21
31.9033607600004
 31
0.0
  0
LINE
  5
1021A
330
6B
100
AcDbEntity
  8
0
100
AcDbLine
 10
364.3065576979998
 20
31.9033607600004
 30
0.0
 11
377.4645870449999
 21
23.80595753700072
 31
0.0
  0
LINE
  5
1021B
330
6B
100
AcDbEntity
  8
0
100
AcDbLine
 10
377.4645870449999
 20
23.80595753700072
 30
0.0
 11
381.5136231769998
 21
15.70855431400014
 31
0.0
  0
LINE
  5
1021C
330
6B
100
AcDbEntity
  8
0
100
AcDbLine
 10
381.5136231769998
 20
15.70855431400014
 30
0.0
 11
381.5136231769998
 21
1.538265934000265
 31
0.0
  0
LINE
  5
1021D
330
6B
100
AcDbEntity
  8
0
100
AcDbLine
 10
381.5136231769998
 20
1.538265934000265
 30
0.0
 11
373.4162199539996
 21
-11.61976341299942
 31
0.0
  0
LINE
  5
1021F
330
6B
100
AcDbEntity
  8
0
100
AcDbLine
 10
306.6131451449996
 20
89.59677331300009
 30
0.0
 11
340.0150170699999
 21
89.59677331300009
 31
0.0
  0
LINE
  5
10220
330
6B
100
AcDbEntity
  8
0
100
AcDbLine
 10
126.4477632959997
 20
-11.61976341299942
 30
0.0
 11
126.4477632959997
 21
76.4387439660004
 31
0.0
  0
LINE
  5
10221
330
6B
100
AcDbEntity
  8
0
100
AcDbLine
 10
126.4477632959997
 20
76.4387439660004
 30
0.0
 11
154.7883400559995
 21
77.4503339580001
 31
0.0
  0
LINE
  5
10222
330
6B
100
AcDbEntity
  8
0
100
AcDbLine
 10
154.7883400559995
 20
77.4503339580001
 30
0.0
 11
153.7760810230002
 21
73.40196686700028
 31
0.0
  0
LINE
  5
10223
330
6B
100
AcDbEntity
  8
0
100
AcDbLine
 10
153.7760810230002
 20
73.40196686700028
 30
0.0
 11
150.7399729649992
 21
70.36518976800016
 31
0.0
  0
LINE
  5
10224
330
6B
100
AcDbEntity
  8
0
100
AcDbLine
 10
150.7399729649992
 20
70.36518976800016
 30
0.0
 11
150.7399729649992
 21
62.26845558600053
 31
0.0
  0
LINE
  5
10225
330
6B
100
AcDbEntity
  8
0
100
AcDbLine
 10
150.7399729649992
 20
62.26845558600053
 30
0.0
 11
157.8251171549996
 21
56.19490138799983
 31
0.0
  0
LINE
  5
10226
330
6B
100
AcDbEntity
  8
0
100
AcDbLine
 10
157.8251171549996
 20
56.19490138799983
 30
0.0
 11
157.8251171549996
 21
54.17105236299994
 31
0.0
  0
LINE
  5
10227
330
6B
100
AcDbEntity
  8
0
100
AcDbLine
 10
157.8251171549996
 20
54.17105236299994
 30
0.0
 11
164.9102613449995
 21
55.1826423550001
 31
0.0
  0
LINE
  5
10228
330
6B
100
AcDbEntity
  8
0
100
AcDbLine
 10
164.9102613449995
 20
55.1826423550001
 30
0.0
 11
169.9708874689995
 21
67.32908171000054
 31
0.0
  0
LINE
  5
10229
330
6B
100
AcDbEntity
  8
0
100
AcDbLine
 10
169.9708874689995
 20
67.32908171000054
 30
0.0
 11
171.9954055349999
 21
68.34134074300027
 31
0.0
  0
LINE
  5
1022A
330
6B
100
AcDbEntity
  8
0
100
AcDbLine
 10
171.9954055349999
 20
68.34134074300027
 30
0.0
 11
173.0076645680001
 21
81.49937009000041
 31
0.0
  0
LINE
  5
1022B
330
6B
100
AcDbEntity
  8
0
100
AcDbLine
 10
173.0076645680001
 20
81.49937009000041
 30
0.0
 11
177.0560316589995
 21
83.52388815600034
 31
0.0
  0
LINE
  5
1022C
330
6B
100
AcDbEntity
  8
0
100
AcDbLine
 10
177.0560316589995
 20
83.52388815600034
 30
0.0
 11
180.0928087579996
 21
80.48711105700022
 31
0.0
  0
LINE
  5
1022D
330
6B
100
AcDbEntity
  8
0
100
AcDbLine
 10
180.0928087579996
 20
80.48711105700022
 30
0.0
 11
182.1166577829999
 21
68.34134074300027
 31
0.0
  0
LINE
  5
1022E
330
6B
100
AcDbEntity
  8
0
100
AcDbLine
 10
182.1166577829999
 20
68.34134074300027
 30
0.0
 11
194.2630971379999
 21
67.32908171000054
 31
0.0
  0
LINE
  5
1022F
330
6B
100
AcDbEntity
  8
0
100
AcDbLine
 10
194.2630971379999
 20
67.32908171000054
 30
0.0
 11
196.2876152039994
 21
69.35359977600001
 31
0.0
  0
LINE
  5
10230
330
6B
100
AcDbEntity
  8
0
100
AcDbLine
 10
196.2876152039994
 20
69.35359977600001
 30
0.0
 11
198.3114642289993
 21
96.68191750300002
 31
0.0
  0
LINE
  5
10231
330
6B
100
AcDbEntity
  8
0
100
AcDbLine
 10
198.3114642289993
 20
96.68191750300002
 30
0.0
 11
200.3359822949997
 21
98.70576652800037
 31
0.0
  0
LINE
  5
10232
330
6B
100
AcDbEntity
  8
0
100
AcDbLine
 10
200.3359822949997
 20
98.70576652800037
 30
0.0
 11
206.4088674519999
 21
98.70576652800037
 31
0.0
  0
LINE
  5
10233
330
6B
100
AcDbEntity
  8
0
100
AcDbLine
 10
206.4088674519999
 20
98.70576652800037
 30
0.0
 11
209.445644551
 21
95.66965847000029
 31
0.0
  0
LINE
  5
10234
330
6B
100
AcDbEntity
  8
0
100
AcDbLine
 10
209.445644551
 20
95.66965847000029
 30
0.0
 11
210.4579035839997
 21
90.60903234600028
 31
0.0
  0
LINE
  5
10235
330
6B
100
AcDbEntity
  8
0
100
AcDbLine
 10
210.4579035839997
 20
90.60903234600028
 30
0.0
 11
214.5062706749995
 21
92.63288137100062
 31
0.0
  0
LINE
  5
10236
330
6B
100
AcDbEntity
  8
0
100
AcDbLine
 10
214.5062706749995
 20
92.63288137100062
 30
0.0
 11
217.5430477739997
 21
95.66965847000029
 31
0.0
  0
LINE
  5
10237
330
6B
100
AcDbEntity
  8
0
100
AcDbLine
 10
217.5430477739997
 20
95.66965847000029
 30
0.0
 11
224.6281919640001
 21
95.66965847000029
 31
0.0
  0
LINE
  5
10238
330
6B
100
AcDbEntity
  8
0
100
AcDbLine
 10
224.6281919640001
 20
95.66965847000029
 30
0.0
 11
227.6643000219997
 21
93.64514040400036
 31
0.0
  0
LINE
  5
10239
330
6B
100
AcDbEntity
  8
0
100
AcDbLine
 10
227.6643000219997
 20
93.64514040400036
 30
0.0
 11
227.6643000219997
 21
91.62062233799998
 31
0.0
  0
LINE
  5
1023A
330
6B
100
AcDbEntity
  8
0
100
AcDbLine
 10
227.6643000219997
 20
91.62062233799998
 30
0.0
 11
230.7010771209998
 21
91.62062233799998
 31
0.0
  0
LINE
  5
1023B
330
6B
100
AcDbEntity
  8
0
100
AcDbLine
 10
230.7010771209998
 20
91.62062233799998
 30
0.0
 11
232.7249261460001
 21
90.60903234600028
 31
0.0
  0
LINE
  5
1023C
330
6B
100
AcDbEntity
  8
0
100
AcDbLine
 10
232.7249261460001
 20
90.60903234600028
 30
0.0
 11
235.7617032449998
 21
98.70576652800037
 31
0.0
  0
LINE
  5
1023D
330
6B
100
AcDbEntity
  8
0
100
AcDbLine
 10
235.7617032449998
 20
98.70576652800037
 30
0.0
 11
247.9074735589998
 21
98.70576652800037
 31
0.0
  0
LINE
  5
1023E
330
6B
100
AcDbEntity
  8
0
100
AcDbLine
 10
247.9074735589998
 20
98.70576652800037
 30
0.0
 11
250.9442506579999
 21
95.66965847000029
 31
0.0
  0
LINE
  5
1023F
330
6B
100
AcDbEntity
  8
0
100
AcDbLine
 10
250.9442506579999
 20
95.66965847000029
 30
0.0
 11
250.9442506579999
 21
-11.61976341299942
 31
0.0
  0
LINE
  5
10240
330
6B
100
AcDbEntity
  8
0
100
AcDbLine
 10
647.712994339
 20
-17.69264856999962
 30
0.0
 11
647.712994339
 21
-8.583655354999792
 31
0.0
  0
LINE
  5
10241
330
6B
100
AcDbEntity
  8
0
100
AcDbLine
 10
647.712994339
 20
-8.583655354999792
 30
0.0
 11
649.7368433639999
 21
-6.559137288999409
 31
0.0
  0
LINE
  5
10242
330
6B
100
AcDbEntity
  8
0
100
AcDbLine
 10
649.7368433639999
 20
-6.559137288999409
 30
0.0
 11
649.7368433639999
 21
129.070861354
 31
0.0
  0
LINE
  5
10243
330
6B
100
AcDbEntity
  8
0
100
AcDbLine
 10
649.7368433639999
 20
129.070861354
 30
0.0
 11
654.798138529
 21
129.070861354
 31
0.0
  0
LINE
  5
10244
330
6B
100
AcDbEntity
  8
0
100
AcDbLine
 10
424.0244883169999
 20
-18.70490760299981
 30
0.0
 11
421.9999702510004
 21
67.32908171000054
 31
0.0
  0
LINE
  5
10245
330
6B
100
AcDbEntity
  8
0
100
AcDbLine
 10
421.9999702510004
 20
67.32908171000054
 30
0.0
 11
340.0150170699999
 21
68.34134074300027
 31
0.0
  0
LINE
  5
10246
330
6B
100
AcDbEntity
  8
0
100
AcDbLine
 10
340.0150170699999
 20
68.34134074300027
 30
0.0
 11
340.0150170699999
 21
131.0953794200004
 31
0.0
  0
LINE
  5
10247
330
6B
100
AcDbEntity
  8
0
100
AcDbLine
 10
340.0150170699999
 20
131.0953794200004
 30
0.0
 11
352.1607873839998
 21
131.0953794200004
 31
0.0
  0
LINE
  5
10248
330
6B
100
AcDbEntity
  8
0
100
AcDbLine
 10
352.1607873839998
 20
131.0953794200004
 30
0.0
 11
378.4768460779997
 21
130.0831203870007
 31
0.0
  0
LINE
  5
1024C
330
6B
100
AcDbEntity
  8
0
100
AcDbLine
 10
398.7200196149997
 20
154.3753300560002
 30
0.0
 11
415.9270850940002
 21
153.3630710230004
 31
0.0
  0
LINE
  5
1024D
330
6B
100
AcDbEntity
  8
0
100
AcDbLine
 10
415.9270850940002
 20
153.3630710230004
 30
0.0
 11
420.9877112179997
 21
158.4236971470004
 31
0.0
  0
LINE
  5
1024E
330
6B
100
AcDbEntity
  8
0
100
AcDbLine
 10
420.9877112179997
 20
158.4236971470004
 30
0.0
 11
644.6762172399995
 21
159.4359561800002
 31
0.0
  0
LINE
  5
1024F
330
6B
100
AcDbEntity
  8
0
100
AcDbLine
 10
644.6762172399995
 20
159.4359561800002
 30
0.0
 11
647.712994339
 21
161.4604742460006
 31
0.0
  0
LINE
  5
10250
330
6B
100
AcDbEntity
  8
0
100
AcDbLine
 10
647.712994339
 20
161.4604742460006
 30
0.0
 11
648.7252533720002
 21
130.0831203870007
 31
0.0
  0
LINE
  5
10251
330
6B
100
AcDbEntity
  8
0
100
AcDbLine
 10
648.7252533720002
 20
130.0831203870007
 30
0.0
 11
379.4891051109998
 21
131.0953794200004
 31
0.0
  0
LINE
  5
10252
330
6B
100
AcDbEntity
  8
0
100
AcDbLine
 10
578.8854014640001
 20
-19.717166636
 30
0.0
 11
579.8976604970003
 21
-15.66879954499973
 31
0.0
  0
LINE
  5
10253
330
6B
100
AcDbEntity
  8
0
100
AcDbLine
 10
579.8976604970003
 20
-15.66879954499973
 30
0.0
 11
593.0556898439995
 21
-8.583655354999792
 31
0.0
  0
LINE
  5
10254
330
6B
100
AcDbEntity
  8
0
100
AcDbLine
 10
449.3282879779995
 20
-19.717166636
 30
0.0
 11
645.6884762730001
 21
-19.717166636
 31
0.0
  0
LINE
  5
10255
330
6B
100
AcDbEntity
  8
0
100
AcDbLine
 10
645.6884762730001
 20
-19.717166636
 30
0.0
 11
646.7007353059998
 21
-18.70490760299981
 31
0.0
  0
LINE
  5
10256
330
6B
100
AcDbEntity
  8
0
100
AcDbLine
 10
646.7007353059998
 20
-18.70490760299981
 30
0.0
 11
647.712994339
 21
-17.69264856999962
 31
0.0
  0
LINE
  5
10257
330
6B
100
AcDbEntity
  8
0
100
AcDbLine
 10
647.712994339
 20
-17.69264856999962
 30
0.0
 11
649.7368433639999
 21
-17.69264856999962
 31
0.0
  0
LINE
  5
10258
330
6B
100
AcDbEntity
  8
0
100
AcDbLine
 10
649.7368433639999
 20
-17.69264856999962
 30
0.0
 11
649.7368433639999
 21
-18.70490760299981
 31
0.0
  0
LINE
  5
10259
330
6B
100
AcDbEntity
  8
0
100
AcDbLine
 10
649.7368433639999
 20
-18.70490760299981
 30
0.0
 11
650.7491023969997
 21
-18.70490760299981
 31
0.0
  0
LINE
  5
1025A
330
6B
100
AcDbEntity
  8
0
100
AcDbLine
 10
416.9393441269999
 20
-21.74168470199947
 30
0.0
 11
416.9393441269999
 21
-19.717166636
 31
0.0
  0
LINE
  5
1025B
330
6B
100
AcDbEntity
  8
0
100
AcDbLine
 10
306.6131451449996
 20
-21.74168470199947
 30
0.0
 11
27.25574463600014
 21
-21.74168470199947
 31
0.0
  0
LINE
  5
1025C
330
6B
100
AcDbEntity
  8
0
100
AcDbLine
 10
27.25574463600014
 20
-21.74168470199947
 30
0.0
 11
27.25574463600014
 21
-11.61976341299942
 31
0.0
  0
LINE
  5
1025D
330
6B
100
AcDbEntity
  8
0
100
AcDbLine
 10
306.6131451449996
 20
-21.74168470199947
 30
0.0
 11
372.4039609209995
 21
-21.74168470199947
 31
0.0
  0
LINE
  5
1033D
330
6B
100
AcDbEntity
  8
0
100
AcDbLine
 10
376.4523280119997
 20
-21.74168470199947
 30
0.0
 11
449.3282879779995
 21
-21.74168470199947
 31
0.0
  0
LINE
  5
1033E
330
6B
100
AcDbEntity
  8
0
100
AcDbLine
 10
449.3282879779995
 20
-21.74168470199947
 30
0.0
 11
449.3282879779995
 21
-18.70490760299981
 31
0.0
  0
LINE
  5
1033F
330
6B
100
AcDbEntity
  8
0
100
AcDbLine
 10
449.3282879779995
 20
-18.70490760299981
 30
0.0
 11
416.9393441269999
 21
-19.717166636
 31
0.0
  0
LINE
  5
10340
330
6B
100
AcDbEntity
  8
0
100
AcDbLine
 10
416.9393441269999
 20
-19.717166636
 30
0.0
 11
415.9270850940002
 21
-13.6442814789998
 31
0.0
  0
LINE
  5
10341
330
6B
100
AcDbEntity
  8
0
100
AcDbLine
 10
415.9270850940002
 20
-13.6442814789998
 30
0.0
 11
413.9025670279998
 21
-11.61976341299942
 31
0.0
  0
LINE
  5
10342
330
6B
100
AcDbEntity
  8
0
100
AcDbLine
 10
413.9025670279998
 20
-11.61976341299942
 30
0.0
 11
26.2434856029995
 21
-10.60750437999968
 31
0.0
  0
LINE
  5
10343
330
6B
100
AcDbEntity
  8
0
100
AcDbLine
 10
26.2434856029995
 20
-10.60750437999968
 30
0.0
 11
27.25574463600014
 21
177.6546116509999
 31
0.0
  0
LINE
  5
10344
330
6B
100
AcDbEntity
  8
0
100
AcDbLine
 10
27.25574463600014
 20
177.6546116509999
 30
0.0
 11
73.81564590799962
 21
179.6791297170003
 31
0.0
  0
LINE
  5
10345
330
6B
100
AcDbEntity
  8
0
100
AcDbLine
 10
73.81564590799962
 20
179.6791297170003
 30
0.0
 11
104.1800716929997
 21
179.6791297170003
 31
0.0
  0
LINE
  5
10346
330
6B
100
AcDbEntity
  8
0
100
AcDbLine
 10
104.1800716929997
 20
179.6791297170003
 30
0.0
 11
73.81564590799962
 21
177.6546116509999
 31
0.0
  0
LINE
  5
10359
330
6B
100
AcDbEntity
  8
0
100
AcDbLine
 10
652.7736204629996
 20
-22.75394373499967
 30
0.0
 11
650.7491023969997
 21
-21.74168470199947
 31
0.0
  0
LINE
  5
1035A
330
6B
100
AcDbEntity
  8
0
100
AcDbLine
 10
650.7491023969997
 20
-21.74168470199947
 30
0.0
 11
652.7736204629996
 21
-16.68105857799947
 31
0.0
  0
LINE
  5
1035B
330
6B
100
AcDbEntity
  8
0
100
AcDbLine
 10
652.7736204629996
 20
-16.68105857799947
 30
0.0
 11
654.798138529
 21
-14.65654051199999
 31
0.0
  0
LINE
  5
1035C
330
6B
100
AcDbEntity
  8
0
100
AcDbLine
 10
654.798138529
 20
-14.65654051199999
 30
0.0
 11
653.7858794959998
 21
169.5578774690002
 31
0.0
  0
LINE
  5
1035D
330
6B
100
AcDbEntity
  8
0
100
AcDbLine
 10
653.7858794959998
 20
169.5578774690002
 30
0.0
 11
650.7491023969997
 21
169.5578774690002
 31
0.0
  0
LINE
  5
1035E
330
6B
100
AcDbEntity
  8
0
100
AcDbLine
 10
650.7491023969997
 20
169.5578774690002
 30
0.0
 11
649.7368433639999
 21
173.6062445600005
 31
0.0
  0
LINE
  5
1035F
330
6B
100
AcDbEntity
  8
0
100
AcDbLine
 10
649.7368433639999
 20
173.6062445600005
 30
0.0
 11
646.7007353059998
 21
173.6062445600005
 31
0.0
  0
LINE
  5
10360
330
6B
100
AcDbEntity
  8
0
100
AcDbLine
 10
646.7007353059998
 20
173.6062445600005
 30
0.0
 11
646.7007353059998
 21
178.6668706840005
 31
0.0
  0
LINE
  5
10361
330
6B
100
AcDbEntity
  8
0
100
AcDbLine
 10
646.7007353059998
 20
178.6668706840005
 30
0.0
 11
347.1001612599998
 21
178.6668706840005
 31
0.0
  0
LINE
  5
1201F
330
6B
100
AcDbEntity
  8
0
100
AcDbLine
 10
330.9053548139996
 20
196.4804467694748
 30
0.0
 11
330.9053548139996
 21
255.1861183554747
 31
0.0
  0
LINE
  5
12020
330
6B
100
AcDbEntity
  8
0
100
AcDbLine
 10
283.3331945089994
 20
196.4804467694748
 30
0.0
 11
283.3331945089994
 21
255.1861183554747
 31
0.0
  0
ENDSEC
  0
SECTION
  2
OBJECTS
  0
DICTIONARY
  5
C
330
0
100
AcDbDictionary
281
     1
  3
ACAD_CIP_PREVIOUS_PRODUCT_INFO
350
F517
  3
ACAD_COLOR
350
62
  3
ACAD_DETAILVIEWSTYLE
350
12162
  3
ACAD_GROUP
350
D
  3
ACAD_LAYOUT
350
61
  3
ACAD_MATERIAL
350
10
  3
ACAD_MLEADERSTYLE
350
65
  3
ACAD_MLINESTYLE
350
5E
  3
ACAD_PLOTSETTINGS
350
60
  3
ACAD_PLOTSTYLENAME
350
E
  3
ACAD_SCALELIST
350
42
  3
ACAD_SECTIONVIEWSTYLE
350
12160
  3
ACAD_TABLESTYLE
350
63
  3
ACAD_VISUALSTYLE
350
29
  3
ACDBHEADERROUNDTRIPXREC
350
121F8
  3
AcDbVariableDictionary
350
12156
  3
AcDsDecomposeData
350
1223A
  3
DWGPROPS
350
121FB
  0
DICTIONARY
  5
121FC
330
8
100
AcDbDictionary
280
     1
281
     1
  3
ACAD_XREC_ROUNDTRIP
360
121FD
  0
DICTIONARY
  5
1211A
330
2
100
AcDbDictionary
280
     1
281
     1
  3
ACAD_LAYERSTATES
360
1211B
  0
DICTIONARY
  5
12021
330
54
100
AcDbDictionary
280
     1
281
     1
  3
ADSK_XREC_LAYER_RECONCILED
360
12022
  0
XRECORD
  5
F517
102
{ACAD_REACTORS
330
C
102
}
330
C
100
AcDbXrecord
280
     1
300
ACD
300
2014
300
ACD_F_S
  0
DICTIONARY
  5
62
102
{ACAD_REACTORS
330
C
102
}
330
C
100
AcDbDictionary
281
     1
  0
DICTIONARY
  5
12162
102
{ACAD_REACTORS
330
C
102
}
330
C
100
AcDbDictionary
281
     1
  3
Imperial24
350
12163
  0
DICTIONARY
  5
D
102
{ACAD_REACTORS
330
C
102
}
330
C
100
AcDbDictionary
281
     1
  0
DICTIONARY
  5
61
102
{ACAD_REACTORS
330
C
102
}
330
C
100
AcDbDictionary
281
     1
  3
Layout1
350
6A
  3
Model
350
6E
  0
DICTIONARY
  5
10
102
{ACAD_REACTORS
330
C
102
}
330
C
100
AcDbDictionary
281
     1
  3
ByBlock
350
19
  3
ByLayer
350
11
  3
Global
350
21
  0
DICTIONARY
  5
65
102
{ACAD_REACTORS
330
C
102
}
330
C
100
AcDbDictionary
281
     1
  3
Standard
350
66
  0
DICTIONARY
  5
5E
102
{ACAD_REACTORS
330
C
102
}
330
C
100
AcDbDictionary
281
     1
  3
Standard
350
5F
  0
DICTIONARY
  5
60
102
{ACAD_REACTORS
330
C
102
}
330
C
100
AcDbDictionary
281
     1
  0
ACDBDICTIONARYWDFLT
  5
E
102
{ACAD_REACTORS
330
C
102
}
330
C
100
AcDbDictionary
281
     1
  3
Normal
350
F
100
AcDbDictionaryWithDefault
340
F
  0
DICTIONARY
  5
42
102
{ACAD_REACTORS
330
C
102
}
330
C
100
AcDbDictionary
281
     1
  3
A0
350
43
  3
A1
350
44
  3
A2
350
45
  3
A3
350
46
  3
A4
350
47
  3
A5
350
48
  3
A6
350
49
  3
A7
350
4A
  3
A8
350
4B
  3
A9
350
4C
  3
B0
350
4D
  3
B1
350
4E
  3
B2
350
4F
  3
B3
350
50
  3
B4
350
51
  3
B5
350
52
  3
B6
350
53
  0
DICTIONARY
  5
12160
102
{ACAD_REACTORS
330
C
102
}
330
C
100
AcDbDictionary
281
     1
  3
Imperial24
350
12161
  0
DICTIONARY
  5
63
102
{ACAD_REACTORS
330
C
102
}
330
C
100
AcDbDictionary
281
     1
  3
Standard
350
64
  0
DICTIONARY
  5
29
102
{ACAD_REACTORS
330
C
102
}
330
C
100
AcDbDictionary
281
     1
  3
2dWireframe
350
2F
  3
Basic
350
2E
  3
Brighten
350
35
  3
ColorChange
350
39
  3
Conceptual
350
32
  3
Dim
350
34
  3
EdgeColorOff
350
41
  3
Facepattern
350
38
  3
Flat
350
2A
  3
FlatWithEdges
350
2B
  3
Gouraud
350
2C
  3
GouraudWithEdges
350
2D
  3
Hidden
350
31
  3
JitterOff
350
3F
  3
Linepattern
350
37
  3
OverhangOff
350
40
  3
Realistic
350
33
  3
Shaded
350
3E
  3
Shaded with edges
350
3D
  3
Shades of Gray
350
3A
  3
Sketchy
350
3B
  3
Thicken
350
36
  3
Wireframe
350
30
  3
X-Ray
350
3C
  0
DICTIONARY
  5
121F8
102
{ACAD_REACTORS
330
C
102
}
330
C
100
AcDbDictionary
281
     1
  3
COLORDICT
350
121F9
  3
MATERIALDICT
350
121FA
  0
DICTIONARY
  5
12156
102
{ACAD_REACTORS
330
C
102
}
330
C
100
AcDbDictionary
281
     1
  3
CANNOSCALE
350
1215A
  3
CMLEADERSTYLE
350
12158
  3
CTABLESTYLE
350
12157
  3
CVIEWDETAILSTYLE
350
121B2
  3
CVIEWSECTIONSTYLE
350
121B3
  3
DIMASSOC
350
121F6
  3
HIDETEXT
350
121F7
  3
LAYEREVAL
350
1215C
  3
LAYERNOTIFY
350
1215D
  3
LIGHTINGUNITS
350
1215B
  3
MSLTSCALE
350
12159
  3
XCLIPFRAME
350
121F5
  0
DICTIONARY
  5
1223A
102
{ACAD_REACTORS
330
C
102
}
330
C
100
AcDbDictionary
281
     1
  3
AcDsRecords
350
1223B
  3
AcDsSchemas
350
1223C
1001
ACAD
1070
     2
  0
XRECORD
  5
121FB
102
{ACAD_REACTORS
330
C
102
}
330
C
100
AcDbXrecord
280
     1
  1
DWGPROPS COOKIE
  2

  3

  4

  6

  7

  8
New
  9

300
=
301
=
302
=
303
=
304
=
305
=
306
=
307
=
308
=
309
=
 40
0.0
 41
2456350.860662986
 42
2459842.369593275
  1

 90
        0
  0
XRECORD
  5
121FD
102
{ACAD_REACTORS
330
121FC
102
}
330
121FC
100
AcDbXrecord
280
     1
102
VTR_0.000_0.000_1.000_1.000_VISUALSTYLE
340
2F
102
VTR_0.000_0.000_1.000_1.000_GRIDDISPLAY
 70
     3
102
VTR_0.000_0.000_1.000_1.000_GRIDMAJOR
 70
     5
102
VTR_0.000_0.000_1.000_1.000_DEFAULTLIGHTING
280
     1
102
VTR_0.000_0.000_1.000_1.000_DEFAULTLIGHTINGTYPE
 70
     1
102
VTR_0.000_0.000_1.000_1.000_BRIGHTNESS
141
0.0
102
VTR_0.000_0.000_1.000_1.000_CONTRAST
142
0.0
  0
DICTIONARY
  5
1211B
102
{ACAD_REACTORS
330
1211A
102
}
330
1211A
100
AcDbDictionary
281
     1
  0
XRECORD
  5
12022
102
{ACAD_REACTORS
330
12021
102
}
330
12021
100
AcDbXrecord
280
     1
290
     1
  0
ACDBDETAILVIEWSTYLE
  5
12163
102
{ACAD_REACTORS
330
12162
102
}
102
{ACAD_XDICTIONARY
360
121F3
102
}
330
12162
100
AcDbModelDocViewStyle
 70
     0
  3
Imperial24
290
     0
100
AcDbDetailViewStyle
 70
     0
 71
     0
 90
        3
 71
     1
340
55
 40
0.24
340
0
 40
0.24
300

 40
0.36
280
     3
 71
     2
340
5C
 90
       25
 71
     3
340
55
 40
0.24
 90
        1
 40
0.75
 90
        1
300
%<\AcVar ViewType \f "%tc1">% %<\AcVar ViewDetailId>%\PSCALE %<\AcVar ViewScale \f "%sn">%
 71
     4
340
5C
 90
       25
340
5C
 90
       25
280
     0
  0
LAYOUT
  5
6A
102
{ACAD_REACTORS
330
61
102
}
330
61
100
AcDbPlotSettings
  1

  2
Verzenden naar OneNote 2010
  4

  6

 40
0.0
 41
0.0
 42
0.0
 43
0.0
 44
0.0
 45
0.0
 46
0.0
 47
0.0
 48
0.0
 49
0.0
140
0.0
141
0.0
142
1.0
143
1.0
 70
   688
 72
     0
 73
     0
 74
     5
  7

 75
    16
147
1.0
148
0.0
149
0.0
100
AcDbLayout
  1
Layout1
 70
     1
 71
     1
 10
0.0
 20
0.0
 11
12.0
 21
9.0
 12
0.0
 22
0.0
 32
0.0
 14
1.000000000000000E+20
 24
1.000000000000000E+20
 34
1.000000000000000E+20
 15
-1.000000000000000E+20
 25
-1.000000000000000E+20
 35
-1.000000000000000E+20
146
0.0
 13
0.0
 23
0.0
 33
0.0
 16
1.0
 26
0.0
 36
0.0
 17
0.0
 27
1.0
 37
0.0
 76
     0
330
67
  0
LAYOUT
  5
6E
102
{ACAD_REACTORS
330
61
102
}
102
{ACAD_XDICTIONARY
360
121FF
102
}
330
61
100
AcDbPlotSettings
  1

  2
Verzenden naar OneNote 2010
  4

  6

 40
0.0
 41
0.0
 42
0.0
 43
0.0
 44
0.0
 45
0.0
 46
0.0
 47
0.0
 48
0.0
 49
0.0
140
0.0
141
0.0
142
1.0
143
1.0
 70
  1712
 72
     0
 73
     0
 74
     0
  7

 75
     0
147
1.0
148
0.0
149
0.0
100
AcDbLayout
  1
Model
 70
     1
 71
     0
 10
0.0
 20
0.0
 11
12.0
 21
9.0
 12
0.0
 22
0.0
 32
0.0
 14
0.0
 24
0.0
 34
0.0
 15
0.0
 25
0.0
 35
0.0
146
0.0
 13
0.0
 23
0.0
 33
0.0
 16
1.0
 26
0.0
 36
0.0
 17
0.0
 27
1.0
 37
0.0
 76
     0
330
6B
331
70
  0
MATERIAL
  5
19
102
{ACAD_REACTORS
330
10
102
}
102
{ACAD_XDICTIONARY
360
12201
102
}
330
10
100
AcDbMaterial
  1
ByBlock
 72
     0
 73
     2
 43
0.0208333333333333
 43
0.0
 43
0.0
 43
0.0
 43
0.0
 43
0.0208333333333333
 43
0.0
 43
0.0
 43
0.0
 43
0.0
 43
1.0
 43
0.0
 43
0.0
 43
0.0
 43
0.0
 43
1.0
 77
     0
 78
     2
 47
0.0208333333333333
 47
0.0
 47
0.0
 47
0.0
 47
0.0
 47
0.0208333333333333
 47
0.0
 47
0.0
 47
0.0
 47
0.0
 47
1.0
 47
0.0
 47
0.0
 47
0.0
 47
0.0
 47
1.0
171
     0
172
     2
 49
0.0208333333333333
 49
0.0
 49
0.0
 49
0.0
 49
0.0
 49
0.0208333333333333
 49
0.0
 49
0.0
 49
0.0
 49
0.0
 49
1.0
 49
0.0
 49
0.0
 49
0.0
 49
0.0
 49
1.0
175
     0
176
     2
142
0.0208333333333333
142
0.0
142
0.0
142
0.0
142
0.0
142
0.0208333333333333
142
0.0
142
0.0
142
0.0
142
0.0
142
1.0
142
0.0
142
0.0
142
0.0
142
0.0
142
1.0
179
     0
270
     2
144
0.0208333333333333
144
0.0
144
0.0
144
0.0
144
0.0
144
0.0208333333333333
144
0.0
144
0.0
144
0.0
144
0.0
144
1.0
144
0.0
144
0.0
144
0.0
144
0.0
144
1.0
274
     2
147
0.0208333333333333
147
0.0
147
0.0
147
0.0
147
0.0
147
0.0208333333333333
147
0.0
147
0.0
147
0.0
147
0.0
147
1.0
147
0.0
147
0.0
147
0.0
147
0.0
147
1.0
  0
MATERIAL
  5
11
102
{ACAD_REACTORS
330
10
102
}
102
{ACAD_XDICTIONARY
360
12203
102
}
330
10
100
AcDbMaterial
  1
ByLayer
 72
     0
 73
     2
 43
0.0208333333333333
 43
0.0
 43
0.0
 43
0.0
 43
0.0
 43
0.0208333333333333
 43
0.0
 43
0.0
 43
0.0
 43
0.0
 43
1.0
 43
0.0
 43
0.0
 43
0.0
 43
0.0
 43
1.0
 77
     0
 78
     2
 47
0.0208333333333333
 47
0.0
 47
0.0
 47
0.0
 47
0.0
 47
0.0208333333333333
 47
0.0
 47
0.0
 47
0.0
 47
0.0
 47
1.0
 47
0.0
 47
0.0
 47
0.0
 47
0.0
 47
1.0
171
     0
172
     2
 49
0.0208333333333333
 49
0.0
 49
0.0
 49
0.0
 49
0.0
 49
0.0208333333333333
 49
0.0
 49
0.0
 49
0.0
 49
0.0
 49
1.0
 49
0.0
 49
0.0
 49
0.0
 49
0.0
 49
1.0
175
     0
176
     2
142
0.0208333333333333
142
0.0
142
0.0
142
0.0
142
0.0
142
0.0208333333333333
142
0.0
142
0.0
142
0.0
142
0.0
142
1.0
142
0.0
142
0.0
142
0.0
142
0.0
142
1.0
179
     0
270
     2
144
0.0208333333333333
144
0.0
144
0.0
144
0.0
144
0.0
144
0.0208333333333333
144
0.0
144
0.0
144
0.0
144
0.0
144
1.0
144
0.0
144
0.0
144
0.0
144
0.0
144
1.0
274
     2
147
0.0208333333333333
147
0.0
147
0.0
147
0.0
147
0.0
147
0.0208333333333333
147
0.0
147
0.0
147
0.0
147
0.0
147
1.0
147
0.0
147
0.0
147
0.0
147
0.0
147
1.0
  0
MATERIAL
  5
21
102
{ACAD_REACTORS
330
10
102
}
102
{ACAD_XDICTIONARY
360
12205
102
}
330
10
100
AcDbMaterial
  1
Global
 72
     0
 73
     2
 43
0.0208333333333333
 43
0.0
 43
0.0
 43
0.0
 43
0.0
 43
0.0208333333333333
 43
0.0
 43
0.0
 43
0.0
 43
0.0
 43
1.0
 43
0.0
 43
0.0
 43
0.0
 43
0.0
 43
1.0
 77
     0
 78
     2
 47
0.0208333333333333
 47
0.0
 47
0.0
 47
0.0
 47
0.0
 47
0.0208333333333333
 47
0.0
 47
0.0
 47
0.0
 47
0.0
 47
1.0
 47
0.0
 47
0.0
 47
0.0
 47
0.0
 47
1.0
171
     0
172
     2
 49
0.0208333333333333
 49
0.0
 49
0.0
 49
0.0
 49
0.0
 49
0.0208333333333333
 49
0.0
 49
0.0
 49
0.0
 49
0.0
 49
1.0
 49
0.0
 49
0.0
 49
0.0
 49
0.0
 49
1.0
175
     0
176
     2
142
0.0208333333333333
142
0.0
142
0.0
142
0.0
142
0.0
142
0.0208333333333333
142
0.0
142
0.0
142
0.0
142
0.0
142
1.0
142
0.0
142
0.0
142
0.0
142
0.0
142
1.0
179
     0
270
     2
144
0.0208333333333333
144
0.0
144
0.0
144
0.0
144
0.0
144
0.0208333333333333
144
0.0
144
0.0
144
0.0
144
0.0
144
1.0
144
0.0
144
0.0
144
0.0
144
0.0
144
1.0
274
     2
147
0.0208333333333333
147
0.0
147
0.0
147
0.0
147
0.0
147
0.0208333333333333
147
0.0
147
0.0
147
0.0
147
0.0
147
1.0
147
0.0
147
0.0
147
0.0
147
0.0
147
1.0
  0
MLEADERSTYLE
  5
66
102
{ACAD_REACTORS
330
65
102
}
102
{ACAD_XDICTIONARY
360
12207
102
}
330
65
100
AcDbMLeaderStyle
170
     2
171
     1
172
     0
 90
        2
 40
0.0
 41
0.0
173
     1
 91
-1056964608
340
5A
 92
       -2
290
     1
 42
0.09
291
     1
 43
0.36
  3
Standard
341
0
 44
0.18
300

342
55
174
     1
178
     6
175
     1
176
     0
 93
-1056964608
 45
0.18
292
     0
297
     0
 46
0.18
343
0
 94
-1056964608
 47
1.0
 49
1.0
140
1.0
293
     1
141
0.0
294
     1
177
     0
142
1.0
295
     0
296
     0
143
0.125
1001
ACAD_MLEADERVER
1070
     2
  0
MLINESTYLE
  5
5F
102
{ACAD_REACTORS
330
5E
102
}
330
5E
100
AcDbMlineStyle
  2
STANDARD
 70
     0
  3

 62
   256
 51
90.0
 52
90.0
 71
     2
 49
0.5
 62
   256
  6
BYLAYER
 49
-0.5
 62
   256
  6
BYLAYER
  0
ACDBPLACEHOLDER
  5
F
102
{ACAD_REACTORS
330
E
102
}
330
E
  0
SCALE
  5
43
102
{ACAD_REACTORS
330
42
102
}
330
42
100
AcDbScale
 70
     0
300
1:1
140
1.0
141
1.0
290
     1
  0
SCALE
  5
44
102
{ACAD_REACTORS
330
42
102
}
330
42
100
AcDbScale
 70
     0
300
1/128" = 1'-0"
140
0.0078125
141
12.0
290
     0
  0
SCALE
  5
45
102
{ACAD_REACTORS
330
42
102
}
330
42
100
AcDbScale
 70
     0
300
1/64" = 1'-0"
140
0.015625
141
12.0
290
     0
  0
SCALE
  5
46
102
{ACAD_REACTORS
330
42
102
}
330
42
100
AcDbScale
 70
     0
300
1/32" = 1'-0"
140
0.03125
141
12.0
290
     0
  0
SCALE
  5
47
102
{ACAD_REACTORS
330
42
102
}
330
42
100
AcDbScale
 70
     0
300
1/16" = 1'-0"
140
0.0625
141
12.0
290
     0
  0
SCALE
  5
48
102
{ACAD_REACTORS
330
42
102
}
330
42
100
AcDbScale
 70
     0
300
3/32" = 1'-0"
140
0.09375
141
12.0
290
     0
  0
SCALE
  5
49
102
{ACAD_REACTORS
330
42
102
}
330
42
100
AcDbScale
 70
     0
300
1/8" = 1'-0"
140
0.125
141
12.0
290
     0
  0
SCALE
  5
4A
102
{ACAD_REACTORS
330
42
102
}
330
42
100
AcDbScale
 70
     0
300
3/16" = 1'-0"
140
0.1875
141
12.0
290
     0
  0
SCALE
  5
4B
102
{ACAD_REACTORS
330
42
102
}
330
42
100
AcDbScale
 70
     0
300
1/4" = 1'-0"
140
0.25
141
12.0
290
     0
  0
SCALE
  5
4C
102
{ACAD_REACTORS
330
42
102
}
330
42
100
AcDbScale
 70
     0
300
3/8" = 1'-0"
140
0.375
141
12.0
290
     0
  0
SCALE
  5
4D
102
{ACAD_REACTORS
330
42
102
}
330
42
100
AcDbScale
 70
     0
300
1/2" = 1'-0"
140
0.5
141
12.0
290
     0
  0
SCALE
  5
4E
102
{ACAD_REACTORS
330
42
102
}
330
42
100
AcDbScale
 70
     0
300
3/4" = 1'-0"
140
0.75
141
12.0
290
     0
  0
SCALE
  5
4F
102
{ACAD_REACTORS
330
42
102
}
330
42
100
AcDbScale
 70
     0
300
1" = 1'-0"
140
1.0
141
12.0
290
     0
  0
SCALE
  5
50
102
{ACAD_REACTORS
330
42
102
}
330
42
100
AcDbScale
 70
     0
300
1-1/2" = 1'-0"
140
1.5
141
12.0
290
     0
  0
SCALE
  5
51
102
{ACAD_REACTORS
330
42
102
}
330
42
100
AcDbScale
 70
     0
300
3" = 1'-0"
140
3.0
141
12.0
290
     0
  0
SCALE
  5
52
102
{ACAD_REACTORS
330
42
102
}
330
42
100
AcDbScale
 70
     0
300
6" = 1'-0"
140
6.0
141
12.0
290
     0
  0
SCALE
  5
53
102
{ACAD_REACTORS
330
42
102
}
330
42
100
AcDbScale
 70
     0
300
1'-0" = 1'-0"
140
12.0
141
12.0
290
     0
  0
ACDBSECTIONVIEWSTYLE
  5
12161
102
{ACAD_REACTORS
330
12160
102
}
102
{ACAD_XDICTIONARY
360
121F1
102
}
330
12160
100
AcDbModelDocViewStyle
 70
     0
  3
Imperial24
290
     0
100
AcDbSectionViewStyle
 70
     0
 71
     0
 90
       78
 71
     1
340
55
 40
0.24
340
0
340
0
 40
0.24
300
I, O, Q, S, X, Z
 40
0.48
 90
        3
 40
0.18
 90
        1
 71
     2
340
5C
 90
       25
340
5C
 90
       50
 40
0.24
 40
0.0
 40
0.24
 71
     3
340
55
 40
0.24
 90
        1
 40
0.75
 90
        1
300
%<\AcVar ViewType \f "%tc1">% %<\AcVar ViewSectionStartId>%-%<\AcVar ViewSectionEndId>%\PSCALE %<\AcVar ViewScale \f "%sn">%
 71
     4
300
ANSI31
 40
1.0
 90
        0
290
     0
290
     0
 90
        6
 40
0.0
 40
1.570796326794897
 40
0.2617993877991494
 40
1.308996938995747
 40
-0.2617993877991494
 40
1.832595714594046
  0
TABLESTYLE
  5
64
102
{ACAD_REACTORS
330
63
102
}
330
63
100
AcDbTableStyle
  3
Standard
 70
     0
 71
     0
 40
0.06
 41
0.06
280
     0
281
     0
  7
Standard
140
0.18
170
     2
 62
     0
 63
   257
283
     0
274
    -2
284
     1
 64
     0
275
    -2
285
     1
 65
     0
276
    -2
286
     1
 66
     0
277
    -2
287
     1
 67
     0
278
    -2
288
     1
 68
     0
279
    -2
289
     1
 69
     0
  7
Standard
140
0.25
170
     5
 62
     0
 63
   257
283
     0
274
    -2
284
     1
 64
     0
275
    -2
285
     1
 65
     0
276
    -2
286
     1
 66
     0
277
    -2
287
     1
 67
     0
278
    -2
288
     1
 68
     0
279
    -2
289
     1
 69
     0
  7
Standard
140
0.18
170
     5
 62
     0
 63
   257
283
     0
274
    -2
284
     1
 64
     0
275
    -2
285
     1
 65
     0
276
    -2
286
     1
 66
     0
277
    -2
287
     1
 67
     0
278
    -2
288
     1
 68
     0
279
    -2
289
     1
 69
     0
  0
VISUALSTYLE
  5
2F
102
{ACAD_REACTORS
330
29
102
}
102
{ACAD_XDICTIONARY
360
1220A
102
}
330
29
100
AcDbVisualStyle
  2
2dWireframe
 70
     4
 71
     0
 72
     2
 73
     0
 90
        0
 40
-0.6
 41
-30.0
 62
     5
 63
     7
 74
     1
 91
        4
 64
     7
 65
   257
 75
     1
175
     1
 42
1.0
 92
        0
 66
   257
 43
1.0
 76
     1
 77
     6
 78
     2
 67
     7
 79
     5
170
     0
171
     0
290
     0
174
     0
 93
        1
 44
0.0
173
     0
291
     0
 45
0.0
1001
ACAD
1000
AcDbSavedByObjectVersion
1070
     0
  0
VISUALSTYLE
  5
2E
102
{ACAD_REACTORS
330
29
102
}
102
{ACAD_XDICTIONARY
360
1220C
102
}
330
29
100
AcDbVisualStyle
  2
Basic
 70
     7
 71
     1
 72
     0
 73
     1
 90
        0
 40
-0.6
 41
-30.0
 62
     5
 63
     7
 74
     0
 91
        4
 64
     7
 65
   257
 75
     1
175
     1
 42
1.0
 92
        8
 66
     7
 43
1.0
 76
     1
 77
     6
 78
     2
 67
     7
 79
     5
170
     0
171
     0
290
     0
174
     0
 93
        1
 44
0.0
173
     0
291
     1
 45
0.0
1001
ACAD
1000
AcDbSavedByObjectVersion
1070
     0
  0
VISUALSTYLE
  5
35
102
{ACAD_REACTORS
330
29
102
}
102
{ACAD_XDICTIONARY
360
1220E
102
}
330
29
100
AcDbVisualStyle
  2
Brighten
 70
    12
 71
     2
 72
     2
 73
     0
 90
        0
 40
-0.6
 41
-30.0
 62
     5
 63
     7
 74
     1
 91
        4
 64
     7
 65
   257
 75
     1
175
     1
 42
1.0
 92
        8
 66
     7
 43
1.0
 76
     1
 77
     6
 78
     2
 67
     7
 79
     5
170
     0
171
     0
290
     0
174
     0
 93
        1
 44
50.0
173
     0
291
     1
 45
0.0
1001
ACAD
1000
AcDbSavedByObjectVersion
1070
     0
  0
VISUALSTYLE
  5
39
102
{ACAD_REACTORS
330
29
102
}
102
{ACAD_XDICTIONARY
360
12210
102
}
330
29
100
AcDbVisualStyle
  2
ColorChange
 70
    16
 71
     2
 72
     2
 73
     3
 90
        0
 40
-0.6
 41
-30.0
 62
     5
 63
     8
 74
     1
 91
        4
 64
     7
 65
   257
 75
     1
175
     1
 42
1.0
 92
        8
 66
     8
 43
1.0
 76
     1
 77
     6
 78
     2
 67
     7
 79
     5
170
     0
171
     0
290
     0
174
     0
 93
        1
 44
0.0
173
     0
291
     1
 45
0.0
1001
ACAD
1000
AcDbSavedByObjectVersion
1070
     0
  0
VISUALSTYLE
  5
32
102
{ACAD_REACTORS
330
29
102
}
102
{ACAD_XDICTIONARY
360
12212
102
}
330
29
100
AcDbVisualStyle
  2
Conceptual
 70
     9
 71
     3
 72
     2
 73
     0
 90
        0
 40
-0.6
 41
-30.0
 62
     5
 63
     7
 74
     2
 91
        2
 64
     7
 65
   257
 75
     1
175
     1
 42
179.0
 92
        8
 66
     7
 43
1.0
 76
     1
 77
     6
 78
     2
 67
     7
 79
     3
170
     0
171
     0
290
     0
174
     0
 93
        1
 44
0.0
173
     0
291
     0
 45
0.0
1001
ACAD
1000
AcDbSavedByObjectVersion
1070
     0
  0
VISUALSTYLE
  5
34
102
{ACAD_REACTORS
330
29
102
}
102
{ACAD_XDICTIONARY
360
12214
102
}
330
29
100
AcDbVisualStyle
  2
Dim
 70
    11
 71
     2
 72
     2
 73
     0
 90
        0
 40
-0.6
 41
-30.0
 62
     5
 63
     7
 74
     1
 91
        4
 64
     7
 65
   257
 75
     1
175
     1
 42
1.0
 92
        8
 66
     7
 43
1.0
 76
     1
 77
     6
 78
     2
 67
     7
 79
     5
170
     0
171
     0
290
     0
174
     0
 93
        1
 44
-50.0
173
     0
291
     1
 45
0.0
1001
ACAD
1000
AcDbSavedByObjectVersion
1070
     0
  0
VISUALSTYLE
  5
41
102
{ACAD_REACTORS
330
29
102
}
102
{ACAD_XDICTIONARY
360
12216
102
}
330
29
100
AcDbVisualStyle
  2
EdgeColorOff
 70
    22
 71
     2
 72
     2
 73
     0
 90
        0
 40
-0.6
 41
-30.0
 62
     5
 63
     7
 74
     1
 91
        4
 64
     7
 65
   257
 75
     1
175
     1
 42
1.0
 92
        8
 66
     7
 43
1.0
 76
     1
 77
     6
 78
     2
 67
     7
 79
     5
170
     0
171
     0
290
     0
174
     0
 93
        1
 44
0.0
173
     0
291
     1
 45
0.0
1001
ACAD
1000
AcDbSavedByObjectVersion
1070
     0
  0
VISUALSTYLE
  5
38
102
{ACAD_REACTORS
330
29
102
}
102
{ACAD_XDICTIONARY
360
12218
102
}
330
29
100
AcDbVisualStyle
  2
Facepattern
 70
    15
 71
     2
 72
     2
 73
     0
 90
        0
 40
-0.6
 41
-30.0
 62
     5
 63
     7
 74
     1
 91
        4
 64
     7
 65
   257
 75
     1
175
     1
 42
1.0
 92
        8
 66
     7
 43
1.0
 76
     1
 77
     6
 78
     2
 67
     7
 79
     5
170
     0
171
     0
290
     0
174
     0
 93
        1
 44
0.0
173
     0
291
     1
 45
0.0
1001
ACAD
1000
AcDbSavedByObjectVersion
1070
     0
  0
VISUALSTYLE
  5
2A
102
{ACAD_REACTORS
330
29
102
}
102
{ACAD_XDICTIONARY
360
1221A
102
}
330
29
100
AcDbVisualStyle
  2
Flat
 70
     0
 71
     2
 72
     1
 73
     1
 90
        2
 40
-0.6
 41
30.0
 62
     5
 63
     7
 74
     0
 91
        0
 64
     7
 65
   257
 75
     1
175
     1
 42
1.0
 92
        8
 66
     7
 43
1.0
 76
     1
 77
     6
 78
     2
 67
     7
 79
     5
170
     0
171
     0
290
     0
174
     0
 93
       13
 44
0.0
173
     0
291
     1
 45
0.0
1001
ACAD
1000
AcDbSavedByObjectVersion
1070
     0
  0
VISUALSTYLE
  5
2B
102
{ACAD_REACTORS
330
29
102
}
102
{ACAD_XDICTIONARY
360
1221C
102
}
330
29
100
AcDbVisualStyle
  2
FlatWithEdges
 70
     1
 71
     2
 72
     1
 73
     1
 90
        2
 40
-0.6
 41
30.0
 62
     5
 63
     7
 74
     1
 91
        0
 64
     7
 65
   257
 75
     1
175
     1
 42
1.0
 92
        0
 66
   257
 43
1.0
 76
     1
 77
     6
 78
     2
 67
     7
 79
     5
170
     0
171
     0
290
     0
174
     0
 93
       13
 44
0.0
173
     0
291
     1
 45
0.0
1001
ACAD
1000
AcDbSavedByObjectVersion
1070
     0
  0
VISUALSTYLE
  5
2C
102
{ACAD_REACTORS
330
29
102
}
102
{ACAD_XDICTIONARY
360
1221E
102
}
330
29
100
AcDbVisualStyle
  2
Gouraud
 70
     2
 71
     2
 72
     2
 73
     1
 90
        2
 40
-0.6
 41
30.0
 62
     5
 63
     7
 74
     0
 91
        0
 64
     7
 65
   257
 75
     1
175
     1
 42
1.0
 92
        0
 66
     7
 43
1.0
 76
     1
 77
     6
 78
     2
 67
     7
 79
     5
170
     0
171
     0
290
     0
174
     0
 93
       13
 44
0.0
173
     0
291
     1
 45
0.0
1001
ACAD
1000
AcDbSavedByObjectVersion
1070
     0
  0
VISUALSTYLE
  5
2D
102
{ACAD_REACTORS
330
29
102
}
102
{ACAD_XDICTIONARY
360
12220
102
}
330
29
100
AcDbVisualStyle
  2
GouraudWithEdges
 70
     3
 71
     2
 72
     2
 73
     1
 90
        2
 40
-0.6
 41
30.0
 62
     5
 63
     7
 74
     1
 91
        0
 64
     7
 65
   257
 75
     1
175
     1
 42
1.0
 92
        0
 66
   257
 43
1.0
 76
     1
 77
     6
 78
     2
 67
     7
 79
     5
170
     0
171
     0
290
     0
174
     0
 93
       13
 44
0.0
173
     0
291
     1
 45
0.0
1001
ACAD
1000
AcDbSavedByObjectVersion
1070
     0
  0
VISUALSTYLE
  5
31
102
{ACAD_REACTORS
330
29
102
}
102
{ACAD_XDICTIONARY
360
12222
102
}
330
29
100
AcDbVisualStyle
  2
Hidden
 70
     6
 71
     1
 72
     2
 73
     2
 90
        0
 40
-0.6
 41
-30.0
 62
     5
 63
     7
 74
     2
 91
        2
 64
     7
 65
   257
 75
     2
175
     1
 42
40.0
 92
        0
 66
   257
 43
1.0
 76
     1
 77
     6
 78
     2
 67
     7
 79
     3
170
     0
171
     0
290
     0
174
     0
 93
        1
 44
0.0
173
     0
291
     0
 45
0.0
1001
ACAD
1000
AcDbSavedByObjectVersion
1070
     0
  0
VISUALSTYLE
  5
3F
102
{ACAD_REACTORS
330
29
102
}
102
{ACAD_XDICTIONARY
360
12224
102
}
330
29
100
AcDbVisualStyle
  2
JitterOff
 70
    20
 71
     2
 72
     2
 73
     0
 90
        0
 40
-0.6
 41
-30.0
 62
     5
 63
     7
 74
     1
 91
        4
 64
     7
 65
   257
 75
     1
175
     1
 42
1.0
 92
       10
 66
     7
 43
1.0
 76
     1
 77
     6
 78
     2
 67
     7
 79
     5
170
     0
171
     0
290
     0
174
     0
 93
        1
 44
0.0
173
     0
291
     1
 45
0.0
1001
ACAD
1000
AcDbSavedByObjectVersion
1070
     0
  0
VISUALSTYLE
  5
37
102
{ACAD_REACTORS
330
29
102
}
102
{ACAD_XDICTIONARY
360
12226
102
}
330
29
100
AcDbVisualStyle
  2
Linepattern
 70
    14
 71
     2
 72
     2
 73
     0
 90
        0
 40
-0.6
 41
-30.0
 62
     5
 63
     7
 74
     1
 91
        4
 64
     7
 65
   257
 75
     7
175
     7
 42
1.0
 92
        8
 66
     7
 43
1.0
 76
     1
 77
     6
 78
     2
 67
     7
 79
     5
170
     0
171
     0
290
     0
174
     0
 93
        1
 44
0.0
173
     0
291
     1
 45
0.0
1001
ACAD
1000
AcDbSavedByObjectVersion
1070
     0
  0
VISUALSTYLE
  5
40
102
{ACAD_REACTORS
330
29
102
}
102
{ACAD_XDICTIONARY
360
12228
102
}
330
29
100
AcDbVisualStyle
  2
OverhangOff
 70
    21
 71
     2
 72
     2
 73
     0
 90
        0
 40
-0.6
 41
-30.0
 62
     5
 63
     7
 74
     1
 91
        4
 64
     7
 65
   257
 75
     1
175
     1
 42
1.0
 92
        9
 66
     7
 43
1.0
 76
     1
 77
     6
 78
     2
 67
     7
 79
     5
170
     0
171
     0
290
     0
174
     0
 93
        1
 44
0.0
173
     0
291
     1
 45
0.0
1001
ACAD
1000
AcDbSavedByObjectVersion
1070
     0
  0
VISUALSTYLE
  5
33
102
{ACAD_REACTORS
330
29
102
}
102
{ACAD_XDICTIONARY
360
1222A
102
}
330
29
100
AcDbVisualStyle
  2
Realistic
 70
     8
 71
     2
 72
     2
 73
     0
 90
        2
 40
-0.6
 41
30.0
 62
     5
 63
     7
 74
     0
 91
        0
 64
     7
 65
   257
 75
     1
175
     1
 42
1.0
 92
        8
 66
   257
 43
1.0
 76
     1
 77
     6
 78
     2
 67
     7
 79
     3
170
     0
171
     0
290
     0
174
     0
 93
       13
 44
0.0
173
     0
291
     0
 45
0.0
1001
ACAD
1000
AcDbSavedByObjectVersion
1070
     0
  0
VISUALSTYLE
  5
3E
102
{ACAD_REACTORS
330
29
102
}
102
{ACAD_XDICTIONARY
360
1222C
102
}
330
29
100
AcDbVisualStyle
  2
Shaded
 70
    27
 71
     2
 72
     2
 73
     1
 90
        2
 40
-0.6
 41
30.0
 62
     5
 63
     7
 74
     0
 91
        4
 64
     7
 65
   257
 75
     1
175
     1
 42
1.0
 92
        8
 66
   257
 43
1.0
 76
     1
 77
     6
 78
     2
 67
     8
 79
     3
170
     0
171
     0
290
     0
174
     0
 93
        5
 44
0.0
173
     0
291
     0
 45
0.0
1001
ACAD
1000
AcDbSavedByObjectVersion
1070
     0
  0
VISUALSTYLE
  5
3D
102
{ACAD_REACTORS
330
29
102
}
102
{ACAD_XDICTIONARY
360
1222E
102
}
330
29
100
AcDbVisualStyle
  2
Shaded with edges
 70
    26
 71
     2
 72
     2
 73
     1
 90
        2
 40
-0.6
 41
30.0
 62
     5
 63
     7
 74
     1
 91
       10
 64
     7
 65
   257
 75
     2
175
     1
 42
1.0
 92
        8
 66
   257
 43
1.0
 76
     1
 77
     6
 78
     2
 67
     7
 79
     3
170
     0
171
     0
290
     0
174
     0
 93
        5
 44
0.0
173
     0
291
     0
 45
0.0
1001
ACAD
1000
AcDbSavedByObjectVersion
1070
     0
  0
VISUALSTYLE
  5
3A
102
{ACAD_REACTORS
330
29
102
}
102
{ACAD_XDICTIONARY
360
12230
102
}
330
29
100
AcDbVisualStyle
  2
Shades of Gray
 70
    23
 71
     2
 72
     2
 73
     3
 90
        0
 40
-0.6
 41
-30.0
 62
     5
 63
     7
 74
     2
 91
        2
 64
     7
 65
     7
 75
     1
175
     1
 42
40.0
 92
        8
 66
     7
 43
1.0
 76
     1
 77
     6
 78
     2
 67
     7
 79
     3
170
     0
171
     0
290
     0
174
     0
 93
        1
 44
0.0
173
     0
291
     0
 45
0.0
1001
ACAD
1000
AcDbSavedByObjectVersion
1070
     0
  0
VISUALSTYLE
  5
3B
102
{ACAD_REACTORS
330
29
102
}
102
{ACAD_XDICTIONARY
360
12232
102
}
330
29
100
AcDbVisualStyle
  2
Sketchy
 70
    24
 71
     1
 72
     2
 73
     2
 90
        0
 40
-0.6
 41
-30.0
 62
     5
 63
     7
 74
     2
 91
        2
 64
     7
 65
     7
 75
     1
175
     1
 42
40.0
 92
       11
 66
     7
 43
1.0
 76
     1
 77
     6
 78
     2
 67
     7
 79
     6
170
     0
171
     0
290
     0
174
     0
 93
        1
 44
0.0
173
     0
291
     0
 45
0.0
1001
ACAD
1000
AcDbSavedByObjectVersion
1070
     0
  0
VISUALSTYLE
  5
36
102
{ACAD_REACTORS
330
29
102
}
102
{ACAD_XDICTIONARY
360
12234
102
}
330
29
100
AcDbVisualStyle
  2
Thicken
 70
    13
 71
     2
 72
     2
 73
     0
 90
        0
 40
-0.6
 41
-30.0
 62
     5
 63
     7
 74
     1
 91
        4
 64
     7
 65
   257
 75
     1
175
     1
 42
1.0
 92
       12
 66
     7
 43
1.0
 76
     1
 77
     6
 78
     2
 67
     7
 79
     5
170
     0
171
     0
290
     0
174
     0
 93
        1
 44
0.0
173
     0
291
     1
 45
0.0
1001
ACAD
1000
AcDbSavedByObjectVersion
1070
     0
  0
VISUALSTYLE
  5
30
102
{ACAD_REACTORS
330
29
102
}
102
{ACAD_XDICTIONARY
360
12236
102
}
330
29
100
AcDbVisualStyle
  2
Wireframe
 70
     5
 71
     0
 72
     2
 73
     0
 90
        0
 40
-0.6
 41
-30.0
 62
     5
 63
     7
 74
     1
 91
        4
 64
     7
 65
   257
 75
     1
175
     1
 42
1.0
 92
        0
 66
   257
 43
1.0
 76
     1
 77
     6
 78
     2
 67
     7
 79
     3
170
     0
171
     0
290
     0
174
     0
 93
        1
 44
0.0
173
     0
291
     0
 45
0.0
1001
ACAD
1000
AcDbSavedByObjectVersion
1070
     0
  0
VISUALSTYLE
  5
3C
102
{ACAD_REACTORS
330
29
102
}
102
{ACAD_XDICTIONARY
360
12238
102
}
330
29
100
AcDbVisualStyle
  2
X-Ray
 70
    25
 71
     2
 72
     2
 73
     1
 90
        1
 40
0.5
 41
-30.0
 62
     5
 63
     7
 74
     1
 91
        0
 64
     7
 65
   257
 75
     1
175
     1
 42
1.0
 92
        8
 66
     7
 43
1.0
 76
     1
 77
     6
 78
     2
 67
     7
 79
     3
170
     0
171
     0
290
     0
174
     0
 93
       13
 44
0.0
173
     0
291
     0
 45
0.0
1001
ACAD
1000
AcDbSavedByObjectVersion
1070
     0
  0
XRECORD
  5
121F9
102
{ACAD_REACTORS
330
121F8
102
}
330
121F8
100
AcDbXrecord
280
     1
340
62
  0
XRECORD
  5
121FA
102
{ACAD_REACTORS
330
121F8
102
}
330
121F8
100
AcDbXrecord
280
     1
340
10
  0
DICTIONARYVAR
  5
1215A
102
{ACAD_REACTORS
330
12156
102
}
330
12156
100
DictionaryVariables
280
     0
  1
1:1
  0
DICTIONARYVAR
  5
12158
102
{ACAD_REACTORS
330
12156
102
}
330
12156
100
DictionaryVariables
280
     0
  1
Standard
  0
DICTIONARYVAR
  5
12157
102
{ACAD_REACTORS
330
12156
102
}
330
12156
100
DictionaryVariables
280
     0
  1
Standard
  0
DICTIONARYVAR
  5
121B2
102
{ACAD_REACTORS
330
12156
102
}
330
12156
100
DictionaryVariables
280
     0
  1
Imperial24
  0
DICTIONARYVAR
  5
121B3
102
{ACAD_REACTORS
330
12156
102
}
330
12156
100
DictionaryVariables
280
     0
  1
Imperial24
  0
DICTIONARYVAR
  5
121F6
102
{ACAD_REACTORS
330
12156
102
}
330
12156
100
DictionaryVariables
280
     0
  1
1
  0
DICTIONARYVAR
  5
121F7
102
{ACAD_REACTORS
330
12156
102
}
330
12156
100
DictionaryVariables
280
     0
  1
0
  0
DICTIONARYVAR
  5
1215C
102
{ACAD_REACTORS
330
12156
102
}
330
12156
100
DictionaryVariables
280
     0
  1
1
  0
DICTIONARYVAR
  5
1215D
102
{ACAD_REACTORS
330
12156
102
}
330
12156
100
DictionaryVariables
280
     0
  1
15
  0
DICTIONARYVAR
  5
1215B
102
{ACAD_REACTORS
330
12156
102
}
330
12156
100
DictionaryVariables
280
     0
  1
0
  0
DICTIONARYVAR
  5
12159
102
{ACAD_REACTORS
330
12156
102
}
330
12156
100
DictionaryVariables
280
     0
  1
0
  0
DICTIONARYVAR
  5
121F5
102
{ACAD_REACTORS
330
12156
102
}
330
12156
100
DictionaryVariables
280
     0
  1
2
  0
DICTIONARY
  5
1223B
102
{ACAD_REACTORS
330
1223A
102
}
330
1223A
100
AcDbDictionary
281
     1
  0
DICTIONARY
  5
1223C
102
{ACAD_REACTORS
330
1223A
102
}
330
1223A
100
AcDbDictionary
281
     1
  3
8796078885352
350
1223D
  3
8796078885368
350
1223E
  3
8796078885384
350
1223F
  3
8796078885400
350
12240
  3
8796078885416
350
12241
  3
8796078885432
350
12242
  0
DICTIONARY
  5
121F3
330
12163
100
AcDbDictionary
280
     1
281
     1
  3
ACAD_XREC_ROUNDTRIP
360
121FE
  0
DICTIONARY
  5
121FF
330
6E
100
AcDbDictionary
280
     1
281
     1
  3
ADSK_XREC_LAYOUTTHUMBNAIL
360
12200
  0
DICTIONARY
  5
12201
330
19
100
AcDbDictionary
280
     1
281
     1
  3
ACAD_XREC_ROUNDTRIP
360
12202
  0
DICTIONARY
  5
12203
330
11
100
AcDbDictionary
280
     1
281
     1
  3
ACAD_XREC_ROUNDTRIP
360
12204
  0
DICTIONARY
  5
12205
330
21
100
AcDbDictionary
280
     1
281
     1
  3
ACAD_XREC_ROUNDTRIP
360
12206
  0
DICTIONARY
  5
12207
330
66
100
AcDbDictionary
280
     1
281
     1
  3
ACAD_XREC_ROUNDTRIP
360
12208
  0
DICTIONARY
  5
121F1
330
12161
100
AcDbDictionary
280
     1
281
     1
  3
ACAD_XREC_ROUNDTRIP
360
12209
  0
DICTIONARY
  5
1220A
330
2F
100
AcDbDictionary
280
     1
281
     1
  3
ACAD_XREC_ROUNDTRIP
360
1220B
  0
DICTIONARY
  5
1220C
330
2E
100
AcDbDictionary
280
     1
281
     1
  3
ACAD_XREC_ROUNDTRIP
360
1220D
  0
DICTIONARY
  5
1220E
330
35
100
AcDbDictionary
280
     1
281
     1
  3
ACAD_XREC_ROUNDTRIP
360
1220F
  0
DICTIONARY
  5
12210
330
39
100
AcDbDictionary
280
     1
281
     1
  3
ACAD_XREC_ROUNDTRIP
360
12211
  0
DICTIONARY
  5
12212
330
32
100
AcDbDictionary
280
     1
281
     1
  3
ACAD_XREC_ROUNDTRIP
360
12213
  0
DICTIONARY
  5
12214
330
34
100
AcDbDictionary
280
     1
281
     1
  3
ACAD_XREC_ROUNDTRIP
360
12215
  0
DICTIONARY
  5
12216
330
41
100
AcDbDictionary
280
     1
281
     1
  3
ACAD_XREC_ROUNDTRIP
360
12217
  0
DICTIONARY
  5
12218
330
38
100
AcDbDictionary
280
     1
281
     1
  3
ACAD_XREC_ROUNDTRIP
360
12219
  0
DICTIONARY
  5
1221A
330
2A
100
AcDbDictionary
280
     1
281
     1
  3
ACAD_XREC_ROUNDTRIP
360
1221B
  0
DICTIONARY
  5
1221C
330
2B
100
AcDbDictionary
280
     1
281
     1
  3
ACAD_XREC_ROUNDTRIP
360
1221D
  0
DICTIONARY
  5
1221E
330
2C
100
AcDbDictionary
280
     1
281
     1
  3
ACAD_XREC_ROUNDTRIP
360
1221F
  0
DICTIONARY
  5
12220
330
2D
100
AcDbDictionary
280
     1
281
     1
  3
ACAD_XREC_ROUNDTRIP
360
12221
  0
DICTIONARY
  5
12222
330
31
100
AcDbDictionary
280
     1
281
     1
  3
ACAD_XREC_ROUNDTRIP
360
12223
  0
DICTIONARY
  5
12224
330
3F
100
AcDbDictionary
280
     1
281
     1
  3
ACAD_XREC_ROUNDTRIP
360
12225
  0
DICTIONARY
  5
12226
330
37
100
AcDbDictionary
280
     1
281
     1
  3
ACAD_XREC_ROUNDTRIP
360
12227
  0
DICTIONARY
  5
12228
330
40
100
AcDbDictionary
280
     1
281
     1
  3
ACAD_XREC_ROUNDTRIP
360
12229
  0
DICTIONARY
  5
1222A
330
33
100
AcDbDictionary
280
     1
281
     1
  3
ACAD_XREC_ROUNDTRIP
360
1222B
  0
DICTIONARY
  5
1222C
330
3E
100
AcDbDictionary
280
     1
281
     1
  3
ACAD_XREC_ROUNDTRIP
360
1222D
  0
DICTIONARY
  5
1222E
330
3D
100
AcDbDictionary
280
     1
281
     1
  3
ACAD_XREC_ROUNDTRIP
360
1222F
  0
DICTIONARY
  5
12230
330
3A
100
AcDbDictionary
280
     1
281
     1
  3
ACAD_XREC_ROUNDTRIP
360
12231
  0
DICTIONARY
  5
12232
330
3B
100
AcDbDictionary
280
     1
281
     1
  3
ACAD_XREC_ROUNDTRIP
360
12233
  0
DICTIONARY
  5
12234
330
36
100
AcDbDictionary
280
     1
281
     1
  3
ACAD_XREC_ROUNDTRIP
360
12235
  0
DICTIONARY
  5
12236
330
30
100
AcDbDictionary
280
     1
281
     1
  3
ACAD_XREC_ROUNDTRIP
360
12237
  0
DICTIONARY
  5
12238
330
3C
100
AcDbDictionary
280
     1
281
     1
  3
ACAD_XREC_ROUNDTRIP
360
12239
  0
XRECORD
  5
1223D
102
{ACAD_REACTORS
330
1223C
102
}
330
1223C
100
AcDbXrecord
280
     1
  1
AcDb_Thumbnail_Schema
102
{ATTRRECORD
341
1223F
  2
AcDbDs::TreatedAsObjectData
280
     1
291
     1
102
ATTRRECORD}
102
{ATTRRECORD
341
12240
  2
AcDbDs::Legacy
280
     1
291
     1
102
ATTRRECORD}
  2
AcDbDs::ID
280
    10
 91
        8
102
{ATTRRECORD
341
12241
  2
AcDs:Indexable
280
     1
291
     1
102
ATTRRECORD}
102
{ATTRRECORD
341
12242
  2
AcDbDs::HandleAttribute
280
     7
282
     1
102
ATTRRECORD}
  2
Thumbnail_Data
280
    15
 91
        0
  0
XRECORD
  5
1223E
102
{ACAD_REACTORS
330
1223C
102
}
330
1223C
100
AcDbXrecord
280
     1
  1
AcDb3DSolid_ASM_Data
102
{ATTRRECORD
341
1223F
  2
AcDbDs::TreatedAsObjectData
280
     1
291
     1
102
ATTRRECORD}
102
{ATTRRECORD
341
12240
  2
AcDbDs::Legacy
280
     1
291
     1
102
ATTRRECORD}
  2
AcDbDs::ID
280
    10
 91
        8
102
{ATTRRECORD
341
12241
  2
AcDs:Indexable
280
     1
291
     1
102
ATTRRECORD}
102
{ATTRRECORD
341
12242
  2
AcDbDs::HandleAttribute
280
     7
282
     1
102
ATTRRECORD}
  2
ASM_Data
280
    15
 91
        0
  0
XRECORD
  5
1223F
102
{ACAD_REACTORS
330
1223C
102
}
330
1223C
100
AcDbXrecord
280
     1
  1
AcDbDs::TreatedAsObjectDataSchema
  2
AcDbDs::TreatedAsObjectData
280
     1
 91
        0
  0
XRECORD
  5
12240
102
{ACAD_REACTORS
330
1223C
102
}
330
1223C
100
AcDbXrecord
280
     1
  1
AcDbDs::LegacySchema
  2
AcDbDs::Legacy
280
     1
 91
        0
  0
XRECORD
  5
12241
102
{ACAD_REACTORS
330
1223C
102
}
330
1223C
100
AcDbXrecord
280
     1
  1
AcDbDs::IndexedPropertySchema
  2
AcDs:Indexable
280
     1
 91
        0
  0
XRECORD
  5
12242
102
{ACAD_REACTORS
330
1223C
102
}
330
1223C
100
AcDbXrecord
280
     1
  1
AcDbDs::HandleAttributeSchema
  2
AcDbDs::HandleAttribute
280
     7
 91
        1
284
     1
  0
XRECORD
  5
121FE
102
{ACAD_REACTORS
330
121F3
102
}
330
121F3
100
AcDbXrecord
280
     1
102
DISPLAYNAME
  1
Imperial24
102
FLAGS
 90
        0
  0
XRECORD
  5
12200
102
{ACAD_REACTORS
330
121FF
102
}
330
121FF
100
AcDbXrecord
280
     1
310
280000000001000083000000010008000000000000830000010000000100000000010000000000003028216600000052C8C8C85600000050000000730000003200000031000000500000006F0000004F00000032330000466600006699000052CC000056FF00005000330073333300326633003199330050CC33006FFF3300
310
3200660018336600006666000099660000CC660000FF66000000990000339900006699000099990000CC990000FF99000000CC000033CC000066CC000099CC0000CCCC0000FFCC000000FF000033FF000066FF000099FF0000CCFF0000FFFF00010000331433003354660033539900336FCC003374FF003330003333303333
310
33726633337099333370CC333330FF3333010066331233663354666633539966336FCC663374FF66333000993330339933726699337099993331CC993300FF99330000CC330033CC330066CC330099CC3300CCCC3300FFCC330000FF330033FF330066FF330099FF3300CCFF3300FFFF330000006600330066006600660099
310
006600CC006600FF00660000336600333366006633660099336666CC336652FF33665600666650336666736666663299666631CC666650FF66666F0099664F339966336699664699996666CC996652FF99665600CC665033CC667366CC663299CC6631CCCC6650FFCC666F00FF663333FF661866FF660099FF6600CCFF6600
310
FFFF660000009900330099006600990099009900CC009900FF00990000339900333399006633990099339900CC339900FF33990000669900336699006666990099669900CC669900FF66990000999901339999146699995499999953CC99996FFF99997400CC993033CC993066CC997299CC9970CCCC9970FFCC993400FF99
310
0133FF991266FF995499FF9953CCFF996FFFFF99740000CC303300CC306600CC729900CC70CC00CC35FF00CC000033CC003333CC006633CC009933CC00CC33CC00FF33CC000066CC003366CC006666CC009966CC00CC66CC00FF66CC000099CC003399CC006699CC009999CC00CC99CC00FF99CC0000CCCC0033CCCC0066CC
310
CC0099CCCC00CCCCCC66FFCCCC5200FFCC5633FFCC5066FFCC7399FFCC32CCFFCC31FFFFCC500000FF6F3300FF4F6600FF339900FF46CC00FF66FF00FF520033FF563333FF506633FF739933FF32CC33FF31FF33FF500066FF6F3366FF336666FF5A9966FF00CC66FF14FF66FF540099FF533399FF6F6699FF749999FF30CC
310
99FF30FF99FF7200CCFF7033CCFF7066CCFF3799CCFF01CCCCFF12FFCCFF5400FFFF5333FFFF6F66FFFF7499FFFF30CCFFFF30FFFFFF72000000700D0D0D381A1A1A00282828003535356643434352505050565D5D5D506B6B6B73787878328686863193939350A1A1A16FAEAEAE4FBBBBBB33C9C9C946D6D6D666E4E4E452
310
F1F1F156FFFFFF50000000730000003200000031000000500000006F000000330000008C00000000000000F0000000FF00000000000000000000000000000000000000000000000000000000000000000000000000000000000000000000000000000000000000000000000000000000000000000000000000000000000000
310
00000000000000000000000000000000000000000000000000000000000000000000000000000000000000000000000000000000000000000000000000000000000000000000000000000000000000000000000000000000000000000000000000000000000000000000000000000000000000000000F50000000000000000
310
000000000000000000000000000000000000000000000000000000000000000000000000000000000000000000000000000000000000000000000000000000000000000000000000000000000000000000000000000000000000000000000000000000000000000000000000000000F5F5F5F5F5F5F5F5F5F5F5F5F5F5F5F5
310
F5F5F5F5F5F5F5F5F5F5F5F5F5F5F5F5F5F5F5F5F5F5F5F5F5F5F5F5F5F5F5F5F5F5F5F5F5F5F5F5F5F5F5F5F5F5F5F5F5F5F5F5F5F5F5F5F5F5F5F5F5F5F5F5F5F5F5F5F5F5F5F5F5F5F5F5F5F5F5F5F5F5F5F5F5F5F5F5F5F5F5F5F5F5F5F5F5F5F5F5F5F5F5F5F5F5F5F5F5F5F5F5F5F5F5F5F5F5F5F500000000000000
310
0000000000000000000000000000000000000000000000000000000000000000000000000000000000000000000000000000000000000000000000000000000000000000000000000000000000000000000000000000000000000000000000000000000000000000000000000000000000F500000000000000000000000000
310
00000000000000000000000000000000000000000000000000000000000000000000000000000000000000000000000000000000000000000000000000000000000000000000F500F5000000000000000000000000000000000000000000000000000000000000000000F5F500000000000000000000000000F5F500000000
310
00000000000000000000000000000000000000000000000000000000000000000000000000000000000000000000000000000000000000000000000000000000000000000000000000000000000000000000000000000000000000000000000000000000000000000000000000000000000000F5F5F5F5F5F5F5F5F5F5F5F5
310
F5F5F5F5F5F5F5F5F5F5F5F5F5F5F5F5F5F5F5F5F5F5F5F5F5F5F5F5F5F5F5F5F5F5F5F5F5F5F5F5F5F5F5F5F5F5F5F5F5F5F5F5F5F5F5F5F5F5F5F5F5F5F5F5F5F5F5F5F5F5F5F5F500F50000000000000000000000000000000000000000F5F500000000000000000000000000F5F50000000000000000000000F5F50000
310
000000000000000000000000000000000000000000000000000000000000000000000000000000000000000000000000000000000000000000000000000000000000000000000000000000000000000000000000000000000000000000000000000000000000000000000000000000000000000000F5000000000000000000
310
000000000000000000000000F50000000000000000000000000000000000000000000000000000F50000000000000000000000000000000000F5F5000000F5000000F5F50000000000000000F5000000000000000000000000000000000000F5F500000000000000F5F500000000000000000000000000000000000000F5F5
310
0000000000000000000000000000000000000000000000000000000000000000000000000000000000000000000000000000000000000000000000000000000000000000000000000000000000000000000000000000000000000000000000000000000000000000000000000000000000000000000000F500000000000000
310
0000000000000000000000000000F5F5F500000000000000000000000000000000000000000000F5F5F50000000000000000000000000000000000F5000000F5F5F5F500F5F50000000000000000F500000000000000000000000000000000F5F50000000000000000000000F5F50000000000000000000000000000000000
310
F5F5000000000000000000000000000000000000000000000000000000000000000000000000000000000000000000000000000000000000000000000000000000000000000000000000000000000000000000000000000000000000000000000000000000000000000000000000000000000000F5F5F5F5F5F50000000000
310
00000000000000000000000000000000F50000000000000000000000000000000000000000000000000000F50000000000000000000000000000000000F500F5F5F500F5F50000F50000000000000000F500000000000000000000000000000000000000000000000000000000000000F5F5000000000000F5000000000000
310
0000F5F5000000000000000000000000000000000000000000000000000000000000000000000000000000000000000000000000000000000000000000000000000000000000000000000000000000000000000000000000000000000000000000000000000000000000000000000000000000000000F500000000F5000000
310
000000000000000000000000000000000000F50000000000000000000000000000000000000000000000000000F50000000000000000000000000000000000F500F5F5000000F50000F500000000F5F5F5F5F500000000000000000000000000000000000000000000000000F500000000000000F5F50000000000F5000000
310
00000000F5F5000000000000000000000000000000000000000000000000000000000000000000000000000000000000000000000000000000000000000000000000000000000000000000000000000000000000000000000000000000000000000000000000000000000000000000000000000000000000F500000000F500
310
0000000000000000000000000000000000000000F50000000000000000000000000000000000000000000000000000F50000000000000000000000000000000000F500F5F5000000F50000F50000000000F5F500F500000000000000000000000000000000000000F5F50000000000F5F500000000000000F50000000000F5
310
000000000000F5F5000000000000000000000000000000000000000000000000000000000000000000000000000000000000000000000000000000000000000000000000000000000000000000000000000000000000000000000000000000000000000000000000000000000000000000000000000000000000F500000000
310
F5000000000000000000000000000000000000000000F50000000000000000000000000000000000000000000000000000F50000000000000000000000000000000000F50000F5F5F5F5F50000F50000000000000000F500000000000000000000000000000000F5F5F5000000000000000000F5F5F500000000F500000000
310
00F5000000000000F5F5000000000000000000000000000000000000000000000000000000000000000000000000000000000000000000000000000000000000000000000000000000000000000000000000000000000000000000000000000000000000000000000000000000000000000000000000000000000000F50000
310
0000F5000000000000000000000000000000000000000000F50000000000000000000000000000000000000000000000000000F5000000000000000000000000000000000000F50000F5F5F50000F5000000000000000000F500000000000000000000000000000000000000000000000000000000000000F500000000F500
310
00000000F50000000000F5F5000000000000000000000000000000000000000000000000000000000000000000000000000000000000000000000000000000000000000000000000000000000000000000000000000000000000000000000000000000000000000000000000000000000000000000000000000000000000F5
310
00000000F5000000000000000000000000000000000000000000F50000000000000000000000000000000000000000000000000000F5000000000000000000000000000000000000F50000000000F5F500000000000000000000F500000000000000000000000000000000000000000000000000000000000000F500000000
310
00000000000000F500000000F5F50000000000000000000000000000000000000000000000000000000000000000000000000000000000000000000000000000000000000000000000000000000000000000000000000000000000000000000000000000000000000000000000000000000000000000000000000000000000
310
00F500F5F5F5F5000000000000000000000000000000000000000000F50000000000000000000000000000000000000000000000000000F500000000000000000000000000000000000000F5F5F5F5F5000000000000000000000000F50000000000000000000000000000000000000000000000000000000000000000F500
310
000000000000000000F500000000F5F5000000000000000000000000000000000000000000000000000000000000000000000000000000000000000000000000000000000000000000000000000000000000000000000000000000000000000000000000000000000000000000000000000000000000000000000000000000
310
000000F500000000F5000000000000000000000000000000000000000000F50000000000000000000000000000000000000000000000000000F5000000000000000000000000000000000000000000000000000000000000000000000000F50000000000000000000000000000000000000000000000000000000000000000
310
000000000000000000000000F5000000F5F500000000000000000000000000000000000000000000000000000000000000000000000000000000000000000000000000000000000000000000000000000000000000000000000000000000000000000000000000000000000000000000000000000000000000000000000000
310
0000000000F500000000F5000000000000000000000000000000000000000000F50000000000000000000000000000000000000000000000000000F5000000000000000000000000000000000000000000000000000000000000000000000000F5000000000000000000000000000000000000000000000000000000000000
310
000000000000000000000000000000000000F5F50000000000000000000000000000000000000000000000000000000000000000000000000000000000000000000000000000000000000000000000000000000000000000000000000000000000000000000000000000000000000000000000000000000000000000000000
310
00000000000000F500000000F5000000000000000000000000000000000000000000F50000000000000000000000000000000000000000000000000000F50000000000F5F5F5F5F5F5F5F5F5F5F5F5F5F50000000000000000000000000000000000F500000000000000000000000000000000000000000000000000000000
310
0000000000000000000000F50000000000000000F5F5000000000000000000000000000000000000000000000000000000000000000000000000000000000000000000000000000000000000000000000000000000000000000000000000000000000000000000000000000000000000000000000000000000000000000000
310
000000000000000000F500000000F5000000000000000000000000000000000000000000F50000000000000000000000000000000000000000000000000000F50000000000F5000000000000000000000000F50000000000000000000000000000000000F50000000000000000000000000000000000000000000000000000
310
000000000000000000F5000000F50000000000000000F5F500000000000000000000000000000000000000000000000000000000000000000000000000000000000000000000000000000000000000000000000000000000000000000000000000000000000000000000000000000000000000000000000000000000000000
310
0000000000000000000000F500000000F5000000000000000000000000000000000000000000F500000000F5F5F5F5000000000000000000000000000000000000F50000000000F5000000000000000000000000F50000000000000000000000000000000000F5000000000000000000000000000000000000000000000000
310
0000000000000000000000F5000000F50000000000F50000F5F50000000000000000000000000000000000000000000000000000000000000000000000000000000000000000000000000000000000000000000000000000000000000000000000000000000000000000000000000000000000000000000000000000000000
310
00000000000000000000000000F500000000F5000000000000000000000000000000000000000000F500000000F5F5F5F5F50000000000000000000000000000000000F50000000000F5000000000000000000000000F50000000000000000000000000000000000F500000000000000000000000000000000000000000000
310
F500F500000000000000000000F5000000F50000000000F50000F5F5000000000000000000000000000000000000000000000000000000000000000000000000000000000000000000000000000000000000000000000000000000000000000000000000000000000000000000000000000000000000000000000000000000
310
000000000000000000000000000000F500000000F5000000000000000000000000000000000000000000F5000000F5F50000F5F50000000000000000000000000000000000F500000000F5F5000000000000000000000000F50000000000000000000000000000000000F50000000000000000000000000000000000000000
310
00F5000000F5000000000000000000F5000000F50000000000F50000F5F500000000000000000000000000000000000000000000000000000000000000000000000000000000000000000000000000000000000000000000000000000000000000000000000000000000000000000000000000000000000000000000000000
310
0000000000000000000000000000000000F500000000F5000000000000000000000000000000000000000000F500000000F50000F5F5F500F5F5F5F50000000000000000000000F5000000F5F5F5000000000000000000000000F5F5F5F5F5F5F5F5F5F5F5F5F5F5F5F5F5F5F5000000000000000000000000000000000000
310
00000000F50000F5000000000000000000F5F5F5F5F50000F5F5F5F50000F5F50000000000000000000000000000000000000000000000000000000000000000000000000000000000000000000000000000000000000000000000000000000000000000000000000000000000000000000000000000000000000000000000
310
00000000000000000000000000000000000000F500000000F5000000000000000000000000000000000000000000F500000000F5F5F5F5F5F500F50000F50000000000000000000000F50000000000F5000000000000000000000000F500000000000000000000000000000000000000000000000000000000000000000000
310
000000000000F500F500000000000000000000F5000000F50000000000F50000F5F5000000000000000000000000000000000000000000000000000000000000000000000000000000000000000000000000000000000000000000000000000000000000000000000000000000000000000000000000000000000000000000
310
000000000000000000000000000000000000000000F500000000F5000000000000000000000000000000000000000000F5F5F5F5F5F5F5F5F500F5F5F5F5F5F5000000F5F5F50000000000F50000000000F5000000000000000000000000F50000000000000000000000000000000000000000000000000000000000000000
310
000000000000000000000000000000000000000000F5000000F50000000000F50000F5F500000000000000000000000000000000000000000000000000000000000000000000000000000000000000000000000000000000000000000000000000000000000000000000000000000000000000000000000000000000000000
310
0000000000000000000000000000000000000000000000F500000000F500000000000000000000000000000000000000000000000000000000000000F5F5000000F50000F5F5F5F5F500000000F50000000000F5000000000000000000000000F5000000000000000000000000000000000000000000000000000000000000
310
00000000000000000000000000000000000000000000F500000000F50000000000F50000F5F50000000000000000000000000000000000000000000000000000000000000000000000000000000000000000000000000000000000000000000000000000000000000000000000000000000000000000000000000000000000
310
00000000000000000000000000000000000000000000000000F500000000F50000000000000000000000000000000000000000000000F500F5F5F5F5F5F5F5F5F5F500F50000F5F50000F5F5000000F50000000000F5000000000000000000000000F500000000000000000000000000000000000000000000000000000000
310
000000000000000000000000000000000000000000000000F5000000F50000000000F5000000F5F5000000000000000000000000000000000000000000000000000000000000000000000000000000000000000000000000000000000000000000000000000000000000000000000000000000000000000000000000000000
310
000000000000000000000000000000000000000000000000000000F500000000F50000000000000000000000000000000000000000000000F5F50000000000000000000000F50000F5F50000F5F5000000F50000000000F5F5F5F5F5F5F5F5F5F5F5F5F5F50000000000000000000000000000000000000000000000000000
310
000000000000000000000000000000000000000000000000000000000000F50000000000F5000000F5F500000000000000000000000000000000000000000000000000000000000000000000000000000000000000000000000000000000000000000000000000000000000000000000000000000000000000000000000000
310
0000000000000000000000000000000000000000000000000000000000F500000000F5000000000000000000000000000000000000000000000000000000000000000000000000F50000F5F5F5F5F5F5000000F5000000000000000000000000000000000000F5000000000000000000000000000000000000000000000000
310
0000000000000000000000000000000000000000000000000000000000000000000000000000F5000000F5F50000000000000000000000000000000000000000000000000000000000000000000000000000000000000000000000000000000000000000000000000000000000000000000000000000000000000000000000
310
00000000000000000000000000000000000000000000000000000000000000F500000000F500000000000000000000000000000000000000000000000000000000000000000000000000F5F500F5F5F5F5F5F5F5F500000000000000000000000000000000000000F500000000000000000000000000000000000000000000
310
00000000000000000000000000000000000000000000000000000000000000000000000000000000F5000000F5F5000000000000000000000000000000000000000000000000000000000000000000000000000000000000000000000000000000000000000000000000000000000000000000000000000000000000000000
310
000000000000000000000000000000000000000000000000000000000000000000F500000000F5000000000000000000000000000000000000000000000000000000000000000000000000000000000000000000000000000000000000000000F5F5F5F5000000000000F50000000000000000000000000000000000000000
310
000000000000000000000000000000000000000000000000000000000000F5000000000000000000000000000000F5F500000000000000000000000000000000000000000000000000000000000000000000000000000000000000000000000000000000000000000000000000000000000000000000000000000000000000
310
0000000000000000000000000000000000000000000000000000000000000000000000F500000000F50000000000000000000000000000000000000000000000000000000000000000000000000000000000000000000000000000000000000000F500000000F5F5F5F50000F5000000000000000000000000000000000000
310
00000000000000000000000000000000F500000000000000000000000000F5F500000000000000000000000000000000F5F50000000000000000000000000000000000000000000000000000000000000000000000000000000000000000000000000000000000000000000000000000000000000000000000000000000000
310
00000000000000000000000000000000000000000000000000000000000000000000000000F500000000F500000000000000000000000000000000000000000000000000000000000000000000000000000000000000000000000000000000000000F500000000F50000F5F50000F500000000000000000000000000000000
310
00000000000000000000000000000000000000F5F5000000000000000000F5F50000000000F5000000000000000000000000F5F5000000000000000000000000000000000000000000000000000000000000000000000000000000000000000000000000000000000000000000000000000000000000000000000000000000
310
000000000000000000000000000000000000000000000000000000000000000000000000000000F500000000F500000000000000000000000000000000000000000000000000000000000000000000000000000000000000000000000000000000000000F50000F5F5F5F5F500F50000F50000000000000000000000000000
310
0000000000000000000000000000000000000000000000F5F5000000F5F5F5F5000000000000F500000000000000000000000000F5F500000000000000000000000000000000000000000000000000000000000000000000000000000000000000000000000000000000000000000000000000000000000000000000000000
310
0000000000000000000000000000000000000000000000000000000000000000000000000000000000F500000000F500000000000000000000000000000000000000000000000000000000000000000000000000000000000000000000000000000000000000F500F5F5000000F500F5F500F5000000000000000000000000
310
0000000000000000000000000000000000000000000000000000000000000000000000000000F5F50000000000000000000000000000F5F50000000000000000000000000000000000000000000000000000000000000000000000000000000000000000000000000000000000000000000000000000000000000000000000
310
00000000000000000000000000000000000000000000000000000000000000000000000000000000000000F500F5F5F5F500000000000000000000000000000000000000000000000000000000000000000000000000000000000000000000000000000000000000F500F5F5000000F500F5F500F5F5F5F5F5F5F5F5F5F5F5
310
F5F5F5F5F5F5F5F5F5F5F5F5F5F5F5F5F5F5F5F5F5F5F5F5F5F5F5F5F5F5F5F5F5F5F5F5F5F5F5F5F5F5F5F5F5F5F5F5F5F5F5F5F5F5F5F5F5F5000000000000000000000000000000000000000000000000000000000000000000000000000000000000000000000000000000000000000000000000000000000000000000
310
000000000000000000000000000000000000000000000000000000000000000000000000000000000000000000F500F5F500F500000000000000000000000000000000000000000000000000000000000000000000000000000000000000000000000000000000000000F5F500F5000000F500F5F500000000000000000000
310
000000000000000000F50000000000000000000000000000000000F5F500000000000000000000F500000000000000000000F500000000000000F5F500000000000000000000000000000000000000000000000000000000000000000000000000000000000000000000000000000000000000000000000000000000000000
310
0000000000000000000000000000000000000000000000000000000000000000000000000000000000000000000000F500000000F500000000000000000000000000000000000000000000000000000000000000000000000000000000000000000000000000000000000000F5F500F5F5F5F5F500F5F50000000000000000
310
0000000000000000000000F500000000000000000000000000000000000000F5F5F50000000000F5F500000000000000000000F50000000000000000F5F50000000000000000000000000000000000000000000000000000000000000000000000000000000000000000000000000000000000000000000000000000000000
310
00000000000000000000000000000000000000000000000000000000000000000000000000000000000000000000000000F500000000F500000000000000000000000000000000000000000000000000000000000000000000000000000000000000000000000000000000000000F5F5F500F5F5F500F5F5F5000000000000
310
00000000000000000000000000F50000000000000000000000000000000000000000000000000000000000000000000000000000F5000000000000000000F5F5000000000000000000000000000000000000000000000000000000000000000000000000000000000000000000000000000000000000000000000000000000
310
000000000000000000000000000000000000000000000000000000000000000000000000000000000000000000000000000000F500000000F500000000000000000000000000000000000000000000000000000000000000000000000000000000000000000000000000000000000000F5F5F50000000000F5F5F500000000
310
000000000000000000000000000000F5F500000000000000000000000000000000000000000000000000000000000000000000000000F500000000000000F500F5F500000000000000000000000000000000000000000000000000000000000000000000000000000000000000000000000000000000000000000000000000
310
0000000000000000000000000000000000000000000000000000000000000000000000000000000000000000000000000000000000F500000000F5F5F5F5F5F5F5F5F5F5F5F5F5F5F5F5F5F5F5F5F5F5F5F5F5F5F5F5F5F5F5F5F5F5F5F5F5F5F5F5F5F5F5F5F5F5F5F5F5F5F5F5F5F5F5F5F5F5F5F5F5F5F5F5F5F5F5F5F5
310
F5F5F5F5F5F5F5F5F5F5F5F5F5F5F5F500F5F5000000000000000000000000000000000000000000000000000000000000000000000000F50000000000000000F5F5F5F5F5F5000000000000000000000000000000000000000000000000000000000000000000000000000000000000000000000000000000000000000000
310
00000000000000000000000000000000000000000000000000000000000000000000000000000000000000000000000000000000000000F500000000F5F5000000000000000000000000000000000000000000000000000000000000000000000000000000000000000000000000000000000000F500000000000000000000
310
000000000000000000000000000000000000F5F5F5F5F5F5F5F5F5F5F5F5F5F5F5F5F5F5F5F5F5F5F5F5F5F5F5F5F5F5F5F5F5F5F5F5F5F5F5F5F5F5F5F5F5F5F5F5F5F5F5F5F5F500000000000000000000000000000000000000000000000000000000000000000000000000000000000000000000000000000000000000
310
000000000000000000000000000000000000000000000000000000000000000000000000000000000000000000000000000000000000000000F5F5F5F5F5F50000000000000000F500000000000000F50000000000000000000000000000000000000000000000000000000000000000000000000000000000000000000000
310
000000000000000000000000000000000000000000000000000000000000000000000000000000000000000000F5F5F5F5F5F5F5F5F5F5F5F5F5F5F5F5F5F5F5F5F5F5F5F5F5F5F500000000000000000000000000000000000000000000000000000000000000000000000000000000000000000000000000000000000000
310
00000000000000000000000000000000000000000000000000000000000000000000000000000000000000000000000000000000000000000000000000000000F50000F5F500000000F5F500F500000000F5F5000000000000000000000000000000000000000000000000000000000000000000F50000000000F5F5F5F5F5
310
F5F5F5F5F500000000000000F5F5F50000000000F500000000000000000000000000000000000000000000000000000000000000000000F5F50000000000F5F500000000F5F50000F5F50000000000000000000000000000000000000000000000000000000000000000000000000000000000000000000000000000000000
310
000000000000000000000000000000000000000000000000000000000000000000000000000000000000000000000000000000000000000000000000000000000000F5F5F5F5F5F5F5F5F5F5F5F5F50000F5F5F5F5F5F5F5F5F5F5F5F5F5F5F5F5F5F5F5F5F5F5F5F5F5F5F5F5F5F5F5F5F5F5F5F5F5F5F5F5F5F5F5F5F5F5
310
00000000000000F5F5F5F5F5F5F5F5F5F5F5F5F5F5F5F5F5F5F5F5F5F5F5F5F5F5F5F5F5F5F5F5F5F5F5F5F5F5F5F5F5F5F5F5F5F5F5F5F5F5F5F5F5000000F5F5F5F5F5F5F5F5F5F5F5F5F5000000000000000000000000000000000000000000000000000000000000000000000000000000000000000000000000000000
310
0000000000000000000000000000000000000000000000000000000000000000000000000000000000000000000000000000000000000000000000000000000000000000F5F5F5F5F50000000000F5F5F5F5F5F500000000000000000000000000000000000000000000000000000000000000000000000000000000000000
310
00000000000000000000F5000000000000000000000000000000000000000000000000000000000000000000F5F5000000000000F5F5F500000000000000F5F5F500000000000000000000F5F50000000000000000000000000000000000000000000000000000000000000000000000000000000000000000000000000000
310
000000000000000000000000000000000000000000000000000000000000000000000000000000000000000000000000000000000000000000000000000000000000000000000000000000F5F5F5F5F5F5F5F5F5F5F5F5F5F5F5F5F5F5F5F5F5F5F5F5F5F5F5F5F5F5F5F5F5F5F5F5F5F5F5F5F5F5F5F5F5F5F5F5F5F5F5F5
310
F5F5F5F5F5F5F5F5F5F5F5F5F5F5F5F5F5F5F5F5F5F5F5F5F5F5F5F5F5F5F5F5F5F5F5F5F5F5F5F5F5F5F5F5F5F5F5F5F5F5F5F5F5F5F5F5F5F5F5F5F5F5F5F5F5F5F5F5F5F5F5F5F5F5F5F5F5F500000000000000000000000000000000000000000000000000000000000000000000000000000000000000000000000000
310
00000000000000000000000000000000000000000000000000000000000000000000000000000000000000000000000000000000000000000000000000000000000000000000000000000000000000000000000000000000000000000000000000000000000000000000000000000000000000000000000000000000000000
310
00000000000000000000000000000000000000000000000000000000000000000000000000000000000000000000000000000000000000000000000000000000000000000000000000000000000000000000000000000000000000000000000000000000000000000000000000000000000000000000000000000000000000
310
00000000000000000000000000000000000000000000000000000000000000000000000000000000000000000000000000000000000000000000000000000000000000000000000000000000000000000000000000000000000000000000000000000000000000000000000000000000000000000000000000000000000000
310
00000000000000000000000000000000000000000000000000000000000000000000000000000000000000000000000000000000000000000000000000000000000000000000000000000000000000000000000000000000000000000000000000000000000000000000000000000000000000000000000000000000000000
310
00000000000000000000000000000000000000000000000000000000000000000000000000000000000000000000000000000000000000000000000000000000000000000000000000000000000000000000000000000000000000000000000000000000000000000000000000000000000000000000000000000000000000
310
00000000000000000000000000000000000000000000000000000000000000000000000000000000000000000000000000000000000000000000000000000000000000000000000000000000000000000000000000000000000000000000000000000000000000000000000000000000000000000000000000000000000000
310
00000000000000000000000000000000000000000000000000000000000000000000000000000000000000000000000000000000000000000000000000000000000000000000000000000000000000000000000000000000000000000000000000000000000000000000000000000000000000000000000000000000000000
310
00000000000000F5000000000000000000F500000000000000000000000000000000000000000000000000000000000000000000000000000000000000000000000000000000000000000000000000000000000000000000000000000000000000000000000000000000000000000000000000000000000000000000000000
310
00000000000000000000000000000000000000000000000000000000000000000000000000000000000000000000000000000000000000000000000000000000000000000000000000000000000000000000000000000000000000000000000000000000000000000000000000000000000000000000000000000000000000
310
000000000000000000F5000000000000000000F50000000000000000000000000000000000000000000000000000000000000000000000000000000000000000000000000000000000000000000000000000000000000000000000000000000000000000000000000000000000000000000000000000000000000000000000
310
00000000000000000000000000000000000000000000000000000000000000000000000000000000000000000000000000000000000000000000000000000000000000000000000000000000000000000000000000000000000000000000000000000000000000000000000000000000000000000000000000000000000000
310
0000000000000000000000F5000000000000000000F5000000000000000000000000000000000000000000000000000000000000000000000000000000000000000000000000000000000000000000000000000000000000000000000000000000000000000000000000000000000000000000000000000000000000000000
310
00000000000000000000000000000000000000000000000000000000000000000000000000000000000000000000000000000000000000000000000000000000000000000000000000000000000000000000000000000000000000000000000000000000000000000000000000000000000000000000000000000000000000
310
00000000000000000000000000F5000000000000000000F500000000000000000000000000000000000000000000000000000000000000000000000000000000000000000000000000000000000000000000000000000000000000000000000000000000000000000000000000000000000000000000000000000000000000
310
00000000000000000000000000000000000000000000000000000000000000000000000000000000000000000000000000000000000000000000000000000000000000000000000000000000000000000000000000000000000000000000000000000000000000000000000000000000000000000000000000000000000000
310
000000000000000000000000000000F5000000000000000000F50000000000000000000000000000000000000000000000000000000000000000000000000000000000000000000000000000000000000000000000000000000000000000000000000000000000000000000000000000000000000000000000000000000000
310
00000000000000000000000000000000000000000000000000000000000000000000000000000000000000000000000000000000000000000000000000000000000000000000000000000000000000000000000000000000000000000000000000000000000000000000000000000000000000000000000000000000000000
310
0000000000000000000000000000000000F5000000000000000000F5000000000000000000000000000000000000000000000000000000000000000000000000000000000000000000000000000000000000000000000000000000000000000000000000000000000000000000000000000000000000000000000000000000
310
00000000000000000000000000000000000000000000000000000000000000000000000000000000000000000000000000000000000000000000000000000000000000000000000000000000000000000000000000000000000000000000000000000000000000000000000000000000000000000000000000000000000000
310
00000000000000000000000000000000000000F5000000000000000000F500000000000000000000000000000000000000000000000000000000000000000000000000000000000000000000000000000000000000000000000000000000000000000000000000000000000000000000000000000000000000000000000000
310
00000000000000000000000000000000000000000000000000000000000000000000000000000000000000000000000000000000000000000000000000000000000000000000000000000000000000000000000000000000000000000000000000000000000000000000000000000000000000000000000000000000000000
310
000000000000000000000000000000000000000000F5000000000000000000F50000000000000000000000000000000000000000000000000000000000000000000000000000000000000000000000000000000000000000000000000000000000000000000000000000000000000000000000000000000000000000000000
310
00000000000000000000000000000000000000000000000000000000000000000000000000000000000000000000000000000000000000000000000000000000000000000000000000000000000000000000000000000000000000000000000000000000000000000000000000000000000000000000000000000000000000
310
0000000000000000000000000000000000000000000000F5000000000000000000F5000000000000000000000000000000000000000000000000000000000000000000000000000000000000000000000000000000000000000000000000000000000000000000000000000000000000000000000000000000000000000000
310
00000000000000000000000000000000000000000000000000000000000000000000000000000000000000000000000000000000000000000000000000000000000000000000000000000000000000000000000000000000000000000000000000000000000000000000000000000000000000000000000000000000000000
310
00000000000000000000000000000000000000000000000000F5000000000000000000F500000000000000000000000000000000000000000000000000000000000000000000000000000000000000000000000000000000000000000000000000000000000000000000000000000000000000000000000000000000000000
310
00000000000000000000000000000000000000000000000000000000000000000000000000000000000000000000000000000000000000000000000000000000000000000000000000000000000000000000000000000000000000000000000000000000000000000000000000000000000000000000000000000000000000
310
000000000000000000000000000000000000000000000000000000F5000000000000000000F50000000000000000000000000000000000000000000000000000000000000000000000000000000000000000000000000000000000000000000000000000000000000000000000000000000000000000000000000000000000
310
00000000000000000000000000000000000000000000000000000000000000000000000000000000000000000000000000000000000000000000000000000000000000000000000000000000000000000000000000000000000000000000000000000000000000000000000000000000000000000000000000000000000000
310
0000000000000000000000000000000000000000000000000000000000F5000000000000000000F5000000000000000000000000000000000000000000000000000000000000000000000000000000000000000000000000000000000000000000000000000000000000000000000000000000000000000000000000000000
310
00000000000000000000000000000000000000000000000000000000000000000000000000000000000000000000000000000000000000000000000000000000000000000000000000000000000000000000000000000000000000000000000000000000000000000000000000000000000000000000000000000000000000
310
00000000000000000000000000000000000000000000000000000000000000F5000000000000000000F500000000000000000000000000000000000000000000000000000000000000000000000000000000000000000000000000000000000000000000000000000000000000000000000000000000000000000000000000
310
00000000000000000000000000000000000000000000000000000000000000000000000000000000000000000000000000000000000000000000000000000000000000000000000000000000000000000000000000000000000000000000000000000000000000000000000000000000000000000000000000000000000000
310
00000000000000000000000000000000000000000000000000000000000000000000000000000000000000000000000000000000000000000000000000000000000000000000000000000000000000000000000000000000000000000000000000000000000000000000000000000000000000000000000000000000000000
310
00000000000000000000000000000000000000000000000000000000000000000000000000000000000000000000000000000000000000000000000000000000000000000000000000000000000000000000000000000000000000000000000000000000000000000000000000000000000000000000000000000000000000
310
00000000000000000000000000000000000000000000000000000000000000000000000000000000000000000000000000000000000000000000000000000000000000000000000000000000000000000000000000000000000000000000000000000000000000000000000000000000000000000000000000000000000000
310
00000000000000000000000000000000000000000000000000000000000000000000000000000000000000000000000000000000000000000000000000000000000000000000000000000000000000000000000000000000000000000000000000000000000000000000000000000000000000000000000000000000000000
310
00000000000000000000000000000000000000000000000000000000000000000000000000000000000000000000000000000000000000000000000000000000000000000000000000000000000000000000000000000000000000000000000000000000000000000000000000000000000000000000000000000000000000
310
00000000000000000000000000000000000000000000000000000000000000000000000000000000000000000000000000000000000000000000000000000000000000000000000000000000000000000000000000000000000000000000000000000000000000000000000000000000000000000000000000000000000000
310
00000000000000000000000000000000000000000000000000000000000000000000000000000000000000000000000000000000000000000000000000000000000000000000000000000000000000000000000000000000000000000000000000000000000000000000000000000000000000000000000000000000000000
310
00000000000000000000000000000000000000000000000000000000000000000000000000000000000000000000000000000000000000000000000000000000000000000000000000000000000000000000000000000000000000000000000000000000000000000000000000000000000000000000000000000000000000
310
0000000000000000000000000000000000000000000000000000000000000000000000000000000000F5000000000000000000F5000000000000000000000000000000000000000000000000000000000000000000000000000000000000000000000000000000000000000000000000000000000000000000000000000000
310
00000000000000000000000000000000000000000000000000000000000000000000000000000000000000000000000000000000000000000000000000000000000000000000000000000000000000000000000000000000000000000000000000000000000000000000000000000000000000000000000000000000000000
310
00000000000000000000000000000000000000000000000000000000000000000000000000000000000000F5000000000000000000F500000000000000000000000000000000000000000000000000000000000000000000000000000000000000000000000000000000000000000000000000000000000000000000000000
310
00000000000000000000000000000000000000000000000000000000000000000000000000000000000000000000000000000000000000000000000000000000000000000000000000000000000000000000000000000000000000000000000000000000000000000000000000000000000000000000000000000000000000
310
000000000000000000000000000000000000000000000000000000000000000000000000000000000000000000F5000000000000000000F50000000000000000000000000000000000000000000000000000000000000000000000000000000000000000000000000000000000000000000000000000000000000000000000
310
00000000000000000000000000000000000000000000000000000000000000000000000000000000000000000000000000000000000000000000000000000000000000000000000000000000000000000000000000000000000000000000000000000000000000000000000000000000000000000000000000000000000000
310
0000000000000000000000000000000000000000000000000000000000000000000000000000000000000000000000F5000000000000000000F5000000000000000000000000000000000000000000000000000000000000000000000000000000000000000000000000000000000000000000000000000000000000000000
310
00000000000000000000000000000000000000000000000000000000000000000000000000000000000000000000000000000000000000000000000000000000000000000000000000000000000000000000000000000000000000000000000000000000000000000000000000000000000000000000000000000000000000
310
00000000000000000000000000000000000000000000000000000000000000000000000000000000000000000000000000F5000000000000000000F500000000000000000000000000000000000000000000000000000000000000000000000000000000000000000000000000000000000000000000000000000000000000
310
00000000000000000000000000000000000000000000000000000000000000000000000000000000000000000000000000000000000000000000000000000000000000000000000000000000000000000000000000000000000000000000000000000000000000000000000000000000000000000000000000000000000000
310
000000000000000000000000000000000000000000000000000000000000000000000000000000000000000000000000000000F5000000000000000000F50000000000000000000000000000000000000000000000000000000000000000000000000000000000000000000000000000000000000000000000000000000000
310
00000000000000000000000000000000000000000000000000000000000000000000000000000000000000000000000000000000000000000000000000000000000000000000000000000000000000000000000000000000000000000000000000000000000000000000000000000000000000000000000000000000000000
310
0000000000000000000000000000000000000000000000000000000000000000000000000000000000000000000000000000000000F5000000000000000000F5000000000000000000000000000000000000000000000000000000000000000000000000000000000000000000000000000000000000000000000000000000
310
00000000000000000000000000000000000000000000000000000000000000000000000000000000000000000000000000000000000000000000000000000000000000000000000000000000000000000000000000000000000000000000000000000000000000000000000000000000000000000000000000000000000000
310
00000000000000000000000000000000000000000000000000000000000000000000000000000000000000000000000000000000000000F5000000000000000000F500000000000000000000000000000000000000000000000000000000000000000000000000000000000000000000000000000000000000000000000000
310
00000000000000000000000000000000000000000000000000000000000000000000000000000000000000000000000000000000000000000000000000000000000000000000000000000000000000000000000000000000000000000000000000000000000000000000000000000000000000000000000000000000000000
310
000000000000000000000000000000000000000000000000000000000000000000000000000000000000000000000000000000000000000000F5000000000000000000F50000000000000000000000000000000000000000000000000000000000000000000000000000000000000000000000000000000000000000000000
310
00000000000000000000000000000000000000000000000000000000000000000000000000000000000000000000000000000000000000000000000000000000000000000000000000000000000000000000000000000000000000000000000000000000000000000000000000000000000000000000000000000000000000
310
0000000000000000000000000000000000000000000000000000000000000000000000000000000000000000000000000000000000000000000000F5000000000000000000F5000000000000000000000000000000000000000000000000000000000000000000000000000000000000000000000000000000000000000000
310
00000000000000000000000000000000000000000000000000000000000000000000000000000000000000000000000000000000000000000000000000000000000000000000000000000000000000000000000000000000000000000000000000000000000000000000000000000000000000000000000000000000000000
310
00000000000000000000000000000000000000000000000000000000000000000000000000000000000000000000000000000000000000000000000000F5000000000000000000F500000000000000000000000000000000000000000000000000000000000000000000000000000000000000000000000000000000000000
310
00000000000000000000000000000000000000000000000000000000000000000000000000000000000000000000000000000000000000000000000000000000000000000000000000000000000000000000000000000000000000000000000000000000000000000000000000000000000000000000000000000000000000
310
000000000000000000000000000000000000000000000000000000000000000000000000000000000000000000000000000000000000000000000000000000F5000000000000000000F50000000000000000000000000000000000000000000000000000000000000000000000000000000000000000000000000000000000
310
00000000000000000000000000000000000000000000000000000000000000000000000000000000000000000000000000000000000000000000000000000000000000000000000000000000000000000000000000000000000000000000000000000000000000000000000000000000000000000000000000000000000000
310
0000000000000000000000000000000000000000000000000000000000000000000000000000000000000000000000000000000000000000000000000000000000F5000000000000000000F5000000000000000000000000000000000000000000000000000000000000000000000000000000000000000000000000000000
310
00000000000000000000000000000000000000000000000000000000000000000000000000000000000000000000000000000000000000000000000000000000000000000000000000000000000000000000000000000000000000000000000000000000000000000000000000000000000000000000000000000000000000
310
00000000000000000000000000000000000000000000000000000000000000000000000000000000000000000000000000000000000000000000000000000000000000F5000000000000000000F500000000000000000000000000000000000000000000000000000000000000000000000000000000000000000000000000
310
00000000000000000000000000000000000000000000000000000000000000000000000000000000000000000000000000000000000000000000000000000000000000000000000000000000000000000000000000000000000000000000000000000000000000000000000000000000000000000000000000000000000000
310
00000000000000000000000000000000000000000000000000000000000000000000000000000000000000000000000000000000000000000000000000000000000000000000000000000000000000000000000000000000000000000000000000000000000000000000000000000000000000000000000000000000000000
310
00000000000000000000000000000000000000000000000000000000000000000000000000000000000000000000000000000000000000000000000000000000000000000000000000000000000000000000000000000000000000000000000000000000000000000000000000000000000000000000000000000000000000
310
00000000000000000000000000000000000000000000000000000000000000000000000000000000000000000000000000000000000000000000000000000000000000000000000000000000000000000000000000000000000000000000000000000000000000000000000000000000000000000000000000000000000000
310
00000000000000000000000000000000000000000000000000000000000000000000000000000000000000000000000000000000000000000000000000000000000000000000000000000000000000000000000000000000000000000000000000000000000000000000000000000000000000000000000000000000000000
310
00000000000000000000000000000000000000000000000000000000000000000000000000000000000000000000000000000000000000000000000000000000000000000000000000000000000000000000000000000000000000000000000000000000000000000000000000000000000000000000000000000000000000
310
00000000000000000000000000000000000000000000000000000000000000000000000000000000000000000000000000000000000000000000000000000000000000000000000000000000000000000000000000000000000000000000000000000000000000000000000000000000000000000000000000000000000000
310
00000000000000000000000000000000000000000000000000000000000000000000000000000000000000000000000000000000000000000000000000000000000000000000000000000000000000000000000000000000000000000000000000000000000000000000000000000000000000000000000000000000000000
310
00000000000000000000000000000000000000000000000000000000000000000000000000000000000000000000000000000000000000000000000000000000000000000000000000000000000000000000000000000000000000000000000000000000000000000000000000000000000000000000000000000000000000
310
00000000000000000000000000000000000000000000000000000000000000000000000000000000000000000000000000000000000000000000000000000000000000000000000000000000000000000000000000000000000000000000000000000000000000000000000000000000000000000000000000000000000000
310
00000000000000000000000000000000000000000000000000000000000000000000000000000000000000000000000000000000000000000000000000000000000000000000000000000000000000000000000000000000000000000000000000000000000000000000000000000000000000000000000000000000000000
310
00000000000000000000000000000000000000000000000000000000000000000000000000000000000000000000000000000000000000000000000000000000000000000000000000000000000000000000000000000000000000000000000000000000000000000000000000000000000000000000000000000000000000
310
00000000000000000000000000000000000000000000000000000000000000000000000000000000000000000000000000000000000000000000000000000000000000000000000000000000000000000000000000000000000000000000000000000000000000000000000000000000000000000000000000000000000000
310
000000000000000000000000000000000000000000000000000000000000000000000000000000000000000000000000000000000000000000000000000000000000000000000000000000000000000000F5000000000000000000F50000000000000000000000000000000000000000000000000000000000000000000000
310
00000000000000000000000000000000000000000000000000000000000000000000000000000000000000000000000000000000000000000000000000000000000000000000000000000000000000000000000000000000000000000000000000000000000000000000000000000000000000000000000000000000000000
310
0000000000000000000000000000000000000000000000000000000000000000000000000000000000000000000000000000000000000000000000000000000000000000000000000000000000000000000000F5000000000000000000F5000000000000000000000000000000000000000000000000000000000000000000
310
00000000000000000000000000000000000000000000000000000000000000000000000000000000000000000000000000000000000000000000000000000000000000000000000000000000000000000000000000000000000000000000000000000000000000000000000000000000000000000000000000000000000000
310
00000000000000000000000000000000000000000000000000000000000000000000000000000000000000000000000000000000000000000000000000000000000000000000000000000000000000000000000000F5000000000000000000F500000000000000000000000000000000000000000000000000000000000000
310
00000000000000000000000000000000000000000000000000000000000000000000000000000000000000000000000000000000000000000000000000000000000000000000000000000000000000000000000000000000000000000000000000000000000000000000000000000000000000000000000000000000000000
310
000000000000000000000000000000000000000000000000000000000000000000000000000000000000000000000000000000000000000000000000000000000000000000000000000000000000000000000000000000F5000000000000000000F50000000000000000000000000000000000000000000000000000000000
310
00000000000000000000000000000000000000000000000000000000000000000000000000000000000000000000000000000000000000000000000000000000000000000000000000000000000000000000000000000000000000000000000000000000000000000000000000000000000000000000000000000000000000
310
0000000000000000000000000000000000000000000000000000000000000000000000000000000000000000000000000000000000000000000000000000000000000000000000000000000000000000000000000000000000F5000000000000000000F5000000000000000000000000000000000000000000000000000000
310
00000000000000000000000000000000000000000000000000000000000000000000000000000000000000000000000000000000000000000000000000000000000000000000000000000000000000000000000000000000000000000000000000000000000000000000000000000000000000000000000000000000000000
310
00000000000000000000000000000000000000000000000000000000000000000000000000000000000000000000000000000000000000000000000000000000000000000000000000000000000000000000000000000000000000F5000000000000000000F500000000000000000000000000000000000000000000000000
310
00000000000000000000000000000000000000000000000000000000000000000000000000000000000000000000000000000000000000000000000000000000000000000000000000000000000000000000000000000000000000000000000000000000000000000000000000000000000000000000000000000000000000
310
000000000000000000000000000000000000000000000000000000000000000000000000000000000000000000000000000000000000000000000000000000000000000000000000000000000000000000000000000000000000000000F5000000000000000000F50000000000000000000000000000000000000000000000
310
00000000000000000000000000000000000000000000000000000000000000000000000000000000000000000000000000000000000000000000000000000000000000000000000000000000000000000000000000000000000000000000000000000000000000000000000000000000000000000000000000000000000000
310
0000000000000000000000000000000000000000000000000000000000000000000000000000000000000000000000000000000000000000000000000000000000000000000000000000000000000000000000000000000000000000000000F5000000000000000000F5000000000000000000000000000000000000000000
310
00000000000000000000000000000000000000000000000000000000000000000000000000000000000000000000000000000000000000000000000000000000000000000000000000000000000000000000000000000000000000000000000000000000000000000000000000000000000000000000000000000000000000
310
00000000000000000000000000000000000000000000000000000000000000000000000000000000000000000000000000000000000000000000000000000000000000000000000000000000000000000000000000000000000000000000000000F5000000000000000000F500000000000000000000000000000000000000
310
00000000000000000000000000000000000000000000000000000000000000000000000000000000000000000000000000000000000000000000000000000000000000000000000000000000000000000000000000000000000000000000000000000000000000000000000000000000000000000000000000000000000000
310
000000000000000000000000000000000000000000000000000000000000000000000000000000000000000000000000000000000000000000000000000000000000000000000000000000000000000000000000000000000000000000000000000000F5000000000000000000F50000000000000000000000000000000000
310
00000000000000000000000000000000000000000000000000000000000000000000000000000000000000000000000000000000000000000000000000000000000000000000000000000000000000000000000000000000000000000000000000000000000000000000000000000000000000000000000000000000000000
310
0000000000000000000000000000000000000000000000000000000000000000000000000000000000000000000000000000000000000000000000000000000000000000000000000000000000000000000000000000000000000000000000000000000000F5000000000000000000F5000000000000000000000000000000
310
00000000000000000000000000000000000000000000000000000000000000000000000000000000000000000000000000000000000000000000000000000000000000000000000000000000000000000000000000000000000000000000000000000000000000000000000000000000000000000000000000000000000000
310
00000000000000000000000000000000000000000000000000000000000000000000000000000000000000000000000000000000000000000000000000000000000000000000000000000000000000000000000000000000000000000000000000000000000000F5000000000000000000F500000000000000000000000000
310
00000000000000000000000000000000000000000000000000000000000000000000000000000000000000000000000000000000000000000000000000000000000000000000000000000000000000000000000000000000000000000000000000000000000000000000000000000000000000000000000000000000000000
310
000000000000000000000000000000000000000000000000000000000000000000000000000000000000000000000000000000000000000000000000000000000000000000000000000000000000000000000000000000000000000000000000000000000000000000F5000000000000000000F50000000000000000000000
310
00000000000000000000000000000000000000000000000000000000000000000000000000000000000000000000000000000000000000000000000000000000000000000000000000000000000000000000000000000000000000000000000000000000000000000000000000000000000000000000000000000000000000
310
00000000000000000000000000000000000000000000000000000000000000000000000000000000000000000000000000000000000000000000000000000000000000000000000000000000000000000000000000000000000000000000000000000000000000000000000000000000000000000000000000000000000000
310
00000000000000000000000000000000000000000000000000000000000000000000000000000000000000000000000000000000000000000000000000000000000000000000000000000000000000000000000000000000000000000000000000000000000000000000000000000000000000000000000000000000000000
310
00000000000000000000000000000000000000000000000000000000000000000000000000000000000000000000000000000000000000000000000000000000000000000000000000000000000000000000000000000000000000000000000000000000000000000000000000000000000000000000000000000000000000
310
00000000000000000000000000000000000000000000000000000000000000000000000000000000000000000000000000000000000000000000000000000000000000000000000000000000000000000000000000000000000000000000000000000000000000000000000000000000000000000000000000000000000000
310
00000000000000000000000000000000000000000000000000000000000000000000000000000000000000000000000000000000000000000000000000000000000000000000000000000000000000000000000000000000000000000000000000000000000000000000000000000000000000000000000000000000000000
310
00000000000000000000000000000000000000000000000000000000000000000000000000000000000000000000000000000000000000000000000000000000000000000000000000000000000000000000000000000000000000000000000000000000000000000000000000000000000000000000000000000000000000
310
00000000000000000000000000000000000000000000000000000000000000000000000000000000000000000000000000000000000000000000000000000000000000000000000000000000000000000000000000000000000000000000000000000000000000000000000000000000000000000000000000000000000000
310
00000000000000000000000000000000000000000000000000000000000000000000000000000000000000000000000000000000000000000000000000000000000000000000000000000000000000000000000000000000000000000000000000000000000000000000000000000000000000000000000000000000000000
310
00000000000000000000000000000000000000000000000000000000000000000000000000000000000000000000000000000000000000000000000000000000000000000000000000000000000000000000000000000000000000000000000000000000000000000000000000000000000000000000000000000000000000
310
00000000000000000000000000000000000000000000000000000000000000000000000000000000000000000000000000000000000000000000000000000000000000000000000000000000000000000000000000000000000000000000000000000000000000000000000000000000000000000000000000000000000000
310
00000000000000000000000000000000000000000000000000000000000000000000000000000000000000000000000000000000000000000000000000000000000000000000000000000000000000000000000000000000000000000000000000000000000000000000000000000000000000000000000000000000000000
310
00000000000000000000000000000000000000000000000000000000000000000000000000000000000000000000000000000000000000000000000000000000000000000000000000000000000000000000000000000000000000000000000000000000000000000000000000000000000000000000000000000000000000
310
0000000000000000000000000000000000000000000000000000000000000000000000000000000000000000000000000000000000000000000000000000000000000000000000000000000000000000000000000000000000000000000000000000000000000000000000000000000000000000000000F500000000000000
310
0000F500000000000000000000000000000000000000000000000000000000000000000000000000000000000000000000000000000000000000000000000000000000000000000000000000000000000000000000000000000000000000000000000000000000000000000000000000000000000000000000000000000000
310
00000000000000000000000000000000000000000000000000000000000000000000000000000000000000000000000000000000000000000000000000000000000000000000000000000000000000000000000000000000000000000000000000000000000000000000000000000000000000000000000000F50000000000
310
00000000F50000000000000000000000000000000000000000000000000000000000000000000000000000000000000000000000000000000000000000000000000000000000000000000000000000000000000000000000000000000000000000000000000000000000000000000000000000000000000000000000000000
310
000000000000000000000000000000000000000000000000000000000000000000000000000000000000000000000000000000000000000000000000000000000000000000000000000000000000000000000000000000000000000000000000000000000000000000000000000000000000000000000000000000F5000000
310
000000000000F5000000000000000000000000000000000000000000000000000000000000000000000000000000000000000000000000000000000000000000000000000000000000000000000000000000000000000000000000000000000000000000000000000000000000000000000000000000000000000000000000
310
0000000000000000000000000000000000000000000000000000000000000000000000000000000000000000000000000000000000000000000000000000000000000000000000000000000000000000000000000000000000000000000000000000000000000000000000000000000000000000000000000000000000F500
310
0000000000000000F500000000000000000000000000000000000000000000000000000000000000000000000000000000000000000000000000000000000000000000000000000000000000000000000000000000000000000000000000000000000000000000000000000000000000000000000000000000000000000000
310
00000000000000000000000000000000000000000000000000000000000000000000000000000000000000000000000000000000000000000000000000000000000000000000000000000000000000000000000000000000000000000000000000000000000000000000000000000000000000000000000000000000000000
310
F5000000000000000000F50000000000000000000000000000000000000000000000000000000000000000000000000000000000000000000000000000000000000000000000000000000000000000000000000000000000000000000000000000000000000000000000000000000000000000000000000000000000000000
310
00000000000000000000000000000000000000000000000000000000000000000000000000000000000000000000000000000000000000000000000000000000000000000000000000000000000000000000000000000000000000000000000000000000000000000000000000000000000000000000000000000000000000
310
0000F5000000000000000000F5000000000000000000000000000000000000000000000000000000000000000000000000000000000000000000000000000000000000000000000000000000000000000000000000000000000000000000000000000000000000000000000000000000000000000000000000000000000000
310
00000000000000000000000000000000000000000000000000000000000000000000000000000000000000000000000000000000000000000000000000000000000000000000000000000000000000000000000000000000000000000000000000000000000000000000000000000000000000000000000000000000000000
310
00000000F5F5F5F5000000F5F5F5F500000000000000000000000000000000000000000000000000000000000000000000000000000000000000000000000000000000000000000000000000000000000000000000000000000000000000000000000000000000000000000000000000000000000000000000000000000000
310
00000000000000000000000000000000000000000000000000000000000000000000000000000000000000000000000000000000000000000000000000000000000000000000000000000000000000000000000000000000000000000000000000000000000000000000000000000000000000000000000000000000000000
310
000000000000F50000000000000000F5000000000000000000000000000000000000000000000000000000000000000000000000000000000000000000000000000000000000000000000000000000000000000000000000000000000000000000000000000000000000000000000000000000000000000000000000000000
310
00000000000000000000000000000000000000000000000000000000000000000000000000000000000000000000000000000000000000000000000000000000000000000000000000000000000000000000000000000000000000000000000000000000000000000000000000000000000000000000000000000000000000
310
00000000000000000000000000000000000000000000000000000000000000000000000000000000000000000000000000000000000000000000000000000000000000000000000000000000000000000000000000000000000000000000000000000000000000000000000000000000000000000000000000000000000000
310
00000000000000000000000000000000000000000000000000000000000000000000000000000000000000000000000000000000000000000000000000000000000000000000000000000000000000000000000000000000000000000000000000000000000000000000000000000000000000000000000000000000000000
310
00000000000000000000F50000000000000000F50000000000000000000000000000000000000000000000000000000000000000000000000000000000000000000000000000000000000000000000000000000000000000000000000000000000000000000000000000000000000000000000000000000000000000000000
310
00000000000000000000000000000000000000000000000000000000000000000000000000000000000000000000000000000000000000000000000000000000000000000000000000000000000000000000000000000000000000000000000000000000000000000000000000000000000000000000000000000000000000
310
000000000000000000000000F5F5F5F5000000F5F5F5F50000000000000000000000000000000000000000000000000000000000000000000000000000000000000000000000000000000000000000000000000000000000000000000000000000000000000000000000000000000000000000000000000000000000000000
310
00000000000000000000000000000000000000000000000000000000000000000000000000000000000000000000000000000000000000000000000000000000000000000000000000000000000000000000000000000000000000000000000000000000000000000000000000000000000000000000000000000000000000
310
0000000000000000000000000000F5000000000000000000F5000000000000000000000000000000000000000000000000000000000000000000000000000000000000000000000000000000000000000000000000000000000000000000000000000000000000000000000000000000000000000000000000000000000000
310
00000000000000000000000000000000000000000000000000000000000000000000000000000000000000000000000000000000000000000000000000000000000000000000000000000000000000000000000000000000000000000000000000000000000000000000000000000000000000000000000000000000000000
310
00000000000000000000000000000000F5000000000000000000F500000000000000000000000000000000000000000000000000000000000000000000000000000000000000000000000000000000000000000000000000000000000000000000000000000000000000000000000000000000000000000000000000000000
310
00000000000000000000000000000000000000000000000000000000000000000000000000000000000000000000000000000000000000000000000000000000000000000000000000000000000000000000000000000000000000000000000000000000000000000000000000000000000000000000000000000000000000
310
000000000000000000000000000000000000F5000000000000000000F50000000000000000000000000000000000000000000000000000000000000000000000000000000000000000000000000000000000000000000000000000000000000000000000000000000000000000000000000000000000000000000000000000
310
00000000000000000000000000000000000000000000000000000000000000000000000000000000000000000000000000000000000000000000000000000000000000000000000000000000000000000000000000000000000000000000000000000000000000000000000000000000000000000000000000000000000000
310
00000000000000000000000000000000000000000000000000000000000000000000000000000000000000000000000000000000000000000000000000000000000000000000000000000000000000000000000000000000000000000000000000000000000000000000000000000000000000000000000000000000000000
310
00000000000000000000000000000000000000000000000000000000000000000000000000000000000000000000000000000000000000000000000000000000000000000000000000000000000000000000000000000000000000000000000000000000000000000000000000000000000000000000000000000000000000
310
00000000000000000000000000000000000000000000000000000000000000000000000000000000000000000000000000000000000000000000000000000000000000000000000000000000000000000000000000000000000000000000000000000000000000000000000000000000000000000000000000000000000000
310
00000000000000000000000000000000000000000000000000000000000000000000000000000000000000000000000000000000000000000000000000000000000000000000000000000000000000000000000000000000000000000000000000000000000000000000000000000000000000000000000000000000000000
310
00000000000000000000000000000000000000000000000000000000000000000000000000000000000000000000000000000000000000000000000000000000000000000000000000000000000000000000000000000000000000000000000000000000000000000000000000000000000000000000000000000000000000
310
00000000000000000000000000000000000000000000000000000000000000000000000000000000000000000000000000000000000000000000000000000000000000000000000000000000000000000000000000000000000000000000000000000000000000000000000000000000000000000000000000000000000000
310
0000000000000000000000000000000000000000000000000000F500F50000000000F500F5000000000000000000000000000000000000000000000000000000000000000000000000000000000000000000000000000000000000000000000000000000000000000000000000000000000000000000000000000000000000
310
00000000000000000000000000000000000000000000000000000000000000000000000000000000000000000000000000000000000000000000000000000000000000000000000000000000000000000000000000000000000000000000000000000000000000000000000000000000000000000000000000000000000000
310
00000000000000000000000000000000000000000000000000000000F5F500000000000000F5F500000000000000000000000000000000000000000000000000000000000000000000000000000000000000000000000000000000000000000000000000000000000000000000000000000000000000000000000000000000
310
00000000000000000000000000000000000000000000000000000000000000000000000000000000000000000000000000000000000000000000000000000000000000000000000000000000000000000000000000000000000000000000000000000000000000000000000000000000000000000000000000000000000000
310
000000000000000000000000000000000000000000000000000000000000F50000000000000000F5F50000000000000000000000000000000000000000000000000000000000000000000000000000000000000000000000000000000000000000000000000000000000000000000000000000000000000000000000000000
310
00000000000000000000000000000000000000000000000000000000000000000000000000000000000000000000000000000000000000000000000000000000000000000000000000000000000000000000000000000000000000000000000000000000000000000000000000000000000000000000000000000000000000
310
0000000000000000000000000000000000000000000000000000000000000000F5000000000000000000F5000000000000000000000000000000000000000000000000000000000000000000000000000000000000000000000000000000000000000000000000000000000000000000000000000000000000000000000000
310
00000000000000000000000000000000000000000000000000000000000000000000000000000000000000000000000000000000000000000000000000000000000000000000000000000000000000000000000000000000000000000000000000000000000000000000000000000000000000000000000000000000000000
310
00000000000000000000000000000000000000000000000000000000000000000000F5000000000000000000F500000000000000000000000000000000000000000000000000000000000000000000000000000000000000000000000000000000000000000000000000000000000000000000000000000000000000000000
310
00000000000000000000000000000000000000000000000000000000000000000000000000000000000000000000000000000000000000000000000000000000000000000000000000000000000000000000000000000000000000000000000000000000000000000000000000000000000000000000000000000000000000
310
000000000000000000000000000000000000000000000000000000000000000000000000F5000000000000000000F50000000000000000000000000000000000000000000000000000000000000000000000000000000000000000000000000000000000000000000000000000000000000000000000000000000000000000
310
00000000000000000000000000000000000000000000000000000000000000000000000000000000000000000000000000000000000000000000000000000000000000000000000000000000000000000000000000000000000000000000000000000000000000000000000000000000000000000000000000000000000000
310
0000000000000000000000000000000000000000000000000000000000000000000000000000F5000000000000000000F5000000000000000000000000000000000000000000000000000000000000000000000000000000000000000000000000000000000000000000000000000000000000000000000000000000000000
310
00000000000000000000000000000000000000000000000000000000000000000000000000000000000000000000000000000000000000000000000000000000000000000000000000000000000000000000000000000000000000000000000000000000000000000000000000000000000000000000000000000000000000
310
0000000000000000000000000000000000000000000000000000000000000000000000000000000000F500000000000000F50000000000000000000000000000000000000000000000000000000000000000000000000000000000000000000000000000000000000000000000000000000000000000000000000000000000
310
00000000000000000000000000000000000000000000000000000000000000000000000000000000000000000000000000000000000000000000000000000000000000000000000000000000000000000000000000000000000000000000000000000000000000000000000000000000000000000000000000000000000000
310
0000000000000000000000000000000000000000000000000000000000000000000000000000000000000000F500000000F5F500000000000000000000000000000000000000000000000000000000000000000000000000000000000000000000000000000000000000000000000000000000000000000000000000000000
310
00000000000000000000000000000000000000000000000000000000000000000000000000000000000000000000000000000000000000000000000000000000000000000000000000000000000000000000000000000000000000000000000000000000000000000000000000000000000000000000000000000000000000
310
00000000000000000000000000000000000000000000000000000000000000000000000000000000000000000000F50000000000000000000000000000000000000000000000000000000000000000000000000000000000000000000000000000000000000000000000000000000000000000000000000000000000000000
310
0000000000000000000000000000000000000000000000000000000000000000000000000000000000000000000000000000000000000000
  0
XRECORD
  5
12202
102
{ACAD_REACTORS
330
12201
102
}
330
12201
100
AcDbXrecord
280
     1
102
MATERIAL
148
0.0
149
0.0
149
0.0
 93
        0
 94
      127
282
     0
 72
     0
 77
     0
171
     0
175
     0
179
     0
273
     0
  0
XRECORD
  5
12204
102
{ACAD_REACTORS
330
12203
102
}
330
12203
100
AcDbXrecord
280
     1
102
MATERIAL
148
0.0
149
0.0
149
0.0
 93
        0
 94
      127
282
     0
 72
     0
 77
     0
171
     0
175
     0
179
     0
273
     0
  0
XRECORD
  5
12206
102
{ACAD_REACTORS
330
12205
102
}
330
12205
100
AcDbXrecord
280
     1
102
MATERIAL
148
0.0
149
0.0
149
0.0
 93
        0
 94
      127
282
     0
 72
     0
 77
     0
171
     0
175
     0
179
     0
273
     0
  0
XRECORD
  5
12208
102
{ACAD_REACTORS
330
12207
102
}
330
12207
100
AcDbXrecord
280
     1
102
ACAD_ROUNDTRIP_2010_MLEADER_STYLE
  0
XRECORD
  5
12209
102
{ACAD_REACTORS
330
121F1
102
}
330
121F1
100
AcDbXrecord
280
     1
102
DISPLAYNAME
  1
Imperial24
102
FLAGS
 90
        0
  0
XRECORD
  5
1220B
102
{ACAD_REACTORS
330
1220A
102
}
330
1220A
100
AcDbXrecord
280
     1
102
RTVSPropertyOp0
 70
     1
102
RTVSPropertyOp1
 70
     1
102
RTVSPropertyOp2
 70
     1
102
RTVSPropertyOp3
 70
     1
102
RTVSPropertyOp4
 70
     1
102
RTVSPropertyOp5
 70
     1
102
RTVSPropertyOp6
 70
     1
102
RTVSPropertyOp7
 70
     1
102
RTVSPropertyOp8
 70
     1
102
RTVSPropertyOp9
 70
     1
102
RTVSPropertyOp10
 70
     1
102
RTVSPropertyOp11
 70
     1
102
RTVSPropertyOp12
 70
     1
102
RTVSPropertyOp13
 70
     1
102
RTVSPropertyOp14
 70
     1
102
RTVSPropertyOp15
 70
     1
102
RTVSPropertyOp16
 70
     1
102
RTVSPropertyOp17
 70
     1
102
RTVSPropertyOp18
 70
     1
102
RTVSPropertyOp19
 70
     1
102
RTVSPropertyOp20
 70
     1
102
RTVSPropertyOp21
 70
     1
102
RTVSPropertyOp22
 70
     1
102
RTVSPropertyOp23
 70
     1
102
RTVSPropertyOp24
 70
     1
102
RTVSPropertyOp25
 70
     1
102
RTVSPropertyOp26
 70
     1
102
RTVSPropertyOp27
 70
     1
102
RTVSPropertyOp28
 70
     1
102
RTVSPropertyOp29
 70
     1
102
RTVSPropertyOp30
 70
     1
102
RTVSPropertyOp31
 70
     1
102
RTVSPropertyOp32
 70
     1
102
RTVSPropertyOp33
 70
     1
102
RTVSPropertyOp34
 70
     1
102
RTVSPropertyOp35
 70
     1
102
RTVSPropertyOp36
 70
     1
102
RTVSPropertyOp37
 70
     1
102
RTVSPropertyOp38
 70
     1
102
RTVSPropertyOp39
 70
     1
102
RTVSPropertyOp40
 70
     1
102
RTVSPropertyOp41
 70
     1
102
RTVSPropertyOp42
 70
     1
102
RTVSPropertyOp43
 70
     1
102
RTVSPropertyOp44
 70
     1
102
RTVSPropertyOp45
 70
     1
102
RTVSPropertyOp46
 70
     1
102
RTVSPropertyOp47
 70
     1
102
RTVSPropertyOp48
 70
     1
102
RTVSPropertyOp49
 70
     1
102
RTVSPropertyOp50
 70
     1
102
RTVSPropertyOp51
 70
     0
102
RTVSPropertyOp52
 70
     0
102
RTVSPropertyOp53
 70
     1
102
RTVSPropertyOp54
 70
     1
102
RTVSPropertyOp55
 70
     1
102
RTVSPropertyOp56
 70
     1
102
RTVSPropertyOp57
 70
     1
102
RTVSPost2010Prop28
280
     1
102
RTVSPost2010PropOp28
 70
     1
102
RTVSPost2010Prop29
280
     1
102
RTVSPost2010PropOp29
 70
     1
102
RTVSPost2010Prop30
280
     0
102
RTVSPost2010PropOp30
 70
     1
102
RTVSPost2010Prop31
280
     0
102
RTVSPost2010PropOp31
 70
     1
102
RTVSPost2010Prop32
280
     0
102
RTVSPost2010PropOp32
 70
     1
102
RTVSPost2010Prop33
280
     0
102
RTVSPost2010PropOp33
 70
     1
102
RTVSPost2010Prop34
280
     0
102
RTVSPost2010PropOp34
 70
     1
102
RTVSPost2010Prop35
280
     0
102
RTVSPost2010PropOp35
 70
     1
102
RTVSPost2010Prop36
280
     0
102
RTVSPost2010PropOp36
 70
     1
102
RTVSPost2010Prop37
 90
       50
102
RTVSPost2010PropOp37
 70
     1
102
RTVSPost2010Prop38
140
0.0
102
RTVSPost2010PropOp38
 70
     1
102
RTVSPost2010Prop39
140
1.0
102
RTVSPost2010PropOp39
 70
     1
102
RTVSPost2010Prop40
 90
        0
102
RTVSPost2010PropOp40
 70
     1
102
RTVSPost2010Prop41ColorIndex
 90
       18
102
RTVSPost2010Prop41ColorRGB
 90
        0
102
RTVSPost2010PropOp41
 70
     1
102
RTVSPost2010Prop42
 90
       50
102
RTVSPost2010PropOp42
 70
     1
102
RTVSPost2010Prop43
 90
        3
102
RTVSPost2010PropOp43
 70
     1
102
RTVSPost2010Prop44ColorIndex
 90
        5
102
RTVSPost2010Prop44ColorRGB
 90
      255
102
RTVSPost2010PropOp44
 70
     1
102
RTVSPost2010Prop45
280
     0
102
RTVSPost2010PropOp45
 70
     1
102
RTVSPost2010Prop46
 90
       50
102
RTVSPost2010PropOp46
 70
     1
102
RTVSPost2010Prop47
 90
       50
102
RTVSPost2010PropOp47
 70
     1
102
RTVSPost2010Prop48
 90
       50
102
RTVSPost2010PropOp48
 70
     1
102
RTVSPost2010Prop49
280
     0
102
RTVSPost2010PropOp49
 70
     1
102
RTVSPost2010Prop50
 90
       50
102
RTVSPost2010PropOp50
 70
     1
102
RTVSPost2010Prop51ColorIndex
 90
      256
102
RTVSPost2010Prop51ColorRGB
 90
-16777216
102
RTVSPost2010PropOp51
 70
     0
102
RTVSPost2010Prop52
140
1.0
102
RTVSPost2010PropOp52
 70
     0
102
RTVSPost2010Prop53
 90
        2
102
RTVSPost2010PropOp53
 70
     1
102
RTVSPost2010Prop54
  1
strokes_ogs.tif
102
RTVSPost2010PropOp54
 70
     1
102
RTVSPost2010Prop55
280
     0
102
RTVSPost2010PropOp55
 70
     1
102
RTVSPost2010Prop56
140
1.0
102
RTVSPost2010PropOp56
 70
     1
102
RTVSPost2010Prop57
140
1.0
102
RTVSPost2010PropOp57
 70
     1
  0
XRECORD
  5
1220D
102
{ACAD_REACTORS
330
1220C
102
}
330
1220C
100
AcDbXrecord
280
     1
102
RTVSPropertyOp0
 70
     1
102
RTVSPropertyOp1
 70
     1
102
RTVSPropertyOp2
 70
     1
102
RTVSPropertyOp3
 70
     1
102
RTVSPropertyOp4
 70
     1
102
RTVSPropertyOp5
 70
     1
102
RTVSPropertyOp6
 70
     1
102
RTVSPropertyOp7
 70
     1
102
RTVSPropertyOp8
 70
     1
102
RTVSPropertyOp9
 70
     1
102
RTVSPropertyOp10
 70
     1
102
RTVSPropertyOp11
 70
     1
102
RTVSPropertyOp12
 70
     1
102
RTVSPropertyOp13
 70
     1
102
RTVSPropertyOp14
 70
     1
102
RTVSPropertyOp15
 70
     1
102
RTVSPropertyOp16
 70
     1
102
RTVSPropertyOp17
 70
     1
102
RTVSPropertyOp18
 70
     1
102
RTVSPropertyOp19
 70
     1
102
RTVSPropertyOp20
 70
     1
102
RTVSPropertyOp21
 70
     1
102
RTVSPropertyOp22
 70
     1
102
RTVSPropertyOp23
 70
     1
102
RTVSPropertyOp24
 70
     1
102
RTVSPropertyOp25
 70
     1
102
RTVSPropertyOp26
 70
     1
102
RTVSPropertyOp27
 70
     1
102
RTVSPropertyOp28
 70
     1
102
RTVSPropertyOp29
 70
     1
102
RTVSPropertyOp30
 70
     1
102
RTVSPropertyOp31
 70
     1
102
RTVSPropertyOp32
 70
     1
102
RTVSPropertyOp33
 70
     1
102
RTVSPropertyOp34
 70
     1
102
RTVSPropertyOp35
 70
     1
102
RTVSPropertyOp36
 70
     1
102
RTVSPropertyOp37
 70
     1
102
RTVSPropertyOp38
 70
     1
102
RTVSPropertyOp39
 70
     1
102
RTVSPropertyOp40
 70
     1
102
RTVSPropertyOp41
 70
     1
102
RTVSPropertyOp42
 70
     1
102
RTVSPropertyOp43
 70
     1
102
RTVSPropertyOp44
 70
     1
102
RTVSPropertyOp45
 70
     1
102
RTVSPropertyOp46
 70
     1
102
RTVSPropertyOp47
 70
     1
102
RTVSPropertyOp48
 70
     1
102
RTVSPropertyOp49
 70
     1
102
RTVSPropertyOp50
 70
     1
102
RTVSPropertyOp51
 70
     0
102
RTVSPropertyOp52
 70
     0
102
RTVSPropertyOp53
 70
     1
102
RTVSPropertyOp54
 70
     1
102
RTVSPropertyOp55
 70
     1
102
RTVSPropertyOp56
 70
     1
102
RTVSPropertyOp57
 70
     1
102
RTVSPost2010Prop28
280
     0
102
RTVSPost2010PropOp28
 70
     1
102
RTVSPost2010Prop29
280
     1
102
RTVSPost2010PropOp29
 70
     1
102
RTVSPost2010Prop30
280
     1
102
RTVSPost2010PropOp30
 70
     1
102
RTVSPost2010Prop31
280
     0
102
RTVSPost2010PropOp31
 70
     1
102
RTVSPost2010Prop32
280
     0
102
RTVSPost2010PropOp32
 70
     1
102
RTVSPost2010Prop33
280
     0
102
RTVSPost2010PropOp33
 70
     1
102
RTVSPost2010Prop34
280
     0
102
RTVSPost2010PropOp34
 70
     1
102
RTVSPost2010Prop35
280
     0
102
RTVSPost2010PropOp35
 70
     1
102
RTVSPost2010Prop36
280
     0
102
RTVSPost2010PropOp36
 70
     1
102
RTVSPost2010Prop37
 90
       50
102
RTVSPost2010PropOp37
 70
     1
102
RTVSPost2010Prop38
140
0.0
102
RTVSPost2010PropOp38
 70
     1
102
RTVSPost2010Prop39
140
1.0
102
RTVSPost2010PropOp39
 70
     1
102
RTVSPost2010Prop40
 90
        0
102
RTVSPost2010PropOp40
 70
     1
102
RTVSPost2010Prop41ColorIndex
 90
       18
102
RTVSPost2010Prop41ColorRGB
 90
        0
102
RTVSPost2010PropOp41
 70
     1
102
RTVSPost2010Prop42
 90
       50
102
RTVSPost2010PropOp42
 70
     1
102
RTVSPost2010Prop43
 90
        3
102
RTVSPost2010PropOp43
 70
     1
102
RTVSPost2010Prop44ColorIndex
 90
        5
102
RTVSPost2010Prop44ColorRGB
 90
      255
102
RTVSPost2010PropOp44
 70
     1
102
RTVSPost2010Prop45
280
     0
102
RTVSPost2010PropOp45
 70
     1
102
RTVSPost2010Prop46
 90
       50
102
RTVSPost2010PropOp46
 70
     1
102
RTVSPost2010Prop47
 90
       50
102
RTVSPost2010PropOp47
 70
     1
102
RTVSPost2010Prop48
 90
       50
102
RTVSPost2010PropOp48
 70
     1
102
RTVSPost2010Prop49
280
     0
102
RTVSPost2010PropOp49
 70
     1
102
RTVSPost2010Prop50
 90
       50
102
RTVSPost2010PropOp50
 70
     1
102
RTVSPost2010Prop51ColorIndex
 90
      256
102
RTVSPost2010Prop51ColorRGB
 90
-16777216
102
RTVSPost2010PropOp51
 70
     0
102
RTVSPost2010Prop52
140
1.0
102
RTVSPost2010PropOp52
 70
     0
102
RTVSPost2010Prop53
 90
        2
102
RTVSPost2010PropOp53
 70
     1
102
RTVSPost2010Prop54
  1
strokes_ogs.tif
102
RTVSPost2010PropOp54
 70
     1
102
RTVSPost2010Prop55
280
     0
102
RTVSPost2010PropOp55
 70
     1
102
RTVSPost2010Prop56
140
1.0
102
RTVSPost2010PropOp56
 70
     1
102
RTVSPost2010Prop57
140
1.0
102
RTVSPost2010PropOp57
 70
     1
  0
XRECORD
  5
1220F
102
{ACAD_REACTORS
330
1220E
102
}
330
1220E
100
AcDbXrecord
280
     1
102
RTVSPropertyOp0
 70
     1
102
RTVSPropertyOp1
 70
     1
102
RTVSPropertyOp2
 70
     1
102
RTVSPropertyOp3
 70
     1
102
RTVSPropertyOp4
 70
     1
102
RTVSPropertyOp5
 70
     1
102
RTVSPropertyOp6
 70
     1
102
RTVSPropertyOp7
 70
     1
102
RTVSPropertyOp8
 70
     1
102
RTVSPropertyOp9
 70
     1
102
RTVSPropertyOp10
 70
     1
102
RTVSPropertyOp11
 70
     1
102
RTVSPropertyOp12
 70
     1
102
RTVSPropertyOp13
 70
     1
102
RTVSPropertyOp14
 70
     1
102
RTVSPropertyOp15
 70
     1
102
RTVSPropertyOp16
 70
     1
102
RTVSPropertyOp17
 70
     1
102
RTVSPropertyOp18
 70
     1
102
RTVSPropertyOp19
 70
     1
102
RTVSPropertyOp20
 70
     1
102
RTVSPropertyOp21
 70
     1
102
RTVSPropertyOp22
 70
     1
102
RTVSPropertyOp23
 70
     1
102
RTVSPropertyOp24
 70
     1
102
RTVSPropertyOp25
 70
     1
102
RTVSPropertyOp26
 70
     1
102
RTVSPropertyOp27
 70
     1
102
RTVSPropertyOp28
 70
     1
102
RTVSPropertyOp29
 70
     1
102
RTVSPropertyOp30
 70
     1
102
RTVSPropertyOp31
 70
     1
102
RTVSPropertyOp32
 70
     1
102
RTVSPropertyOp33
 70
     1
102
RTVSPropertyOp34
 70
     1
102
RTVSPropertyOp35
 70
     1
102
RTVSPropertyOp36
 70
     1
102
RTVSPropertyOp37
 70
     1
102
RTVSPropertyOp38
 70
     1
102
RTVSPropertyOp39
 70
     1
102
RTVSPropertyOp40
 70
     1
102
RTVSPropertyOp41
 70
     1
102
RTVSPropertyOp42
 70
     1
102
RTVSPropertyOp43
 70
     1
102
RTVSPropertyOp44
 70
     1
102
RTVSPropertyOp45
 70
     1
102
RTVSPropertyOp46
 70
     1
102
RTVSPropertyOp47
 70
     1
102
RTVSPropertyOp48
 70
     1
102
RTVSPropertyOp49
 70
     1
102
RTVSPropertyOp50
 70
     1
102
RTVSPropertyOp51
 70
     0
102
RTVSPropertyOp52
 70
     0
102
RTVSPropertyOp53
 70
     1
102
RTVSPropertyOp54
 70
     1
102
RTVSPropertyOp55
 70
     1
102
RTVSPropertyOp56
 70
     1
102
RTVSPropertyOp57
 70
     1
102
RTVSPost2010Prop28
280
     0
102
RTVSPost2010PropOp28
 70
     1
102
RTVSPost2010Prop29
280
     1
102
RTVSPost2010PropOp29
 70
     1
102
RTVSPost2010Prop30
280
     1
102
RTVSPost2010PropOp30
 70
     1
102
RTVSPost2010Prop31
280
     0
102
RTVSPost2010PropOp31
 70
     1
102
RTVSPost2010Prop32
280
     0
102
RTVSPost2010PropOp32
 70
     1
102
RTVSPost2010Prop33
280
     0
102
RTVSPost2010PropOp33
 70
     1
102
RTVSPost2010Prop34
280
     0
102
RTVSPost2010PropOp34
 70
     1
102
RTVSPost2010Prop35
280
     0
102
RTVSPost2010PropOp35
 70
     1
102
RTVSPost2010Prop36
280
     0
102
RTVSPost2010PropOp36
 70
     1
102
RTVSPost2010Prop37
 90
       50
102
RTVSPost2010PropOp37
 70
     1
102
RTVSPost2010Prop38
140
0.0
102
RTVSPost2010PropOp38
 70
     1
102
RTVSPost2010Prop39
140
1.0
102
RTVSPost2010PropOp39
 70
     1
102
RTVSPost2010Prop40
 90
        0
102
RTVSPost2010PropOp40
 70
     1
102
RTVSPost2010Prop41ColorIndex
 90
       18
102
RTVSPost2010Prop41ColorRGB
 90
        0
102
RTVSPost2010PropOp41
 70
     1
102
RTVSPost2010Prop42
 90
       50
102
RTVSPost2010PropOp42
 70
     1
102
RTVSPost2010Prop43
 90
        3
102
RTVSPost2010PropOp43
 70
     1
102
RTVSPost2010Prop44ColorIndex
 90
        5
102
RTVSPost2010Prop44ColorRGB
 90
      255
102
RTVSPost2010PropOp44
 70
     1
102
RTVSPost2010Prop45
280
     0
102
RTVSPost2010PropOp45
 70
     1
102
RTVSPost2010Prop46
 90
       50
102
RTVSPost2010PropOp46
 70
     1
102
RTVSPost2010Prop47
 90
       50
102
RTVSPost2010PropOp47
 70
     1
102
RTVSPost2010Prop48
 90
       50
102
RTVSPost2010PropOp48
 70
     1
102
RTVSPost2010Prop49
280
     0
102
RTVSPost2010PropOp49
 70
     1
102
RTVSPost2010Prop50
 90
       50
102
RTVSPost2010PropOp50
 70
     1
102
RTVSPost2010Prop51ColorIndex
 90
      256
102
RTVSPost2010Prop51ColorRGB
 90
-16777216
102
RTVSPost2010PropOp51
 70
     0
102
RTVSPost2010Prop52
140
1.0
102
RTVSPost2010PropOp52
 70
     0
102
RTVSPost2010Prop53
 90
        2
102
RTVSPost2010PropOp53
 70
     1
102
RTVSPost2010Prop54
  1
strokes_ogs.tif
102
RTVSPost2010PropOp54
 70
     1
102
RTVSPost2010Prop55
280
     0
102
RTVSPost2010PropOp55
 70
     1
102
RTVSPost2010Prop56
140
1.0
102
RTVSPost2010PropOp56
 70
     1
102
RTVSPost2010Prop57
140
1.0
102
RTVSPost2010PropOp57
 70
     1
  0
XRECORD
  5
12211
102
{ACAD_REACTORS
330
12210
102
}
330
12210
100
AcDbXrecord
280
     1
102
RTVSPropertyOp0
 70
     1
102
RTVSPropertyOp1
 70
     1
102
RTVSPropertyOp2
 70
     1
102
RTVSPropertyOp3
 70
     1
102
RTVSPropertyOp4
 70
     1
102
RTVSPropertyOp5
 70
     1
102
RTVSPropertyOp6
 70
     1
102
RTVSPropertyOp7
 70
     1
102
RTVSPropertyOp8
 70
     1
102
RTVSPropertyOp9
 70
     1
102
RTVSPropertyOp10
 70
     1
102
RTVSPropertyOp11
 70
     1
102
RTVSPropertyOp12
 70
     1
102
RTVSPropertyOp13
 70
     1
102
RTVSPropertyOp14
 70
     1
102
RTVSPropertyOp15
 70
     1
102
RTVSPropertyOp16
 70
     1
102
RTVSPropertyOp17
 70
     1
102
RTVSPropertyOp18
 70
     1
102
RTVSPropertyOp19
 70
     1
102
RTVSPropertyOp20
 70
     1
102
RTVSPropertyOp21
 70
     1
102
RTVSPropertyOp22
 70
     1
102
RTVSPropertyOp23
 70
     1
102
RTVSPropertyOp24
 70
     1
102
RTVSPropertyOp25
 70
     1
102
RTVSPropertyOp26
 70
     1
102
RTVSPropertyOp27
 70
     1
102
RTVSPropertyOp28
 70
     1
102
RTVSPropertyOp29
 70
     1
102
RTVSPropertyOp30
 70
     1
102
RTVSPropertyOp31
 70
     1
102
RTVSPropertyOp32
 70
     1
102
RTVSPropertyOp33
 70
     1
102
RTVSPropertyOp34
 70
     1
102
RTVSPropertyOp35
 70
     1
102
RTVSPropertyOp36
 70
     1
102
RTVSPropertyOp37
 70
     1
102
RTVSPropertyOp38
 70
     1
102
RTVSPropertyOp39
 70
     1
102
RTVSPropertyOp40
 70
     1
102
RTVSPropertyOp41
 70
     1
102
RTVSPropertyOp42
 70
     1
102
RTVSPropertyOp43
 70
     1
102
RTVSPropertyOp44
 70
     1
102
RTVSPropertyOp45
 70
     1
102
RTVSPropertyOp46
 70
     1
102
RTVSPropertyOp47
 70
     1
102
RTVSPropertyOp48
 70
     1
102
RTVSPropertyOp49
 70
     1
102
RTVSPropertyOp50
 70
     1
102
RTVSPropertyOp51
 70
     0
102
RTVSPropertyOp52
 70
     0
102
RTVSPropertyOp53
 70
     1
102
RTVSPropertyOp54
 70
     1
102
RTVSPropertyOp55
 70
     1
102
RTVSPropertyOp56
 70
     1
102
RTVSPropertyOp57
 70
     1
102
RTVSPost2010Prop28
280
     0
102
RTVSPost2010PropOp28
 70
     1
102
RTVSPost2010Prop29
280
     1
102
RTVSPost2010PropOp29
 70
     1
102
RTVSPost2010Prop30
280
     1
102
RTVSPost2010PropOp30
 70
     1
102
RTVSPost2010Prop31
280
     0
102
RTVSPost2010PropOp31
 70
     1
102
RTVSPost2010Prop32
280
     0
102
RTVSPost2010PropOp32
 70
     1
102
RTVSPost2010Prop33
280
     0
102
RTVSPost2010PropOp33
 70
     1
102
RTVSPost2010Prop34
280
     0
102
RTVSPost2010PropOp34
 70
     1
102
RTVSPost2010Prop35
280
     0
102
RTVSPost2010PropOp35
 70
     1
102
RTVSPost2010Prop36
280
     0
102
RTVSPost2010PropOp36
 70
     1
102
RTVSPost2010Prop37
 90
       50
102
RTVSPost2010PropOp37
 70
     1
102
RTVSPost2010Prop38
140
0.0
102
RTVSPost2010PropOp38
 70
     1
102
RTVSPost2010Prop39
140
1.0
102
RTVSPost2010PropOp39
 70
     1
102
RTVSPost2010Prop40
 90
        0
102
RTVSPost2010PropOp40
 70
     1
102
RTVSPost2010Prop41ColorIndex
 90
       18
102
RTVSPost2010Prop41ColorRGB
 90
        0
102
RTVSPost2010PropOp41
 70
     1
102
RTVSPost2010Prop42
 90
       50
102
RTVSPost2010PropOp42
 70
     1
102
RTVSPost2010Prop43
 90
        3
102
RTVSPost2010PropOp43
 70
     1
102
RTVSPost2010Prop44ColorIndex
 90
        5
102
RTVSPost2010Prop44ColorRGB
 90
      255
102
RTVSPost2010PropOp44
 70
     1
102
RTVSPost2010Prop45
280
     0
102
RTVSPost2010PropOp45
 70
     1
102
RTVSPost2010Prop46
 90
       50
102
RTVSPost2010PropOp46
 70
     1
102
RTVSPost2010Prop47
 90
       50
102
RTVSPost2010PropOp47
 70
     1
102
RTVSPost2010Prop48
 90
       50
102
RTVSPost2010PropOp48
 70
     1
102
RTVSPost2010Prop49
280
     0
102
RTVSPost2010PropOp49
 70
     1
102
RTVSPost2010Prop50
 90
       50
102
RTVSPost2010PropOp50
 70
     1
102
RTVSPost2010Prop51ColorIndex
 90
      256
102
RTVSPost2010Prop51ColorRGB
 90
-16777216
102
RTVSPost2010PropOp51
 70
     0
102
RTVSPost2010Prop52
140
1.0
102
RTVSPost2010PropOp52
 70
     0
102
RTVSPost2010Prop53
 90
        2
102
RTVSPost2010PropOp53
 70
     1
102
RTVSPost2010Prop54
  1
strokes_ogs.tif
102
RTVSPost2010PropOp54
 70
     1
102
RTVSPost2010Prop55
280
     0
102
RTVSPost2010PropOp55
 70
     1
102
RTVSPost2010Prop56
140
1.0
102
RTVSPost2010PropOp56
 70
     1
102
RTVSPost2010Prop57
140
1.0
102
RTVSPost2010PropOp57
 70
     1
  0
XRECORD
  5
12213
102
{ACAD_REACTORS
330
12212
102
}
330
12212
100
AcDbXrecord
280
     1
102
RTVSPropertyOp0
 70
     1
102
RTVSPropertyOp1
 70
     1
102
RTVSPropertyOp2
 70
     1
102
RTVSPropertyOp3
 70
     1
102
RTVSPropertyOp4
 70
     1
102
RTVSPropertyOp5
 70
     1
102
RTVSPropertyOp6
 70
     1
102
RTVSPropertyOp7
 70
     1
102
RTVSPropertyOp8
 70
     1
102
RTVSPropertyOp9
 70
     1
102
RTVSPropertyOp10
 70
     1
102
RTVSPropertyOp11
 70
     1
102
RTVSPropertyOp12
 70
     1
102
RTVSPropertyOp13
 70
     1
102
RTVSPropertyOp14
 70
     1
102
RTVSPropertyOp15
 70
     1
102
RTVSPropertyOp16
 70
     1
102
RTVSPropertyOp17
 70
     1
102
RTVSPropertyOp18
 70
     1
102
RTVSPropertyOp19
 70
     1
102
RTVSPropertyOp20
 70
     1
102
RTVSPropertyOp21
 70
     1
102
RTVSPropertyOp22
 70
     1
102
RTVSPropertyOp23
 70
     1
102
RTVSPropertyOp24
 70
     1
102
RTVSPropertyOp25
 70
     1
102
RTVSPropertyOp26
 70
     1
102
RTVSPropertyOp27
 70
     1
102
RTVSPropertyOp28
 70
     1
102
RTVSPropertyOp29
 70
     1
102
RTVSPropertyOp30
 70
     1
102
RTVSPropertyOp31
 70
     1
102
RTVSPropertyOp32
 70
     1
102
RTVSPropertyOp33
 70
     1
102
RTVSPropertyOp34
 70
     1
102
RTVSPropertyOp35
 70
     1
102
RTVSPropertyOp36
 70
     1
102
RTVSPropertyOp37
 70
     1
102
RTVSPropertyOp38
 70
     1
102
RTVSPropertyOp39
 70
     1
102
RTVSPropertyOp40
 70
     1
102
RTVSPropertyOp41
 70
     1
102
RTVSPropertyOp42
 70
     1
102
RTVSPropertyOp43
 70
     1
102
RTVSPropertyOp44
 70
     1
102
RTVSPropertyOp45
 70
     1
102
RTVSPropertyOp46
 70
     1
102
RTVSPropertyOp47
 70
     1
102
RTVSPropertyOp48
 70
     1
102
RTVSPropertyOp49
 70
     1
102
RTVSPropertyOp50
 70
     1
102
RTVSPropertyOp51
 70
     0
102
RTVSPropertyOp52
 70
     0
102
RTVSPropertyOp53
 70
     1
102
RTVSPropertyOp54
 70
     1
102
RTVSPropertyOp55
 70
     1
102
RTVSPropertyOp56
 70
     1
102
RTVSPropertyOp57
 70
     1
102
RTVSPost2010Prop28
280
     0
102
RTVSPost2010PropOp28
 70
     1
102
RTVSPost2010Prop29
280
     1
102
RTVSPost2010PropOp29
 70
     1
102
RTVSPost2010Prop30
280
     1
102
RTVSPost2010PropOp30
 70
     1
102
RTVSPost2010Prop31
280
     0
102
RTVSPost2010PropOp31
 70
     1
102
RTVSPost2010Prop32
280
     0
102
RTVSPost2010PropOp32
 70
     1
102
RTVSPost2010Prop33
280
     0
102
RTVSPost2010PropOp33
 70
     1
102
RTVSPost2010Prop34
280
     0
102
RTVSPost2010PropOp34
 70
     1
102
RTVSPost2010Prop35
280
     0
102
RTVSPost2010PropOp35
 70
     1
102
RTVSPost2010Prop36
280
     0
102
RTVSPost2010PropOp36
 70
     1
102
RTVSPost2010Prop37
 90
       50
102
RTVSPost2010PropOp37
 70
     1
102
RTVSPost2010Prop38
140
0.0
102
RTVSPost2010PropOp38
 70
     1
102
RTVSPost2010Prop39
140
1.0
102
RTVSPost2010PropOp39
 70
     1
102
RTVSPost2010Prop40
 90
        0
102
RTVSPost2010PropOp40
 70
     1
102
RTVSPost2010Prop41ColorIndex
 90
       18
102
RTVSPost2010Prop41ColorRGB
 90
        0
102
RTVSPost2010PropOp41
 70
     1
102
RTVSPost2010Prop42
 90
       50
102
RTVSPost2010PropOp42
 70
     1
102
RTVSPost2010Prop43
 90
        3
102
RTVSPost2010PropOp43
 70
     1
102
RTVSPost2010Prop44ColorIndex
 90
        5
102
RTVSPost2010Prop44ColorRGB
 90
      255
102
RTVSPost2010PropOp44
 70
     1
102
RTVSPost2010Prop45
280
     0
102
RTVSPost2010PropOp45
 70
     1
102
RTVSPost2010Prop46
 90
       50
102
RTVSPost2010PropOp46
 70
     1
102
RTVSPost2010Prop47
 90
       50
102
RTVSPost2010PropOp47
 70
     1
102
RTVSPost2010Prop48
 90
       50
102
RTVSPost2010PropOp48
 70
     1
102
RTVSPost2010Prop49
280
     0
102
RTVSPost2010PropOp49
 70
     1
102
RTVSPost2010Prop50
 90
       50
102
RTVSPost2010PropOp50
 70
     1
102
RTVSPost2010Prop51ColorIndex
 90
      256
102
RTVSPost2010Prop51ColorRGB
 90
-16777216
102
RTVSPost2010PropOp51
 70
     0
102
RTVSPost2010Prop52
140
1.0
102
RTVSPost2010PropOp52
 70
     0
102
RTVSPost2010Prop53
 90
        2
102
RTVSPost2010PropOp53
 70
     1
102
RTVSPost2010Prop54
  1
strokes_ogs.tif
102
RTVSPost2010PropOp54
 70
     1
102
RTVSPost2010Prop55
280
     0
102
RTVSPost2010PropOp55
 70
     1
102
RTVSPost2010Prop56
140
1.0
102
RTVSPost2010PropOp56
 70
     1
102
RTVSPost2010Prop57
140
1.0
102
RTVSPost2010PropOp57
 70
     1
  0
XRECORD
  5
12215
102
{ACAD_REACTORS
330
12214
102
}
330
12214
100
AcDbXrecord
280
     1
102
RTVSPropertyOp0
 70
     1
102
RTVSPropertyOp1
 70
     1
102
RTVSPropertyOp2
 70
     1
102
RTVSPropertyOp3
 70
     1
102
RTVSPropertyOp4
 70
     1
102
RTVSPropertyOp5
 70
     1
102
RTVSPropertyOp6
 70
     1
102
RTVSPropertyOp7
 70
     1
102
RTVSPropertyOp8
 70
     1
102
RTVSPropertyOp9
 70
     1
102
RTVSPropertyOp10
 70
     1
102
RTVSPropertyOp11
 70
     1
102
RTVSPropertyOp12
 70
     1
102
RTVSPropertyOp13
 70
     1
102
RTVSPropertyOp14
 70
     1
102
RTVSPropertyOp15
 70
     1
102
RTVSPropertyOp16
 70
     1
102
RTVSPropertyOp17
 70
     1
102
RTVSPropertyOp18
 70
     1
102
RTVSPropertyOp19
 70
     1
102
RTVSPropertyOp20
 70
     1
102
RTVSPropertyOp21
 70
     1
102
RTVSPropertyOp22
 70
     1
102
RTVSPropertyOp23
 70
     1
102
RTVSPropertyOp24
 70
     1
102
RTVSPropertyOp25
 70
     1
102
RTVSPropertyOp26
 70
     1
102
RTVSPropertyOp27
 70
     1
102
RTVSPropertyOp28
 70
     1
102
RTVSPropertyOp29
 70
     1
102
RTVSPropertyOp30
 70
     1
102
RTVSPropertyOp31
 70
     1
102
RTVSPropertyOp32
 70
     1
102
RTVSPropertyOp33
 70
     1
102
RTVSPropertyOp34
 70
     1
102
RTVSPropertyOp35
 70
     1
102
RTVSPropertyOp36
 70
     1
102
RTVSPropertyOp37
 70
     1
102
RTVSPropertyOp38
 70
     1
102
RTVSPropertyOp39
 70
     1
102
RTVSPropertyOp40
 70
     1
102
RTVSPropertyOp41
 70
     1
102
RTVSPropertyOp42
 70
     1
102
RTVSPropertyOp43
 70
     1
102
RTVSPropertyOp44
 70
     1
102
RTVSPropertyOp45
 70
     1
102
RTVSPropertyOp46
 70
     1
102
RTVSPropertyOp47
 70
     1
102
RTVSPropertyOp48
 70
     1
102
RTVSPropertyOp49
 70
     1
102
RTVSPropertyOp50
 70
     1
102
RTVSPropertyOp51
 70
     0
102
RTVSPropertyOp52
 70
     0
102
RTVSPropertyOp53
 70
     1
102
RTVSPropertyOp54
 70
     1
102
RTVSPropertyOp55
 70
     1
102
RTVSPropertyOp56
 70
     1
102
RTVSPropertyOp57
 70
     1
102
RTVSPost2010Prop28
280
     0
102
RTVSPost2010PropOp28
 70
     1
102
RTVSPost2010Prop29
280
     1
102
RTVSPost2010PropOp29
 70
     1
102
RTVSPost2010Prop30
280
     1
102
RTVSPost2010PropOp30
 70
     1
102
RTVSPost2010Prop31
280
     0
102
RTVSPost2010PropOp31
 70
     1
102
RTVSPost2010Prop32
280
     0
102
RTVSPost2010PropOp32
 70
     1
102
RTVSPost2010Prop33
280
     0
102
RTVSPost2010PropOp33
 70
     1
102
RTVSPost2010Prop34
280
     0
102
RTVSPost2010PropOp34
 70
     1
102
RTVSPost2010Prop35
280
     0
102
RTVSPost2010PropOp35
 70
     1
102
RTVSPost2010Prop36
280
     0
102
RTVSPost2010PropOp36
 70
     1
102
RTVSPost2010Prop37
 90
       50
102
RTVSPost2010PropOp37
 70
     1
102
RTVSPost2010Prop38
140
0.0
102
RTVSPost2010PropOp38
 70
     1
102
RTVSPost2010Prop39
140
1.0
102
RTVSPost2010PropOp39
 70
     1
102
RTVSPost2010Prop40
 90
        0
102
RTVSPost2010PropOp40
 70
     1
102
RTVSPost2010Prop41ColorIndex
 90
       18
102
RTVSPost2010Prop41ColorRGB
 90
        0
102
RTVSPost2010PropOp41
 70
     1
102
RTVSPost2010Prop42
 90
       50
102
RTVSPost2010PropOp42
 70
     1
102
RTVSPost2010Prop43
 90
        3
102
RTVSPost2010PropOp43
 70
     1
102
RTVSPost2010Prop44ColorIndex
 90
        5
102
RTVSPost2010Prop44ColorRGB
 90
      255
102
RTVSPost2010PropOp44
 70
     1
102
RTVSPost2010Prop45
280
     0
102
RTVSPost2010PropOp45
 70
     1
102
RTVSPost2010Prop46
 90
       50
102
RTVSPost2010PropOp46
 70
     1
102
RTVSPost2010Prop47
 90
       50
102
RTVSPost2010PropOp47
 70
     1
102
RTVSPost2010Prop48
 90
       50
102
RTVSPost2010PropOp48
 70
     1
102
RTVSPost2010Prop49
280
     0
102
RTVSPost2010PropOp49
 70
     1
102
RTVSPost2010Prop50
 90
       50
102
RTVSPost2010PropOp50
 70
     1
102
RTVSPost2010Prop51ColorIndex
 90
      256
102
RTVSPost2010Prop51ColorRGB
 90
-16777216
102
RTVSPost2010PropOp51
 70
     0
102
RTVSPost2010Prop52
140
1.0
102
RTVSPost2010PropOp52
 70
     0
102
RTVSPost2010Prop53
 90
        2
102
RTVSPost2010PropOp53
 70
     1
102
RTVSPost2010Prop54
  1
strokes_ogs.tif
102
RTVSPost2010PropOp54
 70
     1
102
RTVSPost2010Prop55
280
     0
102
RTVSPost2010PropOp55
 70
     1
102
RTVSPost2010Prop56
140
1.0
102
RTVSPost2010PropOp56
 70
     1
102
RTVSPost2010Prop57
140
1.0
102
RTVSPost2010PropOp57
 70
     1
  0
XRECORD
  5
12217
102
{ACAD_REACTORS
330
12216
102
}
330
12216
100
AcDbXrecord
280
     1
102
RTVSPropertyOp0
 70
     0
102
RTVSPropertyOp1
 70
     0
102
RTVSPropertyOp2
 70
     0
102
RTVSPropertyOp3
 70
     0
102
RTVSPropertyOp4
 70
     0
102
RTVSPropertyOp5
 70
     0
102
RTVSPropertyOp6
 70
     0
102
RTVSPropertyOp7
 70
     0
102
RTVSPropertyOp8
 70
     0
102
RTVSPropertyOp9
 70
     0
102
RTVSPropertyOp10
 70
     0
102
RTVSPropertyOp11
 70
     0
102
RTVSPropertyOp12
 70
     0
102
RTVSPropertyOp13
 70
     0
102
RTVSPropertyOp14
 70
     2
102
RTVSPropertyOp15
 70
     0
102
RTVSPropertyOp16
 70
     0
102
RTVSPropertyOp17
 70
     0
102
RTVSPropertyOp18
 70
     0
102
RTVSPropertyOp19
 70
     0
102
RTVSPropertyOp20
 70
     0
102
RTVSPropertyOp21
 70
     0
102
RTVSPropertyOp22
 70
     0
102
RTVSPropertyOp23
 70
     0
102
RTVSPropertyOp24
 70
     0
102
RTVSPropertyOp25
 70
     0
102
RTVSPropertyOp26
 70
     0
102
RTVSPropertyOp27
 70
     0
102
RTVSPropertyOp28
 70
     0
102
RTVSPropertyOp29
 70
     0
102
RTVSPropertyOp30
 70
     0
102
RTVSPropertyOp31
 70
     0
102
RTVSPropertyOp32
 70
     0
102
RTVSPropertyOp33
 70
     1
102
RTVSPropertyOp34
 70
     1
102
RTVSPropertyOp35
 70
     1
102
RTVSPropertyOp36
 70
     1
102
RTVSPropertyOp37
 70
     1
102
RTVSPropertyOp38
 70
     1
102
RTVSPropertyOp39
 70
     1
102
RTVSPropertyOp40
 70
     1
102
RTVSPropertyOp41
 70
     1
102
RTVSPropertyOp42
 70
     1
102
RTVSPropertyOp43
 70
     1
102
RTVSPropertyOp44
 70
     1
102
RTVSPropertyOp45
 70
     1
102
RTVSPropertyOp46
 70
     1
102
RTVSPropertyOp47
 70
     1
102
RTVSPropertyOp48
 70
     1
102
RTVSPropertyOp49
 70
     1
102
RTVSPropertyOp50
 70
     1
102
RTVSPropertyOp51
 70
     0
102
RTVSPropertyOp52
 70
     0
102
RTVSPropertyOp53
 70
     1
102
RTVSPropertyOp54
 70
     1
102
RTVSPropertyOp55
 70
     1
102
RTVSPropertyOp56
 70
     1
102
RTVSPropertyOp57
 70
     1
102
RTVSPost2010Prop28
280
     0
102
RTVSPost2010PropOp28
 70
     0
102
RTVSPost2010Prop29
280
     1
102
RTVSPost2010PropOp29
 70
     0
102
RTVSPost2010Prop30
280
     1
102
RTVSPost2010PropOp30
 70
     0
102
RTVSPost2010Prop31
280
     0
102
RTVSPost2010PropOp31
 70
     0
102
RTVSPost2010Prop32
280
     0
102
RTVSPost2010PropOp32
 70
     0
102
RTVSPost2010Prop33
280
     0
102
RTVSPost2010PropOp33
 70
     1
102
RTVSPost2010Prop34
280
     0
102
RTVSPost2010PropOp34
 70
     1
102
RTVSPost2010Prop35
280
     0
102
RTVSPost2010PropOp35
 70
     1
102
RTVSPost2010Prop36
280
     0
102
RTVSPost2010PropOp36
 70
     1
102
RTVSPost2010Prop37
 90
       50
102
RTVSPost2010PropOp37
 70
     1
102
RTVSPost2010Prop38
140
0.0
102
RTVSPost2010PropOp38
 70
     1
102
RTVSPost2010Prop39
140
1.0
102
RTVSPost2010PropOp39
 70
     1
102
RTVSPost2010Prop40
 90
        0
102
RTVSPost2010PropOp40
 70
     1
102
RTVSPost2010Prop41ColorIndex
 90
       18
102
RTVSPost2010Prop41ColorRGB
 90
        0
102
RTVSPost2010PropOp41
 70
     1
102
RTVSPost2010Prop42
 90
       50
102
RTVSPost2010PropOp42
 70
     1
102
RTVSPost2010Prop43
 90
        3
102
RTVSPost2010PropOp43
 70
     1
102
RTVSPost2010Prop44ColorIndex
 90
        5
102
RTVSPost2010Prop44ColorRGB
 90
      255
102
RTVSPost2010PropOp44
 70
     1
102
RTVSPost2010Prop45
280
     0
102
RTVSPost2010PropOp45
 70
     1
102
RTVSPost2010Prop46
 90
       50
102
RTVSPost2010PropOp46
 70
     1
102
RTVSPost2010Prop47
 90
       50
102
RTVSPost2010PropOp47
 70
     1
102
RTVSPost2010Prop48
 90
       50
102
RTVSPost2010PropOp48
 70
     1
102
RTVSPost2010Prop49
280
     0
102
RTVSPost2010PropOp49
 70
     1
102
RTVSPost2010Prop50
 90
       50
102
RTVSPost2010PropOp50
 70
     1
102
RTVSPost2010Prop51ColorIndex
 90
      256
102
RTVSPost2010Prop51ColorRGB
 90
-16777216
102
RTVSPost2010PropOp51
 70
     0
102
RTVSPost2010Prop52
140
1.0
102
RTVSPost2010PropOp52
 70
     0
102
RTVSPost2010Prop53
 90
        2
102
RTVSPost2010PropOp53
 70
     1
102
RTVSPost2010Prop54
  1
strokes_ogs.tif
102
RTVSPost2010PropOp54
 70
     1
102
RTVSPost2010Prop55
280
     0
102
RTVSPost2010PropOp55
 70
     1
102
RTVSPost2010Prop56
140
1.0
102
RTVSPost2010PropOp56
 70
     1
102
RTVSPost2010Prop57
140
1.0
102
RTVSPost2010PropOp57
 70
     1
  0
XRECORD
  5
12219
102
{ACAD_REACTORS
330
12218
102
}
330
12218
100
AcDbXrecord
280
     1
102
RTVSPropertyOp0
 70
     1
102
RTVSPropertyOp1
 70
     1
102
RTVSPropertyOp2
 70
     1
102
RTVSPropertyOp3
 70
     1
102
RTVSPropertyOp4
 70
     1
102
RTVSPropertyOp5
 70
     1
102
RTVSPropertyOp6
 70
     1
102
RTVSPropertyOp7
 70
     1
102
RTVSPropertyOp8
 70
     1
102
RTVSPropertyOp9
 70
     1
102
RTVSPropertyOp10
 70
     1
102
RTVSPropertyOp11
 70
     1
102
RTVSPropertyOp12
 70
     1
102
RTVSPropertyOp13
 70
     1
102
RTVSPropertyOp14
 70
     1
102
RTVSPropertyOp15
 70
     1
102
RTVSPropertyOp16
 70
     1
102
RTVSPropertyOp17
 70
     1
102
RTVSPropertyOp18
 70
     1
102
RTVSPropertyOp19
 70
     1
102
RTVSPropertyOp20
 70
     1
102
RTVSPropertyOp21
 70
     1
102
RTVSPropertyOp22
 70
     1
102
RTVSPropertyOp23
 70
     1
102
RTVSPropertyOp24
 70
     1
102
RTVSPropertyOp25
 70
     1
102
RTVSPropertyOp26
 70
     1
102
RTVSPropertyOp27
 70
     1
102
RTVSPropertyOp28
 70
     1
102
RTVSPropertyOp29
 70
     1
102
RTVSPropertyOp30
 70
     1
102
RTVSPropertyOp31
 70
     1
102
RTVSPropertyOp32
 70
     1
102
RTVSPropertyOp33
 70
     1
102
RTVSPropertyOp34
 70
     1
102
RTVSPropertyOp35
 70
     1
102
RTVSPropertyOp36
 70
     1
102
RTVSPropertyOp37
 70
     1
102
RTVSPropertyOp38
 70
     1
102
RTVSPropertyOp39
 70
     1
102
RTVSPropertyOp40
 70
     1
102
RTVSPropertyOp41
 70
     1
102
RTVSPropertyOp42
 70
     1
102
RTVSPropertyOp43
 70
     1
102
RTVSPropertyOp44
 70
     1
102
RTVSPropertyOp45
 70
     1
102
RTVSPropertyOp46
 70
     1
102
RTVSPropertyOp47
 70
     1
102
RTVSPropertyOp48
 70
     1
102
RTVSPropertyOp49
 70
     1
102
RTVSPropertyOp50
 70
     1
102
RTVSPropertyOp51
 70
     0
102
RTVSPropertyOp52
 70
     0
102
RTVSPropertyOp53
 70
     1
102
RTVSPropertyOp54
 70
     1
102
RTVSPropertyOp55
 70
     1
102
RTVSPropertyOp56
 70
     1
102
RTVSPropertyOp57
 70
     1
102
RTVSPost2010Prop28
280
     0
102
RTVSPost2010PropOp28
 70
     1
102
RTVSPost2010Prop29
280
     1
102
RTVSPost2010PropOp29
 70
     1
102
RTVSPost2010Prop30
280
     1
102
RTVSPost2010PropOp30
 70
     1
102
RTVSPost2010Prop31
280
     0
102
RTVSPost2010PropOp31
 70
     1
102
RTVSPost2010Prop32
280
     0
102
RTVSPost2010PropOp32
 70
     1
102
RTVSPost2010Prop33
280
     0
102
RTVSPost2010PropOp33
 70
     1
102
RTVSPost2010Prop34
280
     0
102
RTVSPost2010PropOp34
 70
     1
102
RTVSPost2010Prop35
280
     0
102
RTVSPost2010PropOp35
 70
     1
102
RTVSPost2010Prop36
280
     0
102
RTVSPost2010PropOp36
 70
     1
102
RTVSPost2010Prop37
 90
       50
102
RTVSPost2010PropOp37
 70
     1
102
RTVSPost2010Prop38
140
0.0
102
RTVSPost2010PropOp38
 70
     1
102
RTVSPost2010Prop39
140
1.0
102
RTVSPost2010PropOp39
 70
     1
102
RTVSPost2010Prop40
 90
        0
102
RTVSPost2010PropOp40
 70
     1
102
RTVSPost2010Prop41ColorIndex
 90
       18
102
RTVSPost2010Prop41ColorRGB
 90
        0
102
RTVSPost2010PropOp41
 70
     1
102
RTVSPost2010Prop42
 90
       50
102
RTVSPost2010PropOp42
 70
     1
102
RTVSPost2010Prop43
 90
        3
102
RTVSPost2010PropOp43
 70
     1
102
RTVSPost2010Prop44ColorIndex
 90
        5
102
RTVSPost2010Prop44ColorRGB
 90
      255
102
RTVSPost2010PropOp44
 70
     1
102
RTVSPost2010Prop45
280
     0
102
RTVSPost2010PropOp45
 70
     1
102
RTVSPost2010Prop46
 90
       50
102
RTVSPost2010PropOp46
 70
     1
102
RTVSPost2010Prop47
 90
       50
102
RTVSPost2010PropOp47
 70
     1
102
RTVSPost2010Prop48
 90
       50
102
RTVSPost2010PropOp48
 70
     1
102
RTVSPost2010Prop49
280
     0
102
RTVSPost2010PropOp49
 70
     1
102
RTVSPost2010Prop50
 90
       50
102
RTVSPost2010PropOp50
 70
     1
102
RTVSPost2010Prop51ColorIndex
 90
      256
102
RTVSPost2010Prop51ColorRGB
 90
-16777216
102
RTVSPost2010PropOp51
 70
     0
102
RTVSPost2010Prop52
140
1.0
102
RTVSPost2010PropOp52
 70
     0
102
RTVSPost2010Prop53
 90
        2
102
RTVSPost2010PropOp53
 70
     1
102
RTVSPost2010Prop54
  1
strokes_ogs.tif
102
RTVSPost2010PropOp54
 70
     1
102
RTVSPost2010Prop55
280
     0
102
RTVSPost2010PropOp55
 70
     1
102
RTVSPost2010Prop56
140
1.0
102
RTVSPost2010PropOp56
 70
     1
102
RTVSPost2010Prop57
140
1.0
102
RTVSPost2010PropOp57
 70
     1
  0
XRECORD
  5
1221B
102
{ACAD_REACTORS
330
1221A
102
}
330
1221A
100
AcDbXrecord
280
     1
102
RTVSPropertyOp0
 70
     1
102
RTVSPropertyOp1
 70
     1
102
RTVSPropertyOp2
 70
     1
102
RTVSPropertyOp3
 70
     1
102
RTVSPropertyOp4
 70
     1
102
RTVSPropertyOp5
 70
     1
102
RTVSPropertyOp6
 70
     1
102
RTVSPropertyOp7
 70
     1
102
RTVSPropertyOp8
 70
     1
102
RTVSPropertyOp9
 70
     1
102
RTVSPropertyOp10
 70
     1
102
RTVSPropertyOp11
 70
     1
102
RTVSPropertyOp12
 70
     1
102
RTVSPropertyOp13
 70
     1
102
RTVSPropertyOp14
 70
     1
102
RTVSPropertyOp15
 70
     1
102
RTVSPropertyOp16
 70
     1
102
RTVSPropertyOp17
 70
     1
102
RTVSPropertyOp18
 70
     1
102
RTVSPropertyOp19
 70
     1
102
RTVSPropertyOp20
 70
     1
102
RTVSPropertyOp21
 70
     1
102
RTVSPropertyOp22
 70
     1
102
RTVSPropertyOp23
 70
     1
102
RTVSPropertyOp24
 70
     1
102
RTVSPropertyOp25
 70
     1
102
RTVSPropertyOp26
 70
     1
102
RTVSPropertyOp27
 70
     1
102
RTVSPropertyOp28
 70
     1
102
RTVSPropertyOp29
 70
     1
102
RTVSPropertyOp30
 70
     1
102
RTVSPropertyOp31
 70
     1
102
RTVSPropertyOp32
 70
     1
102
RTVSPropertyOp33
 70
     1
102
RTVSPropertyOp34
 70
     1
102
RTVSPropertyOp35
 70
     1
102
RTVSPropertyOp36
 70
     1
102
RTVSPropertyOp37
 70
     1
102
RTVSPropertyOp38
 70
     1
102
RTVSPropertyOp39
 70
     1
102
RTVSPropertyOp40
 70
     1
102
RTVSPropertyOp41
 70
     1
102
RTVSPropertyOp42
 70
     1
102
RTVSPropertyOp43
 70
     1
102
RTVSPropertyOp44
 70
     1
102
RTVSPropertyOp45
 70
     1
102
RTVSPropertyOp46
 70
     1
102
RTVSPropertyOp47
 70
     1
102
RTVSPropertyOp48
 70
     1
102
RTVSPropertyOp49
 70
     1
102
RTVSPropertyOp50
 70
     1
102
RTVSPropertyOp51
 70
     0
102
RTVSPropertyOp52
 70
     0
102
RTVSPropertyOp53
 70
     1
102
RTVSPropertyOp54
 70
     1
102
RTVSPropertyOp55
 70
     1
102
RTVSPropertyOp56
 70
     1
102
RTVSPropertyOp57
 70
     1
102
RTVSPost2010Prop28
280
     0
102
RTVSPost2010PropOp28
 70
     1
102
RTVSPost2010Prop29
280
     1
102
RTVSPost2010PropOp29
 70
     1
102
RTVSPost2010Prop30
280
     1
102
RTVSPost2010PropOp30
 70
     1
102
RTVSPost2010Prop31
280
     0
102
RTVSPost2010PropOp31
 70
     1
102
RTVSPost2010Prop32
280
     0
102
RTVSPost2010PropOp32
 70
     1
102
RTVSPost2010Prop33
280
     0
102
RTVSPost2010PropOp33
 70
     1
102
RTVSPost2010Prop34
280
     0
102
RTVSPost2010PropOp34
 70
     1
102
RTVSPost2010Prop35
280
     0
102
RTVSPost2010PropOp35
 70
     1
102
RTVSPost2010Prop36
280
     0
102
RTVSPost2010PropOp36
 70
     1
102
RTVSPost2010Prop37
 90
       50
102
RTVSPost2010PropOp37
 70
     1
102
RTVSPost2010Prop38
140
0.0
102
RTVSPost2010PropOp38
 70
     1
102
RTVSPost2010Prop39
140
1.0
102
RTVSPost2010PropOp39
 70
     1
102
RTVSPost2010Prop40
 90
        0
102
RTVSPost2010PropOp40
 70
     1
102
RTVSPost2010Prop41ColorIndex
 90
       18
102
RTVSPost2010Prop41ColorRGB
 90
        0
102
RTVSPost2010PropOp41
 70
     1
102
RTVSPost2010Prop42
 90
       50
102
RTVSPost2010PropOp42
 70
     1
102
RTVSPost2010Prop43
 90
        3
102
RTVSPost2010PropOp43
 70
     1
102
RTVSPost2010Prop44ColorIndex
 90
        5
102
RTVSPost2010Prop44ColorRGB
 90
      255
102
RTVSPost2010PropOp44
 70
     1
102
RTVSPost2010Prop45
280
     0
102
RTVSPost2010PropOp45
 70
     1
102
RTVSPost2010Prop46
 90
       50
102
RTVSPost2010PropOp46
 70
     1
102
RTVSPost2010Prop47
 90
       50
102
RTVSPost2010PropOp47
 70
     1
102
RTVSPost2010Prop48
 90
       50
102
RTVSPost2010PropOp48
 70
     1
102
RTVSPost2010Prop49
280
     0
102
RTVSPost2010PropOp49
 70
     1
102
RTVSPost2010Prop50
 90
       50
102
RTVSPost2010PropOp50
 70
     1
102
RTVSPost2010Prop51ColorIndex
 90
      256
102
RTVSPost2010Prop51ColorRGB
 90
-16777216
102
RTVSPost2010PropOp51
 70
     0
102
RTVSPost2010Prop52
140
1.0
102
RTVSPost2010PropOp52
 70
     0
102
RTVSPost2010Prop53
 90
        2
102
RTVSPost2010PropOp53
 70
     1
102
RTVSPost2010Prop54
  1
strokes_ogs.tif
102
RTVSPost2010PropOp54
 70
     1
102
RTVSPost2010Prop55
280
     0
102
RTVSPost2010PropOp55
 70
     1
102
RTVSPost2010Prop56
140
1.0
102
RTVSPost2010PropOp56
 70
     1
102
RTVSPost2010Prop57
140
1.0
102
RTVSPost2010PropOp57
 70
     1
  0
XRECORD
  5
1221D
102
{ACAD_REACTORS
330
1221C
102
}
330
1221C
100
AcDbXrecord
280
     1
102
RTVSPropertyOp0
 70
     1
102
RTVSPropertyOp1
 70
     1
102
RTVSPropertyOp2
 70
     1
102
RTVSPropertyOp3
 70
     1
102
RTVSPropertyOp4
 70
     1
102
RTVSPropertyOp5
 70
     1
102
RTVSPropertyOp6
 70
     1
102
RTVSPropertyOp7
 70
     1
102
RTVSPropertyOp8
 70
     1
102
RTVSPropertyOp9
 70
     1
102
RTVSPropertyOp10
 70
     1
102
RTVSPropertyOp11
 70
     1
102
RTVSPropertyOp12
 70
     1
102
RTVSPropertyOp13
 70
     1
102
RTVSPropertyOp14
 70
     1
102
RTVSPropertyOp15
 70
     1
102
RTVSPropertyOp16
 70
     1
102
RTVSPropertyOp17
 70
     1
102
RTVSPropertyOp18
 70
     1
102
RTVSPropertyOp19
 70
     1
102
RTVSPropertyOp20
 70
     1
102
RTVSPropertyOp21
 70
     1
102
RTVSPropertyOp22
 70
     1
102
RTVSPropertyOp23
 70
     1
102
RTVSPropertyOp24
 70
     1
102
RTVSPropertyOp25
 70
     1
102
RTVSPropertyOp26
 70
     1
102
RTVSPropertyOp27
 70
     1
102
RTVSPropertyOp28
 70
     1
102
RTVSPropertyOp29
 70
     1
102
RTVSPropertyOp30
 70
     1
102
RTVSPropertyOp31
 70
     1
102
RTVSPropertyOp32
 70
     1
102
RTVSPropertyOp33
 70
     1
102
RTVSPropertyOp34
 70
     1
102
RTVSPropertyOp35
 70
     1
102
RTVSPropertyOp36
 70
     1
102
RTVSPropertyOp37
 70
     1
102
RTVSPropertyOp38
 70
     1
102
RTVSPropertyOp39
 70
     1
102
RTVSPropertyOp40
 70
     1
102
RTVSPropertyOp41
 70
     1
102
RTVSPropertyOp42
 70
     1
102
RTVSPropertyOp43
 70
     1
102
RTVSPropertyOp44
 70
     1
102
RTVSPropertyOp45
 70
     1
102
RTVSPropertyOp46
 70
     1
102
RTVSPropertyOp47
 70
     1
102
RTVSPropertyOp48
 70
     1
102
RTVSPropertyOp49
 70
     1
102
RTVSPropertyOp50
 70
     1
102
RTVSPropertyOp51
 70
     0
102
RTVSPropertyOp52
 70
     0
102
RTVSPropertyOp53
 70
     1
102
RTVSPropertyOp54
 70
     1
102
RTVSPropertyOp55
 70
     1
102
RTVSPropertyOp56
 70
     1
102
RTVSPropertyOp57
 70
     1
102
RTVSPost2010Prop28
280
     0
102
RTVSPost2010PropOp28
 70
     1
102
RTVSPost2010Prop29
280
     1
102
RTVSPost2010PropOp29
 70
     1
102
RTVSPost2010Prop30
280
     1
102
RTVSPost2010PropOp30
 70
     1
102
RTVSPost2010Prop31
280
     0
102
RTVSPost2010PropOp31
 70
     1
102
RTVSPost2010Prop32
280
     0
102
RTVSPost2010PropOp32
 70
     1
102
RTVSPost2010Prop33
280
     0
102
RTVSPost2010PropOp33
 70
     1
102
RTVSPost2010Prop34
280
     0
102
RTVSPost2010PropOp34
 70
     1
102
RTVSPost2010Prop35
280
     0
102
RTVSPost2010PropOp35
 70
     1
102
RTVSPost2010Prop36
280
     0
102
RTVSPost2010PropOp36
 70
     1
102
RTVSPost2010Prop37
 90
       50
102
RTVSPost2010PropOp37
 70
     1
102
RTVSPost2010Prop38
140
0.0
102
RTVSPost2010PropOp38
 70
     1
102
RTVSPost2010Prop39
140
1.0
102
RTVSPost2010PropOp39
 70
     1
102
RTVSPost2010Prop40
 90
        0
102
RTVSPost2010PropOp40
 70
     1
102
RTVSPost2010Prop41ColorIndex
 90
       18
102
RTVSPost2010Prop41ColorRGB
 90
        0
102
RTVSPost2010PropOp41
 70
     1
102
RTVSPost2010Prop42
 90
       50
102
RTVSPost2010PropOp42
 70
     1
102
RTVSPost2010Prop43
 90
        3
102
RTVSPost2010PropOp43
 70
     1
102
RTVSPost2010Prop44ColorIndex
 90
        5
102
RTVSPost2010Prop44ColorRGB
 90
      255
102
RTVSPost2010PropOp44
 70
     1
102
RTVSPost2010Prop45
280
     0
102
RTVSPost2010PropOp45
 70
     1
102
RTVSPost2010Prop46
 90
       50
102
RTVSPost2010PropOp46
 70
     1
102
RTVSPost2010Prop47
 90
       50
102
RTVSPost2010PropOp47
 70
     1
102
RTVSPost2010Prop48
 90
       50
102
RTVSPost2010PropOp48
 70
     1
102
RTVSPost2010Prop49
280
     0
102
RTVSPost2010PropOp49
 70
     1
102
RTVSPost2010Prop50
 90
       50
102
RTVSPost2010PropOp50
 70
     1
102
RTVSPost2010Prop51ColorIndex
 90
      256
102
RTVSPost2010Prop51ColorRGB
 90
-16777216
102
RTVSPost2010PropOp51
 70
     0
102
RTVSPost2010Prop52
140
1.0
102
RTVSPost2010PropOp52
 70
     0
102
RTVSPost2010Prop53
 90
        2
102
RTVSPost2010PropOp53
 70
     1
102
RTVSPost2010Prop54
  1
strokes_ogs.tif
102
RTVSPost2010PropOp54
 70
     1
102
RTVSPost2010Prop55
280
     0
102
RTVSPost2010PropOp55
 70
     1
102
RTVSPost2010Prop56
140
1.0
102
RTVSPost2010PropOp56
 70
     1
102
RTVSPost2010Prop57
140
1.0
102
RTVSPost2010PropOp57
 70
     1
  0
XRECORD
  5
1221F
102
{ACAD_REACTORS
330
1221E
102
}
330
1221E
100
AcDbXrecord
280
     1
102
RTVSPropertyOp0
 70
     1
102
RTVSPropertyOp1
 70
     1
102
RTVSPropertyOp2
 70
     1
102
RTVSPropertyOp3
 70
     1
102
RTVSPropertyOp4
 70
     1
102
RTVSPropertyOp5
 70
     1
102
RTVSPropertyOp6
 70
     1
102
RTVSPropertyOp7
 70
     1
102
RTVSPropertyOp8
 70
     1
102
RTVSPropertyOp9
 70
     1
102
RTVSPropertyOp10
 70
     1
102
RTVSPropertyOp11
 70
     1
102
RTVSPropertyOp12
 70
     1
102
RTVSPropertyOp13
 70
     1
102
RTVSPropertyOp14
 70
     1
102
RTVSPropertyOp15
 70
     1
102
RTVSPropertyOp16
 70
     1
102
RTVSPropertyOp17
 70
     1
102
RTVSPropertyOp18
 70
     1
102
RTVSPropertyOp19
 70
     1
102
RTVSPropertyOp20
 70
     1
102
RTVSPropertyOp21
 70
     1
102
RTVSPropertyOp22
 70
     1
102
RTVSPropertyOp23
 70
     1
102
RTVSPropertyOp24
 70
     1
102
RTVSPropertyOp25
 70
     1
102
RTVSPropertyOp26
 70
     1
102
RTVSPropertyOp27
 70
     1
102
RTVSPropertyOp28
 70
     1
102
RTVSPropertyOp29
 70
     1
102
RTVSPropertyOp30
 70
     1
102
RTVSPropertyOp31
 70
     1
102
RTVSPropertyOp32
 70
     1
102
RTVSPropertyOp33
 70
     1
102
RTVSPropertyOp34
 70
     1
102
RTVSPropertyOp35
 70
     1
102
RTVSPropertyOp36
 70
     1
102
RTVSPropertyOp37
 70
     1
102
RTVSPropertyOp38
 70
     1
102
RTVSPropertyOp39
 70
     1
102
RTVSPropertyOp40
 70
     1
102
RTVSPropertyOp41
 70
     1
102
RTVSPropertyOp42
 70
     1
102
RTVSPropertyOp43
 70
     1
102
RTVSPropertyOp44
 70
     1
102
RTVSPropertyOp45
 70
     1
102
RTVSPropertyOp46
 70
     1
102
RTVSPropertyOp47
 70
     1
102
RTVSPropertyOp48
 70
     1
102
RTVSPropertyOp49
 70
     1
102
RTVSPropertyOp50
 70
     1
102
RTVSPropertyOp51
 70
     0
102
RTVSPropertyOp52
 70
     0
102
RTVSPropertyOp53
 70
     1
102
RTVSPropertyOp54
 70
     1
102
RTVSPropertyOp55
 70
     1
102
RTVSPropertyOp56
 70
     1
102
RTVSPropertyOp57
 70
     1
102
RTVSPost2010Prop28
280
     0
102
RTVSPost2010PropOp28
 70
     1
102
RTVSPost2010Prop29
280
     1
102
RTVSPost2010PropOp29
 70
     1
102
RTVSPost2010Prop30
280
     1
102
RTVSPost2010PropOp30
 70
     1
102
RTVSPost2010Prop31
280
     0
102
RTVSPost2010PropOp31
 70
     1
102
RTVSPost2010Prop32
280
     0
102
RTVSPost2010PropOp32
 70
     1
102
RTVSPost2010Prop33
280
     0
102
RTVSPost2010PropOp33
 70
     1
102
RTVSPost2010Prop34
280
     0
102
RTVSPost2010PropOp34
 70
     1
102
RTVSPost2010Prop35
280
     0
102
RTVSPost2010PropOp35
 70
     1
102
RTVSPost2010Prop36
280
     0
102
RTVSPost2010PropOp36
 70
     1
102
RTVSPost2010Prop37
 90
       50
102
RTVSPost2010PropOp37
 70
     1
102
RTVSPost2010Prop38
140
0.0
102
RTVSPost2010PropOp38
 70
     1
102
RTVSPost2010Prop39
140
1.0
102
RTVSPost2010PropOp39
 70
     1
102
RTVSPost2010Prop40
 90
        0
102
RTVSPost2010PropOp40
 70
     1
102
RTVSPost2010Prop41ColorIndex
 90
       18
102
RTVSPost2010Prop41ColorRGB
 90
        0
102
RTVSPost2010PropOp41
 70
     1
102
RTVSPost2010Prop42
 90
       50
102
RTVSPost2010PropOp42
 70
     1
102
RTVSPost2010Prop43
 90
        3
102
RTVSPost2010PropOp43
 70
     1
102
RTVSPost2010Prop44ColorIndex
 90
        5
102
RTVSPost2010Prop44ColorRGB
 90
      255
102
RTVSPost2010PropOp44
 70
     1
102
RTVSPost2010Prop45
280
     0
102
RTVSPost2010PropOp45
 70
     1
102
RTVSPost2010Prop46
 90
       50
102
RTVSPost2010PropOp46
 70
     1
102
RTVSPost2010Prop47
 90
       50
102
RTVSPost2010PropOp47
 70
     1
102
RTVSPost2010Prop48
 90
       50
102
RTVSPost2010PropOp48
 70
     1
102
RTVSPost2010Prop49
280
     0
102
RTVSPost2010PropOp49
 70
     1
102
RTVSPost2010Prop50
 90
       50
102
RTVSPost2010PropOp50
 70
     1
102
RTVSPost2010Prop51ColorIndex
 90
      256
102
RTVSPost2010Prop51ColorRGB
 90
-16777216
102
RTVSPost2010PropOp51
 70
     0
102
RTVSPost2010Prop52
140
1.0
102
RTVSPost2010PropOp52
 70
     0
102
RTVSPost2010Prop53
 90
        2
102
RTVSPost2010PropOp53
 70
     1
102
RTVSPost2010Prop54
  1
strokes_ogs.tif
102
RTVSPost2010PropOp54
 70
     1
102
RTVSPost2010Prop55
280
     0
102
RTVSPost2010PropOp55
 70
     1
102
RTVSPost2010Prop56
140
1.0
102
RTVSPost2010PropOp56
 70
     1
102
RTVSPost2010Prop57
140
1.0
102
RTVSPost2010PropOp57
 70
     1
  0
XRECORD
  5
12221
102
{ACAD_REACTORS
330
12220
102
}
330
12220
100
AcDbXrecord
280
     1
102
RTVSPropertyOp0
 70
     1
102
RTVSPropertyOp1
 70
     1
102
RTVSPropertyOp2
 70
     1
102
RTVSPropertyOp3
 70
     1
102
RTVSPropertyOp4
 70
     1
102
RTVSPropertyOp5
 70
     1
102
RTVSPropertyOp6
 70
     1
102
RTVSPropertyOp7
 70
     1
102
RTVSPropertyOp8
 70
     1
102
RTVSPropertyOp9
 70
     1
102
RTVSPropertyOp10
 70
     1
102
RTVSPropertyOp11
 70
     1
102
RTVSPropertyOp12
 70
     1
102
RTVSPropertyOp13
 70
     1
102
RTVSPropertyOp14
 70
     1
102
RTVSPropertyOp15
 70
     1
102
RTVSPropertyOp16
 70
     1
102
RTVSPropertyOp17
 70
     1
102
RTVSPropertyOp18
 70
     1
102
RTVSPropertyOp19
 70
     1
102
RTVSPropertyOp20
 70
     1
102
RTVSPropertyOp21
 70
     1
102
RTVSPropertyOp22
 70
     1
102
RTVSPropertyOp23
 70
     1
102
RTVSPropertyOp24
 70
     1
102
RTVSPropertyOp25
 70
     1
102
RTVSPropertyOp26
 70
     1
102
RTVSPropertyOp27
 70
     1
102
RTVSPropertyOp28
 70
     1
102
RTVSPropertyOp29
 70
     1
102
RTVSPropertyOp30
 70
     1
102
RTVSPropertyOp31
 70
     1
102
RTVSPropertyOp32
 70
     1
102
RTVSPropertyOp33
 70
     1
102
RTVSPropertyOp34
 70
     1
102
RTVSPropertyOp35
 70
     1
102
RTVSPropertyOp36
 70
     1
102
RTVSPropertyOp37
 70
     1
102
RTVSPropertyOp38
 70
     1
102
RTVSPropertyOp39
 70
     1
102
RTVSPropertyOp40
 70
     1
102
RTVSPropertyOp41
 70
     1
102
RTVSPropertyOp42
 70
     1
102
RTVSPropertyOp43
 70
     1
102
RTVSPropertyOp44
 70
     1
102
RTVSPropertyOp45
 70
     1
102
RTVSPropertyOp46
 70
     1
102
RTVSPropertyOp47
 70
     1
102
RTVSPropertyOp48
 70
     1
102
RTVSPropertyOp49
 70
     1
102
RTVSPropertyOp50
 70
     1
102
RTVSPropertyOp51
 70
     0
102
RTVSPropertyOp52
 70
     0
102
RTVSPropertyOp53
 70
     1
102
RTVSPropertyOp54
 70
     1
102
RTVSPropertyOp55
 70
     1
102
RTVSPropertyOp56
 70
     1
102
RTVSPropertyOp57
 70
     1
102
RTVSPost2010Prop28
280
     0
102
RTVSPost2010PropOp28
 70
     1
102
RTVSPost2010Prop29
280
     1
102
RTVSPost2010PropOp29
 70
     1
102
RTVSPost2010Prop30
280
     1
102
RTVSPost2010PropOp30
 70
     1
102
RTVSPost2010Prop31
280
     0
102
RTVSPost2010PropOp31
 70
     1
102
RTVSPost2010Prop32
280
     0
102
RTVSPost2010PropOp32
 70
     1
102
RTVSPost2010Prop33
280
     0
102
RTVSPost2010PropOp33
 70
     1
102
RTVSPost2010Prop34
280
     0
102
RTVSPost2010PropOp34
 70
     1
102
RTVSPost2010Prop35
280
     0
102
RTVSPost2010PropOp35
 70
     1
102
RTVSPost2010Prop36
280
     0
102
RTVSPost2010PropOp36
 70
     1
102
RTVSPost2010Prop37
 90
       50
102
RTVSPost2010PropOp37
 70
     1
102
RTVSPost2010Prop38
140
0.0
102
RTVSPost2010PropOp38
 70
     1
102
RTVSPost2010Prop39
140
1.0
102
RTVSPost2010PropOp39
 70
     1
102
RTVSPost2010Prop40
 90
        0
102
RTVSPost2010PropOp40
 70
     1
102
RTVSPost2010Prop41ColorIndex
 90
       18
102
RTVSPost2010Prop41ColorRGB
 90
        0
102
RTVSPost2010PropOp41
 70
     1
102
RTVSPost2010Prop42
 90
       50
102
RTVSPost2010PropOp42
 70
     1
102
RTVSPost2010Prop43
 90
        3
102
RTVSPost2010PropOp43
 70
     1
102
RTVSPost2010Prop44ColorIndex
 90
        5
102
RTVSPost2010Prop44ColorRGB
 90
      255
102
RTVSPost2010PropOp44
 70
     1
102
RTVSPost2010Prop45
280
     0
102
RTVSPost2010PropOp45
 70
     1
102
RTVSPost2010Prop46
 90
       50
102
RTVSPost2010PropOp46
 70
     1
102
RTVSPost2010Prop47
 90
       50
102
RTVSPost2010PropOp47
 70
     1
102
RTVSPost2010Prop48
 90
       50
102
RTVSPost2010PropOp48
 70
     1
102
RTVSPost2010Prop49
280
     0
102
RTVSPost2010PropOp49
 70
     1
102
RTVSPost2010Prop50
 90
       50
102
RTVSPost2010PropOp50
 70
     1
102
RTVSPost2010Prop51ColorIndex
 90
      256
102
RTVSPost2010Prop51ColorRGB
 90
-16777216
102
RTVSPost2010PropOp51
 70
     0
102
RTVSPost2010Prop52
140
1.0
102
RTVSPost2010PropOp52
 70
     0
102
RTVSPost2010Prop53
 90
        2
102
RTVSPost2010PropOp53
 70
     1
102
RTVSPost2010Prop54
  1
strokes_ogs.tif
102
RTVSPost2010PropOp54
 70
     1
102
RTVSPost2010Prop55
280
     0
102
RTVSPost2010PropOp55
 70
     1
102
RTVSPost2010Prop56
140
1.0
102
RTVSPost2010PropOp56
 70
     1
102
RTVSPost2010Prop57
140
1.0
102
RTVSPost2010PropOp57
 70
     1
  0
XRECORD
  5
12223
102
{ACAD_REACTORS
330
12222
102
}
330
12222
100
AcDbXrecord
280
     1
102
RTVSPropertyOp0
 70
     1
102
RTVSPropertyOp1
 70
     1
102
RTVSPropertyOp2
 70
     1
102
RTVSPropertyOp3
 70
     1
102
RTVSPropertyOp4
 70
     1
102
RTVSPropertyOp5
 70
     1
102
RTVSPropertyOp6
 70
     1
102
RTVSPropertyOp7
 70
     1
102
RTVSPropertyOp8
 70
     1
102
RTVSPropertyOp9
 70
     1
102
RTVSPropertyOp10
 70
     1
102
RTVSPropertyOp11
 70
     1
102
RTVSPropertyOp12
 70
     1
102
RTVSPropertyOp13
 70
     1
102
RTVSPropertyOp14
 70
     1
102
RTVSPropertyOp15
 70
     1
102
RTVSPropertyOp16
 70
     1
102
RTVSPropertyOp17
 70
     1
102
RTVSPropertyOp18
 70
     1
102
RTVSPropertyOp19
 70
     1
102
RTVSPropertyOp20
 70
     1
102
RTVSPropertyOp21
 70
     1
102
RTVSPropertyOp22
 70
     1
102
RTVSPropertyOp23
 70
     1
102
RTVSPropertyOp24
 70
     1
102
RTVSPropertyOp25
 70
     1
102
RTVSPropertyOp26
 70
     1
102
RTVSPropertyOp27
 70
     1
102
RTVSPropertyOp28
 70
     1
102
RTVSPropertyOp29
 70
     1
102
RTVSPropertyOp30
 70
     1
102
RTVSPropertyOp31
 70
     1
102
RTVSPropertyOp32
 70
     1
102
RTVSPropertyOp33
 70
     1
102
RTVSPropertyOp34
 70
     1
102
RTVSPropertyOp35
 70
     1
102
RTVSPropertyOp36
 70
     1
102
RTVSPropertyOp37
 70
     1
102
RTVSPropertyOp38
 70
     1
102
RTVSPropertyOp39
 70
     1
102
RTVSPropertyOp40
 70
     1
102
RTVSPropertyOp41
 70
     1
102
RTVSPropertyOp42
 70
     1
102
RTVSPropertyOp43
 70
     1
102
RTVSPropertyOp44
 70
     1
102
RTVSPropertyOp45
 70
     1
102
RTVSPropertyOp46
 70
     1
102
RTVSPropertyOp47
 70
     1
102
RTVSPropertyOp48
 70
     1
102
RTVSPropertyOp49
 70
     1
102
RTVSPropertyOp50
 70
     1
102
RTVSPropertyOp51
 70
     0
102
RTVSPropertyOp52
 70
     0
102
RTVSPropertyOp53
 70
     1
102
RTVSPropertyOp54
 70
     1
102
RTVSPropertyOp55
 70
     1
102
RTVSPropertyOp56
 70
     1
102
RTVSPropertyOp57
 70
     1
102
RTVSPost2010Prop28
280
     0
102
RTVSPost2010PropOp28
 70
     1
102
RTVSPost2010Prop29
280
     1
102
RTVSPost2010PropOp29
 70
     1
102
RTVSPost2010Prop30
280
     1
102
RTVSPost2010PropOp30
 70
     1
102
RTVSPost2010Prop31
280
     0
102
RTVSPost2010PropOp31
 70
     1
102
RTVSPost2010Prop32
280
     0
102
RTVSPost2010PropOp32
 70
     1
102
RTVSPost2010Prop33
280
     0
102
RTVSPost2010PropOp33
 70
     1
102
RTVSPost2010Prop34
280
     0
102
RTVSPost2010PropOp34
 70
     1
102
RTVSPost2010Prop35
280
     0
102
RTVSPost2010PropOp35
 70
     1
102
RTVSPost2010Prop36
280
     0
102
RTVSPost2010PropOp36
 70
     1
102
RTVSPost2010Prop37
 90
       50
102
RTVSPost2010PropOp37
 70
     1
102
RTVSPost2010Prop38
140
0.0
102
RTVSPost2010PropOp38
 70
     1
102
RTVSPost2010Prop39
140
1.0
102
RTVSPost2010PropOp39
 70
     1
102
RTVSPost2010Prop40
 90
        0
102
RTVSPost2010PropOp40
 70
     1
102
RTVSPost2010Prop41ColorIndex
 90
       18
102
RTVSPost2010Prop41ColorRGB
 90
        0
102
RTVSPost2010PropOp41
 70
     1
102
RTVSPost2010Prop42
 90
       50
102
RTVSPost2010PropOp42
 70
     1
102
RTVSPost2010Prop43
 90
        3
102
RTVSPost2010PropOp43
 70
     1
102
RTVSPost2010Prop44ColorIndex
 90
        5
102
RTVSPost2010Prop44ColorRGB
 90
      255
102
RTVSPost2010PropOp44
 70
     1
102
RTVSPost2010Prop45
280
     0
102
RTVSPost2010PropOp45
 70
     1
102
RTVSPost2010Prop46
 90
       50
102
RTVSPost2010PropOp46
 70
     1
102
RTVSPost2010Prop47
 90
       50
102
RTVSPost2010PropOp47
 70
     1
102
RTVSPost2010Prop48
 90
       50
102
RTVSPost2010PropOp48
 70
     1
102
RTVSPost2010Prop49
280
     0
102
RTVSPost2010PropOp49
 70
     1
102
RTVSPost2010Prop50
 90
       50
102
RTVSPost2010PropOp50
 70
     1
102
RTVSPost2010Prop51ColorIndex
 90
      256
102
RTVSPost2010Prop51ColorRGB
 90
-16777216
102
RTVSPost2010PropOp51
 70
     0
102
RTVSPost2010Prop52
140
1.0
102
RTVSPost2010PropOp52
 70
     0
102
RTVSPost2010Prop53
 90
        2
102
RTVSPost2010PropOp53
 70
     1
102
RTVSPost2010Prop54
  1
strokes_ogs.tif
102
RTVSPost2010PropOp54
 70
     1
102
RTVSPost2010Prop55
280
     0
102
RTVSPost2010PropOp55
 70
     1
102
RTVSPost2010Prop56
140
1.0
102
RTVSPost2010PropOp56
 70
     1
102
RTVSPost2010Prop57
140
1.0
102
RTVSPost2010PropOp57
 70
     1
  0
XRECORD
  5
12225
102
{ACAD_REACTORS
330
12224
102
}
330
12224
100
AcDbXrecord
280
     1
102
RTVSPropertyOp0
 70
     0
102
RTVSPropertyOp1
 70
     0
102
RTVSPropertyOp2
 70
     0
102
RTVSPropertyOp3
 70
     0
102
RTVSPropertyOp4
 70
     0
102
RTVSPropertyOp5
 70
     0
102
RTVSPropertyOp6
 70
     0
102
RTVSPropertyOp7
 70
     0
102
RTVSPropertyOp8
 70
     0
102
RTVSPropertyOp9
 70
     0
102
RTVSPropertyOp10
 70
     0
102
RTVSPropertyOp11
 70
     0
102
RTVSPropertyOp12
 70
     0
102
RTVSPropertyOp13
 70
     0
102
RTVSPropertyOp14
 70
     2
102
RTVSPropertyOp15
 70
     0
102
RTVSPropertyOp16
 70
     0
102
RTVSPropertyOp17
 70
     0
102
RTVSPropertyOp18
 70
     0
102
RTVSPropertyOp19
 70
     0
102
RTVSPropertyOp20
 70
     0
102
RTVSPropertyOp21
 70
     0
102
RTVSPropertyOp22
 70
     0
102
RTVSPropertyOp23
 70
     0
102
RTVSPropertyOp24
 70
     0
102
RTVSPropertyOp25
 70
     0
102
RTVSPropertyOp26
 70
     0
102
RTVSPropertyOp27
 70
     0
102
RTVSPropertyOp28
 70
     0
102
RTVSPropertyOp29
 70
     0
102
RTVSPropertyOp30
 70
     0
102
RTVSPropertyOp31
 70
     0
102
RTVSPropertyOp32
 70
     0
102
RTVSPropertyOp33
 70
     1
102
RTVSPropertyOp34
 70
     1
102
RTVSPropertyOp35
 70
     1
102
RTVSPropertyOp36
 70
     1
102
RTVSPropertyOp37
 70
     1
102
RTVSPropertyOp38
 70
     1
102
RTVSPropertyOp39
 70
     1
102
RTVSPropertyOp40
 70
     1
102
RTVSPropertyOp41
 70
     1
102
RTVSPropertyOp42
 70
     1
102
RTVSPropertyOp43
 70
     1
102
RTVSPropertyOp44
 70
     1
102
RTVSPropertyOp45
 70
     1
102
RTVSPropertyOp46
 70
     1
102
RTVSPropertyOp47
 70
     1
102
RTVSPropertyOp48
 70
     1
102
RTVSPropertyOp49
 70
     1
102
RTVSPropertyOp50
 70
     1
102
RTVSPropertyOp51
 70
     0
102
RTVSPropertyOp52
 70
     0
102
RTVSPropertyOp53
 70
     1
102
RTVSPropertyOp54
 70
     1
102
RTVSPropertyOp55
 70
     1
102
RTVSPropertyOp56
 70
     1
102
RTVSPropertyOp57
 70
     1
102
RTVSPost2010Prop28
280
     0
102
RTVSPost2010PropOp28
 70
     0
102
RTVSPost2010Prop29
280
     1
102
RTVSPost2010PropOp29
 70
     0
102
RTVSPost2010Prop30
280
     1
102
RTVSPost2010PropOp30
 70
     0
102
RTVSPost2010Prop31
280
     0
102
RTVSPost2010PropOp31
 70
     0
102
RTVSPost2010Prop32
280
     0
102
RTVSPost2010PropOp32
 70
     0
102
RTVSPost2010Prop33
280
     0
102
RTVSPost2010PropOp33
 70
     1
102
RTVSPost2010Prop34
280
     0
102
RTVSPost2010PropOp34
 70
     1
102
RTVSPost2010Prop35
280
     0
102
RTVSPost2010PropOp35
 70
     1
102
RTVSPost2010Prop36
280
     0
102
RTVSPost2010PropOp36
 70
     1
102
RTVSPost2010Prop37
 90
       50
102
RTVSPost2010PropOp37
 70
     1
102
RTVSPost2010Prop38
140
0.0
102
RTVSPost2010PropOp38
 70
     1
102
RTVSPost2010Prop39
140
1.0
102
RTVSPost2010PropOp39
 70
     1
102
RTVSPost2010Prop40
 90
        0
102
RTVSPost2010PropOp40
 70
     1
102
RTVSPost2010Prop41ColorIndex
 90
       18
102
RTVSPost2010Prop41ColorRGB
 90
        0
102
RTVSPost2010PropOp41
 70
     1
102
RTVSPost2010Prop42
 90
       50
102
RTVSPost2010PropOp42
 70
     1
102
RTVSPost2010Prop43
 90
        3
102
RTVSPost2010PropOp43
 70
     1
102
RTVSPost2010Prop44ColorIndex
 90
        5
102
RTVSPost2010Prop44ColorRGB
 90
      255
102
RTVSPost2010PropOp44
 70
     1
102
RTVSPost2010Prop45
280
     0
102
RTVSPost2010PropOp45
 70
     1
102
RTVSPost2010Prop46
 90
       50
102
RTVSPost2010PropOp46
 70
     1
102
RTVSPost2010Prop47
 90
       50
102
RTVSPost2010PropOp47
 70
     1
102
RTVSPost2010Prop48
 90
       50
102
RTVSPost2010PropOp48
 70
     1
102
RTVSPost2010Prop49
280
     0
102
RTVSPost2010PropOp49
 70
     1
102
RTVSPost2010Prop50
 90
       50
102
RTVSPost2010PropOp50
 70
     1
102
RTVSPost2010Prop51ColorIndex
 90
      256
102
RTVSPost2010Prop51ColorRGB
 90
-16777216
102
RTVSPost2010PropOp51
 70
     0
102
RTVSPost2010Prop52
140
1.0
102
RTVSPost2010PropOp52
 70
     0
102
RTVSPost2010Prop53
 90
        2
102
RTVSPost2010PropOp53
 70
     1
102
RTVSPost2010Prop54
  1
strokes_ogs.tif
102
RTVSPost2010PropOp54
 70
     1
102
RTVSPost2010Prop55
280
     0
102
RTVSPost2010PropOp55
 70
     1
102
RTVSPost2010Prop56
140
1.0
102
RTVSPost2010PropOp56
 70
     1
102
RTVSPost2010Prop57
140
1.0
102
RTVSPost2010PropOp57
 70
     1
  0
XRECORD
  5
12227
102
{ACAD_REACTORS
330
12226
102
}
330
12226
100
AcDbXrecord
280
     1
102
RTVSPropertyOp0
 70
     1
102
RTVSPropertyOp1
 70
     1
102
RTVSPropertyOp2
 70
     1
102
RTVSPropertyOp3
 70
     1
102
RTVSPropertyOp4
 70
     1
102
RTVSPropertyOp5
 70
     1
102
RTVSPropertyOp6
 70
     1
102
RTVSPropertyOp7
 70
     1
102
RTVSPropertyOp8
 70
     1
102
RTVSPropertyOp9
 70
     1
102
RTVSPropertyOp10
 70
     1
102
RTVSPropertyOp11
 70
     1
102
RTVSPropertyOp12
 70
     1
102
RTVSPropertyOp13
 70
     1
102
RTVSPropertyOp14
 70
     1
102
RTVSPropertyOp15
 70
     1
102
RTVSPropertyOp16
 70
     1
102
RTVSPropertyOp17
 70
     1
102
RTVSPropertyOp18
 70
     1
102
RTVSPropertyOp19
 70
     1
102
RTVSPropertyOp20
 70
     1
102
RTVSPropertyOp21
 70
     1
102
RTVSPropertyOp22
 70
     1
102
RTVSPropertyOp23
 70
     1
102
RTVSPropertyOp24
 70
     1
102
RTVSPropertyOp25
 70
     1
102
RTVSPropertyOp26
 70
     1
102
RTVSPropertyOp27
 70
     1
102
RTVSPropertyOp28
 70
     1
102
RTVSPropertyOp29
 70
     1
102
RTVSPropertyOp30
 70
     1
102
RTVSPropertyOp31
 70
     1
102
RTVSPropertyOp32
 70
     1
102
RTVSPropertyOp33
 70
     1
102
RTVSPropertyOp34
 70
     1
102
RTVSPropertyOp35
 70
     1
102
RTVSPropertyOp36
 70
     1
102
RTVSPropertyOp37
 70
     1
102
RTVSPropertyOp38
 70
     1
102
RTVSPropertyOp39
 70
     1
102
RTVSPropertyOp40
 70
     1
102
RTVSPropertyOp41
 70
     1
102
RTVSPropertyOp42
 70
     1
102
RTVSPropertyOp43
 70
     1
102
RTVSPropertyOp44
 70
     1
102
RTVSPropertyOp45
 70
     1
102
RTVSPropertyOp46
 70
     1
102
RTVSPropertyOp47
 70
     1
102
RTVSPropertyOp48
 70
     1
102
RTVSPropertyOp49
 70
     1
102
RTVSPropertyOp50
 70
     1
102
RTVSPropertyOp51
 70
     0
102
RTVSPropertyOp52
 70
     0
102
RTVSPropertyOp53
 70
     1
102
RTVSPropertyOp54
 70
     1
102
RTVSPropertyOp55
 70
     1
102
RTVSPropertyOp56
 70
     1
102
RTVSPropertyOp57
 70
     1
102
RTVSPost2010Prop28
280
     0
102
RTVSPost2010PropOp28
 70
     1
102
RTVSPost2010Prop29
280
     1
102
RTVSPost2010PropOp29
 70
     1
102
RTVSPost2010Prop30
280
     1
102
RTVSPost2010PropOp30
 70
     1
102
RTVSPost2010Prop31
280
     0
102
RTVSPost2010PropOp31
 70
     1
102
RTVSPost2010Prop32
280
     0
102
RTVSPost2010PropOp32
 70
     1
102
RTVSPost2010Prop33
280
     0
102
RTVSPost2010PropOp33
 70
     1
102
RTVSPost2010Prop34
280
     0
102
RTVSPost2010PropOp34
 70
     1
102
RTVSPost2010Prop35
280
     0
102
RTVSPost2010PropOp35
 70
     1
102
RTVSPost2010Prop36
280
     0
102
RTVSPost2010PropOp36
 70
     1
102
RTVSPost2010Prop37
 90
       50
102
RTVSPost2010PropOp37
 70
     1
102
RTVSPost2010Prop38
140
0.0
102
RTVSPost2010PropOp38
 70
     1
102
RTVSPost2010Prop39
140
1.0
102
RTVSPost2010PropOp39
 70
     1
102
RTVSPost2010Prop40
 90
        0
102
RTVSPost2010PropOp40
 70
     1
102
RTVSPost2010Prop41ColorIndex
 90
       18
102
RTVSPost2010Prop41ColorRGB
 90
        0
102
RTVSPost2010PropOp41
 70
     1
102
RTVSPost2010Prop42
 90
       50
102
RTVSPost2010PropOp42
 70
     1
102
RTVSPost2010Prop43
 90
        3
102
RTVSPost2010PropOp43
 70
     1
102
RTVSPost2010Prop44ColorIndex
 90
        5
102
RTVSPost2010Prop44ColorRGB
 90
      255
102
RTVSPost2010PropOp44
 70
     1
102
RTVSPost2010Prop45
280
     0
102
RTVSPost2010PropOp45
 70
     1
102
RTVSPost2010Prop46
 90
       50
102
RTVSPost2010PropOp46
 70
     1
102
RTVSPost2010Prop47
 90
       50
102
RTVSPost2010PropOp47
 70
     1
102
RTVSPost2010Prop48
 90
       50
102
RTVSPost2010PropOp48
 70
     1
102
RTVSPost2010Prop49
280
     0
102
RTVSPost2010PropOp49
 70
     1
102
RTVSPost2010Prop50
 90
       50
102
RTVSPost2010PropOp50
 70
     1
102
RTVSPost2010Prop51ColorIndex
 90
      256
102
RTVSPost2010Prop51ColorRGB
 90
-16777216
102
RTVSPost2010PropOp51
 70
     0
102
RTVSPost2010Prop52
140
1.0
102
RTVSPost2010PropOp52
 70
     0
102
RTVSPost2010Prop53
 90
        2
102
RTVSPost2010PropOp53
 70
     1
102
RTVSPost2010Prop54
  1
strokes_ogs.tif
102
RTVSPost2010PropOp54
 70
     1
102
RTVSPost2010Prop55
280
     0
102
RTVSPost2010PropOp55
 70
     1
102
RTVSPost2010Prop56
140
1.0
102
RTVSPost2010PropOp56
 70
     1
102
RTVSPost2010Prop57
140
1.0
102
RTVSPost2010PropOp57
 70
     1
  0
XRECORD
  5
12229
102
{ACAD_REACTORS
330
12228
102
}
330
12228
100
AcDbXrecord
280
     1
102
RTVSPropertyOp0
 70
     0
102
RTVSPropertyOp1
 70
     0
102
RTVSPropertyOp2
 70
     0
102
RTVSPropertyOp3
 70
     0
102
RTVSPropertyOp4
 70
     0
102
RTVSPropertyOp5
 70
     0
102
RTVSPropertyOp6
 70
     0
102
RTVSPropertyOp7
 70
     0
102
RTVSPropertyOp8
 70
     0
102
RTVSPropertyOp9
 70
     0
102
RTVSPropertyOp10
 70
     0
102
RTVSPropertyOp11
 70
     0
102
RTVSPropertyOp12
 70
     0
102
RTVSPropertyOp13
 70
     0
102
RTVSPropertyOp14
 70
     2
102
RTVSPropertyOp15
 70
     0
102
RTVSPropertyOp16
 70
     0
102
RTVSPropertyOp17
 70
     0
102
RTVSPropertyOp18
 70
     0
102
RTVSPropertyOp19
 70
     0
102
RTVSPropertyOp20
 70
     0
102
RTVSPropertyOp21
 70
     0
102
RTVSPropertyOp22
 70
     0
102
RTVSPropertyOp23
 70
     0
102
RTVSPropertyOp24
 70
     0
102
RTVSPropertyOp25
 70
     0
102
RTVSPropertyOp26
 70
     0
102
RTVSPropertyOp27
 70
     0
102
RTVSPropertyOp28
 70
     0
102
RTVSPropertyOp29
 70
     0
102
RTVSPropertyOp30
 70
     0
102
RTVSPropertyOp31
 70
     0
102
RTVSPropertyOp32
 70
     0
102
RTVSPropertyOp33
 70
     1
102
RTVSPropertyOp34
 70
     1
102
RTVSPropertyOp35
 70
     1
102
RTVSPropertyOp36
 70
     1
102
RTVSPropertyOp37
 70
     1
102
RTVSPropertyOp38
 70
     1
102
RTVSPropertyOp39
 70
     1
102
RTVSPropertyOp40
 70
     1
102
RTVSPropertyOp41
 70
     1
102
RTVSPropertyOp42
 70
     1
102
RTVSPropertyOp43
 70
     1
102
RTVSPropertyOp44
 70
     1
102
RTVSPropertyOp45
 70
     1
102
RTVSPropertyOp46
 70
     1
102
RTVSPropertyOp47
 70
     1
102
RTVSPropertyOp48
 70
     1
102
RTVSPropertyOp49
 70
     1
102
RTVSPropertyOp50
 70
     1
102
RTVSPropertyOp51
 70
     0
102
RTVSPropertyOp52
 70
     0
102
RTVSPropertyOp53
 70
     1
102
RTVSPropertyOp54
 70
     1
102
RTVSPropertyOp55
 70
     1
102
RTVSPropertyOp56
 70
     1
102
RTVSPropertyOp57
 70
     1
102
RTVSPost2010Prop28
280
     0
102
RTVSPost2010PropOp28
 70
     0
102
RTVSPost2010Prop29
280
     1
102
RTVSPost2010PropOp29
 70
     0
102
RTVSPost2010Prop30
280
     1
102
RTVSPost2010PropOp30
 70
     0
102
RTVSPost2010Prop31
280
     0
102
RTVSPost2010PropOp31
 70
     0
102
RTVSPost2010Prop32
280
     0
102
RTVSPost2010PropOp32
 70
     0
102
RTVSPost2010Prop33
280
     0
102
RTVSPost2010PropOp33
 70
     1
102
RTVSPost2010Prop34
280
     0
102
RTVSPost2010PropOp34
 70
     1
102
RTVSPost2010Prop35
280
     0
102
RTVSPost2010PropOp35
 70
     1
102
RTVSPost2010Prop36
280
     0
102
RTVSPost2010PropOp36
 70
     1
102
RTVSPost2010Prop37
 90
       50
102
RTVSPost2010PropOp37
 70
     1
102
RTVSPost2010Prop38
140
0.0
102
RTVSPost2010PropOp38
 70
     1
102
RTVSPost2010Prop39
140
1.0
102
RTVSPost2010PropOp39
 70
     1
102
RTVSPost2010Prop40
 90
        0
102
RTVSPost2010PropOp40
 70
     1
102
RTVSPost2010Prop41ColorIndex
 90
       18
102
RTVSPost2010Prop41ColorRGB
 90
        0
102
RTVSPost2010PropOp41
 70
     1
102
RTVSPost2010Prop42
 90
       50
102
RTVSPost2010PropOp42
 70
     1
102
RTVSPost2010Prop43
 90
        3
102
RTVSPost2010PropOp43
 70
     1
102
RTVSPost2010Prop44ColorIndex
 90
        5
102
RTVSPost2010Prop44ColorRGB
 90
      255
102
RTVSPost2010PropOp44
 70
     1
102
RTVSPost2010Prop45
280
     0
102
RTVSPost2010PropOp45
 70
     1
102
RTVSPost2010Prop46
 90
       50
102
RTVSPost2010PropOp46
 70
     1
102
RTVSPost2010Prop47
 90
       50
102
RTVSPost2010PropOp47
 70
     1
102
RTVSPost2010Prop48
 90
       50
102
RTVSPost2010PropOp48
 70
     1
102
RTVSPost2010Prop49
280
     0
102
RTVSPost2010PropOp49
 70
     1
102
RTVSPost2010Prop50
 90
       50
102
RTVSPost2010PropOp50
 70
     1
102
RTVSPost2010Prop51ColorIndex
 90
      256
102
RTVSPost2010Prop51ColorRGB
 90
-16777216
102
RTVSPost2010PropOp51
 70
     0
102
RTVSPost2010Prop52
140
1.0
102
RTVSPost2010PropOp52
 70
     0
102
RTVSPost2010Prop53
 90
        2
102
RTVSPost2010PropOp53
 70
     1
102
RTVSPost2010Prop54
  1
strokes_ogs.tif
102
RTVSPost2010PropOp54
 70
     1
102
RTVSPost2010Prop55
280
     0
102
RTVSPost2010PropOp55
 70
     1
102
RTVSPost2010Prop56
140
1.0
102
RTVSPost2010PropOp56
 70
     1
102
RTVSPost2010Prop57
140
1.0
102
RTVSPost2010PropOp57
 70
     1
  0
XRECORD
  5
1222B
102
{ACAD_REACTORS
330
1222A
102
}
330
1222A
100
AcDbXrecord
280
     1
102
RTVSPropertyOp0
 70
     1
102
RTVSPropertyOp1
 70
     1
102
RTVSPropertyOp2
 70
     1
102
RTVSPropertyOp3
 70
     1
102
RTVSPropertyOp4
 70
     1
102
RTVSPropertyOp5
 70
     1
102
RTVSPropertyOp6
 70
     1
102
RTVSPropertyOp7
 70
     1
102
RTVSPropertyOp8
 70
     1
102
RTVSPropertyOp9
 70
     1
102
RTVSPropertyOp10
 70
     1
102
RTVSPropertyOp11
 70
     1
102
RTVSPropertyOp12
 70
     1
102
RTVSPropertyOp13
 70
     1
102
RTVSPropertyOp14
 70
     1
102
RTVSPropertyOp15
 70
     1
102
RTVSPropertyOp16
 70
     1
102
RTVSPropertyOp17
 70
     1
102
RTVSPropertyOp18
 70
     1
102
RTVSPropertyOp19
 70
     1
102
RTVSPropertyOp20
 70
     1
102
RTVSPropertyOp21
 70
     1
102
RTVSPropertyOp22
 70
     1
102
RTVSPropertyOp23
 70
     1
102
RTVSPropertyOp24
 70
     1
102
RTVSPropertyOp25
 70
     1
102
RTVSPropertyOp26
 70
     1
102
RTVSPropertyOp27
 70
     1
102
RTVSPropertyOp28
 70
     1
102
RTVSPropertyOp29
 70
     1
102
RTVSPropertyOp30
 70
     1
102
RTVSPropertyOp31
 70
     1
102
RTVSPropertyOp32
 70
     1
102
RTVSPropertyOp33
 70
     1
102
RTVSPropertyOp34
 70
     1
102
RTVSPropertyOp35
 70
     1
102
RTVSPropertyOp36
 70
     1
102
RTVSPropertyOp37
 70
     1
102
RTVSPropertyOp38
 70
     1
102
RTVSPropertyOp39
 70
     1
102
RTVSPropertyOp40
 70
     1
102
RTVSPropertyOp41
 70
     1
102
RTVSPropertyOp42
 70
     1
102
RTVSPropertyOp43
 70
     1
102
RTVSPropertyOp44
 70
     1
102
RTVSPropertyOp45
 70
     1
102
RTVSPropertyOp46
 70
     1
102
RTVSPropertyOp47
 70
     1
102
RTVSPropertyOp48
 70
     1
102
RTVSPropertyOp49
 70
     1
102
RTVSPropertyOp50
 70
     1
102
RTVSPropertyOp51
 70
     0
102
RTVSPropertyOp52
 70
     0
102
RTVSPropertyOp53
 70
     1
102
RTVSPropertyOp54
 70
     1
102
RTVSPropertyOp55
 70
     1
102
RTVSPropertyOp56
 70
     1
102
RTVSPropertyOp57
 70
     1
102
RTVSPost2010Prop28
280
     0
102
RTVSPost2010PropOp28
 70
     1
102
RTVSPost2010Prop29
280
     1
102
RTVSPost2010PropOp29
 70
     1
102
RTVSPost2010Prop30
280
     1
102
RTVSPost2010PropOp30
 70
     1
102
RTVSPost2010Prop31
280
     0
102
RTVSPost2010PropOp31
 70
     1
102
RTVSPost2010Prop32
280
     0
102
RTVSPost2010PropOp32
 70
     1
102
RTVSPost2010Prop33
280
     0
102
RTVSPost2010PropOp33
 70
     1
102
RTVSPost2010Prop34
280
     0
102
RTVSPost2010PropOp34
 70
     1
102
RTVSPost2010Prop35
280
     0
102
RTVSPost2010PropOp35
 70
     1
102
RTVSPost2010Prop36
280
     0
102
RTVSPost2010PropOp36
 70
     1
102
RTVSPost2010Prop37
 90
       50
102
RTVSPost2010PropOp37
 70
     1
102
RTVSPost2010Prop38
140
0.0
102
RTVSPost2010PropOp38
 70
     1
102
RTVSPost2010Prop39
140
1.0
102
RTVSPost2010PropOp39
 70
     1
102
RTVSPost2010Prop40
 90
        0
102
RTVSPost2010PropOp40
 70
     1
102
RTVSPost2010Prop41ColorIndex
 90
       18
102
RTVSPost2010Prop41ColorRGB
 90
        0
102
RTVSPost2010PropOp41
 70
     1
102
RTVSPost2010Prop42
 90
       50
102
RTVSPost2010PropOp42
 70
     1
102
RTVSPost2010Prop43
 90
        3
102
RTVSPost2010PropOp43
 70
     1
102
RTVSPost2010Prop44ColorIndex
 90
        5
102
RTVSPost2010Prop44ColorRGB
 90
      255
102
RTVSPost2010PropOp44
 70
     1
102
RTVSPost2010Prop45
280
     0
102
RTVSPost2010PropOp45
 70
     1
102
RTVSPost2010Prop46
 90
       50
102
RTVSPost2010PropOp46
 70
     1
102
RTVSPost2010Prop47
 90
       50
102
RTVSPost2010PropOp47
 70
     1
102
RTVSPost2010Prop48
 90
       50
102
RTVSPost2010PropOp48
 70
     1
102
RTVSPost2010Prop49
280
     0
102
RTVSPost2010PropOp49
 70
     1
102
RTVSPost2010Prop50
 90
       50
102
RTVSPost2010PropOp50
 70
     1
102
RTVSPost2010Prop51ColorIndex
 90
      256
102
RTVSPost2010Prop51ColorRGB
 90
-16777216
102
RTVSPost2010PropOp51
 70
     0
102
RTVSPost2010Prop52
140
1.0
102
RTVSPost2010PropOp52
 70
     0
102
RTVSPost2010Prop53
 90
        2
102
RTVSPost2010PropOp53
 70
     1
102
RTVSPost2010Prop54
  1
strokes_ogs.tif
102
RTVSPost2010PropOp54
 70
     1
102
RTVSPost2010Prop55
280
     0
102
RTVSPost2010PropOp55
 70
     1
102
RTVSPost2010Prop56
140
1.0
102
RTVSPost2010PropOp56
 70
     1
102
RTVSPost2010Prop57
140
1.0
102
RTVSPost2010PropOp57
 70
     1
  0
XRECORD
  5
1222D
102
{ACAD_REACTORS
330
1222C
102
}
330
1222C
100
AcDbXrecord
280
     1
102
RTVSPropertyOp0
 70
     1
102
RTVSPropertyOp1
 70
     1
102
RTVSPropertyOp2
 70
     1
102
RTVSPropertyOp3
 70
     1
102
RTVSPropertyOp4
 70
     1
102
RTVSPropertyOp5
 70
     1
102
RTVSPropertyOp6
 70
     1
102
RTVSPropertyOp7
 70
     1
102
RTVSPropertyOp8
 70
     1
102
RTVSPropertyOp9
 70
     1
102
RTVSPropertyOp10
 70
     1
102
RTVSPropertyOp11
 70
     1
102
RTVSPropertyOp12
 70
     1
102
RTVSPropertyOp13
 70
     1
102
RTVSPropertyOp14
 70
     1
102
RTVSPropertyOp15
 70
     1
102
RTVSPropertyOp16
 70
     1
102
RTVSPropertyOp17
 70
     1
102
RTVSPropertyOp18
 70
     1
102
RTVSPropertyOp19
 70
     1
102
RTVSPropertyOp20
 70
     1
102
RTVSPropertyOp21
 70
     1
102
RTVSPropertyOp22
 70
     1
102
RTVSPropertyOp23
 70
     1
102
RTVSPropertyOp24
 70
     1
102
RTVSPropertyOp25
 70
     1
102
RTVSPropertyOp26
 70
     1
102
RTVSPropertyOp27
 70
     1
102
RTVSPropertyOp28
 70
     1
102
RTVSPropertyOp29
 70
     1
102
RTVSPropertyOp30
 70
     1
102
RTVSPropertyOp31
 70
     1
102
RTVSPropertyOp32
 70
     1
102
RTVSPropertyOp33
 70
     1
102
RTVSPropertyOp34
 70
     1
102
RTVSPropertyOp35
 70
     1
102
RTVSPropertyOp36
 70
     1
102
RTVSPropertyOp37
 70
     1
102
RTVSPropertyOp38
 70
     1
102
RTVSPropertyOp39
 70
     1
102
RTVSPropertyOp40
 70
     1
102
RTVSPropertyOp41
 70
     1
102
RTVSPropertyOp42
 70
     1
102
RTVSPropertyOp43
 70
     1
102
RTVSPropertyOp44
 70
     1
102
RTVSPropertyOp45
 70
     1
102
RTVSPropertyOp46
 70
     1
102
RTVSPropertyOp47
 70
     1
102
RTVSPropertyOp48
 70
     1
102
RTVSPropertyOp49
 70
     1
102
RTVSPropertyOp50
 70
     1
102
RTVSPropertyOp51
 70
     0
102
RTVSPropertyOp52
 70
     0
102
RTVSPropertyOp53
 70
     1
102
RTVSPropertyOp54
 70
     1
102
RTVSPropertyOp55
 70
     1
102
RTVSPropertyOp56
 70
     1
102
RTVSPropertyOp57
 70
     1
102
RTVSPost2010Prop28
280
     0
102
RTVSPost2010PropOp28
 70
     1
102
RTVSPost2010Prop29
280
     1
102
RTVSPost2010PropOp29
 70
     1
102
RTVSPost2010Prop30
280
     1
102
RTVSPost2010PropOp30
 70
     1
102
RTVSPost2010Prop31
280
     0
102
RTVSPost2010PropOp31
 70
     1
102
RTVSPost2010Prop32
280
     0
102
RTVSPost2010PropOp32
 70
     1
102
RTVSPost2010Prop33
280
     0
102
RTVSPost2010PropOp33
 70
     1
102
RTVSPost2010Prop34
280
     0
102
RTVSPost2010PropOp34
 70
     1
102
RTVSPost2010Prop35
280
     0
102
RTVSPost2010PropOp35
 70
     1
102
RTVSPost2010Prop36
280
     0
102
RTVSPost2010PropOp36
 70
     1
102
RTVSPost2010Prop37
 90
       50
102
RTVSPost2010PropOp37
 70
     1
102
RTVSPost2010Prop38
140
0.0
102
RTVSPost2010PropOp38
 70
     1
102
RTVSPost2010Prop39
140
1.0
102
RTVSPost2010PropOp39
 70
     1
102
RTVSPost2010Prop40
 90
        0
102
RTVSPost2010PropOp40
 70
     1
102
RTVSPost2010Prop41ColorIndex
 90
       18
102
RTVSPost2010Prop41ColorRGB
 90
        0
102
RTVSPost2010PropOp41
 70
     1
102
RTVSPost2010Prop42
 90
       50
102
RTVSPost2010PropOp42
 70
     1
102
RTVSPost2010Prop43
 90
        3
102
RTVSPost2010PropOp43
 70
     1
102
RTVSPost2010Prop44ColorIndex
 90
        5
102
RTVSPost2010Prop44ColorRGB
 90
      255
102
RTVSPost2010PropOp44
 70
     1
102
RTVSPost2010Prop45
280
     0
102
RTVSPost2010PropOp45
 70
     1
102
RTVSPost2010Prop46
 90
       50
102
RTVSPost2010PropOp46
 70
     1
102
RTVSPost2010Prop47
 90
       50
102
RTVSPost2010PropOp47
 70
     1
102
RTVSPost2010Prop48
 90
       50
102
RTVSPost2010PropOp48
 70
     1
102
RTVSPost2010Prop49
280
     0
102
RTVSPost2010PropOp49
 70
     1
102
RTVSPost2010Prop50
 90
       50
102
RTVSPost2010PropOp50
 70
     1
102
RTVSPost2010Prop51ColorIndex
 90
      256
102
RTVSPost2010Prop51ColorRGB
 90
-16777216
102
RTVSPost2010PropOp51
 70
     0
102
RTVSPost2010Prop52
140
1.0
102
RTVSPost2010PropOp52
 70
     0
102
RTVSPost2010Prop53
 90
        2
102
RTVSPost2010PropOp53
 70
     1
102
RTVSPost2010Prop54
  1
strokes_ogs.tif
102
RTVSPost2010PropOp54
 70
     1
102
RTVSPost2010Prop55
280
     0
102
RTVSPost2010PropOp55
 70
     1
102
RTVSPost2010Prop56
140
1.0
102
RTVSPost2010PropOp56
 70
     1
102
RTVSPost2010Prop57
140
1.0
102
RTVSPost2010PropOp57
 70
     1
  0
XRECORD
  5
1222F
102
{ACAD_REACTORS
330
1222E
102
}
330
1222E
100
AcDbXrecord
280
     1
102
RTVSPropertyOp0
 70
     1
102
RTVSPropertyOp1
 70
     1
102
RTVSPropertyOp2
 70
     1
102
RTVSPropertyOp3
 70
     1
102
RTVSPropertyOp4
 70
     1
102
RTVSPropertyOp5
 70
     1
102
RTVSPropertyOp6
 70
     1
102
RTVSPropertyOp7
 70
     1
102
RTVSPropertyOp8
 70
     1
102
RTVSPropertyOp9
 70
     1
102
RTVSPropertyOp10
 70
     1
102
RTVSPropertyOp11
 70
     1
102
RTVSPropertyOp12
 70
     1
102
RTVSPropertyOp13
 70
     1
102
RTVSPropertyOp14
 70
     1
102
RTVSPropertyOp15
 70
     1
102
RTVSPropertyOp16
 70
     1
102
RTVSPropertyOp17
 70
     1
102
RTVSPropertyOp18
 70
     1
102
RTVSPropertyOp19
 70
     1
102
RTVSPropertyOp20
 70
     1
102
RTVSPropertyOp21
 70
     1
102
RTVSPropertyOp22
 70
     1
102
RTVSPropertyOp23
 70
     1
102
RTVSPropertyOp24
 70
     1
102
RTVSPropertyOp25
 70
     1
102
RTVSPropertyOp26
 70
     1
102
RTVSPropertyOp27
 70
     1
102
RTVSPropertyOp28
 70
     1
102
RTVSPropertyOp29
 70
     1
102
RTVSPropertyOp30
 70
     1
102
RTVSPropertyOp31
 70
     1
102
RTVSPropertyOp32
 70
     1
102
RTVSPropertyOp33
 70
     1
102
RTVSPropertyOp34
 70
     1
102
RTVSPropertyOp35
 70
     1
102
RTVSPropertyOp36
 70
     1
102
RTVSPropertyOp37
 70
     1
102
RTVSPropertyOp38
 70
     1
102
RTVSPropertyOp39
 70
     1
102
RTVSPropertyOp40
 70
     1
102
RTVSPropertyOp41
 70
     1
102
RTVSPropertyOp42
 70
     1
102
RTVSPropertyOp43
 70
     1
102
RTVSPropertyOp44
 70
     1
102
RTVSPropertyOp45
 70
     1
102
RTVSPropertyOp46
 70
     1
102
RTVSPropertyOp47
 70
     1
102
RTVSPropertyOp48
 70
     1
102
RTVSPropertyOp49
 70
     1
102
RTVSPropertyOp50
 70
     1
102
RTVSPropertyOp51
 70
     0
102
RTVSPropertyOp52
 70
     0
102
RTVSPropertyOp53
 70
     1
102
RTVSPropertyOp54
 70
     1
102
RTVSPropertyOp55
 70
     1
102
RTVSPropertyOp56
 70
     1
102
RTVSPropertyOp57
 70
     1
102
RTVSPost2010Prop28
280
     0
102
RTVSPost2010PropOp28
 70
     1
102
RTVSPost2010Prop29
280
     1
102
RTVSPost2010PropOp29
 70
     1
102
RTVSPost2010Prop30
280
     1
102
RTVSPost2010PropOp30
 70
     1
102
RTVSPost2010Prop31
280
     0
102
RTVSPost2010PropOp31
 70
     1
102
RTVSPost2010Prop32
280
     0
102
RTVSPost2010PropOp32
 70
     1
102
RTVSPost2010Prop33
280
     0
102
RTVSPost2010PropOp33
 70
     1
102
RTVSPost2010Prop34
280
     0
102
RTVSPost2010PropOp34
 70
     1
102
RTVSPost2010Prop35
280
     0
102
RTVSPost2010PropOp35
 70
     1
102
RTVSPost2010Prop36
280
     0
102
RTVSPost2010PropOp36
 70
     1
102
RTVSPost2010Prop37
 90
       50
102
RTVSPost2010PropOp37
 70
     1
102
RTVSPost2010Prop38
140
0.0
102
RTVSPost2010PropOp38
 70
     1
102
RTVSPost2010Prop39
140
1.0
102
RTVSPost2010PropOp39
 70
     1
102
RTVSPost2010Prop40
 90
        0
102
RTVSPost2010PropOp40
 70
     1
102
RTVSPost2010Prop41ColorIndex
 90
       18
102
RTVSPost2010Prop41ColorRGB
 90
        0
102
RTVSPost2010PropOp41
 70
     1
102
RTVSPost2010Prop42
 90
       50
102
RTVSPost2010PropOp42
 70
     1
102
RTVSPost2010Prop43
 90
        3
102
RTVSPost2010PropOp43
 70
     1
102
RTVSPost2010Prop44ColorIndex
 90
        5
102
RTVSPost2010Prop44ColorRGB
 90
      255
102
RTVSPost2010PropOp44
 70
     1
102
RTVSPost2010Prop45
280
     0
102
RTVSPost2010PropOp45
 70
     1
102
RTVSPost2010Prop46
 90
       50
102
RTVSPost2010PropOp46
 70
     1
102
RTVSPost2010Prop47
 90
       50
102
RTVSPost2010PropOp47
 70
     1
102
RTVSPost2010Prop48
 90
       50
102
RTVSPost2010PropOp48
 70
     1
102
RTVSPost2010Prop49
280
     0
102
RTVSPost2010PropOp49
 70
     1
102
RTVSPost2010Prop50
 90
       50
102
RTVSPost2010PropOp50
 70
     1
102
RTVSPost2010Prop51ColorIndex
 90
      256
102
RTVSPost2010Prop51ColorRGB
 90
-16777216
102
RTVSPost2010PropOp51
 70
     0
102
RTVSPost2010Prop52
140
1.0
102
RTVSPost2010PropOp52
 70
     0
102
RTVSPost2010Prop53
 90
        2
102
RTVSPost2010PropOp53
 70
     1
102
RTVSPost2010Prop54
  1
strokes_ogs.tif
102
RTVSPost2010PropOp54
 70
     1
102
RTVSPost2010Prop55
280
     0
102
RTVSPost2010PropOp55
 70
     1
102
RTVSPost2010Prop56
140
1.0
102
RTVSPost2010PropOp56
 70
     1
102
RTVSPost2010Prop57
140
1.0
102
RTVSPost2010PropOp57
 70
     1
  0
XRECORD
  5
12231
102
{ACAD_REACTORS
330
12230
102
}
330
12230
100
AcDbXrecord
280
     1
102
RTVSPropertyOp0
 70
     1
102
RTVSPropertyOp1
 70
     1
102
RTVSPropertyOp2
 70
     1
102
RTVSPropertyOp3
 70
     1
102
RTVSPropertyOp4
 70
     1
102
RTVSPropertyOp5
 70
     1
102
RTVSPropertyOp6
 70
     1
102
RTVSPropertyOp7
 70
     1
102
RTVSPropertyOp8
 70
     1
102
RTVSPropertyOp9
 70
     1
102
RTVSPropertyOp10
 70
     1
102
RTVSPropertyOp11
 70
     1
102
RTVSPropertyOp12
 70
     1
102
RTVSPropertyOp13
 70
     1
102
RTVSPropertyOp14
 70
     1
102
RTVSPropertyOp15
 70
     1
102
RTVSPropertyOp16
 70
     1
102
RTVSPropertyOp17
 70
     1
102
RTVSPropertyOp18
 70
     1
102
RTVSPropertyOp19
 70
     1
102
RTVSPropertyOp20
 70
     1
102
RTVSPropertyOp21
 70
     1
102
RTVSPropertyOp22
 70
     1
102
RTVSPropertyOp23
 70
     1
102
RTVSPropertyOp24
 70
     1
102
RTVSPropertyOp25
 70
     1
102
RTVSPropertyOp26
 70
     1
102
RTVSPropertyOp27
 70
     1
102
RTVSPropertyOp28
 70
     1
102
RTVSPropertyOp29
 70
     1
102
RTVSPropertyOp30
 70
     1
102
RTVSPropertyOp31
 70
     1
102
RTVSPropertyOp32
 70
     1
102
RTVSPropertyOp33
 70
     1
102
RTVSPropertyOp34
 70
     1
102
RTVSPropertyOp35
 70
     1
102
RTVSPropertyOp36
 70
     1
102
RTVSPropertyOp37
 70
     1
102
RTVSPropertyOp38
 70
     1
102
RTVSPropertyOp39
 70
     1
102
RTVSPropertyOp40
 70
     1
102
RTVSPropertyOp41
 70
     1
102
RTVSPropertyOp42
 70
     1
102
RTVSPropertyOp43
 70
     1
102
RTVSPropertyOp44
 70
     1
102
RTVSPropertyOp45
 70
     1
102
RTVSPropertyOp46
 70
     1
102
RTVSPropertyOp47
 70
     1
102
RTVSPropertyOp48
 70
     1
102
RTVSPropertyOp49
 70
     1
102
RTVSPropertyOp50
 70
     1
102
RTVSPropertyOp51
 70
     0
102
RTVSPropertyOp52
 70
     0
102
RTVSPropertyOp53
 70
     1
102
RTVSPropertyOp54
 70
     1
102
RTVSPropertyOp55
 70
     1
102
RTVSPropertyOp56
 70
     1
102
RTVSPropertyOp57
 70
     1
102
RTVSPost2010Prop28
280
     0
102
RTVSPost2010PropOp28
 70
     1
102
RTVSPost2010Prop29
280
     1
102
RTVSPost2010PropOp29
 70
     1
102
RTVSPost2010Prop30
280
     1
102
RTVSPost2010PropOp30
 70
     1
102
RTVSPost2010Prop31
280
     0
102
RTVSPost2010PropOp31
 70
     1
102
RTVSPost2010Prop32
280
     0
102
RTVSPost2010PropOp32
 70
     1
102
RTVSPost2010Prop33
280
     0
102
RTVSPost2010PropOp33
 70
     1
102
RTVSPost2010Prop34
280
     0
102
RTVSPost2010PropOp34
 70
     1
102
RTVSPost2010Prop35
280
     0
102
RTVSPost2010PropOp35
 70
     1
102
RTVSPost2010Prop36
280
     0
102
RTVSPost2010PropOp36
 70
     1
102
RTVSPost2010Prop37
 90
       50
102
RTVSPost2010PropOp37
 70
     1
102
RTVSPost2010Prop38
140
0.0
102
RTVSPost2010PropOp38
 70
     1
102
RTVSPost2010Prop39
140
1.0
102
RTVSPost2010PropOp39
 70
     1
102
RTVSPost2010Prop40
 90
        0
102
RTVSPost2010PropOp40
 70
     1
102
RTVSPost2010Prop41ColorIndex
 90
       18
102
RTVSPost2010Prop41ColorRGB
 90
        0
102
RTVSPost2010PropOp41
 70
     1
102
RTVSPost2010Prop42
 90
       50
102
RTVSPost2010PropOp42
 70
     1
102
RTVSPost2010Prop43
 90
        3
102
RTVSPost2010PropOp43
 70
     1
102
RTVSPost2010Prop44ColorIndex
 90
        5
102
RTVSPost2010Prop44ColorRGB
 90
      255
102
RTVSPost2010PropOp44
 70
     1
102
RTVSPost2010Prop45
280
     0
102
RTVSPost2010PropOp45
 70
     1
102
RTVSPost2010Prop46
 90
       50
102
RTVSPost2010PropOp46
 70
     1
102
RTVSPost2010Prop47
 90
       50
102
RTVSPost2010PropOp47
 70
     1
102
RTVSPost2010Prop48
 90
       50
102
RTVSPost2010PropOp48
 70
     1
102
RTVSPost2010Prop49
280
     0
102
RTVSPost2010PropOp49
 70
     1
102
RTVSPost2010Prop50
 90
       50
102
RTVSPost2010PropOp50
 70
     1
102
RTVSPost2010Prop51ColorIndex
 90
      256
102
RTVSPost2010Prop51ColorRGB
 90
-16777216
102
RTVSPost2010PropOp51
 70
     0
102
RTVSPost2010Prop52
140
1.0
102
RTVSPost2010PropOp52
 70
     0
102
RTVSPost2010Prop53
 90
        2
102
RTVSPost2010PropOp53
 70
     1
102
RTVSPost2010Prop54
  1
strokes_ogs.tif
102
RTVSPost2010PropOp54
 70
     1
102
RTVSPost2010Prop55
280
     0
102
RTVSPost2010PropOp55
 70
     1
102
RTVSPost2010Prop56
140
1.0
102
RTVSPost2010PropOp56
 70
     1
102
RTVSPost2010Prop57
140
1.0
102
RTVSPost2010PropOp57
 70
     1
  0
XRECORD
  5
12233
102
{ACAD_REACTORS
330
12232
102
}
330
12232
100
AcDbXrecord
280
     1
102
RTVSPropertyOp0
 70
     1
102
RTVSPropertyOp1
 70
     1
102
RTVSPropertyOp2
 70
     1
102
RTVSPropertyOp3
 70
     1
102
RTVSPropertyOp4
 70
     1
102
RTVSPropertyOp5
 70
     1
102
RTVSPropertyOp6
 70
     1
102
RTVSPropertyOp7
 70
     1
102
RTVSPropertyOp8
 70
     1
102
RTVSPropertyOp9
 70
     1
102
RTVSPropertyOp10
 70
     1
102
RTVSPropertyOp11
 70
     1
102
RTVSPropertyOp12
 70
     1
102
RTVSPropertyOp13
 70
     1
102
RTVSPropertyOp14
 70
     1
102
RTVSPropertyOp15
 70
     1
102
RTVSPropertyOp16
 70
     1
102
RTVSPropertyOp17
 70
     1
102
RTVSPropertyOp18
 70
     1
102
RTVSPropertyOp19
 70
     1
102
RTVSPropertyOp20
 70
     1
102
RTVSPropertyOp21
 70
     1
102
RTVSPropertyOp22
 70
     1
102
RTVSPropertyOp23
 70
     1
102
RTVSPropertyOp24
 70
     1
102
RTVSPropertyOp25
 70
     1
102
RTVSPropertyOp26
 70
     1
102
RTVSPropertyOp27
 70
     1
102
RTVSPropertyOp28
 70
     1
102
RTVSPropertyOp29
 70
     1
102
RTVSPropertyOp30
 70
     1
102
RTVSPropertyOp31
 70
     1
102
RTVSPropertyOp32
 70
     1
102
RTVSPropertyOp33
 70
     1
102
RTVSPropertyOp34
 70
     1
102
RTVSPropertyOp35
 70
     1
102
RTVSPropertyOp36
 70
     1
102
RTVSPropertyOp37
 70
     1
102
RTVSPropertyOp38
 70
     1
102
RTVSPropertyOp39
 70
     1
102
RTVSPropertyOp40
 70
     1
102
RTVSPropertyOp41
 70
     1
102
RTVSPropertyOp42
 70
     1
102
RTVSPropertyOp43
 70
     1
102
RTVSPropertyOp44
 70
     1
102
RTVSPropertyOp45
 70
     1
102
RTVSPropertyOp46
 70
     1
102
RTVSPropertyOp47
 70
     1
102
RTVSPropertyOp48
 70
     1
102
RTVSPropertyOp49
 70
     1
102
RTVSPropertyOp50
 70
     1
102
RTVSPropertyOp51
 70
     0
102
RTVSPropertyOp52
 70
     0
102
RTVSPropertyOp53
 70
     1
102
RTVSPropertyOp54
 70
     1
102
RTVSPropertyOp55
 70
     1
102
RTVSPropertyOp56
 70
     1
102
RTVSPropertyOp57
 70
     1
102
RTVSPost2010Prop28
280
     0
102
RTVSPost2010PropOp28
 70
     1
102
RTVSPost2010Prop29
280
     1
102
RTVSPost2010PropOp29
 70
     1
102
RTVSPost2010Prop30
280
     1
102
RTVSPost2010PropOp30
 70
     1
102
RTVSPost2010Prop31
280
     0
102
RTVSPost2010PropOp31
 70
     1
102
RTVSPost2010Prop32
280
     0
102
RTVSPost2010PropOp32
 70
     1
102
RTVSPost2010Prop33
280
     0
102
RTVSPost2010PropOp33
 70
     1
102
RTVSPost2010Prop34
280
     0
102
RTVSPost2010PropOp34
 70
     1
102
RTVSPost2010Prop35
280
     0
102
RTVSPost2010PropOp35
 70
     1
102
RTVSPost2010Prop36
280
     0
102
RTVSPost2010PropOp36
 70
     1
102
RTVSPost2010Prop37
 90
       50
102
RTVSPost2010PropOp37
 70
     1
102
RTVSPost2010Prop38
140
0.0
102
RTVSPost2010PropOp38
 70
     1
102
RTVSPost2010Prop39
140
1.0
102
RTVSPost2010PropOp39
 70
     1
102
RTVSPost2010Prop40
 90
        0
102
RTVSPost2010PropOp40
 70
     1
102
RTVSPost2010Prop41ColorIndex
 90
       18
102
RTVSPost2010Prop41ColorRGB
 90
        0
102
RTVSPost2010PropOp41
 70
     1
102
RTVSPost2010Prop42
 90
       50
102
RTVSPost2010PropOp42
 70
     1
102
RTVSPost2010Prop43
 90
        3
102
RTVSPost2010PropOp43
 70
     1
102
RTVSPost2010Prop44ColorIndex
 90
        5
102
RTVSPost2010Prop44ColorRGB
 90
      255
102
RTVSPost2010PropOp44
 70
     1
102
RTVSPost2010Prop45
280
     0
102
RTVSPost2010PropOp45
 70
     1
102
RTVSPost2010Prop46
 90
       50
102
RTVSPost2010PropOp46
 70
     1
102
RTVSPost2010Prop47
 90
       50
102
RTVSPost2010PropOp47
 70
     1
102
RTVSPost2010Prop48
 90
       50
102
RTVSPost2010PropOp48
 70
     1
102
RTVSPost2010Prop49
280
     0
102
RTVSPost2010PropOp49
 70
     1
102
RTVSPost2010Prop50
 90
       50
102
RTVSPost2010PropOp50
 70
     1
102
RTVSPost2010Prop51ColorIndex
 90
      256
102
RTVSPost2010Prop51ColorRGB
 90
-16777216
102
RTVSPost2010PropOp51
 70
     0
102
RTVSPost2010Prop52
140
1.0
102
RTVSPost2010PropOp52
 70
     0
102
RTVSPost2010Prop53
 90
        2
102
RTVSPost2010PropOp53
 70
     1
102
RTVSPost2010Prop54
  1
strokes_ogs.tif
102
RTVSPost2010PropOp54
 70
     1
102
RTVSPost2010Prop55
280
     0
102
RTVSPost2010PropOp55
 70
     1
102
RTVSPost2010Prop56
140
1.0
102
RTVSPost2010PropOp56
 70
     1
102
RTVSPost2010Prop57
140
1.0
102
RTVSPost2010PropOp57
 70
     1
  0
XRECORD
  5
12235
102
{ACAD_REACTORS
330
12234
102
}
330
12234
100
AcDbXrecord
280
     1
102
RTVSPropertyOp0
 70
     1
102
RTVSPropertyOp1
 70
     1
102
RTVSPropertyOp2
 70
     1
102
RTVSPropertyOp3
 70
     1
102
RTVSPropertyOp4
 70
     1
102
RTVSPropertyOp5
 70
     1
102
RTVSPropertyOp6
 70
     1
102
RTVSPropertyOp7
 70
     1
102
RTVSPropertyOp8
 70
     1
102
RTVSPropertyOp9
 70
     1
102
RTVSPropertyOp10
 70
     1
102
RTVSPropertyOp11
 70
     1
102
RTVSPropertyOp12
 70
     1
102
RTVSPropertyOp13
 70
     1
102
RTVSPropertyOp14
 70
     1
102
RTVSPropertyOp15
 70
     1
102
RTVSPropertyOp16
 70
     1
102
RTVSPropertyOp17
 70
     1
102
RTVSPropertyOp18
 70
     1
102
RTVSPropertyOp19
 70
     1
102
RTVSPropertyOp20
 70
     1
102
RTVSPropertyOp21
 70
     1
102
RTVSPropertyOp22
 70
     1
102
RTVSPropertyOp23
 70
     1
102
RTVSPropertyOp24
 70
     1
102
RTVSPropertyOp25
 70
     1
102
RTVSPropertyOp26
 70
     1
102
RTVSPropertyOp27
 70
     1
102
RTVSPropertyOp28
 70
     1
102
RTVSPropertyOp29
 70
     1
102
RTVSPropertyOp30
 70
     1
102
RTVSPropertyOp31
 70
     1
102
RTVSPropertyOp32
 70
     1
102
RTVSPropertyOp33
 70
     1
102
RTVSPropertyOp34
 70
     1
102
RTVSPropertyOp35
 70
     1
102
RTVSPropertyOp36
 70
     1
102
RTVSPropertyOp37
 70
     1
102
RTVSPropertyOp38
 70
     1
102
RTVSPropertyOp39
 70
     1
102
RTVSPropertyOp40
 70
     1
102
RTVSPropertyOp41
 70
     1
102
RTVSPropertyOp42
 70
     1
102
RTVSPropertyOp43
 70
     1
102
RTVSPropertyOp44
 70
     1
102
RTVSPropertyOp45
 70
     1
102
RTVSPropertyOp46
 70
     1
102
RTVSPropertyOp47
 70
     1
102
RTVSPropertyOp48
 70
     1
102
RTVSPropertyOp49
 70
     1
102
RTVSPropertyOp50
 70
     1
102
RTVSPropertyOp51
 70
     0
102
RTVSPropertyOp52
 70
     0
102
RTVSPropertyOp53
 70
     1
102
RTVSPropertyOp54
 70
     1
102
RTVSPropertyOp55
 70
     1
102
RTVSPropertyOp56
 70
     1
102
RTVSPropertyOp57
 70
     1
102
RTVSPost2010Prop28
280
     0
102
RTVSPost2010PropOp28
 70
     1
102
RTVSPost2010Prop29
280
     1
102
RTVSPost2010PropOp29
 70
     1
102
RTVSPost2010Prop30
280
     1
102
RTVSPost2010PropOp30
 70
     1
102
RTVSPost2010Prop31
280
     0
102
RTVSPost2010PropOp31
 70
     1
102
RTVSPost2010Prop32
280
     0
102
RTVSPost2010PropOp32
 70
     1
102
RTVSPost2010Prop33
280
     0
102
RTVSPost2010PropOp33
 70
     1
102
RTVSPost2010Prop34
280
     0
102
RTVSPost2010PropOp34
 70
     1
102
RTVSPost2010Prop35
280
     0
102
RTVSPost2010PropOp35
 70
     1
102
RTVSPost2010Prop36
280
     0
102
RTVSPost2010PropOp36
 70
     1
102
RTVSPost2010Prop37
 90
       50
102
RTVSPost2010PropOp37
 70
     1
102
RTVSPost2010Prop38
140
0.0
102
RTVSPost2010PropOp38
 70
     1
102
RTVSPost2010Prop39
140
1.0
102
RTVSPost2010PropOp39
 70
     1
102
RTVSPost2010Prop40
 90
        0
102
RTVSPost2010PropOp40
 70
     1
102
RTVSPost2010Prop41ColorIndex
 90
       18
102
RTVSPost2010Prop41ColorRGB
 90
        0
102
RTVSPost2010PropOp41
 70
     1
102
RTVSPost2010Prop42
 90
       50
102
RTVSPost2010PropOp42
 70
     1
102
RTVSPost2010Prop43
 90
        3
102
RTVSPost2010PropOp43
 70
     1
102
RTVSPost2010Prop44ColorIndex
 90
        5
102
RTVSPost2010Prop44ColorRGB
 90
      255
102
RTVSPost2010PropOp44
 70
     1
102
RTVSPost2010Prop45
280
     0
102
RTVSPost2010PropOp45
 70
     1
102
RTVSPost2010Prop46
 90
       50
102
RTVSPost2010PropOp46
 70
     1
102
RTVSPost2010Prop47
 90
       50
102
RTVSPost2010PropOp47
 70
     1
102
RTVSPost2010Prop48
 90
       50
102
RTVSPost2010PropOp48
 70
     1
102
RTVSPost2010Prop49
280
     0
102
RTVSPost2010PropOp49
 70
     1
102
RTVSPost2010Prop50
 90
       50
102
RTVSPost2010PropOp50
 70
     1
102
RTVSPost2010Prop51ColorIndex
 90
      256
102
RTVSPost2010Prop51ColorRGB
 90
-16777216
102
RTVSPost2010PropOp51
 70
     0
102
RTVSPost2010Prop52
140
1.0
102
RTVSPost2010PropOp52
 70
     0
102
RTVSPost2010Prop53
 90
        2
102
RTVSPost2010PropOp53
 70
     1
102
RTVSPost2010Prop54
  1
strokes_ogs.tif
102
RTVSPost2010PropOp54
 70
     1
102
RTVSPost2010Prop55
280
     0
102
RTVSPost2010PropOp55
 70
     1
102
RTVSPost2010Prop56
140
1.0
102
RTVSPost2010PropOp56
 70
     1
102
RTVSPost2010Prop57
140
1.0
102
RTVSPost2010PropOp57
 70
     1
  0
XRECORD
  5
12237
102
{ACAD_REACTORS
330
12236
102
}
330
12236
100
AcDbXrecord
280
     1
102
RTVSPropertyOp0
 70
     1
102
RTVSPropertyOp1
 70
     1
102
RTVSPropertyOp2
 70
     1
102
RTVSPropertyOp3
 70
     1
102
RTVSPropertyOp4
 70
     1
102
RTVSPropertyOp5
 70
     1
102
RTVSPropertyOp6
 70
     1
102
RTVSPropertyOp7
 70
     1
102
RTVSPropertyOp8
 70
     1
102
RTVSPropertyOp9
 70
     1
102
RTVSPropertyOp10
 70
     1
102
RTVSPropertyOp11
 70
     1
102
RTVSPropertyOp12
 70
     1
102
RTVSPropertyOp13
 70
     1
102
RTVSPropertyOp14
 70
     1
102
RTVSPropertyOp15
 70
     1
102
RTVSPropertyOp16
 70
     1
102
RTVSPropertyOp17
 70
     1
102
RTVSPropertyOp18
 70
     1
102
RTVSPropertyOp19
 70
     1
102
RTVSPropertyOp20
 70
     1
102
RTVSPropertyOp21
 70
     1
102
RTVSPropertyOp22
 70
     1
102
RTVSPropertyOp23
 70
     1
102
RTVSPropertyOp24
 70
     1
102
RTVSPropertyOp25
 70
     1
102
RTVSPropertyOp26
 70
     1
102
RTVSPropertyOp27
 70
     1
102
RTVSPropertyOp28
 70
     1
102
RTVSPropertyOp29
 70
     1
102
RTVSPropertyOp30
 70
     1
102
RTVSPropertyOp31
 70
     1
102
RTVSPropertyOp32
 70
     1
102
RTVSPropertyOp33
 70
     1
102
RTVSPropertyOp34
 70
     1
102
RTVSPropertyOp35
 70
     1
102
RTVSPropertyOp36
 70
     1
102
RTVSPropertyOp37
 70
     1
102
RTVSPropertyOp38
 70
     1
102
RTVSPropertyOp39
 70
     1
102
RTVSPropertyOp40
 70
     1
102
RTVSPropertyOp41
 70
     1
102
RTVSPropertyOp42
 70
     1
102
RTVSPropertyOp43
 70
     1
102
RTVSPropertyOp44
 70
     1
102
RTVSPropertyOp45
 70
     1
102
RTVSPropertyOp46
 70
     1
102
RTVSPropertyOp47
 70
     1
102
RTVSPropertyOp48
 70
     1
102
RTVSPropertyOp49
 70
     1
102
RTVSPropertyOp50
 70
     1
102
RTVSPropertyOp51
 70
     0
102
RTVSPropertyOp52
 70
     0
102
RTVSPropertyOp53
 70
     1
102
RTVSPropertyOp54
 70
     1
102
RTVSPropertyOp55
 70
     1
102
RTVSPropertyOp56
 70
     1
102
RTVSPropertyOp57
 70
     1
102
RTVSPost2010Prop28
280
     0
102
RTVSPost2010PropOp28
 70
     1
102
RTVSPost2010Prop29
280
     1
102
RTVSPost2010PropOp29
 70
     1
102
RTVSPost2010Prop30
280
     1
102
RTVSPost2010PropOp30
 70
     1
102
RTVSPost2010Prop31
280
     0
102
RTVSPost2010PropOp31
 70
     1
102
RTVSPost2010Prop32
280
     0
102
RTVSPost2010PropOp32
 70
     1
102
RTVSPost2010Prop33
280
     0
102
RTVSPost2010PropOp33
 70
     1
102
RTVSPost2010Prop34
280
     0
102
RTVSPost2010PropOp34
 70
     1
102
RTVSPost2010Prop35
280
     0
102
RTVSPost2010PropOp35
 70
     1
102
RTVSPost2010Prop36
280
     0
102
RTVSPost2010PropOp36
 70
     1
102
RTVSPost2010Prop37
 90
       50
102
RTVSPost2010PropOp37
 70
     1
102
RTVSPost2010Prop38
140
0.0
102
RTVSPost2010PropOp38
 70
     1
102
RTVSPost2010Prop39
140
1.0
102
RTVSPost2010PropOp39
 70
     1
102
RTVSPost2010Prop40
 90
        0
102
RTVSPost2010PropOp40
 70
     1
102
RTVSPost2010Prop41ColorIndex
 90
       18
102
RTVSPost2010Prop41ColorRGB
 90
        0
102
RTVSPost2010PropOp41
 70
     1
102
RTVSPost2010Prop42
 90
       50
102
RTVSPost2010PropOp42
 70
     1
102
RTVSPost2010Prop43
 90
        3
102
RTVSPost2010PropOp43
 70
     1
102
RTVSPost2010Prop44ColorIndex
 90
        5
102
RTVSPost2010Prop44ColorRGB
 90
      255
102
RTVSPost2010PropOp44
 70
     1
102
RTVSPost2010Prop45
280
     0
102
RTVSPost2010PropOp45
 70
     1
102
RTVSPost2010Prop46
 90
       50
102
RTVSPost2010PropOp46
 70
     1
102
RTVSPost2010Prop47
 90
       50
102
RTVSPost2010PropOp47
 70
     1
102
RTVSPost2010Prop48
 90
       50
102
RTVSPost2010PropOp48
 70
     1
102
RTVSPost2010Prop49
280
     0
102
RTVSPost2010PropOp49
 70
     1
102
RTVSPost2010Prop50
 90
       50
102
RTVSPost2010PropOp50
 70
     1
102
RTVSPost2010Prop51ColorIndex
 90
      256
102
RTVSPost2010Prop51ColorRGB
 90
-16777216
102
RTVSPost2010PropOp51
 70
     0
102
RTVSPost2010Prop52
140
1.0
102
RTVSPost2010PropOp52
 70
     0
102
RTVSPost2010Prop53
 90
        2
102
RTVSPost2010PropOp53
 70
     1
102
RTVSPost2010Prop54
  1
strokes_ogs.tif
102
RTVSPost2010PropOp54
 70
     1
102
RTVSPost2010Prop55
280
     0
102
RTVSPost2010PropOp55
 70
     1
102
RTVSPost2010Prop56
140
1.0
102
RTVSPost2010PropOp56
 70
     1
102
RTVSPost2010Prop57
140
1.0
102
RTVSPost2010PropOp57
 70
     1
  0
XRECORD
  5
12239
102
{ACAD_REACTORS
330
12238
102
}
330
12238
100
AcDbXrecord
280
     1
102
RTVSPropertyOp0
 70
     1
102
RTVSPropertyOp1
 70
     1
102
RTVSPropertyOp2
 70
     1
102
RTVSPropertyOp3
 70
     1
102
RTVSPropertyOp4
 70
     1
102
RTVSPropertyOp5
 70
     1
102
RTVSPropertyOp6
 70
     1
102
RTVSPropertyOp7
 70
     1
102
RTVSPropertyOp8
 70
     1
102
RTVSPropertyOp9
 70
     1
102
RTVSPropertyOp10
 70
     1
102
RTVSPropertyOp11
 70
     1
102
RTVSPropertyOp12
 70
     1
102
RTVSPropertyOp13
 70
     1
102
RTVSPropertyOp14
 70
     1
102
RTVSPropertyOp15
 70
     1
102
RTVSPropertyOp16
 70
     1
102
RTVSPropertyOp17
 70
     1
102
RTVSPropertyOp18
 70
     1
102
RTVSPropertyOp19
 70
     1
102
RTVSPropertyOp20
 70
     1
102
RTVSPropertyOp21
 70
     1
102
RTVSPropertyOp22
 70
     1
102
RTVSPropertyOp23
 70
     1
102
RTVSPropertyOp24
 70
     1
102
RTVSPropertyOp25
 70
     1
102
RTVSPropertyOp26
 70
     1
102
RTVSPropertyOp27
 70
     1
102
RTVSPropertyOp28
 70
     1
102
RTVSPropertyOp29
 70
     1
102
RTVSPropertyOp30
 70
     1
102
RTVSPropertyOp31
 70
     1
102
RTVSPropertyOp32
 70
     1
102
RTVSPropertyOp33
 70
     1
102
RTVSPropertyOp34
 70
     1
102
RTVSPropertyOp35
 70
     1
102
RTVSPropertyOp36
 70
     1
102
RTVSPropertyOp37
 70
     1
102
RTVSPropertyOp38
 70
     1
102
RTVSPropertyOp39
 70
     1
102
RTVSPropertyOp40
 70
     1
102
RTVSPropertyOp41
 70
     1
102
RTVSPropertyOp42
 70
     1
102
RTVSPropertyOp43
 70
     1
102
RTVSPropertyOp44
 70
     1
102
RTVSPropertyOp45
 70
     1
102
RTVSPropertyOp46
 70
     1
102
RTVSPropertyOp47
 70
     1
102
RTVSPropertyOp48
 70
     1
102
RTVSPropertyOp49
 70
     1
102
RTVSPropertyOp50
 70
     1
102
RTVSPropertyOp51
 70
     0
102
RTVSPropertyOp52
 70
     0
102
RTVSPropertyOp53
 70
     1
102
RTVSPropertyOp54
 70
     1
102
RTVSPropertyOp55
 70
     1
102
RTVSPropertyOp56
 70
     1
102
RTVSPropertyOp57
 70
     1
102
RTVSPost2010Prop28
280
     0
102
RTVSPost2010PropOp28
 70
     1
102
RTVSPost2010Prop29
280
     1
102
RTVSPost2010PropOp29
 70
     1
102
RTVSPost2010Prop30
280
     1
102
RTVSPost2010PropOp30
 70
     1
102
RTVSPost2010Prop31
280
     0
102
RTVSPost2010PropOp31
 70
     1
102
RTVSPost2010Prop32
280
     0
102
RTVSPost2010PropOp32
 70
     1
102
RTVSPost2010Prop33
280
     0
102
RTVSPost2010PropOp33
 70
     1
102
RTVSPost2010Prop34
280
     0
102
RTVSPost2010PropOp34
 70
     1
102
RTVSPost2010Prop35
280
     0
102
RTVSPost2010PropOp35
 70
     1
102
RTVSPost2010Prop36
280
     0
102
RTVSPost2010PropOp36
 70
     1
102
RTVSPost2010Prop37
 90
       50
102
RTVSPost2010PropOp37
 70
     1
102
RTVSPost2010Prop38
140
0.0
102
RTVSPost2010PropOp38
 70
     1
102
RTVSPost2010Prop39
140
1.0
102
RTVSPost2010PropOp39
 70
     1
102
RTVSPost2010Prop40
 90
        0
102
RTVSPost2010PropOp40
 70
     1
102
RTVSPost2010Prop41ColorIndex
 90
       18
102
RTVSPost2010Prop41ColorRGB
 90
        0
102
RTVSPost2010PropOp41
 70
     1
102
RTVSPost2010Prop42
 90
       50
102
RTVSPost2010PropOp42
 70
     1
102
RTVSPost2010Prop43
 90
        3
102
RTVSPost2010PropOp43
 70
     1
102
RTVSPost2010Prop44ColorIndex
 90
        5
102
RTVSPost2010Prop44ColorRGB
 90
      255
102
RTVSPost2010PropOp44
 70
     1
102
RTVSPost2010Prop45
280
     0
102
RTVSPost2010PropOp45
 70
     1
102
RTVSPost2010Prop46
 90
       50
102
RTVSPost2010PropOp46
 70
     1
102
RTVSPost2010Prop47
 90
       50
102
RTVSPost2010PropOp47
 70
     1
102
RTVSPost2010Prop48
 90
       50
102
RTVSPost2010PropOp48
 70
     1
102
RTVSPost2010Prop49
280
     0
102
RTVSPost2010PropOp49
 70
     1
102
RTVSPost2010Prop50
 90
       50
102
RTVSPost2010PropOp50
 70
     1
102
RTVSPost2010Prop51ColorIndex
 90
      256
102
RTVSPost2010Prop51ColorRGB
 90
-16777216
102
RTVSPost2010PropOp51
 70
     0
102
RTVSPost2010Prop52
140
1.0
102
RTVSPost2010PropOp52
 70
     0
102
RTVSPost2010Prop53
 90
        2
102
RTVSPost2010PropOp53
 70
     1
102
RTVSPost2010Prop54
  1
strokes_ogs.tif
102
RTVSPost2010PropOp54
 70
     1
102
RTVSPost2010Prop55
280
     0
102
RTVSPost2010PropOp55
 70
     1
102
RTVSPost2010Prop56
140
1.0
102
RTVSPost2010PropOp56
 70
     1
102
RTVSPost2010Prop57
140
1.0
102
RTVSPost2010PropOp57
 70
     1
  0
ENDSEC
  0
EOF
