  0
SECTION
  2
HEADER
  9
$ACADVER
  1
AC1015
  9
$ACADMAINTVER
 70
     6
  9
$DWGCODEPAGE
  3
ANSI_1252
  9
$INSBASE
 10
0.0
 20
0.0
 30
0.0
  9
$EXTMIN
 10
2426.098716472125
 20
-1926.452403487917
 30
-0.0000000349181948
  9
$EXTMAX
 10
3628.269568756516
 20
-1627.568204015231
 30
0.0000000814935746
  9
$LIMMIN
 10
0.0
 20
0.0
  9
$LIMMAX
 10
12.0
 20
9.0
  9
$ORTHOMODE
 70
     0
  9
$REGENMODE
 70
     1
  9
$FILLMODE
 70
     1
  9
$QTEXTMODE
 70
     0
  9
$MIRRTEXT
 70
     0
  9
$LTSCALE
 40
1.0
  9
$ATTMODE
 70
     1
  9
$TEXTSIZE
 40
0.2
  9
$TRACEWID
 40
0.05
  9
$TEXTSTYLE
  7
Standard
  9
$CLAYER
  8
0
  9
$CELTYPE
  6
Continuous
  9
$CECOLOR
 62
   256
  9
$CELTSCALE
 40
1.0
  9
$DISPSILH
 70
     0
  9
$DIMSCALE
 40
1.0
  9
$DIMASZ
 40
0.18
  9
$DIMEXO
 40
0.0625
  9
$DIMDLI
 40
0.38
  9
$DIMRND
 40
0.0
  9
$DIMDLE
 40
0.0
  9
$DIMEXE
 40
0.18
  9
$DIMTP
 40
0.0
  9
$DIMTM
 40
0.0
  9
$DIMTXT
 40
0.18
  9
$DIMCEN
 40
0.09
  9
$DIMTSZ
 40
0.0
  9
$DIMTOL
 70
     0
  9
$DIMLIM
 70
     0
  9
$DIMTIH
 70
     1
  9
$DIMTOH
 70
     1
  9
$DIMSE1
 70
     0
  9
$DIMSE2
 70
     0
  9
$DIMTAD
 70
     0
  9
$DIMZIN
 70
     0
  9
$DIMBLK
  1

  9
$DIMASO
 70
     1
  9
$DIMSHO
 70
     1
  9
$DIMPOST
  1

  9
$DIMAPOST
  1

  9
$DIMALT
 70
     0
  9
$DIMALTD
 70
     2
  9
$DIMALTF
 40
25.4
  9
$DIMLFAC
 40
1.0
  9
$DIMTOFL
 70
     0
  9
$DIMTVP
 40
0.0
  9
$DIMTIX
 70
     0
  9
$DIMSOXD
 70
     0
  9
$DIMSAH
 70
     0
  9
$DIMBLK1
  1

  9
$DIMBLK2
  1

  9
$DIMSTYLE
  2
Standard
  9
$DIMCLRD
 70
     0
  9
$DIMCLRE
 70
     0
  9
$DIMCLRT
 70
     0
  9
$DIMTFAC
 40
1.0
  9
$DIMGAP
 40
0.09
  9
$DIMJUST
 70
     0
  9
$DIMSD1
 70
     0
  9
$DIMSD2
 70
     0
  9
$DIMTOLJ
 70
     1
  9
$DIMTZIN
 70
     0
  9
$DIMALTZ
 70
     0
  9
$DIMALTTZ
 70
     0
  9
$DIMUPT
 70
     0
  9
$DIMDEC
 70
     4
  9
$DIMTDEC
 70
     4
  9
$DIMALTU
 70
     2
  9
$DIMALTTD
 70
     2
  9
$DIMTXSTY
  7
Standard
  9
$DIMAUNIT
 70
     0
  9
$DIMADEC
 70
     0
  9
$DIMALTRND
 40
0.0
  9
$DIMAZIN
 70
     0
  9
$DIMDSEP
 70
    46
  9
$DIMATFIT
 70
     3
  9
$DIMFRAC
 70
     0
  9
$DIMLDRBLK
  1

  9
$DIMLUNIT
 70
     2
  9
$DIMLWD
 70
    -2
  9
$DIMLWE
 70
    -2
  9
$DIMTMOVE
 70
     0
  9
$LUNITS
 70
     2
  9
$LUPREC
 70
     4
  9
$SKETCHINC
 40
0.1
  9
$FILLETRAD
 40
0.0
  9
$AUNITS
 70
     0
  9
$AUPREC
 70
     0
  9
$MENU
  1
.
  9
$ELEVATION
 40
0.0
  9
$PELEVATION
 40
0.0
  9
$THICKNESS
 40
0.0
  9
$LIMCHECK
 70
     0
  9
$CHAMFERA
 40
0.0
  9
$CHAMFERB
 40
0.0
  9
$CHAMFERC
 40
0.0
  9
$CHAMFERD
 40
0.0
  9
$SKPOLY
 70
     0
  9
$TDCREATE
 40
2456821.928132593
  9
$TDUCREATE
 40
2456821.844799259
  9
$TDUPDATE
 40
2459842.450531042
  9
$TDUUPDATE
 40
2459842.367197708
  9
$TDINDWG
 40
0.0050792014
  9
$TDUSRTIMER
 40
0.0050792014
  9
$USRTIMER
 70
     1
  9
$ANGBASE
 50
0.0
  9
$ANGDIR
 70
     0
  9
$PDMODE
 70
     0
  9
$PDSIZE
 40
0.0
  9
$PLINEWID
 40
0.0
  9
$SPLFRAME
 70
     0
  9
$SPLINETYPE
 70
     6
  9
$SPLINESEGS
 70
     8
  9
$HANDSEED
  5
DF23
  9
$SURFTAB1
 70
     6
  9
$SURFTAB2
 70
     6
  9
$SURFTYPE
 70
     6
  9
$SURFU
 70
     6
  9
$SURFV
 70
     6
  9
$UCSBASE
  2

  9
$UCSNAME
  2

  9
$UCSORG
 10
0.0
 20
0.0
 30
0.0
  9
$UCSXDIR
 10
1.0
 20
0.0
 30
0.0
  9
$UCSYDIR
 10
0.0
 20
1.0
 30
0.0
  9
$UCSORTHOREF
  2

  9
$UCSORTHOVIEW
 70
     0
  9
$UCSORGTOP
 10
0.0
 20
0.0
 30
0.0
  9
$UCSORGBOTTOM
 10
0.0
 20
0.0
 30
0.0
  9
$UCSORGLEFT
 10
0.0
 20
0.0
 30
0.0
  9
$UCSORGRIGHT
 10
0.0
 20
0.0
 30
0.0
  9
$UCSORGFRONT
 10
0.0
 20
0.0
 30
0.0
  9
$UCSORGBACK
 10
0.0
 20
0.0
 30
0.0
  9
$PUCSBASE
  2

  9
$PUCSNAME
  2

  9
$PUCSORG
 10
0.0
 20
0.0
 30
0.0
  9
$PUCSXDIR
 10
1.0
 20
0.0
 30
0.0
  9
$PUCSYDIR
 10
0.0
 20
1.0
 30
0.0
  9
$PUCSORTHOREF
  2

  9
$PUCSORTHOVIEW
 70
     0
  9
$PUCSORGTOP
 10
0.0
 20
0.0
 30
0.0
  9
$PUCSORGBOTTOM
 10
0.0
 20
0.0
 30
0.0
  9
$PUCSORGLEFT
 10
0.0
 20
0.0
 30
0.0
  9
$PUCSORGRIGHT
 10
0.0
 20
0.0
 30
0.0
  9
$PUCSORGFRONT
 10
0.0
 20
0.0
 30
0.0
  9
$PUCSORGBACK
 10
0.0
 20
0.0
 30
0.0
  9
$USERI1
 70
     0
  9
$USERI2
 70
     0
  9
$USERI3
 70
     0
  9
$USERI4
 70
     0
  9
$USERI5
 70
     0
  9
$USERR1
 40
0.0
  9
$USERR2
 40
0.0
  9
$USERR3
 40
0.0
  9
$USERR4
 40
0.0
  9
$USERR5
 40
0.0
  9
$WORLDVIEW
 70
     1
  9
$SHADEDGE
 70
     3
  9
$SHADEDIF
 70
    70
  9
$TILEMODE
 70
     1
  9
$MAXACTVP
 70
    64
  9
$PINSBASE
 10
0.0
 20
0.0
 30
0.0
  9
$PLIMCHECK
 70
     0
  9
$PEXTMIN
 10
1.000000000000000E+20
 20
1.000000000000000E+20
 30
1.000000000000000E+20
  9
$PEXTMAX
 10
-1.000000000000000E+20
 20
-1.000000000000000E+20
 30
-1.000000000000000E+20
  9
$PLIMMIN
 10
0.0
 20
0.0
  9
$PLIMMAX
 10
12.0
 20
9.0
  9
$UNITMODE
 70
     0
  9
$VISRETAIN
 70
     1
  9
$PLINEGEN
 70
     0
  9
$PSLTSCALE
 70
     1
  9
$TREEDEPTH
 70
  3020
  9
$CMLSTYLE
  2
Standard
  9
$CMLJUST
 70
     0
  9
$CMLSCALE
 40
1.0
  9
$PROXYGRAPHICS
 70
     1
  9
$MEASUREMENT
 70
     0
  9
$CELWEIGHT
370
    -1
  9
$ENDCAPS
280
     0
  9
$JOINSTYLE
280
     0
  9
$LWDISPLAY
290
     0
  9
$INSUNITS
 70
     0
  9
$HYPERLINKBASE
  1

  9
$STYLESHEET
  1

  9
$XEDIT
290
     1
  9
$CEPSNTYPE
380
     0
  9
$PSTYLEMODE
290
     1
  9
$FINGERPRINTGUID
  2
{2CF2E83F-81CD-45E2-8565-54420B79D08C}
  9
$VERSIONGUID
  2
{8C5BAC8A-546D-47E4-BD99-3A1371576D20}
  9
$EXTNAMES
290
     1
  9
$PSVPSCALE
 40
0.0
  9
$OLESTARTUP
290
     0
  0
ENDSEC
  0
SECTION
  2
CLASSES
  0
CLASS
  1
ACDBDICTIONARYWDFLT
  2
AcDbDictionaryWithDefault
  3
ObjectDBX Classes
 90
        0
280
     0
281
     0
  0
CLASS
  1
MATERIAL
  2
AcDbMaterial
  3
ObjectDBX Classes
 90
     1153
280
     0
281
     0
  0
CLASS
  1
VISUALSTYLE
  2
AcDbVisualStyle
  3
ObjectDBX Classes
 90
     4095
280
     0
281
     0
  0
CLASS
  1
SCALE
  2
AcDbScale
  3
ObjectDBX Classes
 90
     1153
280
     0
281
     0
  0
CLASS
  1
TABLESTYLE
  2
AcDbTableStyle
  3
ObjectDBX Classes
 90
     4095
280
     0
281
     0
  0
CLASS
  1
MLEADERSTYLE
  2
AcDbMLeaderStyle
  3
ACDB_MLEADERSTYLE_CLASS
 90
     4095
280
     0
281
     0
  0
CLASS
  1
ACDBSECTIONVIEWSTYLE
  2
AcDbSectionViewStyle
  3
ObjectDBX Classes
 90
     1025
280
     0
281
     0
  0
CLASS
  1
ACDBDETAILVIEWSTYLE
  2
AcDbDetailViewStyle
  3
ObjectDBX Classes
 90
     1025
280
     0
281
     0
  0
CLASS
  1
SORTENTSTABLE
  2
AcDbSortentsTable
  3
ObjectDBX Classes
 90
        0
280
     0
281
     0
  0
CLASS
  1
CELLSTYLEMAP
  2
AcDbCellStyleMap
  3
ObjectDBX Classes
 90
     1152
280
     0
281
     0
  0
CLASS
  1
DICTIONARYVAR
  2
AcDbDictionaryVar
  3
ObjectDBX Classes
 90
        0
280
     0
281
     0
  0
CLASS
  1
ACDBPLACEHOLDER
  2
AcDbPlaceHolder
  3
ObjectDBX Classes
 90
        0
280
     0
281
     0
  0
CLASS
  1
LAYOUT
  2
AcDbLayout
  3
ObjectDBX Classes
 90
        0
280
     0
281
     0
  0
ENDSEC
  0
SECTION
  2
TABLES
  0
TABLE
  2
VPORT
  5
8
102
{ACAD_XDICTIONARY
360
DEDC
102
}
330
0
100
AcDbSymbolTable
 70
     1
  0
VPORT
  5
74
330
8
100
AcDbSymbolTableRecord
100
AcDbViewportTableRecord
  2
*Active
 70
     0
 10
0.0
 20
0.0
 11
1.0
 21
1.0
 12
3027.18414261432
 22
-1777.010303751574
 13
0.0
 23
0.0
 14
1.0
 24
1.0
 15
0.0
 25
0.0
 16
0.0
 26
0.0
 36
1.0
 17
0.0
 27
0.0
 37
0.0
 40
779.6201770050257
 41
1.549933422103861
 42
50.0
 43
0.0
 44
0.0
 50
0.0
 51
0.0
 71
     0
 72
   100
 73
     1
 74
     1
 75
     0
 76
     0
 77
     0
 78
     0
281
     0
 65
     1
110
0.0
120
0.0
130
0.0
111
1.0
121
0.0
131
0.0
112
0.0
122
1.0
132
0.0
 79
     0
146
0.0
1001
ACAD_NAV_VCDISPLAY
1070
     3
  0
ENDTAB
  0
TABLE
  2
LTYPE
  5
5
330
0
100
AcDbSymbolTable
 70
     1
  0
LTYPE
  5
5A
330
5
100
AcDbSymbolTableRecord
100
AcDbLinetypeTableRecord
  2
ByBlock
 70
     0
  3

 72
    65
 73
     0
 40
0.0
  0
LTYPE
  5
5B
330
5
100
AcDbSymbolTableRecord
100
AcDbLinetypeTableRecord
  2
ByLayer
 70
     0
  3

 72
    65
 73
     0
 40
0.0
  0
LTYPE
  5
5C
330
5
100
AcDbSymbolTableRecord
100
AcDbLinetypeTableRecord
  2
Continuous
 70
     0
  3
Solid line
 72
    65
 73
     0
 40
0.0
  0
ENDTAB
  0
TABLE
  2
LAYER
  5
2
102
{ACAD_XDICTIONARY
360
DE4E
102
}
330
0
100
AcDbSymbolTable
 70
     1
  0
LAYER
  5
54
102
{ACAD_XDICTIONARY
360
DD25
102
}
330
2
100
AcDbSymbolTableRecord
100
AcDbLayerTableRecord
  2
0
 70
     0
 62
     7
  6
Continuous
370
    -3
390
F
  0
ENDTAB
  0
TABLE
  2
STYLE
  5
3
330
0
100
AcDbSymbolTable
 70
     1
  0
STYLE
  5
55
330
3
100
AcDbSymbolTableRecord
100
AcDbTextStyleTableRecord
  2
Standard
 70
     0
 40
0.0
 41
1.0
 50
0.0
 71
     0
 42
0.2
  3
txt
  4

  0
ENDTAB
  0
TABLE
  2
VIEW
  5
6
330
0
100
AcDbSymbolTable
 70
     0
  0
ENDTAB
  0
TABLE
  2
UCS
  5
7
330
0
100
AcDbSymbolTable
 70
     0
  0
ENDTAB
  0
TABLE
  2
APPID
  5
9
330
0
100
AcDbSymbolTable
 70
     5
  0
APPID
  5
56
330
9
100
AcDbSymbolTableRecord
100
AcDbRegAppTableRecord
  2
ACAD
 70
     0
  0
APPID
  5
5D
330
9
100
AcDbSymbolTableRecord
100
AcDbRegAppTableRecord
  2
AcadAnnotative
 70
     0
  0
APPID
  5
DD1E
330
9
100
AcDbSymbolTableRecord
100
AcDbRegAppTableRecord
  2
ACAD_EXEMPT_FROM_CAD_STANDARDS
 70
     0
  0
APPID
  5
DD27
330
9
100
AcDbSymbolTableRecord
100
AcDbRegAppTableRecord
  2
ACAD_NAV_VCDISPLAY
 70
     0
  0
APPID
  5
DD5B
330
9
100
AcDbSymbolTableRecord
100
AcDbRegAppTableRecord
  2
ACAD_MLEADERVER
 70
     0
  0
ENDTAB
  0
TABLE
  2
DIMSTYLE
  5
A
330
0
100
AcDbSymbolTable
 70
     1
100
AcDbDimStyleTable
  0
DIMSTYLE
105
57
330
A
100
AcDbSymbolTableRecord
100
AcDbDimStyleTableRecord
  2
Standard
 70
     0
178
     0
340
55
  0
ENDTAB
  0
TABLE
  2
BLOCK_RECORD
  5
1
330
0
100
AcDbSymbolTable
 70
     0
  0
BLOCK_RECORD
  5
6F
102
{ACAD_XDICTIONARY
360
CCB9
102
}
330
1
100
AcDbSymbolTableRecord
100
AcDbBlockTableRecord
  2
*Model_Space
340
72
  0
BLOCK_RECORD
  5
6B
330
1
100
AcDbSymbolTableRecord
100
AcDbBlockTableRecord
  2
*Paper_Space
340
6E
  0
ENDTAB
  0
ENDSEC
  0
SECTION
  2
BLOCKS
  0
BLOCK
  5
70
330
6F
100
AcDbEntity
  8
0
100
AcDbBlockBegin
  2
*Model_Space
 70
     0
 10
0.0
 20
0.0
 30
0.0
  3
*Model_Space
  1

  0
ENDBLK
  5
71
330
6F
100
AcDbEntity
  8
0
100
AcDbBlockEnd
  0
BLOCK
  5
6C
330
6B
100
AcDbEntity
 67
     1
  8
0
100
AcDbBlockBegin
  2
*Paper_Space
 70
     0
 10
0.0
 20
0.0
 30
0.0
  3
*Paper_Space
  1

  0
ENDBLK
  5
6D
330
6B
100
AcDbEntity
 67
     1
  8
0
100
AcDbBlockEnd
  0
ENDSEC
  0
SECTION
  2
ENTITIES
  0
LINE
  5
CD93
330
6F
100
AcDbEntity
  8
0
 62
     0
100
AcDbLine
 10
3260.704292555276
 20
-1652.833490487886
 30
0.0
 11
3256.893653191403
 21
-1650.547510485542
 31
0.0
  0
LINE
  5
CD94
330
6F
100
AcDbEntity
  8
0
 62
     0
100
AcDbLine
 10
3256.893653191403
 20
-1650.547510485542
 30
0.0
 11
3255.369498349849
 21
-1646.736871121668
 31
0.0
  0
LINE
  5
CD95
330
6F
100
AcDbEntity
  8
0
 62
     0
100
AcDbLine
 10
3255.369498349849
 20
-1646.736871121668
 30
0.0
 11
3256.131828030613
 21
-1636.067282710813
 31
0.0
  0
LINE
  5
CD96
330
6F
100
AcDbEntity
  8
0
 62
     0
100
AcDbLine
 10
3256.131828030613
 20
-1636.067282710813
 30
0.0
 11
3261.466622236041
 21
-1631.494313666175
 31
0.0
  0
LINE
  5
CD97
330
6F
100
AcDbEntity
  8
0
 62
     0
100
AcDbLine
 10
3261.466622236041
 20
-1631.494313666175
 30
0.0
 11
3264.514931919149
 21
-1631.494313666175
 31
0.0
  0
LINE
  5
CD98
330
6F
100
AcDbEntity
  8
0
 62
     0
100
AcDbLine
 10
3264.514931919149
 20
-1631.494313666175
 30
0.0
 11
3268.325571283023
 21
-1633.780798188494
 31
0.0
  0
LINE
  5
CD99
330
6F
100
AcDbEntity
  8
0
 62
     0
100
AcDbLine
 10
3268.325571283023
 20
-1633.780798188494
 30
0.0
 11
3269.087900963787
 21
-1636.067282710813
 31
0.0
  0
LINE
  5
CD9A
330
6F
100
AcDbEntity
  8
0
 62
     0
100
AcDbLine
 10
3260.704292555276
 20
-1652.833490487886
 30
0.0
 11
3266.039086760704
 21
-1652.071665327096
 31
0.0
  0
LINE
  5
CD9B
330
6F
100
AcDbEntity
  8
0
 62
     0
100
AcDbLine
 10
3266.039086760704
 20
-1652.071665327096
 30
0.0
 11
3268.325571283023
 21
-1649.023355643987
 31
0.0
  0
LINE
  5
CDE1
330
6F
100
AcDbEntity
  8
0
 62
     0
100
AcDbLine
 10
2479.536845000565
 20
-1816.688460534565
 30
0.0
 11
2501.637846983066
 21
-1816.688460534565
 31
0.0
  0
LINE
  5
CDFD
330
6F
100
AcDbEntity
  8
0
 62
     0
100
AcDbLine
 10
2479.536845000565
 20
-1848.697225767131
 30
0.0
 11
2501.637846983066
 21
-1848.697225767131
 31
0.0
  0
LINE
  5
D247
330
6F
100
AcDbEntity
  8
0
 62
     0
100
AcDbLine
 10
2907.08321563552
 20
-1630.732488505385
 30
0.0
 11
2904.796731113201
 21
-1630.732488505385
 31
0.0
  0
LINE
  5
D248
330
6F
100
AcDbEntity
  8
0
 62
     0
100
AcDbLine
 10
2907.08321563552
 20
-1630.732488505385
 30
0.0
 11
2906.320885954755
 21
-1648.261025963223
 31
0.0
  0
LINE
  5
D249
330
6F
100
AcDbEntity
  8
0
 62
     0
100
AcDbLine
 10
2906.320885954755
 20
-1648.261025963223
 30
0.0
 11
2904.03490595241
 21
-1652.071665327096
 31
0.0
  0
LINE
  5
D24A
330
6F
100
AcDbEntity
  8
0
 62
     0
100
AcDbLine
 10
2904.03490595241
 20
-1652.071665327096
 30
0.0
 11
2899.461936907772
 21
-1651.309335646332
 31
0.0
  0
LINE
  5
D24B
330
6F
100
AcDbEntity
  8
0
 62
     0
100
AcDbLine
 10
2899.461936907772
 20
-1651.309335646332
 30
0.0
 11
2896.413627224664
 21
-1645.974541440904
 31
0.0
  0
LINE
  5
D24C
330
6F
100
AcDbEntity
  8
0
 62
     0
100
AcDbLine
 10
2907.08321563552
 20
-1630.732488505385
 30
0.0
 11
2908.607370477074
 21
-1630.732488505385
 31
0.0
  0
LINE
  5
D24D
330
6F
100
AcDbEntity
  8
0
 62
     0
100
AcDbLine
 10
3381.880404438558
 20
-1634.543127869258
 30
0.0
 11
3381.880404438558
 21
-1633.018973027704
 31
0.0
  0
LINE
  5
D255
330
6F
100
AcDbEntity
  8
0
 62
     0
100
AcDbLine
 10
3316.338719131872
 20
-1641.402076916241
 30
0.0
 11
3327.770637223492
 21
-1641.402076916241
 31
0.0
  0
LINE
  5
D256
330
6F
100
AcDbEntity
  8
0
 62
     0
100
AcDbLine
 10
3137.241696149674
 20
-1641.402076916241
 30
0.0
 11
3137.241696149674
 21
-1652.071665327096
 31
0.0
  0
LINE
  5
D257
330
6F
100
AcDbEntity
  8
0
 62
     0
100
AcDbLine
 10
3137.241696149674
 20
-1652.071665327096
 30
0.0
 11
3148.673614241294
 21
-1652.071665327096
 31
0.0
  0
LINE
  5
D258
330
6F
100
AcDbEntity
  8
0
 62
     0
100
AcDbLine
 10
3137.241696149674
 20
-1641.402076916241
 30
0.0
 11
3147.14945939974
 21
-1641.402076916241
 31
0.0
  0
LINE
  5
D259
330
6F
100
AcDbEntity
  8
0
 62
     0
100
AcDbLine
 10
3137.241696149674
 20
-1641.402076916241
 30
0.0
 11
3137.241696149674
 21
-1632.25664334694
 31
0.0
  0
LINE
  5
D25A
330
6F
100
AcDbEntity
  8
0
 62
     0
100
AcDbLine
 10
3137.241696149674
 20
-1632.25664334694
 30
0.0
 11
3147.91128456053
 21
-1632.25664334694
 31
0.0
  0
LINE
  5
D25B
330
6F
100
AcDbEntity
  8
0
 62
     0
100
AcDbLine
 10
3029.021657199567
 20
-1641.402076916241
 30
0.0
 11
3029.021657199567
 21
-1632.25664334694
 31
0.0
  0
LINE
  5
D25C
330
6F
100
AcDbEntity
  8
0
 62
     0
100
AcDbLine
 10
3016.065584266392
 20
-1641.402076916241
 30
0.0
 11
3016.065584266392
 21
-1653.59582016865
 31
0.0
  0
LINE
  5
D25D
330
6F
100
AcDbEntity
  8
0
 62
     0
100
AcDbLine
 10
3016.065584266392
 20
-1641.402076916241
 30
0.0
 11
3029.021657199567
 21
-1641.402076916241
 31
0.0
  0
LINE
  5
D25E
330
6F
100
AcDbEntity
  8
0
 62
     0
100
AcDbLine
 10
3029.021657199567
 20
-1641.402076916241
 30
0.0
 11
3029.021657199567
 21
-1653.59582016865
 31
0.0
  0
LINE
  5
D25F
330
6F
100
AcDbEntity
  8
0
 62
     0
100
AcDbLine
 10
3016.065584266392
 20
-1641.402076916241
 30
0.0
 11
3016.065584266392
 21
-1632.25664334694
 31
0.0
  0
LINE
  5
D260
330
6F
100
AcDbEntity
  8
0
 62
     0
100
AcDbLine
 10
2839.255045806514
 20
-1641.402076916241
 30
0.0
 11
2839.255045806514
 21
-1642.163902077031
 31
0.0
  0
LINE
  5
D261
330
6F
100
AcDbEntity
  8
0
 62
     0
100
AcDbLine
 10
2839.255045806514
 20
-1641.402076916241
 30
0.0
 11
2848.400479375815
 21
-1632.25664334694
 31
0.0
  0
LINE
  5
D262
330
6F
100
AcDbEntity
  8
0
 62
     0
100
AcDbLine
 10
2837.730890964959
 20
-1641.402076916241
 30
0.0
 11
2836.968561284194
 21
-1640.639747235476
 31
0.0
  0
LINE
  5
D263
330
6F
100
AcDbEntity
  8
0
 62
     0
100
AcDbLine
 10
2837.730890964959
 20
-1641.402076916241
 30
0.0
 11
2836.968561284194
 21
-1642.163902077031
 31
0.0
  0
LINE
  5
D264
330
6F
100
AcDbEntity
  8
0
 62
     0
100
AcDbLine
 10
2836.968561284194
 20
-1642.163902077031
 30
0.0
 11
2836.968561284194
 21
-1653.59582016865
 31
0.0
  0
LINE
  5
D265
330
6F
100
AcDbEntity
  8
0
 62
     0
100
AcDbLine
 10
2837.730890964959
 20
-1641.402076916241
 30
0.0
 11
2839.255045806514
 21
-1641.402076916241
 31
0.0
  0
LINE
  5
D266
330
6F
100
AcDbEntity
  8
0
 62
     0
100
AcDbLine
 10
2839.255045806514
 20
-1641.402076916241
 30
0.0
 11
2849.924634217369
 21
-1652.833490487886
 31
0.0
  0
LINE
  5
D267
330
6F
100
AcDbEntity
  8
0
 62
     0
100
AcDbLine
 10
2837.730890964959
 20
-1641.402076916241
 30
0.0
 11
2837.730890964959
 21
-1640.639747235476
 31
0.0
  0
LINE
  5
D268
330
6F
100
AcDbEntity
  8
0
 62
     0
100
AcDbLine
 10
2837.730890964959
 20
-1640.639747235476
 30
0.0
 11
2836.968561284194
 21
-1639.877922074686
 31
0.0
  0
LINE
  5
D269
330
6F
100
AcDbEntity
  8
0
 62
     0
100
AcDbLine
 10
2836.968561284194
 20
-1639.877922074686
 30
0.0
 11
2836.968561284194
 21
-1631.494313666175
 31
0.0
  0
LINE
  5
D274
330
6F
100
AcDbEntity
  8
0
 62
     0
100
AcDbLine
 10
2761.519112727442
 20
-1645.974541440904
 30
0.0
 11
2762.281442408207
 21
-1645.974541440904
 31
0.0
  0
LINE
  5
D275
330
6F
100
AcDbEntity
  8
0
 62
     0
100
AcDbLine
 10
3577.744139717803
 20
-1646.736871121668
 30
0.0
 11
3579.268294559358
 21
-1646.736871121668
 31
0.0
  0
LINE
  5
D276
330
6F
100
AcDbEntity
  8
0
 62
     0
100
AcDbLine
 10
3386.453373483196
 20
-1646.736871121668
 30
0.0
 11
3387.215198643986
 21
-1646.736871121668
 31
0.0
  0
LINE
  5
D277
330
6F
100
AcDbEntity
  8
0
 62
     0
100
AcDbLine
 10
3377.307939913896
 20
-1646.736871121668
 30
0.0
 11
3375.021455391577
 21
-1649.785180804777
 31
0.0
  0
LINE
  5
D278
330
6F
100
AcDbEntity
  8
0
 62
     0
100
AcDbLine
 10
3375.021455391577
 20
-1649.785180804777
 30
0.0
 11
3374.259630230786
 21
-1652.833490487886
 31
0.0
  0
LINE
  5
D279
330
6F
100
AcDbEntity
  8
0
 62
     0
100
AcDbLine
 10
3377.307939913896
 20
-1646.736871121668
 30
0.0
 11
3386.453373483196
 21
-1646.736871121668
 31
0.0
  0
LINE
  5
D27A
330
6F
100
AcDbEntity
  8
0
 62
     0
100
AcDbLine
 10
3377.307939913896
 20
-1646.736871121668
 30
0.0
 11
3378.07026959466
 21
-1641.402076916241
 31
0.0
  0
LINE
  5
D27B
330
6F
100
AcDbEntity
  8
0
 62
     0
100
AcDbLine
 10
3378.07026959466
 20
-1641.402076916241
 30
0.0
 11
3381.118579277768
 21
-1634.543127869258
 31
0.0
  0
LINE
  5
D27C
330
6F
100
AcDbEntity
  8
0
 62
     0
100
AcDbLine
 10
3381.118579277768
 20
-1634.543127869258
 30
0.0
 11
3382.642734119323
 21
-1634.543127869258
 31
0.0
  0
LINE
  5
D27D
330
6F
100
AcDbEntity
  8
0
 62
     0
100
AcDbLine
 10
3382.642734119323
 20
-1634.543127869258
 30
0.0
 11
3389.501683166305
 21
-1652.833490487886
 31
0.0
  0
LINE
  5
D27E
330
6F
100
AcDbEntity
  8
0
 62
     0
100
AcDbLine
 10
2714.268294559358
 20
-1646.736871121668
 30
0.0
 11
2714.268294559358
 21
-1645.974541440904
 31
0.0
  0
LINE
  5
D282
330
6F
100
AcDbEntity
  8
0
 62
     0
100
AcDbLine
 10
3626.519617247417
 20
-1647.498696282458
 30
0.0
 11
3625.757287566653
 21
-1646.736871121668
 31
0.0
  0
LINE
  5
D285
330
6F
100
AcDbEntity
  8
0
 62
     0
100
AcDbLine
 10
3624.233132725098
 20
-1649.023355643987
 30
0.0
 11
3624.233132725098
 21
-1661.217098896397
 31
0.0
  0
LINE
  5
D286
330
6F
100
AcDbEntity
  8
0
 62
     0
100
AcDbLine
 10
3624.233132725098
 20
-1661.217098896397
 30
0.0
 11
3628.043772088972
 21
-1661.217098896397
 31
0.0
  0
LINE
  5
D287
330
6F
100
AcDbEntity
  8
0
 62
     0
100
AcDbLine
 10
3628.043772088972
 20
-1661.217098896397
 30
0.0
 11
3628.043772088972
 21
-1648.261025963223
 31
0.0
  0
LINE
  5
D288
330
6F
100
AcDbEntity
  8
0
 62
     0
100
AcDbLine
 10
3628.043772088972
 20
-1648.261025963223
 30
0.0
 11
3627.281442408208
 21
-1647.498696282458
 31
0.0
  0
LINE
  5
D289
330
6F
100
AcDbEntity
  8
0
 62
     0
100
AcDbLine
 10
3627.281442408208
 20
-1647.498696282458
 30
0.0
 11
3627.281442408208
 21
-1648.261025963223
 31
0.0
  0
LINE
  5
D28A
330
6F
100
AcDbEntity
  8
0
 62
     0
100
AcDbLine
 10
3627.281442408208
 20
-1648.261025963223
 30
0.0
 11
3626.519617247417
 21
-1647.498696282458
 31
0.0
  0
LINE
  5
D28B
330
6F
100
AcDbEntity
  8
0
 62
     0
100
AcDbLine
 10
3580.792449400912
 20
-1649.023355643987
 30
0.0
 11
3580.030624240123
 21
-1649.023355643987
 31
0.0
  0
LINE
  5
D28C
330
6F
100
AcDbEntity
  8
0
 62
     0
100
AcDbLine
 10
2715.792449400912
 20
-1649.023355643987
 30
0.0
 11
2715.030119720148
 21
-1649.023355643987
 31
0.0
  0
LINE
  5
D28D
330
6F
100
AcDbEntity
  8
0
 62
     0
100
AcDbLine
 10
2715.030119720148
 20
-1649.023355643987
 30
0.0
 11
2715.030119720148
 21
-1648.261025963223
 31
0.0
  0
LINE
  5
D28E
330
6F
100
AcDbEntity
  8
0
 62
     0
100
AcDbLine
 10
2715.030119720148
 20
-1648.261025963223
 30
0.0
 11
2714.268294559358
 21
-1647.498696282458
 31
0.0
  0
LINE
  5
D28F
330
6F
100
AcDbEntity
  8
0
 62
     0
100
AcDbLine
 10
2714.268294559358
 20
-1647.498696282458
 30
0.0
 11
2714.268294559358
 21
-1646.736871121668
 31
0.0
  0
LINE
  5
D290
330
6F
100
AcDbEntity
  8
0
 62
     0
100
AcDbLine
 10
2715.792449400912
 20
-1649.023355643987
 30
0.0
 11
2715.030119720148
 21
-1661.217098896397
 31
0.0
  0
LINE
  5
D291
330
6F
100
AcDbEntity
  8
0
 62
     0
100
AcDbLine
 10
2715.030119720148
 20
-1661.217098896397
 30
0.0
 11
2711.981810037039
 21
-1660.454769215633
 31
0.0
  0
LINE
  5
D292
330
6F
100
AcDbEntity
  8
0
 62
     0
100
AcDbLine
 10
2711.981810037039
 20
-1660.454769215633
 30
0.0
 11
2712.743635197829
 21
-1646.736871121668
 31
0.0
  0
LINE
  5
D293
330
6F
100
AcDbEntity
  8
0
 62
     0
100
AcDbLine
 10
2712.743635197829
 20
-1646.736871121668
 30
0.0
 11
2761.519112727442
 21
-1645.974541440904
 31
0.0
  0
LINE
  5
D294
330
6F
100
AcDbEntity
  8
0
 62
     0
100
AcDbLine
 10
2715.792449400912
 20
-1649.023355643987
 30
0.0
 11
2759.994957885889
 21
-1649.023355643987
 31
0.0
  0
LINE
  5
D29A
330
6F
100
AcDbEntity
  8
0
 62
     0
100
AcDbLine
 10
3088.466218620061
 20
-1649.785180804777
 30
0.0
 11
3084.656083776163
 21
-1652.833490487886
 31
0.0
  0
LINE
  5
D29B
330
6F
100
AcDbEntity
  8
0
 62
     0
100
AcDbLine
 10
3084.656083776163
 20
-1652.833490487886
 30
0.0
 11
3080.083114731525
 21
-1652.071665327096
 31
0.0
  0
LINE
  5
D29C
330
6F
100
AcDbEntity
  8
0
 62
     0
100
AcDbLine
 10
3080.083114731525
 20
-1652.071665327096
 30
0.0
 11
3074.748320526097
 21
-1645.974541440904
 31
0.0
  0
LINE
  5
D29D
330
6F
100
AcDbEntity
  8
0
 62
     0
100
AcDbLine
 10
3074.748320526097
 20
-1645.974541440904
 30
0.0
 11
3075.510650206861
 21
-1637.591437552367
 31
0.0
  0
LINE
  5
D29E
330
6F
100
AcDbEntity
  8
0
 62
     0
100
AcDbLine
 10
3075.510650206861
 20
-1637.591437552367
 30
0.0
 11
3079.321289570735
 21
-1632.25664334694
 31
0.0
  0
LINE
  5
D29F
330
6F
100
AcDbEntity
  8
0
 62
     0
100
AcDbLine
 10
3079.321289570735
 20
-1632.25664334694
 30
0.0
 11
3085.417908936953
 21
-1632.25664334694
 31
0.0
  0
LINE
  5
D2A0
330
6F
100
AcDbEntity
  8
0
 62
     0
100
AcDbLine
 10
3085.417908936953
 20
-1632.25664334694
 30
0.0
 11
3088.466218620061
 21
-1636.067282710813
 31
0.0
  0
LINE
  5
D2A1
330
6F
100
AcDbEntity
  8
0
 62
     0
100
AcDbLine
 10
3088.466218620061
 20
-1636.067282710813
 30
0.0
 11
3089.228548300825
 21
-1637.591437552367
 31
0.0
  0
LINE
  5
D2A2
330
6F
100
AcDbEntity
  8
0
 62
     0
100
AcDbLine
 10
3088.466218620061
 20
-1649.785180804777
 30
0.0
 11
3089.228548300825
 21
-1649.785180804777
 31
0.0
  0
LINE
  5
D2A3
330
6F
100
AcDbEntity
  8
0
 62
     0
100
AcDbLine
 10
3089.228548300825
 20
-1649.785180804777
 30
0.0
 11
3089.228548300825
 21
-1651.309335646332
 31
0.0
  0
LINE
  5
D2A4
330
6F
100
AcDbEntity
  8
0
 62
     0
100
AcDbLine
 10
3089.228548300825
 20
-1651.309335646332
 30
0.0
 11
3089.990877981589
 21
-1652.071665327096
 31
0.0
  0
LINE
  5
D2A5
330
6F
100
AcDbEntity
  8
0
 62
     0
100
AcDbLine
 10
3089.990877981589
 20
-1652.071665327096
 30
0.0
 11
3089.990877981589
 21
-1652.833490487886
 31
0.0
  0
LINE
  5
D2A6
330
6F
100
AcDbEntity
  8
0
 62
     0
100
AcDbLine
 10
3088.466218620061
 20
-1649.785180804777
 30
0.0
 11
3088.466218620061
 21
-1649.023355643987
 31
0.0
  0
LINE
  5
D2A7
330
6F
100
AcDbEntity
  8
0
 62
     0
100
AcDbLine
 10
3088.466218620061
 20
-1649.023355643987
 30
0.0
 11
3089.228548300825
 21
-1648.261025963223
 31
0.0
  0
LINE
  5
D2A8
330
6F
100
AcDbEntity
  8
0
 62
     0
100
AcDbLine
 10
3089.228548300825
 20
-1648.261025963223
 30
0.0
 11
3089.228548300825
 21
-1644.450386599349
 31
0.0
  0
LINE
  5
D2A9
330
6F
100
AcDbEntity
  8
0
 62
     0
100
AcDbLine
 10
3089.228548300825
 20
-1644.450386599349
 30
0.0
 11
3088.466218620061
 21
-1643.688561438559
 31
0.0
  0
LINE
  5
D2AA
330
6F
100
AcDbEntity
  8
0
 62
     0
100
AcDbLine
 10
3088.466218620061
 20
-1643.688561438559
 30
0.0
 11
3085.417908936953
 21
-1643.688561438559
 31
0.0
  0
LINE
  5
D2C2
330
6F
100
AcDbEntity
  8
0
 62
     0
100
AcDbLine
 10
3316.338719131872
 20
-1652.071665327096
 30
0.0
 11
3316.338719131872
 21
-1632.25664334694
 31
0.0
  0
LINE
  5
D2C3
330
6F
100
AcDbEntity
  8
0
 62
     0
100
AcDbLine
 10
3316.338719131872
 20
-1632.25664334694
 30
0.0
 11
3325.484152701173
 21
-1632.25664334694
 31
0.0
  0
LINE
  5
D2C4
330
6F
100
AcDbEntity
  8
0
 62
     0
100
AcDbLine
 10
3325.484152701173
 20
-1632.25664334694
 30
0.0
 11
3328.532462384281
 21
-1633.780798188494
 31
0.0
  0
LINE
  5
D2C5
330
6F
100
AcDbEntity
  8
0
 62
     0
100
AcDbLine
 10
3328.532462384281
 20
-1633.780798188494
 30
0.0
 11
3328.532462384281
 21
-1639.877922074686
 31
0.0
  0
LINE
  5
D2C6
330
6F
100
AcDbEntity
  8
0
 62
     0
100
AcDbLine
 10
3328.532462384281
 20
-1639.877922074686
 30
0.0
 11
3328.532462384281
 21
-1643.688561438559
 31
0.0
  0
LINE
  5
D2C7
330
6F
100
AcDbEntity
  8
0
 62
     0
100
AcDbLine
 10
3328.532462384281
 20
-1643.688561438559
 30
0.0
 11
3330.056617225836
 21
-1647.498696282458
 31
0.0
  0
LINE
  5
D2C8
330
6F
100
AcDbEntity
  8
0
 62
     0
100
AcDbLine
 10
3330.056617225836
 20
-1647.498696282458
 30
0.0
 11
3327.008307542728
 21
-1652.071665327096
 31
0.0
  0
LINE
  5
D2C9
330
6F
100
AcDbEntity
  8
0
 62
     0
100
AcDbLine
 10
3327.008307542728
 20
-1652.071665327096
 30
0.0
 11
3314.814564290318
 21
-1652.071665327096
 31
0.0
  0
LINE
  5
D2CA
330
6F
100
AcDbEntity
  8
0
 62
     0
100
AcDbLine
 10
3195.924432409379
 20
-1652.833490487886
 30
0.0
 11
3195.924432409379
 21
-1632.25664334694
 31
0.0
  0
LINE
  5
D2CB
330
6F
100
AcDbEntity
  8
0
 62
     0
100
AcDbLine
 10
3195.924432409379
 20
-1632.25664334694
 30
0.0
 11
3203.545711137126
 21
-1632.25664334694
 31
0.0
  0
LINE
  5
D2CC
330
6F
100
AcDbEntity
  8
0
 62
     0
100
AcDbLine
 10
3203.545711137126
 20
-1632.25664334694
 30
0.0
 11
3208.118680181763
 21
-1634.543127869258
 31
0.0
  0
LINE
  5
D2CD
330
6F
100
AcDbEntity
  8
0
 62
     0
100
AcDbLine
 10
3208.118680181763
 20
-1634.543127869258
 30
0.0
 11
3208.118680181763
 21
-1650.547510485542
 31
0.0
  0
LINE
  5
D2CE
330
6F
100
AcDbEntity
  8
0
 62
     0
100
AcDbLine
 10
3208.118680181763
 20
-1650.547510485542
 30
0.0
 11
3205.069865978681
 21
-1652.833490487886
 31
0.0
  0
LINE
  5
D2CF
330
6F
100
AcDbEntity
  8
0
 62
     0
100
AcDbLine
 10
3205.069865978681
 20
-1652.833490487886
 30
0.0
 11
3194.400277567826
 21
-1652.833490487886
 31
0.0
  0
LINE
  5
D2D0
330
6F
100
AcDbEntity
  8
0
 62
     0
100
AcDbLine
 10
2961.955312531351
 20
-1652.833490487886
 30
0.0
 11
2960.431157689796
 21
-1652.833490487886
 31
0.0
  0
LINE
  5
D2D1
330
6F
100
AcDbEntity
  8
0
 62
     0
100
AcDbLine
 10
2961.955312531351
 20
-1652.833490487886
 30
0.0
 11
2963.479467372905
 21
-1652.833490487886
 31
0.0
  0
LINE
  5
D2D2
330
6F
100
AcDbEntity
  8
0
 62
     0
100
AcDbLine
 10
2961.955312531351
 20
-1652.833490487886
 30
0.0
 11
2961.955312531351
 21
-1630.732488505385
 31
0.0
  0
LINE
  5
D2D3
330
6F
100
AcDbEntity
  8
0
 62
     0
100
AcDbLine
 10
2961.955312531351
 20
-1630.732488505385
 30
0.0
 11
2963.479467372905
 21
-1630.732488505385
 31
0.0
  0
LINE
  5
D2F0
330
6F
100
AcDbEntity
  8
0
 62
     0
100
AcDbLine
 10
2785.144774071472
 20
-1657.406459532524
 30
0.0
 11
2843.065685170387
 21
-1657.406459532524
 31
0.0
  0
LINE
  5
D2FA
330
6F
100
AcDbEntity
  8
0
 62
     0
100
AcDbLine
 10
2856.783583264351
 20
-1658.168284693314
 30
0.0
 11
2865.166687152888
 21
-1658.168284693314
 31
0.0
  0
LINE
  5
D309
330
6F
100
AcDbEntity
  8
0
 62
     0
100
AcDbLine
 10
3409.316705146461
 20
-1664.265408579506
 30
0.0
 11
3408.554879985671
 21
-1664.265408579506
 31
0.0
  0
LINE
  5
D30A
330
6F
100
AcDbEntity
  8
0
 62
     0
100
AcDbLine
 10
3409.316705146461
 20
-1664.265408579506
 30
0.0
 11
3410.079034827226
 21
-1664.265408579506
 31
0.0
  0
LINE
  5
D30B
330
6F
100
AcDbEntity
  8
0
 62
     0
100
AcDbLine
 10
3410.079034827226
 20
-1664.265408579506
 30
0.0
 11
3410.840859988017
 21
-1663.503078898741
 31
0.0
  0
LINE
  5
D30C
330
6F
100
AcDbEntity
  8
0
 62
     0
100
AcDbLine
 10
3410.840859988017
 20
-1663.503078898741
 30
0.0
 11
3410.840859988017
 21
-1657.406459532524
 31
0.0
  0
LINE
  5
D30D
330
6F
100
AcDbEntity
  8
0
 62
     0
100
AcDbLine
 10
3384.166888960877
 20
-1664.265408579506
 30
0.0
 11
3383.405063800088
 21
-1664.265408579506
 31
0.0
  0
LINE
  5
D30E
330
6F
100
AcDbEntity
  8
0
 62
     0
100
AcDbLine
 10
3384.166888960877
 20
-1664.265408579506
 30
0.0
 11
3388.739858005515
 21
-1661.217098896397
 31
0.0
  0
LINE
  5
D30F
330
6F
100
AcDbEntity
  8
0
 62
     0
100
AcDbLine
 10
3388.739858005515
 20
-1661.217098896397
 30
0.0
 11
3389.501683166305
 21
-1658.168284693314
 31
0.0
  0
LINE
  5
D310
330
6F
100
AcDbEntity
  8
0
 62
     0
100
AcDbLine
 10
3349.871639205992
 20
-1664.265408579506
 30
0.0
 11
3344.536845000565
 21
-1659.692944054842
 31
0.0
  0
LINE
  5
D311
330
6F
100
AcDbEntity
  8
0
 62
     0
100
AcDbLine
 10
3344.536845000565
 20
-1659.692944054842
 30
0.0
 11
3344.536845000565
 21
-1658.168284693314
 31
0.0
  0
LINE
  5
D312
330
6F
100
AcDbEntity
  8
0
 62
     0
100
AcDbLine
 10
3324.721823020408
 20
-1664.265408579506
 30
0.0
 11
3323.197668178854
 21
-1664.265408579506
 31
0.0
  0
LINE
  5
D313
330
6F
100
AcDbEntity
  8
0
 62
     0
100
AcDbLine
 10
3323.197668178854
 20
-1664.265408579506
 30
0.0
 11
3323.197668178854
 21
-1657.406459532524
 31
0.0
  0
LINE
  5
D314
330
6F
100
AcDbEntity
  8
0
 62
     0
100
AcDbLine
 10
3264.514931919149
 20
-1664.265408579506
 30
0.0
 11
3263.752602238386
 21
-1664.265408579506
 31
0.0
  0
LINE
  5
D315
330
6F
100
AcDbEntity
  8
0
 62
     0
100
AcDbLine
 10
3264.514931919149
 20
-1664.265408579506
 30
0.0
 11
3269.087900963787
 21
-1661.217098896397
 31
0.0
  0
LINE
  5
D316
330
6F
100
AcDbEntity
  8
0
 62
     0
100
AcDbLine
 10
3269.087900963787
 20
-1661.217098896397
 30
0.0
 11
3269.849726124577
 21
-1658.168284693314
 31
0.0
  0
LINE
  5
D317
330
6F
100
AcDbEntity
  8
0
 62
     0
100
AcDbLine
 10
3204.308040817891
 20
-1664.265408579506
 30
0.0
 11
3203.545711137126
 21
-1664.265408579506
 31
0.0
  0
LINE
  5
D318
330
6F
100
AcDbEntity
  8
0
 62
     0
100
AcDbLine
 10
3204.308040817891
 20
-1664.265408579506
 30
0.0
 11
3208.880505342554
 21
-1661.217098896397
 31
0.0
  0
LINE
  5
D319
330
6F
100
AcDbEntity
  8
0
 62
     0
100
AcDbLine
 10
3208.880505342554
 20
-1661.217098896397
 30
0.0
 11
3209.642835023318
 21
-1658.168284693314
 31
0.0
  0
LINE
  5
D31A
330
6F
100
AcDbEntity
  8
0
 62
     0
100
AcDbLine
 10
3169.250461382241
 20
-1664.265408579506
 30
0.0
 11
3168.488636221451
 21
-1664.265408579506
 31
0.0
  0
LINE
  5
D31B
330
6F
100
AcDbEntity
  8
0
 62
     0
100
AcDbLine
 10
3169.250461382241
 20
-1664.265408579506
 30
0.0
 11
3170.012791063006
 21
-1664.265408579506
 31
0.0
  0
LINE
  5
D31C
330
6F
100
AcDbEntity
  8
0
 62
     0
100
AcDbLine
 10
3170.012791063006
 20
-1664.265408579506
 30
0.0
 11
3170.774616223796
 21
-1663.503078898741
 31
0.0
  0
LINE
  5
D31D
330
6F
100
AcDbEntity
  8
0
 62
     0
100
AcDbLine
 10
3170.774616223796
 20
-1663.503078898741
 30
0.0
 11
3170.774616223796
 21
-1657.406459532524
 31
0.0
  0
LINE
  5
D31E
330
6F
100
AcDbEntity
  8
0
 62
     0
100
AcDbLine
 10
3144.100645196656
 20
-1664.265408579506
 30
0.0
 11
3143.338820035866
 21
-1664.265408579506
 31
0.0
  0
LINE
  5
D31F
330
6F
100
AcDbEntity
  8
0
 62
     0
100
AcDbLine
 10
3144.100645196656
 20
-1664.265408579506
 30
0.0
 11
3148.673614241294
 21
-1661.217098896397
 31
0.0
  0
LINE
  5
D320
330
6F
100
AcDbEntity
  8
0
 62
     0
100
AcDbLine
 10
3148.673614241294
 20
-1661.217098896397
 30
0.0
 11
3149.435439402084
 21
-1658.168284693314
 31
0.0
  0
LINE
  5
D321
330
6F
100
AcDbEntity
  8
0
 62
     0
100
AcDbLine
 10
3109.805899961746
 20
-1664.265408579506
 30
0.0
 11
3104.471105756319
 21
-1659.692944054842
 31
0.0
  0
LINE
  5
D322
330
6F
100
AcDbEntity
  8
0
 62
     0
100
AcDbLine
 10
3104.471105756319
 20
-1659.692944054842
 30
0.0
 11
3104.471105756319
 21
-1658.168284693314
 31
0.0
  0
LINE
  5
D323
330
6F
100
AcDbEntity
  8
0
 62
     0
100
AcDbLine
 10
3084.656083776163
 20
-1664.265408579506
 30
0.0
 11
3083.131424414634
 21
-1664.265408579506
 31
0.0
  0
LINE
  5
D324
330
6F
100
AcDbEntity
  8
0
 62
     0
100
AcDbLine
 10
3083.131424414634
 20
-1664.265408579506
 30
0.0
 11
3083.131424414634
 21
-1657.406459532524
 31
0.0
  0
LINE
  5
D325
330
6F
100
AcDbEntity
  8
0
 62
     0
100
AcDbLine
 10
3024.448688154929
 20
-1664.265408579506
 30
0.0
 11
3023.686862994138
 21
-1664.265408579506
 31
0.0
  0
LINE
  5
D326
330
6F
100
AcDbEntity
  8
0
 62
     0
100
AcDbLine
 10
3024.448688154929
 20
-1664.265408579506
 30
0.0
 11
3029.021657199567
 21
-1661.217098896397
 31
0.0
  0
LINE
  5
D327
330
6F
100
AcDbEntity
  8
0
 62
     0
100
AcDbLine
 10
3029.021657199567
 20
-1661.217098896397
 30
0.0
 11
3029.783482360356
 21
-1658.168284693314
 31
0.0
  0
LINE
  5
D328
330
6F
100
AcDbEntity
  8
0
 62
     0
100
AcDbLine
 10
2964.241797053669
 20
-1664.265408579506
 30
0.0
 11
2963.479467372905
 21
-1664.265408579506
 31
0.0
  0
LINE
  5
D329
330
6F
100
AcDbEntity
  8
0
 62
     0
100
AcDbLine
 10
2964.241797053669
 20
-1664.265408579506
 30
0.0
 11
2968.814261578333
 21
-1661.217098896397
 31
0.0
  0
LINE
  5
D32A
330
6F
100
AcDbEntity
  8
0
 62
     0
100
AcDbLine
 10
2968.814261578333
 20
-1661.217098896397
 30
0.0
 11
2969.576591259098
 21
-1658.168284693314
 31
0.0
  0
LINE
  5
D32B
330
6F
100
AcDbEntity
  8
0
 62
     0
100
AcDbLine
 10
2929.946547298785
 20
-1664.265408579506
 30
0.0
 11
2924.611753093357
 21
-1659.692944054842
 31
0.0
  0
LINE
  5
D32C
330
6F
100
AcDbEntity
  8
0
 62
     0
100
AcDbLine
 10
2924.611753093357
 20
-1659.692944054842
 30
0.0
 11
2924.611753093357
 21
-1658.168284693314
 31
0.0
  0
LINE
  5
D32D
330
6F
100
AcDbEntity
  8
0
 62
     0
100
AcDbLine
 10
2904.03490595241
 20
-1664.265408579506
 30
0.0
 11
2903.272576271646
 21
-1664.265408579506
 31
0.0
  0
LINE
  5
D32E
330
6F
100
AcDbEntity
  8
0
 62
     0
100
AcDbLine
 10
2904.03490595241
 20
-1664.265408579506
 30
0.0
 11
2908.607370477074
 21
-1661.217098896397
 31
0.0
  0
LINE
  5
D32F
330
6F
100
AcDbEntity
  8
0
 62
     0
100
AcDbLine
 10
2908.607370477074
 20
-1661.217098896397
 30
0.0
 11
2909.369700157838
 21
-1658.168284693314
 31
0.0
  0
LINE
  5
D330
330
6F
100
AcDbEntity
  8
0
 62
     0
100
AcDbLine
 10
2844.589840011941
 20
-1664.265408579506
 30
0.0
 11
2843.065685170387
 21
-1664.265408579506
 31
0.0
  0
LINE
  5
D331
330
6F
100
AcDbEntity
  8
0
 62
     0
100
AcDbLine
 10
2843.065685170387
 20
-1664.265408579506
 30
0.0
 11
2843.065685170387
 21
-1657.406459532524
 31
0.0
  0
LINE
  5
D332
330
6F
100
AcDbEntity
  8
0
 62
     0
100
AcDbLine
 10
2843.065685170387
 20
-1657.406459532524
 30
0.0
 11
2847.638149695051
 21
-1657.406459532524
 31
0.0
  0
LINE
  5
D333
330
6F
100
AcDbEntity
  8
0
 62
     0
100
AcDbLine
 10
2847.638149695051
 20
-1657.406459532524
 30
0.0
 11
2848.400479375815
 21
-1658.168284693314
 31
0.0
  0
LINE
  5
D334
330
6F
100
AcDbEntity
  8
0
 62
     0
100
AcDbLine
 10
2848.400479375815
 20
-1658.168284693314
 30
0.0
 11
2849.162304536605
 21
-1658.168284693314
 31
0.0
  0
LINE
  5
D339
330
6F
100
AcDbEntity
  8
0
 62
     0
100
AcDbLine
 10
3289.664748104733
 20
-1665.78956342106
 30
0.0
 11
3285.09228358007
 21
-1659.692944054842
 31
0.0
  0
LINE
  5
D33A
330
6F
100
AcDbEntity
  8
0
 62
     0
100
AcDbLine
 10
3285.09228358007
 20
-1659.692944054842
 30
0.0
 11
3285.09228358007
 21
-1658.168284693314
 31
0.0
  0
LINE
  5
D33B
330
6F
100
AcDbEntity
  8
0
 62
     0
100
AcDbLine
 10
3229.457857003474
 20
-1665.78956342106
 30
0.0
 11
3224.884887958836
 21
-1659.692944054842
 31
0.0
  0
LINE
  5
D33C
330
6F
100
AcDbEntity
  8
0
 62
     0
100
AcDbLine
 10
3224.884887958836
 20
-1659.692944054842
 30
0.0
 11
3224.884887958836
 21
-1658.168284693314
 31
0.0
  0
LINE
  5
D33D
330
6F
100
AcDbEntity
  8
0
 62
     0
100
AcDbLine
 10
3049.598504340513
 20
-1665.78956342106
 30
0.0
 11
3045.02603981585
 21
-1659.692944054842
 31
0.0
  0
LINE
  5
D33E
330
6F
100
AcDbEntity
  8
0
 62
     0
100
AcDbLine
 10
3045.02603981585
 20
-1659.692944054842
 30
0.0
 11
3045.02603981585
 21
-1658.168284693314
 31
0.0
  0
LINE
  5
D33F
330
6F
100
AcDbEntity
  8
0
 62
     0
100
AcDbLine
 10
2989.391613239254
 20
-1665.78956342106
 30
0.0
 11
2984.818644194616
 21
-1659.692944054842
 31
0.0
  0
LINE
  5
D340
330
6F
100
AcDbEntity
  8
0
 62
     0
100
AcDbLine
 10
2984.818644194616
 20
-1659.692944054842
 30
0.0
 11
2984.818644194616
 21
-1658.168284693314
 31
0.0
  0
LINE
  5
D341
330
6F
100
AcDbEntity
  8
0
 62
     0
100
AcDbLine
 10
2869.739656197525
 20
-1665.78956342106
 30
0.0
 11
2868.977326516761
 21
-1665.02773826027
 31
0.0
  0
LINE
  5
D342
330
6F
100
AcDbEntity
  8
0
 62
     0
100
AcDbLine
 10
2869.739656197525
 20
-1665.78956342106
 30
0.0
 11
2865.166687152888
 21
-1659.692944054842
 31
0.0
  0
LINE
  5
D343
330
6F
100
AcDbEntity
  8
0
 62
     0
100
AcDbLine
 10
2865.166687152888
 20
-1659.692944054842
 30
0.0
 11
2865.929016833652
 21
-1657.406459532524
 31
0.0
  0
LINE
  5
D344
330
6F
100
AcDbEntity
  8
0
 62
     0
100
AcDbLine
 10
2865.929016833652
 20
-1657.406459532524
 30
0.0
 11
2871.26381103908
 21
-1657.406459532524
 31
0.0
  0
LINE
  5
D3D7
330
6F
100
AcDbEntity
  8
0
 62
     0
100
AcDbLine
 10
3397.122961894052
 20
-1684.842760240427
 30
0.0
 11
3388.739858005515
 21
-1682.556275718108
 31
0.0
  0
LINE
  5
D3D8
330
6F
100
AcDbEntity
  8
0
 62
     0
100
AcDbLine
 10
3388.739858005515
 20
-1682.556275718108
 30
0.0
 11
3384.929218641642
 21
-1677.22148151268
 31
0.0
  0
LINE
  5
D3D9
330
6F
100
AcDbEntity
  8
0
 62
     0
100
AcDbLine
 10
3384.929218641642
 20
-1677.22148151268
 30
0.0
 11
3383.405063800088
 21
-1657.406459532524
 31
0.0
  0
LINE
  5
D3DB
330
6F
100
AcDbEntity
  8
0
 62
     0
100
AcDbLine
 10
3397.122961894052
 20
-1684.842760240427
 30
0.0
 11
3404.744240621798
 21
-1682.556275718108
 31
0.0
  0
LINE
  5
D3DC
330
6F
100
AcDbEntity
  8
0
 62
     0
100
AcDbLine
 10
3404.744240621798
 20
-1682.556275718108
 30
0.0
 11
3409.316705146461
 21
-1677.22148151268
 31
0.0
  0
LINE
  5
D3DD
330
6F
100
AcDbEntity
  8
0
 62
     0
100
AcDbLine
 10
3409.316705146461
 20
-1677.22148151268
 30
0.0
 11
3409.316705146461
 21
-1664.265408579506
 31
0.0
  0
LINE
  5
D3DE
330
6F
100
AcDbEntity
  8
0
 62
     0
100
AcDbLine
 10
3409.316705146461
 20
-1664.265408579506
 30
0.0
 11
3403.220085780244
 21
-1658.930614374078
 31
0.0
  0
LINE
  5
D3DF
330
6F
100
AcDbEntity
  8
0
 62
     0
100
AcDbLine
 10
3403.220085780244
 20
-1658.930614374078
 30
0.0
 11
3403.220085780244
 21
-1658.168284693314
 31
0.0
  0
LINE
  5
D3E1
330
6F
100
AcDbEntity
  8
0
 62
     0
100
AcDbLine
 10
3336.916070792793
 20
-1684.842760240427
 30
0.0
 11
3328.532462384281
 21
-1681.793946037343
 31
0.0
  0
LINE
  5
D3E2
330
6F
100
AcDbEntity
  8
0
 62
     0
100
AcDbLine
 10
3328.532462384281
 20
-1681.793946037343
 30
0.0
 11
3324.721823020408
 21
-1675.697326671126
 31
0.0
  0
LINE
  5
D3E3
330
6F
100
AcDbEntity
  8
0
 62
     0
100
AcDbLine
 10
3324.721823020408
 20
-1675.697326671126
 30
0.0
 11
3324.721823020408
 21
-1664.265408579506
 31
0.0
  0
LINE
  5
D3E4
330
6F
100
AcDbEntity
  8
0
 62
     0
100
AcDbLine
 10
3324.721823020408
 20
-1664.265408579506
 30
0.0
 11
3328.532462384281
 21
-1661.217098896397
 31
0.0
  0
LINE
  5
D3E5
330
6F
100
AcDbEntity
  8
0
 62
     0
100
AcDbLine
 10
3328.532462384281
 20
-1661.217098896397
 30
0.0
 11
3329.294792065046
 21
-1658.168284693314
 31
0.0
  0
LINE
  5
D3E7
330
6F
100
AcDbEntity
  8
0
 62
     0
100
AcDbLine
 10
3336.916070792793
 20
-1684.842760240427
 30
0.0
 11
3345.299174681329
 21
-1682.556275718108
 31
0.0
  0
LINE
  5
D3E8
330
6F
100
AcDbEntity
  8
0
 62
     0
100
AcDbLine
 10
3345.299174681329
 20
-1682.556275718108
 30
0.0
 11
3349.109814045202
 21
-1677.22148151268
 31
0.0
  0
LINE
  5
D3E9
330
6F
100
AcDbEntity
  8
0
 62
     0
100
AcDbLine
 10
3349.109814045202
 20
-1677.22148151268
 30
0.0
 11
3350.633968886757
 21
-1661.978924057187
 31
0.0
  0
LINE
  5
D3EA
330
6F
100
AcDbEntity
  8
0
 62
     0
100
AcDbLine
 10
3350.633968886757
 20
-1661.978924057187
 30
0.0
 11
3351.395794047548
 21
-1657.406459532524
 31
0.0
  0
LINE
  5
D3EC
330
6F
100
AcDbEntity
  8
0
 62
     0
100
AcDbLine
 10
3277.471004852324
 20
-1684.842760240427
 30
0.0
 11
3283.567624218542
 21
-1683.318100878898
 31
0.0
  0
LINE
  5
D3ED
330
6F
100
AcDbEntity
  8
0
 62
     0
100
AcDbLine
 10
3283.567624218542
 20
-1683.318100878898
 30
0.0
 11
3288.902418423968
 21
-1677.22148151268
 31
0.0
  0
LINE
  5
D3EE
330
6F
100
AcDbEntity
  8
0
 62
     0
100
AcDbLine
 10
3288.902418423968
 20
-1677.22148151268
 30
0.0
 11
3290.427077785497
 21
-1665.02773826027
 31
0.0
  0
LINE
  5
D3EF
330
6F
100
AcDbEntity
  8
0
 62
     0
100
AcDbLine
 10
3290.427077785497
 20
-1665.02773826027
 30
0.0
 11
3291.188902946288
 21
-1657.406459532524
 31
0.0
  0
LINE
  5
D3F0
330
6F
100
AcDbEntity
  8
0
 62
     0
100
AcDbLine
 10
3277.471004852324
 20
-1684.842760240427
 30
0.0
 11
3269.087900963787
 21
-1682.556275718108
 31
0.0
  0
LINE
  5
D3F1
330
6F
100
AcDbEntity
  8
0
 62
     0
100
AcDbLine
 10
3269.087900963787
 20
-1682.556275718108
 30
0.0
 11
3264.514931919149
 21
-1675.697326671126
 31
0.0
  0
LINE
  5
D3F2
330
6F
100
AcDbEntity
  8
0
 62
     0
100
AcDbLine
 10
3264.514931919149
 20
-1675.697326671126
 30
0.0
 11
3263.752602238386
 21
-1663.503078898741
 31
0.0
  0
LINE
  5
D3F3
330
6F
100
AcDbEntity
  8
0
 62
     0
100
AcDbLine
 10
3263.752602238386
 20
-1663.503078898741
 30
0.0
 11
3262.990777077595
 21
-1657.406459532524
 31
0.0
  0
LINE
  5
D3F6
330
6F
100
AcDbEntity
  8
0
 62
     0
100
AcDbLine
 10
3217.263609231091
 20
-1684.842760240427
 30
0.0
 11
3208.880505342554
 21
-1682.556275718108
 31
0.0
  0
LINE
  5
D3F7
330
6F
100
AcDbEntity
  8
0
 62
     0
100
AcDbLine
 10
3208.880505342554
 20
-1682.556275718108
 30
0.0
 11
3205.069865978681
 21
-1677.22148151268
 31
0.0
  0
LINE
  5
D3F8
330
6F
100
AcDbEntity
  8
0
 62
     0
100
AcDbLine
 10
3205.069865978681
 20
-1677.22148151268
 30
0.0
 11
3203.545711137126
 21
-1657.406459532524
 31
0.0
  0
LINE
  5
D3FA
330
6F
100
AcDbEntity
  8
0
 62
     0
100
AcDbLine
 10
3217.263609231091
 20
-1684.842760240427
 30
0.0
 11
3224.884887958836
 21
-1682.556275718108
 31
0.0
  0
LINE
  5
D3FB
330
6F
100
AcDbEntity
  8
0
 62
     0
100
AcDbLine
 10
3224.884887958836
 20
-1682.556275718108
 30
0.0
 11
3229.457857003474
 21
-1677.22148151268
 31
0.0
  0
LINE
  5
D3FC
330
6F
100
AcDbEntity
  8
0
 62
     0
100
AcDbLine
 10
3229.457857003474
 20
-1677.22148151268
 30
0.0
 11
3230.219682164264
 21
-1665.02773826027
 31
0.0
  0
LINE
  5
D3FD
330
6F
100
AcDbEntity
  8
0
 62
     0
100
AcDbLine
 10
3230.219682164264
 20
-1665.02773826027
 30
0.0
 11
3230.982011845028
 21
-1657.406459532524
 31
0.0
  0
LINE
  5
D3FF
330
6F
100
AcDbEntity
  8
0
 62
     0
100
AcDbLine
 10
3157.056718129831
 20
-1684.842760240427
 30
0.0
 11
3148.673614241294
 21
-1682.556275718108
 31
0.0
  0
LINE
  5
D400
330
6F
100
AcDbEntity
  8
0
 62
     0
100
AcDbLine
 10
3148.673614241294
 20
-1682.556275718108
 30
0.0
 11
3144.862974877421
 21
-1677.22148151268
 31
0.0
  0
LINE
  5
D401
330
6F
100
AcDbEntity
  8
0
 62
     0
100
AcDbLine
 10
3144.862974877421
 20
-1677.22148151268
 30
0.0
 11
3143.338820035866
 21
-1657.406459532524
 31
0.0
  0
LINE
  5
D403
330
6F
100
AcDbEntity
  8
0
 62
     0
100
AcDbLine
 10
3157.056718129831
 20
-1684.842760240427
 30
0.0
 11
3164.677996857578
 21
-1682.556275718108
 31
0.0
  0
LINE
  5
D404
330
6F
100
AcDbEntity
  8
0
 62
     0
100
AcDbLine
 10
3164.677996857578
 20
-1682.556275718108
 30
0.0
 11
3169.250461382241
 21
-1677.22148151268
 31
0.0
  0
LINE
  5
D405
330
6F
100
AcDbEntity
  8
0
 62
     0
100
AcDbLine
 10
3169.250461382241
 20
-1677.22148151268
 30
0.0
 11
3169.250461382241
 21
-1664.265408579506
 31
0.0
  0
LINE
  5
D406
330
6F
100
AcDbEntity
  8
0
 62
     0
100
AcDbLine
 10
3169.250461382241
 20
-1664.265408579506
 30
0.0
 11
3164.677996857578
 21
-1659.692944054842
 31
0.0
  0
LINE
  5
D407
330
6F
100
AcDbEntity
  8
0
 62
     0
100
AcDbLine
 10
3164.677996857578
 20
-1659.692944054842
 30
0.0
 11
3164.677996857578
 21
-1658.168284693314
 31
0.0
  0
LINE
  5
D409
330
6F
100
AcDbEntity
  8
0
 62
     0
100
AcDbLine
 10
3096.849827028572
 20
-1684.842760240427
 30
0.0
 11
3088.466218620061
 21
-1681.793946037343
 31
0.0
  0
LINE
  5
D40A
330
6F
100
AcDbEntity
  8
0
 62
     0
100
AcDbLine
 10
3088.466218620061
 20
-1681.793946037343
 30
0.0
 11
3084.656083776163
 21
-1675.697326671126
 31
0.0
  0
LINE
  5
D40B
330
6F
100
AcDbEntity
  8
0
 62
     0
100
AcDbLine
 10
3084.656083776163
 20
-1675.697326671126
 30
0.0
 11
3084.656083776163
 21
-1664.265408579506
 31
0.0
  0
LINE
  5
D40C
330
6F
100
AcDbEntity
  8
0
 62
     0
100
AcDbLine
 10
3084.656083776163
 20
-1664.265408579506
 30
0.0
 11
3088.466218620061
 21
-1661.217098896397
 31
0.0
  0
LINE
  5
D40D
330
6F
100
AcDbEntity
  8
0
 62
     0
100
AcDbLine
 10
3088.466218620061
 20
-1661.217098896397
 30
0.0
 11
3089.228548300825
 21
-1658.168284693314
 31
0.0
  0
LINE
  5
D40F
330
6F
100
AcDbEntity
  8
0
 62
     0
100
AcDbLine
 10
3096.849827028572
 20
-1684.842760240427
 30
0.0
 11
3103.708776075554
 21
-1683.318100878898
 31
0.0
  0
LINE
  5
D410
330
6F
100
AcDbEntity
  8
0
 62
     0
100
AcDbLine
 10
3103.708776075554
 20
-1683.318100878898
 30
0.0
 11
3109.043570280982
 21
-1677.22148151268
 31
0.0
  0
LINE
  5
D411
330
6F
100
AcDbEntity
  8
0
 62
     0
100
AcDbLine
 10
3109.043570280982
 20
-1677.22148151268
 30
0.0
 11
3110.567725122537
 21
-1661.978924057187
 31
0.0
  0
LINE
  5
D412
330
6F
100
AcDbEntity
  8
0
 62
     0
100
AcDbLine
 10
3110.567725122537
 20
-1661.978924057187
 30
0.0
 11
3111.3300548033
 21
-1657.406459532524
 31
0.0
  0
LINE
  5
D414
330
6F
100
AcDbEntity
  8
0
 62
     0
100
AcDbLine
 10
3037.404761088103
 20
-1684.842760240427
 30
0.0
 11
3043.501884974295
 21
-1683.318100878898
 31
0.0
  0
LINE
  5
D415
330
6F
100
AcDbEntity
  8
0
 62
     0
100
AcDbLine
 10
3043.501884974295
 20
-1683.318100878898
 30
0.0
 11
3048.836679179723
 21
-1677.22148151268
 31
0.0
  0
LINE
  5
D416
330
6F
100
AcDbEntity
  8
0
 62
     0
100
AcDbLine
 10
3048.836679179723
 20
-1677.22148151268
 30
0.0
 11
3050.360834021277
 21
-1665.02773826027
 31
0.0
  0
LINE
  5
D417
330
6F
100
AcDbEntity
  8
0
 62
     0
100
AcDbLine
 10
3050.360834021277
 20
-1665.02773826027
 30
0.0
 11
3051.122659182068
 21
-1657.406459532524
 31
0.0
  0
LINE
  5
D418
330
6F
100
AcDbEntity
  8
0
 62
     0
100
AcDbLine
 10
3037.404761088103
 20
-1684.842760240427
 30
0.0
 11
3029.021657199567
 21
-1682.556275718108
 31
0.0
  0
LINE
  5
D419
330
6F
100
AcDbEntity
  8
0
 62
     0
100
AcDbLine
 10
3029.021657199567
 20
-1682.556275718108
 30
0.0
 11
3025.211017835693
 21
-1677.22148151268
 31
0.0
  0
LINE
  5
D41A
330
6F
100
AcDbEntity
  8
0
 62
     0
100
AcDbLine
 10
3025.211017835693
 20
-1677.22148151268
 30
0.0
 11
3023.686862994138
 21
-1665.78956342106
 31
0.0
  0
LINE
  5
D41B
330
6F
100
AcDbEntity
  8
0
 62
     0
100
AcDbLine
 10
3023.686862994138
 20
-1665.78956342106
 30
0.0
 11
3023.686862994138
 21
-1663.503078898741
 31
0.0
  0
LINE
  5
D41C
330
6F
100
AcDbEntity
  8
0
 62
     0
100
AcDbLine
 10
3023.686862994138
 20
-1663.503078898741
 30
0.0
 11
3022.924533313374
 21
-1657.406459532524
 31
0.0
  0
LINE
  5
D41F
330
6F
100
AcDbEntity
  8
0
 62
     0
100
AcDbLine
 10
2977.197869986844
 20
-1684.842760240427
 30
0.0
 11
2968.814261578333
 21
-1682.556275718108
 31
0.0
  0
LINE
  5
D420
330
6F
100
AcDbEntity
  8
0
 62
     0
100
AcDbLine
 10
2968.814261578333
 20
-1682.556275718108
 30
0.0
 11
2965.00362221446
 21
-1677.22148151268
 31
0.0
  0
LINE
  5
D421
330
6F
100
AcDbEntity
  8
0
 62
     0
100
AcDbLine
 10
2965.00362221446
 20
-1677.22148151268
 30
0.0
 11
2963.479467372905
 21
-1657.406459532524
 31
0.0
  0
LINE
  5
D423
330
6F
100
AcDbEntity
  8
0
 62
     0
100
AcDbLine
 10
2977.197869986844
 20
-1684.842760240427
 30
0.0
 11
2984.818644194616
 21
-1682.556275718108
 31
0.0
  0
LINE
  5
D424
330
6F
100
AcDbEntity
  8
0
 62
     0
100
AcDbLine
 10
2984.818644194616
 20
-1682.556275718108
 30
0.0
 11
2989.391613239254
 21
-1677.22148151268
 31
0.0
  0
LINE
  5
D425
330
6F
100
AcDbEntity
  8
0
 62
     0
100
AcDbLine
 10
2989.391613239254
 20
-1677.22148151268
 30
0.0
 11
2990.153438400044
 21
-1665.02773826027
 31
0.0
  0
LINE
  5
D426
330
6F
100
AcDbEntity
  8
0
 62
     0
100
AcDbLine
 10
2990.153438400044
 20
-1665.02773826027
 30
0.0
 11
2990.915768080808
 21
-1657.406459532524
 31
0.0
  0
LINE
  5
D428
330
6F
100
AcDbEntity
  8
0
 62
     0
100
AcDbLine
 10
2916.990474365611
 20
-1684.842760240427
 30
0.0
 11
2908.607370477074
 21
-1682.556275718108
 31
0.0
  0
LINE
  5
D429
330
6F
100
AcDbEntity
  8
0
 62
     0
100
AcDbLine
 10
2908.607370477074
 20
-1682.556275718108
 30
0.0
 11
2904.03490595241
 21
-1674.172667309597
 31
0.0
  0
LINE
  5
D42A
330
6F
100
AcDbEntity
  8
0
 62
     0
100
AcDbLine
 10
2904.03490595241
 20
-1674.172667309597
 30
0.0
 11
2903.272576271646
 21
-1657.406459532524
 31
0.0
  0
LINE
  5
D42C
330
6F
100
AcDbEntity
  8
0
 62
     0
100
AcDbLine
 10
2916.990474365611
 20
-1684.842760240427
 30
0.0
 11
2924.611753093357
 21
-1682.556275718108
 31
0.0
  0
LINE
  5
D42D
330
6F
100
AcDbEntity
  8
0
 62
     0
100
AcDbLine
 10
2924.611753093357
 20
-1682.556275718108
 30
0.0
 11
2929.18421761802
 21
-1677.22148151268
 31
0.0
  0
LINE
  5
D42E
330
6F
100
AcDbEntity
  8
0
 62
     0
100
AcDbLine
 10
2929.18421761802
 20
-1677.22148151268
 30
0.0
 11
2930.708876979549
 21
-1661.978924057187
 31
0.0
  0
LINE
  5
D42F
330
6F
100
AcDbEntity
  8
0
 62
     0
100
AcDbLine
 10
2930.708876979549
 20
-1661.978924057187
 30
0.0
 11
2931.470702140339
 21
-1657.406459532524
 31
0.0
  0
LINE
  5
D431
330
6F
100
AcDbEntity
  8
0
 62
     0
100
AcDbLine
 10
2856.783583264351
 20
-1684.842760240427
 30
0.0
 11
2848.400479375815
 21
-1681.793946037343
 31
0.0
  0
LINE
  5
D432
330
6F
100
AcDbEntity
  8
0
 62
     0
100
AcDbLine
 10
2848.400479375815
 20
-1681.793946037343
 30
0.0
 11
2844.589840011941
 21
-1675.697326671126
 31
0.0
  0
LINE
  5
D433
330
6F
100
AcDbEntity
  8
0
 62
     0
100
AcDbLine
 10
2844.589840011941
 20
-1675.697326671126
 30
0.0
 11
2844.589840011941
 21
-1664.265408579506
 31
0.0
  0
LINE
  5
D434
330
6F
100
AcDbEntity
  8
0
 62
     0
100
AcDbLine
 10
2844.589840011941
 20
-1664.265408579506
 30
0.0
 11
2848.400479375815
 21
-1661.217098896397
 31
0.0
  0
LINE
  5
D435
330
6F
100
AcDbEntity
  8
0
 62
     0
100
AcDbLine
 10
2848.400479375815
 20
-1661.217098896397
 30
0.0
 11
2849.162304536605
 21
-1658.168284693314
 31
0.0
  0
LINE
  5
D436
330
6F
100
AcDbEntity
  8
0
 62
     0
100
AcDbLine
 10
2849.162304536605
 20
-1658.168284693314
 30
0.0
 11
2856.783583264351
 21
-1658.168284693314
 31
0.0
  0
LINE
  5
D438
330
6F
100
AcDbEntity
  8
0
 62
     0
100
AcDbLine
 10
2856.783583264351
 20
-1684.842760240427
 30
0.0
 11
2863.642532311334
 21
-1683.318100878898
 31
0.0
  0
LINE
  5
D439
330
6F
100
AcDbEntity
  8
0
 62
     0
100
AcDbLine
 10
2863.642532311334
 20
-1683.318100878898
 30
0.0
 11
2868.977326516761
 21
-1677.22148151268
 31
0.0
  0
LINE
  5
D43A
330
6F
100
AcDbEntity
  8
0
 62
     0
100
AcDbLine
 10
2868.977326516761
 20
-1677.22148151268
 30
0.0
 11
2870.501481358316
 21
-1665.02773826027
 31
0.0
  0
LINE
  5
D43B
330
6F
100
AcDbEntity
  8
0
 62
     0
100
AcDbLine
 10
2870.501481358316
 20
-1665.02773826027
 30
0.0
 11
2871.26381103908
 21
-1657.406459532524
 31
0.0
  0
LINE
  5
D43C
330
6F
100
AcDbEntity
  8
0
 62
     0
100
AcDbLine
 10
2871.26381103908
 20
-1657.406459532524
 30
0.0
 11
2907.84504079631
 21
-1657.406459532524
 31
0.0
  0
LINE
  5
D43D
330
6F
100
AcDbEntity
  8
0
 62
     0
100
AcDbLine
 10
2907.84504079631
 20
-1657.406459532524
 30
0.0
 11
2924.611753093357
 21
-1658.168284693314
 31
0.0
  0
LINE
  5
D43E
330
6F
100
AcDbEntity
  8
0
 62
     0
100
AcDbLine
 10
2924.611753093357
 20
-1658.168284693314
 30
0.0
 11
3554.118478373774
 21
-1657.406459532524
 31
0.0
  0
LINE
  5
D467
330
6F
100
AcDbEntity
  8
0
 62
     0
100
AcDbLine
 10
3577.744139717803
 20
-1690.177554445854
 30
0.0
 11
3580.792449400912
 21
-1689.41522476509
 31
0.0
  0
LINE
  5
D468
330
6F
100
AcDbEntity
  8
0
 62
     0
100
AcDbLine
 10
3580.792449400912
 20
-1689.41522476509
 30
0.0
 11
3580.030624240123
 21
-1648.261025963223
 31
0.0
  0
LINE
  5
D469
330
6F
100
AcDbEntity
  8
0
 62
     0
100
AcDbLine
 10
3580.030624240123
 20
-1648.261025963223
 30
0.0
 11
3579.268294559358
 21
-1645.974541440904
 31
0.0
  0
LINE
  5
D46A
330
6F
100
AcDbEntity
  8
0
 62
     0
100
AcDbLine
 10
3579.268294559358
 20
-1645.974541440904
 30
0.0
 11
3625.757287566653
 21
-1645.974541440904
 31
0.0
  0
LINE
  5
D46B
330
6F
100
AcDbEntity
  8
0
 62
     0
100
AcDbLine
 10
3625.757287566653
 20
-1645.974541440904
 30
0.0
 11
3625.757287566653
 21
-1648.261025963223
 31
0.0
  0
LINE
  5
D46C
330
6F
100
AcDbEntity
  8
0
 62
     0
100
AcDbLine
 10
3625.757287566653
 20
-1648.261025963223
 30
0.0
 11
3580.792449400912
 21
-1649.023355643987
 31
0.0
  0
LINE
  5
D4B1
330
6F
100
AcDbEntity
  8
0
 62
     0
100
AcDbLine
 10
2551.175654193444
 20
-1703.133122859054
 30
0.0
 11
2549.651499351889
 21
-1703.133122859054
 31
0.0
  0
LINE
  5
D4B2
330
6F
100
AcDbEntity
  8
0
 62
     0
100
AcDbLine
 10
2549.651499351889
 20
-1703.133122859054
 30
0.0
 11
2548.889169671124
 21
-1702.371297698264
 31
0.0
  0
LINE
  5
D4B3
330
6F
100
AcDbEntity
  8
0
 62
     0
100
AcDbLine
 10
2548.889169671124
 20
-1702.371297698264
 30
0.0
 11
2548.12683999036
 21
-1702.371297698264
 31
0.0
  0
LINE
  5
D4B4
330
6F
100
AcDbEntity
  8
0
 62
     0
100
AcDbLine
 10
2548.12683999036
 20
-1702.371297698264
 30
0.0
 11
2547.365014829571
 21
-1701.6089680175
 31
0.0
  0
LINE
  5
D4B5
330
6F
100
AcDbEntity
  8
0
 62
     0
100
AcDbLine
 10
2547.365014829571
 20
-1701.6089680175
 30
0.0
 11
2545.840859988016
 21
-1701.6089680175
 31
0.0
  0
LINE
  5
D4CE
330
6F
100
AcDbEntity
  8
0
 62
     0
100
AcDbLine
 10
2856.783583264351
 20
-1714.565040950674
 30
0.0
 11
3397.122961894052
 21
-1714.565040950674
 31
0.0
  0
LINE
  5
D4CF
330
6F
100
AcDbEntity
  8
0
 62
     0
100
AcDbLine
 10
3554.118478373774
 20
-1715.326866111464
 30
0.0
 11
3554.118478373774
 21
-1716.089195792228
 31
0.0
  0
LINE
  5
D4D0
330
6F
100
AcDbEntity
  8
0
 62
     0
100
AcDbLine
 10
3554.118478373774
 20
-1716.089195792228
 30
0.0
 11
3553.356653212984
 21
-1715.326866111464
 31
0.0
  0
LINE
  5
D4D1
330
6F
100
AcDbEntity
  8
0
 62
     0
100
AcDbLine
 10
3553.356653212984
 20
-1715.326866111464
 30
0.0
 11
3540.400580279809
 21
-1715.326866111464
 31
0.0
  0
LINE
  5
D4D2
330
6F
100
AcDbEntity
  8
0
 62
     0
100
AcDbLine
 10
3540.400580279809
 20
-1715.326866111464
 30
0.0
 11
3539.638250599045
 21
-1714.565040950674
 31
0.0
  0
LINE
  5
D4D3
330
6F
100
AcDbEntity
  8
0
 62
     0
100
AcDbLine
 10
3539.638250599045
 20
-1714.565040950674
 30
0.0
 11
3397.122961894052
 21
-1714.565040950674
 31
0.0
  0
LINE
  5
D4D4
330
6F
100
AcDbEntity
  8
0
 62
     0
100
AcDbLine
 10
2785.907103752236
 20
-1715.326866111464
 30
0.0
 11
2785.144774071472
 21
-1714.565040950674
 31
0.0
  0
LINE
  5
D4D5
330
6F
100
AcDbEntity
  8
0
 62
     0
100
AcDbLine
 10
2785.907103752236
 20
-1715.326866111464
 30
0.0
 11
2783.620619229918
 21
-1712.278556428355
 31
0.0
  0
LINE
  5
D4D6
330
6F
100
AcDbEntity
  8
0
 62
     0
100
AcDbLine
 10
2783.620619229918
 20
-1712.278556428355
 30
0.0
 11
2784.382444390708
 21
-1659.692944054842
 31
0.0
  0
LINE
  5
D4D7
330
6F
100
AcDbEntity
  8
0
 62
     0
100
AcDbLine
 10
2784.382444390708
 20
-1659.692944054842
 30
0.0
 11
2784.382444390708
 21
-1655.882304690969
 31
0.0
  0
LINE
  5
D4D8
330
6F
100
AcDbEntity
  8
0
 62
     0
100
AcDbLine
 10
2784.382444390708
 20
-1655.882304690969
 30
0.0
 11
2782.858289549154
 21
-1644.450386599349
 31
0.0
  0
LINE
  5
D4D9
330
6F
100
AcDbEntity
  8
0
 62
     0
100
AcDbLine
 10
2782.858289549154
 20
-1644.450386599349
 30
0.0
 11
2761.519112727442
 21
-1643.688561438559
 31
0.0
  0
LINE
  5
D50A
330
6F
100
AcDbEntity
  8
0
 62
     0
100
AcDbLine
 10
2551.175654193444
 20
-1729.045268725403
 30
0.0
 11
2551.175654193444
 21
-1703.133122859054
 31
0.0
  0
LINE
  5
D50B
330
6F
100
AcDbEntity
  8
0
 62
     0
100
AcDbLine
 10
2551.175654193444
 20
-1703.133122859054
 30
0.0
 11
2628.14925759175
 21
-1703.133122859054
 31
0.0
  0
LINE
  5
D517
330
6F
100
AcDbEntity
  8
0
 62
     0
100
AcDbLine
 10
2545.840859988016
 20
-1730.569423566957
 30
0.0
 11
2545.078530307252
 21
-1700.84714285671
 31
0.0
  0
LINE
  5
D518
330
6F
100
AcDbEntity
  8
0
 62
     0
100
AcDbLine
 10
2545.078530307252
 20
-1700.84714285671
 30
0.0
 11
2534.408941896396
 21
-1700.84714285671
 31
0.0
  0
LINE
  5
D519
330
6F
100
AcDbEntity
  8
0
 62
     0
100
AcDbLine
 10
2534.408941896396
 20
-1700.84714285671
 30
0.0
 11
2534.408941896396
 21
-1731.331753247722
 31
0.0
  0
LINE
  5
D51A
330
6F
100
AcDbEntity
  8
0
 62
     0
100
AcDbLine
 10
2534.408941896396
 20
-1731.331753247722
 30
0.0
 11
2548.889169671124
 21
-1730.569423566957
 31
0.0
  0
LINE
  5
D51B
330
6F
100
AcDbEntity
  8
0
 62
     0
100
AcDbLine
 10
2548.889169671124
 20
-1730.569423566957
 30
0.0
 11
2551.175654193444
 21
-1729.045268725403
 31
0.0
  0
LINE
  5
D51C
330
6F
100
AcDbEntity
  8
0
 62
     0
100
AcDbLine
 10
2551.175654193444
 20
-1729.045268725403
 30
0.0
 11
2628.14925759175
 21
-1729.045268725403
 31
0.0
  0
LINE
  5
D5C1
330
6F
100
AcDbEntity
  8
0
 62
     0
100
AcDbLine
 10
2762.281442408207
 20
-1755.719239752541
 30
0.0
 11
2761.519112727442
 21
-1754.956910071777
 31
0.0
  0
LINE
  5
D5C2
330
6F
100
AcDbEntity
  8
0
 62
     0
100
AcDbLine
 10
2761.519112727442
 20
-1754.956910071777
 30
0.0
 11
2628.14925759175
 21
-1754.956910071777
 31
0.0
  0
LINE
  5
D5C3
330
6F
100
AcDbEntity
  8
0
 62
     0
100
AcDbLine
 10
2628.14925759175
 20
-1754.956910071777
 30
0.0
 11
2628.14925759175
 21
-1677.22148151268
 31
0.0
  0
LINE
  5
D5C4
330
6F
100
AcDbEntity
  8
0
 62
     0
100
AcDbLine
 10
2628.14925759175
 20
-1677.22148151268
 30
0.0
 11
2759.994957885889
 21
-1677.22148151268
 31
0.0
  0
LINE
  5
D648
330
6F
100
AcDbEntity
  8
0
 62
     0
100
AcDbLine
 10
3300.334336515589
 20
-1775.534261732697
 30
0.0
 11
3302.620821037907
 21
-1770.19946752727
 31
0.0
  0
LINE
  5
D649
330
6F
100
AcDbEntity
  8
0
 62
     0
100
AcDbLine
 10
3302.620821037907
 20
-1770.19946752727
 30
0.0
 11
3311.003924926444
 21
-1770.19946752727
 31
0.0
  0
LINE
  5
D64A
330
6F
100
AcDbEntity
  8
0
 62
     0
100
AcDbLine
 10
3311.003924926444
 20
-1770.19946752727
 30
0.0
 11
3313.290409448764
 21
-1772.485952049588
 31
0.0
  0
LINE
  5
D64B
330
6F
100
AcDbEntity
  8
0
 62
     0
100
AcDbLine
 10
3313.290409448764
 20
-1772.485952049588
 30
0.0
 11
3313.290409448764
 21
-1775.534261732697
 31
0.0
  0
LINE
  5
D64C
330
6F
100
AcDbEntity
  8
0
 62
     0
100
AcDbLine
 10
3291.951232627053
 20
-1775.534261732697
 30
0.0
 11
3293.475387468607
 21
-1767.912983004951
 31
0.0
  0
LINE
  5
D64D
330
6F
100
AcDbEntity
  8
0
 62
     0
100
AcDbLine
 10
3293.475387468607
 20
-1767.912983004951
 30
0.0
 11
3301.096666196353
 21
-1761.054033957969
 31
0.0
  0
LINE
  5
D64E
330
6F
100
AcDbEntity
  8
0
 62
     0
100
AcDbLine
 10
3301.096666196353
 20
-1761.054033957969
 30
0.0
 11
3313.290409448764
 21
-1761.054033957969
 31
0.0
  0
LINE
  5
D64F
330
6F
100
AcDbEntity
  8
0
 62
     0
100
AcDbLine
 10
3313.290409448764
 20
-1761.054033957969
 30
0.0
 11
3320.91168817651
 21
-1767.912983004951
 31
0.0
  0
LINE
  5
D650
330
6F
100
AcDbEntity
  8
0
 62
     0
100
AcDbLine
 10
3320.91168817651
 20
-1767.912983004951
 30
0.0
 11
3322.435843018063
 21
-1775.534261732697
 31
0.0
  0
LINE
  5
D652
330
6F
100
AcDbEntity
  8
0
 62
     0
100
AcDbLine
 10
3240.12744541433
 20
-1775.534261732697
 30
0.0
 11
3242.413425416674
 21
-1770.19946752727
 31
0.0
  0
LINE
  5
D653
330
6F
100
AcDbEntity
  8
0
 62
     0
100
AcDbLine
 10
3242.413425416674
 20
-1770.19946752727
 30
0.0
 11
3251.558858985976
 21
-1770.19946752727
 31
0.0
  0
LINE
  5
D654
330
6F
100
AcDbEntity
  8
0
 62
     0
100
AcDbLine
 10
3251.558858985976
 20
-1770.19946752727
 30
0.0
 11
3253.08301382753
 21
-1771.723622368824
 31
0.0
  0
LINE
  5
D655
330
6F
100
AcDbEntity
  8
0
 62
     0
100
AcDbLine
 10
3253.08301382753
 20
-1771.723622368824
 30
0.0
 11
3253.08301382753
 21
-1775.534261732697
 31
0.0
  0
LINE
  5
D656
330
6F
100
AcDbEntity
  8
0
 62
     0
100
AcDbLine
 10
3231.743837005819
 20
-1775.534261732697
 30
0.0
 11
3232.506166686583
 21
-1770.19946752727
 31
0.0
  0
LINE
  5
D657
330
6F
100
AcDbEntity
  8
0
 62
     0
100
AcDbLine
 10
3232.506166686583
 20
-1770.19946752727
 30
0.0
 11
3237.078631211247
 21
-1763.340518480288
 31
0.0
  0
LINE
  5
D658
330
6F
100
AcDbEntity
  8
0
 62
     0
100
AcDbLine
 10
3237.078631211247
 20
-1763.340518480288
 30
0.0
 11
3243.175755097438
 21
-1760.291704277204
 31
0.0
  0
LINE
  5
D659
330
6F
100
AcDbEntity
  8
0
 62
     0
100
AcDbLine
 10
3243.175755097438
 20
-1760.291704277204
 30
0.0
 11
3250.797033825185
 21
-1760.291704277204
 31
0.0
  0
LINE
  5
D65A
330
6F
100
AcDbEntity
  8
0
 62
     0
100
AcDbLine
 10
3250.797033825185
 20
-1760.291704277204
 30
0.0
 11
3258.417808032957
 21
-1764.864673321842
 31
0.0
  0
LINE
  5
D65B
330
6F
100
AcDbEntity
  8
0
 62
     0
100
AcDbLine
 10
3258.417808032957
 20
-1764.864673321842
 30
0.0
 11
3262.228447396831
 21
-1771.723622368824
 31
0.0
  0
LINE
  5
D65C
330
6F
100
AcDbEntity
  8
0
 62
     0
100
AcDbLine
 10
3262.228447396831
 20
-1771.723622368824
 30
0.0
 11
3262.228447396831
 21
-1775.534261732697
 31
0.0
  0
LINE
  5
D661
330
6F
100
AcDbEntity
  8
0
 62
     0
100
AcDbLine
 10
3171.536945904559
 20
-1775.534261732697
 30
0.0
 11
3174.58525558767
 21
-1766.388828163397
 31
0.0
  0
LINE
  5
D662
330
6F
100
AcDbEntity
  8
0
 62
     0
100
AcDbLine
 10
3174.58525558767
 20
-1766.388828163397
 30
0.0
 11
3177.634069790751
 21
-1762.578188799523
 31
0.0
  0
LINE
  5
D663
330
6F
100
AcDbEntity
  8
0
 62
     0
100
AcDbLine
 10
3177.634069790751
 20
-1762.578188799523
 30
0.0
 11
3182.968863996179
 21
-1760.291704277204
 31
0.0
  0
LINE
  5
D664
330
6F
100
AcDbEntity
  8
0
 62
     0
100
AcDbLine
 10
3182.968863996179
 20
-1760.291704277204
 30
0.0
 11
3186.779503360053
 21
-1760.291704277204
 31
0.0
  0
LINE
  5
D66C
330
6F
100
AcDbEntity
  8
0
 62
     0
100
AcDbLine
 10
3060.268092751368
 20
-1775.534261732697
 30
0.0
 11
3062.554577273687
 21
-1770.19946752727
 31
0.0
  0
LINE
  5
D66D
330
6F
100
AcDbEntity
  8
0
 62
     0
100
AcDbLine
 10
3062.554577273687
 20
-1770.19946752727
 30
0.0
 11
3071.700010842988
 21
-1770.19946752727
 31
0.0
  0
LINE
  5
D66E
330
6F
100
AcDbEntity
  8
0
 62
     0
100
AcDbLine
 10
3071.700010842988
 20
-1770.19946752727
 30
0.0
 11
3073.224165684542
 21
-1775.534261732697
 31
0.0
  0
LINE
  5
D66F
330
6F
100
AcDbEntity
  8
0
 62
     0
100
AcDbLine
 10
3051.884988862832
 20
-1775.534261732697
 30
0.0
 11
3052.646814023622
 21
-1770.19946752727
 31
0.0
  0
LINE
  5
D670
330
6F
100
AcDbEntity
  8
0
 62
     0
100
AcDbLine
 10
3052.646814023622
 20
-1770.19946752727
 30
0.0
 11
3057.219783068259
 21
-1763.340518480288
 31
0.0
  0
LINE
  5
D671
330
6F
100
AcDbEntity
  8
0
 62
     0
100
AcDbLine
 10
3057.219783068259
 20
-1763.340518480288
 30
0.0
 11
3063.316906954451
 21
-1760.291704277204
 31
0.0
  0
LINE
  5
D672
330
6F
100
AcDbEntity
  8
0
 62
     0
100
AcDbLine
 10
3063.316906954451
 20
-1760.291704277204
 30
0.0
 11
3070.175856001434
 21
-1760.291704277204
 31
0.0
  0
LINE
  5
D673
330
6F
100
AcDbEntity
  8
0
 62
     0
100
AcDbLine
 10
3070.175856001434
 20
-1760.291704277204
 30
0.0
 11
3077.796630209206
 21
-1764.102343641078
 31
0.0
  0
LINE
  5
D674
330
6F
100
AcDbEntity
  8
0
 62
     0
100
AcDbLine
 10
3077.796630209206
 20
-1764.102343641078
 30
0.0
 11
3081.607269573079
 21
-1770.19946752727
 31
0.0
  0
LINE
  5
D675
330
6F
100
AcDbEntity
  8
0
 62
     0
100
AcDbLine
 10
3081.607269573079
 20
-1770.19946752727
 30
0.0
 11
3082.369599253843
 21
-1775.534261732697
 31
0.0
  0
LINE
  5
D677
330
6F
100
AcDbEntity
  8
0
 62
     0
100
AcDbLine
 10
3000.061201650109
 20
-1775.534261732697
 30
0.0
 11
3002.347686172428
 21
-1770.19946752727
 31
0.0
  0
LINE
  5
D678
330
6F
100
AcDbEntity
  8
0
 62
     0
100
AcDbLine
 10
3002.347686172428
 20
-1770.19946752727
 30
0.0
 11
3011.492615221754
 21
-1770.19946752727
 31
0.0
  0
LINE
  5
D679
330
6F
100
AcDbEntity
  8
0
 62
     0
100
AcDbLine
 10
3011.492615221754
 20
-1770.19946752727
 30
0.0
 11
3013.779099744073
 21
-1775.534261732697
 31
0.0
  0
LINE
  5
D67A
330
6F
100
AcDbEntity
  8
0
 62
     0
100
AcDbLine
 10
2991.678097761572
 20
-1775.534261732697
 30
0.0
 11
2992.439922922363
 21
-1770.19946752727
 31
0.0
  0
LINE
  5
D67B
330
6F
100
AcDbEntity
  8
0
 62
     0
100
AcDbLine
 10
2992.439922922363
 20
-1770.19946752727
 30
0.0
 11
2997.012891967
 21
-1763.340518480288
 31
0.0
  0
LINE
  5
D67C
330
6F
100
AcDbEntity
  8
0
 62
     0
100
AcDbLine
 10
2997.012891967
 20
-1763.340518480288
 30
0.0
 11
3003.109511333218
 21
-1760.291704277204
 31
0.0
  0
LINE
  5
D67D
330
6F
100
AcDbEntity
  8
0
 62
     0
100
AcDbLine
 10
3003.109511333218
 20
-1760.291704277204
 30
0.0
 11
3010.730790060964
 21
-1760.291704277204
 31
0.0
  0
LINE
  5
D67E
330
6F
100
AcDbEntity
  8
0
 62
     0
100
AcDbLine
 10
3010.730790060964
 20
-1760.291704277204
 30
0.0
 11
3018.352068788711
 21
-1764.864673321842
 31
0.0
  0
LINE
  5
D67F
330
6F
100
AcDbEntity
  8
0
 62
     0
100
AcDbLine
 10
3018.352068788711
 20
-1764.864673321842
 30
0.0
 11
3022.162708152584
 21
-1771.723622368824
 31
0.0
  0
LINE
  5
D680
330
6F
100
AcDbEntity
  8
0
 62
     0
100
AcDbLine
 10
3022.162708152584
 20
-1771.723622368824
 30
0.0
 11
3022.162708152584
 21
-1775.534261732697
 31
0.0
  0
LINE
  5
D685
330
6F
100
AcDbEntity
  8
0
 62
     0
100
AcDbLine
 10
2931.470702140339
 20
-1775.534261732697
 30
0.0
 11
2934.519516343422
 21
-1766.388828163397
 31
0.0
  0
LINE
  5
D686
330
6F
100
AcDbEntity
  8
0
 62
     0
100
AcDbLine
 10
2934.519516343422
 20
-1766.388828163397
 30
0.0
 11
2937.567826026531
 21
-1762.578188799523
 31
0.0
  0
LINE
  5
D687
330
6F
100
AcDbEntity
  8
0
 62
     0
100
AcDbLine
 10
2937.567826026531
 20
-1762.578188799523
 30
0.0
 11
2942.902620231959
 21
-1760.291704277204
 31
0.0
  0
LINE
  5
D688
330
6F
100
AcDbEntity
  8
0
 62
     0
100
AcDbLine
 10
2942.902620231959
 20
-1760.291704277204
 30
0.0
 11
2946.713259595832
 21
-1760.291704277204
 31
0.0
  0
LINE
  5
D690
330
6F
100
AcDbEntity
  8
0
 62
     0
100
AcDbLine
 10
2820.201848987147
 20
-1775.534261732697
 30
0.0
 11
2822.488333509466
 21
-1770.19946752727
 31
0.0
  0
LINE
  5
D691
330
6F
100
AcDbEntity
  8
0
 62
     0
100
AcDbLine
 10
2822.488333509466
 20
-1770.19946752727
 30
0.0
 11
2831.633767078768
 21
-1770.19946752727
 31
0.0
  0
LINE
  5
D692
330
6F
100
AcDbEntity
  8
0
 62
     0
100
AcDbLine
 10
2831.633767078768
 20
-1770.19946752727
 30
0.0
 11
2833.157921920321
 21
-1775.534261732697
 31
0.0
  0
LINE
  5
D693
330
6F
100
AcDbEntity
  8
0
 62
     0
100
AcDbLine
 10
2811.056919937821
 20
-1775.534261732697
 30
0.0
 11
2815.629384462485
 21
-1764.864673321842
 31
0.0
  0
LINE
  5
D694
330
6F
100
AcDbEntity
  8
0
 62
     0
100
AcDbLine
 10
2815.629384462485
 20
-1764.864673321842
 30
0.0
 11
2823.250663190231
 21
-1760.291704277204
 31
0.0
  0
LINE
  5
D695
330
6F
100
AcDbEntity
  8
0
 62
     0
100
AcDbLine
 10
2823.250663190231
 20
-1760.291704277204
 30
0.0
 11
2830.109612237213
 21
-1760.291704277204
 31
0.0
  0
LINE
  5
D696
330
6F
100
AcDbEntity
  8
0
 62
     0
100
AcDbLine
 10
2830.109612237213
 20
-1760.291704277204
 30
0.0
 11
2837.730890964959
 21
-1764.102343641078
 31
0.0
  0
LINE
  5
D697
330
6F
100
AcDbEntity
  8
0
 62
     0
100
AcDbLine
 10
2837.730890964959
 20
-1764.102343641078
 30
0.0
 11
2841.541025808859
 21
-1770.19946752727
 31
0.0
  0
LINE
  5
D698
330
6F
100
AcDbEntity
  8
0
 62
     0
100
AcDbLine
 10
2841.541025808859
 20
-1770.19946752727
 30
0.0
 11
2842.303355489623
 21
-1775.534261732697
 31
0.0
  0
LINE
  5
D699
330
6F
100
AcDbEntity
  8
0
 62
     0
100
AcDbLine
 10
2799.625001846201
 20
-1775.534261732697
 30
0.0
 11
2785.144774071472
 21
-1774.771932051933
 31
0.0
  0
LINE
  5
D69A
330
6F
100
AcDbEntity
  8
0
 62
     0
100
AcDbLine
 10
2785.144774071472
 20
-1774.771932051933
 30
0.0
 11
2783.620619229918
 21
-1773.247777210378
 31
0.0
  0
LINE
  5
D69B
330
6F
100
AcDbEntity
  8
0
 62
     0
100
AcDbLine
 10
2783.620619229918
 20
-1773.247777210378
 30
0.0
 11
2784.382444390708
 21
-1716.851525472993
 31
0.0
  0
LINE
  5
D69C
330
6F
100
AcDbEntity
  8
0
 62
     0
100
AcDbLine
 10
2784.382444390708
 20
-1716.851525472993
 30
0.0
 11
2785.907103752236
 21
-1715.326866111464
 31
0.0
  0
LINE
  5
D69D
330
6F
100
AcDbEntity
  8
0
 62
     0
100
AcDbLine
 10
2785.907103752236
 20
-1715.326866111464
 30
0.0
 11
2856.783583264351
 21
-1714.565040950674
 31
0.0
  0
LINE
  5
D6AC
330
6F
100
AcDbEntity
  8
0
 62
     0
100
AcDbLine
 10
3382.642734119323
 20
-1780.106726257361
 30
0.0
 11
3381.118579277768
 21
-1767.912983004951
 31
0.0
  0
LINE
  5
D6AD
330
6F
100
AcDbEntity
  8
0
 62
     0
100
AcDbLine
 10
3381.118579277768
 20
-1767.912983004951
 30
0.0
 11
3373.497300550023
 21
-1761.054033957969
 31
0.0
  0
LINE
  5
D6AE
330
6F
100
AcDbEntity
  8
0
 62
     0
100
AcDbLine
 10
3373.497300550023
 20
-1761.054033957969
 30
0.0
 11
3367.400681183805
 21
-1760.291704277204
 31
0.0
  0
LINE
  5
D6AF
330
6F
100
AcDbEntity
  8
0
 62
     0
100
AcDbLine
 10
3322.435843018063
 20
-1780.106726257361
 30
0.0
 11
3322.435843018063
 21
-1775.534261732697
 31
0.0
  0
LINE
  5
D6B0
330
6F
100
AcDbEntity
  8
0
 62
     0
100
AcDbLine
 10
3262.228447396831
 20
-1780.106726257361
 30
0.0
 11
3262.228447396831
 21
-1775.534261732697
 31
0.0
  0
LINE
  5
D6B1
330
6F
100
AcDbEntity
  8
0
 62
     0
100
AcDbLine
 10
3202.783885976336
 20
-1780.106726257361
 30
0.0
 11
3201.259226614807
 21
-1770.19946752727
 31
0.0
  0
LINE
  5
D6B2
330
6F
100
AcDbEntity
  8
0
 62
     0
100
AcDbLine
 10
3201.259226614807
 20
-1770.19946752727
 30
0.0
 11
3197.449091770908
 21
-1764.102343641078
 31
0.0
  0
LINE
  5
D6B3
330
6F
100
AcDbEntity
  8
0
 62
     0
100
AcDbLine
 10
3197.449091770908
 20
-1764.102343641078
 30
0.0
 11
3190.589638203951
 21
-1760.291704277204
 31
0.0
  0
LINE
  5
D6B4
330
6F
100
AcDbEntity
  8
0
 62
     0
100
AcDbLine
 10
3190.589638203951
 20
-1760.291704277204
 30
0.0
 11
3186.779503360053
 21
-1760.291704277204
 31
0.0
  0
LINE
  5
D6B5
330
6F
100
AcDbEntity
  8
0
 62
     0
100
AcDbLine
 10
3142.576490355103
 20
-1780.106726257361
 30
0.0
 11
3141.814665194312
 21
-1770.19946752727
 31
0.0
  0
LINE
  5
D6B6
330
6F
100
AcDbEntity
  8
0
 62
     0
100
AcDbLine
 10
3141.814665194312
 20
-1770.19946752727
 30
0.0
 11
3136.479870988884
 21
-1763.340518480288
 31
0.0
  0
LINE
  5
D6B7
330
6F
100
AcDbEntity
  8
0
 62
     0
100
AcDbLine
 10
3136.479870988884
 20
-1763.340518480288
 30
0.0
 11
3130.382747102693
 21
-1760.291704277204
 31
0.0
  0
LINE
  5
D6B8
330
6F
100
AcDbEntity
  8
0
 62
     0
100
AcDbLine
 10
3130.382747102693
 20
-1760.291704277204
 30
0.0
 11
3127.334437419584
 21
-1760.291704277204
 31
0.0
  0
LINE
  5
D6B9
330
6F
100
AcDbEntity
  8
0
 62
     0
100
AcDbLine
 10
3022.162708152584
 20
-1780.106726257361
 30
0.0
 11
3022.162708152584
 21
-1775.534261732697
 31
0.0
  0
LINE
  5
D6BA
330
6F
100
AcDbEntity
  8
0
 62
     0
100
AcDbLine
 10
2962.717642212115
 20
-1780.106726257361
 30
0.0
 11
2961.19348737056
 21
-1770.19946752727
 31
0.0
  0
LINE
  5
D6BB
330
6F
100
AcDbEntity
  8
0
 62
     0
100
AcDbLine
 10
2961.19348737056
 20
-1770.19946752727
 30
0.0
 11
2957.382848006688
 21
-1764.102343641078
 31
0.0
  0
LINE
  5
D6BC
330
6F
100
AcDbEntity
  8
0
 62
     0
100
AcDbLine
 10
2957.382848006688
 20
-1764.102343641078
 30
0.0
 11
2950.523898959706
 21
-1760.291704277204
 31
0.0
  0
LINE
  5
D6BD
330
6F
100
AcDbEntity
  8
0
 62
     0
100
AcDbLine
 10
2950.523898959706
 20
-1760.291704277204
 30
0.0
 11
2946.713259595832
 21
-1760.291704277204
 31
0.0
  0
LINE
  5
D6BE
330
6F
100
AcDbEntity
  8
0
 62
     0
100
AcDbLine
 10
2902.510246590882
 20
-1780.106726257361
 30
0.0
 11
2901.748421430092
 21
-1770.19946752727
 31
0.0
  0
LINE
  5
D6BF
330
6F
100
AcDbEntity
  8
0
 62
     0
100
AcDbLine
 10
2901.748421430092
 20
-1770.19946752727
 30
0.0
 11
2896.413627224664
 21
-1763.340518480288
 31
0.0
  0
LINE
  5
D6C0
330
6F
100
AcDbEntity
  8
0
 62
     0
100
AcDbLine
 10
2896.413627224664
 20
-1763.340518480288
 30
0.0
 11
2890.316503338472
 21
-1760.291704277204
 31
0.0
  0
LINE
  5
D6C1
330
6F
100
AcDbEntity
  8
0
 62
     0
100
AcDbLine
 10
2890.316503338472
 20
-1760.291704277204
 30
0.0
 11
2887.268193655363
 21
-1760.291704277204
 31
0.0
  0
LINE
  5
D6C2
330
6F
100
AcDbEntity
  8
0
 62
     0
100
AcDbLine
 10
3351.395794047548
 20
-1780.869055938125
 30
0.0
 11
3352.158123728311
 21
-1770.96129268806
 31
0.0
  0
LINE
  5
D6C3
330
6F
100
AcDbEntity
  8
0
 62
     0
100
AcDbLine
 10
3352.158123728311
 20
-1770.96129268806
 30
0.0
 11
3358.255247614503
 21
-1762.578188799523
 31
0.0
  0
LINE
  5
D6C4
330
6F
100
AcDbEntity
  8
0
 62
     0
100
AcDbLine
 10
3358.255247614503
 20
-1762.578188799523
 30
0.0
 11
3363.590041819931
 21
-1760.291704277204
 31
0.0
  0
LINE
  5
D6C5
330
6F
100
AcDbEntity
  8
0
 62
     0
100
AcDbLine
 10
3363.590041819931
 20
-1760.291704277204
 30
0.0
 11
3367.400681183805
 21
-1760.291704277204
 31
0.0
  0
LINE
  5
D6C6
330
6F
100
AcDbEntity
  8
0
 62
     0
100
AcDbLine
 10
3171.536945904559
 20
-1780.869055938125
 30
0.0
 11
3171.536945904559
 21
-1780.106726257361
 31
0.0
  0
LINE
  5
D6C7
330
6F
100
AcDbEntity
  8
0
 62
     0
100
AcDbLine
 10
3171.536945904559
 20
-1780.106726257361
 30
0.0
 11
3170.774616223796
 21
-1779.344901096571
 31
0.0
  0
LINE
  5
D6C8
330
6F
100
AcDbEntity
  8
0
 62
     0
100
AcDbLine
 10
3170.774616223796
 20
-1779.344901096571
 30
0.0
 11
3170.774616223796
 21
-1776.296086893488
 31
0.0
  0
LINE
  5
D6CB
330
6F
100
AcDbEntity
  8
0
 62
     0
100
AcDbLine
 10
3111.3300548033
 20
-1780.869055938125
 30
0.0
 11
3112.854209644855
 21
-1769.437137846505
 31
0.0
  0
LINE
  5
D6CC
330
6F
100
AcDbEntity
  8
0
 62
     0
100
AcDbLine
 10
3112.854209644855
 20
-1769.437137846505
 30
0.0
 11
3119.713158691837
 21
-1761.816363638733
 31
0.0
  0
LINE
  5
D6CD
330
6F
100
AcDbEntity
  8
0
 62
     0
100
AcDbLine
 10
3119.713158691837
 20
-1761.816363638733
 30
0.0
 11
3127.334437419584
 21
-1760.291704277204
 31
0.0
  0
LINE
  5
D6CE
330
6F
100
AcDbEntity
  8
0
 62
     0
100
AcDbLine
 10
3082.369599253843
 20
-1780.869055938125
 30
0.0
 11
3083.131424414634
 21
-1781.630881098915
 31
0.0
  0
LINE
  5
D6CF
330
6F
100
AcDbEntity
  8
0
 62
     0
100
AcDbLine
 10
3082.369599253843
 20
-1780.869055938125
 30
0.0
 11
3082.369599253843
 21
-1775.534261732697
 31
0.0
  0
LINE
  5
D6D0
330
6F
100
AcDbEntity
  8
0
 62
     0
100
AcDbLine
 10
2931.470702140339
 20
-1780.869055938125
 30
0.0
 11
2931.470702140339
 21
-1780.106726257361
 31
0.0
  0
LINE
  5
D6D1
330
6F
100
AcDbEntity
  8
0
 62
     0
100
AcDbLine
 10
2931.470702140339
 20
-1780.106726257361
 30
0.0
 11
2930.708876979549
 21
-1779.344901096571
 31
0.0
  0
LINE
  5
D6D2
330
6F
100
AcDbEntity
  8
0
 62
     0
100
AcDbLine
 10
2930.708876979549
 20
-1779.344901096571
 30
0.0
 11
2930.708876979549
 21
-1776.296086893488
 31
0.0
  0
LINE
  5
D6D5
330
6F
100
AcDbEntity
  8
0
 62
     0
100
AcDbLine
 10
2871.26381103908
 20
-1780.869055938125
 30
0.0
 11
2872.02563619987
 21
-1771.723622368824
 31
0.0
  0
LINE
  5
D6D6
330
6F
100
AcDbEntity
  8
0
 62
     0
100
AcDbLine
 10
2872.02563619987
 20
-1771.723622368824
 30
0.0
 11
2876.598605244507
 21
-1764.102343641078
 31
0.0
  0
LINE
  5
D6D7
330
6F
100
AcDbEntity
  8
0
 62
     0
100
AcDbLine
 10
2876.598605244507
 20
-1764.102343641078
 30
0.0
 11
2883.457554291489
 21
-1760.291704277204
 31
0.0
  0
LINE
  5
D6D8
330
6F
100
AcDbEntity
  8
0
 62
     0
100
AcDbLine
 10
2883.457554291489
 20
-1760.291704277204
 30
0.0
 11
2887.268193655363
 21
-1760.291704277204
 31
0.0
  0
LINE
  5
D6D9
330
6F
100
AcDbEntity
  8
0
 62
     0
100
AcDbLine
 10
2842.303355489623
 20
-1780.869055938125
 30
0.0
 11
2843.065685170387
 21
-1781.630881098915
 31
0.0
  0
LINE
  5
D6DA
330
6F
100
AcDbEntity
  8
0
 62
     0
100
AcDbLine
 10
2842.303355489623
 20
-1780.869055938125
 30
0.0
 11
2842.303355489623
 21
-1775.534261732697
 31
0.0
  0
LINE
  5
D6DB
330
6F
100
AcDbEntity
  8
0
 62
     0
100
AcDbLine
 10
3246.986394461311
 20
-1782.39321077968
 30
0.0
 11
3242.413425416674
 21
-1781.630881098915
 31
0.0
  0
LINE
  5
D6DC
330
6F
100
AcDbEntity
  8
0
 62
     0
100
AcDbLine
 10
3242.413425416674
 20
-1781.630881098915
 30
0.0
 11
3240.12744541433
 21
-1775.534261732697
 31
0.0
  0
LINE
  5
D6DD
330
6F
100
AcDbEntity
  8
0
 62
     0
100
AcDbLine
 10
3246.986394461311
 20
-1782.39321077968
 30
0.0
 11
3251.558858985976
 21
-1781.630881098915
 31
0.0
  0
LINE
  5
D6DE
330
6F
100
AcDbEntity
  8
0
 62
     0
100
AcDbLine
 10
3251.558858985976
 20
-1781.630881098915
 30
0.0
 11
3253.845343508294
 21
-1778.582571415806
 31
0.0
  0
LINE
  5
D6DF
330
6F
100
AcDbEntity
  8
0
 62
     0
100
AcDbLine
 10
3253.845343508294
 20
-1778.582571415806
 30
0.0
 11
3253.845343508294
 21
-1775.534261732697
 31
0.0
  0
LINE
  5
D6E0
330
6F
100
AcDbEntity
  8
0
 62
     0
100
AcDbLine
 10
3186.779503360053
 20
-1782.39321077968
 30
0.0
 11
3181.444204634651
 21
-1780.869055938125
 31
0.0
  0
LINE
  5
D6E1
330
6F
100
AcDbEntity
  8
0
 62
     0
100
AcDbLine
 10
3181.444204634651
 20
-1780.869055938125
 30
0.0
 11
3179.920049793096
 21
-1775.534261732697
 31
0.0
  0
LINE
  5
D6E2
330
6F
100
AcDbEntity
  8
0
 62
     0
100
AcDbLine
 10
3179.920049793096
 20
-1775.534261732697
 30
0.0
 11
3182.968863996179
 21
-1770.19946752727
 31
0.0
  0
LINE
  5
D6E3
330
6F
100
AcDbEntity
  8
0
 62
     0
100
AcDbLine
 10
3182.968863996179
 20
-1770.19946752727
 30
0.0
 11
3186.779503360053
 21
-1769.437137846505
 31
0.0
  0
LINE
  5
D6E4
330
6F
100
AcDbEntity
  8
0
 62
     0
100
AcDbLine
 10
3186.779503360053
 20
-1782.39321077968
 30
0.0
 11
3191.351967884716
 21
-1781.630881098915
 31
0.0
  0
LINE
  5
D6E5
330
6F
100
AcDbEntity
  8
0
 62
     0
100
AcDbLine
 10
3191.351967884716
 20
-1781.630881098915
 30
0.0
 11
3193.638452407035
 21
-1778.582571415806
 31
0.0
  0
LINE
  5
D6E6
330
6F
100
AcDbEntity
  8
0
 62
     0
100
AcDbLine
 10
3193.638452407035
 20
-1778.582571415806
 30
0.0
 11
3192.87612272627
 21
-1771.723622368824
 31
0.0
  0
LINE
  5
D6E7
330
6F
100
AcDbEntity
  8
0
 62
     0
100
AcDbLine
 10
3192.87612272627
 20
-1771.723622368824
 30
0.0
 11
3186.779503360053
 21
-1769.437137846505
 31
0.0
  0
LINE
  5
D6E8
330
6F
100
AcDbEntity
  8
0
 62
     0
100
AcDbLine
 10
3006.920150697091
 20
-1782.39321077968
 30
0.0
 11
3002.347686172428
 21
-1781.630881098915
 31
0.0
  0
LINE
  5
D6E9
330
6F
100
AcDbEntity
  8
0
 62
     0
100
AcDbLine
 10
3002.347686172428
 20
-1781.630881098915
 30
0.0
 11
3000.061201650109
 21
-1775.534261732697
 31
0.0
  0
LINE
  5
D6EA
330
6F
100
AcDbEntity
  8
0
 62
     0
100
AcDbLine
 10
3006.920150697091
 20
-1782.39321077968
 30
0.0
 11
3011.492615221754
 21
-1781.630881098915
 31
0.0
  0
LINE
  5
D6EB
330
6F
100
AcDbEntity
  8
0
 62
     0
100
AcDbLine
 10
3011.492615221754
 20
-1781.630881098915
 30
0.0
 11
3013.779099744073
 21
-1778.582571415806
 31
0.0
  0
LINE
  5
D6EC
330
6F
100
AcDbEntity
  8
0
 62
     0
100
AcDbLine
 10
3013.779099744073
 20
-1778.582571415806
 30
0.0
 11
3013.779099744073
 21
-1775.534261732697
 31
0.0
  0
LINE
  5
D6ED
330
6F
100
AcDbEntity
  8
0
 62
     0
100
AcDbLine
 10
2946.713259595832
 20
-1782.39321077968
 30
0.0
 11
2941.378465390404
 21
-1780.869055938125
 31
0.0
  0
LINE
  5
D6EE
330
6F
100
AcDbEntity
  8
0
 62
     0
100
AcDbLine
 10
2941.378465390404
 20
-1780.869055938125
 30
0.0
 11
2939.85431054885
 21
-1775.534261732697
 31
0.0
  0
LINE
  5
D6EF
330
6F
100
AcDbEntity
  8
0
 62
     0
100
AcDbLine
 10
2939.85431054885
 20
-1775.534261732697
 30
0.0
 11
2942.902620231959
 21
-1770.19946752727
 31
0.0
  0
LINE
  5
D6F0
330
6F
100
AcDbEntity
  8
0
 62
     0
100
AcDbLine
 10
2942.902620231959
 20
-1770.19946752727
 30
0.0
 11
2946.713259595832
 21
-1770.19946752727
 31
0.0
  0
LINE
  5
D6F1
330
6F
100
AcDbEntity
  8
0
 62
     0
100
AcDbLine
 10
2946.713259595832
 20
-1782.39321077968
 30
0.0
 11
2951.285724120495
 21
-1781.630881098915
 31
0.0
  0
LINE
  5
D6F2
330
6F
100
AcDbEntity
  8
0
 62
     0
100
AcDbLine
 10
2951.285724120495
 20
-1781.630881098915
 30
0.0
 11
2953.572208642815
 21
-1778.582571415806
 31
0.0
  0
LINE
  5
D6F3
330
6F
100
AcDbEntity
  8
0
 62
     0
100
AcDbLine
 10
2953.572208642815
 20
-1778.582571415806
 30
0.0
 11
2952.80987896205
 21
-1771.723622368824
 31
0.0
  0
LINE
  5
D6F4
330
6F
100
AcDbEntity
  8
0
 62
     0
100
AcDbLine
 10
2952.80987896205
 20
-1771.723622368824
 30
0.0
 11
2946.713259595832
 21
-1769.437137846505
 31
0.0
  0
LINE
  5
D6F5
330
6F
100
AcDbEntity
  8
0
 62
     0
100
AcDbLine
 10
2827.061302554104
 20
-1782.39321077968
 30
0.0
 11
2821.726508348676
 21
-1781.630881098915
 31
0.0
  0
LINE
  5
D6F6
330
6F
100
AcDbEntity
  8
0
 62
     0
100
AcDbLine
 10
2821.726508348676
 20
-1781.630881098915
 30
0.0
 11
2820.201848987147
 21
-1775.534261732697
 31
0.0
  0
LINE
  5
D6F7
330
6F
100
AcDbEntity
  8
0
 62
     0
100
AcDbLine
 10
2827.061302554104
 20
-1782.39321077968
 30
0.0
 11
2832.396096759532
 21
-1780.869055938125
 31
0.0
  0
LINE
  5
D6F8
330
6F
100
AcDbEntity
  8
0
 62
     0
100
AcDbLine
 10
2832.396096759532
 20
-1780.869055938125
 30
0.0
 11
2833.920251601086
 21
-1775.534261732697
 31
0.0
  0
LINE
  5
D6F9
330
6F
100
AcDbEntity
  8
0
 62
     0
100
AcDbLine
 10
3367.400681183805
 20
-1783.155540460444
 30
0.0
 11
3372.735475389233
 21
-1780.106726257361
 31
0.0
  0
LINE
  5
D6FA
330
6F
100
AcDbEntity
  8
0
 62
     0
100
AcDbLine
 10
3372.735475389233
 20
-1780.106726257361
 30
0.0
 11
3372.735475389233
 21
-1771.723622368824
 31
0.0
  0
LINE
  5
D6FB
330
6F
100
AcDbEntity
  8
0
 62
     0
100
AcDbLine
 10
3372.735475389233
 20
-1771.723622368824
 30
0.0
 11
3367.400681183805
 21
-1769.437137846505
 31
0.0
  0
LINE
  5
D6FC
330
6F
100
AcDbEntity
  8
0
 62
     0
100
AcDbLine
 10
3367.400681183805
 20
-1783.155540460444
 30
0.0
 11
3362.065886978376
 21
-1781.630881098915
 31
0.0
  0
LINE
  5
D6FD
330
6F
100
AcDbEntity
  8
0
 62
     0
100
AcDbLine
 10
3362.065886978376
 20
-1781.630881098915
 30
0.0
 11
3360.541227616848
 21
-1775.534261732697
 31
0.0
  0
LINE
  5
D6FE
330
6F
100
AcDbEntity
  8
0
 62
     0
100
AcDbLine
 10
3360.541227616848
 20
-1775.534261732697
 30
0.0
 11
3362.827712139167
 21
-1770.19946752727
 31
0.0
  0
LINE
  5
D6FF
330
6F
100
AcDbEntity
  8
0
 62
     0
100
AcDbLine
 10
3362.827712139167
 20
-1770.19946752727
 30
0.0
 11
3367.400681183805
 21
-1769.437137846505
 31
0.0
  0
LINE
  5
D700
330
6F
100
AcDbEntity
  8
0
 62
     0
100
AcDbLine
 10
3307.193285562571
 20
-1783.155540460444
 30
0.0
 11
3312.528079767999
 21
-1780.869055938125
 31
0.0
  0
LINE
  5
D701
330
6F
100
AcDbEntity
  8
0
 62
     0
100
AcDbLine
 10
3312.528079767999
 20
-1780.869055938125
 30
0.0
 11
3314.052234609553
 21
-1775.534261732697
 31
0.0
  0
LINE
  5
D702
330
6F
100
AcDbEntity
  8
0
 62
     0
100
AcDbLine
 10
3307.193285562571
 20
-1783.155540460444
 30
0.0
 11
3301.096666196353
 21
-1780.869055938125
 31
0.0
  0
LINE
  5
D703
330
6F
100
AcDbEntity
  8
0
 62
     0
100
AcDbLine
 10
3301.096666196353
 20
-1780.869055938125
 30
0.0
 11
3300.334336515589
 21
-1775.534261732697
 31
0.0
  0
LINE
  5
D704
330
6F
100
AcDbEntity
  8
0
 62
     0
100
AcDbLine
 10
3127.334437419584
 20
-1783.155540460444
 30
0.0
 11
3132.669231625011
 21
-1780.869055938125
 31
0.0
  0
LINE
  5
D705
330
6F
100
AcDbEntity
  8
0
 62
     0
100
AcDbLine
 10
3132.669231625011
 20
-1780.869055938125
 30
0.0
 11
3132.669231625011
 21
-1771.723622368824
 31
0.0
  0
LINE
  5
D706
330
6F
100
AcDbEntity
  8
0
 62
     0
100
AcDbLine
 10
3132.669231625011
 20
-1771.723622368824
 30
0.0
 11
3127.334437419584
 21
-1769.437137846505
 31
0.0
  0
LINE
  5
D707
330
6F
100
AcDbEntity
  8
0
 62
     0
100
AcDbLine
 10
3127.334437419584
 20
-1783.155540460444
 30
0.0
 11
3121.999643214156
 21
-1781.630881098915
 31
0.0
  0
LINE
  5
D708
330
6F
100
AcDbEntity
  8
0
 62
     0
100
AcDbLine
 10
3121.999643214156
 20
-1781.630881098915
 30
0.0
 11
3120.475488372602
 21
-1775.534261732697
 31
0.0
  0
LINE
  5
D709
330
6F
100
AcDbEntity
  8
0
 62
     0
100
AcDbLine
 10
3120.475488372602
 20
-1775.534261732697
 30
0.0
 11
3122.761468374947
 21
-1770.19946752727
 31
0.0
  0
LINE
  5
D70A
330
6F
100
AcDbEntity
  8
0
 62
     0
100
AcDbLine
 10
3122.761468374947
 20
-1770.19946752727
 30
0.0
 11
3127.334437419584
 21
-1769.437137846505
 31
0.0
  0
LINE
  5
D70B
330
6F
100
AcDbEntity
  8
0
 62
     0
100
AcDbLine
 10
3067.127041798351
 20
-1783.155540460444
 30
0.0
 11
3072.461836003778
 21
-1780.869055938125
 31
0.0
  0
LINE
  5
D70C
330
6F
100
AcDbEntity
  8
0
 62
     0
100
AcDbLine
 10
3072.461836003778
 20
-1780.869055938125
 30
0.0
 11
3073.986495365306
 21
-1775.534261732697
 31
0.0
  0
LINE
  5
D70D
330
6F
100
AcDbEntity
  8
0
 62
     0
100
AcDbLine
 10
3067.127041798351
 20
-1783.155540460444
 30
0.0
 11
3061.030422432133
 21
-1780.869055938125
 31
0.0
  0
LINE
  5
D70E
330
6F
100
AcDbEntity
  8
0
 62
     0
100
AcDbLine
 10
3061.030422432133
 20
-1780.869055938125
 30
0.0
 11
3060.268092751368
 21
-1775.534261732697
 31
0.0
  0
LINE
  5
D70F
330
6F
100
AcDbEntity
  8
0
 62
     0
100
AcDbLine
 10
2887.268193655363
 20
-1783.155540460444
 30
0.0
 11
2892.602987860791
 21
-1780.869055938125
 31
0.0
  0
LINE
  5
D710
330
6F
100
AcDbEntity
  8
0
 62
     0
100
AcDbLine
 10
2892.602987860791
 20
-1780.869055938125
 30
0.0
 11
2892.602987860791
 21
-1771.723622368824
 31
0.0
  0
LINE
  5
D711
330
6F
100
AcDbEntity
  8
0
 62
     0
100
AcDbLine
 10
2892.602987860791
 20
-1771.723622368824
 30
0.0
 11
2887.268193655363
 21
-1769.437137846505
 31
0.0
  0
LINE
  5
D712
330
6F
100
AcDbEntity
  8
0
 62
     0
100
AcDbLine
 10
2887.268193655363
 20
-1783.155540460444
 30
0.0
 11
2881.933399449935
 21
-1781.630881098915
 31
0.0
  0
LINE
  5
D713
330
6F
100
AcDbEntity
  8
0
 62
     0
100
AcDbLine
 10
2881.933399449935
 20
-1781.630881098915
 30
0.0
 11
2880.409244608381
 21
-1775.534261732697
 31
0.0
  0
LINE
  5
D714
330
6F
100
AcDbEntity
  8
0
 62
     0
100
AcDbLine
 10
2880.409244608381
 20
-1775.534261732697
 30
0.0
 11
2882.695224610726
 21
-1770.19946752727
 31
0.0
  0
LINE
  5
D715
330
6F
100
AcDbEntity
  8
0
 62
     0
100
AcDbLine
 10
2882.695224610726
 20
-1770.19946752727
 30
0.0
 11
2887.268193655363
 21
-1769.437137846505
 31
0.0
  0
LINE
  5
D725
330
6F
100
AcDbEntity
  8
0
 62
     0
100
AcDbLine
 10
3397.122961894052
 20
-1791.53864434898
 30
0.0
 11
3536.589940915936
 21
-1791.53864434898
 31
0.0
  0
LINE
  5
D726
330
6F
100
AcDbEntity
  8
0
 62
     0
100
AcDbLine
 10
3536.589940915936
 20
-1791.53864434898
 30
0.0
 11
3537.352270596701
 21
-1790.776314668216
 31
0.0
  0
LINE
  5
D727
330
6F
100
AcDbEntity
  8
0
 62
     0
100
AcDbLine
 10
3537.352270596701
 20
-1790.776314668216
 30
0.0
 11
3538.114095757491
 21
-1790.014489507426
 31
0.0
  0
LINE
  5
D728
330
6F
100
AcDbEntity
  8
0
 62
     0
100
AcDbLine
 10
3538.114095757491
 20
-1790.014489507426
 30
0.0
 11
3539.638250599045
 21
-1790.014489507426
 31
0.0
  0
LINE
  5
D72B
330
6F
100
AcDbEntity
  8
0
 62
     0
100
AcDbLine
 10
3307.193285562571
 20
-1791.53864434898
 30
0.0
 11
3298.047851993271
 21
-1788.490334665871
 31
0.0
  0
LINE
  5
D72C
330
6F
100
AcDbEntity
  8
0
 62
     0
100
AcDbLine
 10
3298.047851993271
 20
-1788.490334665871
 30
0.0
 11
3292.713057787843
 21
-1783.155540460444
 31
0.0
  0
LINE
  5
D72D
330
6F
100
AcDbEntity
  8
0
 62
     0
100
AcDbLine
 10
3292.713057787843
 20
-1783.155540460444
 30
0.0
 11
3291.188902946288
 21
-1780.869055938125
 31
0.0
  0
LINE
  5
D72F
330
6F
100
AcDbEntity
  8
0
 62
     0
100
AcDbLine
 10
3307.193285562571
 20
-1791.53864434898
 30
0.0
 11
3314.814564290318
 21
-1789.252159826662
 31
0.0
  0
LINE
  5
D730
330
6F
100
AcDbEntity
  8
0
 62
     0
100
AcDbLine
 10
3314.814564290318
 20
-1789.252159826662
 30
0.0
 11
3320.91168817651
 21
-1783.155540460444
 31
0.0
  0
LINE
  5
D731
330
6F
100
AcDbEntity
  8
0
 62
     0
100
AcDbLine
 10
3320.91168817651
 20
-1783.155540460444
 30
0.0
 11
3321.6735133373
 21
-1780.106726257361
 31
0.0
  0
LINE
  5
D732
330
6F
100
AcDbEntity
  8
0
 62
     0
100
AcDbLine
 10
3321.6735133373
 20
-1780.106726257361
 30
0.0
 11
3323.197668178854
 21
-1780.106726257361
 31
0.0
  0
LINE
  5
D733
330
6F
100
AcDbEntity
  8
0
 62
     0
100
AcDbLine
 10
3323.197668178854
 20
-1780.106726257361
 30
0.0
 11
3326.246482381937
 21
-1790.776314668216
 31
0.0
  0
LINE
  5
D734
330
6F
100
AcDbEntity
  8
0
 62
     0
100
AcDbLine
 10
3326.246482381937
 20
-1790.776314668216
 30
0.0
 11
3327.008307542728
 21
-1790.776314668216
 31
0.0
  0
LINE
  5
D735
330
6F
100
AcDbEntity
  8
0
 62
     0
100
AcDbLine
 10
3327.008307542728
 20
-1790.776314668216
 30
0.0
 11
3346.060999842119
 21
-1791.53864434898
 31
0.0
  0
LINE
  5
D736
330
6F
100
AcDbEntity
  8
0
 62
     0
100
AcDbLine
 10
3346.060999842119
 20
-1791.53864434898
 30
0.0
 11
3348.347484364438
 21
-1790.014489507426
 31
0.0
  0
LINE
  5
D737
330
6F
100
AcDbEntity
  8
0
 62
     0
100
AcDbLine
 10
3348.347484364438
 20
-1790.014489507426
 30
0.0
 11
3350.633968886757
 21
-1780.869055938125
 31
0.0
  0
LINE
  5
D738
330
6F
100
AcDbEntity
  8
0
 62
     0
100
AcDbLine
 10
3350.633968886757
 20
-1780.869055938125
 30
0.0
 11
3352.158123728311
 21
-1780.869055938125
 31
0.0
  0
LINE
  5
D739
330
6F
100
AcDbEntity
  8
0
 62
     0
100
AcDbLine
 10
3352.158123728311
 20
-1780.869055938125
 30
0.0
 11
3356.731092772949
 21
-1786.965675304343
 31
0.0
  0
LINE
  5
D73A
330
6F
100
AcDbEntity
  8
0
 62
     0
100
AcDbLine
 10
3356.731092772949
 20
-1786.965675304343
 30
0.0
 11
3362.065886978376
 21
-1790.776314668216
 31
0.0
  0
LINE
  5
D73B
330
6F
100
AcDbEntity
  8
0
 62
     0
100
AcDbLine
 10
3362.065886978376
 20
-1790.776314668216
 30
0.0
 11
3365.876021822276
 21
-1790.776314668216
 31
0.0
  0
LINE
  5
D73C
330
6F
100
AcDbEntity
  8
0
 62
     0
100
AcDbLine
 10
3365.876021822276
 20
-1790.776314668216
 30
0.0
 11
3368.162506344594
 21
-1791.53864434898
 31
0.0
  0
LINE
  5
D73D
330
6F
100
AcDbEntity
  8
0
 62
     0
100
AcDbLine
 10
3368.162506344594
 20
-1791.53864434898
 30
0.0
 11
3375.021455391577
 21
-1789.252159826662
 31
0.0
  0
LINE
  5
D73E
330
6F
100
AcDbEntity
  8
0
 62
     0
100
AcDbLine
 10
3375.021455391577
 20
-1789.252159826662
 30
0.0
 11
3380.356249597004
 21
-1783.155540460444
 31
0.0
  0
LINE
  5
D73F
330
6F
100
AcDbEntity
  8
0
 62
     0
100
AcDbLine
 10
3380.356249597004
 20
-1783.155540460444
 30
0.0
 11
3381.880404438558
 21
-1780.106726257361
 31
0.0
  0
LINE
  5
D740
330
6F
100
AcDbEntity
  8
0
 62
     0
100
AcDbLine
 10
3381.880404438558
 20
-1780.106726257361
 30
0.0
 11
3383.405063800088
 21
-1780.106726257361
 31
0.0
  0
LINE
  5
D741
330
6F
100
AcDbEntity
  8
0
 62
     0
100
AcDbLine
 10
3383.405063800088
 20
-1780.106726257361
 30
0.0
 11
3386.453373483196
 21
-1790.776314668216
 31
0.0
  0
LINE
  5
D742
330
6F
100
AcDbEntity
  8
0
 62
     0
100
AcDbLine
 10
3386.453373483196
 20
-1790.776314668216
 30
0.0
 11
3387.215198643986
 21
-1790.776314668216
 31
0.0
  0
LINE
  5
D743
330
6F
100
AcDbEntity
  8
0
 62
     0
100
AcDbLine
 10
3387.215198643986
 20
-1790.776314668216
 30
0.0
 11
3397.122961894052
 21
-1791.53864434898
 31
0.0
  0
LINE
  5
D745
330
6F
100
AcDbEntity
  8
0
 62
     0
100
AcDbLine
 10
3246.986394461311
 20
-1791.53864434898
 30
0.0
 11
3238.603290572775
 21
-1788.490334665871
 31
0.0
  0
LINE
  5
D746
330
6F
100
AcDbEntity
  8
0
 62
     0
100
AcDbLine
 10
3238.603290572775
 20
-1788.490334665871
 30
0.0
 11
3232.506166686583
 21
-1781.630881098915
 31
0.0
  0
LINE
  5
D747
330
6F
100
AcDbEntity
  8
0
 62
     0
100
AcDbLine
 10
3232.506166686583
 20
-1781.630881098915
 30
0.0
 11
3230.982011845028
 21
-1780.869055938125
 31
0.0
  0
LINE
  5
D749
330
6F
100
AcDbEntity
  8
0
 62
     0
100
AcDbLine
 10
3246.986394461311
 20
-1791.53864434898
 30
0.0
 11
3255.369498349849
 21
-1789.252159826662
 31
0.0
  0
LINE
  5
D74A
330
6F
100
AcDbEntity
  8
0
 62
     0
100
AcDbLine
 10
3255.369498349849
 20
-1789.252159826662
 30
0.0
 11
3261.466622236041
 21
-1781.630881098915
 31
0.0
  0
LINE
  5
D74B
330
6F
100
AcDbEntity
  8
0
 62
     0
100
AcDbLine
 10
3261.466622236041
 20
-1781.630881098915
 30
0.0
 11
3263.752602238386
 21
-1780.106726257361
 31
0.0
  0
LINE
  5
D74C
330
6F
100
AcDbEntity
  8
0
 62
     0
100
AcDbLine
 10
3263.752602238386
 20
-1780.106726257361
 30
0.0
 11
3266.801416441468
 21
-1790.776314668216
 31
0.0
  0
LINE
  5
D74D
330
6F
100
AcDbEntity
  8
0
 62
     0
100
AcDbLine
 10
3266.801416441468
 20
-1790.776314668216
 30
0.0
 11
3286.616438421624
 21
-1791.53864434898
 31
0.0
  0
LINE
  5
D74E
330
6F
100
AcDbEntity
  8
0
 62
     0
100
AcDbLine
 10
3286.616438421624
 20
-1791.53864434898
 30
0.0
 11
3288.902418423968
 21
-1789.252159826662
 31
0.0
  0
LINE
  5
D74F
330
6F
100
AcDbEntity
  8
0
 62
     0
100
AcDbLine
 10
3288.902418423968
 20
-1789.252159826662
 30
0.0
 11
3290.427077785497
 21
-1781.630881098915
 31
0.0
  0
LINE
  5
D750
330
6F
100
AcDbEntity
  8
0
 62
     0
100
AcDbLine
 10
3290.427077785497
 20
-1781.630881098915
 30
0.0
 11
3291.951232627053
 21
-1775.534261732697
 31
0.0
  0
LINE
  5
D756
330
6F
100
AcDbEntity
  8
0
 62
     0
100
AcDbLine
 10
3067.127041798351
 20
-1791.53864434898
 30
0.0
 11
3057.982112749023
 21
-1788.490334665871
 31
0.0
  0
LINE
  5
D757
330
6F
100
AcDbEntity
  8
0
 62
     0
100
AcDbLine
 10
3057.982112749023
 20
-1788.490334665871
 30
0.0
 11
3052.646814023622
 21
-1783.155540460444
 31
0.0
  0
LINE
  5
D758
330
6F
100
AcDbEntity
  8
0
 62
     0
100
AcDbLine
 10
3052.646814023622
 20
-1783.155540460444
 30
0.0
 11
3051.122659182068
 21
-1780.869055938125
 31
0.0
  0
LINE
  5
D75A
330
6F
100
AcDbEntity
  8
0
 62
     0
100
AcDbLine
 10
3067.127041798351
 20
-1791.53864434898
 30
0.0
 11
3074.748320526097
 21
-1789.252159826662
 31
0.0
  0
LINE
  5
D75B
330
6F
100
AcDbEntity
  8
0
 62
     0
100
AcDbLine
 10
3074.748320526097
 20
-1789.252159826662
 30
0.0
 11
3080.845444412289
 21
-1783.155540460444
 31
0.0
  0
LINE
  5
D75C
330
6F
100
AcDbEntity
  8
0
 62
     0
100
AcDbLine
 10
3080.845444412289
 20
-1783.155540460444
 30
0.0
 11
3083.131424414634
 21
-1780.869055938125
 31
0.0
  0
LINE
  5
D75D
330
6F
100
AcDbEntity
  8
0
 62
     0
100
AcDbLine
 10
3083.131424414634
 20
-1780.869055938125
 30
0.0
 11
3086.942063778507
 21
-1790.776314668216
 31
0.0
  0
LINE
  5
D75E
330
6F
100
AcDbEntity
  8
0
 62
     0
100
AcDbLine
 10
3086.942063778507
 20
-1790.776314668216
 30
0.0
 11
3105.995260597872
 21
-1791.53864434898
 31
0.0
  0
LINE
  5
D75F
330
6F
100
AcDbEntity
  8
0
 62
     0
100
AcDbLine
 10
3105.995260597872
 20
-1791.53864434898
 30
0.0
 11
3108.281240600217
 21
-1790.014489507426
 31
0.0
  0
LINE
  5
D760
330
6F
100
AcDbEntity
  8
0
 62
     0
100
AcDbLine
 10
3108.281240600217
 20
-1790.014489507426
 30
0.0
 11
3110.567725122537
 21
-1780.869055938125
 31
0.0
  0
LINE
  5
D761
330
6F
100
AcDbEntity
  8
0
 62
     0
100
AcDbLine
 10
3110.567725122537
 20
-1780.869055938125
 30
0.0
 11
3112.09187996409
 21
-1780.869055938125
 31
0.0
  0
LINE
  5
D762
330
6F
100
AcDbEntity
  8
0
 62
     0
100
AcDbLine
 10
3112.09187996409
 20
-1780.869055938125
 30
0.0
 11
3116.664849008728
 21
-1786.965675304343
 31
0.0
  0
LINE
  5
D763
330
6F
100
AcDbEntity
  8
0
 62
     0
100
AcDbLine
 10
3116.664849008728
 20
-1786.965675304343
 30
0.0
 11
3121.999643214156
 21
-1790.776314668216
 31
0.0
  0
LINE
  5
D764
330
6F
100
AcDbEntity
  8
0
 62
     0
100
AcDbLine
 10
3121.999643214156
 20
-1790.776314668216
 30
0.0
 11
3125.810282578029
 21
-1790.776314668216
 31
0.0
  0
LINE
  5
D765
330
6F
100
AcDbEntity
  8
0
 62
     0
100
AcDbLine
 10
3125.810282578029
 20
-1790.776314668216
 30
0.0
 11
3128.096262580374
 21
-1791.53864434898
 31
0.0
  0
LINE
  5
D766
330
6F
100
AcDbEntity
  8
0
 62
     0
100
AcDbLine
 10
3128.096262580374
 20
-1791.53864434898
 30
0.0
 11
3134.955211627356
 21
-1789.252159826662
 31
0.0
  0
LINE
  5
D767
330
6F
100
AcDbEntity
  8
0
 62
     0
100
AcDbLine
 10
3134.955211627356
 20
-1789.252159826662
 30
0.0
 11
3140.290005832784
 21
-1784.679695301998
 31
0.0
  0
LINE
  5
D768
330
6F
100
AcDbEntity
  8
0
 62
     0
100
AcDbLine
 10
3140.290005832784
 20
-1784.679695301998
 30
0.0
 11
3141.814665194312
 21
-1780.106726257361
 31
0.0
  0
LINE
  5
D769
330
6F
100
AcDbEntity
  8
0
 62
     0
100
AcDbLine
 10
3141.814665194312
 20
-1780.106726257361
 30
0.0
 11
3143.338820035866
 21
-1780.106726257361
 31
0.0
  0
LINE
  5
D76A
330
6F
100
AcDbEntity
  8
0
 62
     0
100
AcDbLine
 10
3143.338820035866
 20
-1780.106726257361
 30
0.0
 11
3146.387129718976
 21
-1790.776314668216
 31
0.0
  0
LINE
  5
D76B
330
6F
100
AcDbEntity
  8
0
 62
     0
100
AcDbLine
 10
3146.387129718976
 20
-1790.776314668216
 30
0.0
 11
3147.14945939974
 21
-1790.776314668216
 31
0.0
  0
LINE
  5
D76C
330
6F
100
AcDbEntity
  8
0
 62
     0
100
AcDbLine
 10
3147.14945939974
 20
-1790.776314668216
 30
0.0
 11
3166.202151699132
 21
-1791.53864434898
 31
0.0
  0
LINE
  5
D76D
330
6F
100
AcDbEntity
  8
0
 62
     0
100
AcDbLine
 10
3166.202151699132
 20
-1791.53864434898
 30
0.0
 11
3168.488636221451
 21
-1790.014489507426
 31
0.0
  0
LINE
  5
D76E
330
6F
100
AcDbEntity
  8
0
 62
     0
100
AcDbLine
 10
3168.488636221451
 20
-1790.014489507426
 30
0.0
 11
3170.012791063006
 21
-1780.869055938125
 31
0.0
  0
LINE
  5
D76F
330
6F
100
AcDbEntity
  8
0
 62
     0
100
AcDbLine
 10
3170.012791063006
 20
-1780.869055938125
 30
0.0
 11
3172.299275585324
 21
-1780.869055938125
 31
0.0
  0
LINE
  5
D770
330
6F
100
AcDbEntity
  8
0
 62
     0
100
AcDbLine
 10
3172.299275585324
 20
-1780.869055938125
 30
0.0
 11
3176.871740109988
 21
-1787.728004985107
 31
0.0
  0
LINE
  5
D771
330
6F
100
AcDbEntity
  8
0
 62
     0
100
AcDbLine
 10
3176.871740109988
 20
-1787.728004985107
 30
0.0
 11
3177.634069790751
 21
-1787.728004985107
 31
0.0
  0
LINE
  5
D772
330
6F
100
AcDbEntity
  8
0
 62
     0
100
AcDbLine
 10
3177.634069790751
 20
-1787.728004985107
 30
0.0
 11
3182.206534315416
 21
-1790.776314668216
 31
0.0
  0
LINE
  5
D773
330
6F
100
AcDbEntity
  8
0
 62
     0
100
AcDbLine
 10
3182.206534315416
 20
-1790.776314668216
 30
0.0
 11
3186.779503360053
 21
-1790.776314668216
 31
0.0
  0
LINE
  5
D774
330
6F
100
AcDbEntity
  8
0
 62
     0
100
AcDbLine
 10
3186.779503360053
 20
-1790.776314668216
 30
0.0
 11
3189.827813043161
 21
-1791.53864434898
 31
0.0
  0
LINE
  5
D775
330
6F
100
AcDbEntity
  8
0
 62
     0
100
AcDbLine
 10
3189.827813043161
 20
-1791.53864434898
 30
0.0
 11
3198.210916931699
 21
-1786.965675304343
 31
0.0
  0
LINE
  5
D776
330
6F
100
AcDbEntity
  8
0
 62
     0
100
AcDbLine
 10
3198.210916931699
 20
-1786.965675304343
 30
0.0
 11
3202.021556295572
 21
-1780.106726257361
 31
0.0
  0
LINE
  5
D777
330
6F
100
AcDbEntity
  8
0
 62
     0
100
AcDbLine
 10
3202.021556295572
 20
-1780.106726257361
 30
0.0
 11
3203.545711137126
 21
-1780.106726257361
 31
0.0
  0
LINE
  5
D778
330
6F
100
AcDbEntity
  8
0
 62
     0
100
AcDbLine
 10
3203.545711137126
 20
-1780.106726257361
 30
0.0
 11
3206.594020820235
 21
-1790.776314668216
 31
0.0
  0
LINE
  5
D779
330
6F
100
AcDbEntity
  8
0
 62
     0
100
AcDbLine
 10
3206.594020820235
 20
-1790.776314668216
 30
0.0
 11
3207.356350500998
 21
-1790.776314668216
 31
0.0
  0
LINE
  5
D77A
330
6F
100
AcDbEntity
  8
0
 62
     0
100
AcDbLine
 10
3207.356350500998
 20
-1790.776314668216
 30
0.0
 11
3226.409042800391
 21
-1791.53864434898
 31
0.0
  0
LINE
  5
D77B
330
6F
100
AcDbEntity
  8
0
 62
     0
100
AcDbLine
 10
3226.409042800391
 20
-1791.53864434898
 30
0.0
 11
3228.69552732271
 21
-1790.014489507426
 31
0.0
  0
LINE
  5
D77C
330
6F
100
AcDbEntity
  8
0
 62
     0
100
AcDbLine
 10
3228.69552732271
 20
-1790.014489507426
 30
0.0
 11
3230.219682164264
 21
-1780.869055938125
 31
0.0
  0
LINE
  5
D77D
330
6F
100
AcDbEntity
  8
0
 62
     0
100
AcDbLine
 10
3230.219682164264
 20
-1780.869055938125
 30
0.0
 11
3231.743837005819
 21
-1775.534261732697
 31
0.0
  0
LINE
  5
D780
330
6F
100
AcDbEntity
  8
0
 62
     0
100
AcDbLine
 10
3006.920150697091
 20
-1791.53864434898
 30
0.0
 11
2998.537046808554
 21
-1788.490334665871
 31
0.0
  0
LINE
  5
D781
330
6F
100
AcDbEntity
  8
0
 62
     0
100
AcDbLine
 10
2998.537046808554
 20
-1788.490334665871
 30
0.0
 11
2992.439922922363
 21
-1781.630881098915
 31
0.0
  0
LINE
  5
D782
330
6F
100
AcDbEntity
  8
0
 62
     0
100
AcDbLine
 10
2992.439922922363
 20
-1781.630881098915
 30
0.0
 11
2990.915768080808
 21
-1780.869055938125
 31
0.0
  0
LINE
  5
D784
330
6F
100
AcDbEntity
  8
0
 62
     0
100
AcDbLine
 10
3006.920150697091
 20
-1791.53864434898
 30
0.0
 11
3015.303254585628
 21
-1789.252159826662
 31
0.0
  0
LINE
  5
D785
330
6F
100
AcDbEntity
  8
0
 62
     0
100
AcDbLine
 10
3015.303254585628
 20
-1789.252159826662
 30
0.0
 11
3020.638048791056
 21
-1783.155540460444
 31
0.0
  0
LINE
  5
D786
330
6F
100
AcDbEntity
  8
0
 62
     0
100
AcDbLine
 10
3020.638048791056
 20
-1783.155540460444
 30
0.0
 11
3022.162708152584
 21
-1780.106726257361
 31
0.0
  0
LINE
  5
D787
330
6F
100
AcDbEntity
  8
0
 62
     0
100
AcDbLine
 10
3022.162708152584
 20
-1780.106726257361
 30
0.0
 11
3023.686862994138
 21
-1780.106726257361
 31
0.0
  0
LINE
  5
D788
330
6F
100
AcDbEntity
  8
0
 62
     0
100
AcDbLine
 10
3023.686862994138
 20
-1780.106726257361
 30
0.0
 11
3026.735172677247
 21
-1790.776314668216
 31
0.0
  0
LINE
  5
D789
330
6F
100
AcDbEntity
  8
0
 62
     0
100
AcDbLine
 10
3026.735172677247
 20
-1790.776314668216
 30
0.0
 11
3027.497502358012
 21
-1790.776314668216
 31
0.0
  0
LINE
  5
D78A
330
6F
100
AcDbEntity
  8
0
 62
     0
100
AcDbLine
 10
3027.497502358012
 20
-1790.776314668216
 30
0.0
 11
3046.550194657404
 21
-1791.53864434898
 31
0.0
  0
LINE
  5
D78B
330
6F
100
AcDbEntity
  8
0
 62
     0
100
AcDbLine
 10
3046.550194657404
 20
-1791.53864434898
 30
0.0
 11
3048.836679179723
 21
-1789.252159826662
 31
0.0
  0
LINE
  5
D78C
330
6F
100
AcDbEntity
  8
0
 62
     0
100
AcDbLine
 10
3048.836679179723
 20
-1789.252159826662
 30
0.0
 11
3050.360834021277
 21
-1781.630881098915
 31
0.0
  0
LINE
  5
D78D
330
6F
100
AcDbEntity
  8
0
 62
     0
100
AcDbLine
 10
3050.360834021277
 20
-1781.630881098915
 30
0.0
 11
3051.884988862832
 21
-1775.534261732697
 31
0.0
  0
LINE
  5
D793
330
6F
100
AcDbEntity
  8
0
 62
     0
100
AcDbLine
 10
2856.783583264351
 20
-1791.53864434898
 30
0.0
 11
2867.453171675207
 21
-1790.776314668216
 31
0.0
  0
LINE
  5
D794
330
6F
100
AcDbEntity
  8
0
 62
     0
100
AcDbLine
 10
2867.453171675207
 20
-1790.776314668216
 30
0.0
 11
2870.501481358316
 21
-1780.869055938125
 31
0.0
  0
LINE
  5
D795
330
6F
100
AcDbEntity
  8
0
 62
     0
100
AcDbLine
 10
2870.501481358316
 20
-1780.869055938125
 30
0.0
 11
2872.02563619987
 21
-1780.869055938125
 31
0.0
  0
LINE
  5
D796
330
6F
100
AcDbEntity
  8
0
 62
     0
100
AcDbLine
 10
2872.02563619987
 20
-1780.869055938125
 30
0.0
 11
2876.598605244507
 21
-1786.965675304343
 31
0.0
  0
LINE
  5
D797
330
6F
100
AcDbEntity
  8
0
 62
     0
100
AcDbLine
 10
2876.598605244507
 20
-1786.965675304343
 30
0.0
 11
2881.933399449935
 21
-1790.776314668216
 31
0.0
  0
LINE
  5
D798
330
6F
100
AcDbEntity
  8
0
 62
     0
100
AcDbLine
 10
2881.933399449935
 20
-1790.776314668216
 30
0.0
 11
2885.744038813808
 21
-1790.776314668216
 31
0.0
  0
LINE
  5
D799
330
6F
100
AcDbEntity
  8
0
 62
     0
100
AcDbLine
 10
2885.744038813808
 20
-1790.776314668216
 30
0.0
 11
2888.030018816153
 21
-1791.53864434898
 31
0.0
  0
LINE
  5
D79A
330
6F
100
AcDbEntity
  8
0
 62
     0
100
AcDbLine
 10
2888.030018816153
 20
-1791.53864434898
 30
0.0
 11
2894.88947238311
 21
-1789.252159826662
 31
0.0
  0
LINE
  5
D79B
330
6F
100
AcDbEntity
  8
0
 62
     0
100
AcDbLine
 10
2894.88947238311
 20
-1789.252159826662
 30
0.0
 11
2900.986091749327
 21
-1783.155540460444
 31
0.0
  0
LINE
  5
D79C
330
6F
100
AcDbEntity
  8
0
 62
     0
100
AcDbLine
 10
2900.986091749327
 20
-1783.155540460444
 30
0.0
 11
2901.748421430092
 21
-1780.106726257361
 31
0.0
  0
LINE
  5
D79D
330
6F
100
AcDbEntity
  8
0
 62
     0
100
AcDbLine
 10
2901.748421430092
 20
-1780.106726257361
 30
0.0
 11
2903.272576271646
 21
-1780.106726257361
 31
0.0
  0
LINE
  5
D79E
330
6F
100
AcDbEntity
  8
0
 62
     0
100
AcDbLine
 10
2903.272576271646
 20
-1780.106726257361
 30
0.0
 11
2906.320885954755
 21
-1790.776314668216
 31
0.0
  0
LINE
  5
D79F
330
6F
100
AcDbEntity
  8
0
 62
     0
100
AcDbLine
 10
2906.320885954755
 20
-1790.776314668216
 30
0.0
 11
2907.08321563552
 21
-1790.776314668216
 31
0.0
  0
LINE
  5
D7A0
330
6F
100
AcDbEntity
  8
0
 62
     0
100
AcDbLine
 10
2907.08321563552
 20
-1790.776314668216
 30
0.0
 11
2926.135907934912
 21
-1791.53864434898
 31
0.0
  0
LINE
  5
D7A1
330
6F
100
AcDbEntity
  8
0
 62
     0
100
AcDbLine
 10
2926.135907934912
 20
-1791.53864434898
 30
0.0
 11
2928.42239245723
 21
-1790.014489507426
 31
0.0
  0
LINE
  5
D7A2
330
6F
100
AcDbEntity
  8
0
 62
     0
100
AcDbLine
 10
2928.42239245723
 20
-1790.014489507426
 30
0.0
 11
2929.946547298785
 21
-1780.869055938125
 31
0.0
  0
LINE
  5
D7A3
330
6F
100
AcDbEntity
  8
0
 62
     0
100
AcDbLine
 10
2929.946547298785
 20
-1780.869055938125
 30
0.0
 11
2932.233031821103
 21
-1780.869055938125
 31
0.0
  0
LINE
  5
D7A4
330
6F
100
AcDbEntity
  8
0
 62
     0
100
AcDbLine
 10
2932.233031821103
 20
-1780.869055938125
 30
0.0
 11
2936.805496345767
 21
-1787.728004985107
 31
0.0
  0
LINE
  5
D7A5
330
6F
100
AcDbEntity
  8
0
 62
     0
100
AcDbLine
 10
2936.805496345767
 20
-1787.728004985107
 30
0.0
 11
2937.567826026531
 21
-1787.728004985107
 31
0.0
  0
LINE
  5
D7A6
330
6F
100
AcDbEntity
  8
0
 62
     0
100
AcDbLine
 10
2937.567826026531
 20
-1787.728004985107
 30
0.0
 11
2942.140290551195
 21
-1790.776314668216
 31
0.0
  0
LINE
  5
D7A7
330
6F
100
AcDbEntity
  8
0
 62
     0
100
AcDbLine
 10
2942.140290551195
 20
-1790.776314668216
 30
0.0
 11
2946.713259595832
 21
-1790.776314668216
 31
0.0
  0
LINE
  5
D7A8
330
6F
100
AcDbEntity
  8
0
 62
     0
100
AcDbLine
 10
2946.713259595832
 20
-1790.776314668216
 30
0.0
 11
2949.761569278941
 21
-1791.53864434898
 31
0.0
  0
LINE
  5
D7A9
330
6F
100
AcDbEntity
  8
0
 62
     0
100
AcDbLine
 10
2949.761569278941
 20
-1791.53864434898
 30
0.0
 11
2958.144673167477
 21
-1786.965675304343
 31
0.0
  0
LINE
  5
D7AA
330
6F
100
AcDbEntity
  8
0
 62
     0
100
AcDbLine
 10
2958.144673167477
 20
-1786.965675304343
 30
0.0
 11
2961.955312531351
 21
-1780.106726257361
 31
0.0
  0
LINE
  5
D7AB
330
6F
100
AcDbEntity
  8
0
 62
     0
100
AcDbLine
 10
2961.955312531351
 20
-1780.106726257361
 30
0.0
 11
2963.479467372905
 21
-1780.106726257361
 31
0.0
  0
LINE
  5
D7AC
330
6F
100
AcDbEntity
  8
0
 62
     0
100
AcDbLine
 10
2963.479467372905
 20
-1780.106726257361
 30
0.0
 11
2966.528281575989
 21
-1790.776314668216
 31
0.0
  0
LINE
  5
D7AD
330
6F
100
AcDbEntity
  8
0
 62
     0
100
AcDbLine
 10
2966.528281575989
 20
-1790.776314668216
 30
0.0
 11
2967.290106736778
 21
-1790.776314668216
 31
0.0
  0
LINE
  5
D7AE
330
6F
100
AcDbEntity
  8
0
 62
     0
100
AcDbLine
 10
2967.290106736778
 20
-1790.776314668216
 30
0.0
 11
2986.343303556145
 21
-1791.53864434898
 31
0.0
  0
LINE
  5
D7AF
330
6F
100
AcDbEntity
  8
0
 62
     0
100
AcDbLine
 10
2986.343303556145
 20
-1791.53864434898
 30
0.0
 11
2988.62928355849
 21
-1790.014489507426
 31
0.0
  0
LINE
  5
D7B0
330
6F
100
AcDbEntity
  8
0
 62
     0
100
AcDbLine
 10
2988.62928355849
 20
-1790.014489507426
 30
0.0
 11
2990.153438400044
 21
-1780.869055938125
 31
0.0
  0
LINE
  5
D7B1
330
6F
100
AcDbEntity
  8
0
 62
     0
100
AcDbLine
 10
2990.153438400044
 20
-1780.869055938125
 30
0.0
 11
2991.678097761572
 21
-1775.534261732697
 31
0.0
  0
LINE
  5
D7B3
330
6F
100
AcDbEntity
  8
0
 62
     0
100
AcDbLine
 10
2827.061302554104
 20
-1791.53864434898
 30
0.0
 11
2817.915868984803
 21
-1788.490334665871
 31
0.0
  0
LINE
  5
D7B4
330
6F
100
AcDbEntity
  8
0
 62
     0
100
AcDbLine
 10
2817.915868984803
 20
-1788.490334665871
 30
0.0
 11
2812.581074779376
 21
-1783.155540460444
 31
0.0
  0
LINE
  5
D7B5
330
6F
100
AcDbEntity
  8
0
 62
     0
100
AcDbLine
 10
2812.581074779376
 20
-1783.155540460444
 30
0.0
 11
2811.818745098611
 21
-1775.534261732697
 31
0.0
  0
LINE
  5
D7B7
330
6F
100
AcDbEntity
  8
0
 62
     0
100
AcDbLine
 10
2827.061302554104
 20
-1791.53864434898
 30
0.0
 11
2834.682076761876
 21
-1789.252159826662
 31
0.0
  0
LINE
  5
D7B8
330
6F
100
AcDbEntity
  8
0
 62
     0
100
AcDbLine
 10
2834.682076761876
 20
-1789.252159826662
 30
0.0
 11
2840.779200648068
 21
-1783.155540460444
 31
0.0
  0
LINE
  5
D7B9
330
6F
100
AcDbEntity
  8
0
 62
     0
100
AcDbLine
 10
2840.779200648068
 20
-1783.155540460444
 30
0.0
 11
2843.065685170387
 21
-1780.869055938125
 31
0.0
  0
LINE
  5
D7BA
330
6F
100
AcDbEntity
  8
0
 62
     0
100
AcDbLine
 10
2843.065685170387
 20
-1780.869055938125
 30
0.0
 11
2846.875820014287
 21
-1790.776314668216
 31
0.0
  0
LINE
  5
D7BB
330
6F
100
AcDbEntity
  8
0
 62
     0
100
AcDbLine
 10
2846.875820014287
 20
-1790.776314668216
 30
0.0
 11
2856.783583264351
 21
-1791.53864434898
 31
0.0
  0
LINE
  5
D87C
330
6F
100
AcDbEntity
  8
0
 62
     0
100
AcDbLine
 10
2449.814059770343
 20
-1815.9261308538
 30
0.0
 11
2449.814059770343
 21
-1827.35804894542
 31
0.0
  0
LINE
  5
D883
330
6F
100
AcDbEntity
  8
0
 62
     0
100
AcDbLine
 10
2452.862873973426
 20
-1816.688460534565
 30
0.0
 11
2452.100544292662
 21
-1815.9261308538
 31
0.0
  0
LINE
  5
D884
330
6F
100
AcDbEntity
  8
0
 62
     0
100
AcDbLine
 10
2452.862873973426
 20
-1816.688460534565
 30
0.0
 11
2449.814059770343
 21
-1815.9261308538
 31
0.0
  0
LINE
  5
D885
330
6F
100
AcDbEntity
  8
0
 62
     0
100
AcDbLine
 10
2449.814059770343
 20
-1815.9261308538
 30
0.0
 11
2449.052234609554
 21
-1813.640150851455
 31
0.0
  0
LINE
  5
D886
330
6F
100
AcDbEntity
  8
0
 62
     0
100
AcDbLine
 10
2449.052234609554
 20
-1813.640150851455
 30
0.0
 11
2426.188902946288
 21
-1813.640150851455
 31
0.0
  0
LINE
  5
D887
330
6F
100
AcDbEntity
  8
0
 62
     0
100
AcDbLine
 10
2426.188902946288
 20
-1813.640150851455
 30
0.0
 11
2426.188902946288
 21
-1827.35804894542
 31
0.0
  0
LINE
  5
D888
330
6F
100
AcDbEntity
  8
0
 62
     0
100
AcDbLine
 10
2452.862873973426
 20
-1816.688460534565
 30
0.0
 11
2452.862873973426
 21
-1840.314121878594
 31
0.0
  0
LINE
  5
D889
330
6F
100
AcDbEntity
  8
0
 62
     0
100
AcDbLine
 10
2452.862873973426
 20
-1816.688460534565
 30
0.0
 11
2468.104926908945
 21
-1816.688460534565
 31
0.0
  0
LINE
  5
D892
330
6F
100
AcDbEntity
  8
0
 62
     0
100
AcDbLine
 10
2529.074147690968
 20
-1817.450285695355
 30
0.0
 11
2529.074147690968
 21
-1840.314121878594
 31
0.0
  0
LINE
  5
D8A4
330
6F
100
AcDbEntity
  8
0
 62
     0
100
AcDbLine
 10
2532.884787054842
 20
-1818.974945056883
 30
0.0
 11
2532.122457374077
 21
-1818.974945056883
 31
0.0
  0
LINE
  5
D8A8
330
6F
100
AcDbEntity
  8
0
 62
     0
100
AcDbLine
 10
2550.41332451268
 20
-1819.736770217673
 30
0.0
 11
2549.651499351889
 21
-1819.736770217673
 31
0.0
  0
LINE
  5
D8A9
330
6F
100
AcDbEntity
  8
0
 62
     0
100
AcDbLine
 10
2550.41332451268
 20
-1819.736770217673
 30
0.0
 11
2628.14925759175
 21
-1819.736770217673
 31
0.0
  0
LINE
  5
D93C
330
6F
100
AcDbEntity
  8
0
 62
     0
100
AcDbLine
 10
2550.41332451268
 20
-1845.648916084022
 30
0.0
 11
2550.41332451268
 21
-1819.736770217673
 31
0.0
  0
LINE
  5
D93D
330
6F
100
AcDbEntity
  8
0
 62
     0
100
AcDbLine
 10
2550.41332451268
 20
-1819.736770217673
 30
0.0
 11
2549.651499351889
 21
-1818.974945056883
 31
0.0
  0
LINE
  5
D93E
330
6F
100
AcDbEntity
  8
0
 62
     0
100
AcDbLine
 10
2549.651499351889
 20
-1818.974945056883
 30
0.0
 11
2548.12683999036
 21
-1818.974945056883
 31
0.0
  0
LINE
  5
D93F
330
6F
100
AcDbEntity
  8
0
 62
     0
100
AcDbLine
 10
2548.12683999036
 20
-1818.974945056883
 30
0.0
 11
2547.365014829571
 21
-1818.212615376119
 31
0.0
  0
LINE
  5
D940
330
6F
100
AcDbEntity
  8
0
 62
     0
100
AcDbLine
 10
2547.365014829571
 20
-1818.212615376119
 30
0.0
 11
2545.840859988016
 21
-1818.212615376119
 31
0.0
  0
LINE
  5
D945
330
6F
100
AcDbEntity
  8
0
 62
     0
100
AcDbLine
 10
2545.840859988016
 20
-1846.410741244812
 30
0.0
 11
2549.651499351889
 21
-1846.410741244812
 31
0.0
  0
LINE
  5
D946
330
6F
100
AcDbEntity
  8
0
 62
     0
100
AcDbLine
 10
2549.651499351889
 20
-1846.410741244812
 30
0.0
 11
2550.41332451268
 21
-1845.648916084022
 31
0.0
  0
LINE
  5
D947
330
6F
100
AcDbEntity
  8
0
 62
     0
100
AcDbLine
 10
2550.41332451268
 20
-1845.648916084022
 30
0.0
 11
2576.325470379029
 21
-1845.648916084022
 31
0.0
  0
LINE
  5
D948
330
6F
100
AcDbEntity
  8
0
 62
     0
100
AcDbLine
 10
2576.325470379029
 20
-1845.648916084022
 30
0.0
 11
2577.087295539818
 21
-1846.410741244812
 31
0.0
  0
LINE
  5
D94D
330
6F
100
AcDbEntity
  8
0
 62
     0
100
AcDbLine
 10
2587.756883950673
 20
-1847.173070925576
 30
0.0
 11
2586.232729109119
 21
-1845.648916084022
 31
0.0
  0
LINE
  5
D94E
330
6F
100
AcDbEntity
  8
0
 62
     0
100
AcDbLine
 10
2586.232729109119
 20
-1845.648916084022
 30
0.0
 11
2577.087295539818
 21
-1846.410741244812
 31
0.0
  0
LINE
  5
D94F
330
6F
100
AcDbEntity
  8
0
 62
     0
100
AcDbLine
 10
2577.087295539818
 20
-1846.410741244812
 30
0.0
 11
2577.849625220582
 21
-1848.697225767131
 31
0.0
  0
LINE
  5
D950
330
6F
100
AcDbEntity
  8
0
 62
     0
100
AcDbLine
 10
2577.849625220582
 20
-1848.697225767131
 30
0.0
 11
2586.995058789883
 21
-1847.934896086367
 31
0.0
  0
LINE
  5
D951
330
6F
100
AcDbEntity
  8
0
 62
     0
100
AcDbLine
 10
2586.995058789883
 20
-1847.934896086367
 30
0.0
 11
2627.386927910985
 21
-1847.173070925576
 31
0.0
  0
LINE
  5
D952
330
6F
100
AcDbEntity
  8
0
 62
     0
100
AcDbLine
 10
2534.408941896396
 20
-1847.173070925576
 30
0.0
 11
2532.122457374077
 21
-1847.173070925576
 31
0.0
  0
LINE
  5
D953
330
6F
100
AcDbEntity
  8
0
 62
     0
100
AcDbLine
 10
2532.122457374077
 20
-1847.173070925576
 30
0.0
 11
2531.360632213287
 21
-1847.934896086367
 31
0.0
  0
LINE
  5
D954
330
6F
100
AcDbEntity
  8
0
 62
     0
100
AcDbLine
 10
2531.360632213287
 20
-1847.934896086367
 30
0.0
 11
2529.836477371733
 21
-1847.934896086367
 31
0.0
  0
LINE
  5
D955
330
6F
100
AcDbEntity
  8
0
 62
     0
100
AcDbLine
 10
2529.836477371733
 20
-1847.934896086367
 30
0.0
 11
2529.074147690968
 21
-1848.697225767131
 31
0.0
  0
LINE
  5
D956
330
6F
100
AcDbEntity
  8
0
 62
     0
100
AcDbLine
 10
2529.074147690968
 20
-1848.697225767131
 30
0.0
 11
2513.069765074686
 21
-1848.697225767131
 31
0.0
  0
LINE
  5
D957
330
6F
100
AcDbEntity
  8
0
 62
     0
100
AcDbLine
 10
2534.408941896396
 20
-1847.173070925576
 30
0.0
 11
2545.840859988016
 21
-1847.934896086367
 31
0.0
  0
LINE
  5
D958
330
6F
100
AcDbEntity
  8
0
 62
     0
100
AcDbLine
 10
2545.840859988016
 20
-1847.934896086367
 30
0.0
 11
2545.078530307252
 21
-1817.450285695355
 31
0.0
  0
LINE
  5
D959
330
6F
100
AcDbEntity
  8
0
 62
     0
100
AcDbLine
 10
2545.078530307252
 20
-1817.450285695355
 30
0.0
 11
2534.408941896396
 21
-1818.212615376119
 31
0.0
  0
LINE
  5
D95A
330
6F
100
AcDbEntity
  8
0
 62
     0
100
AcDbLine
 10
2534.408941896396
 20
-1818.212615376119
 30
0.0
 11
2532.884787054842
 21
-1818.974945056883
 31
0.0
  0
LINE
  5
D95B
330
6F
100
AcDbEntity
  8
0
 62
     0
100
AcDbLine
 10
2534.408941896396
 20
-1847.173070925576
 30
0.0
 11
2533.647116735606
 21
-1841.075947039384
 31
0.0
  0
LINE
  5
D95C
330
6F
100
AcDbEntity
  8
0
 62
     0
100
AcDbLine
 10
2533.647116735606
 20
-1841.075947039384
 30
0.0
 11
2532.122457374077
 21
-1818.212615376119
 31
0.0
  0
LINE
  5
D95D
330
6F
100
AcDbEntity
  8
0
 62
     0
100
AcDbLine
 10
2532.122457374077
 20
-1818.212615376119
 30
0.0
 11
2528.312322530179
 21
-1816.688460534565
 31
0.0
  0
LINE
  5
D95E
330
6F
100
AcDbEntity
  8
0
 62
     0
100
AcDbLine
 10
2528.312322530179
 20
-1816.688460534565
 30
0.0
 11
2513.069765074686
 21
-1816.688460534565
 31
0.0
  0
LINE
  5
D982
330
6F
100
AcDbEntity
  8
0
 62
     0
100
AcDbLine
 10
2449.814059770343
 20
-1849.459555447895
 30
0.0
 11
2449.814059770343
 21
-1851.74553545024
 31
0.0
  0
LINE
  5
D983
330
6F
100
AcDbEntity
  8
0
 62
     0
100
AcDbLine
 10
2449.814059770343
 20
-1851.74553545024
 30
0.0
 11
2426.188902946288
 21
-1851.74553545024
 31
0.0
  0
LINE
  5
D984
330
6F
100
AcDbEntity
  8
0
 62
     0
100
AcDbLine
 10
2426.188902946288
 20
-1851.74553545024
 30
0.0
 11
2426.188902946288
 21
-1838.789462517065
 31
0.0
  0
LINE
  5
D985
330
6F
100
AcDbEntity
  8
0
 62
     0
100
AcDbLine
 10
2449.814059770343
 20
-1849.459555447895
 30
0.0
 11
2451.338719131872
 21
-1849.459555447895
 31
0.0
  0
LINE
  5
D986
330
6F
100
AcDbEntity
  8
0
 62
     0
100
AcDbLine
 10
2451.338719131872
 20
-1849.459555447895
 30
0.0
 11
2452.100544292662
 21
-1848.697225767131
 31
0.0
  0
LINE
  5
D987
330
6F
100
AcDbEntity
  8
0
 62
     0
100
AcDbLine
 10
2452.100544292662
 20
-1848.697225767131
 30
0.0
 11
2468.104926908945
 21
-1848.697225767131
 31
0.0
  0
LINE
  5
D988
330
6F
100
AcDbEntity
  8
0
 62
     0
100
AcDbLine
 10
2449.814059770343
 20
-1849.459555447895
 30
0.0
 11
2449.814059770343
 21
-1838.789462517065
 31
0.0
  0
LINE
  5
DA1B
330
6F
100
AcDbEntity
  8
0
 62
     0
100
AcDbLine
 10
3397.122961894052
 20
-1863.177453541859
 30
0.0
 11
3540.400580279809
 21
-1863.177453541859
 31
0.0
  0
LINE
  5
DA1C
330
6F
100
AcDbEntity
  8
0
 62
     0
100
AcDbLine
 10
3367.400681183805
 20
-1863.177453541859
 30
0.0
 11
3397.122961894052
 21
-1863.177453541859
 31
0.0
  0
LINE
  5
DA1D
330
6F
100
AcDbEntity
  8
0
 62
     0
100
AcDbLine
 10
2856.783583264351
 20
-1863.177453541859
 30
0.0
 11
3367.400681183805
 21
-1863.177453541859
 31
0.0
  0
LINE
  5
DA1E
330
6F
100
AcDbEntity
  8
0
 62
     0
100
AcDbLine
 10
2827.061302554104
 20
-1863.177453541859
 30
0.0
 11
2856.783583264351
 21
-1863.177453541859
 31
0.0
  0
LINE
  5
DA1F
330
6F
100
AcDbEntity
  8
0
 62
     0
100
AcDbLine
 10
2799.625001846201
 20
-1863.177453541859
 30
0.0
 11
2827.061302554104
 21
-1863.177453541859
 31
0.0
  0
LINE
  5
DA83
330
6F
100
AcDbEntity
  8
0
 62
     0
100
AcDbLine
 10
2762.281442408207
 20
-1872.32288711116
 30
0.0
 11
2628.14925759175
 21
-1871.560557430396
 31
0.0
  0
LINE
  5
DA84
330
6F
100
AcDbEntity
  8
0
 62
     0
100
AcDbLine
 10
2628.14925759175
 20
-1871.560557430396
 30
0.0
 11
2628.14925759175
 21
-1794.58695403209
 31
0.0
  0
LINE
  5
DA85
330
6F
100
AcDbEntity
  8
0
 62
     0
100
AcDbLine
 10
2628.14925759175
 20
-1794.58695403209
 30
0.0
 11
2762.281442408207
 21
-1794.58695403209
 31
0.0
  0
LINE
  5
DAA1
330
6F
100
AcDbEntity
  8
0
 62
     0
100
AcDbLine
 10
2762.281442408207
 20
-1893.662063932871
 30
0.0
 11
2762.281442408207
 21
-1690.177554445854
 31
0.0
  0
LINE
  5
DB1D
330
6F
100
AcDbEntity
  8
0
 62
     0
100
AcDbLine
 10
2741.704090747286
 20
-1919.573705279245
 30
0.0
 11
2761.519112727442
 21
-1919.573705279245
 31
0.0
  0
LINE
  5
DB1E
330
6F
100
AcDbEntity
  8
0
 62
     0
100
AcDbLine
 10
2761.519112727442
 20
-1919.573705279245
 30
0.0
 11
2762.281442408207
 21
-1920.33603496001
 31
0.0
  0
LINE
  5
DB27
330
6F
100
AcDbEntity
  8
0
 62
     0
100
AcDbLine
 10
3540.400580279809
 20
-1925.670829165437
 30
0.0
 11
3540.400580279809
 21
-1775.534261732697
 31
0.0
  0
LINE
  5
DB28
330
6F
100
AcDbEntity
  8
0
 62
     0
100
AcDbLine
 10
3540.400580279809
 20
-1775.534261732697
 30
0.0
 11
3554.880808054538
 21
-1774.771932051933
 31
0.0
  0
LINE
  5
DB29
330
6F
100
AcDbEntity
  8
0
 62
     0
100
AcDbLine
 10
3554.880808054538
 20
-1774.771932051933
 30
0.0
 11
3554.880808054538
 21
-1716.089195792228
 31
0.0
  0
LINE
  5
DB2A
330
6F
100
AcDbEntity
  8
0
 62
     0
100
AcDbLine
 10
3554.880808054538
 20
-1716.089195792228
 30
0.0
 11
3554.880808054538
 21
-1713.040886109119
 31
0.0
  0
LINE
  5
DB2B
330
6F
100
AcDbEntity
  8
0
 62
     0
100
AcDbLine
 10
3554.880808054538
 20
-1713.040886109119
 30
0.0
 11
3554.880808054538
 21
-1658.930614374078
 31
0.0
  0
LINE
  5
DB2C
330
6F
100
AcDbEntity
  8
0
 62
     0
100
AcDbLine
 10
3554.880808054538
 20
-1658.930614374078
 30
0.0
 11
3554.880808054538
 21
-1655.882304690969
 31
0.0
  0
LINE
  5
DB2D
330
6F
100
AcDbEntity
  8
0
 62
     0
100
AcDbLine
 10
3554.880808054538
 20
-1655.882304690969
 30
0.0
 11
3556.404962896092
 21
-1644.450386599349
 31
0.0
  0
LINE
  5
DB2E
330
6F
100
AcDbEntity
  8
0
 62
     0
100
AcDbLine
 10
3556.404962896092
 20
-1644.450386599349
 30
0.0
 11
3577.744139717803
 21
-1643.688561438559
 31
0.0
  0
LINE
  5
DB2F
330
6F
100
AcDbEntity
  8
0
 62
     0
100
AcDbLine
 10
3397.122961894052
 20
-1925.670829165437
 30
0.0
 11
3484.00382402245
 21
-1925.670829165437
 31
0.0
  0
LINE
  5
DB30
330
6F
100
AcDbEntity
  8
0
 62
     0
100
AcDbLine
 10
3484.00382402245
 20
-1925.670829165437
 30
0.0
 11
3512.202454411117
 21
-1926.432654326228
 31
0.0
  0
LINE
  5
DB31
330
6F
100
AcDbEntity
  8
0
 62
     0
100
AcDbLine
 10
3512.202454411117
 20
-1926.432654326228
 30
0.0
 11
3577.744139717803
 21
-1925.670829165437
 31
0.0
  0
LINE
  5
DB32
330
6F
100
AcDbEntity
  8
0
 62
     0
100
AcDbLine
 10
3577.744139717803
 20
-1925.670829165437
 30
0.0
 11
3576.981810037039
 21
-1627.683674302302
 31
0.0
  0
LINE
  5
DB33
330
6F
100
AcDbEntity
  8
0
 62
     0
100
AcDbLine
 10
3576.981810037039
 20
-1627.683674302302
 30
0.0
 11
2760.757287566653
 21
-1628.446003983066
 31
0.0
  0
LINE
  5
DB34
330
6F
100
AcDbEntity
  8
0
 62
     0
100
AcDbLine
 10
2760.757287566653
 20
-1628.446003983066
 30
0.0
 11
2761.519112727442
 21
-1645.974541440904
 31
0.0
  0
LINE
  5
DB35
330
6F
100
AcDbEntity
  8
0
 62
     0
100
AcDbLine
 10
2761.519112727442
 20
-1645.974541440904
 30
0.0
 11
2763.043267568998
 21
-1648.261025963223
 31
0.0
  0
LINE
  5
DB36
330
6F
100
AcDbEntity
  8
0
 62
     0
100
AcDbLine
 10
2763.043267568998
 20
-1648.261025963223
 30
0.0
 11
2762.281442408207
 21
-1690.177554445854
 31
0.0
  0
LINE
  5
DB37
330
6F
100
AcDbEntity
  8
0
 62
     0
100
AcDbLine
 10
2762.281442408207
 20
-1690.177554445854
 30
0.0
 11
2759.994957885889
 21
-1689.41522476509
 31
0.0
  0
LINE
  5
DB38
330
6F
100
AcDbEntity
  8
0
 62
     0
100
AcDbLine
 10
2759.994957885889
 20
-1689.41522476509
 30
0.0
 11
2760.757287566653
 21
-1648.261025963223
 31
0.0
  0
LINE
  5
DB39
330
6F
100
AcDbEntity
  8
0
 62
     0
100
AcDbLine
 10
2760.757287566653
 20
-1648.261025963223
 30
0.0
 11
2762.281442408207
 21
-1647.498696282458
 31
0.0
  0
LINE
  5
DB3A
330
6F
100
AcDbEntity
  8
0
 62
     0
100
AcDbLine
 10
3367.400681183805
 20
-1925.670829165437
 30
0.0
 11
3397.122961894052
 21
-1925.670829165437
 31
0.0
  0
LINE
  5
DBA1
330
6F
100
AcDbEntity
  8
0
 62
     0
100
AcDbLine
 10
2856.783583264351
 20
-1926.432654326228
 30
0.0
 11
2856.021253583587
 21
-1925.670829165437
 31
0.0
  0
LINE
  5
DBA2
330
6F
100
AcDbEntity
  8
0
 62
     0
100
AcDbLine
 10
2856.021253583587
 20
-1925.670829165437
 30
0.0
 11
2827.061302554104
 21
-1925.670829165437
 31
0.0
  0
LINE
  5
DBA3
330
6F
100
AcDbEntity
  8
0
 62
     0
100
AcDbLine
 10
2856.783583264351
 20
-1926.432654326228
 30
0.0
 11
3367.400681183805
 21
-1925.670829165437
 31
0.0
  0
LINE
  5
DBA4
330
6F
100
AcDbEntity
  8
0
 62
     0
100
AcDbLine
 10
2799.625001846201
 20
-1926.432654326228
 30
0.0
 11
2799.625001846201
 21
-1775.534261732697
 31
0.0
  0
LINE
  5
DBA5
330
6F
100
AcDbEntity
  8
0
 62
     0
100
AcDbLine
 10
2799.625001846201
 20
-1775.534261732697
 30
0.0
 11
2811.056919937821
 21
-1775.534261732697
 31
0.0
  0
LINE
  5
DBAC
330
6F
100
AcDbEntity
  8
0
 62
     0
100
AcDbLine
 10
2740.179935905732
 20
-1921.0978601208
 30
0.0
 11
2740.942265586496
 21
-1893.662063932871
 31
0.0
  0
LINE
  5
DBAD
330
6F
100
AcDbEntity
  8
0
 62
     0
100
AcDbLine
 10
2740.942265586496
 20
-1893.662063932871
 30
0.0
 11
2762.281442408207
 21
-1893.662063932871
 31
0.0
  0
LINE
  5
DBAE
330
6F
100
AcDbEntity
  8
0
 62
     0
100
AcDbLine
 10
2762.281442408207
 20
-1893.662063932871
 30
0.0
 11
2763.043267568998
 21
-1925.670829165437
 31
0.0
  0
LINE
  5
DBAF
330
6F
100
AcDbEntity
  8
0
 62
     0
100
AcDbLine
 10
2763.043267568998
 20
-1925.670829165437
 30
0.0
 11
2788.955413435346
 21
-1925.670829165437
 31
0.0
  0
LINE
  5
DBB0
330
6F
100
AcDbEntity
  8
0
 62
     0
100
AcDbLine
 10
2788.955413435346
 20
-1925.670829165437
 30
0.0
 11
2817.153539304038
 21
-1926.432654326228
 31
0.0
  0
LINE
  5
DBB1
330
6F
100
AcDbEntity
  8
0
 62
     0
100
AcDbLine
 10
2817.153539304038
 20
-1926.432654326228
 30
0.0
 11
2827.061302554104
 21
-1925.670829165437
 31
0.0
  0
ENDSEC
  0
SECTION
  2
OBJECTS
  0
DICTIONARY
  5
C
330
0
100
AcDbDictionary
281
     1
  3
ACAD_CIP_PREVIOUS_PRODUCT_INFO
350
CCB7
  3
ACAD_COLOR
350
62
  3
ACAD_DETAILVIEWSTYLE
350
69
  3
ACAD_GROUP
350
D
  3
ACAD_LAYOUT
350
61
  3
ACAD_MATERIAL
350
10
  3
ACAD_MLEADERSTYLE
350
65
  3
ACAD_MLINESTYLE
350
5E
  3
ACAD_PLOTSETTINGS
350
60
  3
ACAD_PLOTSTYLENAME
350
E
  3
ACAD_SCALELIST
350
42
  3
ACAD_SECTIONVIEWSTYLE
350
67
  3
ACAD_TABLESTYLE
350
63
  3
ACAD_VISUALSTYLE
350
29
  3
ACDBHEADERROUNDTRIPXREC
350
DED8
  3
AcDbVariableDictionary
350
DD60
  3
AcDsDecomposeData
350
DF1A
  3
DWGPROPS
350
DEDB
  0
DICTIONARY
  5
DEDC
330
8
100
AcDbDictionary
280
     1
281
     1
  3
ACAD_XREC_ROUNDTRIP
360
DEDD
  0
DICTIONARY
  5
DE4E
330
2
100
AcDbDictionary
280
     1
281
     1
  3
ACAD_LAYERSTATES
360
DE4F
  0
DICTIONARY
  5
DD25
330
54
100
AcDbDictionary
280
     1
281
     1
  3
ADSK_XREC_LAYER_RECONCILED
360
DD26
  0
DICTIONARY
  5
CCB9
330
6F
100
AcDbDictionary
280
     1
281
     1
  3
ACAD_SORTENTS
360
CCBA
  0
XRECORD
  5
CCB7
102
{ACAD_REACTORS
330
C
102
}
330
C
100
AcDbXrecord
280
     1
300
ACD
300
2014
300
ACD_F_S
  0
DICTIONARY
  5
62
102
{ACAD_REACTORS
330
C
102
}
330
C
100
AcDbDictionary
281
     1
  0
DICTIONARY
  5
69
102
{ACAD_REACTORS
330
C
102
}
330
C
100
AcDbDictionary
281
     1
  3
Imperial24
350
6A
  0
DICTIONARY
  5
D
102
{ACAD_REACTORS
330
C
102
}
330
C
100
AcDbDictionary
281
     1
  0
DICTIONARY
  5
61
102
{ACAD_REACTORS
330
C
102
}
330
C
100
AcDbDictionary
281
     1
  3
Layout1
350
6E
  3
Model
350
72
  0
DICTIONARY
  5
10
102
{ACAD_REACTORS
330
C
102
}
330
C
100
AcDbDictionary
281
     1
  3
ByBlock
350
19
  3
ByLayer
350
11
  3
Global
350
21
  0
DICTIONARY
  5
65
102
{ACAD_REACTORS
330
C
102
}
330
C
100
AcDbDictionary
281
     1
  3
Standard
350
66
  0
DICTIONARY
  5
5E
102
{ACAD_REACTORS
330
C
102
}
330
C
100
AcDbDictionary
281
     1
  3
Standard
350
5F
  0
DICTIONARY
  5
60
102
{ACAD_REACTORS
330
C
102
}
330
C
100
AcDbDictionary
281
     1
  0
ACDBDICTIONARYWDFLT
  5
E
102
{ACAD_REACTORS
330
C
102
}
330
C
100
AcDbDictionary
281
     1
  3
Normal
350
F
100
AcDbDictionaryWithDefault
340
F
  0
DICTIONARY
  5
42
102
{ACAD_REACTORS
330
C
102
}
330
C
100
AcDbDictionary
281
     1
  3
A0
350
43
  3
A1
350
44
  3
A2
350
45
  3
A3
350
46
  3
A4
350
47
  3
A5
350
48
  3
A6
350
49
  3
A7
350
4A
  3
A8
350
4B
  3
A9
350
4C
  3
B0
350
4D
  3
B1
350
4E
  3
B2
350
4F
  3
B3
350
50
  3
B4
350
51
  3
B5
350
52
  3
B6
350
53
  0
DICTIONARY
  5
67
102
{ACAD_REACTORS
330
C
102
}
330
C
100
AcDbDictionary
281
     1
  3
Imperial24
350
68
  0
DICTIONARY
  5
63
102
{ACAD_REACTORS
330
C
102
}
330
C
100
AcDbDictionary
281
     1
  3
Standard
350
64
  0
DICTIONARY
  5
29
102
{ACAD_REACTORS
330
C
102
}
330
C
100
AcDbDictionary
281
     1
  3
2dWireframe
350
2F
  3
Basic
350
2E
  3
Brighten
350
35
  3
ColorChange
350
39
  3
Conceptual
350
32
  3
Dim
350
34
  3
EdgeColorOff
350
41
  3
Facepattern
350
38
  3
Flat
350
2A
  3
FlatWithEdges
350
2B
  3
Gouraud
350
2C
  3
GouraudWithEdges
350
2D
  3
Hidden
350
31
  3
JitterOff
350
3F
  3
Linepattern
350
37
  3
OverhangOff
350
40
  3
Realistic
350
33
  3
Shaded
350
3E
  3
Shaded with edges
350
3D
  3
Shades of Gray
350
3A
  3
Sketchy
350
3B
  3
Thicken
350
36
  3
Wireframe
350
30
  3
X-Ray
350
3C
  0
DICTIONARY
  5
DED8
102
{ACAD_REACTORS
330
C
102
}
330
C
100
AcDbDictionary
281
     1
  3
COLORDICT
350
DED9
  3
MATERIALDICT
350
DEDA
  0
DICTIONARY
  5
DD60
102
{ACAD_REACTORS
330
C
102
}
330
C
100
AcDbDictionary
281
     1
  3
CANNOSCALE
350
DD66
  3
CMLEADERSTYLE
350
DD62
  3
CTABLESTYLE
350
DD61
  3
CVIEWDETAILSTYLE
350
DD63
  3
CVIEWSECTIONSTYLE
350
DD64
  3
DIMASSOC
350
DED6
  3
HIDETEXT
350
DED7
  3
LAYEREVAL
350
DD68
  3
LAYERNOTIFY
350
DD69
  3
LIGHTINGUNITS
350
DD67
  3
MSLTSCALE
350
DD65
  3
XCLIPFRAME
350
DED5
  0
DICTIONARY
  5
DF1A
102
{ACAD_REACTORS
330
C
102
}
330
C
100
AcDbDictionary
281
     1
  3
AcDsRecords
350
DF1B
  3
AcDsSchemas
350
DF1C
1001
ACAD
1070
     2
  0
XRECORD
  5
DEDB
102
{ACAD_REACTORS
330
C
102
}
330
C
100
AcDbXrecord
280
     1
  1
DWGPROPS COOKIE
  2

  3

  4

  6

  7

  8
New
  9

300
=
301
=
302
=
303
=
304
=
305
=
306
=
307
=
308
=
309
=
 40
0.0
 41
2456821.844799259
 42
2459842.367197708
  1

 90
        0
  0
XRECORD
  5
DEDD
102
{ACAD_REACTORS
330
DEDC
102
}
330
DEDC
100
AcDbXrecord
280
     1
102
VTR_0.000_0.000_1.000_1.000_VISUALSTYLE
340
2F
102
VTR_0.000_0.000_1.000_1.000_GRIDDISPLAY
 70
     3
102
VTR_0.000_0.000_1.000_1.000_GRIDMAJOR
 70
     5
102
VTR_0.000_0.000_1.000_1.000_DEFAULTLIGHTING
280
     1
102
VTR_0.000_0.000_1.000_1.000_DEFAULTLIGHTINGTYPE
 70
     1
102
VTR_0.000_0.000_1.000_1.000_BRIGHTNESS
141
0.0
102
VTR_0.000_0.000_1.000_1.000_CONTRAST
142
0.0
  0
DICTIONARY
  5
DE4F
102
{ACAD_REACTORS
330
DE4E
102
}
330
DE4E
100
AcDbDictionary
281
     1
  0
XRECORD
  5
DD26
102
{ACAD_REACTORS
330
DD25
102
}
330
DD25
100
AcDbXrecord
280
     1
290
     1
  0
SORTENTSTABLE
  5
CCBA
102
{ACAD_REACTORS
330
CCB9
102
}
330
CCB9
100
AcDbSortentsTable
330
6F
331
CD93
  5
DC3E
331
CD94
  5
DC3F
331
CD95
  5
DC40
331
CD96
  5
DC41
331
CD97
  5
DC42
331
CD98
  5
DC43
331
CD99
  5
DC44
331
CD9A
  5
DC3C
331
CD9B
  5
DC3D
331
CDE1
  5
DBF6
331
CDFD
  5
DBDA
331
D247
  5
D790
331
D248
  5
D78C
331
D249
  5
D78D
331
D24A
  5
D78E
331
D24B
  5
D78F
331
D24C
  5
D78B
331
D24D
  5
D78A
331
D255
  5
D782
331
D256
  5
D780
331
D257
  5
D781
331
D258
  5
D77F
331
D259
  5
D77D
331
D25A
  5
D77E
331
D25B
  5
D77C
331
D25C
  5
D77B
331
D25D
  5
D779
331
D25E
  5
D77A
331
D25F
  5
D778
331
D260
  5
D777
331
D261
  5
D776
331
D262
  5
D775
331
D263
  5
D773
331
D264
  5
D774
331
D265
  5
D771
331
D266
  5
D772
331
D267
  5
D76E
331
D268
  5
D76F
331
D269
  5
D770
331
D274
  5
D763
331
D275
  5
D762
331
D276
  5
D761
331
D277
  5
D75F
331
D278
  5
D760
331
D279
  5
D75E
331
D27A
  5
D75A
331
D27B
  5
D75B
331
D27C
  5
D75C
331
D27D
  5
D75D
331
D27E
  5
D759
331
D282
  5
D755
331
D285
  5
D74D
331
D286
  5
D74E
331
D287
  5
D74F
331
D288
  5
D750
331
D289
  5
D751
331
D28A
  5
D752
331
D28B
  5
D74C
331
D28C
  5
D748
331
D28D
  5
D749
331
D28E
  5
D74A
331
D28F
  5
D74B
331
D290
  5
D744
331
D291
  5
D745
331
D292
  5
D746
331
D293
  5
D747
331
D294
  5
D743
331
D29A
  5
D736
331
D29B
  5
D737
331
D29C
  5
D738
331
D29D
  5
D739
331
D29E
  5
D73A
331
D29F
  5
D73B
331
D2A0
  5
D73C
331
D2A1
  5
D73D
331
D2A2
  5
D732
331
D2A3
  5
D733
331
D2A4
  5
D734
331
D2A5
  5
D735
331
D2A6
  5
D72D
331
D2A7
  5
D72E
331
D2A8
  5
D72F
331
D2A9
  5
D730
331
D2AA
  5
D731
331
D2C2
  5
D70E
331
D2C3
  5
D70F
331
D2C4
  5
D710
331
D2C5
  5
D711
331
D2C6
  5
D712
331
D2C7
  5
D713
331
D2C8
  5
D714
331
D2C9
  5
D715
331
D2CA
  5
D708
331
D2CB
  5
D709
331
D2CC
  5
D70A
331
D2CD
  5
D70B
331
D2CE
  5
D70C
331
D2CF
  5
D70D
331
D2D0
  5
D707
331
D2D1
  5
D706
331
D2D2
  5
D704
331
D2D3
  5
D705
331
D2F0
  5
D6E7
331
D2FA
  5
D6DD
331
D309
  5
D6CE
331
D30A
  5
D6CB
331
D30B
  5
D6CC
331
D30C
  5
D6CD
331
D30D
  5
D6CA
331
D30E
  5
D6C8
331
D30F
  5
D6C9
331
D310
  5
D6C6
331
D311
  5
D6C7
331
D312
  5
D6C4
331
D313
  5
D6C5
331
D314
  5
D6C3
331
D315
  5
D6C1
331
D316
  5
D6C2
331
D317
  5
D6C0
331
D318
  5
D6BE
331
D319
  5
D6BF
331
D31A
  5
D6BD
331
D31B
  5
D6BA
331
D31C
  5
D6BB
331
D31D
  5
D6BC
331
D31E
  5
D6B9
331
D31F
  5
D6B7
331
D320
  5
D6B8
331
D321
  5
D6B5
331
D322
  5
D6B6
331
D323
  5
D6B3
331
D324
  5
D6B4
331
D325
  5
D6B2
331
D326
  5
D6B0
331
D327
  5
D6B1
331
D328
  5
D6AF
331
D329
  5
D6AD
331
D32A
  5
D6AE
331
D32B
  5
D6AB
331
D32C
  5
D6AC
331
D32D
  5
D6AA
331
D32E
  5
D6A8
331
D32F
  5
D6A9
331
D330
  5
D6A3
331
D331
  5
D6A4
331
D332
  5
D6A5
331
D333
  5
D6A6
331
D334
  5
D6A7
331
D339
  5
D69D
331
D33A
  5
D69E
331
D33B
  5
D69B
331
D33C
  5
D69C
331
D33D
  5
D699
331
D33E
  5
D69A
331
D33F
  5
D697
331
D340
  5
D698
331
D341
  5
D696
331
D342
  5
D693
331
D343
  5
D694
331
D344
  5
D695
331
D3D7
  5
D5FE
331
D3D8
  5
D5FF
331
D3D9
  5
D600
331
D3DB
  5
D5F8
331
D3DC
  5
D5F9
331
D3DD
  5
D5FA
331
D3DE
  5
D5FB
331
D3DF
  5
D5FC
331
D3E1
  5
D5F2
331
D3E2
  5
D5F3
331
D3E3
  5
D5F4
331
D3E4
  5
D5F5
331
D3E5
  5
D5F6
331
D3E7
  5
D5ED
331
D3E8
  5
D5EE
331
D3E9
  5
D5EF
331
D3EA
  5
D5F0
331
D3EC
  5
D5E8
331
D3ED
  5
D5E9
331
D3EE
  5
D5EA
331
D3EF
  5
D5EB
331
D3F0
  5
D5E4
331
D3F1
  5
D5E5
331
D3F2
  5
D5E6
331
D3F3
  5
D5E7
331
D3F6
  5
D5DF
331
D3F7
  5
D5E0
331
D3F8
  5
D5E1
331
D3FA
  5
D5DA
331
D3FB
  5
D5DB
331
D3FC
  5
D5DC
331
D3FD
  5
D5DD
331
D3FF
  5
D5D6
331
D400
  5
D5D7
331
D401
  5
D5D8
331
D403
  5
D5D0
331
D404
  5
D5D1
331
D405
  5
D5D2
331
D406
  5
D5D3
331
D407
  5
D5D4
331
D409
  5
D5CA
331
D40A
  5
D5CB
331
D40B
  5
D5CC
331
D40C
  5
D5CD
331
D40D
  5
D5CE
331
D40F
  5
D5C5
331
D410
  5
D5C6
331
D411
  5
D5C7
331
D412
  5
D5C8
331
D414
  5
D5C0
331
D415
  5
D5C1
331
D416
  5
D5C2
331
D417
  5
D5C3
331
D418
  5
D5BB
331
D419
  5
D5BC
331
D41A
  5
D5BD
331
D41B
  5
D5BE
331
D41C
  5
D5BF
331
D41F
  5
D5B6
331
D420
  5
D5B7
331
D421
  5
D5B8
331
D423
  5
D5B1
331
D424
  5
D5B2
331
D425
  5
D5B3
331
D426
  5
D5B4
331
D428
  5
D5AD
331
D429
  5
D5AE
331
D42A
  5
D5AF
331
D42C
  5
D5A8
331
D42D
  5
D5A9
331
D42E
  5
D5AA
331
D42F
  5
D5AB
331
D431
  5
D5A1
331
D432
  5
D5A2
331
D433
  5
D5A3
331
D434
  5
D5A4
331
D435
  5
D5A5
331
D436
  5
D5A6
331
D438
  5
D599
331
D439
  5
D59A
331
D43A
  5
D59B
331
D43B
  5
D59C
331
D43C
  5
D59D
331
D43D
  5
D59E
331
D43E
  5
D59F
331
D467
  5
D56B
331
D468
  5
D56C
331
D469
  5
D56D
331
D46A
  5
D56E
331
D46B
  5
D56F
331
D46C
  5
D570
331
D4B1
  5
D522
331
D4B2
  5
D523
331
D4B3
  5
D524
331
D4B4
  5
D525
331
D4B5
  5
D526
331
D4CE
  5
D509
331
D4CF
  5
D504
331
D4D0
  5
D505
331
D4D1
  5
D506
331
D4D2
  5
D507
331
D4D3
  5
D508
331
D4D4
  5
D503
331
D4D5
  5
D4FE
331
D4D6
  5
D4FF
331
D4D7
  5
D500
331
D4D8
  5
D501
331
D4D9
  5
D502
331
D50A
  5
D4CC
331
D50B
  5
D4CD
331
D517
  5
D4BB
331
D518
  5
D4BC
331
D519
  5
D4BD
331
D51A
  5
D4BE
331
D51B
  5
D4BF
331
D51C
  5
D4C0
331
D5C1
  5
D413
331
D5C2
  5
D414
331
D5C3
  5
D415
331
D5C4
  5
D416
331
D648
  5
D38C
331
D649
  5
D38D
331
D64A
  5
D38E
331
D64B
  5
D38F
331
D64C
  5
D387
331
D64D
  5
D388
331
D64E
  5
D389
331
D64F
  5
D38A
331
D650
  5
D38B
331
D652
  5
D382
331
D653
  5
D383
331
D654
  5
D384
331
D655
  5
D385
331
D656
  5
D37B
331
D657
  5
D37C
331
D658
  5
D37D
331
D659
  5
D37E
331
D65A
  5
D37F
331
D65B
  5
D380
331
D65C
  5
D381
331
D661
  5
D373
331
D662
  5
D374
331
D663
  5
D375
331
D664
  5
D376
331
D66C
  5
D369
331
D66D
  5
D36A
331
D66E
  5
D36B
331
D66F
  5
D362
331
D670
  5
D363
331
D671
  5
D364
331
D672
  5
D365
331
D673
  5
D366
331
D674
  5
D367
331
D675
  5
D368
331
D677
  5
D35E
331
D678
  5
D35F
331
D679
  5
D360
331
D67A
  5
D357
331
D67B
  5
D358
331
D67C
  5
D359
331
D67D
  5
D35A
331
D67E
  5
D35B
331
D67F
  5
D35C
331
D680
  5
D35D
331
D685
  5
D34F
331
D686
  5
D350
331
D687
  5
D351
331
D688
  5
D352
331
D690
  5
D345
331
D691
  5
D346
331
D692
  5
D347
331
D693
  5
D33F
331
D694
  5
D340
331
D695
  5
D341
331
D696
  5
D342
331
D697
  5
D343
331
D698
  5
D344
331
D699
  5
D33A
331
D69A
  5
D33B
331
D69B
  5
D33C
331
D69C
  5
D33D
331
D69D
  5
D33E
331
D6AC
  5
D329
331
D6AD
  5
D32A
331
D6AE
  5
D32B
331
D6AF
  5
D328
331
D6B0
  5
D327
331
D6B1
  5
D323
331
D6B2
  5
D324
331
D6B3
  5
D325
331
D6B4
  5
D326
331
D6B5
  5
D31F
331
D6B6
  5
D320
331
D6B7
  5
D321
331
D6B8
  5
D322
331
D6B9
  5
D31E
331
D6BA
  5
D31A
331
D6BB
  5
D31B
331
D6BC
  5
D31C
331
D6BD
  5
D31D
331
D6BE
  5
D316
331
D6BF
  5
D317
331
D6C0
  5
D318
331
D6C1
  5
D319
331
D6C2
  5
D312
331
D6C3
  5
D313
331
D6C4
  5
D314
331
D6C5
  5
D315
331
D6C6
  5
D30D
331
D6C7
  5
D30E
331
D6C8
  5
D30F
331
D6CB
  5
D30A
331
D6CC
  5
D30B
331
D6CD
  5
D30C
331
D6CE
  5
D309
331
D6CF
  5
D308
331
D6D0
  5
D303
331
D6D1
  5
D304
331
D6D2
  5
D305
331
D6D5
  5
D2FF
331
D6D6
  5
D300
331
D6D7
  5
D301
331
D6D8
  5
D302
331
D6D9
  5
D2FE
331
D6DA
  5
D2FD
331
D6DB
  5
D2FB
331
D6DC
  5
D2FC
331
D6DD
  5
D2F8
331
D6DE
  5
D2F9
331
D6DF
  5
D2FA
331
D6E0
  5
D2F4
331
D6E1
  5
D2F5
331
D6E2
  5
D2F6
331
D6E3
  5
D2F7
331
D6E4
  5
D2F0
331
D6E5
  5
D2F1
331
D6E6
  5
D2F2
331
D6E7
  5
D2F3
331
D6E8
  5
D2EE
331
D6E9
  5
D2EF
331
D6EA
  5
D2EB
331
D6EB
  5
D2EC
331
D6EC
  5
D2ED
331
D6ED
  5
D2E7
331
D6EE
  5
D2E8
331
D6EF
  5
D2E9
331
D6F0
  5
D2EA
331
D6F1
  5
D2E3
331
D6F2
  5
D2E4
331
D6F3
  5
D2E5
331
D6F4
  5
D2E6
331
D6F5
  5
D2E1
331
D6F6
  5
D2E2
331
D6F7
  5
D2DF
331
D6F8
  5
D2E0
331
D6F9
  5
D2DC
331
D6FA
  5
D2DD
331
D6FB
  5
D2DE
331
D6FC
  5
D2D8
331
D6FD
  5
D2D9
331
D6FE
  5
D2DA
331
D6FF
  5
D2DB
331
D700
  5
D2D6
331
D701
  5
D2D7
331
D702
  5
D2D4
331
D703
  5
D2D5
331
D704
  5
D2D1
331
D705
  5
D2D2
331
D706
  5
D2D3
331
D707
  5
D2CD
331
D708
  5
D2CE
331
D709
  5
D2CF
331
D70A
  5
D2D0
331
D70B
  5
D2CB
331
D70C
  5
D2CC
331
D70D
  5
D2C9
331
D70E
  5
D2CA
331
D70F
  5
D2C6
331
D710
  5
D2C7
331
D711
  5
D2C8
331
D712
  5
D2C2
331
D713
  5
D2C3
331
D714
  5
D2C4
331
D715
  5
D2C5
331
D725
  5
D2AF
331
D726
  5
D2B0
331
D727
  5
D2B1
331
D728
  5
D2B2
331
D72B
  5
D2AA
331
D72C
  5
D2AB
331
D72D
  5
D2AC
331
D72F
  5
D294
331
D730
  5
D295
331
D731
  5
D296
331
D732
  5
D297
331
D733
  5
D298
331
D734
  5
D299
331
D735
  5
D29A
331
D736
  5
D29B
331
D737
  5
D29C
331
D738
  5
D29D
331
D739
  5
D29E
331
D73A
  5
D29F
331
D73B
  5
D2A0
331
D73C
  5
D2A1
331
D73D
  5
D2A2
331
D73E
  5
D2A3
331
D73F
  5
D2A4
331
D740
  5
D2A5
331
D741
  5
D2A6
331
D742
  5
D2A7
331
D743
  5
D2A8
331
D745
  5
D290
331
D746
  5
D291
331
D747
  5
D292
331
D749
  5
D286
331
D74A
  5
D287
331
D74B
  5
D288
331
D74C
  5
D289
331
D74D
  5
D28A
331
D74E
  5
D28B
331
D74F
  5
D28C
331
D750
  5
D28D
331
D756
  5
D27F
331
D757
  5
D280
331
D758
  5
D281
331
D75A
  5
D259
331
D75B
  5
D25A
331
D75C
  5
D25B
331
D75D
  5
D25C
331
D75E
  5
D25D
331
D75F
  5
D25E
331
D760
  5
D25F
331
D761
  5
D260
331
D762
  5
D261
331
D763
  5
D262
331
D764
  5
D263
331
D765
  5
D264
331
D766
  5
D265
331
D767
  5
D266
331
D768
  5
D267
331
D769
  5
D268
331
D76A
  5
D269
331
D76B
  5
D26A
331
D76C
  5
D26B
331
D76D
  5
D26C
331
D76E
  5
D26D
331
D76F
  5
D26E
331
D770
  5
D26F
331
D771
  5
D270
331
D772
  5
D271
331
D773
  5
D272
331
D774
  5
D273
331
D775
  5
D274
331
D776
  5
D275
331
D777
  5
D276
331
D778
  5
D277
331
D779
  5
D278
331
D77A
  5
D279
331
D77B
  5
D27A
331
D77C
  5
D27B
331
D77D
  5
D27C
331
D780
  5
D255
331
D781
  5
D256
331
D782
  5
D257
331
D784
  5
D249
331
D785
  5
D24A
331
D786
  5
D24B
331
D787
  5
D24C
331
D788
  5
D24D
331
D789
  5
D24E
331
D78A
  5
D24F
331
D78B
  5
D250
331
D78C
  5
D251
331
D78D
  5
D252
331
D793
  5
D225
331
D794
  5
D226
331
D795
  5
D227
331
D796
  5
D228
331
D797
  5
D229
331
D798
  5
D22A
331
D799
  5
D22B
331
D79A
  5
D22C
331
D79B
  5
D22D
331
D79C
  5
D22E
331
D79D
  5
D22F
331
D79E
  5
D230
331
D79F
  5
D231
331
D7A0
  5
D232
331
D7A1
  5
D233
331
D7A2
  5
D234
331
D7A3
  5
D235
331
D7A4
  5
D236
331
D7A5
  5
D237
331
D7A6
  5
D238
331
D7A7
  5
D239
331
D7A8
  5
D23A
331
D7A9
  5
D23B
331
D7AA
  5
D23C
331
D7AB
  5
D23D
331
D7AC
  5
D23E
331
D7AD
  5
D23F
331
D7AE
  5
D240
331
D7AF
  5
D241
331
D7B0
  5
D242
331
D7B1
  5
D243
331
D7B3
  5
D222
331
D7B4
  5
D223
331
D7B5
  5
D224
331
D7B7
  5
D21C
331
D7B8
  5
D21D
331
D7B9
  5
D21E
331
D7BA
  5
D21F
331
D7BB
  5
D220
331
D87C
  5
D15B
331
D883
  5
D154
331
D884
  5
D150
331
D885
  5
D151
331
D886
  5
D152
331
D887
  5
D153
331
D888
  5
D14F
331
D889
  5
D14E
331
D892
  5
D145
331
D8A4
  5
D133
331
D8A8
  5
D12F
331
D8A9
  5
D12E
331
D93C
  5
D097
331
D93D
  5
D098
331
D93E
  5
D099
331
D93F
  5
D09A
331
D940
  5
D09B
331
D945
  5
D08F
331
D946
  5
D090
331
D947
  5
D091
331
D948
  5
D092
331
D94D
  5
D086
331
D94E
  5
D087
331
D94F
  5
D088
331
D950
  5
D089
331
D951
  5
D08A
331
D952
  5
D081
331
D953
  5
D082
331
D954
  5
D083
331
D955
  5
D084
331
D956
  5
D085
331
D957
  5
D07D
331
D958
  5
D07E
331
D959
  5
D07F
331
D95A
  5
D080
331
D95B
  5
D079
331
D95C
  5
D07A
331
D95D
  5
D07B
331
D95E
  5
D07C
331
D982
  5
D053
331
D983
  5
D054
331
D984
  5
D055
331
D985
  5
D050
331
D986
  5
D051
331
D987
  5
D052
331
D988
  5
D04F
331
DA1B
  5
CFBC
331
DA1C
  5
CFBB
331
DA1D
  5
CFBA
331
DA1E
  5
CFB9
331
DA1F
  5
CFB8
331
DA83
  5
CF52
331
DA84
  5
CF53
331
DA85
  5
CF54
331
DAA1
  5
CF36
331
DB1D
  5
CEBB
331
DB1E
  5
CEBC
331
DB27
  5
CEA9
331
DB28
  5
CEAA
331
DB29
  5
CEAB
331
DB2A
  5
CEAC
331
DB2B
  5
CEAD
331
DB2C
  5
CEAE
331
DB2D
  5
CEAF
331
DB2E
  5
CEB0
331
DB2F
  5
CE9E
331
DB30
  5
CE9F
331
DB31
  5
CEA0
331
DB32
  5
CEA1
331
DB33
  5
CEA2
331
DB34
  5
CEA3
331
DB35
  5
CEA4
331
DB36
  5
CEA5
331
DB37
  5
CEA6
331
DB38
  5
CEA7
331
DB39
  5
CEA8
331
DB3A
  5
CE9D
331
DBA1
  5
CE35
331
DBA2
  5
CE36
331
DBA3
  5
CE34
331
DBA4
  5
CE32
331
DBA5
  5
CE33
331
DBAC
  5
CE28
331
DBAD
  5
CE29
331
DBAE
  5
CE2A
331
DBAF
  5
CE2B
331
DBB0
  5
CE2C
331
DBB1
  5
CE2D
  0
ACDBDETAILVIEWSTYLE
  5
6A
102
{ACAD_REACTORS
330
69
102
}
102
{ACAD_XDICTIONARY
360
DED3
102
}
330
69
100
AcDbModelDocViewStyle
 70
     0
  3
Imperial24
290
     0
100
AcDbDetailViewStyle
 70
     0
 71
     0
 90
        3
 71
     1
340
55
 40
0.24
340
0
 40
0.24
300

 40
0.36
280
     3
 71
     2
340
5C
 90
       25
 71
     3
340
55
 40
0.24
 90
        1
 40
0.75
 90
        1
300
%<\AcVar ViewType \f "%tc1">% %<\AcVar ViewDetailId>%\PSCALE %<\AcVar ViewScale \f "%sn">%
 71
     4
340
5C
 90
       25
340
5C
 90
       25
280
     0
  0
LAYOUT
  5
6E
102
{ACAD_REACTORS
330
61
102
}
330
61
100
AcDbPlotSettings
  1

  2
C:\Users\STIJN\appdata\roaming\autodesk\autocad 2015\r20.0\enu\plotters\dwg to pdf.pc3
  4

  6

 40
0.0
 41
0.0
 42
0.0
 43
0.0
 44
0.0
 45
0.0
 46
0.0
 47
0.0
 48
0.0
 49
0.0
140
0.0
141
0.0
142
1.0
143
1.0
 70
   688
 72
     0
 73
     0
 74
     5
  7

 75
    16
147
1.0
148
0.0
149
0.0
100
AcDbLayout
  1
Layout1
 70
     1
 71
     1
 10
0.0
 20
0.0
 11
12.0
 21
9.0
 12
0.0
 22
0.0
 32
0.0
 14
1.000000000000000E+20
 24
1.000000000000000E+20
 34
1.000000000000000E+20
 15
-1.000000000000000E+20
 25
-1.000000000000000E+20
 35
-1.000000000000000E+20
146
0.0
 13
0.0
 23
0.0
 33
0.0
 16
1.0
 26
0.0
 36
0.0
 17
0.0
 27
1.0
 37
0.0
 76
     0
330
6B
  0
LAYOUT
  5
72
102
{ACAD_REACTORS
330
61
102
}
102
{ACAD_XDICTIONARY
360
DEDF
102
}
330
61
100
AcDbPlotSettings
  1

  2
C:\Users\STIJN\appdata\roaming\autodesk\autocad 2015\r20.0\enu\plotters\dwg to pdf.pc3
  4

  6

 40
0.0
 41
0.0
 42
0.0
 43
0.0
 44
0.0
 45
0.0
 46
0.0
 47
0.0
 48
0.0
 49
0.0
140
0.0
141
0.0
142
1.0
143
1.0
 70
  1712
 72
     0
 73
     0
 74
     0
  7

 75
     0
147
1.0
148
0.0
149
0.0
100
AcDbLayout
  1
Model
 70
     1
 71
     0
 10
0.0
 20
0.0
 11
12.0
 21
9.0
 12
0.0
 22
0.0
 32
0.0
 14
0.0
 24
0.0
 34
0.0
 15
0.0
 25
0.0
 35
0.0
146
0.0
 13
0.0
 23
0.0
 33
0.0
 16
1.0
 26
0.0
 36
0.0
 17
0.0
 27
1.0
 37
0.0
 76
     0
330
6F
331
74
  0
MATERIAL
  5
19
102
{ACAD_REACTORS
330
10
102
}
102
{ACAD_XDICTIONARY
360
DEE1
102
}
330
10
100
AcDbMaterial
  1
ByBlock
 72
     0
 73
     2
 43
0.0208333333333333
 43
0.0
 43
0.0
 43
0.0
 43
0.0
 43
0.0208333333333333
 43
0.0
 43
0.0
 43
0.0
 43
0.0
 43
1.0
 43
0.0
 43
0.0
 43
0.0
 43
0.0
 43
1.0
 77
     0
 78
     2
 47
0.0208333333333333
 47
0.0
 47
0.0
 47
0.0
 47
0.0
 47
0.0208333333333333
 47
0.0
 47
0.0
 47
0.0
 47
0.0
 47
1.0
 47
0.0
 47
0.0
 47
0.0
 47
0.0
 47
1.0
171
     0
172
     2
 49
0.0208333333333333
 49
0.0
 49
0.0
 49
0.0
 49
0.0
 49
0.0208333333333333
 49
0.0
 49
0.0
 49
0.0
 49
0.0
 49
1.0
 49
0.0
 49
0.0
 49
0.0
 49
0.0
 49
1.0
175
     0
176
     2
142
0.0208333333333333
142
0.0
142
0.0
142
0.0
142
0.0
142
0.0208333333333333
142
0.0
142
0.0
142
0.0
142
0.0
142
1.0
142
0.0
142
0.0
142
0.0
142
0.0
142
1.0
179
     0
270
     2
144
0.0208333333333333
144
0.0
144
0.0
144
0.0
144
0.0
144
0.0208333333333333
144
0.0
144
0.0
144
0.0
144
0.0
144
1.0
144
0.0
144
0.0
144
0.0
144
0.0
144
1.0
274
     2
147
0.0208333333333333
147
0.0
147
0.0
147
0.0
147
0.0
147
0.0208333333333333
147
0.0
147
0.0
147
0.0
147
0.0
147
1.0
147
0.0
147
0.0
147
0.0
147
0.0
147
1.0
  0
MATERIAL
  5
11
102
{ACAD_REACTORS
330
10
102
}
102
{ACAD_XDICTIONARY
360
DEE3
102
}
330
10
100
AcDbMaterial
  1
ByLayer
 72
     0
 73
     2
 43
0.0208333333333333
 43
0.0
 43
0.0
 43
0.0
 43
0.0
 43
0.0208333333333333
 43
0.0
 43
0.0
 43
0.0
 43
0.0
 43
1.0
 43
0.0
 43
0.0
 43
0.0
 43
0.0
 43
1.0
 77
     0
 78
     2
 47
0.0208333333333333
 47
0.0
 47
0.0
 47
0.0
 47
0.0
 47
0.0208333333333333
 47
0.0
 47
0.0
 47
0.0
 47
0.0
 47
1.0
 47
0.0
 47
0.0
 47
0.0
 47
0.0
 47
1.0
171
     0
172
     2
 49
0.0208333333333333
 49
0.0
 49
0.0
 49
0.0
 49
0.0
 49
0.0208333333333333
 49
0.0
 49
0.0
 49
0.0
 49
0.0
 49
1.0
 49
0.0
 49
0.0
 49
0.0
 49
0.0
 49
1.0
175
     0
176
     2
142
0.0208333333333333
142
0.0
142
0.0
142
0.0
142
0.0
142
0.0208333333333333
142
0.0
142
0.0
142
0.0
142
0.0
142
1.0
142
0.0
142
0.0
142
0.0
142
0.0
142
1.0
179
     0
270
     2
144
0.0208333333333333
144
0.0
144
0.0
144
0.0
144
0.0
144
0.0208333333333333
144
0.0
144
0.0
144
0.0
144
0.0
144
1.0
144
0.0
144
0.0
144
0.0
144
0.0
144
1.0
274
     2
147
0.0208333333333333
147
0.0
147
0.0
147
0.0
147
0.0
147
0.0208333333333333
147
0.0
147
0.0
147
0.0
147
0.0
147
1.0
147
0.0
147
0.0
147
0.0
147
0.0
147
1.0
  0
MATERIAL
  5
21
102
{ACAD_REACTORS
330
10
102
}
102
{ACAD_XDICTIONARY
360
DEE5
102
}
330
10
100
AcDbMaterial
  1
Global
 72
     0
 73
     2
 43
0.0208333333333333
 43
0.0
 43
0.0
 43
0.0
 43
0.0
 43
0.0208333333333333
 43
0.0
 43
0.0
 43
0.0
 43
0.0
 43
1.0
 43
0.0
 43
0.0
 43
0.0
 43
0.0
 43
1.0
 77
     0
 78
     2
 47
0.0208333333333333
 47
0.0
 47
0.0
 47
0.0
 47
0.0
 47
0.0208333333333333
 47
0.0
 47
0.0
 47
0.0
 47
0.0
 47
1.0
 47
0.0
 47
0.0
 47
0.0
 47
0.0
 47
1.0
171
     0
172
     2
 49
0.0208333333333333
 49
0.0
 49
0.0
 49
0.0
 49
0.0
 49
0.0208333333333333
 49
0.0
 49
0.0
 49
0.0
 49
0.0
 49
1.0
 49
0.0
 49
0.0
 49
0.0
 49
0.0
 49
1.0
175
     0
176
     2
142
0.0208333333333333
142
0.0
142
0.0
142
0.0
142
0.0
142
0.0208333333333333
142
0.0
142
0.0
142
0.0
142
0.0
142
1.0
142
0.0
142
0.0
142
0.0
142
0.0
142
1.0
179
     0
270
     2
144
0.0208333333333333
144
0.0
144
0.0
144
0.0
144
0.0
144
0.0208333333333333
144
0.0
144
0.0
144
0.0
144
0.0
144
1.0
144
0.0
144
0.0
144
0.0
144
0.0
144
1.0
274
     2
147
0.0208333333333333
147
0.0
147
0.0
147
0.0
147
0.0
147
0.0208333333333333
147
0.0
147
0.0
147
0.0
147
0.0
147
1.0
147
0.0
147
0.0
147
0.0
147
0.0
147
1.0
  0
MLEADERSTYLE
  5
66
102
{ACAD_REACTORS
330
65
102
}
102
{ACAD_XDICTIONARY
360
DEE7
102
}
330
65
100
AcDbMLeaderStyle
170
     2
171
     1
172
     0
 90
        2
 40
0.0
 41
0.0
173
     1
 91
-1056964608
340
5A
 92
       -2
290
     1
 42
0.09
291
     1
 43
0.36
  3
Standard
341
0
 44
0.18
300

342
55
174
     1
178
     6
175
     1
176
     0
 93
-1056964608
 45
0.18
292
     0
297
     0
 46
0.18
343
0
 94
-1056964608
 47
1.0
 49
1.0
140
1.0
293
     1
141
0.0
294
     1
177
     0
142
1.0
295
     0
296
     0
143
0.125
1001
ACAD_MLEADERVER
1070
     2
  0
MLINESTYLE
  5
5F
102
{ACAD_REACTORS
330
5E
102
}
330
5E
100
AcDbMlineStyle
  2
STANDARD
 70
     0
  3

 62
   256
 51
90.0
 52
90.0
 71
     2
 49
0.5
 62
   256
  6
BYLAYER
 49
-0.5
 62
   256
  6
BYLAYER
  0
ACDBPLACEHOLDER
  5
F
102
{ACAD_REACTORS
330
E
102
}
330
E
  0
SCALE
  5
43
102
{ACAD_REACTORS
330
42
102
}
330
42
100
AcDbScale
 70
     0
300
1:1
140
1.0
141
1.0
290
     1
  0
SCALE
  5
44
102
{ACAD_REACTORS
330
42
102
}
330
42
100
AcDbScale
 70
     0
300
1/128" = 1'-0"
140
0.0078125
141
12.0
290
     0
  0
SCALE
  5
45
102
{ACAD_REACTORS
330
42
102
}
330
42
100
AcDbScale
 70
     0
300
1/64" = 1'-0"
140
0.015625
141
12.0
290
     0
  0
SCALE
  5
46
102
{ACAD_REACTORS
330
42
102
}
330
42
100
AcDbScale
 70
     0
300
1/32" = 1'-0"
140
0.03125
141
12.0
290
     0
  0
SCALE
  5
47
102
{ACAD_REACTORS
330
42
102
}
330
42
100
AcDbScale
 70
     0
300
1/16" = 1'-0"
140
0.0625
141
12.0
290
     0
  0
SCALE
  5
48
102
{ACAD_REACTORS
330
42
102
}
330
42
100
AcDbScale
 70
     0
300
3/32" = 1'-0"
140
0.09375
141
12.0
290
     0
  0
SCALE
  5
49
102
{ACAD_REACTORS
330
42
102
}
330
42
100
AcDbScale
 70
     0
300
1/8" = 1'-0"
140
0.125
141
12.0
290
     0
  0
SCALE
  5
4A
102
{ACAD_REACTORS
330
42
102
}
330
42
100
AcDbScale
 70
     0
300
3/16" = 1'-0"
140
0.1875
141
12.0
290
     0
  0
SCALE
  5
4B
102
{ACAD_REACTORS
330
42
102
}
330
42
100
AcDbScale
 70
     0
300
1/4" = 1'-0"
140
0.25
141
12.0
290
     0
  0
SCALE
  5
4C
102
{ACAD_REACTORS
330
42
102
}
330
42
100
AcDbScale
 70
     0
300
3/8" = 1'-0"
140
0.375
141
12.0
290
     0
  0
SCALE
  5
4D
102
{ACAD_REACTORS
330
42
102
}
330
42
100
AcDbScale
 70
     0
300
1/2" = 1'-0"
140
0.5
141
12.0
290
     0
  0
SCALE
  5
4E
102
{ACAD_REACTORS
330
42
102
}
330
42
100
AcDbScale
 70
     0
300
3/4" = 1'-0"
140
0.75
141
12.0
290
     0
  0
SCALE
  5
4F
102
{ACAD_REACTORS
330
42
102
}
330
42
100
AcDbScale
 70
     0
300
1" = 1'-0"
140
1.0
141
12.0
290
     0
  0
SCALE
  5
50
102
{ACAD_REACTORS
330
42
102
}
330
42
100
AcDbScale
 70
     0
300
1-1/2" = 1'-0"
140
1.5
141
12.0
290
     0
  0
SCALE
  5
51
102
{ACAD_REACTORS
330
42
102
}
330
42
100
AcDbScale
 70
     0
300
3" = 1'-0"
140
3.0
141
12.0
290
     0
  0
SCALE
  5
52
102
{ACAD_REACTORS
330
42
102
}
330
42
100
AcDbScale
 70
     0
300
6" = 1'-0"
140
6.0
141
12.0
290
     0
  0
SCALE
  5
53
102
{ACAD_REACTORS
330
42
102
}
330
42
100
AcDbScale
 70
     0
300
1'-0" = 1'-0"
140
12.0
141
12.0
290
     0
  0
ACDBSECTIONVIEWSTYLE
  5
68
102
{ACAD_REACTORS
330
67
102
}
102
{ACAD_XDICTIONARY
360
DED1
102
}
330
67
100
AcDbModelDocViewStyle
 70
     0
  3
Imperial24
290
     0
100
AcDbSectionViewStyle
 70
     0
 71
     0
 90
       78
 71
     1
340
55
 40
0.24
340
0
340
0
 40
0.24
300
I, O, Q, S, X, Z
 40
0.48
 90
        3
 40
0.18
 90
        1
 71
     2
340
5C
 90
       25
340
5C
 90
       50
 40
0.24
 40
0.0
 40
0.24
 71
     3
340
55
 40
0.24
 90
        1
 40
0.75
 90
        1
300
%<\AcVar ViewType \f "%tc1">% %<\AcVar ViewSectionStartId>%-%<\AcVar ViewSectionEndId>%\PSCALE %<\AcVar ViewScale \f "%sn">%
 71
     4
300
ANSI31
 40
1.0
 90
        0
290
     0
290
     0
 90
        6
 40
0.0
 40
1.570796326794897
 40
0.2617993877991494
 40
1.308996938995747
 40
-0.2617993877991494
 40
1.832595714594046
  0
TABLESTYLE
  5
64
102
{ACAD_REACTORS
330
63
102
}
330
63
100
AcDbTableStyle
  3
Standard
 70
     0
 71
     0
 40
0.06
 41
0.06
280
     0
281
     0
  7
Standard
140
0.18
170
     2
 62
     0
 63
   257
283
     0
274
    -2
284
     1
 64
     0
275
    -2
285
     1
 65
     0
276
    -2
286
     1
 66
     0
277
    -2
287
     1
 67
     0
278
    -2
288
     1
 68
     0
279
    -2
289
     1
 69
     0
  7
Standard
140
0.25
170
     5
 62
     0
 63
   257
283
     0
274
    -2
284
     1
 64
     0
275
    -2
285
     1
 65
     0
276
    -2
286
     1
 66
     0
277
    -2
287
     1
 67
     0
278
    -2
288
     1
 68
     0
279
    -2
289
     1
 69
     0
  7
Standard
140
0.18
170
     5
 62
     0
 63
   257
283
     0
274
    -2
284
     1
 64
     0
275
    -2
285
     1
 65
     0
276
    -2
286
     1
 66
     0
277
    -2
287
     1
 67
     0
278
    -2
288
     1
 68
     0
279
    -2
289
     1
 69
     0
  0
VISUALSTYLE
  5
2F
102
{ACAD_REACTORS
330
29
102
}
102
{ACAD_XDICTIONARY
360
DEEA
102
}
330
29
100
AcDbVisualStyle
  2
2dWireframe
 70
     4
 71
     0
 72
     2
 73
     0
 90
        0
 40
-0.6
 41
-30.0
 62
     5
 63
     7
 74
     1
 91
        4
 64
     7
 65
   257
 75
     1
175
     1
 42
1.0
 92
        0
 66
   257
 43
1.0
 76
     1
 77
     6
 78
     2
 67
     7
 79
     5
170
     0
171
     0
290
     0
174
     0
 93
        1
 44
0.0
173
     0
291
     0
 45
0.0
1001
ACAD
1000
AcDbSavedByObjectVersion
1070
     0
  0
VISUALSTYLE
  5
2E
102
{ACAD_REACTORS
330
29
102
}
102
{ACAD_XDICTIONARY
360
DEEC
102
}
330
29
100
AcDbVisualStyle
  2
Basic
 70
     7
 71
     1
 72
     0
 73
     1
 90
        0
 40
-0.6
 41
-30.0
 62
     5
 63
     7
 74
     0
 91
        4
 64
     7
 65
   257
 75
     1
175
     1
 42
1.0
 92
        8
 66
     7
 43
1.0
 76
     1
 77
     6
 78
     2
 67
     7
 79
     5
170
     0
171
     0
290
     0
174
     0
 93
        1
 44
0.0
173
     0
291
     1
 45
0.0
1001
ACAD
1000
AcDbSavedByObjectVersion
1070
     0
  0
VISUALSTYLE
  5
35
102
{ACAD_REACTORS
330
29
102
}
102
{ACAD_XDICTIONARY
360
DEEE
102
}
330
29
100
AcDbVisualStyle
  2
Brighten
 70
    12
 71
     2
 72
     2
 73
     0
 90
        0
 40
-0.6
 41
-30.0
 62
     5
 63
     7
 74
     1
 91
        4
 64
     7
 65
   257
 75
     1
175
     1
 42
1.0
 92
        8
 66
     7
 43
1.0
 76
     1
 77
     6
 78
     2
 67
     7
 79
     5
170
     0
171
     0
290
     0
174
     0
 93
        1
 44
50.0
173
     0
291
     1
 45
0.0
1001
ACAD
1000
AcDbSavedByObjectVersion
1070
     0
  0
VISUALSTYLE
  5
39
102
{ACAD_REACTORS
330
29
102
}
102
{ACAD_XDICTIONARY
360
DEF0
102
}
330
29
100
AcDbVisualStyle
  2
ColorChange
 70
    16
 71
     2
 72
     2
 73
     3
 90
        0
 40
-0.6
 41
-30.0
 62
     5
 63
     8
 74
     1
 91
        4
 64
     7
 65
   257
 75
     1
175
     1
 42
1.0
 92
        8
 66
     8
 43
1.0
 76
     1
 77
     6
 78
     2
 67
     7
 79
     5
170
     0
171
     0
290
     0
174
     0
 93
        1
 44
0.0
173
     0
291
     1
 45
0.0
1001
ACAD
1000
AcDbSavedByObjectVersion
1070
     0
  0
VISUALSTYLE
  5
32
102
{ACAD_REACTORS
330
29
102
}
102
{ACAD_XDICTIONARY
360
DEF2
102
}
330
29
100
AcDbVisualStyle
  2
Conceptual
 70
     9
 71
     3
 72
     2
 73
     0
 90
        0
 40
-0.6
 41
-30.0
 62
     5
 63
     7
 74
     2
 91
        2
 64
     7
 65
   257
 75
     1
175
     1
 42
179.0
 92
        8
 66
     7
 43
1.0
 76
     1
 77
     6
 78
     2
 67
     7
 79
     3
170
     0
171
     0
290
     0
174
     0
 93
        1
 44
0.0
173
     0
291
     0
 45
0.0
1001
ACAD
1000
AcDbSavedByObjectVersion
1070
     0
  0
VISUALSTYLE
  5
34
102
{ACAD_REACTORS
330
29
102
}
102
{ACAD_XDICTIONARY
360
DEF4
102
}
330
29
100
AcDbVisualStyle
  2
Dim
 70
    11
 71
     2
 72
     2
 73
     0
 90
        0
 40
-0.6
 41
-30.0
 62
     5
 63
     7
 74
     1
 91
        4
 64
     7
 65
   257
 75
     1
175
     1
 42
1.0
 92
        8
 66
     7
 43
1.0
 76
     1
 77
     6
 78
     2
 67
     7
 79
     5
170
     0
171
     0
290
     0
174
     0
 93
        1
 44
-50.0
173
     0
291
     1
 45
0.0
1001
ACAD
1000
AcDbSavedByObjectVersion
1070
     0
  0
VISUALSTYLE
  5
41
102
{ACAD_REACTORS
330
29
102
}
102
{ACAD_XDICTIONARY
360
DEF6
102
}
330
29
100
AcDbVisualStyle
  2
EdgeColorOff
 70
    22
 71
     2
 72
     2
 73
     0
 90
        0
 40
-0.6
 41
-30.0
 62
     5
 63
     7
 74
     1
 91
        4
 64
     7
 65
   257
 75
     1
175
     1
 42
1.0
 92
        8
 66
     7
 43
1.0
 76
     1
 77
     6
 78
     2
 67
     7
 79
     5
170
     0
171
     0
290
     0
174
     0
 93
        1
 44
0.0
173
     0
291
     1
 45
0.0
1001
ACAD
1000
AcDbSavedByObjectVersion
1070
     0
  0
VISUALSTYLE
  5
38
102
{ACAD_REACTORS
330
29
102
}
102
{ACAD_XDICTIONARY
360
DEF8
102
}
330
29
100
AcDbVisualStyle
  2
Facepattern
 70
    15
 71
     2
 72
     2
 73
     0
 90
        0
 40
-0.6
 41
-30.0
 62
     5
 63
     7
 74
     1
 91
        4
 64
     7
 65
   257
 75
     1
175
     1
 42
1.0
 92
        8
 66
     7
 43
1.0
 76
     1
 77
     6
 78
     2
 67
     7
 79
     5
170
     0
171
     0
290
     0
174
     0
 93
        1
 44
0.0
173
     0
291
     1
 45
0.0
1001
ACAD
1000
AcDbSavedByObjectVersion
1070
     0
  0
VISUALSTYLE
  5
2A
102
{ACAD_REACTORS
330
29
102
}
102
{ACAD_XDICTIONARY
360
DEFA
102
}
330
29
100
AcDbVisualStyle
  2
Flat
 70
     0
 71
     2
 72
     1
 73
     1
 90
        2
 40
-0.6
 41
30.0
 62
     5
 63
     7
 74
     0
 91
        0
 64
     7
 65
   257
 75
     1
175
     1
 42
1.0
 92
        8
 66
     7
 43
1.0
 76
     1
 77
     6
 78
     2
 67
     7
 79
     5
170
     0
171
     0
290
     0
174
     0
 93
       13
 44
0.0
173
     0
291
     1
 45
0.0
1001
ACAD
1000
AcDbSavedByObjectVersion
1070
     0
  0
VISUALSTYLE
  5
2B
102
{ACAD_REACTORS
330
29
102
}
102
{ACAD_XDICTIONARY
360
DEFC
102
}
330
29
100
AcDbVisualStyle
  2
FlatWithEdges
 70
     1
 71
     2
 72
     1
 73
     1
 90
        2
 40
-0.6
 41
30.0
 62
     5
 63
     7
 74
     1
 91
        0
 64
     7
 65
   257
 75
     1
175
     1
 42
1.0
 92
        0
 66
   257
 43
1.0
 76
     1
 77
     6
 78
     2
 67
     7
 79
     5
170
     0
171
     0
290
     0
174
     0
 93
       13
 44
0.0
173
     0
291
     1
 45
0.0
1001
ACAD
1000
AcDbSavedByObjectVersion
1070
     0
  0
VISUALSTYLE
  5
2C
102
{ACAD_REACTORS
330
29
102
}
102
{ACAD_XDICTIONARY
360
DEFE
102
}
330
29
100
AcDbVisualStyle
  2
Gouraud
 70
     2
 71
     2
 72
     2
 73
     1
 90
        2
 40
-0.6
 41
30.0
 62
     5
 63
     7
 74
     0
 91
        0
 64
     7
 65
   257
 75
     1
175
     1
 42
1.0
 92
        0
 66
     7
 43
1.0
 76
     1
 77
     6
 78
     2
 67
     7
 79
     5
170
     0
171
     0
290
     0
174
     0
 93
       13
 44
0.0
173
     0
291
     1
 45
0.0
1001
ACAD
1000
AcDbSavedByObjectVersion
1070
     0
  0
VISUALSTYLE
  5
2D
102
{ACAD_REACTORS
330
29
102
}
102
{ACAD_XDICTIONARY
360
DF00
102
}
330
29
100
AcDbVisualStyle
  2
GouraudWithEdges
 70
     3
 71
     2
 72
     2
 73
     1
 90
        2
 40
-0.6
 41
30.0
 62
     5
 63
     7
 74
     1
 91
        0
 64
     7
 65
   257
 75
     1
175
     1
 42
1.0
 92
        0
 66
   257
 43
1.0
 76
     1
 77
     6
 78
     2
 67
     7
 79
     5
170
     0
171
     0
290
     0
174
     0
 93
       13
 44
0.0
173
     0
291
     1
 45
0.0
1001
ACAD
1000
AcDbSavedByObjectVersion
1070
     0
  0
VISUALSTYLE
  5
31
102
{ACAD_REACTORS
330
29
102
}
102
{ACAD_XDICTIONARY
360
DF02
102
}
330
29
100
AcDbVisualStyle
  2
Hidden
 70
     6
 71
     1
 72
     2
 73
     2
 90
        0
 40
-0.6
 41
-30.0
 62
     5
 63
     7
 74
     2
 91
        2
 64
     7
 65
   257
 75
     2
175
     1
 42
40.0
 92
        0
 66
   257
 43
1.0
 76
     1
 77
     6
 78
     2
 67
     7
 79
     3
170
     0
171
     0
290
     0
174
     0
 93
        1
 44
0.0
173
     0
291
     0
 45
0.0
1001
ACAD
1000
AcDbSavedByObjectVersion
1070
     0
  0
VISUALSTYLE
  5
3F
102
{ACAD_REACTORS
330
29
102
}
102
{ACAD_XDICTIONARY
360
DF04
102
}
330
29
100
AcDbVisualStyle
  2
JitterOff
 70
    20
 71
     2
 72
     2
 73
     0
 90
        0
 40
-0.6
 41
-30.0
 62
     5
 63
     7
 74
     1
 91
        4
 64
     7
 65
   257
 75
     1
175
     1
 42
1.0
 92
       10
 66
     7
 43
1.0
 76
     1
 77
     6
 78
     2
 67
     7
 79
     5
170
     0
171
     0
290
     0
174
     0
 93
        1
 44
0.0
173
     0
291
     1
 45
0.0
1001
ACAD
1000
AcDbSavedByObjectVersion
1070
     0
  0
VISUALSTYLE
  5
37
102
{ACAD_REACTORS
330
29
102
}
102
{ACAD_XDICTIONARY
360
DF06
102
}
330
29
100
AcDbVisualStyle
  2
Linepattern
 70
    14
 71
     2
 72
     2
 73
     0
 90
        0
 40
-0.6
 41
-30.0
 62
     5
 63
     7
 74
     1
 91
        4
 64
     7
 65
   257
 75
     7
175
     7
 42
1.0
 92
        8
 66
     7
 43
1.0
 76
     1
 77
     6
 78
     2
 67
     7
 79
     5
170
     0
171
     0
290
     0
174
     0
 93
        1
 44
0.0
173
     0
291
     1
 45
0.0
1001
ACAD
1000
AcDbSavedByObjectVersion
1070
     0
  0
VISUALSTYLE
  5
40
102
{ACAD_REACTORS
330
29
102
}
102
{ACAD_XDICTIONARY
360
DF08
102
}
330
29
100
AcDbVisualStyle
  2
OverhangOff
 70
    21
 71
     2
 72
     2
 73
     0
 90
        0
 40
-0.6
 41
-30.0
 62
     5
 63
     7
 74
     1
 91
        4
 64
     7
 65
   257
 75
     1
175
     1
 42
1.0
 92
        9
 66
     7
 43
1.0
 76
     1
 77
     6
 78
     2
 67
     7
 79
     5
170
     0
171
     0
290
     0
174
     0
 93
        1
 44
0.0
173
     0
291
     1
 45
0.0
1001
ACAD
1000
AcDbSavedByObjectVersion
1070
     0
  0
VISUALSTYLE
  5
33
102
{ACAD_REACTORS
330
29
102
}
102
{ACAD_XDICTIONARY
360
DF0A
102
}
330
29
100
AcDbVisualStyle
  2
Realistic
 70
     8
 71
     2
 72
     2
 73
     0
 90
        2
 40
-0.6
 41
30.0
 62
     5
 63
     7
 74
     0
 91
        0
 64
     7
 65
   257
 75
     1
175
     1
 42
1.0
 92
        8
 66
   257
 43
1.0
 76
     1
 77
     6
 78
     2
 67
     7
 79
     3
170
     0
171
     0
290
     0
174
     0
 93
       13
 44
0.0
173
     0
291
     0
 45
0.0
1001
ACAD
1000
AcDbSavedByObjectVersion
1070
     0
  0
VISUALSTYLE
  5
3E
102
{ACAD_REACTORS
330
29
102
}
102
{ACAD_XDICTIONARY
360
DF0C
102
}
330
29
100
AcDbVisualStyle
  2
Shaded
 70
    27
 71
     2
 72
     2
 73
     1
 90
        2
 40
-0.6
 41
30.0
 62
     5
 63
     7
 74
     0
 91
        4
 64
     7
 65
   257
 75
     1
175
     1
 42
1.0
 92
        8
 66
   257
 43
1.0
 76
     1
 77
     6
 78
     2
 67
     8
 79
     3
170
     0
171
     0
290
     0
174
     0
 93
        5
 44
0.0
173
     0
291
     0
 45
0.0
1001
ACAD
1000
AcDbSavedByObjectVersion
1070
     0
  0
VISUALSTYLE
  5
3D
102
{ACAD_REACTORS
330
29
102
}
102
{ACAD_XDICTIONARY
360
DF0E
102
}
330
29
100
AcDbVisualStyle
  2
Shaded with edges
 70
    26
 71
     2
 72
     2
 73
     1
 90
        2
 40
-0.6
 41
30.0
 62
     5
 63
     7
 74
     1
 91
       10
 64
     7
 65
   257
 75
     2
175
     1
 42
1.0
 92
        8
 66
   257
 43
1.0
 76
     1
 77
     6
 78
     2
 67
     7
 79
     3
170
     0
171
     0
290
     0
174
     0
 93
        5
 44
0.0
173
     0
291
     0
 45
0.0
1001
ACAD
1000
AcDbSavedByObjectVersion
1070
     0
  0
VISUALSTYLE
  5
3A
102
{ACAD_REACTORS
330
29
102
}
102
{ACAD_XDICTIONARY
360
DF10
102
}
330
29
100
AcDbVisualStyle
  2
Shades of Gray
 70
    23
 71
     2
 72
     2
 73
     3
 90
        0
 40
-0.6
 41
-30.0
 62
     5
 63
     7
 74
     2
 91
        2
 64
     7
 65
     7
 75
     1
175
     1
 42
40.0
 92
        8
 66
     7
 43
1.0
 76
     1
 77
     6
 78
     2
 67
     7
 79
     3
170
     0
171
     0
290
     0
174
     0
 93
        1
 44
0.0
173
     0
291
     0
 45
0.0
1001
ACAD
1000
AcDbSavedByObjectVersion
1070
     0
  0
VISUALSTYLE
  5
3B
102
{ACAD_REACTORS
330
29
102
}
102
{ACAD_XDICTIONARY
360
DF12
102
}
330
29
100
AcDbVisualStyle
  2
Sketchy
 70
    24
 71
     1
 72
     2
 73
     2
 90
        0
 40
-0.6
 41
-30.0
 62
     5
 63
     7
 74
     2
 91
        2
 64
     7
 65
     7
 75
     1
175
     1
 42
40.0
 92
       11
 66
     7
 43
1.0
 76
     1
 77
     6
 78
     2
 67
     7
 79
     6
170
     0
171
     0
290
     0
174
     0
 93
        1
 44
0.0
173
     0
291
     0
 45
0.0
1001
ACAD
1000
AcDbSavedByObjectVersion
1070
     0
  0
VISUALSTYLE
  5
36
102
{ACAD_REACTORS
330
29
102
}
102
{ACAD_XDICTIONARY
360
DF14
102
}
330
29
100
AcDbVisualStyle
  2
Thicken
 70
    13
 71
     2
 72
     2
 73
     0
 90
        0
 40
-0.6
 41
-30.0
 62
     5
 63
     7
 74
     1
 91
        4
 64
     7
 65
   257
 75
     1
175
     1
 42
1.0
 92
       12
 66
     7
 43
1.0
 76
     1
 77
     6
 78
     2
 67
     7
 79
     5
170
     0
171
     0
290
     0
174
     0
 93
        1
 44
0.0
173
     0
291
     1
 45
0.0
1001
ACAD
1000
AcDbSavedByObjectVersion
1070
     0
  0
VISUALSTYLE
  5
30
102
{ACAD_REACTORS
330
29
102
}
102
{ACAD_XDICTIONARY
360
DF16
102
}
330
29
100
AcDbVisualStyle
  2
Wireframe
 70
     5
 71
     0
 72
     2
 73
     0
 90
        0
 40
-0.6
 41
-30.0
 62
     5
 63
     7
 74
     1
 91
        4
 64
     7
 65
   257
 75
     1
175
     1
 42
1.0
 92
        0
 66
   257
 43
1.0
 76
     1
 77
     6
 78
     2
 67
     7
 79
     3
170
     0
171
     0
290
     0
174
     0
 93
        1
 44
0.0
173
     0
291
     0
 45
0.0
1001
ACAD
1000
AcDbSavedByObjectVersion
1070
     0
  0
VISUALSTYLE
  5
3C
102
{ACAD_REACTORS
330
29
102
}
102
{ACAD_XDICTIONARY
360
DF18
102
}
330
29
100
AcDbVisualStyle
  2
X-Ray
 70
    25
 71
     2
 72
     2
 73
     1
 90
        1
 40
0.5
 41
-30.0
 62
     5
 63
     7
 74
     1
 91
        0
 64
     7
 65
   257
 75
     1
175
     1
 42
1.0
 92
        8
 66
     7
 43
1.0
 76
     1
 77
     6
 78
     2
 67
     7
 79
     3
170
     0
171
     0
290
     0
174
     0
 93
       13
 44
0.0
173
     0
291
     0
 45
0.0
1001
ACAD
1000
AcDbSavedByObjectVersion
1070
     0
  0
XRECORD
  5
DED9
102
{ACAD_REACTORS
330
DED8
102
}
330
DED8
100
AcDbXrecord
280
     1
340
62
  0
XRECORD
  5
DEDA
102
{ACAD_REACTORS
330
DED8
102
}
330
DED8
100
AcDbXrecord
280
     1
340
10
  0
DICTIONARYVAR
  5
DD66
102
{ACAD_REACTORS
330
DD60
102
}
330
DD60
100
DictionaryVariables
280
     0
  1
1:1
  0
DICTIONARYVAR
  5
DD62
102
{ACAD_REACTORS
330
DD60
102
}
330
DD60
100
DictionaryVariables
280
     0
  1
Standard
  0
DICTIONARYVAR
  5
DD61
102
{ACAD_REACTORS
330
DD60
102
}
330
DD60
100
DictionaryVariables
280
     0
  1
Standard
  0
DICTIONARYVAR
  5
DD63
102
{ACAD_REACTORS
330
DD60
102
}
330
DD60
100
DictionaryVariables
280
     0
  1
Imperial24
  0
DICTIONARYVAR
  5
DD64
102
{ACAD_REACTORS
330
DD60
102
}
330
DD60
100
DictionaryVariables
280
     0
  1
Imperial24
  0
DICTIONARYVAR
  5
DED6
102
{ACAD_REACTORS
330
DD60
102
}
330
DD60
100
DictionaryVariables
280
     0
  1
1
  0
DICTIONARYVAR
  5
DED7
102
{ACAD_REACTORS
330
DD60
102
}
330
DD60
100
DictionaryVariables
280
     0
  1
0
  0
DICTIONARYVAR
  5
DD68
102
{ACAD_REACTORS
330
DD60
102
}
330
DD60
100
DictionaryVariables
280
     0
  1
1
  0
DICTIONARYVAR
  5
DD69
102
{ACAD_REACTORS
330
DD60
102
}
330
DD60
100
DictionaryVariables
280
     0
  1
15
  0
DICTIONARYVAR
  5
DD67
102
{ACAD_REACTORS
330
DD60
102
}
330
DD60
100
DictionaryVariables
280
     0
  1
0
  0
DICTIONARYVAR
  5
DD65
102
{ACAD_REACTORS
330
DD60
102
}
330
DD60
100
DictionaryVariables
280
     0
  1
0
  0
DICTIONARYVAR
  5
DED5
102
{ACAD_REACTORS
330
DD60
102
}
330
DD60
100
DictionaryVariables
280
     0
  1
2
  0
DICTIONARY
  5
DF1B
102
{ACAD_REACTORS
330
DF1A
102
}
330
DF1A
100
AcDbDictionary
281
     1
  0
DICTIONARY
  5
DF1C
102
{ACAD_REACTORS
330
DF1A
102
}
330
DF1A
100
AcDbDictionary
281
     1
  3
8796078885144
350
DF1D
  3
8796078885160
350
DF1E
  3
8796078885176
350
DF1F
  3
8796078885192
350
DF20
  3
8796078885208
350
DF21
  3
8796078885224
350
DF22
  0
DICTIONARY
  5
DED3
330
6A
100
AcDbDictionary
280
     1
281
     1
  3
ACAD_XREC_ROUNDTRIP
360
DEDE
  0
DICTIONARY
  5
DEDF
330
72
100
AcDbDictionary
280
     1
281
     1
  3
ADSK_XREC_LAYOUTTHUMBNAIL
360
DEE0
  0
DICTIONARY
  5
DEE1
330
19
100
AcDbDictionary
280
     1
281
     1
  3
ACAD_XREC_ROUNDTRIP
360
DEE2
  0
DICTIONARY
  5
DEE3
330
11
100
AcDbDictionary
280
     1
281
     1
  3
ACAD_XREC_ROUNDTRIP
360
DEE4
  0
DICTIONARY
  5
DEE5
330
21
100
AcDbDictionary
280
     1
281
     1
  3
ACAD_XREC_ROUNDTRIP
360
DEE6
  0
DICTIONARY
  5
DEE7
330
66
100
AcDbDictionary
280
     1
281
     1
  3
ACAD_XREC_ROUNDTRIP
360
DEE8
  0
DICTIONARY
  5
DED1
330
68
100
AcDbDictionary
280
     1
281
     1
  3
ACAD_XREC_ROUNDTRIP
360
DEE9
  0
DICTIONARY
  5
DEEA
330
2F
100
AcDbDictionary
280
     1
281
     1
  3
ACAD_XREC_ROUNDTRIP
360
DEEB
  0
DICTIONARY
  5
DEEC
330
2E
100
AcDbDictionary
280
     1
281
     1
  3
ACAD_XREC_ROUNDTRIP
360
DEED
  0
DICTIONARY
  5
DEEE
330
35
100
AcDbDictionary
280
     1
281
     1
  3
ACAD_XREC_ROUNDTRIP
360
DEEF
  0
DICTIONARY
  5
DEF0
330
39
100
AcDbDictionary
280
     1
281
     1
  3
ACAD_XREC_ROUNDTRIP
360
DEF1
  0
DICTIONARY
  5
DEF2
330
32
100
AcDbDictionary
280
     1
281
     1
  3
ACAD_XREC_ROUNDTRIP
360
DEF3
  0
DICTIONARY
  5
DEF4
330
34
100
AcDbDictionary
280
     1
281
     1
  3
ACAD_XREC_ROUNDTRIP
360
DEF5
  0
DICTIONARY
  5
DEF6
330
41
100
AcDbDictionary
280
     1
281
     1
  3
ACAD_XREC_ROUNDTRIP
360
DEF7
  0
DICTIONARY
  5
DEF8
330
38
100
AcDbDictionary
280
     1
281
     1
  3
ACAD_XREC_ROUNDTRIP
360
DEF9
  0
DICTIONARY
  5
DEFA
330
2A
100
AcDbDictionary
280
     1
281
     1
  3
ACAD_XREC_ROUNDTRIP
360
DEFB
  0
DICTIONARY
  5
DEFC
330
2B
100
AcDbDictionary
280
     1
281
     1
  3
ACAD_XREC_ROUNDTRIP
360
DEFD
  0
DICTIONARY
  5
DEFE
330
2C
100
AcDbDictionary
280
     1
281
     1
  3
ACAD_XREC_ROUNDTRIP
360
DEFF
  0
DICTIONARY
  5
DF00
330
2D
100
AcDbDictionary
280
     1
281
     1
  3
ACAD_XREC_ROUNDTRIP
360
DF01
  0
DICTIONARY
  5
DF02
330
31
100
AcDbDictionary
280
     1
281
     1
  3
ACAD_XREC_ROUNDTRIP
360
DF03
  0
DICTIONARY
  5
DF04
330
3F
100
AcDbDictionary
280
     1
281
     1
  3
ACAD_XREC_ROUNDTRIP
360
DF05
  0
DICTIONARY
  5
DF06
330
37
100
AcDbDictionary
280
     1
281
     1
  3
ACAD_XREC_ROUNDTRIP
360
DF07
  0
DICTIONARY
  5
DF08
330
40
100
AcDbDictionary
280
     1
281
     1
  3
ACAD_XREC_ROUNDTRIP
360
DF09
  0
DICTIONARY
  5
DF0A
330
33
100
AcDbDictionary
280
     1
281
     1
  3
ACAD_XREC_ROUNDTRIP
360
DF0B
  0
DICTIONARY
  5
DF0C
330
3E
100
AcDbDictionary
280
     1
281
     1
  3
ACAD_XREC_ROUNDTRIP
360
DF0D
  0
DICTIONARY
  5
DF0E
330
3D
100
AcDbDictionary
280
     1
281
     1
  3
ACAD_XREC_ROUNDTRIP
360
DF0F
  0
DICTIONARY
  5
DF10
330
3A
100
AcDbDictionary
280
     1
281
     1
  3
ACAD_XREC_ROUNDTRIP
360
DF11
  0
DICTIONARY
  5
DF12
330
3B
100
AcDbDictionary
280
     1
281
     1
  3
ACAD_XREC_ROUNDTRIP
360
DF13
  0
DICTIONARY
  5
DF14
330
36
100
AcDbDictionary
280
     1
281
     1
  3
ACAD_XREC_ROUNDTRIP
360
DF15
  0
DICTIONARY
  5
DF16
330
30
100
AcDbDictionary
280
     1
281
     1
  3
ACAD_XREC_ROUNDTRIP
360
DF17
  0
DICTIONARY
  5
DF18
330
3C
100
AcDbDictionary
280
     1
281
     1
  3
ACAD_XREC_ROUNDTRIP
360
DF19
  0
XRECORD
  5
DF1D
102
{ACAD_REACTORS
330
DF1C
102
}
330
DF1C
100
AcDbXrecord
280
     1
  1
AcDb_Thumbnail_Schema
102
{ATTRRECORD
341
DF1F
  2
AcDbDs::TreatedAsObjectData
280
     1
291
     1
102
ATTRRECORD}
102
{ATTRRECORD
341
DF20
  2
AcDbDs::Legacy
280
     1
291
     1
102
ATTRRECORD}
  2
AcDbDs::ID
280
    10
 91
        8
102
{ATTRRECORD
341
DF21
  2
AcDs:Indexable
280
     1
291
     1
102
ATTRRECORD}
102
{ATTRRECORD
341
DF22
  2
AcDbDs::HandleAttribute
280
     7
282
     1
102
ATTRRECORD}
  2
Thumbnail_Data
280
    15
 91
        0
  0
XRECORD
  5
DF1E
102
{ACAD_REACTORS
330
DF1C
102
}
330
DF1C
100
AcDbXrecord
280
     1
  1
AcDb3DSolid_ASM_Data
102
{ATTRRECORD
341
DF1F
  2
AcDbDs::TreatedAsObjectData
280
     1
291
     1
102
ATTRRECORD}
102
{ATTRRECORD
341
DF20
  2
AcDbDs::Legacy
280
     1
291
     1
102
ATTRRECORD}
  2
AcDbDs::ID
280
    10
 91
        8
102
{ATTRRECORD
341
DF21
  2
AcDs:Indexable
280
     1
291
     1
102
ATTRRECORD}
102
{ATTRRECORD
341
DF22
  2
AcDbDs::HandleAttribute
280
     7
282
     1
102
ATTRRECORD}
  2
ASM_Data
280
    15
 91
        0
  0
XRECORD
  5
DF1F
102
{ACAD_REACTORS
330
DF1C
102
}
330
DF1C
100
AcDbXrecord
280
     1
  1
AcDbDs::TreatedAsObjectDataSchema
  2
AcDbDs::TreatedAsObjectData
280
     1
 91
        0
  0
XRECORD
  5
DF20
102
{ACAD_REACTORS
330
DF1C
102
}
330
DF1C
100
AcDbXrecord
280
     1
  1
AcDbDs::LegacySchema
  2
AcDbDs::Legacy
280
     1
 91
        0
  0
XRECORD
  5
DF21
102
{ACAD_REACTORS
330
DF1C
102
}
330
DF1C
100
AcDbXrecord
280
     1
  1
AcDbDs::IndexedPropertySchema
  2
AcDs:Indexable
280
     1
 91
        0
  0
XRECORD
  5
DF22
102
{ACAD_REACTORS
330
DF1C
102
}
330
DF1C
100
AcDbXrecord
280
     1
  1
AcDbDs::HandleAttributeSchema
  2
AcDbDs::HandleAttribute
280
     7
 91
        1
284
     1
  0
XRECORD
  5
DEDE
102
{ACAD_REACTORS
330
DED3
102
}
330
DED3
100
AcDbXrecord
280
     1
102
DISPLAYNAME
  1
Imperial24
102
FLAGS
 90
        0
  0
XRECORD
  5
DEE0
102
{ACAD_REACTORS
330
DEDF
102
}
330
DEDF
100
AcDbXrecord
280
     1
310
280000000001000083000000010008000000000000830000010000000100000000010000000000003028216600000052C8C8C85600000050000000730000003200000031000000500000006F0000004F00000032330000466600006699000052CC000056FF00005000330073333300326633003199330050CC33006FFF3300
310
3200660018336600006666000099660000CC660000FF66000000990000339900006699000099990000CC990000FF99000000CC000033CC000066CC000099CC0000CCCC0000FFCC000000FF000033FF000066FF000099FF0000CCFF0000FFFF00010000331433003354660033539900336FCC003374FF003330003333303333
310
33726633337099333370CC333330FF3333010066331233663354666633539966336FCC663374FF66333000993330339933726699337099993331CC993300FF99330000CC330033CC330066CC330099CC3300CCCC3300FFCC330000FF330033FF330066FF330099FF3300CCFF3300FFFF330000006600330066006600660099
310
006600CC006600FF00660000336600333366006633660099336666CC336652FF33665600666650336666736666663299666631CC666650FF66666F0099664F339966336699664699996666CC996652FF99665600CC665033CC667366CC663299CC6631CCCC6650FFCC666F00FF663333FF661866FF660099FF6600CCFF6600
310
FFFF660000009900330099006600990099009900CC009900FF00990000339900333399006633990099339900CC339900FF33990000669900336699006666990099669900CC669900FF66990000999901339999146699995499999953CC99996FFF99997400CC993033CC993066CC997299CC9970CCCC9970FFCC993400FF99
310
0133FF991266FF995499FF9953CCFF996FFFFF99740000CC303300CC306600CC729900CC70CC00CC35FF00CC000033CC003333CC006633CC009933CC00CC33CC00FF33CC000066CC003366CC006666CC009966CC00CC66CC00FF66CC000099CC003399CC006699CC009999CC00CC99CC00FF99CC0000CCCC0033CCCC0066CC
310
CC0099CCCC00CCCCCC66FFCCCC5200FFCC5633FFCC5066FFCC7399FFCC32CCFFCC31FFFFCC500000FF6F3300FF4F6600FF339900FF46CC00FF66FF00FF520033FF563333FF506633FF739933FF32CC33FF31FF33FF500066FF6F3366FF336666FF5A9966FF00CC66FF14FF66FF540099FF533399FF6F6699FF749999FF30CC
310
99FF30FF99FF7200CCFF7033CCFF7066CCFF3799CCFF00CCCCFF12FFCCFF5400FFFF5333FFFF6F66FFFF7499FFFF30CCFFFF30FFFFFF72000000700D0D0D381A1A1A00282828003535356643434352505050565D5D5D506B6B6B73787878328686863193939350A1A1A16FAEAEAE4FBBBBBB33C9C9C946D6D6D666E4E4E452
310
F1F1F156FFFFFF50000000730000003200000031000000500000006F000000330000008C00000000000000F0000000FF00000000000000000000000000000000000000000000000000000000000000000000000000000000000000000000000000000000000000000000000000000000000000000000000000000000000000
310
00000000000000000000000000000000000000000000000000000000000000000000000000000000000000000000000000000000000000000000000000000000000000000000000000000000000000000000000000000000000000000000000000000000000000000000000000000000000000000000000000000000000000
310
00000000000000000000000000000000000000000000000000000000000000000000000000000000000000000000000000000000000000000000000000000000000000000000000000000000000000000000000000000000000000000000000000000000000000000000000000000000000000000000000000000000000000
310
00000000000000000000000000000000000000000000000000000000000000000000000000000000000000000000000000000000000000000000000000000000000000000000000000000000000000000000000000000000000000000000000000000000000000000000000000000000000000000000000000000000000000
310
00000000000000000000000000000000000000000000000000000000000000000000000000000000000000000000000000000000000000000000000000000000000000000000000000000000000000000000000000000000000000000000000000000000000000000000000000000000000000000000000000000000000000
310
00000000000000000000000000000000000000000000000000000000000000000000000000000000000000000000000000000000000000000000000000000000000000000000000000000000000000000000000000000000000000000000000000000000000000000000000000000000000000000000000000000000000000
310
00000000000000000000000000000000000000000000000000000000000000000000000000000000000000000000000000000000000000000000000000000000000000000000000000000000000000000000000000000000000000000000000000000000000000000000000000000000000000000000000000000000000000
310
00000000000000000000000000000000000000000000000000000000000000000000000000000000000000000000000000000000000000000000000000000000000000000000000000000000000000000000000000000000000000000000000000000000000000000000000000000000000000000000000000000000000000
310
00000000000000000000000000000000000000000000000000000000000000000000000000000000000000000000000000000000000000000000000000000000000000000000000000000000000000000000000000000000000000000000000000000000000000000000000000000000000000000000000000000000000000
310
00000000000000000000000000000000000000000000000000000000000000000000000000000000000000000000000000000000000000000000000000000000000000000000000000000000000000000000000000000000000000000000000000000000000000000000000000000000000000000000000000000000000000
310
00000000000000000000000000000000000000000000000000000000000000000000000000000000000000000000000000000000000000000000000000000000000000000000000000000000000000000000000000000000000000000000000000000000000000000000000000000000000000000000000000000000000000
310
00000000000000000000000000000000000000000000000000000000000000000000000000000000000000000000000000000000000000000000000000000000000000000000000000000000000000000000000000000000000000000000000000000000000000000000000000000000000000000000000000000000000000
310
00000000000000000000000000000000000000000000000000000000000000000000000000000000000000000000000000000000000000000000000000000000000000000000000000000000000000000000000000000000000000000000000000000000000000000000000000000000000000000000000000000000000000
310
00000000000000000000000000000000000000000000000000000000000000000000000000000000000000000000000000000000000000000000000000000000000000000000000000000000000000000000000000000000000000000000000000000000000000000000000000000000000000000000000000000000000000
310
00000000000000000000000000000000000000000000000000000000000000000000000000000000000000000000000000000000000000000000000000000000000000000000000000000000000000000000000000000000000000000000000000000000000000000000000000000000000000000000000000000000000000
310
00000000000000000000000000000000000000000000000000000000000000000000000000000000000000000000000000000000000000000000000000000000000000000000000000000000000000000000000000000000000000000000000000000000000000000000000000000000000000000000000000000000000000
310
00000000000000000000000000000000000000000000000000000000000000000000000000000000000000000000000000000000000000000000000000000000000000000000000000000000000000000000000000000000000000000000000000000000000000000000000000000000000000000000000000000000000000
310
00000000000000000000000000000000000000000000000000000000000000000000000000000000000000000000000000000000000000000000000000000000000000000000000000000000000000000000000000000000000000000000000000000000000000000000000000000000000000000000000000000000000000
310
00000000000000000000000000000000000000000000000000000000000000000000000000000000000000000000000000000000000000000000000000000000000000000000000000000000000000000000000000000000000000000000000000000000000000000000000000000000000000000000000000000000000000
310
00000000000000000000000000000000000000000000000000000000000000000000000000000000000000000000000000000000000000000000000000000000000000000000000000000000000000000000000000000000000000000000000000000000000000000000000000000000000000000000000000000000000000
310
00000000000000000000000000000000000000000000000000000000000000000000000000000000000000000000000000000000000000000000000000000000000000000000000000000000000000000000000000000000000000000000000000000000000000000000000000000000000000000000000000000000000000
310
00000000000000000000000000000000000000000000000000000000000000000000000000000000000000000000000000000000000000000000000000000000000000000000000000000000000000000000000000000000000000000000000000000000000000000000000000000000000000000000000000000000000000
310
00000000000000000000000000000000000000000000000000000000000000000000000000000000000000000000000000000000000000000000000000000000000000000000000000000000000000000000000000000000000000000000000000000000000000000000000000000000000000000000000000000000000000
310
00000000000000000000000000000000000000000000000000000000000000000000000000000000000000000000000000000000000000000000000000000000000000000000000000000000000000000000000000000000000000000000000000000000000000000000000000000000000000000000000000000000000000
310
00000000000000000000000000000000000000000000000000000000000000000000000000000000000000000000000000000000000000000000000000000000000000000000000000000000000000000000000000000000000000000000000000000000000000000000000000000000000000000000000000000000000000
310
00000000000000000000000000000000000000000000000000000000000000000000000000000000000000000000000000000000000000000000000000000000000000000000000000000000000000000000000000000000000000000000000000000000000000000000000000000000000000000000000000000000000000
310
00000000000000000000000000000000000000000000000000000000000000000000000000000000000000000000000000000000000000000000000000000000000000000000000000000000000000000000000000000000000000000000000000000000000000000000000000000000000000000000000000000000000000
310
00000000000000000000000000000000000000000000000000000000000000000000000000000000000000000000000000000000000000000000000000000000000000000000000000000000000000000000000000000000000000000000000000000000000000000000000000000000000000000000000000000000000000
310
00000000000000000000000000000000000000000000000000000000000000000000000000000000000000000000000000000000000000000000000000000000000000000000000000000000000000000000000000000000000000000000000000000000000000000000000000000000000000000000000000000000000000
310
00000000000000000000000000000000000000000000000000000000000000000000000000000000000000000000000000000000000000000000000000000000000000000000000000000000000000000000000000000000000000000000000000000000000000000000000000000000000000000000000000000000000000
310
00000000000000000000000000000000000000000000000000000000000000000000000000000000000000000000000000000000000000000000000000000000000000000000000000000000000000000000000000000000000000000000000000000000000000000000000000000000000000000000000000000000000000
310
00000000000000000000000000000000000000000000000000000000000000000000000000000000000000000000000000000000000000000000000000000000000000000000000000000000000000000000000000000000000000000000000000000000000000000000000000000000000000000000000000000000000000
310
00000000000000000000000000000000000000000000000000000000000000000000000000000000000000000000000000000000000000000000000000000000000000000000000000000000000000000000000000000000000000000000000000000000000000000000000000000000000000000000000000000000000000
310
00000000000000000000000000000000000000000000000000000000000000000000000000000000000000000000000000000000000000000000000000000000000000000000000000000000000000000000000000000000000000000000000000000000000000000000000000000000000000000000000000000000000000
310
00000000000000000000000000000000000000000000000000000000000000000000000000000000000000000000000000000000000000000000000000000000000000000000000000000000000000000000000000000000000000000000000000000000000000000000000000000000000000000000000000000000000000
310
00000000000000000000000000000000000000000000000000000000000000000000000000000000000000000000000000000000000000000000000000000000000000000000000000000000000000000000000000000000000000000000000000000000000000000000000000000000000000000000000000000000000000
310
00000000000000000000000000000000000000000000000000000000000000000000000000000000000000000000000000000000000000000000000000000000000000000000000000000000000000000000000000000000000000000000000000000000000000000000000000000000000000000000000000000000000000
310
00000000000000000000000000000000000000000000000000000000000000000000000000000000000000000000000000000000000000000000000000000000000000000000000000000000000000000000000000000000000000000000000000000000000000000000000000000000000000000000000000000000000000
310
00000000000000000000000000000000000000000000000000000000000000000000000000000000000000000000000000000000000000000000000000000000000000000000000000000000000000000000000000000000000000000000000000000000000000000000000000000000000000000000000000000000000000
310
00000000000000000000000000000000000000000000000000000000000000000000000000000000000000000000000000000000000000000000000000000000000000000000000000000000000000000000000000000000000000000000000000000000000000000000000000000000000000000000000000000000000000
310
00000000000000000000000000000000000000000000000000000000000000000000000000000000000000000000000000000000000000000000000000000000000000000000000000000000000000000000000000000000000000000000000000000000000000000000000000000000000000000000000000000000000000
310
00000000000000000000000000000000000000000000000000000000000000000000000000000000000000000000000000000000000000000000000000000000000000000000000000000000000000000000000000000000000000000000000000000000000000000000000000000000000000000000000000000000000000
310
00000000000000000000000000000000000000000000000000000000000000000000000000000000000000000000000000000000000000000000000000000000000000000000000000000000000000000000000000000000000000000000000000000000000000000000000000000000000000000000000000000000000000
310
00000000000000000000000000000000000000000000000000000000000000000000000000000000000000000000000000000000000000000000000000000000000000000000000000000000000000000000000000000000000000000000000000000000000000000000000000000000000000000000000000000000000000
310
00000000000000000000000000000000000000000000000000000000000000000000000000000000000000000000000000000000000000000000000000000000000000000000000000000000000000000000000000000000000000000000000000000000000000000000000000000000000000000000000000000000000000
310
00000000000000000000000000000000000000000000000000000000000000000000000000000000000000000000000000000000000000000000000000000000000000000000000000000000000000000000000000000000000000000000000000000000000000000000000000000000000000000000000000000000000000
310
00000000000000000000000000000000000000000000000000000000000000000000000000000000000000000000000000000000000000000000000000000000000000000000000000000000000000000000000000000000000000000000000000000000000000000000000000000000000000000000000000000000000000
310
00000000000000000000000000000000000000000000000000000000000000000000000000000000000000000000000000000000000000000000000000000000000000000000000000000000000000000000000000000000000000000000000000000000000000000000000000000000000000000000000000000000000000
310
00000000000000000000000000000000000000000000000000000000000000000000000000000000000000000000000000000000000000000000000000000000000000000000000000000000000000000000000000000000000000000000000000000000000000000000000000000000000000000000000000000000000000
310
00000000000000000000000000000000000000000000000000000000000000000000000000000000000000000000000000000000000000000000000000000000000000000000000000000000000000000000000000000000000000000000000000000000000000000000000000000000000000000000000000000000000000
310
00000000000000000000000000000000000000000000000000000000000000000000000000000000000000000000000000000000000000000000000000000000000000000000000000000000000000000000000000000000000000000000000000000000000000000000000000000000000000000000000000000000000000
310
00000000000000000000000000000000000000000000000000000000000000000000000000000000000000000000000000000000000000000000000000000000000000000000000000000000000000000000000000000000000000000000000000000000000000000000000000000000000000000000000000000000000000
310
00000000000000000000000000000000000000000000000000000000000000000000000000000000000000000000000000000000000000000000000000000000000000000000000000000000000000000000000000000000000000000000000000000000000000000000000000000000000000000000000000000000000000
310
00000000000000000000000000000000000000000000000000000000000000000000000000000000000000000000000000000000000000000000000000000000000000000000000000000000000000000000000000000000000000000000000000000000000000000000000000000000000000000000000000000000000000
310
00000000000000000000000000000000000000000000000000000000000000000000000000000000000000000000000000000000000000000000000000000000000000000000000000000000000000000000000000000000000000000000000000000000000000000000000000000000000000000000000000000000000000
310
00000000000000000000000000000000000000000000000000000000000000000000000000000000000000000000000000000000000000000000000000000000000000000000000000000000000000000000000000000000000000000000000000000000000000000000000000000000000000000000000000000000000000
310
00000000000000000000000000000000000000000000000000000000000000000000000000000000000000000000000000000000000000000000000000000000000000000000000000000000000000000000000000000000000000000000000000000000000000000000000000000000000000000000000000000000000000
310
00000000000000000000000000000000000000000000000000000000000000000000000000000000000000000000000000000000000000000000000000000000000000000000000000000000000000000000000000000000000000000000000000000000000000000000000000000000000000000000000000000000000000
310
00000000000000000000000000000000000000000000000000000000000000000000000000000000000000000000000000000000000000000000000000000000000000000000000000000000000000000000000000000000000000000000000000000000000000000000000000000000000000000000000000000000000000
310
00000000000000000000000000000000000000000000000000000000000000000000000000000000000000000000000000000000000000000000000000000000000000000000000000000000000000000000000000000000000000000000000000000000000000000000000000000000000000000000000000000000000000
310
00000000000000000000000000000000000000000000000000000000000000000000000000000000000000000000000000000000000000000000000000000000000000000000000000000000000000000000000000000000000000000000000000000000000000000000000000000000000000000000000000000000000000
310
00000000000000000000000000000000000000000000000000000000000000000000000000000000000000000000000000000000000000000000000000000000000000000000000000000000000000000000000000000000000000000000000000000000000000000000000000000000000000000000000000000000000000
310
00000000000000000000000000000000000000000000000000000000000000000000000000000000000000000000000000000000000000000000000000000000000000000000000000000000000000000000000000000000000000000000000000000000000000000000000000000000000000000000000000000000000000
310
00000000000000000000000000000000000000000000000000000000000000000000000000000000000000000000000000000000000000000000000000000000000000000000000000000000000000000000000000000000000000000000000000000000000000000000000000000000000000000000000000000000000000
310
00000000000000000000000000000000000000000000000000000000000000000000000000000000000000000000000000000000000000000000000000000000000000000000000000000000000000000000000000000000000000000000000000000000000000000000000000000000000000000000000000000000000000
310
00000000000000000000000000000000000000000000000000000000000000000000000000000000000000000000000000000000000000000000000000000000000000000000000000000000000000000000000000000000000000000000000000000000000000000000000000000000000000000000000000000000000000
310
00000000000000000000000000000000000000000000000000000000000000000000000000000000000000000000000000000000000000000000000000000000000000000000000000000000000000000000000000000000000000000000000000000000000000000000000000000000000000000000000000000000000000
310
00000000000000000000000000000000000000000000000000000000000000000000000000000000000000000000000000000000000000000000000000000000000000000000000000000000000000000000000000000000000000000000000000000000000000000000000000000000000000000000000000000000000000
310
00000000000000000000000000000000000000000000000000000000000000000000000000000000000000000000000000000000000000000000000000000000000000000000000000000000000000000000000000000000000000000000000000000000000000000000000000000000000000000000000000000000000000
310
00000000000000000000000000000000000000000000000000000000000000000000000000000000000000000000000000000000000000000000000000F5F5F5F5F5F5F5F5F5F5F5F5F5F5F5F5F5F5F5F5F5F5F5F5F5F5F5F5F5F5F5F5F5F5F5F5F5F5F5F5F5F5F5F5F5F5F5F5F5F5F5F5F5F5F5F5F5F5F5F5F5F5F5F5F5F5
310
F5F5F5F5F5F5F5F5F5F5F5F5F5F5F5F5F5F5F5F5F5F5F5F5F5F5F5F5F5F5F5F5F5F5F5F5F5F5F5F5F5F5F5F5F5F5F5F5F5F5F5F5F5F5F5F5F5F5F5F5F5F5F5F5F5F5F5F5F5F5F5F5F5F5F5F5F5F5F5F5F5F5F5F5F5F5F5F5F5F5F5F5F5F5F5F5F5F5F5F5F5F5F5F5F5F5F50000000000000000000000000000000000000000
310
00000000000000000000000000000000000000000000000000000000000000000000000000000000000000000000000000000000000000000000F5F5F5F5F5F5000000000000F50000000000000000000000000000000000000000000000000000000000000000000000000000000000000000000000000000000000000000
310
00000000000000000000000000000000000000000000000000000000000000000000000000000000000000000000000000000000000000000000000000000000000000000000000000000000000000000000000000000000000000000000000000000000F500000000000000F5000000000000000000000000000000000000
310
000000000000000000000000000000000000000000000000000000000000000000000000000000000000000000000000000000000000000000000000F500000000F5000000000000F5000000000000000000000000000000000000000000000000000000000000000000000000000000000000000000000000000000000000
310
000000000000000000000000000000000000000000000000000000000000000000000000000000000000000000000000000000000000000000000000000000000000000000000000000000000000000000000000000000000000000000000000000000000000F500000000000000F500000000000000000000000000000000
310
0000000000000000000000000000000000000000000000000000000000000000000000000000000000000000000000000000000000000000000000000000F500000000F5000000000000F500000000000000000000000000000000000000000000000000000000000000000000000000000000000000000000000000000000
310
0000000000000000000000000000000000000000000000000000000000000000000000000000000000000000000000000000000000000000000000000000000000000000000000000000000000000000000000000000000000000000000000000000000000000000F500000000000000F50000000000000000000000000000
310
00000000000000000000000000000000000000000000000000000000000000000000000000000000000000000000000000000000000000000000000000000000F500000000F5000000000000F50000000000000000000000000000000000000000000000000000000000000000000000000000000000000000000000000000
310
00000000000000000000000000000000000000000000000000000000000000000000000000000000000000000000000000000000000000000000000000000000000000000000000000000000000000000000000000000000000000000000000000000000000000000000F500000000000000F5000000000000000000000000
310
000000000000000000000000000000000000000000000000000000000000000000000000000000000000000000000000000000000000000000000000000000000000F500000000F5000000000000F5000000000000000000000000000000000000000000000000000000000000000000000000000000000000000000000000
310
000000000000000000000000000000000000000000000000000000000000000000000000000000000000000000000000000000000000000000000000000000000000000000000000000000000000000000000000000000000000000000000000000000000000000000000000F500000000000000F500000000000000000000
310
0000000000000000000000000000000000000000000000000000000000000000000000000000000000000000000000000000000000000000000000000000000000000000F500000000F5000000000000F500000000000000000000000000000000000000000000000000000000000000000000000000000000000000000000
310
0000000000000000000000000000000000000000000000000000000000000000000000000000000000000000000000000000000000000000000000000000000000000000000000000000000000000000000000000000000000000000000000000000000000000000000000000000F500000000000000F50000000000000000
310
00000000000000000000000000000000000000000000000000000000000000000000000000000000000000000000000000000000000000000000000000000000000000000000F5F5F5F5F5F5000000000000F50000000000000000000000000000000000000000000000000000000000000000000000000000000000000000
310
00000000000000000000000000000000000000000000000000000000000000000000000000000000000000000000000000000000000000000000000000000000000000000000000000000000000000000000000000000000000000000000000000000000000000000000000000000000F500000000000000F5000000000000
310
0000000000000000000000000000000000000000000000000000000000000000000000000000000000000000000000000000000000000000000000000000000000000000000000000000000000F5000000000000F5000000000000000000000000000000000000000000000000000000000000000000000000000000000000
310
000000000000000000000000000000000000000000000000000000000000000000000000000000000000000000000000000000000000000000000000000000000000000000000000000000000000000000000000000000000000000000000000000000000000000000000000000000000000F500000000000000F500000000
310
00000000000000000000000000000000000000000000000000000000000000000000000000000000000000000000000000000000000000000000000000000000000000000000000000000000000000F5000000000000F500000000000000000000000000000000000000000000000000000000000000000000000000000000
310
0000000000000000000000000000000000000000000000000000000000000000000000000000000000000000000000000000000000000000000000000000000000000000000000000000000000000000000000000000000000000000000000000000000000000000000000000000000000000000F500000000000000F50000
310
000000000000000000000000000000000000000000000000000000000000000000000000000000000000000000000000000000000000000000000000000000000000000000000000000000000000000000F5000000000000F50000000000000000000000000000000000000000000000000000000000000000000000000000
310
00000000000000000000000000000000000000000000000000000000000000000000000000000000000000000000000000000000000000000000000000000000000000000000000000000000000000000000000000000000000000000000000000000000000000000000000000000000000000000000F500000000000000F5
310
000000000000000000000000000000000000000000000000000000000000000000000000000000000000000000000000000000000000F5F5F5F5F5F5F5F5F5F5F5F5F5F5F5F5F5F5F5F5F5F5F5F5F5F5F5F5F5F5000000000000F5000000000000000000000000000000000000000000000000000000000000000000000000
310
000000000000000000000000000000000000000000000000000000000000000000000000000000000000000000000000000000000000000000000000000000000000000000000000000000000000000000000000000000000000000000000000000000000000000000000000000000000000000000000000F5000000000000
310
00F5000000000000000000000000000000000000000000000000000000000000000000000000000000000000000000000000000000000000F500000000000000000000000000000000000000000000000000000000F5000000000000F500000000000000000000000000000000000000000000000000000000000000000000
310
0000000000000000000000000000000000000000000000000000000000000000000000000000000000000000000000000000000000000000000000000000000000000000000000000000000000000000000000000000000000000000000000000000000000000000000000000000000000000000000000000000F500000000
310
000000F5000000000000000000000000000000000000000000000000000000000000000000000000000000000000000000000000000000000000F500000000000000000000000000000000000000000000000000000000F5000000000000F5F5F5F5F5F5F5F5F5F5F5F5F5F5F5F5F5F5F5F5F5F5F5F5F5F5F5F5F5F5F5F5F5
310
F5F5F5F5F5F5F5F5F5F5F5F5F5F5F5F5F5F5F5F5F5F5F5F5F5F5F5F5F5F5F5F5F5F5F5F5F5F5F5F5F5F5F5F5F5F5F5F5F5F5F5F5F5F5F5F5F5F5F5F5F5F5F5F5F5F5F5F5F5F5F5F5F5F5F5F5F5F5F5F5F5F5F5F5F5F5F5F5F5F5F5F5F5F5F5F5F5F5F5F5F5F5F5F5F5F5F5F5F5F5F5F5F5F5F5F5F5F5F5F5F5F5F5F5F50000
310
0000000000F5000000000000000000000000000000000000000000000000000000000000000000000000000000000000000000000000000000000000F500000000000000000000000000000000000000000000000000000000F5000000000000F5000000000000000000000000000000000000000000000000000000000000
310
000000000000000000000000000000000000000000000000000000000000000000000000000000000000000000000000000000000000000000000000000000000000000000000000000000000000000000000000000000000000000000000000000000000000000000000000000000000000000000000000000000000000F5
310
00000000000000F50000000000000000000000F5F5F5F5F5F500000000000000000000000000000000000000000000000000000000000000000000000000F500000000000000000000000000000000000000000000000000000000F5000000000000F500000000000000000000000000000000000000000000000000000000
310
00000000000000000000000000000000000000000000000000000000000000000000000000000000000000000000000000000000000000000000000000000000000000000000000000000000000000000000000000000000000000000000000000000000000000000000000000000000000000000000000000000000000000
310
00F500000000000000F50000000000000000000000F500000000F5F5F5F5F50000F5F5F5F5F50000F5F5F5F5F5F5F5F5F500000000F5F5F5F5F5F5F5F5F5F5F5F500000000000000000000000000000000000000000000000000000000F5000000000000F50000000000000000000000000000000000000000000000000000
310
00000000000000000000000000000000000000000000000000000000000000000000000000000000000000000000000000000000000000000000000000000000000000000000000000000000000000000000000000000000000000000000000000000000000000000000000000000000000000000000000000000000000000
310
000000F500000000000000F50000000000000000000000F500000000F50000000000000000000000000000000000F50000F5F5F5F5F5F5F5F5F50000000000000000F500000000000000000000000000000000000000000000000000000000F5000000000000F5000000000000000000000000000000000000000000000000
310
00000000000000000000000000000000000000000000000000000000000000000000000000000000000000000000000000000000000000000000000000000000000000000000000000000000000000000000000000000000000000000000000000000000000000000000000000000000000000000000000000000000000000
310
0000000000F500000000000000F50000000000000000000000F500000000F5F5000000000000000000000000000000F5F50000F5F5000000000000000000000000000000F500000000000000000000000000000000000000000000000000000000F5000000000000F500000000000000000000000000000000000000000000
310
00000000000000000000000000000000000000000000000000000000000000000000000000000000000000000000000000000000000000000000000000000000000000000000000000000000000000000000000000000000000000000000000000000000000000000000000000000000000000000000000000000000000000
310
00000000000000F500000000000000F50000000000000000000000000000000000F5000000000000000000000000000000F5F50000F5F5000000000000000000000000000000F500000000000000000000000000000000000000000000000000000000F5000000000000F50000000000000000000000000000000000000000
310
00000000000000000000000000000000000000000000000000000000000000000000000000000000000000000000000000000000000000000000000000000000000000000000000000000000000000000000000000000000000000000000000000000000000000000000000000000000000000000000000000000000000000
310
000000000000000000F500000000000000F50000000000000000000000F500000000F5F5000000000000000000000000000000F5F50000F5F5000000000000000000000000000000F500000000000000000000000000000000000000000000000000000000F5000000000000F5000000000000000000000000000000000000
310
00000000000000000000000000000000000000000000000000000000000000000000000000000000000000000000000000000000000000000000000000000000000000000000000000000000000000000000000000000000000000000000000000000000000000000000000000000000000000000000000000000000000000
310
0000000000000000000000F500000000000000F50000000000000000000000F500000000F5F5000000000000000000000000000000F5F50000F5F5000000000000000000000000000000F500000000000000000000000000000000000000000000000000000000F5000000000000F500000000000000000000000000000000
310
00000000000000000000000000000000000000000000000000000000000000000000000000000000000000000000000000000000000000000000000000000000000000000000000000000000000000000000000000000000000000000000000000000000000000000000000000000000000000000000000000000000000000
310
00000000000000000000000000F500000000000000F50000000000000000000000F500000000F5F5000000000000000000000000000000F5F5F500F5F5F5F5F5F5F5F5F5F5F5F5F5F5F5F5F5F500000000000000000000000000000000000000000000000000000000F5000000000000F50000000000000000000000000000
310
00000000000000000000000000000000000000000000000000000000000000000000000000000000000000000000000000000000000000000000000000000000000000000000000000000000000000000000000000000000000000000000000000000000000000000000000000000000000000000000000000000000000000
310
000000000000000000000000000000F500000000000000F50000000000000000000000F5F5F5F5F5F5F5F5F5F50000F5F5F5F5F50000F5F5F5F50000F5F500000000000000000000000000000000F500000000000000000000000000000000000000000000000000000000F5000000000000F5000000000000000000000000
310
00000000000000000000000000000000000000000000000000000000000000000000000000000000000000000000000000000000000000000000000000000000000000000000000000000000000000000000000000000000000000000000000000000000000000000000000000000000000000000000000000000000000000
310
0000000000000000000000000000000000F500000000000000F5000000000000000000000000000000000000000000000000000000000000000000000000000000000000000000000000000000000000F500000000000000000000000000000000000000000000000000000000F5000000000000F500000000000000000000
310
00000000000000000000000000000000000000000000000000000000000000000000000000000000000000000000000000000000000000000000000000000000000000000000000000000000000000000000000000000000000000000000000000000000000000000000000000000000000000000000000000000000000000
310
00000000000000000000000000000000000000F500000000000000F5000000000000000000000000000000000000000000000000000000000000000000000000000000000000000000000000000000000000F500000000000000000000000000000000000000000000000000000000F5000000000000F50000000000000000
310
00000000000000000000000000000000000000000000000000000000000000000000000000000000000000000000000000000000000000000000000000000000000000000000000000000000000000000000000000000000000000000000000000000000000000000000000000000000000000000000000000000000000000
310
000000000000000000000000000000000000000000F500000000000000F5000000000000000000000000000000000000000000000000000000000000000000000000000000000000000000000000000000000000F500000000000000000000000000000000000000000000000000000000F5000000000000F5000000000000
310
00000000000000000000000000000000000000000000000000000000000000000000000000000000000000000000000000000000000000000000000000000000000000000000000000000000000000000000000000000000000000000000000000000000000000000000000000000000000000000000000000000000000000
310
0000000000000000000000000000000000000000000000F500000000000000F5000000000000000000000000000000000000000000000000000000000000000000000000000000000000000000000000000000000000F5F5F5F5F5F5F5F5F5F5F5F5F5F5F5F5F5F5F5F5F5F5F5F5F5F5F5F5F5F5000000000000F500000000
310
00000000000000000000000000000000000000000000000000000000000000000000000000000000000000000000000000000000000000000000000000000000000000000000000000000000000000000000000000000000000000000000000000000000000000000000000000000000000000000000000000000000000000
310
00000000000000000000000000000000000000000000000000F500000000000000F50000000000000000000000000000000000000000000000000000000000000000000000000000000000000000000000000000000000000000000000000000000000000000000000000000000000000000000000F5000000000000F50000
310
000000F5F5F500F5F5F5F5F5F50000F5F5F5F500F5F5F5F5F5F50000F5F5000000F5F5F5F5F5000000F5F5F500F5F5F5F5F5F5000000F5F5F500F5F5F5F5F5F50000F5F5F50000F5F5F5F5F50000F5F5F50000F5F5F5F5F5F5000000F5F5F500F5F5F5F5F5F5000000F5F50000F5F5F5F5F50000F5F5F5F500F5F5F5F5F5F5
310
F5F5F5F5F5F5F5F5F5F5F5F5F5F5F5F5F5F5F5F5F5F5F5F5F5F5F5F500000000000000F50000000000000000000000000000000000000000000000000000000000000000000000000000000000000000000000000000000000000000000000000000000000000000000000000000000000000000000000F5000000000000F5
310
000000F5F5000000F5F500000000F500F500000000F5F500000000F5F5F50000F5F500F500000000F5F5F5000000F5F500000000F500F5F5000000F5F500000000F5F5F5000000F500F500000000F5F5000000F5F5F500000000F500F5F5000000F5F500000000F500F5F50000F500F500000000F5F500000000F5F5000000
310
0000000000000000000000000000000000000000000000000000000000F500000000000000F50000000000000000000000000000000000000000000000000000000000000000000000000000000000000000000000000000000000000000000000000000000000000000000000000000000000000000000000F50000000000
310
00F50000F500F5F5F500F5F500000000F5F500F5F5F500F50000000000F500F5F5F50000F50000000000F500F5F5F500F5F500000000F5F500F5F5F500F50000000000F50000F5F5F500F50000000000F500F5F5F500F5F500000000F5F500F5F5F500F5F500000000F5F5F5F5F5F500F50000000000F500F5F5F5F5F5F500
310
00000000000000000000000000000000000000000000000000000000000000F500000000000000F50000000000000000000000000000000000000000000000000000000000000000000000000000000000000000000000000000000000000000000000000000000000000000000000000000000000000000000000F5000000
310
F5F5F5F5F5F5F500F50000F5F5000000000000F5F50000F500F50000000000F500F50000F500F50000000000F500F50000F5F5000000000000F500F500F500F50000000000F500F50000F500F50000000000F500F50000F500F50000000000F500F500F500F50000000000F500F50000F500F50000000000F500F50000F500
310
F50000000000000000000000000000000000000000000000000000000000000000F5F5F5F500000000F50000000000000000000000000000000000000000000000000000000000000000000000000000000000000000000000000000000000000000000000000000000000000000000000000000000000000000000000F500
310
0000F50000000000F500F5F5F500F5000000000000F500F500F500F5000000000000F500F5F5F500F50000000000F500F5F5F500F5000000000000F500F5F5F500F5000000000000F500F500F500F5000000000000F5F50000F5F5000000000000F500F5F5F500F5000000000000F500F5F5F500F50000000000F500F50000
310
F5F5000000000000000000000000000000000000000000000000000000000000000000000000F500000000F50000000000000000000000000000000000000000000000000000000000000000000000000000000000000000000000000000000000000000000000000000000000000000000000000000000000000000000000
310
F5000000F5000000000000F500000000F500000000000000F500F50000F5000000000000F50000F50000F5000000000000F500000000F500000000000000F500000000F5000000000000F50000F50000F5000000000000F500F5F500F500000000000000F500000000F5000000000000F50000000000F5000000000000F500
310
F5F500F5000000000000000000000000000000000000000000000000000000000000000000000000F500000000F5000000000000000000000000000000000000000000000000000000000000000000000000000000000000000000000000000000000000000000000000000000000000000000000000000000000000000000
310
0000F5000000F5000000000000F5000000F50000000000000000F5000000F50000000000000000F5000000F500000000000000F500000000F500000000000000F5000000F50000000000000000F5000000F500000000000000F5000000F50000000000000000F5000000F50000000000000000F5F5F5F5F500000000000000
310
F5000000F500000000000000000000000000000000000000000000000000000000000000000000000000F500000000F500000000000000000000000000000000000000000000000000000000000000000000000000000000000000000000000000000000000000000000000000000000000000000000000000000000000000
310
00000000F5000000F500000000000000F5F5F500000000000000000000F5F5F500000000000000000000F5F5F5000000000000000000F5F5F5F5000000000000000000F5F5F500000000000000000000F5F5F5000000000000000000F5F5F500000000000000000000F5F5F500000000000000000000000000000000000000
310
000000F5F5F50000000000000000000000000000000000000000000000000000000000000000000000000000F500000000F5000000000000000000000000000000000000000000000000000000000000000000000000000000000000000000000000000000000000F5F5F5F5F5F5F5F5F5F5F5F5F5F5F5F5F5F5F5F5F5F5F5
310
F5F5F5F5F5F5F5000000F50000000000000000000000000000000000000000000000000000000000000000000000000000000000000000000000000000000000000000000000000000000000000000000000000000000000000000000000000000000000000000000000000000000000000000000000000000000000000000
310
00000000000000000000000000000000000000000000000000000000000000000000000000000000000000000000F500000000F5000000000000000000000000000000000000000000000000000000000000000000000000000000000000000000000000000000000000F50000000000000000000000000000000000000000
310
0000000000000000F5000000F5000000000000000000000000000000000000000000000000000000000000000000000000000000000000000000000000000000000000000000000000000000000000000000000000000000000000000000000000000000000000000000000000000000000000000000000000000000000000
310
000000000000000000000000000000000000000000000000000000000000000000000000000000000000000000000000F500000000F5000000000000000000000000000000000000000000000000000000000000000000000000000000000000000000000000000000000000F5000000000000000000000000000000000000
310
00000000000000000000F5000000F500000000000000000000000000000000000000000000000000000000000000000000000000000000000000000000000000000000000000000000000000000000000000000000000000000000000000000000000000000000000000000000000000000000000000000000000000000000
310
0000000000000000000000000000000000000000000000000000000000000000000000000000000000000000000000000000F500000000F5000000000000000000000000000000000000000000000000000000000000000000000000000000000000000000000000000000000000F500000000000000000000000000000000
310
000000000000000000000000F5000000F50000000000000000000000000000000000000000000000000000000000000000000000000000000000000000000000000000000000000000000000000000000000000000000000000000000000000000000000000000000000000000000000000000000000000000000000000000
310
00000000000000000000000000000000000000000000000000000000000000000000000000000000000000000000000000000000F500000000F5000000000000000000000000000000000000000000000000000000000000000000000000000000000000000000000000000000000000F50000000000000000000000000000
310
0000000000000000000000000000F5000000F5000000000000000000000000000000000000000000000000000000000000000000000000000000000000000000000000000000000000000000000000000000000000000000000000000000000000000000000000000000000000000000000000000000000000000000000000
310
000000000000000000000000000000000000000000000000000000000000000000000000000000000000000000000000000000000000F500000000F500000000000000000000000000000000000000000000000000000000000000000000F5F5F5F5F5F5F5F5F5F5F5F5F5F5F5F5F5F5F5F5F5000000000000000000000000
310
00000000000000000000000000000000F5000000F500000000000000000000000000000000000000000000000000000000000000000000000000000000000000000000000000000000000000000000000000000000000000000000000000000000000000000000000000000000000000000000000000000000000000000000
310
0000000000000000000000000000000000000000000000000000000000000000000000000000000000000000000000000000000000000000F500000000F500000000000000000000000000000000000000000000000000000000000000000000F50000F5F5000000000000000000000000000000F500000000000000000000
310
000000000000000000000000000000000000F5000000F50000000000000000000000000000000000000000000000000000000000000000000000000000000000000000000000000000000000000000000000000000000000000000000000000000000000000000000000000000000000000000000000000000000000000000
310
00000000000000000000000000000000000000000000000000000000000000000000000000000000000000000000000000000000000000000000F500000000F500000000000000000000000000000000000000000000000000000000000000000000F50000F5F5000000000000000000000000000000F50000000000000000
310
0000000000000000000000000000000000000000F5000000F5000000000000000000000000000000000000000000000000000000000000000000000000000000000000000000000000000000000000000000000000000000000000000000000000000000000000000000000000000000000000000000000000000000000000
310
000000000000000000000000000000000000000000000000000000000000000000000000000000000000000000000000000000000000000000000000F500000000F500000000000000000000000000000000000000000000000000000000000000000000F50000F5F5000000000000000000000000000000F5000000000000
310
00000000000000000000000000000000000000000000F5000000F5F5F5F5F5F5F5F5F5F5F5F5F5F5F5F5F5F5F5F5F5F5F5F5F5F5F5F5F5F5F5F5F5F5F5F5F5F5F5F5F5F5F5F5F5F5F5F5F5F5F5F5F5F5F5F5F5F5F5F5F5F5F5F5F5F5F5F5F5F5F5F5F5F5F5F5F5F5F5F5F5F5F5F5F5F5F5F5F5F5F5F5F5F5F5F5F5F5F5F5F5
310
F5F5F5F5F5F5F5F5F5F5F5F5F5F5F5F5F5F5F5F5F5F5F5F5F5F5F5F5F5F5F5F5F5F5F5F5F5F5F5F5F5F5F5F5F5F5F5F5F5F5F5F5F5F5F5F5F5F5F5F5F5F5F500000000F500000000000000000000000000000000000000000000000000000000000000000000F50000F5F5000000000000000000000000000000F500000000
310
000000000000000000000000000000000000000000000000F5000000F50000000000000000000000000000000000000000000000000000000000000000000000000000000000000000000000000000000000000000000000000000000000000000000000000000000000000000000000000000000000000000000000000000
310
00000000000000000000000000000000000000000000000000000000000000000000000000000000000000000000000000000000000000000000000000000000F500000000F500000000000000000000000000000000000000000000000000000000000000000000F50000F5F5F5F5F5F5F5F5F5F5F5F5F5F5F5F5F5F50000
310
0000000000000000000000000000000000000000000000000000F5000000F5000000000000000000000000000000000000000000000000000000000000000000000000000000000000000000000000000000000000000000000000000000000000000000000000000000000000000000000000000000000000000000000000
310
000000000000000000000000000000000000000000000000000000000000000000000000000000000000000000000000000000000000000000000000000000000000F500000000F500000000000000000000000000000000000000000000000000000000000000000000F5F5F5F500000000000000000000000000000000F5
310
00000000000000000000000000000000000000000000000000000000F5000000F500000000000000000000000000000000000000000000000000000000000000000000000000000000000000000000000000000000000000000000000000000000000000000000000000000000000000000000000000000000000000000000
310
0000000000000000000000000000000000000000000000000000000000000000000000000000000000000000000000000000000000000000000000000000000000000000F500000000F50000000000000000000000000000000000000000000000000000000000000000000000000000000000000000000000000000000000
310
00F500000000000000000000000000000000000000000000000000000000F5000000F50000000000000000000000000000000000000000000000000000000000000000000000000000000000000000000000000000000000000000000000000000000000000000000000000000000000000000000000000000000000000000
310
00000000000000000000000000000000000000000000000000000000000000000000000000000000000000000000000000000000000000000000000000000000000000000000F500000000F5000000000000000000000000000000000000000000000000000000000000000000000000000000000000000000000000000000
310
000000F5000000000000000000000000000000000000000000000000000000F5F5000000F5000000000000000000000000000000000000000000000000000000000000000000000000000000000000000000000000000000000000000000000000000000000000000000000000000000000000000000000000000000000000
310
000000000000000000000000000000000000000000000000000000000000000000000000000000000000000000000000000000000000000000000000000000000000000000000000F500000000F5F5000000000000000000000000000000000000000000000000000000000000000000000000000000000000000000000000
310
0000000000F5000000000000000000000000000000000000000000000000000000F5F5000000F50000000000000000000000000000F5000000000000000000000000F5000000000000000000000000F5000000000000000000000000F50000000000000000000000F5000000000000000000000000F5000000000000000000
310
000000F50000000000000000000000F5000000000000000000000000F5000000000000000000000000F50000000000000000000000000000000000000000000000000000000000000000F500000000F5F500000000000000000000000000000000000000000000000000000000000000000000000000000000000000000000
310
00000000000000F5000000000000000000000000000000000000000000000000000000F5F5000000F500000000000000000000000000F500F5F50000000000000000F5F500F5F50000000000000000F5F500F5F50000000000000000F5F500F50000000000000000F5F500F5F50000000000000000F5F500F5F50000000000
310
000000F5F500F5000000000000000000F500F5F50000000000000000F5F500F5F50000000000000000F5F500F500000000000000000000000000000000000000000000000000000000000000F500000000F5F50000000000000000000000000000000000000000000000000000000000000000000000000000000000000000
310
000000000000000000F5F5F5F5F5F5F5F5F5F5F5F5F5F5F5F5F5F5F5F5F5F5F5F5F5F5F5F5F5F5000000F5000000000000000000000000F500000000F500000000000000F500000000F5000000000000F50000000000F5000000000000F500000000F500000000000000F500000000F5000000000000F50000000000F50000
310
00000000F500000000F500000000000000F500000000F5000000000000F50000000000F5000000000000F500000000F5000000000000000000000000000000000000000000000000000000000000F500000000F5F5000000000000000000000000000000000000000000000000000000000000000000000000000000000000
310
000000000000000000000000000000000000000000000000000000000000000000000000000000F5F5000000F5000000000000000000000000F500000000F5000000000000F50000000000F5000000000000F50000000000F5000000000000F500000000F500000000000000F500000000F5000000000000F50000000000F5
310
000000000000F500000000F500000000000000F500000000F5000000000000F50000000000F5000000000000F500000000F5000000000000000000000000000000000000000000000000000000000000F500000000F5F500000000000000000000000000000000000000000000000000000000000000000000000000000000
310
0000000000000000000000000000000000000000000000000000000000000000000000000000000000F5F5000000F5000000000000000000000000F500000000F5000000000000F50000000000F5000000000000F50000000000F5000000000000F500000000F500000000000000F500000000F5000000000000F500000000
310
00F5000000000000F500000000F500000000000000F500000000F5000000000000F50000000000F5000000000000F500000000F5000000000000000000000000000000000000000000000000000000000000F500000000F5000000000000000000000000000000000000000000000000000000000000000000000000000000
310
000000000000000000000000000000000000000000000000000000000000000000F5F50000000000000000F5F5000000F5000000000000000000000000F5F5000000F5F50000000000F5F500000000F5000000000000F5F500000000F5000000000000F5F5000000F5F50000000000F5F500000000F5000000000000F5F500
310
0000F5F5000000000000F5F5000000F5F5000000000000F5F5000000F5000000000000F5F500000000F5000000000000F5F5000000F5F50000000000000000000000000000000000000000000000000000000000F500000000F5000000000000000000F5F50000000000000000000000000000000000000000000000000000
310
0000000000000000000000000000000000000000000000000000000000000000000000F5F50000000000000000F5F5000000F5F5F5F5F5F5F5F5F5F5F5F5F5F5F5F5F5F5F5F5F5F5F5F5F5F5F5F5F5F5F5F5F5F5F5F5F5F5F5F5F5F5F5F5F5F5F5F5F5F5F5F5F5F5F5F5F5F5F5F5F5F5F5F5F5F5F5F5F5F5F5F5F5F5F5F5F5
310
F5F5F5F5F5F5F5F5F5F5F5F5F5F5F5F5F5F5F5F5F5F5F5F5F5F5F5F5F5F5F5F5F5F5F5F5F5F5F5F5F5F5F5F5F5F5F5F5F5F5F5F5F5F5F5F5F5F5F5F5F5F5F5F5F5F5F5F5F5F5F5F5F5F5F5F5F5F5F5F5F5F5F5F5F5F5F500000000F5000000000000000000F5F5000000000000000000000000000000000000000000000000
310
00000000000000000000000000000000000000000000000000000000000000000000000000F5F50000000000000000F5F5000000F500000000000000000000F50000F500000000000000000000F50000000000000000000000F5F500000000000000000000F50000F500000000000000000000F5F5F5000000000000000000
310
F5F5F5000000000000000000F5F5F50000000000000000000000F5F5000000000000000000F5F5F5F5000000000000000000F50000F500000000000000000000000000000000000000000000000000000000000000000000F500000000F5000000000000000000F5F500000000000000000000000000000000000000000000
310
000000000000000000000000000000000000000000000000000000000000000000000000000000F5F5F5F5F5F5F5F5F5F5F5F5000000F500000000000000000000F500F500000000000000000000F500F50000000000000000000000F500000000000000000000F50000F5000000000000000000F500F5F500000000000000
310
0000F50000000000000000000000F50000F5000000000000000000F500F500000000000000000000F50000F50000000000000000F5F5F5F500000000000000000000000000000000000000000000000000000000000000000000F500000000F5F5F5F5F5F5F5F5F5F5F5F50000000000000000000000000000000000000000
310
000000000000000000000000000000000000000000000000000000000000000000000000000000000000000000000000000000F5F5F5F5F5F500000000000000000000F5F500000000000000000000000000F50000000000000000000000F500000000000000000000F5F5F5F5000000000000000000F500F5F50000000000
310
00000000F5F5F5000000000000000000F50000F5000000000000000000F5000000000000000000000000F5F5F500000000000000000000F500F500000000000000000000000000000000000000000000000000000000000000000000F5F5F5F5F5F50000000000000000000000000000000000000000000000000000000000
310
0000000000000000000000000000000000000000000000000000000000000000000000000000000000000000000000000000000000F5000000000000000000000000000000F500F5000000000000000000000000F50000000000000000000000F500000000000000000000F50000F5000000000000000000F50000F5000000
310
000000000000F50000000000000000000000F50000F5000000000000000000F5000000000000000000000000F500F500000000000000000000F5F500000000000000000000000000000000000000000000000000000000000000000000000000000000F5000000000000000000000000000000000000000000000000000000
310
00000000000000000000000000000000000000000000000000000000000000000000000000000000000000000000000000000000000000F5000000000000000000000000000000F50000F50000000000000000000000F50000000000000000000000F500000000000000000000F50000F500000000000000000000F5F50000
310
0000000000000000F5F5F5000000000000000000F5F5F5F5000000000000000000F5F5F5F5000000000000000000F5F5F500000000000000000000F5F500000000000000000000000000000000000000000000000000000000000000000000000000000000F500000000000000000000000000000000000000000000000000
310
000000000000000000000000000000000000000000000000000000000000000000000000000000000000000000000000000000000000000000F5F5F5F5F5F5F5F5F5F5F5F5F5F5F5F5F5F5F5F5F5F5F5F5F5F5F5F5F5F5F5F5F5F5F5F5F5F5F5F5F5F5F5F5F5F5F5F5F5F5F5F5F5F5F5F5F5F5F5F5F5F5F5F5F5F5F5F5F5F5
310
F5F5F5F5F5F5F5F5F5F5F5F5F5F5F5F5F5F5F5F5F5F5F5F5F5F5F5F5F5F5F5F5F5F5F5F5F5F5F5F5F5F5F5F5F5F5F5F5F5F5F5F5F5F5F5F5F5F5F5F5F5F5F5F5F5F5F5F5F5F5F5F5F5F5F5F5F5F5F5F5F5F5F5F5F5F5F5F5F5F5F5F5F5F5F5F5F5F5F5F5F5F5F5F50000000000000000000000000000000000000000000000
310
00000000000000000000000000000000000000000000000000000000000000000000000000000000000000000000000000000000000000000000000000000000000000000000000000000000000000000000000000000000000000000000000000000000000000000000000000000000000000000000000000000000000000
310
00000000000000000000000000000000000000000000000000000000000000000000000000000000000000000000000000000000000000000000000000000000000000000000000000000000000000000000000000000000000000000000000000000000000000000000000000000000000000000000000000000000000000
310
00000000000000000000000000000000000000000000000000000000000000000000000000000000000000000000000000000000000000000000000000000000000000000000000000000000000000000000000000000000000000000000000000000000000000000000000000000000000000000000000000000000000000
310
00000000000000000000000000000000000000000000000000000000000000000000000000000000000000000000000000000000000000000000000000000000000000000000000000000000000000000000000000000000000000000000000000000000000000000000000000000000000000000000000000000000000000
310
00000000000000000000000000000000000000000000000000000000000000000000000000000000000000000000000000000000000000000000000000000000000000000000000000000000000000000000000000000000000000000000000000000000000000000000000000000000000000000000000000000000000000
310
00000000000000000000000000000000000000000000000000000000000000000000000000000000000000000000000000000000000000000000000000000000000000000000000000000000000000000000000000000000000000000000000000000000000000000000000000000000000000000000000000000000000000
310
00000000000000000000000000000000000000000000000000000000000000000000000000000000000000000000000000000000000000000000000000000000000000000000000000000000000000000000000000000000000000000000000000000000000000000000000000000000000000000000000000000000000000
310
00000000000000000000000000000000000000000000000000000000000000000000000000000000000000000000000000000000000000000000000000000000000000000000000000000000000000000000000000000000000000000000000000000000000000000000000000000000000000000000000000000000000000
310
00000000000000000000000000000000000000000000000000000000000000000000000000000000000000000000000000000000000000000000000000000000000000000000000000000000000000000000000000000000000000000000000000000000000000000000000000000000000000000000000000000000000000
310
00000000000000000000000000000000000000000000000000000000000000000000000000000000000000000000000000000000000000000000000000000000000000000000000000000000000000000000000000000000000000000000000000000000000000000000000000000000000000000000000000000000000000
310
00000000000000000000000000000000000000000000000000000000000000000000000000000000000000000000000000000000000000000000000000000000000000000000000000000000000000000000000000000000000000000000000000000000000000000000000000000000000000000000000000000000000000
310
00000000000000000000000000000000000000000000000000000000000000000000000000000000000000000000000000000000000000000000000000000000000000000000000000000000000000000000000000000000000000000000000000000000000000000000000000000000000000000000000000000000000000
310
00000000000000000000000000000000000000000000000000000000000000000000000000000000000000000000000000000000000000000000000000000000000000000000000000000000000000000000000000000000000000000000000000000000000000000000000000000000000000000000000000000000000000
310
00000000000000000000000000000000000000000000000000000000000000000000000000000000000000000000000000000000000000000000000000000000000000000000000000000000000000000000000000000000000000000000000000000000000000000000000000000000000000000000000000000000000000
310
00000000000000000000000000000000000000000000000000000000000000000000000000000000000000000000000000000000000000000000000000000000000000000000000000000000000000000000000000000000000000000000000000000000000000000000000000000000000000000000000000000000000000
310
00000000000000000000000000000000000000000000000000000000000000000000000000000000000000000000000000000000000000000000000000000000000000000000000000000000000000000000000000000000000000000000000000000000000000000000000000000000000000000000000000000000000000
310
00000000000000000000000000000000000000000000000000000000000000000000000000000000000000000000000000000000000000000000000000000000000000000000000000000000000000000000000000000000000000000000000000000000000000000000000000000000000000000000000000000000000000
310
00000000000000000000000000000000000000000000000000000000000000000000000000000000000000000000000000000000000000000000000000000000000000000000000000000000000000000000000000000000000000000000000000000000000000000000000000000000000000000000000000000000000000
310
00000000000000000000000000000000000000000000000000000000000000000000000000000000000000000000000000000000000000000000000000000000000000000000000000000000000000000000000000000000000000000000000000000000000000000000000000000000000000000000000000000000000000
310
00000000000000000000000000000000000000000000000000000000000000000000000000000000000000000000000000000000000000000000000000000000000000000000000000000000000000000000000000000000000000000000000000000000000000000000000000000000000000000000000000000000000000
310
00000000000000000000000000000000000000000000000000000000000000000000000000000000000000000000000000000000000000000000000000000000000000000000000000000000000000000000000000000000000000000000000000000000000000000000000000000000000000000000000000000000000000
310
00000000000000000000000000000000000000000000000000000000000000000000000000000000000000000000000000000000000000000000000000000000000000000000000000000000000000000000000000000000000000000000000000000000000000000000000000000000000000000000000000000000000000
310
00000000000000000000000000000000000000000000000000000000000000000000000000000000000000000000000000000000000000000000000000000000000000000000000000000000000000000000000000000000000000000000000000000000000000000000000000000000000000000000000000000000000000
310
00000000000000000000000000000000000000000000000000000000000000000000000000000000000000000000000000000000000000000000000000000000000000000000000000000000000000000000000000000000000000000000000000000000000000000000000000000000000000000000000000000000000000
310
00000000000000000000000000000000000000000000000000000000000000000000000000000000000000000000000000000000000000000000000000000000000000000000000000000000000000000000000000000000000000000000000000000000000000000000000000000000000000000000000000000000000000
310
00000000000000000000000000000000000000000000000000000000000000000000000000000000000000000000000000000000000000000000000000000000000000000000000000000000000000000000000000000000000000000000000000000000000000000000000000000000000000000000000000000000000000
310
00000000000000000000000000000000000000000000000000000000000000000000000000000000000000000000000000000000000000000000000000000000000000000000000000000000000000000000000000000000000000000000000000000000000000000000000000000000000000000000000000000000000000
310
00000000000000000000000000000000000000000000000000000000000000000000000000000000000000000000000000000000000000000000000000000000000000000000000000000000000000000000000000000000000000000000000000000000000000000000000000000000000000000000000000000000000000
310
00000000000000000000000000000000000000000000000000000000000000000000000000000000000000000000000000000000000000000000000000000000000000000000000000000000000000000000000000000000000000000000000000000000000000000000000000000000000000000000000000000000000000
310
00000000000000000000000000000000000000000000000000000000000000000000000000000000000000000000000000000000000000000000000000000000000000000000000000000000000000000000000000000000000000000000000000000000000000000000000000000000000000000000000000000000000000
310
00000000000000000000000000000000000000000000000000000000000000000000000000000000000000000000000000000000000000000000000000000000000000000000000000000000000000000000000000000000000000000000000000000000000000000000000000000000000000000000000000000000000000
310
00000000000000000000000000000000000000000000000000000000000000000000000000000000000000000000000000000000000000000000000000000000000000000000000000000000000000000000000000000000000000000000000000000000000000000000000000000000000000000000000000000000000000
310
00000000000000000000000000000000000000000000000000000000000000000000000000000000000000000000000000000000000000000000000000000000000000000000000000000000000000000000000000000000000000000000000000000000000000000000000000000000000000000000000000000000000000
310
00000000000000000000000000000000000000000000000000000000000000000000000000000000000000000000000000000000000000000000000000000000000000000000000000000000000000000000000000000000000000000000000000000000000000000000000000000000000000000000000000000000000000
310
00000000000000000000000000000000000000000000000000000000000000000000000000000000000000000000000000000000000000000000000000000000000000000000000000000000000000000000000000000000000000000000000000000000000000000000000000000000000000000000000000000000000000
310
00000000000000000000000000000000000000000000000000000000000000000000000000000000000000000000000000000000000000000000000000000000000000000000000000000000000000000000000000000000000000000000000000000000000000000000000000000000000000000000000000000000000000
310
00000000000000000000000000000000000000000000000000000000000000000000000000000000000000000000000000000000000000000000000000000000000000000000000000000000000000000000000000000000000000000000000000000000000000000000000000000000000000000000000000000000000000
310
00000000000000000000000000000000000000000000000000000000000000000000000000000000000000000000000000000000000000000000000000000000000000000000000000000000000000000000000000000000000000000000000000000000000000000000000000000000000000000000000000000000000000
310
00000000000000000000000000000000000000000000000000000000000000000000000000000000000000000000000000000000000000000000000000000000000000000000000000000000000000000000000000000000000000000000000000000000000000000000000000000000000000000000000000000000000000
310
00000000000000000000000000000000000000000000000000000000000000000000000000000000000000000000000000000000000000000000000000000000000000000000000000000000000000000000000000000000000000000000000000000000000000000000000000000000000000000000000000000000000000
310
00000000000000000000000000000000000000000000000000000000000000000000000000000000000000000000000000000000000000000000000000000000000000000000000000000000000000000000000000000000000000000000000000000000000000000000000000000000000000000000000000000000000000
310
00000000000000000000000000000000000000000000000000000000000000000000000000000000000000000000000000000000000000000000000000000000000000000000000000000000000000000000000000000000000000000000000000000000000000000000000000000000000000000000000000000000000000
310
00000000000000000000000000000000000000000000000000000000000000000000000000000000000000000000000000000000000000000000000000000000000000000000000000000000000000000000000000000000000000000000000000000000000000000000000000000000000000000000000000000000000000
310
00000000000000000000000000000000000000000000000000000000000000000000000000000000000000000000000000000000000000000000000000000000000000000000000000000000000000000000000000000000000000000000000000000000000000000000000000000000000000000000000000000000000000
310
00000000000000000000000000000000000000000000000000000000000000000000000000000000000000000000000000000000000000000000000000000000000000000000000000000000000000000000000000000000000000000000000000000000000000000000000000000000000000000000000000000000000000
310
00000000000000000000000000000000000000000000000000000000000000000000000000000000000000000000000000000000000000000000000000000000000000000000000000000000000000000000000000000000000000000000000000000000000000000000000000000000000000000000000000000000000000
310
00000000000000000000000000000000000000000000000000000000000000000000000000000000000000000000000000000000000000000000000000000000000000000000000000000000000000000000000000000000000000000000000000000000000000000000000000000000000000000000000000000000000000
310
00000000000000000000000000000000000000000000000000000000000000000000000000000000000000000000000000000000000000000000000000000000000000000000000000000000000000000000000000000000000000000000000000000000000000000000000000000000000000000000000000000000000000
310
00000000000000000000000000000000000000000000000000000000000000000000000000000000000000000000000000000000000000000000000000000000000000000000000000000000000000000000000000000000000000000000000000000000000000000000000000000000000000000000000000000000000000
310
00000000000000000000000000000000000000000000000000000000000000000000000000000000000000000000000000000000000000000000000000000000000000000000000000000000000000000000000000000000000000000000000000000000000000000000000000000000000000000000000000000000000000
310
00000000000000000000000000000000000000000000000000000000000000000000000000000000000000000000000000000000000000000000000000000000000000000000000000000000000000000000000000000000000000000000000000000000000000000000000000000000000000000000000000000000000000
310
00000000000000000000000000000000000000000000000000000000000000000000000000000000000000000000000000000000000000000000000000000000000000000000000000000000000000000000000000000000000000000000000000000000000000000000000000000000000000000000000000000000000000
310
00000000000000000000000000000000000000000000000000000000000000000000000000000000000000000000000000000000000000000000000000000000000000000000000000000000000000000000000000000000000000000000000000000000000000000000000000000000000000000000000000000000000000
310
00000000000000000000000000000000000000000000000000000000000000000000000000000000000000000000000000000000000000000000000000000000000000000000000000000000000000000000000000000000000000000000000000000000000000000000000000000000000000000000000000000000000000
310
00000000000000000000000000000000000000000000000000000000000000000000000000000000000000000000000000000000000000000000000000000000000000000000000000000000000000000000000000000000000000000000000000000000000000000000000000000000000000000000000000000000000000
310
00000000000000000000000000000000000000000000000000000000000000000000000000000000000000000000000000000000000000000000000000000000000000000000000000000000000000000000000000000000000000000000000000000000000000000000000000000000000000000000000000000000000000
310
00000000000000000000000000000000000000000000000000000000000000000000000000000000000000000000000000000000000000000000000000000000000000000000000000000000000000000000000000000000000000000000000000000000000000000000000000000000000000000000000000000000000000
310
00000000000000000000000000000000000000000000000000000000000000000000000000000000000000000000000000000000000000000000000000000000000000000000000000000000000000000000000000000000000000000000000000000000000000000000000000000000000000000000000000000000000000
310
00000000000000000000000000000000000000000000000000000000000000000000000000000000000000000000000000000000000000000000000000000000000000000000000000000000000000000000000000000000000000000000000000000000000000000000000000000000000000000000000000000000000000
310
00000000000000000000000000000000000000000000000000000000000000000000000000000000000000000000000000000000000000000000000000000000000000000000000000000000000000000000000000000000000000000000000000000000000000000000000000000000000000000000000000000000000000
310
00000000000000000000000000000000000000000000000000000000000000000000000000000000000000000000000000000000000000000000000000000000000000000000000000000000000000000000000000000000000000000000000000000000000000000000000000000000000000000000000000000000000000
310
00000000000000000000000000000000000000000000000000000000000000000000000000000000000000000000000000000000000000000000000000000000000000000000000000000000000000000000000000000000000000000000000000000000000000000000000000000000000000000000000000000000000000
310
00000000000000000000000000000000000000000000000000000000000000000000000000000000000000000000000000000000000000000000000000000000000000000000000000000000000000000000000000000000000000000000000000000000000000000000000000000000000000000000000000000000000000
310
00000000000000000000000000000000000000000000000000000000000000000000000000000000000000000000000000000000000000000000000000000000000000000000000000000000000000000000000000000000000000000000000000000000000000000000000000000000000000000000000000000000000000
310
00000000000000000000000000000000000000000000000000000000000000000000000000000000000000000000000000000000000000000000000000000000000000000000000000000000000000000000000000000000000000000000000000000000000000000000000000000000000000000000000000000000000000
310
00000000000000000000000000000000000000000000000000000000000000000000000000000000000000000000000000000000000000000000000000000000000000000000000000000000000000000000000000000000000000000000000000000000000000000000000000000000000000000000000000000000000000
310
00000000000000000000000000000000000000000000000000000000000000000000000000000000000000000000000000000000000000000000000000000000000000000000000000000000000000000000000000000000000000000000000000000000000000000000000000000000000000000000000000000000000000
310
00000000000000000000000000000000000000000000000000000000000000000000000000000000000000000000000000000000000000000000000000000000000000000000000000000000000000000000000000000000000000000000000000000000000000000000000000000000000000000000000000000000000000
310
0000000000000000000000000000000000000000000000000000000000000000000000000000000000000000000000000000000000000000
  0
XRECORD
  5
DEE2
102
{ACAD_REACTORS
330
DEE1
102
}
330
DEE1
100
AcDbXrecord
280
     1
102
MATERIAL
148
0.0
149
0.0
149
0.0
 93
        0
 94
      127
282
     0
 72
     0
 77
     0
171
     0
175
     0
179
     0
273
     0
  0
XRECORD
  5
DEE4
102
{ACAD_REACTORS
330
DEE3
102
}
330
DEE3
100
AcDbXrecord
280
     1
102
MATERIAL
148
0.0
149
0.0
149
0.0
 93
        0
 94
      127
282
     0
 72
     0
 77
     0
171
     0
175
     0
179
     0
273
     0
  0
XRECORD
  5
DEE6
102
{ACAD_REACTORS
330
DEE5
102
}
330
DEE5
100
AcDbXrecord
280
     1
102
MATERIAL
148
0.0
149
0.0
149
0.0
 93
        0
 94
      127
282
     0
 72
     0
 77
     0
171
     0
175
     0
179
     0
273
     0
  0
XRECORD
  5
DEE8
102
{ACAD_REACTORS
330
DEE7
102
}
330
DEE7
100
AcDbXrecord
280
     1
102
ACAD_ROUNDTRIP_2010_MLEADER_STYLE
  0
XRECORD
  5
DEE9
102
{ACAD_REACTORS
330
DED1
102
}
330
DED1
100
AcDbXrecord
280
     1
102
DISPLAYNAME
  1
Imperial24
102
FLAGS
 90
        0
  0
XRECORD
  5
DEEB
102
{ACAD_REACTORS
330
DEEA
102
}
330
DEEA
100
AcDbXrecord
280
     1
102
RTVSPropertyOp0
 70
     1
102
RTVSPropertyOp1
 70
     1
102
RTVSPropertyOp2
 70
     1
102
RTVSPropertyOp3
 70
     1
102
RTVSPropertyOp4
 70
     1
102
RTVSPropertyOp5
 70
     1
102
RTVSPropertyOp6
 70
     1
102
RTVSPropertyOp7
 70
     1
102
RTVSPropertyOp8
 70
     1
102
RTVSPropertyOp9
 70
     1
102
RTVSPropertyOp10
 70
     1
102
RTVSPropertyOp11
 70
     1
102
RTVSPropertyOp12
 70
     1
102
RTVSPropertyOp13
 70
     1
102
RTVSPropertyOp14
 70
     1
102
RTVSPropertyOp15
 70
     1
102
RTVSPropertyOp16
 70
     1
102
RTVSPropertyOp17
 70
     1
102
RTVSPropertyOp18
 70
     1
102
RTVSPropertyOp19
 70
     1
102
RTVSPropertyOp20
 70
     1
102
RTVSPropertyOp21
 70
     1
102
RTVSPropertyOp22
 70
     1
102
RTVSPropertyOp23
 70
     1
102
RTVSPropertyOp24
 70
     1
102
RTVSPropertyOp25
 70
     1
102
RTVSPropertyOp26
 70
     1
102
RTVSPropertyOp27
 70
     1
102
RTVSPropertyOp28
 70
     1
102
RTVSPropertyOp29
 70
     1
102
RTVSPropertyOp30
 70
     1
102
RTVSPropertyOp31
 70
     1
102
RTVSPropertyOp32
 70
     1
102
RTVSPropertyOp33
 70
     1
102
RTVSPropertyOp34
 70
     1
102
RTVSPropertyOp35
 70
     1
102
RTVSPropertyOp36
 70
     1
102
RTVSPropertyOp37
 70
     1
102
RTVSPropertyOp38
 70
     1
102
RTVSPropertyOp39
 70
     1
102
RTVSPropertyOp40
 70
     1
102
RTVSPropertyOp41
 70
     1
102
RTVSPropertyOp42
 70
     1
102
RTVSPropertyOp43
 70
     1
102
RTVSPropertyOp44
 70
     1
102
RTVSPropertyOp45
 70
     1
102
RTVSPropertyOp46
 70
     1
102
RTVSPropertyOp47
 70
     1
102
RTVSPropertyOp48
 70
     1
102
RTVSPropertyOp49
 70
     1
102
RTVSPropertyOp50
 70
     1
102
RTVSPropertyOp51
 70
     0
102
RTVSPropertyOp52
 70
     0
102
RTVSPropertyOp53
 70
     1
102
RTVSPropertyOp54
 70
     1
102
RTVSPropertyOp55
 70
     1
102
RTVSPropertyOp56
 70
     1
102
RTVSPropertyOp57
 70
     1
102
RTVSPost2010Prop28
280
     1
102
RTVSPost2010PropOp28
 70
     1
102
RTVSPost2010Prop29
280
     1
102
RTVSPost2010PropOp29
 70
     1
102
RTVSPost2010Prop30
280
     0
102
RTVSPost2010PropOp30
 70
     1
102
RTVSPost2010Prop31
280
     0
102
RTVSPost2010PropOp31
 70
     1
102
RTVSPost2010Prop32
280
     0
102
RTVSPost2010PropOp32
 70
     1
102
RTVSPost2010Prop33
280
     0
102
RTVSPost2010PropOp33
 70
     1
102
RTVSPost2010Prop34
280
     0
102
RTVSPost2010PropOp34
 70
     1
102
RTVSPost2010Prop35
280
     0
102
RTVSPost2010PropOp35
 70
     1
102
RTVSPost2010Prop36
280
     0
102
RTVSPost2010PropOp36
 70
     1
102
RTVSPost2010Prop37
 90
       50
102
RTVSPost2010PropOp37
 70
     1
102
RTVSPost2010Prop38
140
0.0
102
RTVSPost2010PropOp38
 70
     1
102
RTVSPost2010Prop39
140
1.0
102
RTVSPost2010PropOp39
 70
     1
102
RTVSPost2010Prop40
 90
        0
102
RTVSPost2010PropOp40
 70
     1
102
RTVSPost2010Prop41ColorIndex
 90
       18
102
RTVSPost2010Prop41ColorRGB
 90
        0
102
RTVSPost2010PropOp41
 70
     1
102
RTVSPost2010Prop42
 90
       50
102
RTVSPost2010PropOp42
 70
     1
102
RTVSPost2010Prop43
 90
        3
102
RTVSPost2010PropOp43
 70
     1
102
RTVSPost2010Prop44ColorIndex
 90
        5
102
RTVSPost2010Prop44ColorRGB
 90
      255
102
RTVSPost2010PropOp44
 70
     1
102
RTVSPost2010Prop45
280
     0
102
RTVSPost2010PropOp45
 70
     1
102
RTVSPost2010Prop46
 90
       50
102
RTVSPost2010PropOp46
 70
     1
102
RTVSPost2010Prop47
 90
       50
102
RTVSPost2010PropOp47
 70
     1
102
RTVSPost2010Prop48
 90
       50
102
RTVSPost2010PropOp48
 70
     1
102
RTVSPost2010Prop49
280
     0
102
RTVSPost2010PropOp49
 70
     1
102
RTVSPost2010Prop50
 90
       50
102
RTVSPost2010PropOp50
 70
     1
102
RTVSPost2010Prop51ColorIndex
 90
      256
102
RTVSPost2010Prop51ColorRGB
 90
-16777216
102
RTVSPost2010PropOp51
 70
     0
102
RTVSPost2010Prop52
140
1.0
102
RTVSPost2010PropOp52
 70
     0
102
RTVSPost2010Prop53
 90
        2
102
RTVSPost2010PropOp53
 70
     1
102
RTVSPost2010Prop54
  1
strokes_ogs.tif
102
RTVSPost2010PropOp54
 70
     1
102
RTVSPost2010Prop55
280
     0
102
RTVSPost2010PropOp55
 70
     1
102
RTVSPost2010Prop56
140
1.0
102
RTVSPost2010PropOp56
 70
     1
102
RTVSPost2010Prop57
140
1.0
102
RTVSPost2010PropOp57
 70
     1
  0
XRECORD
  5
DEED
102
{ACAD_REACTORS
330
DEEC
102
}
330
DEEC
100
AcDbXrecord
280
     1
102
RTVSPropertyOp0
 70
     1
102
RTVSPropertyOp1
 70
     1
102
RTVSPropertyOp2
 70
     1
102
RTVSPropertyOp3
 70
     1
102
RTVSPropertyOp4
 70
     1
102
RTVSPropertyOp5
 70
     1
102
RTVSPropertyOp6
 70
     1
102
RTVSPropertyOp7
 70
     1
102
RTVSPropertyOp8
 70
     1
102
RTVSPropertyOp9
 70
     1
102
RTVSPropertyOp10
 70
     1
102
RTVSPropertyOp11
 70
     1
102
RTVSPropertyOp12
 70
     1
102
RTVSPropertyOp13
 70
     1
102
RTVSPropertyOp14
 70
     1
102
RTVSPropertyOp15
 70
     1
102
RTVSPropertyOp16
 70
     1
102
RTVSPropertyOp17
 70
     1
102
RTVSPropertyOp18
 70
     1
102
RTVSPropertyOp19
 70
     1
102
RTVSPropertyOp20
 70
     1
102
RTVSPropertyOp21
 70
     1
102
RTVSPropertyOp22
 70
     1
102
RTVSPropertyOp23
 70
     1
102
RTVSPropertyOp24
 70
     1
102
RTVSPropertyOp25
 70
     1
102
RTVSPropertyOp26
 70
     1
102
RTVSPropertyOp27
 70
     1
102
RTVSPropertyOp28
 70
     1
102
RTVSPropertyOp29
 70
     1
102
RTVSPropertyOp30
 70
     1
102
RTVSPropertyOp31
 70
     1
102
RTVSPropertyOp32
 70
     1
102
RTVSPropertyOp33
 70
     1
102
RTVSPropertyOp34
 70
     1
102
RTVSPropertyOp35
 70
     1
102
RTVSPropertyOp36
 70
     1
102
RTVSPropertyOp37
 70
     1
102
RTVSPropertyOp38
 70
     1
102
RTVSPropertyOp39
 70
     1
102
RTVSPropertyOp40
 70
     1
102
RTVSPropertyOp41
 70
     1
102
RTVSPropertyOp42
 70
     1
102
RTVSPropertyOp43
 70
     1
102
RTVSPropertyOp44
 70
     1
102
RTVSPropertyOp45
 70
     1
102
RTVSPropertyOp46
 70
     1
102
RTVSPropertyOp47
 70
     1
102
RTVSPropertyOp48
 70
     1
102
RTVSPropertyOp49
 70
     1
102
RTVSPropertyOp50
 70
     1
102
RTVSPropertyOp51
 70
     0
102
RTVSPropertyOp52
 70
     0
102
RTVSPropertyOp53
 70
     1
102
RTVSPropertyOp54
 70
     1
102
RTVSPropertyOp55
 70
     1
102
RTVSPropertyOp56
 70
     1
102
RTVSPropertyOp57
 70
     1
102
RTVSPost2010Prop28
280
     0
102
RTVSPost2010PropOp28
 70
     1
102
RTVSPost2010Prop29
280
     1
102
RTVSPost2010PropOp29
 70
     1
102
RTVSPost2010Prop30
280
     1
102
RTVSPost2010PropOp30
 70
     1
102
RTVSPost2010Prop31
280
     0
102
RTVSPost2010PropOp31
 70
     1
102
RTVSPost2010Prop32
280
     0
102
RTVSPost2010PropOp32
 70
     1
102
RTVSPost2010Prop33
280
     0
102
RTVSPost2010PropOp33
 70
     1
102
RTVSPost2010Prop34
280
     0
102
RTVSPost2010PropOp34
 70
     1
102
RTVSPost2010Prop35
280
     0
102
RTVSPost2010PropOp35
 70
     1
102
RTVSPost2010Prop36
280
     0
102
RTVSPost2010PropOp36
 70
     1
102
RTVSPost2010Prop37
 90
       50
102
RTVSPost2010PropOp37
 70
     1
102
RTVSPost2010Prop38
140
0.0
102
RTVSPost2010PropOp38
 70
     1
102
RTVSPost2010Prop39
140
1.0
102
RTVSPost2010PropOp39
 70
     1
102
RTVSPost2010Prop40
 90
        0
102
RTVSPost2010PropOp40
 70
     1
102
RTVSPost2010Prop41ColorIndex
 90
       18
102
RTVSPost2010Prop41ColorRGB
 90
        0
102
RTVSPost2010PropOp41
 70
     1
102
RTVSPost2010Prop42
 90
       50
102
RTVSPost2010PropOp42
 70
     1
102
RTVSPost2010Prop43
 90
        3
102
RTVSPost2010PropOp43
 70
     1
102
RTVSPost2010Prop44ColorIndex
 90
        5
102
RTVSPost2010Prop44ColorRGB
 90
      255
102
RTVSPost2010PropOp44
 70
     1
102
RTVSPost2010Prop45
280
     0
102
RTVSPost2010PropOp45
 70
     1
102
RTVSPost2010Prop46
 90
       50
102
RTVSPost2010PropOp46
 70
     1
102
RTVSPost2010Prop47
 90
       50
102
RTVSPost2010PropOp47
 70
     1
102
RTVSPost2010Prop48
 90
       50
102
RTVSPost2010PropOp48
 70
     1
102
RTVSPost2010Prop49
280
     0
102
RTVSPost2010PropOp49
 70
     1
102
RTVSPost2010Prop50
 90
       50
102
RTVSPost2010PropOp50
 70
     1
102
RTVSPost2010Prop51ColorIndex
 90
      256
102
RTVSPost2010Prop51ColorRGB
 90
-16777216
102
RTVSPost2010PropOp51
 70
     0
102
RTVSPost2010Prop52
140
1.0
102
RTVSPost2010PropOp52
 70
     0
102
RTVSPost2010Prop53
 90
        2
102
RTVSPost2010PropOp53
 70
     1
102
RTVSPost2010Prop54
  1
strokes_ogs.tif
102
RTVSPost2010PropOp54
 70
     1
102
RTVSPost2010Prop55
280
     0
102
RTVSPost2010PropOp55
 70
     1
102
RTVSPost2010Prop56
140
1.0
102
RTVSPost2010PropOp56
 70
     1
102
RTVSPost2010Prop57
140
1.0
102
RTVSPost2010PropOp57
 70
     1
  0
XRECORD
  5
DEEF
102
{ACAD_REACTORS
330
DEEE
102
}
330
DEEE
100
AcDbXrecord
280
     1
102
RTVSPropertyOp0
 70
     1
102
RTVSPropertyOp1
 70
     1
102
RTVSPropertyOp2
 70
     1
102
RTVSPropertyOp3
 70
     1
102
RTVSPropertyOp4
 70
     1
102
RTVSPropertyOp5
 70
     1
102
RTVSPropertyOp6
 70
     1
102
RTVSPropertyOp7
 70
     1
102
RTVSPropertyOp8
 70
     1
102
RTVSPropertyOp9
 70
     1
102
RTVSPropertyOp10
 70
     1
102
RTVSPropertyOp11
 70
     1
102
RTVSPropertyOp12
 70
     1
102
RTVSPropertyOp13
 70
     1
102
RTVSPropertyOp14
 70
     1
102
RTVSPropertyOp15
 70
     1
102
RTVSPropertyOp16
 70
     1
102
RTVSPropertyOp17
 70
     1
102
RTVSPropertyOp18
 70
     1
102
RTVSPropertyOp19
 70
     1
102
RTVSPropertyOp20
 70
     1
102
RTVSPropertyOp21
 70
     1
102
RTVSPropertyOp22
 70
     1
102
RTVSPropertyOp23
 70
     1
102
RTVSPropertyOp24
 70
     1
102
RTVSPropertyOp25
 70
     1
102
RTVSPropertyOp26
 70
     1
102
RTVSPropertyOp27
 70
     1
102
RTVSPropertyOp28
 70
     1
102
RTVSPropertyOp29
 70
     1
102
RTVSPropertyOp30
 70
     1
102
RTVSPropertyOp31
 70
     1
102
RTVSPropertyOp32
 70
     1
102
RTVSPropertyOp33
 70
     1
102
RTVSPropertyOp34
 70
     1
102
RTVSPropertyOp35
 70
     1
102
RTVSPropertyOp36
 70
     1
102
RTVSPropertyOp37
 70
     1
102
RTVSPropertyOp38
 70
     1
102
RTVSPropertyOp39
 70
     1
102
RTVSPropertyOp40
 70
     1
102
RTVSPropertyOp41
 70
     1
102
RTVSPropertyOp42
 70
     1
102
RTVSPropertyOp43
 70
     1
102
RTVSPropertyOp44
 70
     1
102
RTVSPropertyOp45
 70
     1
102
RTVSPropertyOp46
 70
     1
102
RTVSPropertyOp47
 70
     1
102
RTVSPropertyOp48
 70
     1
102
RTVSPropertyOp49
 70
     1
102
RTVSPropertyOp50
 70
     1
102
RTVSPropertyOp51
 70
     0
102
RTVSPropertyOp52
 70
     0
102
RTVSPropertyOp53
 70
     1
102
RTVSPropertyOp54
 70
     1
102
RTVSPropertyOp55
 70
     1
102
RTVSPropertyOp56
 70
     1
102
RTVSPropertyOp57
 70
     1
102
RTVSPost2010Prop28
280
     0
102
RTVSPost2010PropOp28
 70
     1
102
RTVSPost2010Prop29
280
     1
102
RTVSPost2010PropOp29
 70
     1
102
RTVSPost2010Prop30
280
     1
102
RTVSPost2010PropOp30
 70
     1
102
RTVSPost2010Prop31
280
     0
102
RTVSPost2010PropOp31
 70
     1
102
RTVSPost2010Prop32
280
     0
102
RTVSPost2010PropOp32
 70
     1
102
RTVSPost2010Prop33
280
     0
102
RTVSPost2010PropOp33
 70
     1
102
RTVSPost2010Prop34
280
     0
102
RTVSPost2010PropOp34
 70
     1
102
RTVSPost2010Prop35
280
     0
102
RTVSPost2010PropOp35
 70
     1
102
RTVSPost2010Prop36
280
     0
102
RTVSPost2010PropOp36
 70
     1
102
RTVSPost2010Prop37
 90
       50
102
RTVSPost2010PropOp37
 70
     1
102
RTVSPost2010Prop38
140
0.0
102
RTVSPost2010PropOp38
 70
     1
102
RTVSPost2010Prop39
140
1.0
102
RTVSPost2010PropOp39
 70
     1
102
RTVSPost2010Prop40
 90
        0
102
RTVSPost2010PropOp40
 70
     1
102
RTVSPost2010Prop41ColorIndex
 90
       18
102
RTVSPost2010Prop41ColorRGB
 90
        0
102
RTVSPost2010PropOp41
 70
     1
102
RTVSPost2010Prop42
 90
       50
102
RTVSPost2010PropOp42
 70
     1
102
RTVSPost2010Prop43
 90
        3
102
RTVSPost2010PropOp43
 70
     1
102
RTVSPost2010Prop44ColorIndex
 90
        5
102
RTVSPost2010Prop44ColorRGB
 90
      255
102
RTVSPost2010PropOp44
 70
     1
102
RTVSPost2010Prop45
280
     0
102
RTVSPost2010PropOp45
 70
     1
102
RTVSPost2010Prop46
 90
       50
102
RTVSPost2010PropOp46
 70
     1
102
RTVSPost2010Prop47
 90
       50
102
RTVSPost2010PropOp47
 70
     1
102
RTVSPost2010Prop48
 90
       50
102
RTVSPost2010PropOp48
 70
     1
102
RTVSPost2010Prop49
280
     0
102
RTVSPost2010PropOp49
 70
     1
102
RTVSPost2010Prop50
 90
       50
102
RTVSPost2010PropOp50
 70
     1
102
RTVSPost2010Prop51ColorIndex
 90
      256
102
RTVSPost2010Prop51ColorRGB
 90
-16777216
102
RTVSPost2010PropOp51
 70
     0
102
RTVSPost2010Prop52
140
1.0
102
RTVSPost2010PropOp52
 70
     0
102
RTVSPost2010Prop53
 90
        2
102
RTVSPost2010PropOp53
 70
     1
102
RTVSPost2010Prop54
  1
strokes_ogs.tif
102
RTVSPost2010PropOp54
 70
     1
102
RTVSPost2010Prop55
280
     0
102
RTVSPost2010PropOp55
 70
     1
102
RTVSPost2010Prop56
140
1.0
102
RTVSPost2010PropOp56
 70
     1
102
RTVSPost2010Prop57
140
1.0
102
RTVSPost2010PropOp57
 70
     1
  0
XRECORD
  5
DEF1
102
{ACAD_REACTORS
330
DEF0
102
}
330
DEF0
100
AcDbXrecord
280
     1
102
RTVSPropertyOp0
 70
     1
102
RTVSPropertyOp1
 70
     1
102
RTVSPropertyOp2
 70
     1
102
RTVSPropertyOp3
 70
     1
102
RTVSPropertyOp4
 70
     1
102
RTVSPropertyOp5
 70
     1
102
RTVSPropertyOp6
 70
     1
102
RTVSPropertyOp7
 70
     1
102
RTVSPropertyOp8
 70
     1
102
RTVSPropertyOp9
 70
     1
102
RTVSPropertyOp10
 70
     1
102
RTVSPropertyOp11
 70
     1
102
RTVSPropertyOp12
 70
     1
102
RTVSPropertyOp13
 70
     1
102
RTVSPropertyOp14
 70
     1
102
RTVSPropertyOp15
 70
     1
102
RTVSPropertyOp16
 70
     1
102
RTVSPropertyOp17
 70
     1
102
RTVSPropertyOp18
 70
     1
102
RTVSPropertyOp19
 70
     1
102
RTVSPropertyOp20
 70
     1
102
RTVSPropertyOp21
 70
     1
102
RTVSPropertyOp22
 70
     1
102
RTVSPropertyOp23
 70
     1
102
RTVSPropertyOp24
 70
     1
102
RTVSPropertyOp25
 70
     1
102
RTVSPropertyOp26
 70
     1
102
RTVSPropertyOp27
 70
     1
102
RTVSPropertyOp28
 70
     1
102
RTVSPropertyOp29
 70
     1
102
RTVSPropertyOp30
 70
     1
102
RTVSPropertyOp31
 70
     1
102
RTVSPropertyOp32
 70
     1
102
RTVSPropertyOp33
 70
     1
102
RTVSPropertyOp34
 70
     1
102
RTVSPropertyOp35
 70
     1
102
RTVSPropertyOp36
 70
     1
102
RTVSPropertyOp37
 70
     1
102
RTVSPropertyOp38
 70
     1
102
RTVSPropertyOp39
 70
     1
102
RTVSPropertyOp40
 70
     1
102
RTVSPropertyOp41
 70
     1
102
RTVSPropertyOp42
 70
     1
102
RTVSPropertyOp43
 70
     1
102
RTVSPropertyOp44
 70
     1
102
RTVSPropertyOp45
 70
     1
102
RTVSPropertyOp46
 70
     1
102
RTVSPropertyOp47
 70
     1
102
RTVSPropertyOp48
 70
     1
102
RTVSPropertyOp49
 70
     1
102
RTVSPropertyOp50
 70
     1
102
RTVSPropertyOp51
 70
     0
102
RTVSPropertyOp52
 70
     0
102
RTVSPropertyOp53
 70
     1
102
RTVSPropertyOp54
 70
     1
102
RTVSPropertyOp55
 70
     1
102
RTVSPropertyOp56
 70
     1
102
RTVSPropertyOp57
 70
     1
102
RTVSPost2010Prop28
280
     0
102
RTVSPost2010PropOp28
 70
     1
102
RTVSPost2010Prop29
280
     1
102
RTVSPost2010PropOp29
 70
     1
102
RTVSPost2010Prop30
280
     1
102
RTVSPost2010PropOp30
 70
     1
102
RTVSPost2010Prop31
280
     0
102
RTVSPost2010PropOp31
 70
     1
102
RTVSPost2010Prop32
280
     0
102
RTVSPost2010PropOp32
 70
     1
102
RTVSPost2010Prop33
280
     0
102
RTVSPost2010PropOp33
 70
     1
102
RTVSPost2010Prop34
280
     0
102
RTVSPost2010PropOp34
 70
     1
102
RTVSPost2010Prop35
280
     0
102
RTVSPost2010PropOp35
 70
     1
102
RTVSPost2010Prop36
280
     0
102
RTVSPost2010PropOp36
 70
     1
102
RTVSPost2010Prop37
 90
       50
102
RTVSPost2010PropOp37
 70
     1
102
RTVSPost2010Prop38
140
0.0
102
RTVSPost2010PropOp38
 70
     1
102
RTVSPost2010Prop39
140
1.0
102
RTVSPost2010PropOp39
 70
     1
102
RTVSPost2010Prop40
 90
        0
102
RTVSPost2010PropOp40
 70
     1
102
RTVSPost2010Prop41ColorIndex
 90
       18
102
RTVSPost2010Prop41ColorRGB
 90
        0
102
RTVSPost2010PropOp41
 70
     1
102
RTVSPost2010Prop42
 90
       50
102
RTVSPost2010PropOp42
 70
     1
102
RTVSPost2010Prop43
 90
        3
102
RTVSPost2010PropOp43
 70
     1
102
RTVSPost2010Prop44ColorIndex
 90
        5
102
RTVSPost2010Prop44ColorRGB
 90
      255
102
RTVSPost2010PropOp44
 70
     1
102
RTVSPost2010Prop45
280
     0
102
RTVSPost2010PropOp45
 70
     1
102
RTVSPost2010Prop46
 90
       50
102
RTVSPost2010PropOp46
 70
     1
102
RTVSPost2010Prop47
 90
       50
102
RTVSPost2010PropOp47
 70
     1
102
RTVSPost2010Prop48
 90
       50
102
RTVSPost2010PropOp48
 70
     1
102
RTVSPost2010Prop49
280
     0
102
RTVSPost2010PropOp49
 70
     1
102
RTVSPost2010Prop50
 90
       50
102
RTVSPost2010PropOp50
 70
     1
102
RTVSPost2010Prop51ColorIndex
 90
      256
102
RTVSPost2010Prop51ColorRGB
 90
-16777216
102
RTVSPost2010PropOp51
 70
     0
102
RTVSPost2010Prop52
140
1.0
102
RTVSPost2010PropOp52
 70
     0
102
RTVSPost2010Prop53
 90
        2
102
RTVSPost2010PropOp53
 70
     1
102
RTVSPost2010Prop54
  1
strokes_ogs.tif
102
RTVSPost2010PropOp54
 70
     1
102
RTVSPost2010Prop55
280
     0
102
RTVSPost2010PropOp55
 70
     1
102
RTVSPost2010Prop56
140
1.0
102
RTVSPost2010PropOp56
 70
     1
102
RTVSPost2010Prop57
140
1.0
102
RTVSPost2010PropOp57
 70
     1
  0
XRECORD
  5
DEF3
102
{ACAD_REACTORS
330
DEF2
102
}
330
DEF2
100
AcDbXrecord
280
     1
102
RTVSPropertyOp0
 70
     1
102
RTVSPropertyOp1
 70
     1
102
RTVSPropertyOp2
 70
     1
102
RTVSPropertyOp3
 70
     1
102
RTVSPropertyOp4
 70
     1
102
RTVSPropertyOp5
 70
     1
102
RTVSPropertyOp6
 70
     1
102
RTVSPropertyOp7
 70
     1
102
RTVSPropertyOp8
 70
     1
102
RTVSPropertyOp9
 70
     1
102
RTVSPropertyOp10
 70
     1
102
RTVSPropertyOp11
 70
     1
102
RTVSPropertyOp12
 70
     1
102
RTVSPropertyOp13
 70
     1
102
RTVSPropertyOp14
 70
     1
102
RTVSPropertyOp15
 70
     1
102
RTVSPropertyOp16
 70
     1
102
RTVSPropertyOp17
 70
     1
102
RTVSPropertyOp18
 70
     1
102
RTVSPropertyOp19
 70
     1
102
RTVSPropertyOp20
 70
     1
102
RTVSPropertyOp21
 70
     1
102
RTVSPropertyOp22
 70
     1
102
RTVSPropertyOp23
 70
     1
102
RTVSPropertyOp24
 70
     1
102
RTVSPropertyOp25
 70
     1
102
RTVSPropertyOp26
 70
     1
102
RTVSPropertyOp27
 70
     1
102
RTVSPropertyOp28
 70
     1
102
RTVSPropertyOp29
 70
     1
102
RTVSPropertyOp30
 70
     1
102
RTVSPropertyOp31
 70
     1
102
RTVSPropertyOp32
 70
     1
102
RTVSPropertyOp33
 70
     1
102
RTVSPropertyOp34
 70
     1
102
RTVSPropertyOp35
 70
     1
102
RTVSPropertyOp36
 70
     1
102
RTVSPropertyOp37
 70
     1
102
RTVSPropertyOp38
 70
     1
102
RTVSPropertyOp39
 70
     1
102
RTVSPropertyOp40
 70
     1
102
RTVSPropertyOp41
 70
     1
102
RTVSPropertyOp42
 70
     1
102
RTVSPropertyOp43
 70
     1
102
RTVSPropertyOp44
 70
     1
102
RTVSPropertyOp45
 70
     1
102
RTVSPropertyOp46
 70
     1
102
RTVSPropertyOp47
 70
     1
102
RTVSPropertyOp48
 70
     1
102
RTVSPropertyOp49
 70
     1
102
RTVSPropertyOp50
 70
     1
102
RTVSPropertyOp51
 70
     0
102
RTVSPropertyOp52
 70
     0
102
RTVSPropertyOp53
 70
     1
102
RTVSPropertyOp54
 70
     1
102
RTVSPropertyOp55
 70
     1
102
RTVSPropertyOp56
 70
     1
102
RTVSPropertyOp57
 70
     1
102
RTVSPost2010Prop28
280
     0
102
RTVSPost2010PropOp28
 70
     1
102
RTVSPost2010Prop29
280
     1
102
RTVSPost2010PropOp29
 70
     1
102
RTVSPost2010Prop30
280
     1
102
RTVSPost2010PropOp30
 70
     1
102
RTVSPost2010Prop31
280
     0
102
RTVSPost2010PropOp31
 70
     1
102
RTVSPost2010Prop32
280
     0
102
RTVSPost2010PropOp32
 70
     1
102
RTVSPost2010Prop33
280
     0
102
RTVSPost2010PropOp33
 70
     1
102
RTVSPost2010Prop34
280
     0
102
RTVSPost2010PropOp34
 70
     1
102
RTVSPost2010Prop35
280
     0
102
RTVSPost2010PropOp35
 70
     1
102
RTVSPost2010Prop36
280
     0
102
RTVSPost2010PropOp36
 70
     1
102
RTVSPost2010Prop37
 90
       50
102
RTVSPost2010PropOp37
 70
     1
102
RTVSPost2010Prop38
140
0.0
102
RTVSPost2010PropOp38
 70
     1
102
RTVSPost2010Prop39
140
1.0
102
RTVSPost2010PropOp39
 70
     1
102
RTVSPost2010Prop40
 90
        0
102
RTVSPost2010PropOp40
 70
     1
102
RTVSPost2010Prop41ColorIndex
 90
       18
102
RTVSPost2010Prop41ColorRGB
 90
        0
102
RTVSPost2010PropOp41
 70
     1
102
RTVSPost2010Prop42
 90
       50
102
RTVSPost2010PropOp42
 70
     1
102
RTVSPost2010Prop43
 90
        3
102
RTVSPost2010PropOp43
 70
     1
102
RTVSPost2010Prop44ColorIndex
 90
        5
102
RTVSPost2010Prop44ColorRGB
 90
      255
102
RTVSPost2010PropOp44
 70
     1
102
RTVSPost2010Prop45
280
     0
102
RTVSPost2010PropOp45
 70
     1
102
RTVSPost2010Prop46
 90
       50
102
RTVSPost2010PropOp46
 70
     1
102
RTVSPost2010Prop47
 90
       50
102
RTVSPost2010PropOp47
 70
     1
102
RTVSPost2010Prop48
 90
       50
102
RTVSPost2010PropOp48
 70
     1
102
RTVSPost2010Prop49
280
     0
102
RTVSPost2010PropOp49
 70
     1
102
RTVSPost2010Prop50
 90
       50
102
RTVSPost2010PropOp50
 70
     1
102
RTVSPost2010Prop51ColorIndex
 90
      256
102
RTVSPost2010Prop51ColorRGB
 90
-16777216
102
RTVSPost2010PropOp51
 70
     0
102
RTVSPost2010Prop52
140
1.0
102
RTVSPost2010PropOp52
 70
     0
102
RTVSPost2010Prop53
 90
        2
102
RTVSPost2010PropOp53
 70
     1
102
RTVSPost2010Prop54
  1
strokes_ogs.tif
102
RTVSPost2010PropOp54
 70
     1
102
RTVSPost2010Prop55
280
     0
102
RTVSPost2010PropOp55
 70
     1
102
RTVSPost2010Prop56
140
1.0
102
RTVSPost2010PropOp56
 70
     1
102
RTVSPost2010Prop57
140
1.0
102
RTVSPost2010PropOp57
 70
     1
  0
XRECORD
  5
DEF5
102
{ACAD_REACTORS
330
DEF4
102
}
330
DEF4
100
AcDbXrecord
280
     1
102
RTVSPropertyOp0
 70
     1
102
RTVSPropertyOp1
 70
     1
102
RTVSPropertyOp2
 70
     1
102
RTVSPropertyOp3
 70
     1
102
RTVSPropertyOp4
 70
     1
102
RTVSPropertyOp5
 70
     1
102
RTVSPropertyOp6
 70
     1
102
RTVSPropertyOp7
 70
     1
102
RTVSPropertyOp8
 70
     1
102
RTVSPropertyOp9
 70
     1
102
RTVSPropertyOp10
 70
     1
102
RTVSPropertyOp11
 70
     1
102
RTVSPropertyOp12
 70
     1
102
RTVSPropertyOp13
 70
     1
102
RTVSPropertyOp14
 70
     1
102
RTVSPropertyOp15
 70
     1
102
RTVSPropertyOp16
 70
     1
102
RTVSPropertyOp17
 70
     1
102
RTVSPropertyOp18
 70
     1
102
RTVSPropertyOp19
 70
     1
102
RTVSPropertyOp20
 70
     1
102
RTVSPropertyOp21
 70
     1
102
RTVSPropertyOp22
 70
     1
102
RTVSPropertyOp23
 70
     1
102
RTVSPropertyOp24
 70
     1
102
RTVSPropertyOp25
 70
     1
102
RTVSPropertyOp26
 70
     1
102
RTVSPropertyOp27
 70
     1
102
RTVSPropertyOp28
 70
     1
102
RTVSPropertyOp29
 70
     1
102
RTVSPropertyOp30
 70
     1
102
RTVSPropertyOp31
 70
     1
102
RTVSPropertyOp32
 70
     1
102
RTVSPropertyOp33
 70
     1
102
RTVSPropertyOp34
 70
     1
102
RTVSPropertyOp35
 70
     1
102
RTVSPropertyOp36
 70
     1
102
RTVSPropertyOp37
 70
     1
102
RTVSPropertyOp38
 70
     1
102
RTVSPropertyOp39
 70
     1
102
RTVSPropertyOp40
 70
     1
102
RTVSPropertyOp41
 70
     1
102
RTVSPropertyOp42
 70
     1
102
RTVSPropertyOp43
 70
     1
102
RTVSPropertyOp44
 70
     1
102
RTVSPropertyOp45
 70
     1
102
RTVSPropertyOp46
 70
     1
102
RTVSPropertyOp47
 70
     1
102
RTVSPropertyOp48
 70
     1
102
RTVSPropertyOp49
 70
     1
102
RTVSPropertyOp50
 70
     1
102
RTVSPropertyOp51
 70
     0
102
RTVSPropertyOp52
 70
     0
102
RTVSPropertyOp53
 70
     1
102
RTVSPropertyOp54
 70
     1
102
RTVSPropertyOp55
 70
     1
102
RTVSPropertyOp56
 70
     1
102
RTVSPropertyOp57
 70
     1
102
RTVSPost2010Prop28
280
     0
102
RTVSPost2010PropOp28
 70
     1
102
RTVSPost2010Prop29
280
     1
102
RTVSPost2010PropOp29
 70
     1
102
RTVSPost2010Prop30
280
     1
102
RTVSPost2010PropOp30
 70
     1
102
RTVSPost2010Prop31
280
     0
102
RTVSPost2010PropOp31
 70
     1
102
RTVSPost2010Prop32
280
     0
102
RTVSPost2010PropOp32
 70
     1
102
RTVSPost2010Prop33
280
     0
102
RTVSPost2010PropOp33
 70
     1
102
RTVSPost2010Prop34
280
     0
102
RTVSPost2010PropOp34
 70
     1
102
RTVSPost2010Prop35
280
     0
102
RTVSPost2010PropOp35
 70
     1
102
RTVSPost2010Prop36
280
     0
102
RTVSPost2010PropOp36
 70
     1
102
RTVSPost2010Prop37
 90
       50
102
RTVSPost2010PropOp37
 70
     1
102
RTVSPost2010Prop38
140
0.0
102
RTVSPost2010PropOp38
 70
     1
102
RTVSPost2010Prop39
140
1.0
102
RTVSPost2010PropOp39
 70
     1
102
RTVSPost2010Prop40
 90
        0
102
RTVSPost2010PropOp40
 70
     1
102
RTVSPost2010Prop41ColorIndex
 90
       18
102
RTVSPost2010Prop41ColorRGB
 90
        0
102
RTVSPost2010PropOp41
 70
     1
102
RTVSPost2010Prop42
 90
       50
102
RTVSPost2010PropOp42
 70
     1
102
RTVSPost2010Prop43
 90
        3
102
RTVSPost2010PropOp43
 70
     1
102
RTVSPost2010Prop44ColorIndex
 90
        5
102
RTVSPost2010Prop44ColorRGB
 90
      255
102
RTVSPost2010PropOp44
 70
     1
102
RTVSPost2010Prop45
280
     0
102
RTVSPost2010PropOp45
 70
     1
102
RTVSPost2010Prop46
 90
       50
102
RTVSPost2010PropOp46
 70
     1
102
RTVSPost2010Prop47
 90
       50
102
RTVSPost2010PropOp47
 70
     1
102
RTVSPost2010Prop48
 90
       50
102
RTVSPost2010PropOp48
 70
     1
102
RTVSPost2010Prop49
280
     0
102
RTVSPost2010PropOp49
 70
     1
102
RTVSPost2010Prop50
 90
       50
102
RTVSPost2010PropOp50
 70
     1
102
RTVSPost2010Prop51ColorIndex
 90
      256
102
RTVSPost2010Prop51ColorRGB
 90
-16777216
102
RTVSPost2010PropOp51
 70
     0
102
RTVSPost2010Prop52
140
1.0
102
RTVSPost2010PropOp52
 70
     0
102
RTVSPost2010Prop53
 90
        2
102
RTVSPost2010PropOp53
 70
     1
102
RTVSPost2010Prop54
  1
strokes_ogs.tif
102
RTVSPost2010PropOp54
 70
     1
102
RTVSPost2010Prop55
280
     0
102
RTVSPost2010PropOp55
 70
     1
102
RTVSPost2010Prop56
140
1.0
102
RTVSPost2010PropOp56
 70
     1
102
RTVSPost2010Prop57
140
1.0
102
RTVSPost2010PropOp57
 70
     1
  0
XRECORD
  5
DEF7
102
{ACAD_REACTORS
330
DEF6
102
}
330
DEF6
100
AcDbXrecord
280
     1
102
RTVSPropertyOp0
 70
     0
102
RTVSPropertyOp1
 70
     0
102
RTVSPropertyOp2
 70
     0
102
RTVSPropertyOp3
 70
     0
102
RTVSPropertyOp4
 70
     0
102
RTVSPropertyOp5
 70
     0
102
RTVSPropertyOp6
 70
     0
102
RTVSPropertyOp7
 70
     0
102
RTVSPropertyOp8
 70
     0
102
RTVSPropertyOp9
 70
     0
102
RTVSPropertyOp10
 70
     0
102
RTVSPropertyOp11
 70
     0
102
RTVSPropertyOp12
 70
     0
102
RTVSPropertyOp13
 70
     0
102
RTVSPropertyOp14
 70
     2
102
RTVSPropertyOp15
 70
     0
102
RTVSPropertyOp16
 70
     0
102
RTVSPropertyOp17
 70
     0
102
RTVSPropertyOp18
 70
     0
102
RTVSPropertyOp19
 70
     0
102
RTVSPropertyOp20
 70
     0
102
RTVSPropertyOp21
 70
     0
102
RTVSPropertyOp22
 70
     0
102
RTVSPropertyOp23
 70
     0
102
RTVSPropertyOp24
 70
     0
102
RTVSPropertyOp25
 70
     0
102
RTVSPropertyOp26
 70
     0
102
RTVSPropertyOp27
 70
     0
102
RTVSPropertyOp28
 70
     1
102
RTVSPropertyOp29
 70
     1
102
RTVSPropertyOp30
 70
     1
102
RTVSPropertyOp31
 70
     1
102
RTVSPropertyOp32
 70
     1
102
RTVSPropertyOp33
 70
     1
102
RTVSPropertyOp34
 70
     1
102
RTVSPropertyOp35
 70
     1
102
RTVSPropertyOp36
 70
     1
102
RTVSPropertyOp37
 70
     0
102
RTVSPropertyOp38
 70
     0
102
RTVSPropertyOp39
 70
     0
102
RTVSPropertyOp40
 70
     0
102
RTVSPropertyOp41
 70
     0
102
RTVSPropertyOp42
 70
     0
102
RTVSPropertyOp43
 70
     0
102
RTVSPropertyOp44
 70
     0
102
RTVSPropertyOp45
 70
     1
102
RTVSPropertyOp46
 70
     0
102
RTVSPropertyOp47
 70
     0
102
RTVSPropertyOp48
 70
     0
102
RTVSPropertyOp49
 70
     1
102
RTVSPropertyOp50
 70
     0
102
RTVSPropertyOp51
 70
     0
102
RTVSPropertyOp52
 70
     0
102
RTVSPropertyOp53
 70
     0
102
RTVSPropertyOp54
 70
     0
102
RTVSPropertyOp55
 70
     1
102
RTVSPropertyOp56
 70
     0
102
RTVSPropertyOp57
 70
     0
102
RTVSPost2010Prop28
280
     0
102
RTVSPost2010PropOp28
 70
     1
102
RTVSPost2010Prop29
280
     1
102
RTVSPost2010PropOp29
 70
     1
102
RTVSPost2010Prop30
280
     1
102
RTVSPost2010PropOp30
 70
     1
102
RTVSPost2010Prop31
280
     0
102
RTVSPost2010PropOp31
 70
     1
102
RTVSPost2010Prop32
280
     0
102
RTVSPost2010PropOp32
 70
     1
102
RTVSPost2010Prop33
280
     0
102
RTVSPost2010PropOp33
 70
     1
102
RTVSPost2010Prop34
280
     0
102
RTVSPost2010PropOp34
 70
     1
102
RTVSPost2010Prop35
280
     0
102
RTVSPost2010PropOp35
 70
     1
102
RTVSPost2010Prop36
280
     0
102
RTVSPost2010PropOp36
 70
     1
102
RTVSPost2010Prop37
 90
       50
102
RTVSPost2010PropOp37
 70
     0
102
RTVSPost2010Prop38
140
0.0
102
RTVSPost2010PropOp38
 70
     0
102
RTVSPost2010Prop39
140
1.0
102
RTVSPost2010PropOp39
 70
     0
102
RTVSPost2010Prop40
 90
        0
102
RTVSPost2010PropOp40
 70
     0
102
RTVSPost2010Prop41ColorIndex
 90
       18
102
RTVSPost2010Prop41ColorRGB
 90
        0
102
RTVSPost2010PropOp41
 70
     0
102
RTVSPost2010Prop42
 90
       50
102
RTVSPost2010PropOp42
 70
     0
102
RTVSPost2010Prop43
 90
        3
102
RTVSPost2010PropOp43
 70
     0
102
RTVSPost2010Prop44ColorIndex
 90
        5
102
RTVSPost2010Prop44ColorRGB
 90
      255
102
RTVSPost2010PropOp44
 70
     0
102
RTVSPost2010Prop45
280
     0
102
RTVSPost2010PropOp45
 70
     1
102
RTVSPost2010Prop46
 90
       50
102
RTVSPost2010PropOp46
 70
     0
102
RTVSPost2010Prop47
 90
       50
102
RTVSPost2010PropOp47
 70
     0
102
RTVSPost2010Prop48
 90
       50
102
RTVSPost2010PropOp48
 70
     0
102
RTVSPost2010Prop49
280
     0
102
RTVSPost2010PropOp49
 70
     1
102
RTVSPost2010Prop50
 90
       50
102
RTVSPost2010PropOp50
 70
     0
102
RTVSPost2010Prop51ColorIndex
 90
      256
102
RTVSPost2010Prop51ColorRGB
 90
-16777216
102
RTVSPost2010PropOp51
 70
     0
102
RTVSPost2010Prop52
140
1.0
102
RTVSPost2010PropOp52
 70
     0
102
RTVSPost2010Prop53
 90
        2
102
RTVSPost2010PropOp53
 70
     0
102
RTVSPost2010Prop54
  1
strokes_ogs.tif
102
RTVSPost2010PropOp54
 70
     0
102
RTVSPost2010Prop55
280
     0
102
RTVSPost2010PropOp55
 70
     1
102
RTVSPost2010Prop56
140
1.0
102
RTVSPost2010PropOp56
 70
     0
102
RTVSPost2010Prop57
140
1.0
102
RTVSPost2010PropOp57
 70
     0
  0
XRECORD
  5
DEF9
102
{ACAD_REACTORS
330
DEF8
102
}
330
DEF8
100
AcDbXrecord
280
     1
102
RTVSPropertyOp0
 70
     1
102
RTVSPropertyOp1
 70
     1
102
RTVSPropertyOp2
 70
     1
102
RTVSPropertyOp3
 70
     1
102
RTVSPropertyOp4
 70
     1
102
RTVSPropertyOp5
 70
     1
102
RTVSPropertyOp6
 70
     1
102
RTVSPropertyOp7
 70
     1
102
RTVSPropertyOp8
 70
     1
102
RTVSPropertyOp9
 70
     1
102
RTVSPropertyOp10
 70
     1
102
RTVSPropertyOp11
 70
     1
102
RTVSPropertyOp12
 70
     1
102
RTVSPropertyOp13
 70
     1
102
RTVSPropertyOp14
 70
     1
102
RTVSPropertyOp15
 70
     1
102
RTVSPropertyOp16
 70
     1
102
RTVSPropertyOp17
 70
     1
102
RTVSPropertyOp18
 70
     1
102
RTVSPropertyOp19
 70
     1
102
RTVSPropertyOp20
 70
     1
102
RTVSPropertyOp21
 70
     1
102
RTVSPropertyOp22
 70
     1
102
RTVSPropertyOp23
 70
     1
102
RTVSPropertyOp24
 70
     1
102
RTVSPropertyOp25
 70
     1
102
RTVSPropertyOp26
 70
     1
102
RTVSPropertyOp27
 70
     1
102
RTVSPropertyOp28
 70
     1
102
RTVSPropertyOp29
 70
     1
102
RTVSPropertyOp30
 70
     1
102
RTVSPropertyOp31
 70
     1
102
RTVSPropertyOp32
 70
     1
102
RTVSPropertyOp33
 70
     1
102
RTVSPropertyOp34
 70
     1
102
RTVSPropertyOp35
 70
     1
102
RTVSPropertyOp36
 70
     1
102
RTVSPropertyOp37
 70
     1
102
RTVSPropertyOp38
 70
     1
102
RTVSPropertyOp39
 70
     1
102
RTVSPropertyOp40
 70
     1
102
RTVSPropertyOp41
 70
     1
102
RTVSPropertyOp42
 70
     1
102
RTVSPropertyOp43
 70
     1
102
RTVSPropertyOp44
 70
     1
102
RTVSPropertyOp45
 70
     1
102
RTVSPropertyOp46
 70
     1
102
RTVSPropertyOp47
 70
     1
102
RTVSPropertyOp48
 70
     1
102
RTVSPropertyOp49
 70
     1
102
RTVSPropertyOp50
 70
     1
102
RTVSPropertyOp51
 70
     0
102
RTVSPropertyOp52
 70
     0
102
RTVSPropertyOp53
 70
     1
102
RTVSPropertyOp54
 70
     1
102
RTVSPropertyOp55
 70
     1
102
RTVSPropertyOp56
 70
     1
102
RTVSPropertyOp57
 70
     1
102
RTVSPost2010Prop28
280
     0
102
RTVSPost2010PropOp28
 70
     1
102
RTVSPost2010Prop29
280
     1
102
RTVSPost2010PropOp29
 70
     1
102
RTVSPost2010Prop30
280
     1
102
RTVSPost2010PropOp30
 70
     1
102
RTVSPost2010Prop31
280
     0
102
RTVSPost2010PropOp31
 70
     1
102
RTVSPost2010Prop32
280
     0
102
RTVSPost2010PropOp32
 70
     1
102
RTVSPost2010Prop33
280
     0
102
RTVSPost2010PropOp33
 70
     1
102
RTVSPost2010Prop34
280
     0
102
RTVSPost2010PropOp34
 70
     1
102
RTVSPost2010Prop35
280
     0
102
RTVSPost2010PropOp35
 70
     1
102
RTVSPost2010Prop36
280
     0
102
RTVSPost2010PropOp36
 70
     1
102
RTVSPost2010Prop37
 90
       50
102
RTVSPost2010PropOp37
 70
     1
102
RTVSPost2010Prop38
140
0.0
102
RTVSPost2010PropOp38
 70
     1
102
RTVSPost2010Prop39
140
1.0
102
RTVSPost2010PropOp39
 70
     1
102
RTVSPost2010Prop40
 90
        0
102
RTVSPost2010PropOp40
 70
     1
102
RTVSPost2010Prop41ColorIndex
 90
       18
102
RTVSPost2010Prop41ColorRGB
 90
        0
102
RTVSPost2010PropOp41
 70
     1
102
RTVSPost2010Prop42
 90
       50
102
RTVSPost2010PropOp42
 70
     1
102
RTVSPost2010Prop43
 90
        3
102
RTVSPost2010PropOp43
 70
     1
102
RTVSPost2010Prop44ColorIndex
 90
        5
102
RTVSPost2010Prop44ColorRGB
 90
      255
102
RTVSPost2010PropOp44
 70
     1
102
RTVSPost2010Prop45
280
     0
102
RTVSPost2010PropOp45
 70
     1
102
RTVSPost2010Prop46
 90
       50
102
RTVSPost2010PropOp46
 70
     1
102
RTVSPost2010Prop47
 90
       50
102
RTVSPost2010PropOp47
 70
     1
102
RTVSPost2010Prop48
 90
       50
102
RTVSPost2010PropOp48
 70
     1
102
RTVSPost2010Prop49
280
     0
102
RTVSPost2010PropOp49
 70
     1
102
RTVSPost2010Prop50
 90
       50
102
RTVSPost2010PropOp50
 70
     1
102
RTVSPost2010Prop51ColorIndex
 90
      256
102
RTVSPost2010Prop51ColorRGB
 90
-16777216
102
RTVSPost2010PropOp51
 70
     0
102
RTVSPost2010Prop52
140
1.0
102
RTVSPost2010PropOp52
 70
     0
102
RTVSPost2010Prop53
 90
        2
102
RTVSPost2010PropOp53
 70
     1
102
RTVSPost2010Prop54
  1
strokes_ogs.tif
102
RTVSPost2010PropOp54
 70
     1
102
RTVSPost2010Prop55
280
     0
102
RTVSPost2010PropOp55
 70
     1
102
RTVSPost2010Prop56
140
1.0
102
RTVSPost2010PropOp56
 70
     1
102
RTVSPost2010Prop57
140
1.0
102
RTVSPost2010PropOp57
 70
     1
  0
XRECORD
  5
DEFB
102
{ACAD_REACTORS
330
DEFA
102
}
330
DEFA
100
AcDbXrecord
280
     1
102
RTVSPropertyOp0
 70
     1
102
RTVSPropertyOp1
 70
     1
102
RTVSPropertyOp2
 70
     1
102
RTVSPropertyOp3
 70
     1
102
RTVSPropertyOp4
 70
     1
102
RTVSPropertyOp5
 70
     1
102
RTVSPropertyOp6
 70
     1
102
RTVSPropertyOp7
 70
     1
102
RTVSPropertyOp8
 70
     1
102
RTVSPropertyOp9
 70
     1
102
RTVSPropertyOp10
 70
     1
102
RTVSPropertyOp11
 70
     1
102
RTVSPropertyOp12
 70
     1
102
RTVSPropertyOp13
 70
     1
102
RTVSPropertyOp14
 70
     1
102
RTVSPropertyOp15
 70
     1
102
RTVSPropertyOp16
 70
     1
102
RTVSPropertyOp17
 70
     1
102
RTVSPropertyOp18
 70
     1
102
RTVSPropertyOp19
 70
     1
102
RTVSPropertyOp20
 70
     1
102
RTVSPropertyOp21
 70
     1
102
RTVSPropertyOp22
 70
     1
102
RTVSPropertyOp23
 70
     1
102
RTVSPropertyOp24
 70
     1
102
RTVSPropertyOp25
 70
     1
102
RTVSPropertyOp26
 70
     1
102
RTVSPropertyOp27
 70
     1
102
RTVSPropertyOp28
 70
     1
102
RTVSPropertyOp29
 70
     1
102
RTVSPropertyOp30
 70
     1
102
RTVSPropertyOp31
 70
     1
102
RTVSPropertyOp32
 70
     1
102
RTVSPropertyOp33
 70
     1
102
RTVSPropertyOp34
 70
     1
102
RTVSPropertyOp35
 70
     1
102
RTVSPropertyOp36
 70
     1
102
RTVSPropertyOp37
 70
     1
102
RTVSPropertyOp38
 70
     1
102
RTVSPropertyOp39
 70
     1
102
RTVSPropertyOp40
 70
     1
102
RTVSPropertyOp41
 70
     1
102
RTVSPropertyOp42
 70
     1
102
RTVSPropertyOp43
 70
     1
102
RTVSPropertyOp44
 70
     1
102
RTVSPropertyOp45
 70
     1
102
RTVSPropertyOp46
 70
     1
102
RTVSPropertyOp47
 70
     1
102
RTVSPropertyOp48
 70
     1
102
RTVSPropertyOp49
 70
     1
102
RTVSPropertyOp50
 70
     1
102
RTVSPropertyOp51
 70
     0
102
RTVSPropertyOp52
 70
     0
102
RTVSPropertyOp53
 70
     1
102
RTVSPropertyOp54
 70
     1
102
RTVSPropertyOp55
 70
     1
102
RTVSPropertyOp56
 70
     1
102
RTVSPropertyOp57
 70
     1
102
RTVSPost2010Prop28
280
     0
102
RTVSPost2010PropOp28
 70
     1
102
RTVSPost2010Prop29
280
     1
102
RTVSPost2010PropOp29
 70
     1
102
RTVSPost2010Prop30
280
     1
102
RTVSPost2010PropOp30
 70
     1
102
RTVSPost2010Prop31
280
     0
102
RTVSPost2010PropOp31
 70
     1
102
RTVSPost2010Prop32
280
     0
102
RTVSPost2010PropOp32
 70
     1
102
RTVSPost2010Prop33
280
     0
102
RTVSPost2010PropOp33
 70
     1
102
RTVSPost2010Prop34
280
     0
102
RTVSPost2010PropOp34
 70
     1
102
RTVSPost2010Prop35
280
     0
102
RTVSPost2010PropOp35
 70
     1
102
RTVSPost2010Prop36
280
     0
102
RTVSPost2010PropOp36
 70
     1
102
RTVSPost2010Prop37
 90
       50
102
RTVSPost2010PropOp37
 70
     1
102
RTVSPost2010Prop38
140
0.0
102
RTVSPost2010PropOp38
 70
     1
102
RTVSPost2010Prop39
140
1.0
102
RTVSPost2010PropOp39
 70
     1
102
RTVSPost2010Prop40
 90
        0
102
RTVSPost2010PropOp40
 70
     1
102
RTVSPost2010Prop41ColorIndex
 90
       18
102
RTVSPost2010Prop41ColorRGB
 90
        0
102
RTVSPost2010PropOp41
 70
     1
102
RTVSPost2010Prop42
 90
       50
102
RTVSPost2010PropOp42
 70
     1
102
RTVSPost2010Prop43
 90
        3
102
RTVSPost2010PropOp43
 70
     1
102
RTVSPost2010Prop44ColorIndex
 90
        5
102
RTVSPost2010Prop44ColorRGB
 90
      255
102
RTVSPost2010PropOp44
 70
     1
102
RTVSPost2010Prop45
280
     0
102
RTVSPost2010PropOp45
 70
     1
102
RTVSPost2010Prop46
 90
       50
102
RTVSPost2010PropOp46
 70
     1
102
RTVSPost2010Prop47
 90
       50
102
RTVSPost2010PropOp47
 70
     1
102
RTVSPost2010Prop48
 90
       50
102
RTVSPost2010PropOp48
 70
     1
102
RTVSPost2010Prop49
280
     0
102
RTVSPost2010PropOp49
 70
     1
102
RTVSPost2010Prop50
 90
       50
102
RTVSPost2010PropOp50
 70
     1
102
RTVSPost2010Prop51ColorIndex
 90
      256
102
RTVSPost2010Prop51ColorRGB
 90
-16777216
102
RTVSPost2010PropOp51
 70
     0
102
RTVSPost2010Prop52
140
1.0
102
RTVSPost2010PropOp52
 70
     0
102
RTVSPost2010Prop53
 90
        2
102
RTVSPost2010PropOp53
 70
     1
102
RTVSPost2010Prop54
  1
strokes_ogs.tif
102
RTVSPost2010PropOp54
 70
     1
102
RTVSPost2010Prop55
280
     0
102
RTVSPost2010PropOp55
 70
     1
102
RTVSPost2010Prop56
140
1.0
102
RTVSPost2010PropOp56
 70
     1
102
RTVSPost2010Prop57
140
1.0
102
RTVSPost2010PropOp57
 70
     1
  0
XRECORD
  5
DEFD
102
{ACAD_REACTORS
330
DEFC
102
}
330
DEFC
100
AcDbXrecord
280
     1
102
RTVSPropertyOp0
 70
     1
102
RTVSPropertyOp1
 70
     1
102
RTVSPropertyOp2
 70
     1
102
RTVSPropertyOp3
 70
     1
102
RTVSPropertyOp4
 70
     1
102
RTVSPropertyOp5
 70
     1
102
RTVSPropertyOp6
 70
     1
102
RTVSPropertyOp7
 70
     1
102
RTVSPropertyOp8
 70
     1
102
RTVSPropertyOp9
 70
     1
102
RTVSPropertyOp10
 70
     1
102
RTVSPropertyOp11
 70
     1
102
RTVSPropertyOp12
 70
     1
102
RTVSPropertyOp13
 70
     1
102
RTVSPropertyOp14
 70
     1
102
RTVSPropertyOp15
 70
     1
102
RTVSPropertyOp16
 70
     1
102
RTVSPropertyOp17
 70
     1
102
RTVSPropertyOp18
 70
     1
102
RTVSPropertyOp19
 70
     1
102
RTVSPropertyOp20
 70
     1
102
RTVSPropertyOp21
 70
     1
102
RTVSPropertyOp22
 70
     1
102
RTVSPropertyOp23
 70
     1
102
RTVSPropertyOp24
 70
     1
102
RTVSPropertyOp25
 70
     1
102
RTVSPropertyOp26
 70
     1
102
RTVSPropertyOp27
 70
     1
102
RTVSPropertyOp28
 70
     1
102
RTVSPropertyOp29
 70
     1
102
RTVSPropertyOp30
 70
     1
102
RTVSPropertyOp31
 70
     1
102
RTVSPropertyOp32
 70
     1
102
RTVSPropertyOp33
 70
     1
102
RTVSPropertyOp34
 70
     1
102
RTVSPropertyOp35
 70
     1
102
RTVSPropertyOp36
 70
     1
102
RTVSPropertyOp37
 70
     1
102
RTVSPropertyOp38
 70
     1
102
RTVSPropertyOp39
 70
     1
102
RTVSPropertyOp40
 70
     1
102
RTVSPropertyOp41
 70
     1
102
RTVSPropertyOp42
 70
     1
102
RTVSPropertyOp43
 70
     1
102
RTVSPropertyOp44
 70
     1
102
RTVSPropertyOp45
 70
     1
102
RTVSPropertyOp46
 70
     1
102
RTVSPropertyOp47
 70
     1
102
RTVSPropertyOp48
 70
     1
102
RTVSPropertyOp49
 70
     1
102
RTVSPropertyOp50
 70
     1
102
RTVSPropertyOp51
 70
     0
102
RTVSPropertyOp52
 70
     0
102
RTVSPropertyOp53
 70
     1
102
RTVSPropertyOp54
 70
     1
102
RTVSPropertyOp55
 70
     1
102
RTVSPropertyOp56
 70
     1
102
RTVSPropertyOp57
 70
     1
102
RTVSPost2010Prop28
280
     0
102
RTVSPost2010PropOp28
 70
     1
102
RTVSPost2010Prop29
280
     1
102
RTVSPost2010PropOp29
 70
     1
102
RTVSPost2010Prop30
280
     1
102
RTVSPost2010PropOp30
 70
     1
102
RTVSPost2010Prop31
280
     0
102
RTVSPost2010PropOp31
 70
     1
102
RTVSPost2010Prop32
280
     0
102
RTVSPost2010PropOp32
 70
     1
102
RTVSPost2010Prop33
280
     0
102
RTVSPost2010PropOp33
 70
     1
102
RTVSPost2010Prop34
280
     0
102
RTVSPost2010PropOp34
 70
     1
102
RTVSPost2010Prop35
280
     0
102
RTVSPost2010PropOp35
 70
     1
102
RTVSPost2010Prop36
280
     0
102
RTVSPost2010PropOp36
 70
     1
102
RTVSPost2010Prop37
 90
       50
102
RTVSPost2010PropOp37
 70
     1
102
RTVSPost2010Prop38
140
0.0
102
RTVSPost2010PropOp38
 70
     1
102
RTVSPost2010Prop39
140
1.0
102
RTVSPost2010PropOp39
 70
     1
102
RTVSPost2010Prop40
 90
        0
102
RTVSPost2010PropOp40
 70
     1
102
RTVSPost2010Prop41ColorIndex
 90
       18
102
RTVSPost2010Prop41ColorRGB
 90
        0
102
RTVSPost2010PropOp41
 70
     1
102
RTVSPost2010Prop42
 90
       50
102
RTVSPost2010PropOp42
 70
     1
102
RTVSPost2010Prop43
 90
        3
102
RTVSPost2010PropOp43
 70
     1
102
RTVSPost2010Prop44ColorIndex
 90
        5
102
RTVSPost2010Prop44ColorRGB
 90
      255
102
RTVSPost2010PropOp44
 70
     1
102
RTVSPost2010Prop45
280
     0
102
RTVSPost2010PropOp45
 70
     1
102
RTVSPost2010Prop46
 90
       50
102
RTVSPost2010PropOp46
 70
     1
102
RTVSPost2010Prop47
 90
       50
102
RTVSPost2010PropOp47
 70
     1
102
RTVSPost2010Prop48
 90
       50
102
RTVSPost2010PropOp48
 70
     1
102
RTVSPost2010Prop49
280
     0
102
RTVSPost2010PropOp49
 70
     1
102
RTVSPost2010Prop50
 90
       50
102
RTVSPost2010PropOp50
 70
     1
102
RTVSPost2010Prop51ColorIndex
 90
      256
102
RTVSPost2010Prop51ColorRGB
 90
-16777216
102
RTVSPost2010PropOp51
 70
     0
102
RTVSPost2010Prop52
140
1.0
102
RTVSPost2010PropOp52
 70
     0
102
RTVSPost2010Prop53
 90
        2
102
RTVSPost2010PropOp53
 70
     1
102
RTVSPost2010Prop54
  1
strokes_ogs.tif
102
RTVSPost2010PropOp54
 70
     1
102
RTVSPost2010Prop55
280
     0
102
RTVSPost2010PropOp55
 70
     1
102
RTVSPost2010Prop56
140
1.0
102
RTVSPost2010PropOp56
 70
     1
102
RTVSPost2010Prop57
140
1.0
102
RTVSPost2010PropOp57
 70
     1
  0
XRECORD
  5
DEFF
102
{ACAD_REACTORS
330
DEFE
102
}
330
DEFE
100
AcDbXrecord
280
     1
102
RTVSPropertyOp0
 70
     1
102
RTVSPropertyOp1
 70
     1
102
RTVSPropertyOp2
 70
     1
102
RTVSPropertyOp3
 70
     1
102
RTVSPropertyOp4
 70
     1
102
RTVSPropertyOp5
 70
     1
102
RTVSPropertyOp6
 70
     1
102
RTVSPropertyOp7
 70
     1
102
RTVSPropertyOp8
 70
     1
102
RTVSPropertyOp9
 70
     1
102
RTVSPropertyOp10
 70
     1
102
RTVSPropertyOp11
 70
     1
102
RTVSPropertyOp12
 70
     1
102
RTVSPropertyOp13
 70
     1
102
RTVSPropertyOp14
 70
     1
102
RTVSPropertyOp15
 70
     1
102
RTVSPropertyOp16
 70
     1
102
RTVSPropertyOp17
 70
     1
102
RTVSPropertyOp18
 70
     1
102
RTVSPropertyOp19
 70
     1
102
RTVSPropertyOp20
 70
     1
102
RTVSPropertyOp21
 70
     1
102
RTVSPropertyOp22
 70
     1
102
RTVSPropertyOp23
 70
     1
102
RTVSPropertyOp24
 70
     1
102
RTVSPropertyOp25
 70
     1
102
RTVSPropertyOp26
 70
     1
102
RTVSPropertyOp27
 70
     1
102
RTVSPropertyOp28
 70
     1
102
RTVSPropertyOp29
 70
     1
102
RTVSPropertyOp30
 70
     1
102
RTVSPropertyOp31
 70
     1
102
RTVSPropertyOp32
 70
     1
102
RTVSPropertyOp33
 70
     1
102
RTVSPropertyOp34
 70
     1
102
RTVSPropertyOp35
 70
     1
102
RTVSPropertyOp36
 70
     1
102
RTVSPropertyOp37
 70
     1
102
RTVSPropertyOp38
 70
     1
102
RTVSPropertyOp39
 70
     1
102
RTVSPropertyOp40
 70
     1
102
RTVSPropertyOp41
 70
     1
102
RTVSPropertyOp42
 70
     1
102
RTVSPropertyOp43
 70
     1
102
RTVSPropertyOp44
 70
     1
102
RTVSPropertyOp45
 70
     1
102
RTVSPropertyOp46
 70
     1
102
RTVSPropertyOp47
 70
     1
102
RTVSPropertyOp48
 70
     1
102
RTVSPropertyOp49
 70
     1
102
RTVSPropertyOp50
 70
     1
102
RTVSPropertyOp51
 70
     0
102
RTVSPropertyOp52
 70
     0
102
RTVSPropertyOp53
 70
     1
102
RTVSPropertyOp54
 70
     1
102
RTVSPropertyOp55
 70
     1
102
RTVSPropertyOp56
 70
     1
102
RTVSPropertyOp57
 70
     1
102
RTVSPost2010Prop28
280
     0
102
RTVSPost2010PropOp28
 70
     1
102
RTVSPost2010Prop29
280
     1
102
RTVSPost2010PropOp29
 70
     1
102
RTVSPost2010Prop30
280
     1
102
RTVSPost2010PropOp30
 70
     1
102
RTVSPost2010Prop31
280
     0
102
RTVSPost2010PropOp31
 70
     1
102
RTVSPost2010Prop32
280
     0
102
RTVSPost2010PropOp32
 70
     1
102
RTVSPost2010Prop33
280
     0
102
RTVSPost2010PropOp33
 70
     1
102
RTVSPost2010Prop34
280
     0
102
RTVSPost2010PropOp34
 70
     1
102
RTVSPost2010Prop35
280
     0
102
RTVSPost2010PropOp35
 70
     1
102
RTVSPost2010Prop36
280
     0
102
RTVSPost2010PropOp36
 70
     1
102
RTVSPost2010Prop37
 90
       50
102
RTVSPost2010PropOp37
 70
     1
102
RTVSPost2010Prop38
140
0.0
102
RTVSPost2010PropOp38
 70
     1
102
RTVSPost2010Prop39
140
1.0
102
RTVSPost2010PropOp39
 70
     1
102
RTVSPost2010Prop40
 90
        0
102
RTVSPost2010PropOp40
 70
     1
102
RTVSPost2010Prop41ColorIndex
 90
       18
102
RTVSPost2010Prop41ColorRGB
 90
        0
102
RTVSPost2010PropOp41
 70
     1
102
RTVSPost2010Prop42
 90
       50
102
RTVSPost2010PropOp42
 70
     1
102
RTVSPost2010Prop43
 90
        3
102
RTVSPost2010PropOp43
 70
     1
102
RTVSPost2010Prop44ColorIndex
 90
        5
102
RTVSPost2010Prop44ColorRGB
 90
      255
102
RTVSPost2010PropOp44
 70
     1
102
RTVSPost2010Prop45
280
     0
102
RTVSPost2010PropOp45
 70
     1
102
RTVSPost2010Prop46
 90
       50
102
RTVSPost2010PropOp46
 70
     1
102
RTVSPost2010Prop47
 90
       50
102
RTVSPost2010PropOp47
 70
     1
102
RTVSPost2010Prop48
 90
       50
102
RTVSPost2010PropOp48
 70
     1
102
RTVSPost2010Prop49
280
     0
102
RTVSPost2010PropOp49
 70
     1
102
RTVSPost2010Prop50
 90
       50
102
RTVSPost2010PropOp50
 70
     1
102
RTVSPost2010Prop51ColorIndex
 90
      256
102
RTVSPost2010Prop51ColorRGB
 90
-16777216
102
RTVSPost2010PropOp51
 70
     0
102
RTVSPost2010Prop52
140
1.0
102
RTVSPost2010PropOp52
 70
     0
102
RTVSPost2010Prop53
 90
        2
102
RTVSPost2010PropOp53
 70
     1
102
RTVSPost2010Prop54
  1
strokes_ogs.tif
102
RTVSPost2010PropOp54
 70
     1
102
RTVSPost2010Prop55
280
     0
102
RTVSPost2010PropOp55
 70
     1
102
RTVSPost2010Prop56
140
1.0
102
RTVSPost2010PropOp56
 70
     1
102
RTVSPost2010Prop57
140
1.0
102
RTVSPost2010PropOp57
 70
     1
  0
XRECORD
  5
DF01
102
{ACAD_REACTORS
330
DF00
102
}
330
DF00
100
AcDbXrecord
280
     1
102
RTVSPropertyOp0
 70
     1
102
RTVSPropertyOp1
 70
     1
102
RTVSPropertyOp2
 70
     1
102
RTVSPropertyOp3
 70
     1
102
RTVSPropertyOp4
 70
     1
102
RTVSPropertyOp5
 70
     1
102
RTVSPropertyOp6
 70
     1
102
RTVSPropertyOp7
 70
     1
102
RTVSPropertyOp8
 70
     1
102
RTVSPropertyOp9
 70
     1
102
RTVSPropertyOp10
 70
     1
102
RTVSPropertyOp11
 70
     1
102
RTVSPropertyOp12
 70
     1
102
RTVSPropertyOp13
 70
     1
102
RTVSPropertyOp14
 70
     1
102
RTVSPropertyOp15
 70
     1
102
RTVSPropertyOp16
 70
     1
102
RTVSPropertyOp17
 70
     1
102
RTVSPropertyOp18
 70
     1
102
RTVSPropertyOp19
 70
     1
102
RTVSPropertyOp20
 70
     1
102
RTVSPropertyOp21
 70
     1
102
RTVSPropertyOp22
 70
     1
102
RTVSPropertyOp23
 70
     1
102
RTVSPropertyOp24
 70
     1
102
RTVSPropertyOp25
 70
     1
102
RTVSPropertyOp26
 70
     1
102
RTVSPropertyOp27
 70
     1
102
RTVSPropertyOp28
 70
     1
102
RTVSPropertyOp29
 70
     1
102
RTVSPropertyOp30
 70
     1
102
RTVSPropertyOp31
 70
     1
102
RTVSPropertyOp32
 70
     1
102
RTVSPropertyOp33
 70
     1
102
RTVSPropertyOp34
 70
     1
102
RTVSPropertyOp35
 70
     1
102
RTVSPropertyOp36
 70
     1
102
RTVSPropertyOp37
 70
     1
102
RTVSPropertyOp38
 70
     1
102
RTVSPropertyOp39
 70
     1
102
RTVSPropertyOp40
 70
     1
102
RTVSPropertyOp41
 70
     1
102
RTVSPropertyOp42
 70
     1
102
RTVSPropertyOp43
 70
     1
102
RTVSPropertyOp44
 70
     1
102
RTVSPropertyOp45
 70
     1
102
RTVSPropertyOp46
 70
     1
102
RTVSPropertyOp47
 70
     1
102
RTVSPropertyOp48
 70
     1
102
RTVSPropertyOp49
 70
     1
102
RTVSPropertyOp50
 70
     1
102
RTVSPropertyOp51
 70
     0
102
RTVSPropertyOp52
 70
     0
102
RTVSPropertyOp53
 70
     1
102
RTVSPropertyOp54
 70
     1
102
RTVSPropertyOp55
 70
     1
102
RTVSPropertyOp56
 70
     1
102
RTVSPropertyOp57
 70
     1
102
RTVSPost2010Prop28
280
     0
102
RTVSPost2010PropOp28
 70
     1
102
RTVSPost2010Prop29
280
     1
102
RTVSPost2010PropOp29
 70
     1
102
RTVSPost2010Prop30
280
     1
102
RTVSPost2010PropOp30
 70
     1
102
RTVSPost2010Prop31
280
     0
102
RTVSPost2010PropOp31
 70
     1
102
RTVSPost2010Prop32
280
     0
102
RTVSPost2010PropOp32
 70
     1
102
RTVSPost2010Prop33
280
     0
102
RTVSPost2010PropOp33
 70
     1
102
RTVSPost2010Prop34
280
     0
102
RTVSPost2010PropOp34
 70
     1
102
RTVSPost2010Prop35
280
     0
102
RTVSPost2010PropOp35
 70
     1
102
RTVSPost2010Prop36
280
     0
102
RTVSPost2010PropOp36
 70
     1
102
RTVSPost2010Prop37
 90
       50
102
RTVSPost2010PropOp37
 70
     1
102
RTVSPost2010Prop38
140
0.0
102
RTVSPost2010PropOp38
 70
     1
102
RTVSPost2010Prop39
140
1.0
102
RTVSPost2010PropOp39
 70
     1
102
RTVSPost2010Prop40
 90
        0
102
RTVSPost2010PropOp40
 70
     1
102
RTVSPost2010Prop41ColorIndex
 90
       18
102
RTVSPost2010Prop41ColorRGB
 90
        0
102
RTVSPost2010PropOp41
 70
     1
102
RTVSPost2010Prop42
 90
       50
102
RTVSPost2010PropOp42
 70
     1
102
RTVSPost2010Prop43
 90
        3
102
RTVSPost2010PropOp43
 70
     1
102
RTVSPost2010Prop44ColorIndex
 90
        5
102
RTVSPost2010Prop44ColorRGB
 90
      255
102
RTVSPost2010PropOp44
 70
     1
102
RTVSPost2010Prop45
280
     0
102
RTVSPost2010PropOp45
 70
     1
102
RTVSPost2010Prop46
 90
       50
102
RTVSPost2010PropOp46
 70
     1
102
RTVSPost2010Prop47
 90
       50
102
RTVSPost2010PropOp47
 70
     1
102
RTVSPost2010Prop48
 90
       50
102
RTVSPost2010PropOp48
 70
     1
102
RTVSPost2010Prop49
280
     0
102
RTVSPost2010PropOp49
 70
     1
102
RTVSPost2010Prop50
 90
       50
102
RTVSPost2010PropOp50
 70
     1
102
RTVSPost2010Prop51ColorIndex
 90
      256
102
RTVSPost2010Prop51ColorRGB
 90
-16777216
102
RTVSPost2010PropOp51
 70
     0
102
RTVSPost2010Prop52
140
1.0
102
RTVSPost2010PropOp52
 70
     0
102
RTVSPost2010Prop53
 90
        2
102
RTVSPost2010PropOp53
 70
     1
102
RTVSPost2010Prop54
  1
strokes_ogs.tif
102
RTVSPost2010PropOp54
 70
     1
102
RTVSPost2010Prop55
280
     0
102
RTVSPost2010PropOp55
 70
     1
102
RTVSPost2010Prop56
140
1.0
102
RTVSPost2010PropOp56
 70
     1
102
RTVSPost2010Prop57
140
1.0
102
RTVSPost2010PropOp57
 70
     1
  0
XRECORD
  5
DF03
102
{ACAD_REACTORS
330
DF02
102
}
330
DF02
100
AcDbXrecord
280
     1
102
RTVSPropertyOp0
 70
     1
102
RTVSPropertyOp1
 70
     1
102
RTVSPropertyOp2
 70
     1
102
RTVSPropertyOp3
 70
     1
102
RTVSPropertyOp4
 70
     1
102
RTVSPropertyOp5
 70
     1
102
RTVSPropertyOp6
 70
     1
102
RTVSPropertyOp7
 70
     1
102
RTVSPropertyOp8
 70
     1
102
RTVSPropertyOp9
 70
     1
102
RTVSPropertyOp10
 70
     1
102
RTVSPropertyOp11
 70
     1
102
RTVSPropertyOp12
 70
     1
102
RTVSPropertyOp13
 70
     1
102
RTVSPropertyOp14
 70
     1
102
RTVSPropertyOp15
 70
     1
102
RTVSPropertyOp16
 70
     1
102
RTVSPropertyOp17
 70
     1
102
RTVSPropertyOp18
 70
     1
102
RTVSPropertyOp19
 70
     1
102
RTVSPropertyOp20
 70
     1
102
RTVSPropertyOp21
 70
     1
102
RTVSPropertyOp22
 70
     1
102
RTVSPropertyOp23
 70
     1
102
RTVSPropertyOp24
 70
     1
102
RTVSPropertyOp25
 70
     1
102
RTVSPropertyOp26
 70
     1
102
RTVSPropertyOp27
 70
     1
102
RTVSPropertyOp28
 70
     1
102
RTVSPropertyOp29
 70
     1
102
RTVSPropertyOp30
 70
     1
102
RTVSPropertyOp31
 70
     1
102
RTVSPropertyOp32
 70
     1
102
RTVSPropertyOp33
 70
     1
102
RTVSPropertyOp34
 70
     1
102
RTVSPropertyOp35
 70
     1
102
RTVSPropertyOp36
 70
     1
102
RTVSPropertyOp37
 70
     1
102
RTVSPropertyOp38
 70
     1
102
RTVSPropertyOp39
 70
     1
102
RTVSPropertyOp40
 70
     1
102
RTVSPropertyOp41
 70
     1
102
RTVSPropertyOp42
 70
     1
102
RTVSPropertyOp43
 70
     1
102
RTVSPropertyOp44
 70
     1
102
RTVSPropertyOp45
 70
     1
102
RTVSPropertyOp46
 70
     1
102
RTVSPropertyOp47
 70
     1
102
RTVSPropertyOp48
 70
     1
102
RTVSPropertyOp49
 70
     1
102
RTVSPropertyOp50
 70
     1
102
RTVSPropertyOp51
 70
     0
102
RTVSPropertyOp52
 70
     0
102
RTVSPropertyOp53
 70
     1
102
RTVSPropertyOp54
 70
     1
102
RTVSPropertyOp55
 70
     1
102
RTVSPropertyOp56
 70
     1
102
RTVSPropertyOp57
 70
     1
102
RTVSPost2010Prop28
280
     0
102
RTVSPost2010PropOp28
 70
     1
102
RTVSPost2010Prop29
280
     1
102
RTVSPost2010PropOp29
 70
     1
102
RTVSPost2010Prop30
280
     1
102
RTVSPost2010PropOp30
 70
     1
102
RTVSPost2010Prop31
280
     0
102
RTVSPost2010PropOp31
 70
     1
102
RTVSPost2010Prop32
280
     0
102
RTVSPost2010PropOp32
 70
     1
102
RTVSPost2010Prop33
280
     0
102
RTVSPost2010PropOp33
 70
     1
102
RTVSPost2010Prop34
280
     0
102
RTVSPost2010PropOp34
 70
     1
102
RTVSPost2010Prop35
280
     0
102
RTVSPost2010PropOp35
 70
     1
102
RTVSPost2010Prop36
280
     0
102
RTVSPost2010PropOp36
 70
     1
102
RTVSPost2010Prop37
 90
       50
102
RTVSPost2010PropOp37
 70
     1
102
RTVSPost2010Prop38
140
0.0
102
RTVSPost2010PropOp38
 70
     1
102
RTVSPost2010Prop39
140
1.0
102
RTVSPost2010PropOp39
 70
     1
102
RTVSPost2010Prop40
 90
        0
102
RTVSPost2010PropOp40
 70
     1
102
RTVSPost2010Prop41ColorIndex
 90
       18
102
RTVSPost2010Prop41ColorRGB
 90
        0
102
RTVSPost2010PropOp41
 70
     1
102
RTVSPost2010Prop42
 90
       50
102
RTVSPost2010PropOp42
 70
     1
102
RTVSPost2010Prop43
 90
        3
102
RTVSPost2010PropOp43
 70
     1
102
RTVSPost2010Prop44ColorIndex
 90
        5
102
RTVSPost2010Prop44ColorRGB
 90
      255
102
RTVSPost2010PropOp44
 70
     1
102
RTVSPost2010Prop45
280
     0
102
RTVSPost2010PropOp45
 70
     1
102
RTVSPost2010Prop46
 90
       50
102
RTVSPost2010PropOp46
 70
     1
102
RTVSPost2010Prop47
 90
       50
102
RTVSPost2010PropOp47
 70
     1
102
RTVSPost2010Prop48
 90
       50
102
RTVSPost2010PropOp48
 70
     1
102
RTVSPost2010Prop49
280
     0
102
RTVSPost2010PropOp49
 70
     1
102
RTVSPost2010Prop50
 90
       50
102
RTVSPost2010PropOp50
 70
     1
102
RTVSPost2010Prop51ColorIndex
 90
      256
102
RTVSPost2010Prop51ColorRGB
 90
-16777216
102
RTVSPost2010PropOp51
 70
     0
102
RTVSPost2010Prop52
140
1.0
102
RTVSPost2010PropOp52
 70
     0
102
RTVSPost2010Prop53
 90
        2
102
RTVSPost2010PropOp53
 70
     1
102
RTVSPost2010Prop54
  1
strokes_ogs.tif
102
RTVSPost2010PropOp54
 70
     1
102
RTVSPost2010Prop55
280
     0
102
RTVSPost2010PropOp55
 70
     1
102
RTVSPost2010Prop56
140
1.0
102
RTVSPost2010PropOp56
 70
     1
102
RTVSPost2010Prop57
140
1.0
102
RTVSPost2010PropOp57
 70
     1
  0
XRECORD
  5
DF05
102
{ACAD_REACTORS
330
DF04
102
}
330
DF04
100
AcDbXrecord
280
     1
102
RTVSPropertyOp0
 70
     0
102
RTVSPropertyOp1
 70
     0
102
RTVSPropertyOp2
 70
     0
102
RTVSPropertyOp3
 70
     0
102
RTVSPropertyOp4
 70
     0
102
RTVSPropertyOp5
 70
     0
102
RTVSPropertyOp6
 70
     0
102
RTVSPropertyOp7
 70
     0
102
RTVSPropertyOp8
 70
     0
102
RTVSPropertyOp9
 70
     0
102
RTVSPropertyOp10
 70
     0
102
RTVSPropertyOp11
 70
     0
102
RTVSPropertyOp12
 70
     0
102
RTVSPropertyOp13
 70
     0
102
RTVSPropertyOp14
 70
     2
102
RTVSPropertyOp15
 70
     0
102
RTVSPropertyOp16
 70
     0
102
RTVSPropertyOp17
 70
     0
102
RTVSPropertyOp18
 70
     0
102
RTVSPropertyOp19
 70
     0
102
RTVSPropertyOp20
 70
     0
102
RTVSPropertyOp21
 70
     0
102
RTVSPropertyOp22
 70
     0
102
RTVSPropertyOp23
 70
     0
102
RTVSPropertyOp24
 70
     0
102
RTVSPropertyOp25
 70
     0
102
RTVSPropertyOp26
 70
     0
102
RTVSPropertyOp27
 70
     0
102
RTVSPropertyOp28
 70
     1
102
RTVSPropertyOp29
 70
     1
102
RTVSPropertyOp30
 70
     1
102
RTVSPropertyOp31
 70
     1
102
RTVSPropertyOp32
 70
     1
102
RTVSPropertyOp33
 70
     1
102
RTVSPropertyOp34
 70
     1
102
RTVSPropertyOp35
 70
     1
102
RTVSPropertyOp36
 70
     1
102
RTVSPropertyOp37
 70
     0
102
RTVSPropertyOp38
 70
     0
102
RTVSPropertyOp39
 70
     0
102
RTVSPropertyOp40
 70
     0
102
RTVSPropertyOp41
 70
     0
102
RTVSPropertyOp42
 70
     0
102
RTVSPropertyOp43
 70
     0
102
RTVSPropertyOp44
 70
     0
102
RTVSPropertyOp45
 70
     1
102
RTVSPropertyOp46
 70
     0
102
RTVSPropertyOp47
 70
     0
102
RTVSPropertyOp48
 70
     0
102
RTVSPropertyOp49
 70
     1
102
RTVSPropertyOp50
 70
     0
102
RTVSPropertyOp51
 70
     0
102
RTVSPropertyOp52
 70
     0
102
RTVSPropertyOp53
 70
     0
102
RTVSPropertyOp54
 70
     0
102
RTVSPropertyOp55
 70
     1
102
RTVSPropertyOp56
 70
     0
102
RTVSPropertyOp57
 70
     0
102
RTVSPost2010Prop28
280
     0
102
RTVSPost2010PropOp28
 70
     1
102
RTVSPost2010Prop29
280
     1
102
RTVSPost2010PropOp29
 70
     1
102
RTVSPost2010Prop30
280
     1
102
RTVSPost2010PropOp30
 70
     1
102
RTVSPost2010Prop31
280
     0
102
RTVSPost2010PropOp31
 70
     1
102
RTVSPost2010Prop32
280
     0
102
RTVSPost2010PropOp32
 70
     1
102
RTVSPost2010Prop33
280
     0
102
RTVSPost2010PropOp33
 70
     1
102
RTVSPost2010Prop34
280
     0
102
RTVSPost2010PropOp34
 70
     1
102
RTVSPost2010Prop35
280
     0
102
RTVSPost2010PropOp35
 70
     1
102
RTVSPost2010Prop36
280
     0
102
RTVSPost2010PropOp36
 70
     1
102
RTVSPost2010Prop37
 90
       50
102
RTVSPost2010PropOp37
 70
     0
102
RTVSPost2010Prop38
140
0.0
102
RTVSPost2010PropOp38
 70
     0
102
RTVSPost2010Prop39
140
1.0
102
RTVSPost2010PropOp39
 70
     0
102
RTVSPost2010Prop40
 90
        0
102
RTVSPost2010PropOp40
 70
     0
102
RTVSPost2010Prop41ColorIndex
 90
       18
102
RTVSPost2010Prop41ColorRGB
 90
        0
102
RTVSPost2010PropOp41
 70
     0
102
RTVSPost2010Prop42
 90
       50
102
RTVSPost2010PropOp42
 70
     0
102
RTVSPost2010Prop43
 90
        3
102
RTVSPost2010PropOp43
 70
     0
102
RTVSPost2010Prop44ColorIndex
 90
        5
102
RTVSPost2010Prop44ColorRGB
 90
      255
102
RTVSPost2010PropOp44
 70
     0
102
RTVSPost2010Prop45
280
     0
102
RTVSPost2010PropOp45
 70
     1
102
RTVSPost2010Prop46
 90
       50
102
RTVSPost2010PropOp46
 70
     0
102
RTVSPost2010Prop47
 90
       50
102
RTVSPost2010PropOp47
 70
     0
102
RTVSPost2010Prop48
 90
       50
102
RTVSPost2010PropOp48
 70
     0
102
RTVSPost2010Prop49
280
     0
102
RTVSPost2010PropOp49
 70
     1
102
RTVSPost2010Prop50
 90
       50
102
RTVSPost2010PropOp50
 70
     0
102
RTVSPost2010Prop51ColorIndex
 90
      256
102
RTVSPost2010Prop51ColorRGB
 90
-16777216
102
RTVSPost2010PropOp51
 70
     0
102
RTVSPost2010Prop52
140
1.0
102
RTVSPost2010PropOp52
 70
     0
102
RTVSPost2010Prop53
 90
        2
102
RTVSPost2010PropOp53
 70
     0
102
RTVSPost2010Prop54
  1
strokes_ogs.tif
102
RTVSPost2010PropOp54
 70
     0
102
RTVSPost2010Prop55
280
     0
102
RTVSPost2010PropOp55
 70
     1
102
RTVSPost2010Prop56
140
1.0
102
RTVSPost2010PropOp56
 70
     0
102
RTVSPost2010Prop57
140
1.0
102
RTVSPost2010PropOp57
 70
     0
  0
XRECORD
  5
DF07
102
{ACAD_REACTORS
330
DF06
102
}
330
DF06
100
AcDbXrecord
280
     1
102
RTVSPropertyOp0
 70
     1
102
RTVSPropertyOp1
 70
     1
102
RTVSPropertyOp2
 70
     1
102
RTVSPropertyOp3
 70
     1
102
RTVSPropertyOp4
 70
     1
102
RTVSPropertyOp5
 70
     1
102
RTVSPropertyOp6
 70
     1
102
RTVSPropertyOp7
 70
     1
102
RTVSPropertyOp8
 70
     1
102
RTVSPropertyOp9
 70
     1
102
RTVSPropertyOp10
 70
     1
102
RTVSPropertyOp11
 70
     1
102
RTVSPropertyOp12
 70
     1
102
RTVSPropertyOp13
 70
     1
102
RTVSPropertyOp14
 70
     1
102
RTVSPropertyOp15
 70
     1
102
RTVSPropertyOp16
 70
     1
102
RTVSPropertyOp17
 70
     1
102
RTVSPropertyOp18
 70
     1
102
RTVSPropertyOp19
 70
     1
102
RTVSPropertyOp20
 70
     1
102
RTVSPropertyOp21
 70
     1
102
RTVSPropertyOp22
 70
     1
102
RTVSPropertyOp23
 70
     1
102
RTVSPropertyOp24
 70
     1
102
RTVSPropertyOp25
 70
     1
102
RTVSPropertyOp26
 70
     1
102
RTVSPropertyOp27
 70
     1
102
RTVSPropertyOp28
 70
     1
102
RTVSPropertyOp29
 70
     1
102
RTVSPropertyOp30
 70
     1
102
RTVSPropertyOp31
 70
     1
102
RTVSPropertyOp32
 70
     1
102
RTVSPropertyOp33
 70
     1
102
RTVSPropertyOp34
 70
     1
102
RTVSPropertyOp35
 70
     1
102
RTVSPropertyOp36
 70
     1
102
RTVSPropertyOp37
 70
     1
102
RTVSPropertyOp38
 70
     1
102
RTVSPropertyOp39
 70
     1
102
RTVSPropertyOp40
 70
     1
102
RTVSPropertyOp41
 70
     1
102
RTVSPropertyOp42
 70
     1
102
RTVSPropertyOp43
 70
     1
102
RTVSPropertyOp44
 70
     1
102
RTVSPropertyOp45
 70
     1
102
RTVSPropertyOp46
 70
     1
102
RTVSPropertyOp47
 70
     1
102
RTVSPropertyOp48
 70
     1
102
RTVSPropertyOp49
 70
     1
102
RTVSPropertyOp50
 70
     1
102
RTVSPropertyOp51
 70
     0
102
RTVSPropertyOp52
 70
     0
102
RTVSPropertyOp53
 70
     1
102
RTVSPropertyOp54
 70
     1
102
RTVSPropertyOp55
 70
     1
102
RTVSPropertyOp56
 70
     1
102
RTVSPropertyOp57
 70
     1
102
RTVSPost2010Prop28
280
     0
102
RTVSPost2010PropOp28
 70
     1
102
RTVSPost2010Prop29
280
     1
102
RTVSPost2010PropOp29
 70
     1
102
RTVSPost2010Prop30
280
     1
102
RTVSPost2010PropOp30
 70
     1
102
RTVSPost2010Prop31
280
     0
102
RTVSPost2010PropOp31
 70
     1
102
RTVSPost2010Prop32
280
     0
102
RTVSPost2010PropOp32
 70
     1
102
RTVSPost2010Prop33
280
     0
102
RTVSPost2010PropOp33
 70
     1
102
RTVSPost2010Prop34
280
     0
102
RTVSPost2010PropOp34
 70
     1
102
RTVSPost2010Prop35
280
     0
102
RTVSPost2010PropOp35
 70
     1
102
RTVSPost2010Prop36
280
     0
102
RTVSPost2010PropOp36
 70
     1
102
RTVSPost2010Prop37
 90
       50
102
RTVSPost2010PropOp37
 70
     1
102
RTVSPost2010Prop38
140
0.0
102
RTVSPost2010PropOp38
 70
     1
102
RTVSPost2010Prop39
140
1.0
102
RTVSPost2010PropOp39
 70
     1
102
RTVSPost2010Prop40
 90
        0
102
RTVSPost2010PropOp40
 70
     1
102
RTVSPost2010Prop41ColorIndex
 90
       18
102
RTVSPost2010Prop41ColorRGB
 90
        0
102
RTVSPost2010PropOp41
 70
     1
102
RTVSPost2010Prop42
 90
       50
102
RTVSPost2010PropOp42
 70
     1
102
RTVSPost2010Prop43
 90
        3
102
RTVSPost2010PropOp43
 70
     1
102
RTVSPost2010Prop44ColorIndex
 90
        5
102
RTVSPost2010Prop44ColorRGB
 90
      255
102
RTVSPost2010PropOp44
 70
     1
102
RTVSPost2010Prop45
280
     0
102
RTVSPost2010PropOp45
 70
     1
102
RTVSPost2010Prop46
 90
       50
102
RTVSPost2010PropOp46
 70
     1
102
RTVSPost2010Prop47
 90
       50
102
RTVSPost2010PropOp47
 70
     1
102
RTVSPost2010Prop48
 90
       50
102
RTVSPost2010PropOp48
 70
     1
102
RTVSPost2010Prop49
280
     0
102
RTVSPost2010PropOp49
 70
     1
102
RTVSPost2010Prop50
 90
       50
102
RTVSPost2010PropOp50
 70
     1
102
RTVSPost2010Prop51ColorIndex
 90
      256
102
RTVSPost2010Prop51ColorRGB
 90
-16777216
102
RTVSPost2010PropOp51
 70
     0
102
RTVSPost2010Prop52
140
1.0
102
RTVSPost2010PropOp52
 70
     0
102
RTVSPost2010Prop53
 90
        2
102
RTVSPost2010PropOp53
 70
     1
102
RTVSPost2010Prop54
  1
strokes_ogs.tif
102
RTVSPost2010PropOp54
 70
     1
102
RTVSPost2010Prop55
280
     0
102
RTVSPost2010PropOp55
 70
     1
102
RTVSPost2010Prop56
140
1.0
102
RTVSPost2010PropOp56
 70
     1
102
RTVSPost2010Prop57
140
1.0
102
RTVSPost2010PropOp57
 70
     1
  0
XRECORD
  5
DF09
102
{ACAD_REACTORS
330
DF08
102
}
330
DF08
100
AcDbXrecord
280
     1
102
RTVSPropertyOp0
 70
     0
102
RTVSPropertyOp1
 70
     0
102
RTVSPropertyOp2
 70
     0
102
RTVSPropertyOp3
 70
     0
102
RTVSPropertyOp4
 70
     0
102
RTVSPropertyOp5
 70
     0
102
RTVSPropertyOp6
 70
     0
102
RTVSPropertyOp7
 70
     0
102
RTVSPropertyOp8
 70
     0
102
RTVSPropertyOp9
 70
     0
102
RTVSPropertyOp10
 70
     0
102
RTVSPropertyOp11
 70
     0
102
RTVSPropertyOp12
 70
     0
102
RTVSPropertyOp13
 70
     0
102
RTVSPropertyOp14
 70
     2
102
RTVSPropertyOp15
 70
     0
102
RTVSPropertyOp16
 70
     0
102
RTVSPropertyOp17
 70
     0
102
RTVSPropertyOp18
 70
     0
102
RTVSPropertyOp19
 70
     0
102
RTVSPropertyOp20
 70
     0
102
RTVSPropertyOp21
 70
     0
102
RTVSPropertyOp22
 70
     0
102
RTVSPropertyOp23
 70
     0
102
RTVSPropertyOp24
 70
     0
102
RTVSPropertyOp25
 70
     0
102
RTVSPropertyOp26
 70
     0
102
RTVSPropertyOp27
 70
     0
102
RTVSPropertyOp28
 70
     1
102
RTVSPropertyOp29
 70
     1
102
RTVSPropertyOp30
 70
     1
102
RTVSPropertyOp31
 70
     1
102
RTVSPropertyOp32
 70
     1
102
RTVSPropertyOp33
 70
     1
102
RTVSPropertyOp34
 70
     1
102
RTVSPropertyOp35
 70
     1
102
RTVSPropertyOp36
 70
     1
102
RTVSPropertyOp37
 70
     0
102
RTVSPropertyOp38
 70
     0
102
RTVSPropertyOp39
 70
     0
102
RTVSPropertyOp40
 70
     0
102
RTVSPropertyOp41
 70
     0
102
RTVSPropertyOp42
 70
     0
102
RTVSPropertyOp43
 70
     0
102
RTVSPropertyOp44
 70
     0
102
RTVSPropertyOp45
 70
     1
102
RTVSPropertyOp46
 70
     0
102
RTVSPropertyOp47
 70
     0
102
RTVSPropertyOp48
 70
     0
102
RTVSPropertyOp49
 70
     1
102
RTVSPropertyOp50
 70
     0
102
RTVSPropertyOp51
 70
     0
102
RTVSPropertyOp52
 70
     0
102
RTVSPropertyOp53
 70
     0
102
RTVSPropertyOp54
 70
     0
102
RTVSPropertyOp55
 70
     1
102
RTVSPropertyOp56
 70
     0
102
RTVSPropertyOp57
 70
     0
102
RTVSPost2010Prop28
280
     0
102
RTVSPost2010PropOp28
 70
     1
102
RTVSPost2010Prop29
280
     1
102
RTVSPost2010PropOp29
 70
     1
102
RTVSPost2010Prop30
280
     1
102
RTVSPost2010PropOp30
 70
     1
102
RTVSPost2010Prop31
280
     0
102
RTVSPost2010PropOp31
 70
     1
102
RTVSPost2010Prop32
280
     0
102
RTVSPost2010PropOp32
 70
     1
102
RTVSPost2010Prop33
280
     0
102
RTVSPost2010PropOp33
 70
     1
102
RTVSPost2010Prop34
280
     0
102
RTVSPost2010PropOp34
 70
     1
102
RTVSPost2010Prop35
280
     0
102
RTVSPost2010PropOp35
 70
     1
102
RTVSPost2010Prop36
280
     0
102
RTVSPost2010PropOp36
 70
     1
102
RTVSPost2010Prop37
 90
       50
102
RTVSPost2010PropOp37
 70
     0
102
RTVSPost2010Prop38
140
0.0
102
RTVSPost2010PropOp38
 70
     0
102
RTVSPost2010Prop39
140
1.0
102
RTVSPost2010PropOp39
 70
     0
102
RTVSPost2010Prop40
 90
        0
102
RTVSPost2010PropOp40
 70
     0
102
RTVSPost2010Prop41ColorIndex
 90
       18
102
RTVSPost2010Prop41ColorRGB
 90
        0
102
RTVSPost2010PropOp41
 70
     0
102
RTVSPost2010Prop42
 90
       50
102
RTVSPost2010PropOp42
 70
     0
102
RTVSPost2010Prop43
 90
        3
102
RTVSPost2010PropOp43
 70
     0
102
RTVSPost2010Prop44ColorIndex
 90
        5
102
RTVSPost2010Prop44ColorRGB
 90
      255
102
RTVSPost2010PropOp44
 70
     0
102
RTVSPost2010Prop45
280
     0
102
RTVSPost2010PropOp45
 70
     1
102
RTVSPost2010Prop46
 90
       50
102
RTVSPost2010PropOp46
 70
     0
102
RTVSPost2010Prop47
 90
       50
102
RTVSPost2010PropOp47
 70
     0
102
RTVSPost2010Prop48
 90
       50
102
RTVSPost2010PropOp48
 70
     0
102
RTVSPost2010Prop49
280
     0
102
RTVSPost2010PropOp49
 70
     1
102
RTVSPost2010Prop50
 90
       50
102
RTVSPost2010PropOp50
 70
     0
102
RTVSPost2010Prop51ColorIndex
 90
      256
102
RTVSPost2010Prop51ColorRGB
 90
-16777216
102
RTVSPost2010PropOp51
 70
     0
102
RTVSPost2010Prop52
140
1.0
102
RTVSPost2010PropOp52
 70
     0
102
RTVSPost2010Prop53
 90
        2
102
RTVSPost2010PropOp53
 70
     0
102
RTVSPost2010Prop54
  1
strokes_ogs.tif
102
RTVSPost2010PropOp54
 70
     0
102
RTVSPost2010Prop55
280
     0
102
RTVSPost2010PropOp55
 70
     1
102
RTVSPost2010Prop56
140
1.0
102
RTVSPost2010PropOp56
 70
     0
102
RTVSPost2010Prop57
140
1.0
102
RTVSPost2010PropOp57
 70
     0
  0
XRECORD
  5
DF0B
102
{ACAD_REACTORS
330
DF0A
102
}
330
DF0A
100
AcDbXrecord
280
     1
102
RTVSPropertyOp0
 70
     1
102
RTVSPropertyOp1
 70
     1
102
RTVSPropertyOp2
 70
     1
102
RTVSPropertyOp3
 70
     1
102
RTVSPropertyOp4
 70
     1
102
RTVSPropertyOp5
 70
     1
102
RTVSPropertyOp6
 70
     1
102
RTVSPropertyOp7
 70
     1
102
RTVSPropertyOp8
 70
     1
102
RTVSPropertyOp9
 70
     1
102
RTVSPropertyOp10
 70
     1
102
RTVSPropertyOp11
 70
     1
102
RTVSPropertyOp12
 70
     1
102
RTVSPropertyOp13
 70
     1
102
RTVSPropertyOp14
 70
     1
102
RTVSPropertyOp15
 70
     1
102
RTVSPropertyOp16
 70
     1
102
RTVSPropertyOp17
 70
     1
102
RTVSPropertyOp18
 70
     1
102
RTVSPropertyOp19
 70
     1
102
RTVSPropertyOp20
 70
     1
102
RTVSPropertyOp21
 70
     1
102
RTVSPropertyOp22
 70
     1
102
RTVSPropertyOp23
 70
     1
102
RTVSPropertyOp24
 70
     1
102
RTVSPropertyOp25
 70
     1
102
RTVSPropertyOp26
 70
     1
102
RTVSPropertyOp27
 70
     1
102
RTVSPropertyOp28
 70
     1
102
RTVSPropertyOp29
 70
     1
102
RTVSPropertyOp30
 70
     1
102
RTVSPropertyOp31
 70
     1
102
RTVSPropertyOp32
 70
     1
102
RTVSPropertyOp33
 70
     1
102
RTVSPropertyOp34
 70
     1
102
RTVSPropertyOp35
 70
     1
102
RTVSPropertyOp36
 70
     1
102
RTVSPropertyOp37
 70
     1
102
RTVSPropertyOp38
 70
     1
102
RTVSPropertyOp39
 70
     1
102
RTVSPropertyOp40
 70
     1
102
RTVSPropertyOp41
 70
     1
102
RTVSPropertyOp42
 70
     1
102
RTVSPropertyOp43
 70
     1
102
RTVSPropertyOp44
 70
     1
102
RTVSPropertyOp45
 70
     1
102
RTVSPropertyOp46
 70
     1
102
RTVSPropertyOp47
 70
     1
102
RTVSPropertyOp48
 70
     1
102
RTVSPropertyOp49
 70
     1
102
RTVSPropertyOp50
 70
     1
102
RTVSPropertyOp51
 70
     0
102
RTVSPropertyOp52
 70
     0
102
RTVSPropertyOp53
 70
     1
102
RTVSPropertyOp54
 70
     1
102
RTVSPropertyOp55
 70
     1
102
RTVSPropertyOp56
 70
     1
102
RTVSPropertyOp57
 70
     1
102
RTVSPost2010Prop28
280
     0
102
RTVSPost2010PropOp28
 70
     1
102
RTVSPost2010Prop29
280
     1
102
RTVSPost2010PropOp29
 70
     1
102
RTVSPost2010Prop30
280
     1
102
RTVSPost2010PropOp30
 70
     1
102
RTVSPost2010Prop31
280
     0
102
RTVSPost2010PropOp31
 70
     1
102
RTVSPost2010Prop32
280
     0
102
RTVSPost2010PropOp32
 70
     1
102
RTVSPost2010Prop33
280
     0
102
RTVSPost2010PropOp33
 70
     1
102
RTVSPost2010Prop34
280
     0
102
RTVSPost2010PropOp34
 70
     1
102
RTVSPost2010Prop35
280
     0
102
RTVSPost2010PropOp35
 70
     1
102
RTVSPost2010Prop36
280
     0
102
RTVSPost2010PropOp36
 70
     1
102
RTVSPost2010Prop37
 90
       50
102
RTVSPost2010PropOp37
 70
     1
102
RTVSPost2010Prop38
140
0.0
102
RTVSPost2010PropOp38
 70
     1
102
RTVSPost2010Prop39
140
1.0
102
RTVSPost2010PropOp39
 70
     1
102
RTVSPost2010Prop40
 90
        0
102
RTVSPost2010PropOp40
 70
     1
102
RTVSPost2010Prop41ColorIndex
 90
       18
102
RTVSPost2010Prop41ColorRGB
 90
        0
102
RTVSPost2010PropOp41
 70
     1
102
RTVSPost2010Prop42
 90
       50
102
RTVSPost2010PropOp42
 70
     1
102
RTVSPost2010Prop43
 90
        3
102
RTVSPost2010PropOp43
 70
     1
102
RTVSPost2010Prop44ColorIndex
 90
        5
102
RTVSPost2010Prop44ColorRGB
 90
      255
102
RTVSPost2010PropOp44
 70
     1
102
RTVSPost2010Prop45
280
     0
102
RTVSPost2010PropOp45
 70
     1
102
RTVSPost2010Prop46
 90
       50
102
RTVSPost2010PropOp46
 70
     1
102
RTVSPost2010Prop47
 90
       50
102
RTVSPost2010PropOp47
 70
     1
102
RTVSPost2010Prop48
 90
       50
102
RTVSPost2010PropOp48
 70
     1
102
RTVSPost2010Prop49
280
     0
102
RTVSPost2010PropOp49
 70
     1
102
RTVSPost2010Prop50
 90
       50
102
RTVSPost2010PropOp50
 70
     1
102
RTVSPost2010Prop51ColorIndex
 90
      256
102
RTVSPost2010Prop51ColorRGB
 90
-16777216
102
RTVSPost2010PropOp51
 70
     0
102
RTVSPost2010Prop52
140
1.0
102
RTVSPost2010PropOp52
 70
     0
102
RTVSPost2010Prop53
 90
        2
102
RTVSPost2010PropOp53
 70
     1
102
RTVSPost2010Prop54
  1
strokes_ogs.tif
102
RTVSPost2010PropOp54
 70
     1
102
RTVSPost2010Prop55
280
     0
102
RTVSPost2010PropOp55
 70
     1
102
RTVSPost2010Prop56
140
1.0
102
RTVSPost2010PropOp56
 70
     1
102
RTVSPost2010Prop57
140
1.0
102
RTVSPost2010PropOp57
 70
     1
  0
XRECORD
  5
DF0D
102
{ACAD_REACTORS
330
DF0C
102
}
330
DF0C
100
AcDbXrecord
280
     1
102
RTVSPropertyOp0
 70
     1
102
RTVSPropertyOp1
 70
     1
102
RTVSPropertyOp2
 70
     1
102
RTVSPropertyOp3
 70
     1
102
RTVSPropertyOp4
 70
     1
102
RTVSPropertyOp5
 70
     1
102
RTVSPropertyOp6
 70
     1
102
RTVSPropertyOp7
 70
     1
102
RTVSPropertyOp8
 70
     1
102
RTVSPropertyOp9
 70
     1
102
RTVSPropertyOp10
 70
     1
102
RTVSPropertyOp11
 70
     1
102
RTVSPropertyOp12
 70
     1
102
RTVSPropertyOp13
 70
     1
102
RTVSPropertyOp14
 70
     1
102
RTVSPropertyOp15
 70
     1
102
RTVSPropertyOp16
 70
     1
102
RTVSPropertyOp17
 70
     1
102
RTVSPropertyOp18
 70
     1
102
RTVSPropertyOp19
 70
     1
102
RTVSPropertyOp20
 70
     1
102
RTVSPropertyOp21
 70
     1
102
RTVSPropertyOp22
 70
     1
102
RTVSPropertyOp23
 70
     1
102
RTVSPropertyOp24
 70
     1
102
RTVSPropertyOp25
 70
     1
102
RTVSPropertyOp26
 70
     1
102
RTVSPropertyOp27
 70
     1
102
RTVSPropertyOp28
 70
     1
102
RTVSPropertyOp29
 70
     1
102
RTVSPropertyOp30
 70
     1
102
RTVSPropertyOp31
 70
     1
102
RTVSPropertyOp32
 70
     1
102
RTVSPropertyOp33
 70
     1
102
RTVSPropertyOp34
 70
     1
102
RTVSPropertyOp35
 70
     1
102
RTVSPropertyOp36
 70
     1
102
RTVSPropertyOp37
 70
     1
102
RTVSPropertyOp38
 70
     1
102
RTVSPropertyOp39
 70
     1
102
RTVSPropertyOp40
 70
     1
102
RTVSPropertyOp41
 70
     1
102
RTVSPropertyOp42
 70
     1
102
RTVSPropertyOp43
 70
     1
102
RTVSPropertyOp44
 70
     1
102
RTVSPropertyOp45
 70
     1
102
RTVSPropertyOp46
 70
     1
102
RTVSPropertyOp47
 70
     1
102
RTVSPropertyOp48
 70
     1
102
RTVSPropertyOp49
 70
     1
102
RTVSPropertyOp50
 70
     1
102
RTVSPropertyOp51
 70
     0
102
RTVSPropertyOp52
 70
     0
102
RTVSPropertyOp53
 70
     1
102
RTVSPropertyOp54
 70
     1
102
RTVSPropertyOp55
 70
     1
102
RTVSPropertyOp56
 70
     1
102
RTVSPropertyOp57
 70
     1
102
RTVSPost2010Prop28
280
     0
102
RTVSPost2010PropOp28
 70
     1
102
RTVSPost2010Prop29
280
     1
102
RTVSPost2010PropOp29
 70
     1
102
RTVSPost2010Prop30
280
     1
102
RTVSPost2010PropOp30
 70
     1
102
RTVSPost2010Prop31
280
     0
102
RTVSPost2010PropOp31
 70
     1
102
RTVSPost2010Prop32
280
     0
102
RTVSPost2010PropOp32
 70
     1
102
RTVSPost2010Prop33
280
     0
102
RTVSPost2010PropOp33
 70
     1
102
RTVSPost2010Prop34
280
     0
102
RTVSPost2010PropOp34
 70
     1
102
RTVSPost2010Prop35
280
     0
102
RTVSPost2010PropOp35
 70
     1
102
RTVSPost2010Prop36
280
     0
102
RTVSPost2010PropOp36
 70
     1
102
RTVSPost2010Prop37
 90
       50
102
RTVSPost2010PropOp37
 70
     1
102
RTVSPost2010Prop38
140
0.0
102
RTVSPost2010PropOp38
 70
     1
102
RTVSPost2010Prop39
140
1.0
102
RTVSPost2010PropOp39
 70
     1
102
RTVSPost2010Prop40
 90
        0
102
RTVSPost2010PropOp40
 70
     1
102
RTVSPost2010Prop41ColorIndex
 90
       18
102
RTVSPost2010Prop41ColorRGB
 90
        0
102
RTVSPost2010PropOp41
 70
     1
102
RTVSPost2010Prop42
 90
       50
102
RTVSPost2010PropOp42
 70
     1
102
RTVSPost2010Prop43
 90
        3
102
RTVSPost2010PropOp43
 70
     1
102
RTVSPost2010Prop44ColorIndex
 90
        5
102
RTVSPost2010Prop44ColorRGB
 90
      255
102
RTVSPost2010PropOp44
 70
     1
102
RTVSPost2010Prop45
280
     0
102
RTVSPost2010PropOp45
 70
     1
102
RTVSPost2010Prop46
 90
       50
102
RTVSPost2010PropOp46
 70
     1
102
RTVSPost2010Prop47
 90
       50
102
RTVSPost2010PropOp47
 70
     1
102
RTVSPost2010Prop48
 90
       50
102
RTVSPost2010PropOp48
 70
     1
102
RTVSPost2010Prop49
280
     0
102
RTVSPost2010PropOp49
 70
     1
102
RTVSPost2010Prop50
 90
       50
102
RTVSPost2010PropOp50
 70
     1
102
RTVSPost2010Prop51ColorIndex
 90
      256
102
RTVSPost2010Prop51ColorRGB
 90
-16777216
102
RTVSPost2010PropOp51
 70
     0
102
RTVSPost2010Prop52
140
1.0
102
RTVSPost2010PropOp52
 70
     0
102
RTVSPost2010Prop53
 90
        2
102
RTVSPost2010PropOp53
 70
     1
102
RTVSPost2010Prop54
  1
strokes_ogs.tif
102
RTVSPost2010PropOp54
 70
     1
102
RTVSPost2010Prop55
280
     0
102
RTVSPost2010PropOp55
 70
     1
102
RTVSPost2010Prop56
140
1.0
102
RTVSPost2010PropOp56
 70
     1
102
RTVSPost2010Prop57
140
1.0
102
RTVSPost2010PropOp57
 70
     1
  0
XRECORD
  5
DF0F
102
{ACAD_REACTORS
330
DF0E
102
}
330
DF0E
100
AcDbXrecord
280
     1
102
RTVSPropertyOp0
 70
     1
102
RTVSPropertyOp1
 70
     1
102
RTVSPropertyOp2
 70
     1
102
RTVSPropertyOp3
 70
     1
102
RTVSPropertyOp4
 70
     1
102
RTVSPropertyOp5
 70
     1
102
RTVSPropertyOp6
 70
     1
102
RTVSPropertyOp7
 70
     1
102
RTVSPropertyOp8
 70
     1
102
RTVSPropertyOp9
 70
     1
102
RTVSPropertyOp10
 70
     1
102
RTVSPropertyOp11
 70
     1
102
RTVSPropertyOp12
 70
     1
102
RTVSPropertyOp13
 70
     1
102
RTVSPropertyOp14
 70
     1
102
RTVSPropertyOp15
 70
     1
102
RTVSPropertyOp16
 70
     1
102
RTVSPropertyOp17
 70
     1
102
RTVSPropertyOp18
 70
     1
102
RTVSPropertyOp19
 70
     1
102
RTVSPropertyOp20
 70
     1
102
RTVSPropertyOp21
 70
     1
102
RTVSPropertyOp22
 70
     1
102
RTVSPropertyOp23
 70
     1
102
RTVSPropertyOp24
 70
     1
102
RTVSPropertyOp25
 70
     1
102
RTVSPropertyOp26
 70
     1
102
RTVSPropertyOp27
 70
     1
102
RTVSPropertyOp28
 70
     1
102
RTVSPropertyOp29
 70
     1
102
RTVSPropertyOp30
 70
     1
102
RTVSPropertyOp31
 70
     1
102
RTVSPropertyOp32
 70
     1
102
RTVSPropertyOp33
 70
     1
102
RTVSPropertyOp34
 70
     1
102
RTVSPropertyOp35
 70
     1
102
RTVSPropertyOp36
 70
     1
102
RTVSPropertyOp37
 70
     1
102
RTVSPropertyOp38
 70
     1
102
RTVSPropertyOp39
 70
     1
102
RTVSPropertyOp40
 70
     1
102
RTVSPropertyOp41
 70
     1
102
RTVSPropertyOp42
 70
     1
102
RTVSPropertyOp43
 70
     1
102
RTVSPropertyOp44
 70
     1
102
RTVSPropertyOp45
 70
     1
102
RTVSPropertyOp46
 70
     1
102
RTVSPropertyOp47
 70
     1
102
RTVSPropertyOp48
 70
     1
102
RTVSPropertyOp49
 70
     1
102
RTVSPropertyOp50
 70
     1
102
RTVSPropertyOp51
 70
     0
102
RTVSPropertyOp52
 70
     0
102
RTVSPropertyOp53
 70
     1
102
RTVSPropertyOp54
 70
     1
102
RTVSPropertyOp55
 70
     1
102
RTVSPropertyOp56
 70
     1
102
RTVSPropertyOp57
 70
     1
102
RTVSPost2010Prop28
280
     0
102
RTVSPost2010PropOp28
 70
     1
102
RTVSPost2010Prop29
280
     1
102
RTVSPost2010PropOp29
 70
     1
102
RTVSPost2010Prop30
280
     1
102
RTVSPost2010PropOp30
 70
     1
102
RTVSPost2010Prop31
280
     0
102
RTVSPost2010PropOp31
 70
     1
102
RTVSPost2010Prop32
280
     0
102
RTVSPost2010PropOp32
 70
     1
102
RTVSPost2010Prop33
280
     0
102
RTVSPost2010PropOp33
 70
     1
102
RTVSPost2010Prop34
280
     0
102
RTVSPost2010PropOp34
 70
     1
102
RTVSPost2010Prop35
280
     0
102
RTVSPost2010PropOp35
 70
     1
102
RTVSPost2010Prop36
280
     0
102
RTVSPost2010PropOp36
 70
     1
102
RTVSPost2010Prop37
 90
       50
102
RTVSPost2010PropOp37
 70
     1
102
RTVSPost2010Prop38
140
0.0
102
RTVSPost2010PropOp38
 70
     1
102
RTVSPost2010Prop39
140
1.0
102
RTVSPost2010PropOp39
 70
     1
102
RTVSPost2010Prop40
 90
        0
102
RTVSPost2010PropOp40
 70
     1
102
RTVSPost2010Prop41ColorIndex
 90
       18
102
RTVSPost2010Prop41ColorRGB
 90
        0
102
RTVSPost2010PropOp41
 70
     1
102
RTVSPost2010Prop42
 90
       50
102
RTVSPost2010PropOp42
 70
     1
102
RTVSPost2010Prop43
 90
        3
102
RTVSPost2010PropOp43
 70
     1
102
RTVSPost2010Prop44ColorIndex
 90
        5
102
RTVSPost2010Prop44ColorRGB
 90
      255
102
RTVSPost2010PropOp44
 70
     1
102
RTVSPost2010Prop45
280
     0
102
RTVSPost2010PropOp45
 70
     1
102
RTVSPost2010Prop46
 90
       50
102
RTVSPost2010PropOp46
 70
     1
102
RTVSPost2010Prop47
 90
       50
102
RTVSPost2010PropOp47
 70
     1
102
RTVSPost2010Prop48
 90
       50
102
RTVSPost2010PropOp48
 70
     1
102
RTVSPost2010Prop49
280
     0
102
RTVSPost2010PropOp49
 70
     1
102
RTVSPost2010Prop50
 90
       50
102
RTVSPost2010PropOp50
 70
     1
102
RTVSPost2010Prop51ColorIndex
 90
      256
102
RTVSPost2010Prop51ColorRGB
 90
-16777216
102
RTVSPost2010PropOp51
 70
     0
102
RTVSPost2010Prop52
140
1.0
102
RTVSPost2010PropOp52
 70
     0
102
RTVSPost2010Prop53
 90
        2
102
RTVSPost2010PropOp53
 70
     1
102
RTVSPost2010Prop54
  1
strokes_ogs.tif
102
RTVSPost2010PropOp54
 70
     1
102
RTVSPost2010Prop55
280
     0
102
RTVSPost2010PropOp55
 70
     1
102
RTVSPost2010Prop56
140
1.0
102
RTVSPost2010PropOp56
 70
     1
102
RTVSPost2010Prop57
140
1.0
102
RTVSPost2010PropOp57
 70
     1
  0
XRECORD
  5
DF11
102
{ACAD_REACTORS
330
DF10
102
}
330
DF10
100
AcDbXrecord
280
     1
102
RTVSPropertyOp0
 70
     1
102
RTVSPropertyOp1
 70
     1
102
RTVSPropertyOp2
 70
     1
102
RTVSPropertyOp3
 70
     1
102
RTVSPropertyOp4
 70
     1
102
RTVSPropertyOp5
 70
     1
102
RTVSPropertyOp6
 70
     1
102
RTVSPropertyOp7
 70
     1
102
RTVSPropertyOp8
 70
     1
102
RTVSPropertyOp9
 70
     1
102
RTVSPropertyOp10
 70
     1
102
RTVSPropertyOp11
 70
     1
102
RTVSPropertyOp12
 70
     1
102
RTVSPropertyOp13
 70
     1
102
RTVSPropertyOp14
 70
     1
102
RTVSPropertyOp15
 70
     1
102
RTVSPropertyOp16
 70
     1
102
RTVSPropertyOp17
 70
     1
102
RTVSPropertyOp18
 70
     1
102
RTVSPropertyOp19
 70
     1
102
RTVSPropertyOp20
 70
     1
102
RTVSPropertyOp21
 70
     1
102
RTVSPropertyOp22
 70
     1
102
RTVSPropertyOp23
 70
     1
102
RTVSPropertyOp24
 70
     1
102
RTVSPropertyOp25
 70
     1
102
RTVSPropertyOp26
 70
     1
102
RTVSPropertyOp27
 70
     1
102
RTVSPropertyOp28
 70
     1
102
RTVSPropertyOp29
 70
     1
102
RTVSPropertyOp30
 70
     1
102
RTVSPropertyOp31
 70
     1
102
RTVSPropertyOp32
 70
     1
102
RTVSPropertyOp33
 70
     1
102
RTVSPropertyOp34
 70
     1
102
RTVSPropertyOp35
 70
     1
102
RTVSPropertyOp36
 70
     1
102
RTVSPropertyOp37
 70
     1
102
RTVSPropertyOp38
 70
     1
102
RTVSPropertyOp39
 70
     1
102
RTVSPropertyOp40
 70
     1
102
RTVSPropertyOp41
 70
     1
102
RTVSPropertyOp42
 70
     1
102
RTVSPropertyOp43
 70
     1
102
RTVSPropertyOp44
 70
     1
102
RTVSPropertyOp45
 70
     1
102
RTVSPropertyOp46
 70
     1
102
RTVSPropertyOp47
 70
     1
102
RTVSPropertyOp48
 70
     1
102
RTVSPropertyOp49
 70
     1
102
RTVSPropertyOp50
 70
     1
102
RTVSPropertyOp51
 70
     0
102
RTVSPropertyOp52
 70
     0
102
RTVSPropertyOp53
 70
     1
102
RTVSPropertyOp54
 70
     1
102
RTVSPropertyOp55
 70
     1
102
RTVSPropertyOp56
 70
     1
102
RTVSPropertyOp57
 70
     1
102
RTVSPost2010Prop28
280
     0
102
RTVSPost2010PropOp28
 70
     1
102
RTVSPost2010Prop29
280
     1
102
RTVSPost2010PropOp29
 70
     1
102
RTVSPost2010Prop30
280
     1
102
RTVSPost2010PropOp30
 70
     1
102
RTVSPost2010Prop31
280
     0
102
RTVSPost2010PropOp31
 70
     1
102
RTVSPost2010Prop32
280
     0
102
RTVSPost2010PropOp32
 70
     1
102
RTVSPost2010Prop33
280
     0
102
RTVSPost2010PropOp33
 70
     1
102
RTVSPost2010Prop34
280
     0
102
RTVSPost2010PropOp34
 70
     1
102
RTVSPost2010Prop35
280
     0
102
RTVSPost2010PropOp35
 70
     1
102
RTVSPost2010Prop36
280
     0
102
RTVSPost2010PropOp36
 70
     1
102
RTVSPost2010Prop37
 90
       50
102
RTVSPost2010PropOp37
 70
     1
102
RTVSPost2010Prop38
140
0.0
102
RTVSPost2010PropOp38
 70
     1
102
RTVSPost2010Prop39
140
1.0
102
RTVSPost2010PropOp39
 70
     1
102
RTVSPost2010Prop40
 90
        0
102
RTVSPost2010PropOp40
 70
     1
102
RTVSPost2010Prop41ColorIndex
 90
       18
102
RTVSPost2010Prop41ColorRGB
 90
        0
102
RTVSPost2010PropOp41
 70
     1
102
RTVSPost2010Prop42
 90
       50
102
RTVSPost2010PropOp42
 70
     1
102
RTVSPost2010Prop43
 90
        3
102
RTVSPost2010PropOp43
 70
     1
102
RTVSPost2010Prop44ColorIndex
 90
        5
102
RTVSPost2010Prop44ColorRGB
 90
      255
102
RTVSPost2010PropOp44
 70
     1
102
RTVSPost2010Prop45
280
     0
102
RTVSPost2010PropOp45
 70
     1
102
RTVSPost2010Prop46
 90
       50
102
RTVSPost2010PropOp46
 70
     1
102
RTVSPost2010Prop47
 90
       50
102
RTVSPost2010PropOp47
 70
     1
102
RTVSPost2010Prop48
 90
       50
102
RTVSPost2010PropOp48
 70
     1
102
RTVSPost2010Prop49
280
     0
102
RTVSPost2010PropOp49
 70
     1
102
RTVSPost2010Prop50
 90
       50
102
RTVSPost2010PropOp50
 70
     1
102
RTVSPost2010Prop51ColorIndex
 90
      256
102
RTVSPost2010Prop51ColorRGB
 90
-16777216
102
RTVSPost2010PropOp51
 70
     0
102
RTVSPost2010Prop52
140
1.0
102
RTVSPost2010PropOp52
 70
     0
102
RTVSPost2010Prop53
 90
        2
102
RTVSPost2010PropOp53
 70
     1
102
RTVSPost2010Prop54
  1
strokes_ogs.tif
102
RTVSPost2010PropOp54
 70
     1
102
RTVSPost2010Prop55
280
     0
102
RTVSPost2010PropOp55
 70
     1
102
RTVSPost2010Prop56
140
1.0
102
RTVSPost2010PropOp56
 70
     1
102
RTVSPost2010Prop57
140
1.0
102
RTVSPost2010PropOp57
 70
     1
  0
XRECORD
  5
DF13
102
{ACAD_REACTORS
330
DF12
102
}
330
DF12
100
AcDbXrecord
280
     1
102
RTVSPropertyOp0
 70
     1
102
RTVSPropertyOp1
 70
     1
102
RTVSPropertyOp2
 70
     1
102
RTVSPropertyOp3
 70
     1
102
RTVSPropertyOp4
 70
     1
102
RTVSPropertyOp5
 70
     1
102
RTVSPropertyOp6
 70
     1
102
RTVSPropertyOp7
 70
     1
102
RTVSPropertyOp8
 70
     1
102
RTVSPropertyOp9
 70
     1
102
RTVSPropertyOp10
 70
     1
102
RTVSPropertyOp11
 70
     1
102
RTVSPropertyOp12
 70
     1
102
RTVSPropertyOp13
 70
     1
102
RTVSPropertyOp14
 70
     1
102
RTVSPropertyOp15
 70
     1
102
RTVSPropertyOp16
 70
     1
102
RTVSPropertyOp17
 70
     1
102
RTVSPropertyOp18
 70
     1
102
RTVSPropertyOp19
 70
     1
102
RTVSPropertyOp20
 70
     1
102
RTVSPropertyOp21
 70
     1
102
RTVSPropertyOp22
 70
     1
102
RTVSPropertyOp23
 70
     1
102
RTVSPropertyOp24
 70
     1
102
RTVSPropertyOp25
 70
     1
102
RTVSPropertyOp26
 70
     1
102
RTVSPropertyOp27
 70
     1
102
RTVSPropertyOp28
 70
     1
102
RTVSPropertyOp29
 70
     1
102
RTVSPropertyOp30
 70
     1
102
RTVSPropertyOp31
 70
     1
102
RTVSPropertyOp32
 70
     1
102
RTVSPropertyOp33
 70
     1
102
RTVSPropertyOp34
 70
     1
102
RTVSPropertyOp35
 70
     1
102
RTVSPropertyOp36
 70
     1
102
RTVSPropertyOp37
 70
     1
102
RTVSPropertyOp38
 70
     1
102
RTVSPropertyOp39
 70
     1
102
RTVSPropertyOp40
 70
     1
102
RTVSPropertyOp41
 70
     1
102
RTVSPropertyOp42
 70
     1
102
RTVSPropertyOp43
 70
     1
102
RTVSPropertyOp44
 70
     1
102
RTVSPropertyOp45
 70
     1
102
RTVSPropertyOp46
 70
     1
102
RTVSPropertyOp47
 70
     1
102
RTVSPropertyOp48
 70
     1
102
RTVSPropertyOp49
 70
     1
102
RTVSPropertyOp50
 70
     1
102
RTVSPropertyOp51
 70
     0
102
RTVSPropertyOp52
 70
     0
102
RTVSPropertyOp53
 70
     1
102
RTVSPropertyOp54
 70
     1
102
RTVSPropertyOp55
 70
     1
102
RTVSPropertyOp56
 70
     1
102
RTVSPropertyOp57
 70
     1
102
RTVSPost2010Prop28
280
     0
102
RTVSPost2010PropOp28
 70
     1
102
RTVSPost2010Prop29
280
     1
102
RTVSPost2010PropOp29
 70
     1
102
RTVSPost2010Prop30
280
     1
102
RTVSPost2010PropOp30
 70
     1
102
RTVSPost2010Prop31
280
     0
102
RTVSPost2010PropOp31
 70
     1
102
RTVSPost2010Prop32
280
     0
102
RTVSPost2010PropOp32
 70
     1
102
RTVSPost2010Prop33
280
     0
102
RTVSPost2010PropOp33
 70
     1
102
RTVSPost2010Prop34
280
     0
102
RTVSPost2010PropOp34
 70
     1
102
RTVSPost2010Prop35
280
     0
102
RTVSPost2010PropOp35
 70
     1
102
RTVSPost2010Prop36
280
     0
102
RTVSPost2010PropOp36
 70
     1
102
RTVSPost2010Prop37
 90
       50
102
RTVSPost2010PropOp37
 70
     1
102
RTVSPost2010Prop38
140
0.0
102
RTVSPost2010PropOp38
 70
     1
102
RTVSPost2010Prop39
140
1.0
102
RTVSPost2010PropOp39
 70
     1
102
RTVSPost2010Prop40
 90
        0
102
RTVSPost2010PropOp40
 70
     1
102
RTVSPost2010Prop41ColorIndex
 90
       18
102
RTVSPost2010Prop41ColorRGB
 90
        0
102
RTVSPost2010PropOp41
 70
     1
102
RTVSPost2010Prop42
 90
       50
102
RTVSPost2010PropOp42
 70
     1
102
RTVSPost2010Prop43
 90
        3
102
RTVSPost2010PropOp43
 70
     1
102
RTVSPost2010Prop44ColorIndex
 90
        5
102
RTVSPost2010Prop44ColorRGB
 90
      255
102
RTVSPost2010PropOp44
 70
     1
102
RTVSPost2010Prop45
280
     0
102
RTVSPost2010PropOp45
 70
     1
102
RTVSPost2010Prop46
 90
       50
102
RTVSPost2010PropOp46
 70
     1
102
RTVSPost2010Prop47
 90
       50
102
RTVSPost2010PropOp47
 70
     1
102
RTVSPost2010Prop48
 90
       50
102
RTVSPost2010PropOp48
 70
     1
102
RTVSPost2010Prop49
280
     0
102
RTVSPost2010PropOp49
 70
     1
102
RTVSPost2010Prop50
 90
       50
102
RTVSPost2010PropOp50
 70
     1
102
RTVSPost2010Prop51ColorIndex
 90
      256
102
RTVSPost2010Prop51ColorRGB
 90
-16777216
102
RTVSPost2010PropOp51
 70
     0
102
RTVSPost2010Prop52
140
1.0
102
RTVSPost2010PropOp52
 70
     0
102
RTVSPost2010Prop53
 90
        2
102
RTVSPost2010PropOp53
 70
     1
102
RTVSPost2010Prop54
  1
strokes_ogs.tif
102
RTVSPost2010PropOp54
 70
     1
102
RTVSPost2010Prop55
280
     0
102
RTVSPost2010PropOp55
 70
     1
102
RTVSPost2010Prop56
140
1.0
102
RTVSPost2010PropOp56
 70
     1
102
RTVSPost2010Prop57
140
1.0
102
RTVSPost2010PropOp57
 70
     1
  0
XRECORD
  5
DF15
102
{ACAD_REACTORS
330
DF14
102
}
330
DF14
100
AcDbXrecord
280
     1
102
RTVSPropertyOp0
 70
     1
102
RTVSPropertyOp1
 70
     1
102
RTVSPropertyOp2
 70
     1
102
RTVSPropertyOp3
 70
     1
102
RTVSPropertyOp4
 70
     1
102
RTVSPropertyOp5
 70
     1
102
RTVSPropertyOp6
 70
     1
102
RTVSPropertyOp7
 70
     1
102
RTVSPropertyOp8
 70
     1
102
RTVSPropertyOp9
 70
     1
102
RTVSPropertyOp10
 70
     1
102
RTVSPropertyOp11
 70
     1
102
RTVSPropertyOp12
 70
     1
102
RTVSPropertyOp13
 70
     1
102
RTVSPropertyOp14
 70
     1
102
RTVSPropertyOp15
 70
     1
102
RTVSPropertyOp16
 70
     1
102
RTVSPropertyOp17
 70
     1
102
RTVSPropertyOp18
 70
     1
102
RTVSPropertyOp19
 70
     1
102
RTVSPropertyOp20
 70
     1
102
RTVSPropertyOp21
 70
     1
102
RTVSPropertyOp22
 70
     1
102
RTVSPropertyOp23
 70
     1
102
RTVSPropertyOp24
 70
     1
102
RTVSPropertyOp25
 70
     1
102
RTVSPropertyOp26
 70
     1
102
RTVSPropertyOp27
 70
     1
102
RTVSPropertyOp28
 70
     1
102
RTVSPropertyOp29
 70
     1
102
RTVSPropertyOp30
 70
     1
102
RTVSPropertyOp31
 70
     1
102
RTVSPropertyOp32
 70
     1
102
RTVSPropertyOp33
 70
     1
102
RTVSPropertyOp34
 70
     1
102
RTVSPropertyOp35
 70
     1
102
RTVSPropertyOp36
 70
     1
102
RTVSPropertyOp37
 70
     1
102
RTVSPropertyOp38
 70
     1
102
RTVSPropertyOp39
 70
     1
102
RTVSPropertyOp40
 70
     1
102
RTVSPropertyOp41
 70
     1
102
RTVSPropertyOp42
 70
     1
102
RTVSPropertyOp43
 70
     1
102
RTVSPropertyOp44
 70
     1
102
RTVSPropertyOp45
 70
     1
102
RTVSPropertyOp46
 70
     1
102
RTVSPropertyOp47
 70
     1
102
RTVSPropertyOp48
 70
     1
102
RTVSPropertyOp49
 70
     1
102
RTVSPropertyOp50
 70
     1
102
RTVSPropertyOp51
 70
     0
102
RTVSPropertyOp52
 70
     0
102
RTVSPropertyOp53
 70
     1
102
RTVSPropertyOp54
 70
     1
102
RTVSPropertyOp55
 70
     1
102
RTVSPropertyOp56
 70
     1
102
RTVSPropertyOp57
 70
     1
102
RTVSPost2010Prop28
280
     0
102
RTVSPost2010PropOp28
 70
     1
102
RTVSPost2010Prop29
280
     1
102
RTVSPost2010PropOp29
 70
     1
102
RTVSPost2010Prop30
280
     1
102
RTVSPost2010PropOp30
 70
     1
102
RTVSPost2010Prop31
280
     0
102
RTVSPost2010PropOp31
 70
     1
102
RTVSPost2010Prop32
280
     0
102
RTVSPost2010PropOp32
 70
     1
102
RTVSPost2010Prop33
280
     0
102
RTVSPost2010PropOp33
 70
     1
102
RTVSPost2010Prop34
280
     0
102
RTVSPost2010PropOp34
 70
     1
102
RTVSPost2010Prop35
280
     0
102
RTVSPost2010PropOp35
 70
     1
102
RTVSPost2010Prop36
280
     0
102
RTVSPost2010PropOp36
 70
     1
102
RTVSPost2010Prop37
 90
       50
102
RTVSPost2010PropOp37
 70
     1
102
RTVSPost2010Prop38
140
0.0
102
RTVSPost2010PropOp38
 70
     1
102
RTVSPost2010Prop39
140
1.0
102
RTVSPost2010PropOp39
 70
     1
102
RTVSPost2010Prop40
 90
        0
102
RTVSPost2010PropOp40
 70
     1
102
RTVSPost2010Prop41ColorIndex
 90
       18
102
RTVSPost2010Prop41ColorRGB
 90
        0
102
RTVSPost2010PropOp41
 70
     1
102
RTVSPost2010Prop42
 90
       50
102
RTVSPost2010PropOp42
 70
     1
102
RTVSPost2010Prop43
 90
        3
102
RTVSPost2010PropOp43
 70
     1
102
RTVSPost2010Prop44ColorIndex
 90
        5
102
RTVSPost2010Prop44ColorRGB
 90
      255
102
RTVSPost2010PropOp44
 70
     1
102
RTVSPost2010Prop45
280
     0
102
RTVSPost2010PropOp45
 70
     1
102
RTVSPost2010Prop46
 90
       50
102
RTVSPost2010PropOp46
 70
     1
102
RTVSPost2010Prop47
 90
       50
102
RTVSPost2010PropOp47
 70
     1
102
RTVSPost2010Prop48
 90
       50
102
RTVSPost2010PropOp48
 70
     1
102
RTVSPost2010Prop49
280
     0
102
RTVSPost2010PropOp49
 70
     1
102
RTVSPost2010Prop50
 90
       50
102
RTVSPost2010PropOp50
 70
     1
102
RTVSPost2010Prop51ColorIndex
 90
      256
102
RTVSPost2010Prop51ColorRGB
 90
-16777216
102
RTVSPost2010PropOp51
 70
     0
102
RTVSPost2010Prop52
140
1.0
102
RTVSPost2010PropOp52
 70
     0
102
RTVSPost2010Prop53
 90
        2
102
RTVSPost2010PropOp53
 70
     1
102
RTVSPost2010Prop54
  1
strokes_ogs.tif
102
RTVSPost2010PropOp54
 70
     1
102
RTVSPost2010Prop55
280
     0
102
RTVSPost2010PropOp55
 70
     1
102
RTVSPost2010Prop56
140
1.0
102
RTVSPost2010PropOp56
 70
     1
102
RTVSPost2010Prop57
140
1.0
102
RTVSPost2010PropOp57
 70
     1
  0
XRECORD
  5
DF17
102
{ACAD_REACTORS
330
DF16
102
}
330
DF16
100
AcDbXrecord
280
     1
102
RTVSPropertyOp0
 70
     1
102
RTVSPropertyOp1
 70
     1
102
RTVSPropertyOp2
 70
     1
102
RTVSPropertyOp3
 70
     1
102
RTVSPropertyOp4
 70
     1
102
RTVSPropertyOp5
 70
     1
102
RTVSPropertyOp6
 70
     1
102
RTVSPropertyOp7
 70
     1
102
RTVSPropertyOp8
 70
     1
102
RTVSPropertyOp9
 70
     1
102
RTVSPropertyOp10
 70
     1
102
RTVSPropertyOp11
 70
     1
102
RTVSPropertyOp12
 70
     1
102
RTVSPropertyOp13
 70
     1
102
RTVSPropertyOp14
 70
     1
102
RTVSPropertyOp15
 70
     1
102
RTVSPropertyOp16
 70
     1
102
RTVSPropertyOp17
 70
     1
102
RTVSPropertyOp18
 70
     1
102
RTVSPropertyOp19
 70
     1
102
RTVSPropertyOp20
 70
     1
102
RTVSPropertyOp21
 70
     1
102
RTVSPropertyOp22
 70
     1
102
RTVSPropertyOp23
 70
     1
102
RTVSPropertyOp24
 70
     1
102
RTVSPropertyOp25
 70
     1
102
RTVSPropertyOp26
 70
     1
102
RTVSPropertyOp27
 70
     1
102
RTVSPropertyOp28
 70
     1
102
RTVSPropertyOp29
 70
     1
102
RTVSPropertyOp30
 70
     1
102
RTVSPropertyOp31
 70
     1
102
RTVSPropertyOp32
 70
     1
102
RTVSPropertyOp33
 70
     1
102
RTVSPropertyOp34
 70
     1
102
RTVSPropertyOp35
 70
     1
102
RTVSPropertyOp36
 70
     1
102
RTVSPropertyOp37
 70
     1
102
RTVSPropertyOp38
 70
     1
102
RTVSPropertyOp39
 70
     1
102
RTVSPropertyOp40
 70
     1
102
RTVSPropertyOp41
 70
     1
102
RTVSPropertyOp42
 70
     1
102
RTVSPropertyOp43
 70
     1
102
RTVSPropertyOp44
 70
     1
102
RTVSPropertyOp45
 70
     1
102
RTVSPropertyOp46
 70
     1
102
RTVSPropertyOp47
 70
     1
102
RTVSPropertyOp48
 70
     1
102
RTVSPropertyOp49
 70
     1
102
RTVSPropertyOp50
 70
     1
102
RTVSPropertyOp51
 70
     0
102
RTVSPropertyOp52
 70
     0
102
RTVSPropertyOp53
 70
     1
102
RTVSPropertyOp54
 70
     1
102
RTVSPropertyOp55
 70
     1
102
RTVSPropertyOp56
 70
     1
102
RTVSPropertyOp57
 70
     1
102
RTVSPost2010Prop28
280
     0
102
RTVSPost2010PropOp28
 70
     1
102
RTVSPost2010Prop29
280
     1
102
RTVSPost2010PropOp29
 70
     1
102
RTVSPost2010Prop30
280
     1
102
RTVSPost2010PropOp30
 70
     1
102
RTVSPost2010Prop31
280
     0
102
RTVSPost2010PropOp31
 70
     1
102
RTVSPost2010Prop32
280
     0
102
RTVSPost2010PropOp32
 70
     1
102
RTVSPost2010Prop33
280
     0
102
RTVSPost2010PropOp33
 70
     1
102
RTVSPost2010Prop34
280
     0
102
RTVSPost2010PropOp34
 70
     1
102
RTVSPost2010Prop35
280
     0
102
RTVSPost2010PropOp35
 70
     1
102
RTVSPost2010Prop36
280
     0
102
RTVSPost2010PropOp36
 70
     1
102
RTVSPost2010Prop37
 90
       50
102
RTVSPost2010PropOp37
 70
     1
102
RTVSPost2010Prop38
140
0.0
102
RTVSPost2010PropOp38
 70
     1
102
RTVSPost2010Prop39
140
1.0
102
RTVSPost2010PropOp39
 70
     1
102
RTVSPost2010Prop40
 90
        0
102
RTVSPost2010PropOp40
 70
     1
102
RTVSPost2010Prop41ColorIndex
 90
       18
102
RTVSPost2010Prop41ColorRGB
 90
        0
102
RTVSPost2010PropOp41
 70
     1
102
RTVSPost2010Prop42
 90
       50
102
RTVSPost2010PropOp42
 70
     1
102
RTVSPost2010Prop43
 90
        3
102
RTVSPost2010PropOp43
 70
     1
102
RTVSPost2010Prop44ColorIndex
 90
        5
102
RTVSPost2010Prop44ColorRGB
 90
      255
102
RTVSPost2010PropOp44
 70
     1
102
RTVSPost2010Prop45
280
     0
102
RTVSPost2010PropOp45
 70
     1
102
RTVSPost2010Prop46
 90
       50
102
RTVSPost2010PropOp46
 70
     1
102
RTVSPost2010Prop47
 90
       50
102
RTVSPost2010PropOp47
 70
     1
102
RTVSPost2010Prop48
 90
       50
102
RTVSPost2010PropOp48
 70
     1
102
RTVSPost2010Prop49
280
     0
102
RTVSPost2010PropOp49
 70
     1
102
RTVSPost2010Prop50
 90
       50
102
RTVSPost2010PropOp50
 70
     1
102
RTVSPost2010Prop51ColorIndex
 90
      256
102
RTVSPost2010Prop51ColorRGB
 90
-16777216
102
RTVSPost2010PropOp51
 70
     0
102
RTVSPost2010Prop52
140
1.0
102
RTVSPost2010PropOp52
 70
     0
102
RTVSPost2010Prop53
 90
        2
102
RTVSPost2010PropOp53
 70
     1
102
RTVSPost2010Prop54
  1
strokes_ogs.tif
102
RTVSPost2010PropOp54
 70
     1
102
RTVSPost2010Prop55
280
     0
102
RTVSPost2010PropOp55
 70
     1
102
RTVSPost2010Prop56
140
1.0
102
RTVSPost2010PropOp56
 70
     1
102
RTVSPost2010Prop57
140
1.0
102
RTVSPost2010PropOp57
 70
     1
  0
XRECORD
  5
DF19
102
{ACAD_REACTORS
330
DF18
102
}
330
DF18
100
AcDbXrecord
280
     1
102
RTVSPropertyOp0
 70
     1
102
RTVSPropertyOp1
 70
     1
102
RTVSPropertyOp2
 70
     1
102
RTVSPropertyOp3
 70
     1
102
RTVSPropertyOp4
 70
     1
102
RTVSPropertyOp5
 70
     1
102
RTVSPropertyOp6
 70
     1
102
RTVSPropertyOp7
 70
     1
102
RTVSPropertyOp8
 70
     1
102
RTVSPropertyOp9
 70
     1
102
RTVSPropertyOp10
 70
     1
102
RTVSPropertyOp11
 70
     1
102
RTVSPropertyOp12
 70
     1
102
RTVSPropertyOp13
 70
     1
102
RTVSPropertyOp14
 70
     1
102
RTVSPropertyOp15
 70
     1
102
RTVSPropertyOp16
 70
     1
102
RTVSPropertyOp17
 70
     1
102
RTVSPropertyOp18
 70
     1
102
RTVSPropertyOp19
 70
     1
102
RTVSPropertyOp20
 70
     1
102
RTVSPropertyOp21
 70
     1
102
RTVSPropertyOp22
 70
     1
102
RTVSPropertyOp23
 70
     1
102
RTVSPropertyOp24
 70
     1
102
RTVSPropertyOp25
 70
     1
102
RTVSPropertyOp26
 70
     1
102
RTVSPropertyOp27
 70
     1
102
RTVSPropertyOp28
 70
     1
102
RTVSPropertyOp29
 70
     1
102
RTVSPropertyOp30
 70
     1
102
RTVSPropertyOp31
 70
     1
102
RTVSPropertyOp32
 70
     1
102
RTVSPropertyOp33
 70
     1
102
RTVSPropertyOp34
 70
     1
102
RTVSPropertyOp35
 70
     1
102
RTVSPropertyOp36
 70
     1
102
RTVSPropertyOp37
 70
     1
102
RTVSPropertyOp38
 70
     1
102
RTVSPropertyOp39
 70
     1
102
RTVSPropertyOp40
 70
     1
102
RTVSPropertyOp41
 70
     1
102
RTVSPropertyOp42
 70
     1
102
RTVSPropertyOp43
 70
     1
102
RTVSPropertyOp44
 70
     1
102
RTVSPropertyOp45
 70
     1
102
RTVSPropertyOp46
 70
     1
102
RTVSPropertyOp47
 70
     1
102
RTVSPropertyOp48
 70
     1
102
RTVSPropertyOp49
 70
     1
102
RTVSPropertyOp50
 70
     1
102
RTVSPropertyOp51
 70
     0
102
RTVSPropertyOp52
 70
     0
102
RTVSPropertyOp53
 70
     1
102
RTVSPropertyOp54
 70
     1
102
RTVSPropertyOp55
 70
     1
102
RTVSPropertyOp56
 70
     1
102
RTVSPropertyOp57
 70
     1
102
RTVSPost2010Prop28
280
     0
102
RTVSPost2010PropOp28
 70
     1
102
RTVSPost2010Prop29
280
     1
102
RTVSPost2010PropOp29
 70
     1
102
RTVSPost2010Prop30
280
     1
102
RTVSPost2010PropOp30
 70
     1
102
RTVSPost2010Prop31
280
     0
102
RTVSPost2010PropOp31
 70
     1
102
RTVSPost2010Prop32
280
     0
102
RTVSPost2010PropOp32
 70
     1
102
RTVSPost2010Prop33
280
     0
102
RTVSPost2010PropOp33
 70
     1
102
RTVSPost2010Prop34
280
     0
102
RTVSPost2010PropOp34
 70
     1
102
RTVSPost2010Prop35
280
     0
102
RTVSPost2010PropOp35
 70
     1
102
RTVSPost2010Prop36
280
     0
102
RTVSPost2010PropOp36
 70
     1
102
RTVSPost2010Prop37
 90
       50
102
RTVSPost2010PropOp37
 70
     1
102
RTVSPost2010Prop38
140
0.0
102
RTVSPost2010PropOp38
 70
     1
102
RTVSPost2010Prop39
140
1.0
102
RTVSPost2010PropOp39
 70
     1
102
RTVSPost2010Prop40
 90
        0
102
RTVSPost2010PropOp40
 70
     1
102
RTVSPost2010Prop41ColorIndex
 90
       18
102
RTVSPost2010Prop41ColorRGB
 90
        0
102
RTVSPost2010PropOp41
 70
     1
102
RTVSPost2010Prop42
 90
       50
102
RTVSPost2010PropOp42
 70
     1
102
RTVSPost2010Prop43
 90
        3
102
RTVSPost2010PropOp43
 70
     1
102
RTVSPost2010Prop44ColorIndex
 90
        5
102
RTVSPost2010Prop44ColorRGB
 90
      255
102
RTVSPost2010PropOp44
 70
     1
102
RTVSPost2010Prop45
280
     0
102
RTVSPost2010PropOp45
 70
     1
102
RTVSPost2010Prop46
 90
       50
102
RTVSPost2010PropOp46
 70
     1
102
RTVSPost2010Prop47
 90
       50
102
RTVSPost2010PropOp47
 70
     1
102
RTVSPost2010Prop48
 90
       50
102
RTVSPost2010PropOp48
 70
     1
102
RTVSPost2010Prop49
280
     0
102
RTVSPost2010PropOp49
 70
     1
102
RTVSPost2010Prop50
 90
       50
102
RTVSPost2010PropOp50
 70
     1
102
RTVSPost2010Prop51ColorIndex
 90
      256
102
RTVSPost2010Prop51ColorRGB
 90
-16777216
102
RTVSPost2010PropOp51
 70
     0
102
RTVSPost2010Prop52
140
1.0
102
RTVSPost2010PropOp52
 70
     0
102
RTVSPost2010Prop53
 90
        2
102
RTVSPost2010PropOp53
 70
     1
102
RTVSPost2010Prop54
  1
strokes_ogs.tif
102
RTVSPost2010PropOp54
 70
     1
102
RTVSPost2010Prop55
280
     0
102
RTVSPost2010PropOp55
 70
     1
102
RTVSPost2010Prop56
140
1.0
102
RTVSPost2010PropOp56
 70
     1
102
RTVSPost2010Prop57
140
1.0
102
RTVSPost2010PropOp57
 70
     1
  0
ENDSEC
  0
EOF
