  0
SECTION
  2
HEADER
  9
$ACADVER
  1
AC1015
  9
$ACADMAINTVER
 70
     6
  9
$DWGCODEPAGE
  3
ANSI_1252
  9
$INSBASE
 10
0.0
 20
0.0
 30
0.0
  9
$EXTMIN
 10
1133.246916320868
 20
-5.000000760696025
 30
0.0
  9
$EXTMAX
 10
2183.246916320868
 20
1484.999999239304
 30
0.0
  9
$LIMMIN
 10
1139.331342983755
 20
-0.0000011606198314
  9
$LIMMAX
 10
2189.331342983755
 20
1484.99999883938
  9
$ORTHOMODE
 70
     1
  9
$REGENMODE
 70
     1
  9
$FILLMODE
 70
     1
  9
$QTEXTMODE
 70
     0
  9
$MIRRTEXT
 70
     0
  9
$LTSCALE
 40
15.0
  9
$ATTMODE
 70
     1
  9
$TEXTSIZE
 40
13.0
  9
$TRACEWID
 40
1.0
  9
$TEXTSTYLE
  7
ar-na-light
  9
$CLAYER
  8
SCHATT15 B
  9
$CELTYPE
  6
BYLAYER
  9
$CECOLOR
 62
   256
  9
$CELTSCALE
 40
1.0
  9
$DISPSILH
 70
     0
  9
$DIMSCALE
 40
1.0
  9
$DIMASZ
 40
0.18
  9
$DIMEXO
 40
0.0625
  9
$DIMDLI
 40
0.38
  9
$DIMRND
 40
0.0
  9
$DIMDLE
 40
0.0
  9
$DIMEXE
 40
0.18
  9
$DIMTP
 40
0.0
  9
$DIMTM
 40
0.0
  9
$DIMTXT
 40
0.18
  9
$DIMCEN
 40
0.09
  9
$DIMTSZ
 40
0.0
  9
$DIMTOL
 70
     0
  9
$DIMLIM
 70
     0
  9
$DIMTIH
 70
     1
  9
$DIMTOH
 70
     1
  9
$DIMSE1
 70
     0
  9
$DIMSE2
 70
     0
  9
$DIMTAD
 70
     0
  9
$DIMZIN
 70
     0
  9
$DIMBLK
  1

  9
$DIMASO
 70
     1
  9
$DIMSHO
 70
     0
  9
$DIMPOST
  1

  9
$DIMAPOST
  1

  9
$DIMALT
 70
     0
  9
$DIMALTD
 70
     2
  9
$DIMALTF
 40
25.4
  9
$DIMLFAC
 40
1.0
  9
$DIMTOFL
 70
     0
  9
$DIMTVP
 40
0.0
  9
$DIMTIX
 70
     0
  9
$DIMSOXD
 70
     0
  9
$DIMSAH
 70
     0
  9
$DIMBLK1
  1

  9
$DIMBLK2
  1

  9
$DIMSTYLE
  2
STANDARD
  9
$DIMCLRD
 70
     0
  9
$DIMCLRE
 70
     0
  9
$DIMCLRT
 70
     0
  9
$DIMTFAC
 40
1.0
  9
$DIMGAP
 40
0.09
  9
$DIMJUST
 70
     0
  9
$DIMSD1
 70
     0
  9
$DIMSD2
 70
     0
  9
$DIMTOLJ
 70
     1
  9
$DIMTZIN
 70
     0
  9
$DIMALTZ
 70
     0
  9
$DIMALTTZ
 70
     0
  9
$DIMUPT
 70
     0
  9
$DIMDEC
 70
     4
  9
$DIMTDEC
 70
     4
  9
$DIMALTU
 70
     2
  9
$DIMALTTD
 70
     2
  9
$DIMTXSTY
  7
STANDARD
  9
$DIMAUNIT
 70
     0
  9
$DIMADEC
 70
     0
  9
$DIMALTRND
 40
0.0
  9
$DIMAZIN
 70
     0
  9
$DIMDSEP
 70
    46
  9
$DIMATFIT
 70
     3
  9
$DIMFRAC
 70
     0
  9
$DIMLDRBLK
  1

  9
$DIMLUNIT
 70
     2
  9
$DIMLWD
 70
    -2
  9
$DIMLWE
 70
    -2
  9
$DIMTMOVE
 70
     0
  9
$LUNITS
 70
     2
  9
$LUPREC
 70
     2
  9
$SKETCHINC
 40
1.0
  9
$FILLETRAD
 40
0.0
  9
$AUNITS
 70
     0
  9
$AUPREC
 70
     0
  9
$MENU
  1
CADIM
  9
$ELEVATION
 40
0.0
  9
$PELEVATION
 40
0.0
  9
$THICKNESS
 40
0.0
  9
$LIMCHECK
 70
     0
  9
$CHAMFERA
 40
0.0
  9
$CHAMFERB
 40
0.0
  9
$CHAMFERC
 40
0.0
  9
$CHAMFERD
 40
0.0
  9
$SKPOLY
 70
     0
  9
$TDCREATE
 40
2452345.689340822
  9
$TDUCREATE
 40
2452345.647674155
  9
$TDUPDATE
 40
2460327.498901296
  9
$TDUUPDATE
 40
2460327.457234629
  9
$TDINDWG
 40
1.1579698148
  9
$TDUSRTIMER
 40
1.1579698148
  9
$USRTIMER
 70
     1
  9
$ANGBASE
 50
0.0
  9
$ANGDIR
 70
     0
  9
$PDMODE
 70
     3
  9
$PDSIZE
 40
15.0
  9
$PLINEWID
 40
6.0
  9
$SPLFRAME
 70
     0
  9
$SPLINETYPE
 70
     6
  9
$SPLINESEGS
 70
     8
  9
$HANDSEED
  5
9457
  9
$SURFTAB1
 70
     6
  9
$SURFTAB2
 70
     6
  9
$SURFTYPE
 70
     6
  9
$SURFU
 70
     6
  9
$SURFV
 70
     6
  9
$UCSBASE
  2

  9
$UCSNAME
  2

  9
$UCSORG
 10
0.0
 20
0.0
 30
0.0
  9
$UCSXDIR
 10
1.0
 20
0.0
 30
0.0
  9
$UCSYDIR
 10
0.0
 20
1.0
 30
0.0
  9
$UCSORTHOREF
  2

  9
$UCSORTHOVIEW
 70
     0
  9
$UCSORGTOP
 10
0.0
 20
0.0
 30
0.0
  9
$UCSORGBOTTOM
 10
0.0
 20
0.0
 30
0.0
  9
$UCSORGLEFT
 10
0.0
 20
0.0
 30
0.0
  9
$UCSORGRIGHT
 10
0.0
 20
0.0
 30
0.0
  9
$UCSORGFRONT
 10
0.0
 20
0.0
 30
0.0
  9
$UCSORGBACK
 10
0.0
 20
0.0
 30
0.0
  9
$PUCSBASE
  2

  9
$PUCSNAME
  2

  9
$PUCSORG
 10
0.0
 20
0.0
 30
0.0
  9
$PUCSXDIR
 10
1.0
 20
0.0
 30
0.0
  9
$PUCSYDIR
 10
0.0
 20
1.0
 30
0.0
  9
$PUCSORTHOREF
  2

  9
$PUCSORTHOVIEW
 70
     0
  9
$PUCSORGTOP
 10
0.0
 20
0.0
 30
0.0
  9
$PUCSORGBOTTOM
 10
0.0
 20
0.0
 30
0.0
  9
$PUCSORGLEFT
 10
0.0
 20
0.0
 30
0.0
  9
$PUCSORGRIGHT
 10
0.0
 20
0.0
 30
0.0
  9
$PUCSORGFRONT
 10
0.0
 20
0.0
 30
0.0
  9
$PUCSORGBACK
 10
0.0
 20
0.0
 30
0.0
  9
$USERI1
 70
     0
  9
$USERI2
 70
     0
  9
$USERI3
 70
     0
  9
$USERI4
 70
     0
  9
$USERI5
 70
     0
  9
$USERR1
 40
0.0
  9
$USERR2
 40
0.0
  9
$USERR3
 40
0.0
  9
$USERR4
 40
0.0
  9
$USERR5
 40
0.0
  9
$WORLDVIEW
 70
     1
  9
$SHADEDGE
 70
     3
  9
$SHADEDIF
 70
    70
  9
$TILEMODE
 70
     1
  9
$MAXACTVP
 70
    16
  9
$PINSBASE
 10
0.0
 20
0.0
 30
0.0
  9
$PLIMCHECK
 70
     0
  9
$PEXTMIN
 10
1.000000000000000E+20
 20
1.000000000000000E+20
 30
1.000000000000000E+20
  9
$PEXTMAX
 10
-1.000000000000000E+20
 20
-1.000000000000000E+20
 30
-1.000000000000000E+20
  9
$PLIMMIN
 10
0.0
 20
0.0
  9
$PLIMMAX
 10
12.0
 20
9.0
  9
$UNITMODE
 70
     0
  9
$VISRETAIN
 70
     0
  9
$PLINEGEN
 70
     1
  9
$PSLTSCALE
 70
     0
  9
$TREEDEPTH
 70
  3020
  9
$CMLSTYLE
  2
STANDARD
  9
$CMLJUST
 70
     0
  9
$CMLSCALE
 40
1.0
  9
$PROXYGRAPHICS
 70
     1
  9
$MEASUREMENT
 70
     1
  9
$CELWEIGHT
370
    -1
  9
$ENDCAPS
280
     0
  9
$JOINSTYLE
280
     0
  9
$LWDISPLAY
290
     0
  9
$INSUNITS
 70
     0
  9
$HYPERLINKBASE
  1

  9
$STYLESHEET
  1
monochrome.ctb
  9
$XEDIT
290
     1
  9
$CEPSNTYPE
380
     0
  9
$PSTYLEMODE
290
     1
  9
$FINGERPRINTGUID
  2
{2587DE70-F8DF-11D4-A8FA-00B0D0A139FC}
  9
$VERSIONGUID
  2
{E3B4ACB4-61F3-4CD9-BAFB-F61D5AB88FF2}
  9
$EXTNAMES
290
     1
  9
$PSVPSCALE
 40
0.0
  9
$OLESTARTUP
290
     0
  0
ENDSEC
  0
SECTION
  2
CLASSES
  0
CLASS
  1
ACDBDICTIONARYWDFLT
  2
AcDbDictionaryWithDefault
  3
ObjectDBX Classes
 90
        0
280
     0
281
     0
  0
CLASS
  1
ACDBPLACEHOLDER
  2
AcDbPlaceHolder
  3
ObjectDBX Classes
 90
        0
280
     0
281
     0
  0
CLASS
  1
LAYOUT
  2
AcDbLayout
  3
ObjectDBX Classes
 90
        0
280
     0
281
     0
  0
CLASS
  1
LONG_TRANSACTION
  2
AcDbLongTransaction
  3
ObjectDBX Classes
 90
        0
280
     0
281
     0
  0
CLASS
  1
LWPOLYLINE
  2
AcDbPolyline
  3
ObjectDBX Classes
 90
        0
280
     0
281
     1
  0
CLASS
  1
HATCH
  2
AcDbHatch
  3
ObjectDBX Classes
 90
        0
280
     0
281
     1
  0
CLASS
  1
XRECORD
  2
AcDbXrecord
  3
ObjectDBX Classes
 90
        0
280
     0
281
     0
  0
CLASS
  1
DICTIONARYVAR
  2
AcDbDictionaryVar
  3
ObjectDBX Classes
 90
        0
280
     0
281
     0
  0
CLASS
  1
SORTENTSTABLE
  2
AcDbSortentsTable
  3
ObjectDBX Classes
 90
        0
280
     0
281
     0
  0
CLASS
  1
LONG_TRANSACTION
  2
AcDbLongTransaction
  3
ObjectDBX Classes
 90
        0
280
     0
281
     0
  0
CLASS
  1
LWPOLYLINE
  2
AcDbPolyline
  3
ObjectDBX Classes
 90
        0
280
     0
281
     1
  0
CLASS
  1
HATCH
  2
AcDbHatch
  3
ObjectDBX Classes
 90
        0
280
     0
281
     1
  0
CLASS
  1
XRECORD
  2
AcDbXrecord
  3
ObjectDBX Classes
 90
        0
280
     0
281
     0
  0
CLASS
  1
LONG_TRANSACTION
  2
AcDbLongTransaction
  3
ObjectDBX Classes
 90
        0
280
     0
281
     0
  0
CLASS
  1
LWPOLYLINE
  2
AcDbPolyline
  3
ObjectDBX Classes
 90
        0
280
     0
281
     1
  0
CLASS
  1
HATCH
  2
AcDbHatch
  3
ObjectDBX Classes
 90
        0
280
     0
281
     1
  0
CLASS
  1
XRECORD
  2
AcDbXrecord
  3
ObjectDBX Classes
 90
        0
280
     0
281
     0
  0
CLASS
  1
LONG_TRANSACTION
  2
AcDbLongTransaction
  3
ObjectDBX Classes
 90
        0
280
     0
281
     0
  0
CLASS
  1
LWPOLYLINE
  2
AcDbPolyline
  3
ObjectDBX Classes
 90
        0
280
     0
281
     1
  0
CLASS
  1
HATCH
  2
AcDbHatch
  3
ObjectDBX Classes
 90
        0
280
     0
281
     1
  0
CLASS
  1
XRECORD
  2
AcDbXrecord
  3
ObjectDBX Classes
 90
        0
280
     0
281
     0
  0
CLASS
  1
TABLESTYLE
  2
AcDbTableStyle
  3
ObjectDBX Classes
 90
     4095
280
     0
281
     0
  0
CLASS
  1
VBA_PROJECT
  2
AcDbVbaProject
  3
ObjectDBX Classes
 90
        0
280
     0
281
     0
  0
CLASS
  1
ACAD_EVALUATION_GRAPH
  2
AcDbEvalGraph
  3
ObjectDBX Classes
 90
     1153
280
     1
281
     0
  0
CLASS
  1
ACAECUSTOBJ
  2
AcAeEditorObj
  3
AcAeEditorObj
 90
     1024
280
     1
281
     0
  0
CLASS
  1
ACDB_DYNAMICBLOCKPURGEPREVENTER_VERSION
  2
AcDbDynamicBlockPurgePreventer
  3
ObjectDBX Classes
 90
     1153
280
     1
281
     0
  0
CLASS
  1
MATERIAL
  2
AcDbMaterial
  3
ObjectDBX Classes
 90
     1153
280
     0
281
     0
  0
CLASS
  1
VISUALSTYLE
  2
AcDbVisualStyle
  3
ObjectDBX Classes
 90
     4095
280
     0
281
     0
  0
CLASS
  1
SCALE
  2
AcDbScale
  3
ObjectDBX Classes
 90
     1153
280
     0
281
     0
  0
CLASS
  1
MLEADERSTYLE
  2
AcDbMLeaderStyle
  3
ACDB_MLEADERSTYLE_CLASS
 90
     4095
280
     0
281
     0
  0
CLASS
  1
CELLSTYLEMAP
  2
AcDbCellStyleMap
  3
ObjectDBX Classes
 90
     1152
280
     0
281
     0
  0
ENDSEC
  0
SECTION
  2
TABLES
  0
TABLE
  2
VPORT
  5
13
102
{ACAD_XDICTIONARY
360
9419
102
}
330
0
100
AcDbSymbolTable
 70
     1
  0
VPORT
  5
9057
330
13
100
AcDbSymbolTableRecord
100
AcDbViewportTableRecord
  2
*Active
 70
     0
 10
0.0
 20
0.0
 11
1.0
 21
1.0
 12
1620.543526873853
 22
596.656851970434
 13
0.0
 23
0.0
 14
12.0
 24
12.0
 15
25.0
 25
25.0
 16
0.0
 26
0.0
 36
1.0
 17
0.0
 27
0.0
 37
0.0
 40
1670.282250075091
 41
1.762640449438202
 42
50.0
 43
0.0
 44
0.0
 50
0.0
 51
0.0
 71
     0
 72
 20000
 73
     1
 74
     0
 75
     0
 76
     0
 77
     0
 78
     0
281
     0
 65
     1
110
0.0
120
0.0
130
0.0
111
1.0
121
0.0
131
0.0
112
0.0
122
1.0
132
0.0
 79
     0
146
0.0
  0
ENDTAB
  0
TABLE
  2
LTYPE
  5
F
330
0
100
AcDbSymbolTable
 70
     3
  0
LTYPE
  5
10
330
F
100
AcDbSymbolTableRecord
100
AcDbLinetypeTableRecord
  2
BYBLOCK
 70
     0
  3

 72
    65
 73
     0
 40
0.0
  0
LTYPE
  5
9
330
F
100
AcDbSymbolTableRecord
100
AcDbLinetypeTableRecord
  2
BYLAYER
 70
     0
  3

 72
    65
 73
     0
 40
0.0
  0
LTYPE
  5
A
330
F
100
AcDbSymbolTableRecord
100
AcDbLinetypeTableRecord
  2
CONTINUOUS
 70
     0
  3
Solid line
 72
    65
 73
     0
 40
0.0
  0
LTYPE
  5
6E22
330
F
100
AcDbSymbolTableRecord
100
AcDbLinetypeTableRecord
  2
STRICHPUNKT
 70
     0
  3
__ . __ . __ . __ . __ . __ . __ . __ . __ . __
 72
    65
 73
     4
 40
1.0
 49
0.5
 74
     0
 49
-0.25
 74
     0
 49
0.0
 74
     0
 49
-0.25
 74
     0
  0
LTYPE
  5
6E24
330
F
100
AcDbSymbolTableRecord
100
AcDbLinetypeTableRecord
  2
VERDECKT
 70
     0
  3
__ __ __ __ __ __ __ __ __ __ __ __ __ __ __ __
 72
    65
 73
     2
 40
0.375
 49
0.25
 74
     0
 49
-0.125
 74
     0
  0
ENDTAB
  0
TABLE
  2
LAYER
  5
B
102
{ACAD_XDICTIONARY
360
18A4
102
}
330
0
100
AcDbSymbolTable
 70
    47
  0
LAYER
  5
C
102
{ACAD_XDICTIONARY
360
9376
102
}
330
B
100
AcDbSymbolTableRecord
100
AcDbLayerTableRecord
  2
0
 70
     0
 62
     7
  6
CONTINUOUS
370
    -3
390
104
1001
RAK
1000
{ACET-LAYISO
1070
     0
1070
     7
1000
CONTINUOUS
1071
       -3
1071
        1
1005
104
1000
ACET-LAYISO}
  0
LAYER
  5
4CC
102
{ACAD_XDICTIONARY
360
9378
102
}
330
B
100
AcDbSymbolTableRecord
100
AcDbLayerTableRecord
  2
TEXT3
 70
     0
 62
     3
  6
CONTINUOUS
370
    -3
390
104
1001
RAK
1000
{ACET-LAYISO
1070
     0
1070
     3
1000
CONTINUOUS
1071
       -3
1071
        1
1005
104
1000
ACET-LAYISO}
  0
LAYER
  5
4D4
102
{ACAD_XDICTIONARY
360
937A
102
}
330
B
100
AcDbSymbolTableRecord
100
AcDbLayerTableRecord
  2
GRAU30
 70
     0
 62
   252
  6
CONTINUOUS
370
    -3
390
104
1001
RAK
1000
{ACET-LAYISO
1070
     0
1070
   252
1000
CONTINUOUS
1071
       -3
1071
        1
1005
104
1000
ACET-LAYISO}
  0
LAYER
  5
4D6
102
{ACAD_XDICTIONARY
360
937C
102
}
330
B
100
AcDbSymbolTableRecord
100
AcDbLayerTableRecord
  2
rahm2
 70
     0
 62
     2
  6
CONTINUOUS
370
    -3
390
104
1001
RAK
1000
{ACET-LAYISO
1070
     0
1070
     2
1000
CONTINUOUS
1070
     1
1071
       -3
1071
        1
1005
104
1000
ACET-LAYISO}
  0
LAYER
  5
189E
102
{ACAD_XDICTIONARY
360
937E
102
}
330
B
100
AcDbSymbolTableRecord
100
AcDbLayerTableRecord
  2
GRAU10 B
 70
     0
 62
   254
  6
CONTINUOUS
370
    -3
390
104
1001
RAK
1000
{ACET-LAYISO
1070
     0
1070
   254
1000
CONTINUOUS
1071
       -3
1071
        1
1005
104
1000
ACET-LAYISO}
  0
LAYER
  5
19BE
102
{ACAD_XDICTIONARY
360
9380
102
}
330
B
100
AcDbSymbolTableRecord
100
AcDbLayerTableRecord
  2
TEXT
 70
     0
 62
     3
  6
CONTINUOUS
370
    -3
390
104
1001
RAK
1000
{ACET-LAYISO
1070
     0
1070
     3
1000
CONTINUOUS
1071
       -3
1071
        1
1005
104
1000
ACET-LAYISO}
  0
LAYER
  5
6E25
102
{ACAD_XDICTIONARY
360
9382
102
}
330
B
100
AcDbSymbolTableRecord
100
AcDbLayerTableRecord
  2
SCHATT15 B
 70
     0
 62
   140
  6
CONTINUOUS
370
    -3
390
104
1001
RAK
1000
{ACET-LAYISO
1070
     0
1070
   140
1000
CONTINUOUS
1071
       -3
1071
        1
1005
104
1000
ACET-LAYISO}
  0
LAYER
  5
6E26
102
{ACAD_XDICTIONARY
360
9384
102
}
330
B
100
AcDbSymbolTableRecord
100
AcDbLayerTableRecord
  2
SCHATT15
 70
     0
 62
   140
  6
CONTINUOUS
370
    -3
390
104
1001
AcAecLayerStandard
1000

1000

1001
RAK
1000
{ACET-LAYISO
1070
     0
1070
   140
1000
CONTINUOUS
1071
       -3
1071
        1
1005
104
1000
ACET-LAYISO}
  0
LAYER
  5
6E27
102
{ACAD_XDICTIONARY
360
9386
102
}
330
B
100
AcDbSymbolTableRecord
100
AcDbLayerTableRecord
  2
TEXT7
 70
     0
 62
     7
  6
CONTINUOUS
370
    -3
390
104
1001
RAK
1000
{ACET-LAYISO
1070
     0
1070
     7
1000
CONTINUOUS
1071
       -3
1071
        1
1005
104
1000
ACET-LAYISO}
  0
LAYER
  5
6E28
102
{ACAD_XDICTIONARY
360
9388
102
}
330
B
100
AcDbSymbolTableRecord
100
AcDbLayerTableRecord
  2
BEM1
 70
     0
 62
     1
  6
CONTINUOUS
370
    -3
390
104
1001
RAK
1000
{ACET-LAYISO
1070
     0
1070
     1
1000
CONTINUOUS
1071
       -3
1071
        1
1005
104
1000
ACET-LAYISO}
  0
LAYER
  5
6E29
102
{ACAD_XDICTIONARY
360
938A
102
}
330
B
100
AcDbSymbolTableRecord
100
AcDbLayerTableRecord
  2
BEM3
 70
     0
 62
     3
  6
CONTINUOUS
370
    -3
390
104
1001
RAK
1000
{ACET-LAYISO
1070
     0
1070
     3
1000
CONTINUOUS
1071
       -3
1071
        1
1005
104
1000
ACET-LAYISO}
  0
LAYER
  5
6E2A
102
{ACAD_XDICTIONARY
360
938C
102
}
330
B
100
AcDbSymbolTableRecord
100
AcDbLayerTableRecord
  2
BEPL1
 70
     0
 62
     1
  6
CONTINUOUS
370
    -3
390
104
1001
RAK
1000
{ACET-LAYISO
1070
     0
1070
     1
1000
CONTINUOUS
1071
       -3
1071
        1
1005
104
1000
ACET-LAYISO}
  0
LAYER
  5
6E2B
102
{ACAD_XDICTIONARY
360
938E
102
}
330
B
100
AcDbSymbolTableRecord
100
AcDbLayerTableRecord
  2
BEPL2
 70
     0
 62
     2
  6
CONTINUOUS
370
    -3
390
104
1001
RAK
1000
{ACET-LAYISO
1070
     0
1070
     2
1000
CONTINUOUS
1071
       -3
1071
        1
1005
104
1000
ACET-LAYISO}
  0
LAYER
  5
6E2C
102
{ACAD_XDICTIONARY
360
9390
102
}
330
B
100
AcDbSymbolTableRecord
100
AcDbLayerTableRecord
  2
BEPL3
 70
     0
 62
     3
  6
CONTINUOUS
370
    -3
390
104
1001
RAK
1000
{ACET-LAYISO
1070
     0
1070
     3
1000
CONTINUOUS
1071
       -3
1071
        1
1005
104
1000
ACET-LAYISO}
  0
LAYER
  5
6E2D
102
{ACAD_XDICTIONARY
360
9392
102
}
330
B
100
AcDbSymbolTableRecord
100
AcDbLayerTableRecord
  2
BEPL4
 70
     0
 62
     4
  6
CONTINUOUS
370
    -3
390
104
1001
RAK
1000
{ACET-LAYISO
1070
     0
1070
     4
1000
CONTINUOUS
1071
       -3
1071
        1
1005
104
1000
ACET-LAYISO}
  0
LAYER
  5
6E2E
102
{ACAD_XDICTIONARY
360
9394
102
}
330
B
100
AcDbSymbolTableRecord
100
AcDbLayerTableRecord
  2
BEPL
 70
     0
 62
     4
  6
CONTINUOUS
370
    -3
390
104
1001
RAK
1000
{ACET-LAYISO
1070
     0
1070
     4
1000
CONTINUOUS
1071
       -3
1071
        1
1005
104
1000
ACET-LAYISO}
  0
LAYER
  5
6E2F
102
{ACAD_XDICTIONARY
360
9396
102
}
330
B
100
AcDbSymbolTableRecord
100
AcDbLayerTableRecord
  2
DAEMM1
 70
     0
 62
     1
  6
CONTINUOUS
370
    -3
390
104
1001
RAK
1000
{ACET-LAYISO
1070
     0
1070
     1
1000
CONTINUOUS
1071
       -3
1071
        1
1005
104
1000
ACET-LAYISO}
  0
LAYER
  5
6E30
102
{ACAD_XDICTIONARY
360
9398
102
}
330
B
100
AcDbSymbolTableRecord
100
AcDbLayerTableRecord
  2
DAEMM2
 70
     0
 62
     2
  6
CONTINUOUS
370
    -3
390
104
1001
RAK
1000
{ACET-LAYISO
1070
     0
1070
     2
1000
CONTINUOUS
1071
       -3
1071
        1
1005
104
1000
ACET-LAYISO}
  0
LAYER
  5
6E31
102
{ACAD_XDICTIONARY
360
939A
102
}
330
B
100
AcDbSymbolTableRecord
100
AcDbLayerTableRecord
  2
UK1
 70
     0
 62
     1
  6
CONTINUOUS
370
    -3
390
104
1001
RAK
1000
{ACET-LAYISO
1070
     0
1070
     1
1000
CONTINUOUS
1071
       -3
1071
        1
1005
104
1000
ACET-LAYISO}
  0
LAYER
  5
6E32
102
{ACAD_XDICTIONARY
360
939C
102
}
330
B
100
AcDbSymbolTableRecord
100
AcDbLayerTableRecord
  2
UK3
 70
     0
 62
     3
  6
CONTINUOUS
370
    -3
390
104
1001
RAK
1000
{ACET-LAYISO
1070
     0
1070
     3
1000
CONTINUOUS
1071
       -3
1071
        1
1005
104
1000
ACET-LAYISO}
  0
LAYER
  5
6E33
102
{ACAD_XDICTIONARY
360
939E
102
}
330
B
100
AcDbSymbolTableRecord
100
AcDbLayerTableRecord
  2
FLANK7
 70
     0
 62
     7
  6
CONTINUOUS
370
    -3
390
104
1001
RAK
1000
{ACET-LAYISO
1070
     0
1070
     7
1000
CONTINUOUS
1071
       -3
1071
        1
1005
104
1000
ACET-LAYISO}
  0
LAYER
  5
6E34
102
{ACAD_XDICTIONARY
360
93A0
102
}
330
B
100
AcDbSymbolTableRecord
100
AcDbLayerTableRecord
  2
TEXT2
 70
     0
 62
     2
  6
CONTINUOUS
370
    -3
390
104
1001
RAK
1000
{ACET-LAYISO
1070
     0
1070
     2
1000
CONTINUOUS
1071
       -3
1071
        1
1005
104
1000
ACET-LAYISO}
  0
LAYER
  5
6E35
102
{ACAD_XDICTIONARY
360
93A2
102
}
330
B
100
AcDbSymbolTableRecord
100
AcDbLayerTableRecord
  2
ZUB1
 70
     0
 62
     1
  6
CONTINUOUS
370
    -3
390
104
1001
RAK
1000
{ACET-LAYISO
1070
     0
1070
     1
1000
CONTINUOUS
1071
       -3
1071
        1
1005
104
1000
ACET-LAYISO}
  0
LAYER
  5
6E36
102
{ACAD_XDICTIONARY
360
93A4
102
}
330
B
100
AcDbSymbolTableRecord
100
AcDbLayerTableRecord
  2
ZUB2
 70
     0
 62
     2
  6
CONTINUOUS
370
    -3
390
104
1001
RAK
1000
{ACET-LAYISO
1070
     0
1070
     2
1000
CONTINUOUS
1071
       -3
1071
        1
1005
104
1000
ACET-LAYISO}
  0
LAYER
  5
6E37
102
{ACAD_XDICTIONARY
360
93A6
102
}
330
B
100
AcDbSymbolTableRecord
100
AcDbLayerTableRecord
  2
HILF2S
 70
     0
 62
     2
  6
STRICHPUNKT
370
    -3
390
104
1001
RAK
1000
{ACET-LAYISO
1070
     0
1070
     2
1000
STRICHPUNKT
1071
       -3
1071
        1
1005
104
1000
ACET-LAYISO}
  0
LAYER
  5
6E38
102
{ACAD_XDICTIONARY
360
93A8
102
}
330
B
100
AcDbSymbolTableRecord
100
AcDbLayerTableRecord
  2
UK4
 70
     0
 62
     4
  6
CONTINUOUS
370
    -3
390
104
1001
RAK
1000
{ACET-LAYISO
1070
     0
1070
     4
1000
CONTINUOUS
1071
       -3
1071
        1
1005
104
1000
ACET-LAYISO}
  0
LAYER
  5
6E39
102
{ACAD_XDICTIONARY
360
93AA
102
}
330
B
100
AcDbSymbolTableRecord
100
AcDbLayerTableRecord
  2
FLANK3
 70
     0
 62
     3
  6
CONTINUOUS
370
    -3
390
104
1001
RAK
1000
{ACET-LAYISO
1070
     0
1070
     3
1000
CONTINUOUS
1071
       -3
1071
        1
1005
104
1000
ACET-LAYISO}
  0
LAYER
  5
6E3B
102
{ACAD_XDICTIONARY
360
93AC
102
}
330
B
100
AcDbSymbolTableRecord
100
AcDbLayerTableRecord
  2
FLANK1
 70
     0
 62
     1
  6
CONTINUOUS
370
    -3
390
104
1001
RAK
1000
{ACET-LAYISO
1070
     0
1070
     1
1000
CONTINUOUS
1071
       -3
1071
        1
1005
104
1000
ACET-LAYISO}
  0
LAYER
  5
6E3D
102
{ACAD_XDICTIONARY
360
93AE
102
}
330
B
100
AcDbSymbolTableRecord
100
AcDbLayerTableRecord
  2
SCHATT10 B
 70
     0
 62
   131
  6
CONTINUOUS
370
    -3
390
104
1001
RAK
1000
{ACET-LAYISO
1070
     0
1070
   131
1000
CONTINUOUS
1071
       -3
1071
        1
1005
104
1000
ACET-LAYISO}
  0
LAYER
  5
6E3E
102
{ACAD_XDICTIONARY
360
93B0
102
}
330
B
100
AcDbSymbolTableRecord
100
AcDbLayerTableRecord
  2
GRAU20 B
 70
     0
 62
   253
  6
CONTINUOUS
370
    -3
390
104
1001
RAK
1000
{ACET-LAYISO
1070
     0
1070
   253
1000
CONTINUOUS
1071
       -3
1071
        1
1005
104
1000
ACET-LAYISO}
  0
LAYER
  5
6E3F
102
{ACAD_XDICTIONARY
360
93B2
102
}
330
B
100
AcDbSymbolTableRecord
100
AcDbLayerTableRecord
  2
SCHATT20 B
 70
     0
 62
   141
  6
CONTINUOUS
370
    -3
390
104
1001
RAK
1000
{ACET-LAYISO
1070
     0
1070
   141
1000
CONTINUOUS
1071
       -3
1071
        1
1005
104
1000
ACET-LAYISO}
  0
LAYER
  5
6E42
102
{ACAD_XDICTIONARY
360
93B4
102
}
330
B
100
AcDbSymbolTableRecord
100
AcDbLayerTableRecord
  2
ZUB2V
 70
     0
 62
     2
  6
VERDECKT
370
    -3
390
104
1001
RAK
1000
{ACET-LAYISO
1070
     0
1070
     2
1000
VERDECKT
1071
       -3
1071
        1
1005
104
1000
ACET-LAYISO}
  0
LAYER
  5
6E44
102
{ACAD_XDICTIONARY
360
93B6
102
}
330
B
100
AcDbSymbolTableRecord
100
AcDbLayerTableRecord
  2
SCHATT10
 70
     0
 62
   131
  6
CONTINUOUS
370
    -3
390
104
1001
RAK
1000
{ACET-LAYISO
1070
     0
1070
   131
1000
CONTINUOUS
1071
       -3
1071
        1
1005
104
1000
ACET-LAYISO}
  0
LAYER
  5
6E45
102
{ACAD_XDICTIONARY
360
93B8
102
}
330
B
100
AcDbSymbolTableRecord
100
AcDbLayerTableRecord
  2
RAST3
 70
     0
 62
     3
  6
CONTINUOUS
370
    -3
390
104
1001
RAK
1000
{ACET-LAYISO
1070
     0
1070
     3
1000
CONTINUOUS
1071
       -3
1071
        1
1005
104
1000
ACET-LAYISO}
  0
LAYER
  5
7A22
102
{ACAD_XDICTIONARY
360
93BA
102
}
330
B
100
AcDbSymbolTableRecord
100
AcDbLayerTableRecord
  2
UK
 70
     0
 62
     2
  6
CONTINUOUS
370
    -3
390
104
1001
RAK
1000
{ACET-LAYISO
1070
     0
1070
     2
1000
CONTINUOUS
1071
       -3
1071
        1
1005
104
1000
ACET-LAYISO}
  0
LAYER
  5
7A25
102
{ACAD_XDICTIONARY
360
93BC
102
}
330
B
100
AcDbSymbolTableRecord
100
AcDbLayerTableRecord
  2
DAEMM
 70
     0
 62
     2
  6
CONTINUOUS
370
    -3
390
104
1001
RAK
1000
{ACET-LAYISO
1070
     0
1070
     2
1000
CONTINUOUS
1071
       -3
1071
        1
1005
104
1000
ACET-LAYISO}
  0
LAYER
  5
7A26
102
{ACAD_XDICTIONARY
360
93BE
102
}
330
B
100
AcDbSymbolTableRecord
100
AcDbLayerTableRecord
  2
UK2
 70
     0
 62
     2
  6
CONTINUOUS
370
    -3
390
104
1001
RAK
1000
{ACET-LAYISO
1070
     0
1070
     2
1000
CONTINUOUS
1071
       -3
1071
        1
1005
104
1000
ACET-LAYISO}
  0
LAYER
  5
7A27
102
{ACAD_XDICTIONARY
360
93C0
102
}
330
B
100
AcDbSymbolTableRecord
100
AcDbLayerTableRecord
  2
UK2V
 70
     0
 62
     2
  6
VERDECKT
370
    -3
390
104
1001
RAK
1000
{ACET-LAYISO
1070
     0
1070
     2
1000
VERDECKT
1071
       -3
1071
        1
1005
104
1000
ACET-LAYISO}
  0
LAYER
  5
7A28
102
{ACAD_XDICTIONARY
360
93C2
102
}
330
B
100
AcDbSymbolTableRecord
100
AcDbLayerTableRecord
  2
RAST
 70
     0
 62
     3
  6
CONTINUOUS
370
    -3
390
104
1001
RAK
1000
{ACET-LAYISO
1070
     0
1070
     3
1000
CONTINUOUS
1071
       -3
1071
        1
1005
104
1000
ACET-LAYISO}
  0
LAYER
  5
7A29
102
{ACAD_XDICTIONARY
360
93C4
102
}
330
B
100
AcDbSymbolTableRecord
100
AcDbLayerTableRecord
  2
ZUB3
 70
     0
 62
     3
  6
CONTINUOUS
370
    -3
390
104
1001
RAK
1000
{ACET-LAYISO
1070
     0
1070
     3
1000
CONTINUOUS
1071
       -3
1071
        1
1005
104
1000
ACET-LAYISO}
  0
LAYER
  5
7A2C
102
{ACAD_XDICTIONARY
360
93C6
102
}
330
B
100
AcDbSymbolTableRecord
100
AcDbLayerTableRecord
  2
UK1V
 70
     0
 62
     1
  6
VERDECKT
370
    -3
390
104
1001
RAK
1000
{ACET-LAYISO
1070
     0
1070
     1
1000
VERDECKT
1071
       -3
1071
        1
1005
104
1000
ACET-LAYISO}
  0
LAYER
  5
7A2D
102
{ACAD_XDICTIONARY
360
93C8
102
}
330
B
100
AcDbSymbolTableRecord
100
AcDbLayerTableRecord
  2
FLANK5
 70
     0
 62
     5
  6
CONTINUOUS
370
    -3
390
104
1001
RAK
1000
{ACET-LAYISO
1070
     0
1070
     5
1000
CONTINUOUS
1071
       -3
1071
        1
1005
104
1000
ACET-LAYISO}
  0
LAYER
  5
873B
102
{ACAD_XDICTIONARY
360
93CA
102
}
330
B
100
AcDbSymbolTableRecord
100
AcDbLayerTableRecord
  2
BEM7
 70
     0
 62
     7
  6
CONTINUOUS
370
    -3
390
104
1001
RAK
1000
{ACET-LAYISO
1070
     0
1070
     7
1000
CONTINUOUS
1071
       -3
1071
        1
1005
104
1000
ACET-LAYISO}
  0
LAYER
  5
873C
102
{ACAD_XDICTIONARY
360
93CC
102
}
330
B
100
AcDbSymbolTableRecord
100
AcDbLayerTableRecord
  2
ZUB
 70
     0
 62
     3
  6
CONTINUOUS
370
    -3
390
104
1001
RAK
1000
{ACET-LAYISO
1070
     0
1070
     3
1000
CONTINUOUS
1071
       -3
1071
        1
1005
104
1000
ACET-LAYISO}
  0
LAYER
  5
873D
102
{ACAD_XDICTIONARY
360
93CE
102
}
330
B
100
AcDbSymbolTableRecord
100
AcDbLayerTableRecord
  2
ZUB5
 70
     0
 62
     5
  6
CONTINUOUS
370
    -3
390
104
1001
RAK
1000
{ACET-LAYISO
1070
     0
1070
     5
1000
CONTINUOUS
1071
       -3
1071
        1
1005
104
1000
ACET-LAYISO}
  0
LAYER
  5
8A62
102
{ACAD_XDICTIONARY
360
93D0
102
}
330
B
100
AcDbSymbolTableRecord
100
AcDbLayerTableRecord
  2
ZUB1V
 70
     0
 62
     1
  6
VERDECKT
370
    -3
390
104
1001
RAK
1000
{ACET-LAYISO
1070
     0
1070
     1
1000
VERDECKT
1071
       -3
1071
        1
1005
104
1000
ACET-LAYISO}
  0
LAYER
  5
8D2D
102
{ACAD_XDICTIONARY
360
93D2
102
}
330
B
100
AcDbSymbolTableRecord
100
AcDbLayerTableRecord
  2
ZUB4
 70
     0
 62
     4
  6
CONTINUOUS
370
    -3
390
104
1001
RAK
1000
{ACET-LAYISO
1070
     0
1070
     4
1000
CONTINUOUS
1071
       -3
1071
        1
1005
104
1000
ACET-LAYISO}
  0
ENDTAB
  0
TABLE
  2
STYLE
  5
D
330
0
100
AcDbSymbolTable
 70
     3
  0
STYLE
  5
E
330
D
100
AcDbSymbolTableRecord
100
AcDbTextStyleTableRecord
  2
STANDARD
 70
     0
 40
0.0
 41
1.0
 50
0.0
 71
     0
 42
3.5
  3
txt
  4

  0
STYLE
  5
9FF
330
D
100
AcDbSymbolTableRecord
100
AcDbTextStyleTableRecord
  2
ar-na-fett
 70
     0
 40
0.0
 41
1.0
 50
0.0
 71
     0
 42
13.0
  3
ARIALNB.TTF
  4

1001
ACAD
1000
Arial Narrow
1071
 33554466
  0
STYLE
  5
A00
330
D
100
AcDbSymbolTableRecord
100
AcDbTextStyleTableRecord
  2
ar-na-light
 70
     0
 40
11.0
 41
1.0
 50
0.0
 71
     0
 42
13.0
  3
ARIALN.TTF
  4

1001
ACAD
1000
Arial Narrow
1071
       34
  0
ENDTAB
  0
TABLE
  2
VIEW
  5
11
330
0
100
AcDbSymbolTable
 70
     0
  0
ENDTAB
  0
TABLE
  2
UCS
  5
12
330
0
100
AcDbSymbolTable
 70
     0
  0
ENDTAB
  0
TABLE
  2
APPID
  5
15
330
0
100
AcDbSymbolTable
 70
    18
  0
APPID
  5
16
330
15
100
AcDbSymbolTableRecord
100
AcDbRegAppTableRecord
  2
ACAD
 70
     0
  0
APPID
  5
BF
330
15
100
AcDbSymbolTableRecord
100
AcDbRegAppTableRecord
  2
ACA_CADIMENU
 70
     0
  0
APPID
  5
1802
330
15
100
AcDbSymbolTableRecord
100
AcDbRegAppTableRecord
  2
CONTENTBLOCKICON
 70
     0
  0
APPID
  5
18A3
330
15
100
AcDbSymbolTableRecord
100
AcDbRegAppTableRecord
  2
RAK
 70
     0
  0
APPID
  5
1982
330
15
100
AcDbSymbolTableRecord
100
AcDbRegAppTableRecord
  2
ACAD_PSEXT
 70
     0
  0
APPID
  5
2973
330
15
100
AcDbSymbolTableRecord
100
AcDbRegAppTableRecord
  2
ACAD_EXEMPT_FROM_CAD_STANDARDS
 70
     0
  0
APPID
  5
4A6A
330
15
100
AcDbSymbolTableRecord
100
AcDbRegAppTableRecord
  2
ACAUTHENVIRON
 70
     0
  0
APPID
  5
57B2
330
15
100
AcDbSymbolTableRecord
100
AcDbRegAppTableRecord
  2
AcDbDynamicBlockTrueName
 70
     0
  0
APPID
  5
57B3
330
15
100
AcDbSymbolTableRecord
100
AcDbRegAppTableRecord
  2
AcDbDynamicBlockGUID
 70
     0
  0
APPID
  5
57B5
330
15
100
AcDbSymbolTableRecord
100
AcDbRegAppTableRecord
  2
AcDbBlockRepETag
 70
     0
  0
APPID
  5
5F2A
330
15
100
AcDbSymbolTableRecord
100
AcDbRegAppTableRecord
  2
AcAecLayerStandard
 70
     0
  0
APPID
  5
695E
330
15
100
AcDbSymbolTableRecord
100
AcDbRegAppTableRecord
  2
ACAD_DSTYLE_DIMTEXT_FILL
 70
     0
  0
APPID
  5
695F
330
15
100
AcDbSymbolTableRecord
100
AcDbRegAppTableRecord
  2
ACAD_DSTYLE_DIMEXT_LENGTH
 70
     0
  0
APPID
  5
6960
330
15
100
AcDbSymbolTableRecord
100
AcDbRegAppTableRecord
  2
ACAD_DSTYLE_DIMEXT_ENABLED
 70
     0
  0
APPID
  5
6961
330
15
100
AcDbSymbolTableRecord
100
AcDbRegAppTableRecord
  2
ACAD_DSTYLE_DIM_LINETYPE
 70
     0
  0
APPID
  5
6962
330
15
100
AcDbSymbolTableRecord
100
AcDbRegAppTableRecord
  2
ACAD_DSTYLE_DIM_EXT1_LINETYPE
 70
     0
  0
APPID
  5
6963
330
15
100
AcDbSymbolTableRecord
100
AcDbRegAppTableRecord
  2
ACAD_DSTYLE_DIM_EXT2_LINETYPE
 70
     0
  0
APPID
  5
9409
330
15
100
AcDbSymbolTableRecord
100
AcDbRegAppTableRecord
  2
ACAD_MLEADERVER
 70
     0
  0
ENDTAB
  0
TABLE
  2
DIMSTYLE
  5
17
330
0
100
AcDbSymbolTable
 70
     1
100
AcDbDimStyleTable
  0
DIMSTYLE
105
1C
330
17
100
AcDbSymbolTableRecord
100
AcDbDimStyleTableRecord
  2
STANDARD
 70
     0
178
     0
340
E
  0
ENDTAB
  0
TABLE
  2
BLOCK_RECORD
  5
1
330
0
100
AcDbSymbolTable
 70
    10
  0
BLOCK_RECORD
  5
2
102
{ACAD_XDICTIONARY
360
34D
102
}
330
1
100
AcDbSymbolTableRecord
100
AcDbBlockTableRecord
  2
*MODEL_SPACE
340
107
  0
BLOCK_RECORD
  5
3
330
1
100
AcDbSymbolTableRecord
100
AcDbBlockTableRecord
  2
*PAPER_SPACE
340
108
  0
BLOCK_RECORD
  5
19B3
330
1
100
AcDbSymbolTableRecord
100
AcDbBlockTableRecord
  2
Logo 1
340
0
310
2800000020000000200000000100080000000000000400000000000000000000000000000000000000000000000080000080000000808000800000008000800080800000C0C0C00099A8AC00D8E9EC000020400000206000002080000020A0000020C0000020E00000400000004020000040400000406000004080000040A0
310
000040C0000040E00000600000006020000060400000606000006080000060A0000060C0000060E00000800000008020000080400000806000008080000080A0000080C0000080E00000A0000000A0200000A0400000A0600000A0800000A0A00000A0C00000A0E00000C0000000C0200000C0400000C0600000C0800000C0
310
A00000C0C00000C0E00000E0000000E0200000E0400000E0600000E0800000E0A00000E0C00000E0E00040000000400020004000400040006000400080004000A0004000C0004000E00040200000402020004020400040206000402080004020A0004020C0004020E000404000004040200040404000404060004040800040
310
40A0004040C0004040E00040600000406020004060400040606000406080004060A0004060C0004060E00040800000408020004080400040806000408080004080A0004080C0004080E00040A0000040A0200040A0400040A0600040A0800040A0A00040A0C00040A0E00040C0000040C0200040C0400040C0600040C08000
310
40C0A00040C0C00040C0E00040E0000040E0200040E0400040E0600040E0800040E0A00040E0C00040E0E00080000000800020008000400080006000800080008000A0008000C0008000E00080200000802020008020400080206000802080008020A0008020C0008020E00080400000804020008040400080406000804080
310
008040A0008040C0008040E00080600000806020008060400080606000806080008060A0008060C0008060E00080800000808020008080400080806000808080008080A0008080C0008080E00080A0000080A0200080A0400080A0600080A0800080A0A00080A0C00080A0E00080C0000080C0200080C0400080C0600080C0
310
800080C0A00080C0C00080C0E00080E0000080E0200080E0400080E0600080E0800080E0A00080E0C00080E0E000C0000000C0002000C0004000C0006000C0008000C000A000C000C000C000E000C0200000C0202000C0204000C0206000C0208000C020A000C020C000C020E000C0400000C0402000C0404000C0406000C0
310
408000C040A000C040C000C040E000C0600000C0602000C0604000C0606000C0608000C060A000C060C000C060E000C0800000C0802000C0804000C0806000C0808000C080A000C080C000C080E000C0A00000C0A02000C0A04000C0A06000C0A08000C0A0A000C0A0C000C0A0E000C0C00000C0C02000C0C04000C0C06000
310
C0C08000C0C0A000F0FBFF00984E0000808080000000FF0000FF000000FFFF00FF000000FF00FF00FFFF0000FFFFFF0000000000000000000000000000000000000000000000000000000000000000000000000000000000000000000000000000000000000000000000000000000000000000000000000000000000000000
310
00000000000000000000000000000000000000000000000000000000000000000000000000000000000000000000000000000000000000000000000000000000000000000000000000000000000000000000000000000000000000000000000000000000000000000000000000000000000000000000000000000000000000
310
000000000000000000000000000000000000000000000000000000000000000000000000000000000000E0E0E00000000000000000000000000000000000000000000000000000000000E0E0E00000000000000000000000000000000000000000000000000000000000E0E0E0E00000000000E0E0E0E0E0E0E0E0E0E0E0E0
310
E0E0E0E0E0E000E0E0E0E0E0E0E0E00000000000E0E0E0E0E0E0E0E0E0E0E0E0E0E0E0E0E0E0E0E0E0E0E0E0E0E0E00000000000E0E0E0E0E0E0E0E0E0E0E0E0E0E0E0E0E0E0E0E0E0E0E0E0E0E0E00000000000E0E0E0E0E0E000E0E0E0E0E0E0E0E0E0E0E0E0E0E0E0E0E0E0E0E0E00000000000E0E0E0E0E000E0E0E0E0
310
E0E0E0E0E0E0E0E0E0E0E0E0E0E0E0E0E0E000000000E0E0E0E0E000E0E0E0E0E0E0E0E0E0E0E0E0E0E0E0E0E0E0E0E0E0E000000000E0E0E0E0E000E0E0E0E0E0E000E0E0E0E0E0E0E0E0E0E0E0E0E0E0E000000000E0E0E0E0E0E0E0E0E0E0E0E000E0E0E0E0E0E0E0E0E0E0E0E0E0E00000000000E0E0E0E0E0E0E0E0E0
310
E0E0E000E0E0E0E0E0E0E0E0E0E0E0E0E0E0E000000000E0E0E0E0E0E0E0E0E0E0E0E00000E0E0E0E0E0E0E0E0E0E0E0E0E0E0E0000000E0E0E0E0E0E0E0E0E0E0E0E00000E0E0E0E0E0E0E0E0E0E0E0E0E0E0E000000000E0E0E00000000000000000000000000000000000000000000000000000000000E0E0E0E0000000
310
00000000000000000000000000000000000000000000000000E0E0E0E000000000000000000000000000000000000000000000000000000000E0E0E0E0000000000000000000000000000000000000000000000000000000000000000000000000000000000000000000000000000000000000000000000000000000000000
310
00000000000000000000000000000000000000000000000000000000000000000000000000000000000000000000000000000000000000000000000000000000000000000000000000000000000000000000000000000000000000000000000000000000000000000000000000000000000000000000000000000000000000
310
0000000000000000000000000000000000000000000000000000000000000000000000000000000000000000000000000000000000000000
1001
ACAD
1000
DesignCenter Data
1002
{
1070
     1
1070
     4
1002
}
  0
BLOCK_RECORD
  5
6DEA
330
1
100
AcDbSymbolTableRecord
100
AcDbBlockTableRecord
  2
MF
340
0
  0
BLOCK_RECORD
  5
6DEE
330
1
100
AcDbSymbolTableRecord
100
AcDbBlockTableRecord
  2
Brio-Schraube-17
340
0
310
2800000020000000200000000100080000000000000400000000000000000000000000000000000000000000000080000080000000808000800000008000800080800000C0C0C000C0DCC000F0CAA6000020400000206000002080000020A0000020C0000020E00000400000004020000040400000406000004080000040A0
310
000040C0000040E00000600000006020000060400000606000006080000060A0000060C0000060E00000800000008020000080400000806000008080000080A0000080C0000080E00000A0000000A0200000A0400000A0600000A0800000A0A00000A0C00000A0E00000C0000000C0200000C0400000C0600000C0800000C0
310
A00000C0C00000C0E00000E0000000E0200000E0400000E0600000E0800000E0A00000E0C00000E0E00040000000400020004000400040006000400080004000A0004000C0004000E00040200000402020004020400040206000402080004020A0004020C0004020E000404000004040200040404000404060004040800040
310
40A0004040C0004040E00040600000406020004060400040606000406080004060A0004060C0004060E00040800000408020004080400040806000408080004080A0004080C0004080E00040A0000040A0200040A0400040A0600040A0800040A0A00040A0C00040A0E00040C0000040C0200040C0400040C0600040C08000
310
40C0A00040C0C00040C0E00040E0000040E0200040E0400040E0600040E0800040E0A00040E0C00040E0E00080000000800020008000400080006000800080008000A0008000C0008000E00080200000802020008020400080206000802080008020A0008020C0008020E00080400000804020008040400080406000804080
310
008040A0008040C0008040E00080600000806020008060400080606000806080008060A0008060C0008060E00080800000808020008080400080806000808080008080A0008080C0008080E00080A0000080A0200080A0400080A0600080A0800080A0A00080A0C00080A0E00080C0000080C0200080C0400080C0600080C0
310
800080C0A00080C0C00080C0E00080E0000080E0200080E0400080E0600080E0800080E0A00080E0C00080E0E000C0000000C0002000C0004000C0006000C0008000C000A000C000C000C000E000C0200000C0202000C0204000C0206000C0208000C020A000C020C000C020E000C0400000C0402000C0404000C0406000C0
310
408000C040A000C040C000C040E000C0600000C0602000C0604000C0606000C0608000C060A000C060C000C060E000C0800000C0802000C0804000C0806000C0808000C080A000C080C000C080E000C0A00000C0A02000C0A04000C0A06000C0A08000C0A0A000C0A0C000C0A0E000C0C00000C0C02000C0C04000C0C06000
310
C0C08000C0C0A000F0FBFF00A4A0A000808080000000FF0000FF000000FFFF00FF000000FF00FF00FFFF0000FFFFFF0000000000000000000000000000000000000000000000000000000000000000000000000000000000000000000000000000000000000000000000000000000000000000000000000000000000000000
310
00000000000000000000000000000000000000000000000000000000000000000000000000000000000000000000000000000000000000000000000000000000000000000000000000000000000000000000000000000000000000000000000000000000000000000000000000000000000000000000000000000000000000
310
00000000000000000000000000000000000000000000000000000000000000000000000000000000000000000000000000000000000000000000000000000000000000000000000000000000000000000000000000000000000000000000000000000000000000000000000000000000000000FBFBFB000000000000000000
310
0000000000000000000000000000000000000000FB00FBFB00000000000000000000000000000000000000000000000000000000FB00FB00FB0000000000000000000000F9000000F90000F90000000000000000FB00FB0000FBFBFBFBFBFBFBFBFBFBFBFBFBFBF9F9FBFBFBF900F90000000000FB00FB0000000000000000
310
0000000000F9F900F9F90000F9FBFBF90000000000FB00FB000000000000000000000000F9F900F9F90000F9F900F9F9FBFBFB0000FB00FB000000000000000000000000F9F900F9F90000F9F9F9F900FBFB000000FB00FB0000000000000000000000F9F900F9F9F900F9F900FBF9FB0000000000FB00FB0000FBFBFBFBFB
310
FBFBFBFBF9FBFBF9FBFBFBFBFBFB00F9000000000000FB00FB00FB00000000000000000000F90000F9000000F9000000000000000000FB00FBFB00000000000000000000000000000000000000000000000000000000FBFBFB0000000000000000000000000000000000000000000000000000000000000000000000000000
310
00000000000000000000000000000000000000000000000000000000000000000000000000000000000000000000000000000000000000000000000000000000000000000000000000000000000000000000000000000000000000000000000000000000000000000000000000000000000000000000000000000000000000
310
00000000000000000000000000000000000000000000000000000000000000000000000000000000000000000000000000000000000000000000000000000000000000000000000000000000000000000000000000000000000000000000000000000000000000000000000000000000000000000000000000000000000000
310
0000000000000000000000000000000000000000000000000000000000000000000000000000000000000000000000000000000000000000
  0
BLOCK_RECORD
  5
7998
330
1
100
AcDbSymbolTableRecord
100
AcDbBlockTableRecord
  2
TN25
340
0
  0
BLOCK_RECORD
  5
79E4
330
1
100
AcDbSymbolTableRecord
100
AcDbBlockTableRecord
  2
TRENNWK
340
0
  0
BLOCK_RECORD
  5
79F5
330
1
100
AcDbSymbolTableRecord
100
AcDbBlockTableRecord
  2
UW50
340
0
  0
BLOCK_RECORD
  5
79F9
330
1
100
AcDbSymbolTableRecord
100
AcDbBlockTableRecord
  2
gfas-18
340
0
310
2800000020000000200000000100080000000000000400000000000000000000000000000000000000000000000080000080000000808000800000008000800080800000C0C0C000C0DCC000F0CAA6000020400000206000002080000020A0000020C0000020E00000400000004020000040400000406000004080000040A0
310
000040C0000040E00000600000006020000060400000606000006080000060A0000060C0000060E00000800000008020000080400000806000008080000080A0000080C0000080E00000A0000000A0200000A0400000A0600000A0800000A0A00000A0C00000A0E00000C0000000C0200000C0400000C0600000C0800000C0
310
A00000C0C00000C0E00000E0000000E0200000E0400000E0600000E0800000E0A00000E0C00000E0E00040000000400020004000400040006000400080004000A0004000C0004000E00040200000402020004020400040206000402080004020A0004020C0004020E000404000004040200040404000404060004040800040
310
40A0004040C0004040E00040600000406020004060400040606000406080004060A0004060C0004060E00040800000408020004080400040806000408080004080A0004080C0004080E00040A0000040A0200040A0400040A0600040A0800040A0A00040A0C00040A0E00040C0000040C0200040C0400040C0600040C08000
310
40C0A00040C0C00040C0E00040E0000040E0200040E0400040E0600040E0800040E0A00040E0C00040E0E00080000000800020008000400080006000800080008000A0008000C0008000E00080200000802020008020400080206000802080008020A0008020C0008020E00080400000804020008040400080406000804080
310
008040A0008040C0008040E00080600000806020008060400080606000806080008060A0008060C0008060E00080800000808020008080400080806000808080008080A0008080C0008080E00080A0000080A0200080A0400080A0600080A0800080A0A00080A0C00080A0E00080C0000080C0200080C0400080C0600080C0
310
800080C0A00080C0C00080C0E00080E0000080E0200080E0400080E0600080E0800080E0A00080E0C00080E0E000C0000000C0002000C0004000C0006000C0008000C000A000C000C000C000E000C0200000C0202000C0204000C0206000C0208000C020A000C020C000C020E000C0400000C0402000C0404000C0406000C0
310
408000C040A000C040C000C040E000C0600000C0602000C0604000C0606000C0608000C060A000C060C000C060E000C0800000C0802000C0804000C0806000C0808000C080A000C080C000C080E000C0A00000C0A02000C0A04000C0A06000C0A08000C0A0A000C0A0C000C0A0E000C0C00000C0C02000C0C04000C0C06000
310
C0C08000C0C0A000F0FBFF00A4A0A000808080000000FF0000FF000000FFFF00FF000000FF00FF00FFFF0000FFFFFF0000000000000000000000000000000000000000000000000000000000000000000000000000000000000000000000000000000000000000000000000000000000000000000000000000000000000000
310
00000000000000000000000000000000000000000000000000000000000000000000000000000000000000000000000000000000000000000000000000000000000000000000000000000000000000000000000000000000000000000000000000000000000000000000000000000000000000000000000000000000000000
310
00000000000000000000000000000000000000000000000000000000000000000000000000000000000000000000000000000000000000000000000000000000000000000000000000000000000000000000000000000000000000000000000000000000000000000000000000000000000000000000FA0000000000000000
310
FA000000000000000000000000000000FAFA000000FA00FA000000FA00000000FA000000FA00FAFA000000FA00000000FA0000000000000000FA00000000FA000000000000000000000000000000FA00000000000000000000000000000000000000FA0000FA0000000000FA000000000000000000FA00FA000000FA000000
310
0000000000000000FAFA0000FA000000FAFA0000000000000000000000000000FAFA000000000000FA0000000000000000000000000000000000000000000000000000000000000000000000000000FA000000000000FA000000FAFA0000FA00000000FA00FA000000FA0000FA000000000000000000000000000000000000
310
00000000FA00000000000000000000000000FA0000000000000000000000000000FAFA0000000000000000000000FA0000000000000000FA0000FA000000FA0000000000FA0000FAFA00FA000000000000FA00000000FAFA000000000000000000000000FA0000000000FA000000000000FA00000000000000000000000000
310
00000000000000000000000000000000000000000000000000000000000000000000000000000000000000000000000000000000000000000000000000000000000000000000000000000000000000000000000000000000000000000000000000000000000000000000000000000000000000000000000000000000000000
310
00000000000000000000000000000000000000000000000000000000000000000000000000000000000000000000000000000000000000000000000000000000000000000000000000000000000000000000000000000000000000000000000000000000000000000000000000000000000000000000000000000000000000
310
0000000000000000000000000000000000000000000000000000000000000000000000000000000000000000000000000000000000000000
102
{BLKREFS
331
8F1F
331
8F24
331
8F25
331
8F33
331
8F34
331
8F35
102
}
1001
AcDbDynamicBlockGUID
1000
{32BCEF42-5BA3-4B64-A5CC-6EECED37AE98}
1001
AcDbBlockRepETag
1070
     1
1071
       38
  0
BLOCK_RECORD
  5
7DC7
330
1
100
AcDbSymbolTableRecord
100
AcDbBlockTableRecord
  2
KLAMMER35
340
0
310
2800000020000000200000000100080000000000000400000000000000000000000000000000000000000000000080000080000000808000800000008000800080800000C0C0C000C0DCC000F0CAA6000020400000206000002080000020A0000020C0000020E00000400000004020000040400000406000004080000040A0
310
000040C0000040E00000600000006020000060400000606000006080000060A0000060C0000060E00000800000008020000080400000806000008080000080A0000080C0000080E00000A0000000A0200000A0400000A0600000A0800000A0A00000A0C00000A0E00000C0000000C0200000C0400000C0600000C0800000C0
310
A00000C0C00000C0E00000E0000000E0200000E0400000E0600000E0800000E0A00000E0C00000E0E00040000000400020004000400040006000400080004000A0004000C0004000E00040200000402020004020400040206000402080004020A0004020C0004020E000404000004040200040404000404060004040800040
310
40A0004040C0004040E00040600000406020004060400040606000406080004060A0004060C0004060E00040800000408020004080400040806000408080004080A0004080C0004080E00040A0000040A0200040A0400040A0600040A0800040A0A00040A0C00040A0E00040C0000040C0200040C0400040C0600040C08000
310
40C0A00040C0C00040C0E00040E0000040E0200040E0400040E0600040E0800040E0A00040E0C00040E0E00080000000800020008000400080006000800080008000A0008000C0008000E00080200000802020008020400080206000802080008020A0008020C0008020E00080400000804020008040400080406000804080
310
008040A0008040C0008040E00080600000806020008060400080606000806080008060A0008060C0008060E00080800000808020008080400080806000808080008080A0008080C0008080E00080A0000080A0200080A0400080A0600080A0800080A0A00080A0C00080A0E00080C0000080C0200080C0400080C0600080C0
310
800080C0A00080C0C00080C0E00080E0000080E0200080E0400080E0600080E0800080E0A00080E0C00080E0E000C0000000C0002000C0004000C0006000C0008000C000A000C000C000C000E000C0200000C0202000C0204000C0206000C0208000C020A000C020C000C020E000C0400000C0402000C0404000C0406000C0
310
408000C040A000C040C000C040E000C0600000C0602000C0604000C0606000C0608000C060A000C060C000C060E000C0800000C0802000C0804000C0806000C0808000C080A000C080C000C080E000C0A00000C0A02000C0A04000C0A06000C0A08000C0A0A000C0A0C000C0A0E000C0C00000C0C02000C0C04000C0C06000
310
C0C08000C0C0A000F0FBFF00A4A0A000808080000000FF0000FF000000FFFF00FF000000FF00FF00FFFF0000FFFFFF000000000000000000000000000000000000000000000000000000000000000000000000000000000000000000FA00000000000000FA00000000000000000000000000000000000000000000FAFA0000
310
00000000FAFA00000000000000000000000000000000000000000000FAFA000000000000FAFA00000000000000000000000000000000000000000000FAFA000000000000FAFA00000000000000000000000000000000000000000000FAFA000000000000FAFA00000000000000000000000000000000000000000000FAFA00
310
0000000000FAFA00000000000000000000000000000000000000000000FAFA000000000000FAFA00000000000000000000000000000000000000000000FAFA000000000000FAFA00000000000000000000000000000000000000000000FAFA000000000000FAFA00000000000000000000000000000000000000000000FAFA
310
000000000000FAFA00000000000000000000000000000000000000000000FAFA000000000000FAFA00000000000000000000000000000000000000000000FAFA000000000000FAFA00000000000000000000000000000000000000000000FAFA000000000000FAFA00000000000000000000000000000000000000000000FA
310
FA000000000000FAFA00000000000000000000000000000000000000000000FAFA000000000000FAFA00000000000000000000000000000000000000000000FAFA000000000000FAFA00000000000000000000000000000000000000000000FAFA000000000000FAFA00000000000000000000000000000000000000000000
310
FAFA000000000000FAFA00000000000000000000000000000000000000000000FAFA000000000000FAFA00000000000000000000000000000000000000000000FAFA000000000000FAFA00000000000000000000000000000000000000000000FAFA000000000000FAFA000000000000000000000000000000000000000000
310
00FAFA000000000000FAFA00000000000000000000000000000000000000000000FAFA000000000000FAFA00000000000000000000000000000000000000000000FAFA000000000000FAFA00000000000000000000000000000000000000000000FAFA000000000000FAFA0000000000000000000000000000000000000000
310
0000FAFA000000000000FAFA00000000000000000000000000000000000000000000FAFA000000000000FAFA00000000000000000000000000000000000000000000FAFA000000000000FAFA00000000000000000000000000000000000000000000FAFAFAFAFAFAFAFAFAFA00000000000000000000000000000000000000
310
00000000FAFAFAFAFAFAFAFA0000000000000000000000000000000000000000000000000000000000000000000000000000000000000000
  0
BLOCK_RECORD
  5
8731
330
1
100
AcDbSymbolTableRecord
100
AcDbBlockTableRecord
  2
ROHR
340
0
  0
BLOCK_RECORD
  5
8CB4
330
1
100
AcDbSymbolTableRecord
100
AcDbBlockTableRecord
  2
tn35
340
0
  0
ENDTAB
  0
ENDSEC
  0
SECTION
  2
BLOCKS
  0
BLOCK
  5
4
330
2
100
AcDbEntity
  8
0
370
    -1
100
AcDbBlockBegin
  2
*MODEL_SPACE
 70
     0
 10
0.0
 20
0.0
 30
0.0
  3
*MODEL_SPACE
  1

  0
ENDBLK
  5
5
330
2
100
AcDbEntity
  8
0
370
    -1
100
AcDbBlockEnd
  0
BLOCK
  5
6
330
3
100
AcDbEntity
 67
     1
  8
0
370
    -1
100
AcDbBlockBegin
  2
*PAPER_SPACE
 70
     0
 10
0.0
 20
0.0
 30
0.0
  3
*PAPER_SPACE
  1

  0
ENDBLK
  5
7
330
3
100
AcDbEntity
 67
     1
  8
0
370
    -1
100
AcDbBlockEnd
  0
BLOCK
  5
19B4
330
19B3
100
AcDbEntity
  8
0
100
AcDbBlockBegin
  2
Logo 1
 70
     0
 10
0.0
 20
0.0
 30
0.0
  3
Logo 1
  1

  0
LWPOLYLINE
  5
19B5
102
{ACAD_REACTORS
330
19BB
102
}
330
19B3
100
AcDbEntity
  8
TEXT
 62
   150
100
AcDbPolyline
 90
       10
 70
   129
 43
0.0
 10
81.1656171548068
 20
4.210648393650672
 42
-0.3689194771098271
 10
76.23558131004779
 20
0.0
 10
68.31392800642129
 20
0.0
 42
-0.4610063144273185
 10
63.93489616784132
 20
5.127187528193872
 10
68.66628485210936
 20
35.00000000000455
 10
76.11309336274894
 20
35.00000000000455
 10
71.83680386307083
 20
8.00057069422246
 42
0.9999999999999997
 10
74.25832790811796
 20
7.617038963615187
 10
78.59536286629555
 20
35.00000000000455
 10
86.04217137693445
 20
35.00000000000455
  0
LWPOLYLINE
  5
19B6
102
{ACAD_REACTORS
330
19BB
102
}
330
19B3
100
AcDbEntity
  8
TEXT
 62
   150
100
AcDbPolyline
 90
       10
 70
   129
 43
0.0
 10
98.67624649784284
 20
15.3900709219879
 10
94.20816139145995
 20
15.3900709219879
 10
90.2311547924337
 20
-12.90780141844152
 10
82.78434628179434
 20
-12.90780141844152
 10
89.51734868189965
 20
35.00000000000455
 10
101.4322422989223
 20
35.00000000000455
 10
100.5600917289603
 20
28.79432624113861
 10
96.0920066225774
 20
28.79432624113861
 10
95.08031196142088
 20
21.59574468085384
 10
99.5483970678049
 20
21.59574468085384
  0
LWPOLYLINE
  5
19B7
102
{ACAD_REACTORS
330
19BB
102
}
330
19B3
100
AcDbEntity
  8
TEXT
 62
   150
100
AcDbPolyline
 90
        4
 70
   129
 43
0.0
 10
56.51424755928588
 20
29.72143261768178
 42
-0.9325150861376632
 10
56.71616392338251
 20
29.6858293148448
 10
54.90054272448651
 20
12.41134751773211
 10
52.19835861227057
 20
12.41134751773211
  0
LWPOLYLINE
  5
19B8
102
{ACAD_REACTORS
330
19BB
102
}
330
19B3
100
AcDbEntity
  8
TEXT
 62
   150
100
AcDbPolyline
 90
       13
 70
   129
 43
0.0
 10
17.94552447620481
 20
0.0
 10
10.49871596556568
 20
0.0
 10
9.745505716218076
 20
14.37210772240837
 42
0.9083360464535887
 10
9.541114749730923
 20
14.38103162472726
 10
7.519992561310119
 20
0.0
 10
0.0
 20
0.0
 10
7.221406719283323
 20
51.38297872341104
 10
14.74139928059367
 20
51.38297872341104
 10
10.68547740653867
 20
22.52359502440504
 42
0.9004040442978397
 10
10.88381166463228
 20
22.47414473993922
 10
15.44285013802278
 20
35.00000000000455
 10
22.88965864866213
 20
35.00000000000455
 10
16.2515950334689
 20
19.36170212766206
  0
LWPOLYLINE
  5
19B9
102
{ACAD_REACTORS
330
19BB
102
}
330
19B3
100
AcDbEntity
  8
TEXT
 62
   150
100
AcDbPolyline
 90
       12
 70
   129
 43
0.0
 10
30.85332589464633
 20
0.0
 10
30.03269342879412
 20
15.65860025131246
 42
0.9083360464535825
 10
29.82830246230742
 20
15.66752415363135
 10
27.62637554003641
 20
0.0
 10
20.92424788046037
 20
0.0
 10
25.84317709504535
 20
35.00000000000455
 10
33.78643950639412
 20
35.00000000000455
 10
34.24245925957871
 20
21.94130284578455
 42
0.9083360464535891
 10
34.44666335276156
 20
21.9288131884
 10
36.51693596029463
 20
35.00000000000455
 10
43.21906361987044
 20
35.00000000000455
 10
38.30013440528523
 20
0.0
  0
LWPOLYLINE
  5
19BA
102
{ACAD_REACTORS
330
19BB
102
}
330
19B3
100
AcDbEntity
  8
TEXT
 62
   150
100
AcDbPolyline
 90
        8
 70
   129
 43
0.0
 10
53.19375142656418
 20
0.0
 10
53.89817342887682
 20
6.702127659575581
 10
51.14137527540606
 20
6.702127659575353
 10
49.47034717124461
 20
0.0
 10
41.5270847598963
 20
0.0
 10
52.89927412804946
 20
35.00000000000455
 10
62.82835214223564
 20
35.00000000000455
 10
60.99407986732876
 20
0.0
  0
HATCH
  5
19BB
330
19B3
100
AcDbEntity
  8
TEXT
 62
   150
100
AcDbHatch
 10
0.0
 20
0.0
 30
0.0
210
0.0
220
0.0
230
1.0
  2
SOLID
 70
     1
 71
     1
 91
        6
 92
        7
 72
     1
 73
     1
 93
       13
 10
14.74139928059367
 20
51.38297872341104
 42
0.0
 10
7.221406719283324
 20
51.38297872341104
 42
0.0
 10
0.0
 20
0.0
 42
0.0
 10
7.519992561310118
 20
0.0
 42
0.0
 10
9.541114749730923
 20
14.38103162472726
 42
-0.9083360464535878
 10
9.745505716218076
 20
14.37210772240837
 42
0.0
 10
10.49871596556568
 20
0.0
 42
0.0
 10
17.94552447620481
 20
0.0
 42
0.0
 10
16.2515950334689
 20
19.36170212766206
 42
0.0
 10
22.88965864866213
 20
35.00000000000455
 42
0.0
 10
15.44285013802278
 20
35.00000000000455
 42
0.0
 10
10.88381166463228
 20
22.47414473993922
 42
-0.90040404429784
 10
10.68547740653867
 20
22.52359502440504
 42
0.0
 97
        1
330
19B8
 92
        7
 72
     1
 73
     1
 93
       12
 10
33.78643950639412
 20
35.00000000000455
 42
0.0
 10
25.84317709504535
 20
35.00000000000455
 42
0.0
 10
20.92424788046037
 20
0.0
 42
0.0
 10
27.62637554003641
 20
0.0
 42
0.0
 10
29.82830246230742
 20
15.66752415363135
 42
-0.9083360464535852
 10
30.03269342879412
 20
15.65860025131246
 42
0.0
 10
30.85332589464633
 20
0.0
 42
0.0
 10
38.30013440528523
 20
0.0
 42
0.0
 10
43.21906361987044
 20
35.00000000000455
 42
0.0
 10
36.51693596029463
 20
35.00000000000455
 42
0.0
 10
34.44666335276156
 20
21.9288131884
 42
-0.908336046453589
 10
34.24245925957871
 20
21.94130284578455
 42
0.0
 97
        1
330
19B9
 92
        7
 72
     0
 73
     1
 93
        8
 10
62.82835214223564
 20
35.00000000000454
 10
52.89927412804946
 20
35.00000000000455
 10
41.5270847598963
 20
0.0
 10
49.4703471712446
 20
0.0
 10
51.14137527540607
 20
6.702127659575355
 10
53.89817342887682
 20
6.702127659575583
 10
53.19375142656418
 20
0.0
 10
60.99407986732876
 20
0.0
 97
        1
330
19BA
 92
       22
 72
     1
 73
     1
 93
        4
 10
54.90054272448651
 20
12.41134751773211
 42
0.0
 10
52.19835861227057
 20
12.41134751773211
 42
0.0
 10
56.51424755928588
 20
29.72143261768178
 42
-0.932515086136994
 10
56.71616392338252
 20
29.6858293148449
 42
0.0
 97
        1
330
19B7
 92
        7
 72
     1
 73
     1
 93
       10
 10
76.11309336274894
 20
35.00000000000455
 42
0.0
 10
68.66628485210936
 20
35.00000000000455
 42
0.0
 10
63.93489616784132
 20
5.127187528193872
 42
0.4610063144273185
 10
68.31392800642129
 20
0.0
 42
0.0
 10
76.23558131004779
 20
0.0
 42
0.368919477109827
 10
81.1656171548068
 20
4.210648393650672
 42
0.0
 10
86.04217137693446
 20
35.00000000000455
 42
0.0
 10
78.59536286629555
 20
35.00000000000454
 42
0.0
 10
74.25832790811796
 20
7.617038963615187
 42
-1.0
 10
71.83680386307083
 20
8.00057069422246
 42
0.0
 97
        1
330
19B5
 92
        7
 72
     0
 73
     1
 93
       10
 10
94.20816139145994
 20
15.3900709219879
 10
98.67624649784284
 20
15.3900709219879
 10
99.5483970678049
 20
21.59574468085384
 10
95.0803119614209
 20
21.59574468085384
 10
96.09200662257741
 20
28.79432624113861
 10
100.5600917289603
 20
28.79432624113861
 10
101.4322422989223
 20
35.00000000000454
 10
89.51734868189965
 20
35.00000000000455
 10
82.78434628179434
 20
-12.90780141844152
 10
90.23115479243368
 20
-12.90780141844152
 97
        1
330
19B6
 75
     0
 76
     1
 47
0.0485363826760125
 98
        6
 10
9.027989941015448
 20
32.17224855093036
 10
30.1274702443136
 20
27.18436049056459
 10
59.21053836197507
 20
24.19162785648837
 10
59.21053836197507
 20
24.19162785648837
 10
73.46694430200455
 20
21.76893934114742
 10
91.57257972385514
 20
18.20616258833616
  0
ENDBLK
  5
19BC
330
19B3
100
AcDbEntity
  8
0
100
AcDbBlockEnd
  0
BLOCK
  5
6DEB
330
6DEA
100
AcDbEntity
  8
0
370
    -1
100
AcDbBlockBegin
  2
MF
 70
     0
 10
0.0
 20
0.0
 30
0.0
  3
MF
  1

  0
LWPOLYLINE
  5
6DEC
330
6DEA
100
AcDbEntity
  8
DAEMM1
370
    -1
100
AcDbPolyline
 90
        6
 70
   128
 43
0.0
 10
-0.0000138246326344
 20
99.99996292694573
 42
-0.4931452416000104
 10
18.11109005907884
 20
76.39711025665358
 10
0.6388850590789197
 20
23.60286025665366
 42
1.303224807690544
 10
36.86110761042949
 20
23.60283876195408
 10
19.38890461042945
 20
76.39708176195413
 42
-0.4931454423046548
 10
37.50002183820506
 20
99.99993348395076
  0
ENDBLK
  5
6DED
330
6DEA
100
AcDbEntity
  8
0
370
    -1
100
AcDbBlockEnd
  0
BLOCK
  5
6DEF
330
6DEE
100
AcDbEntity
  8
0
100
AcDbBlockBegin
  2
Brio-Schraube-17
 70
     0
 10
0.0
 20
0.0
 30
0.0
  3
Brio-Schraube-17
  1

  0
LINE
  5
6DF0
330
6DEE
100
AcDbEntity
  8
BEPL2
100
AcDbLine
 10
3.033216327024888
 20
-1.579740135587599
 30
0.0
 11
1.216783672975112
 21
-3.295259864412401
 31
0.0
  0
LINE
  5
6DF1
330
6DEE
100
AcDbEntity
  8
BEPL2
100
AcDbLine
 10
1.216783699046459
 20
3.295259743441193
 30
0.0
 11
3.033216300953541
 21
1.579739256558923
 31
0.0
  0
ARC
  5
6DF2
330
6DEE
100
AcDbEntity
  8
BEPL2
100
AcDbCircle
 10
0.7018160232523769
 20
-2.75
 30
0.0
 40
0.75
100
AcDbArc
 50
270.0
 51
313.3634229583874
  0
ARC
  5
6DF3
330
6DEE
100
AcDbEntity
  8
BEPL2
100
AcDbCircle
 10
0.7018159212365163
 20
2.75
 30
0.0
 40
0.75
100
AcDbArc
 50
46.63656358225466
 51
90.0
  0
LINE
  5
6DF4
330
6DEE
100
AcDbEntity
  8
BEPL2
100
AcDbLine
 10
0.7018160232523769
 20
-3.5
 30
0.0
 11
0.0
 21
-3.5
 31
0.0
  0
LINE
  5
6DF5
330
6DEE
100
AcDbEntity
  8
BEPL2
100
AcDbLine
 10
0.7018159212365163
 20
3.5
 30
0.0
 11
0.0
 21
3.5
 31
0.0
  0
LINE
  5
6DF6
330
6DEE
100
AcDbEntity
  8
BEPL2
100
AcDbLine
 10
1.0
 20
3.43817603501725
 30
0.0
 11
1.0
 21
-3.438176079220284
 31
0.0
  0
LINE
  5
6DF7
330
6DEE
100
AcDbEntity
  8
BEPL2
100
AcDbLine
 10
0.0
 20
3.5
 30
0.0
 11
0.0
 21
-3.5
 31
0.0
  0
LINE
  5
6DF8
330
6DEE
100
AcDbEntity
  8
BEPL2
100
AcDbLine
 10
10.83336581457786
 20
1.374999000000116
 30
0.0
 11
12.55877398228074
 21
1.374999000000116
 31
0.0
  0
LINE
  5
6DF9
330
6DEE
100
AcDbEntity
  8
BEPL1
100
AcDbLine
 10
10.72913066105616
 20
1.684999999999945
 30
0.0
 11
11.8622636610562
 21
-1.684999000000062
 31
0.0
  0
LINE
  5
6DFA
330
6DEE
100
AcDbEntity
  8
BEPL1
100
AcDbLine
 10
10.54726666105626
 20
2.0
 30
0.0
 11
11.54726566105614
 21
-1.999999000000116
 31
0.0
  0
LINE
  5
6DFB
330
6DEE
100
AcDbEntity
  8
BEPL1
100
AcDbLine
 10
10.2322666610562
 20
1.684999999999945
 30
0.0
 11
11.36539966105624
 21
-1.68499799999995
 31
0.0
  0
LINE
  5
6DFC
330
6DEE
100
AcDbEntity
  8
BEPL2
100
AcDbLine
 10
11.26116548532855
 20
-1.375
 30
0.0
 11
9.75802918001716
 21
-1.375
 31
0.0
  0
LINE
  5
6DFD
330
6DEE
100
AcDbEntity
  8
BEPL2
100
AcDbLine
 10
9.261165485328547
 20
-1.375
 30
0.0
 11
3.548183976747623
 21
-1.375
 31
0.0
  0
LINE
  5
6DFE
330
6DEE
100
AcDbEntity
  8
BEPL2
100
AcDbLine
 10
8.83336581457786
 20
1.374999000000116
 30
0.0
 11
10.33650184550811
 21
1.374999000000116
 31
0.0
  0
ARC
  5
6DFF
330
6DEE
100
AcDbEntity
  8
BEPL2
100
AcDbCircle
 10
3.548183976747623
 20
-2.125
 30
0.0
 40
0.75
100
AcDbArc
 50
90.0
 51
133.3634229583875
  0
ARC
  5
6E00
330
6DEE
100
AcDbEntity
  8
BEPL2
100
AcDbCircle
 10
3.548184078763484
 20
2.124999000000116
 30
0.0
 40
0.75
100
AcDbArc
 50
226.6365635822547
 51
270.0
  0
LINE
  5
6E01
330
6DEE
100
AcDbEntity
  8
BEPL1
100
AcDbLine
 10
9.54726466105626
 20
-1.999999000000116
 30
0.0
 11
9.862264661056088
 21
-1.68499799999995
 31
0.0
  0
LINE
  5
6E02
330
6DEE
100
AcDbEntity
  8
BEPL1
100
AcDbLine
 10
9.547265661056144
 20
-2.0
 30
0.0
 11
9.365399661056244
 21
-1.684999000000062
 31
0.0
  0
LINE
  5
6E03
330
6DEE
100
AcDbEntity
  8
BEPL1
100
AcDbLine
 10
8.547265661056144
 20
2.0
 30
0.0
 11
8.72913066105616
 21
1.684999999999945
 31
0.0
  0
LINE
  5
6E04
330
6DEE
100
AcDbEntity
  8
BEPL1
100
AcDbLine
 10
8.547266661056256
 20
2.0
 30
0.0
 11
8.232266661056201
 21
1.684999999999945
 31
0.0
  0
LINE
  5
6E05
330
6DEE
100
AcDbEntity
  8
BEPL1
100
AcDbLine
 10
8.547266661056256
 20
2.0
 30
0.0
 11
9.547265661056144
 21
-1.999999000000116
 31
0.0
  0
LINE
  5
6E06
330
6DEE
100
AcDbEntity
  8
BEPL1
100
AcDbLine
 10
8.72913066105616
 20
1.684999999999945
 30
0.0
 11
9.862263661056204
 21
-1.684999000000062
 31
0.0
  0
LINE
  5
6E07
330
6DEE
100
AcDbEntity
  8
BEPL1
100
AcDbLine
 10
8.232266661056201
 20
1.684999999999945
 30
0.0
 11
9.365399661056244
 21
-1.68499799999995
 31
0.0
  0
LINE
  5
6E08
330
6DEE
100
AcDbEntity
  8
BEPL1
100
AcDbLine
 10
10.54726566105614
 20
2.0
 30
0.0
 11
10.72913066105616
 21
1.684999999999945
 31
0.0
  0
LINE
  5
6E09
330
6DEE
100
AcDbEntity
  8
BEPL1
100
AcDbLine
 10
10.54726666105626
 20
2.0
 30
0.0
 11
10.2322666610562
 21
1.684999999999945
 31
0.0
  0
LINE
  5
6E0A
330
6DEE
100
AcDbEntity
  8
BEPL2
100
AcDbLine
 10
3.548184078763484
 20
1.374999000000116
 30
0.0
 11
8.33650184550811
 21
1.374999000000116
 31
0.0
  0
LINE
  5
6E0B
330
6DEE
100
AcDbEntity
  8
BEPL2
100
AcDbLine
 10
15.04600030189727
 20
-0.7676429593975627
 30
0.0
 11
13.92425868984242
 21
-1.208327003884506
 31
0.0
  0
LINE
  5
6E0C
330
6DEE
100
AcDbEntity
  8
BEPL2
100
AcDbLine
 10
14.45120436705679
 20
1.001311705971148
 30
0.0
 11
13.5
 21
1.374999000000116
 31
0.0
  0
LINE
  5
6E0D
330
6DEE
100
AcDbEntity
  8
BEPL2
100
AcDbLine
 10
13.0556376769697
 20
1.374999000000116
 30
0.0
 11
13.5
 21
1.374999000000116
 31
0.0
  0
LINE
  5
6E0E
330
6DEE
100
AcDbEntity
  8
BEPL1
100
AcDbLine
 10
15.29391191425225
 20
-1.279067062503373
 30
0.0
 11
15.6089139142523
 21
-0.9640640625034393
 31
0.0
  0
LINE
  5
6E0F
330
6DEE
100
AcDbEntity
  8
BEPL1
100
AcDbLine
 10
15.29392291425222
 20
-1.27907506250358
 30
0.0
 11
15.1120579142522
 21
-0.9640740625034141
 31
0.0
  0
LINE
  5
6E10
330
6DEE
100
AcDbEntity
  8
BEPL1
100
AcDbLine
 10
14.76566591425228
 20
1.317931937496724
 30
0.0
 11
14.94753191425229
 21
1.002932937496553
 31
0.0
  0
LINE
  5
6E11
330
6DEE
100
AcDbEntity
  8
BEPL1
100
AcDbLine
 10
14.76566491425228
 20
1.317935937496713
 30
0.0
 11
14.45066191425224
 21
1.002933937496437
 31
0.0
  0
LINE
  5
6E12
330
6DEE
100
AcDbEntity
  8
BEPL1
100
AcDbLine
 10
14.94753091425218
 20
1.002933937496437
 30
0.0
 11
15.60891891425229
 21
-0.9640720625034191
 31
0.0
  0
LINE
  5
6E13
330
6DEE
100
AcDbEntity
  8
BEPL1
100
AcDbLine
 10
14.45065991425224
 20
1.002930937496558
 30
0.0
 11
15.11204791425223
 21
-0.9640720625034191
 31
0.0
  0
LINE
  5
6E14
330
6DEE
100
AcDbEntity
  8
BEPL1
100
AcDbLine
 10
14.76566191425229
 20
1.317933937496491
 30
0.0
 11
15.29391791425223
 21
-1.279072062503474
 31
0.0
  0
LINE
  5
6E15
330
6DEE
100
AcDbEntity
  8
BEPL2
100
AcDbLine
 10
17.0
 20
-0.0000004999999419
 30
0.0
 11
15.48489568482717
 21
-0.595219835945727
 31
0.0
  0
LINE
  5
6E16
330
6DEE
100
AcDbEntity
  8
BEPL2
100
AcDbLine
 10
17.0
 20
-0.0000004999999419
 30
0.0
 11
15.02369996162963
 21
0.7764028041740403
 31
0.0
  0
LINE
  5
6E17
330
6DEE
100
AcDbEntity
  8
BEPL1
100
AcDbLine
 10
12.95140252344811
 20
1.684999999999945
 30
0.0
 11
14.08453552344815
 21
-1.684999000000062
 31
0.0
  0
LINE
  5
6E18
330
6DEE
100
AcDbEntity
  8
BEPL1
100
AcDbLine
 10
13.76953752344821
 20
-1.999999000000116
 30
0.0
 11
13.58767252344819
 21
-1.684999000000062
 31
0.0
  0
LINE
  5
6E19
330
6DEE
100
AcDbEntity
  8
BEPL1
100
AcDbLine
 10
13.7695355234481
 20
-1.999999000000116
 30
0.0
 11
14.08453652344815
 21
-1.68499799999995
 31
0.0
  0
LINE
  5
6E1A
330
6DEE
100
AcDbEntity
  8
BEPL1
100
AcDbLine
 10
11.54726566105614
 20
-2.0
 30
0.0
 11
11.36539966105624
 21
-1.684999000000062
 31
0.0
  0
LINE
  5
6E1B
330
6DEE
100
AcDbEntity
  8
BEPL1
100
AcDbLine
 10
11.54726466105626
 20
-1.999999000000116
 30
0.0
 11
11.86226466105609
 21
-1.68499799999995
 31
0.0
  0
LINE
  5
6E1C
330
6DEE
100
AcDbEntity
  8
BEPL1
100
AcDbLine
 10
12.45453852344815
 20
1.685001000000057
 30
0.0
 11
13.58767152344819
 21
-1.684999000000062
 31
0.0
  0
LINE
  5
6E1D
330
6DEE
100
AcDbEntity
  8
BEPL1
100
AcDbLine
 10
12.7695385234482
 20
2.0
 30
0.0
 11
12.45453852344815
 21
1.684999999999945
 31
0.0
  0
LINE
  5
6E1E
330
6DEE
100
AcDbEntity
  8
BEPL1
100
AcDbLine
 10
12.76953752344821
 20
2.0
 30
0.0
 11
12.95140252344811
 21
1.684999999999945
 31
0.0
  0
LINE
  5
6E1F
330
6DEE
100
AcDbEntity
  8
BEPL1
100
AcDbLine
 10
12.7695385234482
 20
2.0
 30
0.0
 11
13.76953752344821
 21
-2.0
 31
0.0
  0
LINE
  5
6E20
330
6DEE
100
AcDbEntity
  8
BEPL2
100
AcDbLine
 10
13.48343707333925
 20
-1.375
 30
0.0
 11
11.75802918001716
 21
-1.375
 31
0.0
  0
ENDBLK
  5
6E21
330
6DEE
100
AcDbEntity
  8
0
100
AcDbBlockEnd
  0
BLOCK
  5
7999
330
7998
100
AcDbEntity
  8
0
370
    -1
100
AcDbBlockBegin
  2
TN25
 70
     0
 10
0.0
 20
0.0
 30
0.0
  3
TN25
  1

  0
LINE
  5
799A
330
7998
100
AcDbEntity
  8
BEPL2
100
AcDbLine
 10
0.0
 20
4.25
 30
0.0
 11
0.0
 21
-4.25
 31
0.0
  0
LINE
  5
799B
330
7998
100
AcDbEntity
  8
BEPL2
100
AcDbLine
 10
1.0
 20
4.25
 30
0.0
 11
1.0
 21
-4.25
 31
0.0
  0
ARC
  5
799C
330
7998
100
AcDbEntity
  8
BEPL2
100
AcDbCircle
 10
5.580636000000027
 20
-6.043615999999929
 30
0.0
 40
4.919277
100
AcDbArc
 50
90.939158
 51
158.616386
  0
LINE
  5
799D
330
7998
100
AcDbEntity
  8
BEPL2
100
AcDbLine
 10
0.0
 20
-4.25
 30
0.0
 11
1.0
 21
-4.25
 31
0.0
  0
LINE
  5
799E
330
7998
100
AcDbEntity
  8
BEPL2
100
AcDbLine
 10
17.42982607214656
 20
-1.125
 30
0.0
 11
15.32670018244454
 21
-1.125
 31
0.0
  0
LINE
  5
799F
330
7998
100
AcDbEntity
  8
BEPL2
100
AcDbLine
 10
14.57015749003803
 20
1.124999000000116
 30
0.0
 11
16.67328293657805
 21
1.124999000000116
 31
0.0
  0
LINE
  5
79A0
330
7998
100
AcDbEntity
  8
BEPL2
100
AcDbLine
 10
9.629838016272666
 20
-1.125
 30
0.0
 11
5.5
 21
-1.125
 31
0.0
  0
LINE
  5
79A1
330
7998
100
AcDbEntity
  8
BEPL2
100
AcDbLine
 10
5.5
 20
1.124999000000116
 30
0.0
 11
8.873294656210478
 21
1.124999000000116
 31
0.0
  0
ARC
  5
79A2
330
7998
100
AcDbEntity
  8
BEPL2
100
AcDbCircle
 10
5.580636000000027
 20
6.043615999999929
 30
0.0
 40
4.919277
100
AcDbArc
 50
201.383669
 51
269.060897
  0
LINE
  5
79A3
330
7998
100
AcDbEntity
  8
BEPL2
100
AcDbLine
 10
0.0
 20
4.25
 30
0.0
 11
1.0
 21
4.25
 31
0.0
  0
LINE
  5
79A4
330
7998
100
AcDbEntity
  8
BEPL2
100
AcDbLine
 10
12.22983746281216
 20
-1.125
 30
0.0
 11
10.12670218244451
 21
-1.125
 31
0.0
  0
LINE
  5
79A5
330
7998
100
AcDbEntity
  8
BEPL1
100
AcDbLine
 10
11.59999900000003
 20
2.0
 30
0.0
 11
11.28499899999997
 21
1.684999999999945
 31
0.0
  0
LINE
  5
79A6
330
7998
100
AcDbEntity
  8
BEPL1
100
AcDbLine
 10
11.28499899999997
 20
1.684999999999945
 30
0.0
 11
12.41813200000001
 21
-1.68499799999995
 31
0.0
  0
LINE
  5
79A7
330
7998
100
AcDbEntity
  8
BEPL1
100
AcDbLine
 10
9.0
 20
2.0
 30
0.0
 11
9.999998000000005
 21
-1.999999000000116
 31
0.0
  0
LINE
  5
79A8
330
7998
100
AcDbEntity
  8
BEPL1
100
AcDbLine
 10
8.999998000000005
 20
2.0
 30
0.0
 11
9.181863000000021
 21
1.684999999999945
 31
0.0
  0
LINE
  5
79A9
330
7998
100
AcDbEntity
  8
BEPL1
100
AcDbLine
 10
8.999999000000003
 20
2.0
 30
0.0
 11
8.684998999999948
 21
1.684999999999945
 31
0.0
  0
LINE
  5
79AA
330
7998
100
AcDbEntity
  8
BEPL1
100
AcDbLine
 10
8.684998999999948
 20
1.684999999999945
 30
0.0
 11
9.818132999999989
 21
-1.684999000000062
 31
0.0
  0
LINE
  5
79AB
330
7998
100
AcDbEntity
  8
BEPL2
100
AcDbLine
 10
9.370159490038077
 20
1.124999000000116
 30
0.0
 11
11.47329454591212
 21
1.124999000000116
 31
0.0
  0
LINE
  5
79AC
330
7998
100
AcDbEntity
  8
BEPL1
100
AcDbLine
 10
9.999997000000008
 20
-1.999999000000116
 30
0.0
 11
10.31499799999995
 21
-1.68499799999995
 31
0.0
  0
LINE
  5
79AD
330
7998
100
AcDbEntity
  8
BEPL1
100
AcDbLine
 10
9.999999000000003
 20
-1.999999000000116
 30
0.0
 11
9.818132999999989
 21
-1.68499799999995
 31
0.0
  0
LINE
  5
79AE
330
7998
100
AcDbEntity
  8
BEPL1
100
AcDbLine
 10
9.181864000000019
 20
1.684999999999945
 30
0.0
 11
10.31499699999995
 21
-1.684999000000062
 31
0.0
  0
LINE
  5
79AF
330
7998
100
AcDbEntity
  8
BEPL1
100
AcDbLine
 10
11.59999900000003
 20
2.0
 30
0.0
 11
12.59999800000003
 21
-1.999999000000116
 31
0.0
  0
LINE
  5
79B0
330
7998
100
AcDbEntity
  8
BEPL1
100
AcDbLine
 10
11.59999800000003
 20
2.0
 30
0.0
 11
11.78186300000004
 21
1.684999999999945
 31
0.0
  0
LINE
  5
79B1
330
7998
100
AcDbEntity
  8
BEPL1
100
AcDbLine
 10
14.19999800000005
 20
2.0
 30
0.0
 11
15.19999700000005
 21
-2.0
 31
0.0
  0
LINE
  5
79B2
330
7998
100
AcDbEntity
  8
BEPL1
100
AcDbLine
 10
14.19999700000005
 20
2.0
 30
0.0
 11
14.38186199999996
 21
1.684999999999945
 31
0.0
  0
LINE
  5
79B3
330
7998
100
AcDbEntity
  8
BEPL1
100
AcDbLine
 10
14.19999800000005
 20
2.0
 30
0.0
 11
13.884998
 21
1.684999999999945
 31
0.0
  0
LINE
  5
79B4
330
7998
100
AcDbEntity
  8
BEPL2
100
AcDbLine
 10
14.82983623831842
 20
-1.125
 30
0.0
 11
12.72670118244453
 21
-1.125
 31
0.0
  0
LINE
  5
79B5
330
7998
100
AcDbEntity
  8
BEPL2
100
AcDbLine
 10
11.9701584900381
 20
1.124999000000116
 30
0.0
 11
14.07329377040532
 21
1.124999000000116
 31
0.0
  0
LINE
  5
79B6
330
7998
100
AcDbEntity
  8
BEPL1
100
AcDbLine
 10
13.884998
 20
1.685001000000057
 30
0.0
 11
15.01813100000004
 21
-1.684999000000062
 31
0.0
  0
LINE
  5
79B7
330
7998
100
AcDbEntity
  8
BEPL1
100
AcDbLine
 10
12.59999700000003
 20
-1.999999000000116
 30
0.0
 11
12.91499699999997
 21
-1.68499799999995
 31
0.0
  0
LINE
  5
79B8
330
7998
100
AcDbEntity
  8
BEPL1
100
AcDbLine
 10
12.59999800000003
 20
-2.0
 30
0.0
 11
12.41813200000001
 21
-1.684999000000062
 31
0.0
  0
LINE
  5
79B9
330
7998
100
AcDbEntity
  8
BEPL1
100
AcDbLine
 10
11.78186300000004
 20
1.684999999999945
 30
0.0
 11
12.91499599999997
 21
-1.684999000000062
 31
0.0
  0
LINE
  5
79BA
330
7998
100
AcDbEntity
  8
BEPL1
100
AcDbLine
 10
15.19999499999994
 20
-1.999999000000116
 30
0.0
 11
15.514996
 21
-1.68499799999995
 31
0.0
  0
LINE
  5
79BB
330
7998
100
AcDbEntity
  8
BEPL1
100
AcDbLine
 10
15.19999700000005
 20
-1.999999000000116
 30
0.0
 11
15.01813200000004
 21
-1.684999000000062
 31
0.0
  0
LINE
  5
79BC
330
7998
100
AcDbEntity
  8
BEPL1
100
AcDbLine
 10
14.38186199999996
 20
1.684999999999945
 30
0.0
 11
15.514995
 21
-1.684999000000062
 31
0.0
  0
LINE
  5
79BD
330
7998
100
AcDbEntity
  8
BEPL2
100
AcDbLine
 10
22.58966134161892
 20
-0.5768308736935506
 30
0.0
 11
24.3717139656834
 21
-0.3540736521663226
 31
0.0
  0
LINE
  5
79BE
330
7998
100
AcDbEntity
  8
BEPL2
100
AcDbLine
 10
22.18473333635185
 20
0.6274483329569781
 30
0.0
 11
24.12315757110686
 21
0.3851453036131258
 31
0.0
  0
LINE
  5
79BF
330
7998
100
AcDbEntity
  8
BEPL2
100
AcDbLine
 10
18.20431199999998
 20
1.125000999999884
 30
0.0
 11
19.20898253808468
 21
0.9994171827395688
 31
0.0
  0
LINE
  5
79C0
330
7998
100
AcDbEntity
  8
BEPL2
100
AcDbLine
 10
18.20429700000002
 20
-1.125003000000106
 30
0.0
 11
19.85396477894982
 21
-0.9187939319178646
 31
0.0
  0
LINE
  5
79C1
330
7998
100
AcDbEntity
  8
BEPL1
100
AcDbLine
 10
16.79996499999995
 20
1.999996999999894
 30
0.0
 11
17.79996399999995
 21
-2.000003000000106
 31
0.0
  0
LINE
  5
79C2
330
7998
100
AcDbEntity
  8
BEPL1
100
AcDbLine
 10
16.79997600000004
 20
2.0
 30
0.0
 11
16.98184100000005
 21
1.684999000000062
 31
0.0
  0
LINE
  5
79C3
330
7998
100
AcDbEntity
  8
BEPL1
100
AcDbLine
 10
16.79997800000003
 20
2.0
 30
0.0
 11
16.48497699999998
 21
1.684999999999945
 31
0.0
  0
LINE
  5
79C4
330
7998
100
AcDbEntity
  8
BEPL2
100
AcDbLine
 10
17.17013649003811
 20
1.124999000000116
 30
0.0
 11
18.20433700000003
 21
1.124999000000116
 31
0.0
  0
LINE
  5
79C5
330
7998
100
AcDbEntity
  8
BEPL2
100
AcDbLine
 10
18.20432099999996
 20
-1.125
 30
0.0
 11
17.92667918244454
 21
-1.125
 31
0.0
  0
LINE
  5
79C6
330
7998
100
AcDbEntity
  8
BEPL1
100
AcDbLine
 10
17.79997500000004
 20
-1.999999000000116
 30
0.0
 11
18.11497499999998
 21
-1.68499799999995
 31
0.0
  0
LINE
  5
79C7
330
7998
100
AcDbEntity
  8
BEPL1
100
AcDbLine
 10
17.79997700000003
 20
-1.999999000000116
 30
0.0
 11
17.61811100000002
 21
-1.68499799999995
 31
0.0
  0
LINE
  5
79C8
330
7998
100
AcDbEntity
  8
BEPL1
100
AcDbLine
 10
16.98184100000005
 20
1.684999999999945
 30
0.0
 11
18.11497399999998
 21
-1.684999000000062
 31
0.0
  0
LINE
  5
79C9
330
7998
100
AcDbEntity
  8
BEPL1
100
AcDbLine
 10
16.48497
 20
1.68499799999995
 30
0.0
 11
17.61810300000004
 21
-1.685001000000057
 31
0.0
  0
LINE
  5
79CA
330
7998
100
AcDbEntity
  8
BEPL1
100
AcDbLine
 10
19.36466999999995
 20
1.788227000000006
 30
0.0
 11
19.54653499999997
 21
1.473226999999952
 31
0.0
  0
LINE
  5
79CB
330
7998
100
AcDbEntity
  8
BEPL1
100
AcDbLine
 10
19.36467299999995
 20
1.788227000000006
 30
0.0
 11
19.04967100000001
 21
1.473224999999957
 31
0.0
  0
LINE
  5
79CC
330
7998
100
AcDbEntity
  8
BEPL1
100
AcDbLine
 10
19.36466299999997
 20
1.788227000000006
 30
0.0
 11
20.17559499999995
 21
-1.649475000000166
 31
0.0
  0
LINE
  5
79CD
330
7998
100
AcDbEntity
  8
BEPL2
100
AcDbLine
 10
20.33077915529955
 20
-0.8591919626911354
 30
0.0
 11
22.11283144951324
 21
-0.6364347823953761
 31
0.0
  0
LINE
  5
79CE
330
7998
100
AcDbEntity
  8
BEPL2
100
AcDbLine
 10
19.72763694154577
 20
0.9345853823070731
 30
0.0
 11
21.66606165339313
 21
0.6922822933266776
 31
0.0
  0
LINE
  5
79CF
330
7998
100
AcDbEntity
  8
BEPL1
100
AcDbLine
 10
20.17560300000005
 20
-1.64947200000006
 30
0.0
 11
20.49060299999999
 21
-1.334471000000121
 31
0.0
  0
LINE
  5
79D0
330
7998
100
AcDbEntity
  8
BEPL1
100
AcDbLine
 10
20.17559499999995
 20
-1.64948000000004
 30
0.0
 11
19.99372900000005
 21
-1.334479999999985
 31
0.0
  0
LINE
  5
79D1
330
7998
100
AcDbEntity
  8
BEPL1
100
AcDbLine
 10
19.546524
 20
1.473224999999957
 30
0.0
 11
20.49059000000002
 21
-1.33447799999999
 31
0.0
  0
LINE
  5
79D2
330
7998
100
AcDbEntity
  8
BEPL1
100
AcDbLine
 10
19.04966800000002
 20
1.473226999999952
 30
0.0
 11
19.99373200000004
 21
-1.334468999999899
 31
0.0
  0
LINE
  5
79D3
330
7998
100
AcDbEntity
  8
BEPL1
100
AcDbLine
 10
21.87661400000004
 20
1.31793400000015
 30
0.0
 11
22.05848000000005
 21
1.002934999999979
 31
0.0
  0
LINE
  5
79D4
330
7998
100
AcDbEntity
  8
BEPL1
100
AcDbLine
 10
21.87661300000004
 20
1.31793800000014
 30
0.0
 11
21.56160999999999
 21
1.002935999999863
 31
0.0
  0
LINE
  5
79D5
330
7998
100
AcDbEntity
  8
BEPL1
100
AcDbLine
 10
22.40486000000001
 20
-1.279064999999946
 30
0.0
 11
22.71986200000006
 21
-0.9640620000000126
 31
0.0
  0
LINE
  5
79D6
330
7998
100
AcDbEntity
  8
BEPL1
100
AcDbLine
 10
22.40487099999998
 20
-1.279073000000153
 30
0.0
 11
22.22300599999996
 21
-0.9640719999999874
 31
0.0
  0
LINE
  5
79D7
330
7998
100
AcDbEntity
  8
BEPL1
100
AcDbLine
 10
22.05847899999994
 20
1.002935999999863
 30
0.0
 11
22.71986700000004
 21
-0.9640699999999924
 31
0.0
  0
LINE
  5
79D8
330
7998
100
AcDbEntity
  8
BEPL1
100
AcDbLine
 10
21.561608
 20
1.002932999999985
 30
0.0
 11
22.22299599999999
 21
-0.9640699999999924
 31
0.0
  0
LINE
  5
79D9
330
7998
100
AcDbEntity
  8
BEPL1
100
AcDbLine
 10
21.87661000000005
 20
1.317935999999918
 30
0.0
 11
22.40486599999999
 21
-1.279070000000047
 31
0.0
  0
LINE
  5
79DA
330
7998
100
AcDbEntity
  8
BEPL2
100
AcDbLine
 10
24.84852790930362
 20
-0.294471737030939
 30
0.0
 11
27.20430749999123
 21
0.000001562503414
 31
0.0
  0
LINE
  5
79DB
330
7998
100
AcDbEntity
  8
BEPL2
100
AcDbLine
 10
24.64181187769133
 20
0.3203135152902075
 30
0.0
 11
27.20430749999123
 21
0.000001562503414
 31
0.0
  0
LINE
  5
79DC
330
7998
100
AcDbEntity
  8
BEPL1
100
AcDbLine
 10
24.38856000000001
 20
0.8476399999999558
 30
0.0
 11
24.57042600000002
 21
0.5326399999999012
 31
0.0
  0
LINE
  5
79DD
330
7998
100
AcDbEntity
  8
BEPL1
100
AcDbLine
 10
24.38855900000001
 20
0.8476409999998396
 30
0.0
 11
24.07355699999996
 21
0.5326390000000174
 31
0.0
  0
LINE
  5
79DE
330
7998
100
AcDbEntity
  8
BEPL1
100
AcDbLine
 10
24.64731499999996
 20
-0.9478759999999511
 30
0.0
 11
24.96231700000001
 21
-0.6328739999999016
 31
0.0
  0
LINE
  5
79DF
330
7998
100
AcDbEntity
  8
BEPL1
100
AcDbLine
 10
24.64732800000004
 20
-0.9478810000000522
 30
0.0
 11
24.46546200000002
 21
-0.6328800000001138
 31
0.0
  0
LINE
  5
79E0
330
7998
100
AcDbEntity
  8
BEPL1
100
AcDbLine
 10
24.57041900000004
 20
0.5326399999999012
 30
0.0
 11
24.96231600000001
 21
-0.6328840000001037
 31
0.0
  0
LINE
  5
79E1
330
7998
100
AcDbEntity
  8
BEPL1
100
AcDbLine
 10
24.07356300000006
 20
0.5326420000001235
 30
0.0
 11
24.46545900000003
 21
-0.6328760000001239
 31
0.0
  0
LINE
  5
79E2
330
7998
100
AcDbEntity
  8
BEPL1
100
AcDbLine
 10
24.388562
 20
0.8476430000000619
 30
0.0
 11
24.64732500000004
 21
-0.9478789999998298
 31
0.0
  0
ENDBLK
  5
79E3
330
7998
100
AcDbEntity
  8
0
370
    -1
100
AcDbBlockEnd
  0
BLOCK
  5
79E5
330
79E4
100
AcDbEntity
  8
0
370
    -1
100
AcDbBlockBegin
  2
TRENNWK
 70
     0
 10
0.0
 20
0.0
 30
0.0
  3
TRENNWK
  1

  0
LINE
  5
79E6
330
79E4
100
AcDbEntity
  8
UK1
100
AcDbLine
 10
-3.0
 20
4.37424176719469
 30
0.0
 11
0.0
 21
7.37424176719469
 31
0.0
  0
LINE
  5
79E7
330
79E4
100
AcDbEntity
  8
UK1
100
AcDbLine
 10
0.0
 20
3.705553146381135
 30
0.0
 11
-3.0
 21
6.705553146381135
 31
0.0
  0
LINE
  5
79E8
330
79E4
100
AcDbEntity
  8
UK1
100
AcDbLine
 10
0.0
 20
6.180426880534014
 30
0.0
 11
-3.0
 21
9.180426880534014
 31
0.0
  0
LINE
  5
79E9
330
79E4
100
AcDbEntity
  8
UK1
100
AcDbLine
 10
-3.0
 20
10.0
 30
0.0
 11
-3.0
 21
0.0
 31
0.0
  0
LINE
  5
79EA
330
79E4
100
AcDbEntity
  8
UK1
100
AcDbLine
 10
0.0
 20
10.0
 30
0.0
 11
0.0
 21
0.0
 31
0.0
  0
LINE
  5
79EB
330
79E4
100
AcDbEntity
  8
UK1
100
AcDbLine
 10
0.0
 20
1.230679412228255
 30
0.0
 11
-3.0
 21
4.230679412228255
 31
0.0
  0
LINE
  5
79EC
330
79E4
100
AcDbEntity
  8
UK1
100
AcDbLine
 10
-2.424494298888931
 20
0.0
 30
0.0
 11
0.0
 21
2.424494298888931
 31
0.0
  0
LINE
  5
79ED
330
79E4
100
AcDbEntity
  8
UK1
100
AcDbLine
 10
0.0
 20
0.0
 30
0.0
 11
-3.0
 21
0.0
 31
0.0
  0
LINE
  5
79EE
330
79E4
100
AcDbEntity
  8
UK1
100
AcDbLine
 10
-1.244194321924738
 20
0.0
 30
0.0
 11
-3.0
 21
1.755805678075376
 31
0.0
  0
LINE
  5
79EF
330
79E4
100
AcDbEntity
  8
UK1
100
AcDbLine
 10
-3.0
 20
1.89936803304181
 30
0.0
 11
0.0
 21
4.89936803304181
 31
0.0
  0
LINE
  5
79F0
330
79E4
100
AcDbEntity
  8
UK1
100
AcDbLine
 10
0.0
 20
10.0
 30
0.0
 11
-3.0
 21
10.0
 31
0.0
  0
LINE
  5
79F1
330
79E4
100
AcDbEntity
  8
UK1
100
AcDbLine
 10
-3.0
 20
6.849115501347569
 30
0.0
 11
0.0
 21
9.849115501347569
 31
0.0
  0
LINE
  5
79F2
330
79E4
100
AcDbEntity
  8
UK1
100
AcDbLine
 10
0.0
 20
8.655300614686894
 30
0.0
 11
-1.344699385312992
 21
10.0
 31
0.0
  0
LINE
  5
79F3
330
79E4
100
AcDbEntity
  8
UK1
100
AcDbLine
 10
-3.0
 20
9.323989235500676
 30
0.0
 11
-2.323989235500562
 21
10.0
 31
0.0
  0
ENDBLK
  5
79F4
330
79E4
100
AcDbEntity
  8
0
370
    -1
100
AcDbBlockEnd
  0
BLOCK
  5
79F6
330
79F5
100
AcDbEntity
  8
0
370
    -1
100
AcDbBlockBegin
  2
UW50
 70
     0
 10
0.0
 20
0.0
 30
0.0
  3
UW50
  1

  0
LWPOLYLINE
  5
79F7
330
79F5
100
AcDbEntity
  8
UK3
100
AcDbPolyline
 90
       18
 70
   128
 43
2.0
 10
39.19996600000013
 20
23.99999199999684
 10
2.25
 20
23.99999199999684
 42
0.414213562373095
 10
1.0
 20
22.74999199999684
 10
1.0
 20
17.14908312259263
 42
0.247528548065993
 10
1.543999499998563
 20
16.11754868593596
 42
-0.2475285480660066
 10
2.087998999999854
 20
15.08601424928281
 10
2.087999000000082
 20
11.58666788061657
 42
-0.2475285480660536
 10
1.543999500001064
 20
10.55513344396002
 42
0.2475285480659929
 10
1.0
 20
9.52359900730687
 10
1.0
 20
-9.523599007306984
 42
0.247528548065993
 10
1.54399949999879
 20
-10.55513344396365
 42
-0.2475285480660171
 10
2.087998999999854
 20
-11.5866678806168
 10
2.087998999999854
 20
-15.08601424926962
 42
-0.247528548067697
 10
1.543999500007658
 20
-16.11754868594994
 42
0.247528548067693
 10
1.0
 20
-17.14908312260764
 10
1.0
 20
-22.7499920000032
 42
0.414213562373095
 10
2.25
 20
-23.9999920000032
 10
39.19996600000013
 20
-23.9999920000032
  0
ENDBLK
  5
79F8
330
79F5
100
AcDbEntity
  8
0
370
    -1
100
AcDbBlockEnd
  0
BLOCK
  5
79FA
330
79F9
100
AcDbEntity
  8
0
100
AcDbBlockBegin
  2
gfas-18
 70
     0
 10
0.0
 20
0.0
 30
0.0
  3
gfas-18
  1

  0
LWPOLYLINE
  5
8FC2
330
79F9
100
AcDbEntity
  8
RAST3
 62
    31
100
AcDbPolyline
 90
        3
 70
   128
 43
0.0
 10
29.15577576624082
 20
7.476900260246111
 10
28.73819307133385
 20
7.560379851153812
 10
28.90523077125818
 20
7.769071481161063
1001
AcDbBlockRepETag
1070
     1
1071
        0
1005
8FC2
  0
LWPOLYLINE
  5
8FC3
330
79F9
100
AcDbEntity
  8
RAST3
 62
    31
100
AcDbPolyline
 90
        3
 70
   128
 43
0.0
 10
26.39885824456587
 20
15.11178892658495
 10
25.98127554965868
 20
15.19526851749265
 10
26.14831324958323
 20
15.4039601474999
1001
AcDbBlockRepETag
1070
     1
1071
        1
1005
8FC3
  0
LWPOLYLINE
  5
8FC4
330
79F9
100
AcDbEntity
  8
RAST3
 62
    31
100
AcDbPolyline
 90
        3
 70
   128
 43
0.0
 10
27.68521917690055
 20
2.859103418884615
 10
27.26763648199335
 20
2.942583009792315
 10
27.4346741819179
 20
3.151274639799567
1001
AcDbBlockRepETag
1070
     1
1071
        2
1005
8FC4
  0
LWPOLYLINE
  5
8FC5
330
79F9
100
AcDbEntity
  8
RAST3
 62
    31
100
AcDbPolyline
 90
        3
 70
   128
 43
0.0
 10
30.27818571164744
 20
11.1762369519804
 10
29.86060301674047
 20
11.2597165428881
 10
30.02764071666479
 20
11.46840817289535
1001
AcDbBlockRepETag
1070
     1
1071
        3
1005
8FC5
  0
LWPOLYLINE
  5
8FC6
330
79F9
100
AcDbEntity
  8
RAST3
 62
    31
100
AcDbPolyline
 90
        3
 70
   128
 43
0.0
 10
35.31127789316406
 20
14.27433625631306
 10
34.89369519825686
 20
14.35781584722076
 10
35.06073289818141
 20
14.56650747722801
1001
AcDbBlockRepETag
1070
     1
1071
        4
1005
8FC6
  0
LWPOLYLINE
  5
8FC7
330
79F9
100
AcDbEntity
  8
RAST3
 62
    31
100
AcDbPolyline
 90
        3
 70
   128
 43
0.0
 10
34.68050370678975
 20
6.091127484660092
 10
34.26292101188255
 20
6.174607075567792
 10
34.4299587118071
 20
6.383298705575044
1001
AcDbBlockRepETag
1070
     1
1071
        5
1005
8FC7
  0
LWPOLYLINE
  5
8FC8
330
79F9
100
AcDbEntity
  8
RAST3
 62
    31
100
AcDbPolyline
 90
        3
 70
   128
 43
0.0
 10
30.48494931899063
 20
16.17066295249469
 10
30.06736662408343
 20
16.25414254340239
 10
30.23440432400798
 20
16.46283417340965
1001
AcDbBlockRepETag
1070
     1
1071
        6
1005
8FC8
  0
LWPOLYLINE
  5
8FC9
330
79F9
100
AcDbEntity
  8
RAST3
 62
    31
100
AcDbPolyline
 90
        3
 70
   128
 43
0.0
 10
33.81435771917586
 20
1.875862375105271
 10
33.39677502426889
 20
1.959341966012971
 10
33.56381272419321
 20
2.168033596020223
1001
AcDbBlockRepETag
1070
     1
1071
        7
1005
8FC9
  0
LWPOLYLINE
  5
8FCA
330
79F9
100
AcDbEntity
  8
RAST3
 62
    31
100
AcDbPolyline
 90
        3
 70
   128
 43
0.0
 10
38.58146204203376
 20
9.81741879703668
 10
38.16387934712657
 20
9.90089838794438
 10
38.33091704705112
 20
10.10959001795163
1001
AcDbBlockRepETag
1070
     1
1071
        8
1005
8FCA
  0
LWPOLYLINE
  5
8FCB
330
79F9
100
AcDbEntity
  8
RAST3
 62
    31
100
AcDbPolyline
 90
        3
 70
   128
 43
0.0
 10
41.00284891636625
 20
6.186993916091978
 10
40.58526622145905
 20
6.270473506999679
 10
40.7523039213836
 20
6.47916513700693
1001
AcDbBlockRepETag
1070
     1
1071
        9
1005
8FCB
  0
LWPOLYLINE
  5
8FCC
330
79F9
100
AcDbEntity
  8
RAST3
 62
    31
100
AcDbPolyline
 90
        3
 70
   128
 43
0.0
 10
40.24616624212649
 20
16.01939453301679
 10
39.8285835472193
 20
16.10287412392449
 10
39.99562124714384
 20
16.31156575393175
1001
AcDbBlockRepETag
1070
     1
1071
       10
1005
8FCC
  0
LWPOLYLINE
  5
8FCD
330
79F9
100
AcDbEntity
  8
RAST3
 62
    31
100
AcDbPolyline
 90
        3
 70
   128
 43
0.0
 10
42.21354428417044
 20
1.57332799136725
 10
41.79596158926324
 20
1.656807582274951
 10
41.96299928918779
 20
1.865499212282202
1001
AcDbBlockRepETag
1070
     1
1071
       11
1005
8FCD
  0
LWPOLYLINE
  5
8FCE
330
79F9
100
AcDbEntity
  8
RAST3
 62
    31
100
AcDbPolyline
 90
        3
 70
   128
 43
0.0
 10
8.843802440337186
 20
10.95192580507637
 10
8.426219745430217
 20
11.03540539598407
 10
8.593257445354539
 20
11.24409702599132
1001
AcDbBlockRepETag
1070
     1
1071
       12
1005
8FCE
  0
LWPOLYLINE
  5
8FCF
330
79F9
100
AcDbEntity
  8
RAST3
 62
    31
100
AcDbPolyline
 90
        3
 70
   128
 43
0.0
 10
11.41652430500744
 20
6.489528299829999
 10
10.99894161010025
 20
6.573007890737699
 10
11.1659793100248
 20
6.781699520744951
1001
AcDbBlockRepETag
1070
     1
1071
       13
1005
8FCF
  0
LWPOLYLINE
  5
8FD0
330
79F9
100
AcDbEntity
  8
RAST3
 62
    31
100
AcDbPolyline
 90
        3
 70
   128
 43
0.0
 10
11.56786315662066
 20
2.405300615668921
 10
11.15028046171346
 20
2.488780206576621
 10
11.31731816163801
 20
2.697471836583873
1001
AcDbBlockRepETag
1070
     1
1071
       14
1005
8FD0
  0
LWPOLYLINE
  5
8FD1
330
79F9
100
AcDbEntity
  8
RAST3
 62
    31
100
AcDbPolyline
 90
        3
 70
   128
 43
0.0
 10
21.10207180233624
 20
16.24629593462487
 10
20.68448910742904
 20
16.32977552553257
 10
20.85152680735359
 20
16.53846715553982
1001
AcDbBlockRepETag
1070
     1
1071
       15
1005
8FD1
  0
LWPOLYLINE
  5
8FD2
330
79F9
100
AcDbEntity
  8
RAST3
 62
    31
100
AcDbPolyline
 90
        3
 70
   128
 43
0.0
 10
21.25341065394991
 20
5.203752872311952
 10
20.83582795904294
 20
5.287232463219652
 10
21.00286565896727
 20
5.495924093226904
1001
AcDbBlockRepETag
1070
     1
1071
       16
1005
8FD2
  0
LWPOLYLINE
  5
8FD3
330
79F9
100
AcDbEntity
  8
RAST3
 62
    31
100
AcDbPolyline
 90
        3
 70
   128
 43
0.0
 10
20.79940182166138
 20
11.78389842937804
 10
20.38181912675418
 20
11.86737802028574
 10
20.54885682667873
 20
12.07606965029299
1001
AcDbBlockRepETag
1070
     1
1071
       17
1005
8FD3
  0
LWPOLYLINE
  5
8FD4
330
79F9
100
AcDbEntity
  8
RAST3
 62
    31
100
AcDbPolyline
 90
        3
 70
   128
 43
0.0
 10
12.5850468163203
 20
15.79827271394265
 10
12.1674641214131
 20
15.88175230485035
 10
12.33450182133765
 20
16.0904439348576
1001
AcDbBlockRepETag
1070
     1
1071
       18
1005
8FD4
  0
LWPOLYLINE
  5
8FD5
330
79F9
100
AcDbEntity
  8
RAST3
 62
    31
100
AcDbPolyline
 90
        3
 70
   128
 43
0.0
 10
14.48254348528349
 20
10.67709118775269
 10
14.06496079037629
 20
10.76057077866039
 10
14.23199849030084
 20
10.96926240866765
1001
AcDbBlockRepETag
1070
     1
1071
       19
1005
8FD5
  0
LWPOLYLINE
  5
8FD6
330
79F9
100
AcDbEntity
  8
RAST3
 62
    31
100
AcDbPolyline
 90
        3
 70
   128
 43
0.0
 10
17.84833668923352
 20
7.624035307869462
 10
17.43075399432655
 20
7.707514898777163
 10
17.59779169425087
 20
7.916206528784414
1001
AcDbBlockRepETag
1070
     1
1071
       20
1005
8FD6
  0
LWPOLYLINE
  5
8FD7
330
79F9
100
AcDbEntity
  8
RAST3
 62
    31
100
AcDbPolyline
 90
        3
 70
   128
 43
0.0
 10
18.52934993766644
 20
1.57332799136725
 10
18.11176724275947
 20
1.656807582274951
 10
18.27880494268379
 20
1.865499212282202
1001
AcDbBlockRepETag
1070
     1
1071
       21
1005
8FD7
  0
LWPOLYLINE
  5
8FD8
330
79F9
100
AcDbEntity
  8
RAST3
 62
    31
100
AcDbPolyline
 90
        3
 70
   128
 43
0.0
 10
23.6747975282824
 20
1.875862375105271
 10
23.2572148333752
 20
1.959341966012971
 10
23.42425253329975
 20
2.168033596020223
1001
AcDbBlockRepETag
1070
     1
1071
       22
1005
8FD8
  0
LWPOLYLINE
  5
8FD9
330
79F9
100
AcDbEntity
  8
RAST3
 62
    31
100
AcDbPolyline
 90
        3
 70
   128
 43
0.0
 10
2.195947802535557
 20
2.382778903444205
 10
1.77836510762836
 20
2.466258494351905
 10
1.94540280755291
 20
2.674950124359157
1001
AcDbBlockRepETag
1070
     1
1071
       23
1005
8FD9
  0
LWPOLYLINE
  5
8FDA
330
79F9
100
AcDbEntity
  8
RAST3
 62
    31
100
AcDbPolyline
 90
        3
 70
   128
 43
0.0
 10
2.778768802243121
 20
10.5737559839904
 10
2.361186107335925
 20
10.6572355748981
 10
2.528223807260474
 20
10.86592720490535
1001
AcDbBlockRepETag
1070
     1
1071
       24
1005
8FDA
  0
LWPOLYLINE
  5
8FDB
330
79F9
100
AcDbEntity
  8
RAST3
 62
    31
100
AcDbPolyline
 90
        3
 70
   128
 43
0.0
 10
1.789594838660605
 20
16.22955626015096
 10
1.372012143753409
 20
16.31303585105866
 10
1.539049843677958
 20
16.52172748106591
1001
AcDbBlockRepETag
1070
     1
1071
       25
1005
8FDB
  0
LWPOLYLINE
  5
8FDC
330
79F9
100
AcDbEntity
  8
RAST3
 62
    31
100
AcDbPolyline
 90
        3
 70
   128
 43
0.0
 10
5.202399465080134
 20
1.602653938426329
 10
4.784816770172938
 20
1.686133529334029
 10
4.951854470097487
 20
1.894825159341281
1001
AcDbBlockRepETag
1070
     1
1071
       26
1005
8FDC
  0
LWPOLYLINE
  5
8FDD
330
79F9
100
AcDbEntity
  8
RAST3
 62
    31
100
AcDbPolyline
 90
        3
 70
   128
 43
0.0
 10
6.498081130535866
 20
15.5655917298011
 10
6.08049843562867
 20
15.6490713207088
 10
6.247536135553219
 20
15.85776295071605
1001
AcDbBlockRepETag
1070
     1
1071
       27
1005
8FDD
  0
LWPOLYLINE
  5
8FDE
330
79F9
100
AcDbEntity
  8
RAST3
 62
    31
100
AcDbPolyline
 90
        3
 70
   128
 43
0.0
 10
5.267932654234755
 20
6.673210503760856
 10
4.850349959327559
 20
6.756690094668556
 10
5.017387659252108
 20
6.965381724675808
1001
AcDbBlockRepETag
1070
     1
1071
       28
1005
8FDE
  0
LWPOLYLINE
  5
8FDF
330
79F9
100
AcDbEntity
  8
RAST3
 62
    31
100
AcDbPolyline
 90
        3
 70
   128
 43
0.0
 10
24.63495972609417
 20
10.62342649050765
 10
24.2173770311872
 20
10.70690608141535
 10
24.38441473111152
 20
10.91559771142261
1001
AcDbBlockRepETag
1070
     1
1071
       29
1005
8FDF
  0
LWPOLYLINE
  5
8FE0
330
79F9
100
AcDbEntity
  8
RAST3
 62
    31
100
AcDbPolyline
 90
        3
 70
   128
 43
0.0
 10
17.45737735207331
 20
14.19129221985872
 10
17.03979465716634
 20
14.27477181076642
 10
17.20683235709066
 20
14.48346344077368
1001
AcDbBlockRepETag
1070
     1
1071
       30
1005
8FE0
  0
LWPOLYLINE
  5
8FE1
330
79F9
100
AcDbEntity
  8
RAST3
 62
    31
100
AcDbPolyline
 90
        3
 70
   128
 43
0.0
 10
15.24333828632393
 20
4.330903881447057
 10
14.82575559141696
 20
4.414383472354757
 10
14.99279329134129
 20
4.623075102362009
1001
AcDbBlockRepETag
1070
     1
1071
       31
1005
8FE1
  0
LWPOLYLINE
  5
8FE2
330
79F9
100
AcDbEntity
  8
RAST3
 62
    31
100
AcDbPolyline
 90
        3
 70
   128
 43
0.0
 10
38.28834124702826
 20
3.927366411483263
 10
37.87075855212106
 20
4.010846002390963
 10
38.03779625204561
 20
4.219537632398215
1001
AcDbBlockRepETag
1070
     1
1071
       32
1005
8FE2
  0
LWPOLYLINE
  5
8FE3
330
79F9
100
AcDbEntity
  8
RAST3
 62
    31
100
AcDbPolyline
 90
        3
 70
   128
 43
0.0
 10
34.37232037841795
 20
10.65888423737351
 10
33.95473768351076
 20
10.74236382828121
 10
34.12177538343531
 20
10.95105545828847
1001
AcDbBlockRepETag
1070
     1
1071
       33
1005
8FE3
  0
LWPOLYLINE
  5
8FE4
330
79F9
100
AcDbEntity
  8
RAST3
 62
    31
100
AcDbPolyline
 90
        3
 70
   128
 43
0.0
 10
25.3036237365086
 20
5.760980766913463
 10
24.8860410416014
 20
5.844460357821163
 10
25.05307874152595
 20
6.053151987828414
1001
AcDbBlockRepETag
1070
     1
1071
       34
1005
8FE4
  0
LWPOLYLINE
  5
8FE5
330
79F9
100
AcDbEntity
  8
RAST3
 62
    31
100
AcDbPolyline
 90
        3
 70
   128
 43
0.0
 10
1.975620467841736
 20
6.868517025103984
 10
1.558037772934767
 20
6.951996616011684
 10
1.725075472859089
 20
7.160688246018935
1001
AcDbBlockRepETag
1070
     1
1071
       35
1005
8FE5
  0
LWPOLYLINE
  5
8FE6
330
79F9
100
AcDbEntity
  8
RAST3
 62
    31
100
AcDbPolyline
 90
        3
 70
   128
 43
0.0
 10
8.493015365845167
 20
4.098916363692979
 10
8.075432670938198
 20
4.182395954600679
 10
8.24247037086252
 20
4.391087584607931
1001
AcDbBlockRepETag
1070
     1
1071
       36
1005
8FE6
  0
LWPOLYLINE
  5
8FE7
330
79F9
100
AcDbEntity
  8
RAST3
 62
    31
100
AcDbPolyline
 90
        3
 70
   128
 43
0.0
 10
41.36603120397149
 20
12.42682121767803
 10
40.94844850906429
 20
12.51030080858573
 10
41.11548620898884
 20
12.71899243859298
1001
AcDbBlockRepETag
1070
     1
1071
       37
1005
8FE7
  0
ENDBLK
  5
7A21
330
79F9
100
AcDbEntity
  8
0
100
AcDbBlockEnd
  0
BLOCK
  5
7DC8
330
7DC7
100
AcDbEntity
  8
0
100
AcDbBlockBegin
  2
KLAMMER35
 70
     0
 10
0.0
 20
0.0
 30
0.0
  3
KLAMMER35
  1

  0
LWPOLYLINE
  5
7DC9
330
7DC7
100
AcDbEntity
  8
BEPL3
100
AcDbPolyline
 90
        6
 70
     0
 43
1.0
 10
5.0
 20
-35.63397200000009
 10
5.0
 20
-1.0
 42
0.414213562373095
 10
4.0
 20
0.0
 10
-4.0
 20
0.0
 42
0.414213562373095
 10
-5.0
 20
-1.0
 10
-5.0
 20
-35.63395700000001
  0
LINE
  5
7DCA
330
7DC7
100
AcDbEntity
  8
BEPL3
100
AcDbLine
 10
-5.500001999999995
 20
-35.63393399999995
 30
0.0
 11
-5.000001999999995
 21
-36.4999600000001
 31
0.0
  0
LWPOLYLINE
  5
7DCB
330
7DC7
100
AcDbEntity
  8
BEPL3
100
AcDbPolyline
 90
        2
 70
     0
 10
5.0
 20
-35.63395700000001
 40
1.0
 41
0.0
 10
4.999998000000005
 20
-36.4999600000001
 40
0.0
 41
0.0
  0
LWPOLYLINE
  5
7DCC
330
7DC7
100
AcDbEntity
  8
BEPL3
100
AcDbPolyline
 90
        2
 70
     0
 10
-5.0
 20
-35.63395700000001
 40
1.0
 41
0.0
 10
-5.000001999999995
 20
-36.4999600000001
 40
0.0
 41
0.0
  0
LINE
  5
7DCD
330
7DC7
100
AcDbEntity
  8
BEPL3
100
AcDbLine
 10
-4.49998400000004
 20
-35.63392500000009
 30
0.0
 11
-4.99998400000004
 21
-36.4999499999999
 31
0.0
  0
ENDBLK
  5
7DCE
330
7DC7
100
AcDbEntity
  8
0
100
AcDbBlockEnd
  0
BLOCK
  5
8732
330
8731
100
AcDbEntity
  8
0
370
    -1
100
AcDbBlockBegin
  2
ROHR
 70
     0
 10
0.0
 20
0.0
 30
0.0
  3
ROHR
  1

  0
CIRCLE
  5
8733
330
8731
100
AcDbEntity
  8
ZUB2
 62
     2
370
    -1
100
AcDbCircle
 10
0.0
 20
0.0
 30
0.0
 40
8.0
  0
CIRCLE
  5
8734
330
8731
100
AcDbEntity
  8
ZUB5
 62
     5
370
    -1
100
AcDbCircle
 10
0.0
 20
0.0
 30
0.0
 40
8.75
  0
CIRCLE
  5
8735
330
8731
100
AcDbEntity
  8
ZUB2
 62
     2
370
    -1
100
AcDbCircle
 10
0.0
 20
0.0
 30
0.0
 40
9.5
  0
CIRCLE
  5
8736
330
8731
100
AcDbEntity
  8
ZUB2
 62
     2
370
    -1
100
AcDbCircle
 10
0.0
 20
0.0
 30
0.0
 40
10.5
  0
CIRCLE
  5
8737
330
8731
100
AcDbEntity
  8
ZUB5
 62
     5
370
    -1
100
AcDbCircle
 10
0.0
 20
0.0
 30
0.0
 40
11.25
  0
CIRCLE
  5
8738
330
8731
100
AcDbEntity
  8
ZUB2
 62
     2
370
    -1
100
AcDbCircle
 10
0.0
 20
0.0
 30
0.0
 40
12.0
  0
CIRCLE
  5
8739
330
8731
100
AcDbEntity
  8
ZUB1
 62
     1
370
    -1
100
AcDbCircle
 10
0.0
 20
0.0
 30
0.0
 40
12.75
  0
ENDBLK
  5
873A
330
8731
100
AcDbEntity
  8
0
370
    -1
100
AcDbBlockEnd
  0
BLOCK
  5
8CB5
330
8CB4
100
AcDbEntity
  8
0
100
AcDbBlockBegin
  2
tn35
 70
     0
 10
0.0
 20
0.0
 30
0.0
  3
tn35
  1

  0
LINE
  5
8CB6
330
8CB4
100
AcDbEntity
  8
BEPL2
100
AcDbLine
 10
0.0
 20
4.25
 30
0.0
 11
0.0
 21
-4.25
 31
0.0
  0
LINE
  5
8CB7
330
8CB4
100
AcDbEntity
  8
BEPL2
100
AcDbLine
 10
1.0
 20
4.25
 30
0.0
 11
1.0
 21
-4.25
 31
0.0
  0
ARC
  5
8CB8
330
8CB4
100
AcDbEntity
  8
BEPL2
100
AcDbCircle
 10
5.580636000000027
 20
-6.043615999999929
 30
0.0
 40
4.919277
100
AcDbArc
 50
90.939158
 51
158.616386
  0
LINE
  5
8CB9
330
8CB4
100
AcDbEntity
  8
BEPL2
100
AcDbLine
 10
0.0
 20
-4.25
 30
0.0
 11
1.0
 21
-4.25
 31
0.0
  0
LINE
  5
8CBA
330
8CB4
100
AcDbEntity
  8
BEPL2
100
AcDbLine
 10
35.10783389145367
 20
-0.6364387160529341
 30
0.0
 11
33.32578042080269
 21
-0.8591955355342368
 31
0.0
  0
LINE
  5
8CBB
330
8CB4
100
AcDbEntity
  8
BEPL1
100
AcDbLine
 10
32.541524
 20
1.473226000000068
 30
0.0
 11
33.48558900000003
 21
-1.334475000000111
 31
0.0
  0
LINE
  5
8CBC
330
8CB4
100
AcDbEntity
  8
BEPL2
100
AcDbLine
 10
32.72263613009566
 20
0.9345886087381098
 30
0.0
 11
34.66106219297259
 21
0.6922853508785757
 31
0.0
  0
LINE
  5
8CBD
330
8CB4
100
AcDbEntity
  8
BEPL1
100
AcDbLine
 10
33.17059699999995
 20
-1.649472999999944
 30
0.0
 11
33.48558800000003
 21
-1.33448199999998
 31
0.0
  0
LINE
  5
8CBE
330
8CB4
100
AcDbEntity
  8
BEPL2
100
AcDbLine
 10
14.56948763393727
 20
1.124999000000116
 30
0.0
 11
16.67260634094205
 21
1.124999000000116
 31
0.0
  0
LINE
  5
8CBF
330
8CB4
100
AcDbEntity
  8
BEPL2
100
AcDbLine
 10
17.42914992549785
 20
-1.125
 30
0.0
 11
15.32602965868801
 21
-1.125
 31
0.0
  0
LINE
  5
8CC0
330
8CB4
100
AcDbEntity
  8
BEPL2
100
AcDbLine
 10
5.5
 20
1.124999000000116
 30
0.0
 11
8.872632677183736
 21
1.124999000000116
 31
0.0
  0
LINE
  5
8CC1
330
8CB4
100
AcDbEntity
  8
BEPL2
100
AcDbLine
 10
9.629176261739536
 20
-1.125
 30
0.0
 11
5.5
 21
-1.125
 31
0.0
  0
ARC
  5
8CC2
330
8CB4
100
AcDbEntity
  8
BEPL2
100
AcDbCircle
 10
5.580636000000027
 20
6.043615999999929
 30
0.0
 40
4.919277
100
AcDbArc
 50
201.383669
 51
269.060897
  0
LINE
  5
8CC3
330
8CB4
100
AcDbEntity
  8
BEPL2
100
AcDbLine
 10
0.0
 20
4.25
 30
0.0
 11
1.0
 21
4.25
 31
0.0
  0
LINE
  5
8CC4
330
8CB4
100
AcDbEntity
  8
BEPL2
100
AcDbLine
 10
12.22916714754839
 20
-1.125
 30
0.0
 11
10.12604782875508
 21
-1.125
 31
0.0
  0
LINE
  5
8CC5
330
8CB4
100
AcDbEntity
  8
BEPL1
100
AcDbLine
 10
11.28433299999995
 20
1.684987999999976
 30
0.0
 11
12.41746599999999
 21
-1.685011000000031
 31
0.0
  0
LINE
  5
8CC6
330
8CB4
100
AcDbEntity
  8
BEPL1
100
AcDbLine
 10
11.59932400000002
 20
1.999982000000045
 30
0.0
 11
11.28432199999997
 21
1.684979999999996
 31
0.0
  0
LINE
  5
8CC7
330
8CB4
100
AcDbEntity
  8
BEPL1
100
AcDbLine
 10
8.999349000000052
 20
1.999994000000015
 30
0.0
 11
9.999348000000055
 21
-2.00000399999999
 31
0.0
  0
LINE
  5
8CC8
330
8CB4
100
AcDbEntity
  8
BEPL1
100
AcDbLine
 10
8.999366000000009
 20
1.99998800000003
 30
0.0
 11
9.181231000000025
 21
1.68498899999986
 31
0.0
  0
LINE
  5
8CC9
330
8CB4
100
AcDbEntity
  8
BEPL1
100
AcDbLine
 10
8.999332999999979
 20
1.999982000000045
 30
0.0
 11
8.684330000000045
 21
1.684979999999996
 31
0.0
  0
LINE
  5
8CCA
330
8CB4
100
AcDbEntity
  8
BEPL1
100
AcDbLine
 10
8.684341000000018
 20
1.684987999999976
 30
0.0
 11
9.817474999999945
 21
-1.685010000000148
 31
0.0
  0
LINE
  5
8CCB
330
8CB4
100
AcDbEntity
  8
BEPL1
100
AcDbLine
 10
9.999343999999951
 20
-1.999972999999954
 30
0.0
 11
10.314345
 21
-1.684971000000132
 31
0.0
  0
LINE
  5
8CCC
330
8CB4
100
AcDbEntity
  8
BEPL1
100
AcDbLine
 10
9.18121199999996
 20
1.684992999999849
 30
0.0
 11
10.314345
 21
-1.685006000000158
 31
0.0
  0
LINE
  5
8CCD
330
8CB4
100
AcDbEntity
  8
BEPL2
100
AcDbLine
 10
9.369505136348582
 20
1.124999000000116
 30
0.0
 11
11.47262445514188
 21
1.124999000000116
 31
0.0
  0
LINE
  5
8CCE
330
8CB4
100
AcDbEntity
  8
BEPL1
100
AcDbLine
 10
9.999364000000014
 20
-2.00000399999999
 30
0.0
 11
9.81749400000001
 21
-1.684996999999839
 31
0.0
  0
LINE
  5
8CCF
330
8CB4
100
AcDbEntity
  8
BEPL1
100
AcDbLine
 10
14.19931499999996
 20
1.999982000000045
 30
0.0
 11
13.88431300000002
 21
1.684979999999996
 31
0.0
  0
LINE
  5
8CD0
330
8CB4
100
AcDbEntity
  8
BEPL1
100
AcDbLine
 10
11.59933999999998
 20
1.999994000000015
 30
0.0
 11
12.59933899999999
 21
-2.000004999999874
 31
0.0
  0
LINE
  5
8CD1
330
8CB4
100
AcDbEntity
  8
BEPL1
100
AcDbLine
 10
11.59935700000005
 20
1.99998800000003
 30
0.0
 11
11.78122199999996
 21
1.68498899999986
 31
0.0
  0
LINE
  5
8CD2
330
8CB4
100
AcDbEntity
  8
BEPL1
100
AcDbLine
 10
14.19933100000003
 20
1.999994000000015
 30
0.0
 11
15.19933000000003
 21
-2.000004999999874
 31
0.0
  0
LINE
  5
8CD3
330
8CB4
100
AcDbEntity
  8
BEPL1
100
AcDbLine
 10
14.19934799999999
 20
1.999988999999914
 30
0.0
 11
14.381213
 21
1.68498899999986
 31
0.0
  0
LINE
  5
8CD4
330
8CB4
100
AcDbEntity
  8
BEPL1
100
AcDbLine
 10
13.88432399999999
 20
1.684987000000092
 30
0.0
 11
15.01745700000004
 21
-1.685011000000031
 31
0.0
  0
LINE
  5
8CD5
330
8CB4
100
AcDbEntity
  8
BEPL2
100
AcDbLine
 10
14.82915809167337
 20
-1.125
 30
0.0
 11
12.72603877288057
 21
-1.125
 31
0.0
  0
LINE
  5
8CD6
330
8CB4
100
AcDbEntity
  8
BEPL2
100
AcDbLine
 10
11.96949585598058
 20
1.124999000000116
 30
0.0
 11
14.07261517477338
 21
1.124999000000116
 31
0.0
  0
LINE
  5
8CD7
330
8CB4
100
AcDbEntity
  8
BEPL1
100
AcDbLine
 10
12.599335
 20
-1.999972999999954
 30
0.0
 11
12.91433700000005
 21
-1.684971000000132
 31
0.0
  0
LINE
  5
8CD8
330
8CB4
100
AcDbEntity
  8
BEPL1
100
AcDbLine
 10
12.59935499999995
 20
-2.00000399999999
 30
0.0
 11
12.41748600000005
 21
-1.684996999999839
 31
0.0
  0
LINE
  5
8CD9
330
8CB4
100
AcDbEntity
  8
BEPL1
100
AcDbLine
 10
11.781203
 20
1.684991999999966
 30
0.0
 11
12.91433600000005
 21
-1.685006000000158
 31
0.0
  0
LINE
  5
8CDA
330
8CB4
100
AcDbEntity
  8
BEPL1
100
AcDbLine
 10
15.19932700000004
 20
-1.999972999999954
 30
0.0
 11
15.51432899999998
 21
-1.684971000000132
 31
0.0
  0
LINE
  5
8CDB
330
8CB4
100
AcDbEntity
  8
BEPL1
100
AcDbLine
 10
15.19934599999999
 20
-2.00000399999999
 30
0.0
 11
15.01747699999999
 21
-1.684996999999839
 31
0.0
  0
LINE
  5
8CDC
330
8CB4
100
AcDbEntity
  8
BEPL1
100
AcDbLine
 10
14.38119500000005
 20
1.684991999999966
 30
0.0
 11
15.51432699999998
 21
-1.685007000000041
 31
0.0
  0
LINE
  5
8CDD
330
8CB4
100
AcDbEntity
  8
BEPL2
100
AcDbLine
 10
22.36947297890138
 20
1.124999000000116
 30
0.0
 11
24.47259980883141
 21
1.124999000000116
 31
0.0
  0
LINE
  5
8CDE
330
8CB4
100
AcDbEntity
  8
BEPL2
100
AcDbLine
 10
25.22914250123783
 20
-1.125
 30
0.0
 11
23.1260150036522
 21
-1.125
 31
0.0
  0
LINE
  5
8CDF
330
8CB4
100
AcDbEntity
  8
BEPL2
100
AcDbLine
 10
22.62914615627249
 20
-1.125
 30
0.0
 11
20.52601882875514
 21
-1.125
 31
0.0
  0
LINE
  5
8CE0
330
8CB4
100
AcDbEntity
  8
BEPL2
100
AcDbLine
 10
19.76947613634863
 20
1.124999000000116
 30
0.0
 11
21.87260346386599
 21
1.124999000000116
 31
0.0
  0
LINE
  5
8CE1
330
8CB4
100
AcDbEntity
  8
BEPL1
100
AcDbLine
 10
16.79932199999996
 20
1.999994000000015
 30
0.0
 11
17.79932099999996
 21
-2.000005999999985
 31
0.0
  0
LINE
  5
8CE2
330
8CB4
100
AcDbEntity
  8
BEPL1
100
AcDbLine
 10
16.79933900000003
 20
1.999988999999914
 30
0.0
 11
16.98120400000005
 21
1.68498899999986
 31
0.0
  0
LINE
  5
8CE3
330
8CB4
100
AcDbEntity
  8
BEPL1
100
AcDbLine
 10
16.799306
 20
1.999982000000045
 30
0.0
 11
16.48430399999995
 21
1.684979999999996
 31
0.0
  0
LINE
  5
8CE4
330
8CB4
100
AcDbEntity
  8
BEPL1
100
AcDbLine
 10
19.39931999999999
 20
1.999995000000126
 30
0.0
 11
20.39931899999999
 21
-2.000004999999874
 31
0.0
  0
LINE
  5
8CE5
330
8CB4
100
AcDbEntity
  8
BEPL1
100
AcDbLine
 10
19.39932999999996
 20
1.999988999999914
 30
0.0
 11
19.58119499999998
 21
1.68498899999986
 31
0.0
  0
LINE
  5
8CE6
330
8CB4
100
AcDbEntity
  8
BEPL1
100
AcDbLine
 10
19.39929700000005
 20
1.999982000000045
 30
0.0
 11
19.084295
 21
1.684979999999996
 31
0.0
  0
LINE
  5
8CE7
330
8CB4
100
AcDbEntity
  8
BEPL2
100
AcDbLine
 10
17.16947851973915
 20
1.124999000000116
 30
0.0
 11
19.27260479138319
 21
1.124999000000116
 31
0.0
  0
LINE
  5
8CE8
330
8CB4
100
AcDbEntity
  8
BEPL2
100
AcDbLine
 10
20.0291474837897
 20
-1.125
 30
0.0
 11
17.92602143663914
 21
-1.125
 31
0.0
  0
LINE
  5
8CE9
330
8CB4
100
AcDbEntity
  8
BEPL1
100
AcDbLine
 10
17.79931899999997
 20
-1.999972999999954
 30
0.0
 11
18.11432100000002
 21
-1.684971000000132
 31
0.0
  0
LINE
  5
8CEA
330
8CB4
100
AcDbEntity
  8
BEPL1
100
AcDbLine
 10
16.98118599999998
 20
1.684991000000082
 30
0.0
 11
18.11431900000002
 21
-1.685007000000041
 31
0.0
  0
LINE
  5
8CEB
330
8CB4
100
AcDbEntity
  8
BEPL1
100
AcDbLine
 10
17.79933700000004
 20
-2.00000399999999
 30
0.0
 11
17.61746800000003
 21
-1.684996999999839
 31
0.0
  0
LINE
  5
8CEC
330
8CB4
100
AcDbEntity
  8
BEPL1
100
AcDbLine
 10
16.48431500000004
 20
1.684987000000092
 30
0.0
 11
17.61744899999997
 21
-1.685011000000031
 31
0.0
  0
LINE
  5
8CED
330
8CB4
100
AcDbEntity
  8
BEPL1
100
AcDbLine
 10
20.39931000000001
 20
-1.999972999999954
 30
0.0
 11
20.71431199999995
 21
-1.684970000000021
 31
0.0
  0
LINE
  5
8CEE
330
8CB4
100
AcDbEntity
  8
BEPL1
100
AcDbLine
 10
20.39932799999997
 20
-2.00000399999999
 30
0.0
 11
20.21745899999996
 21
-1.684996999999839
 31
0.0
  0
LINE
  5
8CEF
330
8CB4
100
AcDbEntity
  8
BEPL1
100
AcDbLine
 10
19.58118300000001
 20
1.684992999999849
 30
0.0
 11
20.71431600000005
 21
-1.685006000000158
 31
0.0
  0
LINE
  5
8CF0
330
8CB4
100
AcDbEntity
  8
BEPL1
100
AcDbLine
 10
19.08431299999995
 20
1.68498899999986
 30
0.0
 11
20.217446
 21
-1.685010000000148
 31
0.0
  0
LINE
  5
8CF1
330
8CB4
100
AcDbEntity
  8
BEPL1
100
AcDbLine
 10
21.99931700000004
 20
1.999998000000005
 30
0.0
 11
22.99931600000004
 21
-2.000001999999995
 31
0.0
  0
LINE
  5
8CF2
330
8CB4
100
AcDbEntity
  8
BEPL1
100
AcDbLine
 10
21.99932000000003
 20
1.999992999999904
 30
0.0
 11
22.18118600000005
 21
1.684993999999961
 31
0.0
  0
LINE
  5
8CF3
330
8CB4
100
AcDbEntity
  8
BEPL1
100
AcDbLine
 10
21.99928999999999
 20
1.99999200000002
 30
0.0
 11
21.68428699999995
 21
1.684989999999971
 31
0.0
  0
LINE
  5
8CF4
330
8CB4
100
AcDbEntity
  8
BEPL1
100
AcDbLine
 10
22.99930299999996
 20
-1.999982000000045
 30
0.0
 11
23.31430500000001
 21
-1.684979000000112
 31
0.0
  0
LINE
  5
8CF5
330
8CB4
100
AcDbEntity
  8
BEPL1
100
AcDbLine
 10
22.18117899999995
 20
1.684995999999956
 30
0.0
 11
23.314311
 21
-1.685003000000052
 31
0.0
  0
LINE
  5
8CF6
330
8CB4
100
AcDbEntity
  8
BEPL1
100
AcDbLine
 10
22.99931900000004
 20
-2.0
 30
0.0
 11
22.81744900000003
 21
-1.684992999999849
 31
0.0
  0
LINE
  5
8CF7
330
8CB4
100
AcDbEntity
  8
BEPL1
100
AcDbLine
 10
21.68430800000001
 20
1.684992999999849
 30
0.0
 11
22.81744200000005
 21
-1.685006000000158
 31
0.0
  0
LINE
  5
8CF8
330
8CB4
100
AcDbEntity
  8
BEPL1
100
AcDbLine
 10
28.19930400000001
 20
-1.999999000000116
 30
0.0
 11
28.51430599999994
 21
-1.684996999999839
 31
0.0
  0
LINE
  5
8CF9
330
8CB4
100
AcDbEntity
  8
BEPL2
100
AcDbLine
 10
27.56946915379678
 20
1.124999000000116
 30
0.0
 11
29.6725963199689
 21
1.124999000000116
 31
0.0
  0
LINE
  5
8CFA
330
8CB4
100
AcDbEntity
  8
BEPL2
100
AcDbLine
 10
30.4291396800311
 20
-1.125
 30
0.0
 11
28.32601184620328
 21
-1.125
 31
0.0
  0
LINE
  5
8CFB
330
8CB4
100
AcDbEntity
  8
BEPL1
100
AcDbLine
 10
27.38117400000001
 20
1.684999000000062
 30
0.0
 11
28.51430700000005
 21
-1.684999999999945
 31
0.0
  0
LINE
  5
8CFC
330
8CB4
100
AcDbEntity
  8
BEPL1
100
AcDbLine
 10
27.19930200000001
 20
2.000001999999995
 30
0.0
 11
26.88429999999996
 21
1.684999999999945
 31
0.0
  0
LINE
  5
8CFD
330
8CB4
100
AcDbEntity
  8
BEPL1
100
AcDbLine
 10
24.59931499999995
 20
1.999999000000116
 30
0.0
 11
25.59931399999996
 21
-2.000000999999884
 31
0.0
  0
LINE
  5
8CFE
330
8CB4
100
AcDbEntity
  8
BEPL1
100
AcDbLine
 10
24.59931599999995
 20
1.99999600000001
 30
0.0
 11
24.78118099999997
 21
1.684995999999956
 31
0.0
  0
LINE
  5
8CFF
330
8CB4
100
AcDbEntity
  8
BEPL1
100
AcDbLine
 10
24.59929100000002
 20
2.000001999999995
 30
0.0
 11
24.28428899999997
 21
1.684999999999945
 31
0.0
  0
LINE
  5
8D00
330
8CB4
100
AcDbEntity
  8
BEPL1
100
AcDbLine
 10
27.19931399999998
 20
2.0
 30
0.0
 11
28.19931299999998
 21
-1.999999000000116
 31
0.0
  0
LINE
  5
8D01
330
8CB4
100
AcDbEntity
  8
BEPL1
100
AcDbLine
 10
27.19931099999999
 20
1.999998000000005
 30
0.0
 11
27.381176
 21
1.684999000000062
 31
0.0
  0
LINE
  5
8D02
330
8CB4
100
AcDbEntity
  8
BEPL2
100
AcDbLine
 10
27.8291411178463
 20
-1.125
 30
0.0
 11
25.7260134540878
 21
-1.125
 31
0.0
  0
LINE
  5
8D03
330
8CB4
100
AcDbEntity
  8
BEPL2
100
AcDbLine
 10
24.96947053718776
 20
1.124999000000116
 30
0.0
 11
27.07259820094631
 21
1.124999000000116
 31
0.0
  0
LINE
  5
8D04
330
8CB4
100
AcDbEntity
  8
BEPL1
100
AcDbLine
 10
25.59930299999998
 20
-1.999990000000025
 30
0.0
 11
25.91430500000003
 21
-1.684987999999976
 31
0.0
  0
LINE
  5
8D05
330
8CB4
100
AcDbEntity
  8
BEPL1
100
AcDbLine
 10
25.59931399999996
 20
-1.999998000000005
 30
0.0
 11
25.41744399999995
 21
-1.684991000000082
 31
0.0
  0
LINE
  5
8D06
330
8CB4
100
AcDbEntity
  8
BEPL1
100
AcDbLine
 10
24.78117599999998
 20
1.684996999999839
 30
0.0
 11
25.91430900000002
 21
-1.685001000000057
 31
0.0
  0
LINE
  5
8D07
330
8CB4
100
AcDbEntity
  8
BEPL1
100
AcDbLine
 10
24.28430600000004
 20
1.684995000000072
 30
0.0
 11
25.41743899999997
 21
-1.685003999999935
 31
0.0
  0
LINE
  5
8D08
330
8CB4
100
AcDbEntity
  8
BEPL1
100
AcDbLine
 10
26.88430399999995
 20
1.684995999999956
 30
0.0
 11
28.01743699999999
 21
-1.685002000000168
 31
0.0
  0
LINE
  5
8D09
330
8CB4
100
AcDbEntity
  8
BEPL1
100
AcDbLine
 10
28.19930899999999
 20
-1.99999600000001
 30
0.0
 11
28.01743999999999
 21
-1.684987999999976
 31
0.0
  0
LINE
  5
8D0A
330
8CB4
100
AcDbEntity
  8
BEPL1
100
AcDbLine
 10
29.79929700000005
 20
1.999998000000005
 30
0.0
 11
30.79929600000005
 21
-2.000001999999995
 31
0.0
  0
LINE
  5
8D0B
330
8CB4
100
AcDbEntity
  8
BEPL1
100
AcDbLine
 10
29.79929299999994
 20
1.999992999999904
 30
0.0
 11
29.98115799999996
 21
1.684992999999849
 31
0.0
  0
LINE
  5
8D0C
330
8CB4
100
AcDbEntity
  8
BEPL1
100
AcDbLine
 10
29.79929199999994
 20
2.000001999999995
 30
0.0
 11
29.48429000000001
 21
1.684999999999945
 31
0.0
  0
LINE
  5
8D0D
330
8CB4
100
AcDbEntity
  8
BEPL1
100
AcDbLine
 10
32.35965599999999
 20
1.788226000000122
 30
0.0
 11
33.17058799999997
 21
-1.649475000000166
 31
0.0
  0
LINE
  5
8D0E
330
8CB4
100
AcDbEntity
  8
BEPL1
100
AcDbLine
 10
32.35966499999997
 20
1.78822799999989
 30
0.0
 11
32.54152799999999
 21
1.473233000000164
 31
0.0
  0
LINE
  5
8D0F
330
8CB4
100
AcDbEntity
  8
BEPL1
100
AcDbLine
 10
32.35966199999998
 20
1.7882239999999
 30
0.0
 11
32.04466000000004
 21
1.473222000000078
 31
0.0
  0
LINE
  5
8D10
330
8CB4
100
AcDbEntity
  8
BEPL1
100
AcDbLine
 10
30.79929299999994
 20
-1.999996999999894
 30
0.0
 11
31.11429499999999
 21
-1.684993999999961
 31
0.0
  0
LINE
  5
8D11
330
8CB4
100
AcDbEntity
  8
BEPL1
100
AcDbLine
 10
29.98115699999996
 20
1.684995999999956
 30
0.0
 11
31.11429
 21
-1.685003000000052
 31
0.0
  0
LINE
  5
8D12
330
8CB4
100
AcDbEntity
  8
BEPL2
100
AcDbLine
 10
30.16945114507266
 20
1.124999000000116
 30
0.0
 11
31.19933200000005
 21
1.124999000000116
 31
0.0
  0
LINE
  5
8D13
330
8CB4
100
AcDbEntity
  8
BEPL1
100
AcDbLine
 10
30.79928699999996
 20
-1.999994000000015
 30
0.0
 11
30.61742500000005
 21
-1.684999999999945
 31
0.0
  0
LINE
  5
8D14
330
8CB4
100
AcDbEntity
  8
BEPL1
100
AcDbLine
 10
29.48430099999998
 20
1.684999000000062
 30
0.0
 11
30.61743500000002
 21
-1.684999999999945
 31
0.0
  0
LINE
  5
8D15
330
8CB4
100
AcDbEntity
  8
BEPL2
100
AcDbLine
 10
31.19931599999997
 20
-1.125
 30
0.0
 11
30.92599383747916
 21
-1.125
 31
0.0
  0
LINE
  5
8D16
330
8CB4
100
AcDbEntity
  8
BEPL1
100
AcDbLine
 10
32.04466900000002
 20
1.473228999999947
 30
0.0
 11
32.98873300000005
 21
-1.334468000000015
 31
0.0
  0
LINE
  5
8D17
330
8CB4
100
AcDbEntity
  8
BEPL2
100
AcDbLine
 10
31.19934500000002
 20
1.125
 30
0.0
 11
32.20398312785939
 21
0.9994202340176214
 31
0.0
  0
LINE
  5
8D18
330
8CB4
100
AcDbEntity
  8
BEPL2
100
AcDbLine
 10
32.84896726914388
 20
-0.9187972157866093
 30
0.0
 11
31.19933000000005
 21
-1.125001999999995
 31
0.0
  0
LINE
  5
8D19
330
8CB4
100
AcDbEntity
  8
BEPL1
100
AcDbLine
 10
33.17058999999997
 20
-1.649478000000045
 30
0.0
 11
32.98871999999997
 21
-1.334471000000121
 31
0.0
  0
LINE
  5
8D1A
330
8CB4
100
AcDbEntity
  8
BEPL2
100
AcDbLine
 10
37.63681021583837
 20
0.3203168480204811
 30
0.0
 11
40.19934275967728
 21
0.0000002800407265
 31
0.0
  0
LINE
  5
8D1B
330
8CB4
100
AcDbEntity
  8
BEPL2
100
AcDbLine
 10
40.19934275967728
 20
0.0000002800407265
 30
0.0
 11
37.84352934967765
 21
-0.2944765755337698
 31
0.0
  0
LINE
  5
8D1C
330
8CB4
100
AcDbEntity
  8
BEPL2
100
AcDbLine
 10
35.17973202987621
 20
0.6274516212656462
 30
0.0
 11
37.11815808801126
 21
0.3851483639988477
 31
0.0
  0
LINE
  5
8D1D
330
8CB4
100
AcDbEntity
  8
BEPL2
100
AcDbLine
 10
37.36671641613312
 20
-0.3540782285218416
 30
0.0
 11
35.58466295055013
 21
-0.5768350473696435
 31
0.0
  0
LINE
  5
8D1E
330
8CB4
100
AcDbEntity
  8
BEPL1
100
AcDbLine
 10
34.87160899999994
 20
1.317937000000029
 30
0.0
 11
35.05347099999997
 21
1.002942999999959
 31
0.0
  0
LINE
  5
8D1F
330
8CB4
100
AcDbEntity
  8
BEPL1
100
AcDbLine
 10
34.556609
 20
1.002934999999979
 30
0.0
 11
35.21799599999999
 21
-0.9640669999998863
 31
0.0
  0
LINE
  5
8D20
330
8CB4
100
AcDbEntity
  8
BEPL1
100
AcDbLine
 10
34.87160399999996
 20
1.317935999999918
 30
0.0
 11
35.39985900000001
 21
-1.279070000000047
 31
0.0
  0
LINE
  5
8D21
330
8CB4
100
AcDbEntity
  8
BEPL1
100
AcDbLine
 10
34.87159799999997
 20
1.31793800000014
 30
0.0
 11
34.55660700000001
 21
1.002946999999949
 31
0.0
  0
LINE
  5
8D22
330
8CB4
100
AcDbEntity
  8
BEPL1
100
AcDbLine
 10
35.39985600000002
 20
-1.279064999999946
 30
0.0
 11
35.71485799999996
 21
-0.9640629999998964
 31
0.0
  0
LINE
  5
8D23
330
8CB4
100
AcDbEntity
  8
BEPL1
100
AcDbLine
 10
35.399866
 20
-1.279069000000163
 30
0.0
 11
35.21799599999999
 21
-0.9640620000000126
 31
0.0
  0
LINE
  5
8D24
330
8CB4
100
AcDbEntity
  8
BEPL1
100
AcDbLine
 10
35.05347799999995
 20
1.002938000000086
 30
0.0
 11
35.71486700000005
 21
-0.9640690000001086
 31
0.0
  0
LINE
  5
8D25
330
8CB4
100
AcDbEntity
  8
BEPL1
100
AcDbLine
 10
37.38355200000003
 20
0.8476479999999356
 30
0.0
 11
37.56542100000004
 21
0.5326410000000124
 31
0.0
  0
LINE
  5
8D26
330
8CB4
100
AcDbEntity
  8
BEPL1
100
AcDbLine
 10
37.38355600000002
 20
0.8476519999999255
 30
0.0
 11
37.06855399999997
 21
0.5326500000001033
 31
0.0
  0
LINE
  5
8D27
330
8CB4
100
AcDbEntity
  8
BEPL1
100
AcDbLine
 10
37.64231099999997
 20
-0.9478770000000623
 30
0.0
 11
37.95731300000002
 21
-0.6328739999999016
 31
0.0
  0
LINE
  5
8D28
330
8CB4
100
AcDbEntity
  8
BEPL1
100
AcDbLine
 10
37.64232400000005
 20
-0.9478810000000522
 30
0.0
 11
37.46045500000005
 21
-0.6328739999999016
 31
0.0
  0
LINE
  5
8D29
330
8CB4
100
AcDbEntity
  8
BEPL1
100
AcDbLine
 10
37.56541800000004
 20
0.5326410000000124
 30
0.0
 11
37.95731500000002
 21
-0.6328809999999976
 31
0.0
  0
LINE
  5
8D2A
330
8CB4
100
AcDbEntity
  8
BEPL1
100
AcDbLine
 10
37.06856400000006
 20
0.5326439999998911
 30
0.0
 11
37.46045900000004
 21
-0.6328739999999016
 31
0.0
  0
LINE
  5
8D2B
330
8CB4
100
AcDbEntity
  8
BEPL1
100
AcDbLine
 10
37.38355000000004
 20
0.8476430000000619
 30
0.0
 11
37.64231299999997
 21
-0.9478800000001684
 31
0.0
  0
ENDBLK
  5
8D2C
330
8CB4
100
AcDbEntity
  8
0
100
AcDbBlockEnd
  0
ENDSEC
  0
SECTION
  2
ENTITIES
  0
TEXT
  5
81AE
330
2
100
AcDbEntity
  8
TEXT3
100
AcDbText
 10
1693.246916320869
 20
297.9999992393034
 30
0.0
 40
11.0
  1
F126-V4
  7
ar-na-fett
 11
1693.246916320869
 21
303.4999992393034
 31
0.0
100
AcDbText
 73
     2
  0
TEXT
  5
81AF
330
2
100
AcDbEntity
  8
TEXT3
100
AcDbText
 10
1773.246916320869
 20
297.9999992393034
 30
0.0
 40
11.0
  1
Junta de dilatación con calefacción
  7
ar-na-fett
 11
1773.246916320869
 21
303.4999992393034
 31
0.0
100
AcDbText
 73
     2
  0
HATCH
  5
8F04
330
2
100
AcDbEntity
  8
SCHATT20 B
100
AcDbHatch
 10
0.0
 20
0.0
 30
0.0
210
0.0
220
0.0
230
1.0
  2
SOLID
 70
     1
 71
     0
 91
        2
 92
        7
 72
     0
 73
     1
 93
        4
 10
1993.244335684588
 20
158.9999992393039
 10
1848.245625944807
 20
158.9999992393038
 10
1848.245625944807
 20
140.9999992393038
 10
1993.244335684588
 20
140.9999992393038
 97
        0
 92
        7
 72
     0
 73
     1
 93
        4
 10
1838.245625944807
 20
158.9999992393038
 10
1693.246916205026
 20
158.9999992393038
 10
1693.246916205026
 20
140.9999992393038
 10
1838.245625944807
 20
140.9999992393038
 97
        0
 75
     0
 76
     1
 47
0.4017019815149373
 98
        2
 10
1913.124163779654
 20
150.550628734049
 10
1811.451529307796
 20
150.550628734049
  0
LINE
  5
8F05
330
2
100
AcDbEntity
  8
FLANK5
100
AcDbLine
 10
1693.246916205026
 20
94.99999923930378
 30
0.0
 11
1993.244335684588
 21
94.99999923930378
 31
0.0
  0
LINE
  5
8F06
330
2
100
AcDbEntity
  8
DAEMM2
100
AcDbLine
 10
1693.246916205026
 20
96.49999923930378
 30
0.0
 11
1993.244335684588
 21
96.49999923930378
 31
0.0
  0
LINE
  5
8F07
330
2
100
AcDbEntity
  8
HILF2S
100
AcDbLine
 10
1693.246916205026
 20
175.9999992393038
 30
0.0
 11
1693.246916205026
 21
59.99999923930401
 31
0.0
  0
LINE
  5
8F08
330
2
100
AcDbEntity
  8
HILF2S
100
AcDbLine
 10
1993.244335684588
 20
175.9999992393038
 30
0.0
 11
1993.244335684588
 21
59.99999923930401
 31
0.0
  0
LINE
  5
8F09
330
2
100
AcDbEntity
  8
DAEMM2
100
AcDbLine
 10
1693.246916205026
 20
136.4999992393039
 30
0.0
 11
1754.244335684588
 21
136.4999992393038
 31
0.0
  0
LINE
  5
8F0A
330
2
100
AcDbEntity
  8
DAEMM2
100
AcDbLine
 10
1754.244335684588
 20
136.4999992393038
 30
0.0
 11
1754.244335684588
 21
114.4999992393038
 31
0.0
  0
LINE
  5
8F0B
330
2
100
AcDbEntity
  8
DAEMM2
100
AcDbLine
 10
1782.244335684588
 20
136.4999992393038
 30
0.0
 11
1782.244335684588
 21
114.4999992393038
 31
0.0
  0
LINE
  5
8F0C
330
2
100
AcDbEntity
  8
DAEMM2
100
AcDbLine
 10
1754.244335684588
 20
114.4999992393038
 30
0.0
 11
1782.244335684588
 21
114.4999992393038
 31
0.0
  0
LINE
  5
8F0D
330
2
100
AcDbEntity
  8
DAEMM2
100
AcDbLine
 10
1782.244335684588
 20
136.4999992393038
 30
0.0
 11
1904.244335684588
 21
136.4999992393038
 31
0.0
  0
LINE
  5
8F0E
330
2
100
AcDbEntity
  8
DAEMM2
100
AcDbLine
 10
1932.244335684588
 20
136.4999992393037
 30
0.0
 11
1993.244335684588
 21
136.4999992393037
 31
0.0
  0
CIRCLE
  5
8F0F
330
2
100
AcDbEntity
  8
ZUB3
100
AcDbCircle
 10
1768.244335684588
 20
127.9999992393038
 30
0.0
 40
10.0
  0
CIRCLE
  5
8F10
330
2
100
AcDbEntity
  8
ZUB3
100
AcDbCircle
 10
1918.244335684588
 20
127.9999992393038
 30
0.0
 40
10.0
  0
LINE
  5
8F11
330
2
100
AcDbEntity
  8
DAEMM2
100
AcDbLine
 10
1904.244335684588
 20
114.4999992393038
 30
0.0
 11
1932.244335684588
 21
114.4999992393038
 31
0.0
  0
LINE
  5
8F12
330
2
100
AcDbEntity
  8
DAEMM2
100
AcDbLine
 10
1904.244335684588
 20
136.4999992393038
 30
0.0
 11
1904.244335684588
 21
114.4999992393038
 31
0.0
  0
LINE
  5
8F13
330
2
100
AcDbEntity
  8
DAEMM2
100
AcDbLine
 10
1932.244335684588
 20
136.4999992393037
 30
0.0
 11
1932.244335684588
 21
114.4999992393038
 31
0.0
  0
CIRCLE
  5
8F14
330
2
100
AcDbEntity
  8
ZUB3
100
AcDbCircle
 10
1768.244335684588
 20
127.9999992393038
 30
0.0
 40
8.0
  0
CIRCLE
  5
8F15
330
2
100
AcDbEntity
  8
ZUB3
100
AcDbCircle
 10
1918.244335684588
 20
127.9999992393038
 30
0.0
 40
8.0
  0
HATCH
  5
8F16
330
2
100
AcDbEntity
  8
ZUB3
100
AcDbHatch
 10
0.0
 20
0.0
 30
0.0
210
0.0
220
0.0
230
1.0
  2
SOLID
 70
     1
 71
     0
 91
        2
 92
        7
 72
     1
 73
     1
 93
        2
 10
1908.244335684588
 20
127.9999992393038
 42
1.0
 10
1928.244335684588
 20
127.9999992393038
 42
1.0
 97
        0
 92
       22
 72
     1
 73
     1
 93
        2
 10
1926.244335684588
 20
127.9999992393038
 42
-1.0
 10
1910.244335684588
 20
127.9999992393038
 42
-1.0
 97
        0
 75
     1
 76
     1
 47
0.0805491678044689
 98
        2
 10
1921.987899215002
 20
136.6394875697908
 10
1921.987899215002
 20
136.6394875697908
  0
HATCH
  5
8F17
330
2
100
AcDbEntity
  8
ZUB3
100
AcDbHatch
 10
0.0
 20
0.0
 30
0.0
210
0.0
220
0.0
230
1.0
  2
SOLID
 70
     1
 71
     0
 91
        2
 92
        7
 72
     1
 73
     1
 93
        2
 10
1758.244335684588
 20
127.9999992393038
 42
1.0
 10
1778.244335684588
 20
127.9999992393038
 42
1.0
 97
        0
 92
       22
 72
     1
 73
     1
 93
        2
 10
1776.244335684588
 20
127.9999992393038
 42
-1.0
 10
1760.244335684588
 20
127.9999992393038
 42
-1.0
 97
        0
 75
     1
 76
     1
 47
0.0649884818669199
 98
        2
 10
1768.297571503237
 20
136.6983036987218
 10
1768.297571503237
 20
136.6983036987218
  0
LWPOLYLINE
  5
8F18
330
2
100
AcDbEntity
  8
ZUB2
100
AcDbPolyline
 90
        6
 70
   128
 43
1.0
 10
1810.244335684588
 20
137.9999992393038
 10
1780.244335684588
 20
137.9999992393038
 10
1780.244335684588
 20
127.9999992393038
 42
-1.0
 10
1756.244335684588
 20
127.9999992393038
 10
1756.244335684589
 20
137.9999992393038
 10
1726.244335684588
 20
137.9999992393038
  0
LWPOLYLINE
  5
8F19
330
2
100
AcDbEntity
  8
ZUB2
100
AcDbPolyline
 90
        6
 70
   128
 43
1.0
 10
1960.244335684588
 20
137.9999992393038
 10
1930.244335684588
 20
137.9999992393038
 10
1930.244335684588
 20
127.9999992393038
 42
-1.0
 10
1906.244335684588
 20
127.9999992393038
 10
1906.244335684588
 20
137.9999992393038
 10
1876.244335684588
 20
137.9999992393038
  0
HATCH
  5
8F1A
330
2
100
AcDbEntity
  8
FLANK1
100
AcDbHatch
 10
0.0
 20
0.0
 30
0.0
210
0.0
220
0.0
230
1.0
  2
ANSI33
 70
     0
 71
     0
 91
        1
 92
        7
 72
     0
 73
     1
 93
        4
 10
1993.246916205026
 20
94.999999239304
 10
1693.246916205026
 20
94.999999239304
 10
1693.246916205026
 20
69.99999923930395
 10
1993.246916205026
 20
69.99999923930389
 97
        0
 75
     0
 76
     1
 52
0.0
 41
2.5
 77
     0
 78
     2
 53
45.0
 43
1192.098172802967
 44
344.0555846445793
 45
-11.22532015133644
 46
11.22532015133644
 79
     0
 53
45.0
 43
1203.323497802967
 44
344.0555846445793
 45
-11.22532015133644
 46
11.22532015133644
 79
     2
 49
7.9375
 49
-3.96875
 47
1.187768476282287
 98
        1
 10
1782.405613718298
 20
79.02947116648343
  0
LWPOLYLINE
  5
8F1B
330
2
100
AcDbEntity
  8
ZUB2
100
AcDbPolyline
 90
        2
 70
   128
 43
1.0
 10
1993.244335684588
 20
139.4999992393038
 10
1693.246916205026
 20
139.4999992393038
  0
HATCH
  5
8F1C
330
2
100
AcDbEntity
  8
DAEMM1
100
AcDbHatch
 10
0.0
 20
0.0
 30
0.0
210
0.0
220
0.0
230
1.0
  2
HONEY
 70
     0
 71
     0
 91
        1
 92
        7
 72
     0
 73
     1
 93
       12
 10
1993.244335684588
 20
136.4999992393037
 10
1932.244335684588
 20
136.4999992393037
 10
1932.244335684588
 20
114.4999992393038
 10
1904.244335684588
 20
114.4999992393038
 10
1904.244335684588
 20
136.4999992393037
 10
1782.244335684588
 20
136.4999992393038
 10
1782.244335684588
 20
114.4999992393038
 10
1754.244335684588
 20
114.4999992393038
 10
1754.244335684588
 20
136.4999992393038
 10
1693.246916205026
 20
136.4999992393038
 10
1693.246916205026
 20
96.49999923930378
 10
1993.244335684588
 20
96.49999923930378
 97
        0
 75
     0
 76
     1
 52
0.0
 41
1.25
 77
     0
 78
     3
 53
0.0
 43
1093.246338599696
 44
-168.7532902712342
 45
5.953125
 46
3.4370375
 79
     2
 49
3.96875
 49
-7.9375
 53
120.0
 43
1093.246338599696
 44
-168.7532902712342
 45
-5.953124288759756
 46
3.437038731904238
 79
     2
 49
3.968749999999992
 49
-7.937499999999983
 53
60.0
 43
1093.246338599696
 44
-168.7532902712342
 45
0.0000007112402434
 46
6.874076231904236
 79
     2
 49
-7.9375
 49
3.96875
 47
0.4646315778821851
 98
        1
 10
1852.270446089433
 20
107.7620322634861
  0
LINE
  5
8F1D
330
2
100
AcDbEntity
  8
BEPL3
100
AcDbLine
 10
1993.244335684588
 20
140.9999992393038
 30
0.0
 11
1848.245625944807
 21
140.9999992393038
 31
0.0
  0
LINE
  5
8F1E
330
2
100
AcDbEntity
  8
BEPL3
100
AcDbLine
 10
1993.244335684588
 20
158.9999992393038
 30
0.0
 11
1848.245625944807
 21
158.9999992393038
 31
0.0
  0
INSERT
  5
8F1F
330
2
100
AcDbEntity
  8
RAST
100
AcDbBlockReference
  2
gfas-18
 10
1693.246916205026
 20
140.9999992393038
 30
0.0
  0
LINE
  5
8F20
330
2
100
AcDbEntity
  8
BEPL3
100
AcDbLine
 10
1848.245625944807
 20
140.9999992393038
 30
0.0
 11
1848.245625944807
 21
158.9999992393038
 31
0.0
  0
LINE
  5
8F21
330
2
100
AcDbEntity
  8
BEPL3
100
AcDbLine
 10
1838.245625944807
 20
140.9999992393038
 30
0.0
 11
1838.245625944807
 21
158.9999992393038
 31
0.0
  0
LINE
  5
8F22
330
2
100
AcDbEntity
  8
BEPL3
100
AcDbLine
 10
1838.245625944807
 20
158.9999992393038
 30
0.0
 11
1693.246916205026
 21
158.9999992393038
 31
0.0
  0
LINE
  5
8F23
330
2
100
AcDbEntity
  8
BEPL3
100
AcDbLine
 10
1838.245625944807
 20
140.9999992393038
 30
0.0
 11
1693.246916205026
 21
140.9999992393038
 31
0.0
  0
INSERT
  5
8F24
330
2
100
AcDbEntity
  8
RAST
100
AcDbBlockReference
  2
gfas-18
 10
1736.746916205026
 20
140.9999992393038
 30
0.0
  0
INSERT
  5
8F25
330
2
100
AcDbEntity
  8
RAST
100
AcDbBlockReference
  2
gfas-18
 10
1780.246916205026
 20
140.9999992393038
 30
0.0
  0
LWPOLYLINE
  5
8F26
330
2
100
AcDbEntity
  8
RAST3
100
AcDbPolyline
 90
        3
 70
   128
 43
0.0
 10
1865.960460489197
 20
142.573327230671
 10
1865.54287779429
 20
142.6568068215787
 10
1865.709915494214
 20
142.865498451586
  0
LWPOLYLINE
  5
8F27
330
2
100
AcDbEntity
  8
RAST3
100
AcDbPolyline
 90
        3
 70
   128
 43
0.0
 10
1832.590718645363
 20
151.9519250443801
 10
1832.173135950456
 20
152.0354046352878
 10
1832.340173650381
 20
152.2440962652951
  0
LWPOLYLINE
  5
8F28
330
2
100
AcDbEntity
  8
RAST3
100
AcDbPolyline
 90
        3
 70
   128
 43
0.0
 10
1835.163440510034
 20
147.4895275391338
 10
1834.745857815127
 20
147.5730071300415
 10
1834.912895515051
 20
147.7816987600487
  0
LWPOLYLINE
  5
8F29
330
2
100
AcDbEntity
  8
RAST3
100
AcDbPolyline
 90
        3
 70
   128
 43
0.0
 10
1835.314779361647
 20
143.4052998549727
 10
1834.89719666674
 20
143.4887794458804
 10
1835.064234366664
 20
143.6974710758876
  0
LWPOLYLINE
  5
8F2A
330
2
100
AcDbEntity
  8
RAST3
100
AcDbPolyline
 90
        3
 70
   128
 43
0.0
 10
1836.331963021347
 20
156.7982719532464
 10
1835.914380326439
 20
156.8817515441541
 10
1836.081418026364
 20
157.0904431741614
  0
LWPOLYLINE
  5
8F2B
330
2
100
AcDbEntity
  8
RAST3
100
AcDbPolyline
 90
        3
 70
   128
 43
0.0
 10
1825.942864007562
 20
143.382778142748
 10
1825.525281312655
 20
143.4662577336557
 10
1825.692319012579
 20
143.6749493636629
  0
LWPOLYLINE
  5
8F2C
330
2
100
AcDbEntity
  8
RAST3
100
AcDbPolyline
 90
        3
 70
   128
 43
0.0
 10
1826.525685007269
 20
151.5737552232942
 10
1826.108102312362
 20
151.6572348142019
 10
1826.275140012287
 20
151.8659264442091
  0
LWPOLYLINE
  5
8F2D
330
2
100
AcDbEntity
  8
RAST3
100
AcDbPolyline
 90
        3
 70
   128
 43
0.0
 10
1825.536511043687
 20
157.2295554994547
 10
1825.11892834878
 20
157.3130350903624
 10
1825.285966048704
 20
157.5217267203697
  0
LWPOLYLINE
  5
8F2E
330
2
100
AcDbEntity
  8
RAST3
100
AcDbPolyline
 90
        3
 70
   128
 43
0.0
 10
1828.949315670106
 20
142.6026531777301
 10
1828.531732975199
 20
142.6861327686378
 10
1828.698770675124
 20
142.8948243986451
  0
LWPOLYLINE
  5
8F2F
330
2
100
AcDbEntity
  8
RAST3
100
AcDbPolyline
 90
        3
 70
   128
 43
0.0
 10
1830.244997335562
 20
156.5655909691049
 10
1829.827414640655
 20
156.6490705600126
 10
1829.99445234058
 20
156.8577621900198
  0
LWPOLYLINE
  5
8F30
330
2
100
AcDbEntity
  8
RAST3
100
AcDbPolyline
 90
        3
 70
   128
 43
0.0
 10
1829.014848859261
 20
147.6732097430646
 10
1828.597266164354
 20
147.7566893339723
 10
1828.764303864278
 20
147.9653809639796
  0
LWPOLYLINE
  5
8F31
330
2
100
AcDbEntity
  8
RAST3
100
AcDbPolyline
 90
        3
 70
   128
 43
0.0
 10
1825.722536672868
 20
147.8685162644078
 10
1825.304953977961
 20
147.9519958553155
 10
1825.471991677886
 20
148.1606874853227
  0
LWPOLYLINE
  5
8F32
330
2
100
AcDbEntity
  8
RAST3
100
AcDbPolyline
 90
        3
 70
   128
 43
0.0
 10
1832.239931570871
 20
145.0989156029968
 10
1831.822348875965
 20
145.1823951939045
 10
1831.989386575889
 20
145.3910868239117
  0
INSERT
  5
8F33
330
2
100
AcDbEntity
  8
RAST
100
AcDbBlockReference
  2
gfas-18
 10
1848.245625944807
 20
140.9999992393038
 30
0.0
  0
INSERT
  5
8F34
330
2
100
AcDbEntity
  8
RAST
100
AcDbBlockReference
  2
gfas-18
 10
1891.745625944807
 20
140.9999992393038
 30
0.0
  0
INSERT
  5
8F35
330
2
100
AcDbEntity
  8
RAST
100
AcDbBlockReference
  2
gfas-18
 10
1935.245625944807
 20
140.9999992393038
 30
0.0
  0
LWPOLYLINE
  5
8F36
330
2
100
AcDbEntity
  8
RAST3
100
AcDbPolyline
 90
        3
 70
   128
 43
0.0
 10
1987.589428385144
 20
151.9519250443801
 10
1987.171845690237
 20
152.0354046352878
 10
1987.338883390162
 20
152.2440962652951
  0
LWPOLYLINE
  5
8F37
330
2
100
AcDbEntity
  8
RAST3
100
AcDbPolyline
 90
        3
 70
   128
 43
0.0
 10
1990.162150249814
 20
147.4895275391338
 10
1989.744567554907
 20
147.5730071300415
 10
1989.911605254832
 20
147.7816987600487
  0
LWPOLYLINE
  5
8F38
330
2
100
AcDbEntity
  8
RAST3
100
AcDbPolyline
 90
        3
 70
   128
 43
0.0
 10
1990.313489101428
 20
143.4052998549727
 10
1989.89590640652
 20
143.4887794458804
 10
1990.062944106445
 20
143.6974710758876
  0
LWPOLYLINE
  5
8F39
330
2
100
AcDbEntity
  8
RAST3
100
AcDbPolyline
 90
        3
 70
   128
 43
0.0
 10
1991.330672761127
 20
156.7982719532464
 10
1990.91309006622
 20
156.8817515441541
 10
1991.080127766145
 20
157.0904431741614
  0
LWPOLYLINE
  5
8F3A
330
2
100
AcDbEntity
  8
RAST3
100
AcDbPolyline
 90
        3
 70
   128
 43
0.0
 10
1993.228169430091
 20
151.6770904270565
 10
1992.810586735183
 20
151.7605700179642
 10
1992.977624435108
 20
151.9692616479714
  0
LWPOLYLINE
  5
8F3B
330
2
100
AcDbEntity
  8
RAST3
100
AcDbPolyline
 90
        3
 70
   128
 43
0.0
 10
1980.941573747343
 20
143.382778142748
 10
1980.523991052435
 20
143.4662577336557
 10
1980.69102875236
 20
143.6749493636629
  0
LWPOLYLINE
  5
8F3C
330
2
100
AcDbEntity
  8
RAST3
100
AcDbPolyline
 90
        3
 70
   128
 43
0.0
 10
1981.52439474705
 20
151.5737552232942
 10
1981.106812052143
 20
151.6572348142019
 10
1981.273849752067
 20
151.8659264442091
  0
LWPOLYLINE
  5
8F3D
330
2
100
AcDbEntity
  8
RAST3
100
AcDbPolyline
 90
        3
 70
   128
 43
0.0
 10
1980.535220783467
 20
157.2295554994547
 10
1980.117638088561
 20
157.3130350903624
 10
1980.284675788485
 20
157.5217267203697
  0
LWPOLYLINE
  5
8F3E
330
2
100
AcDbEntity
  8
RAST3
100
AcDbPolyline
 90
        3
 70
   128
 43
0.0
 10
1983.948025409887
 20
142.6026531777301
 10
1983.53044271498
 20
142.6861327686378
 10
1983.697480414905
 20
142.8948243986451
  0
LWPOLYLINE
  5
8F3F
330
2
100
AcDbEntity
  8
RAST3
100
AcDbPolyline
 90
        3
 70
   128
 43
0.0
 10
1985.243707075343
 20
156.5655909691049
 10
1984.826124380436
 20
156.6490705600126
 10
1984.99316208036
 20
156.8577621900198
  0
LWPOLYLINE
  5
8F40
330
2
100
AcDbEntity
  8
RAST3
100
AcDbPolyline
 90
        3
 70
   128
 43
0.0
 10
1984.013558599042
 20
147.6732097430646
 10
1983.595975904135
 20
147.7566893339723
 10
1983.763013604059
 20
147.9653809639796
  0
LWPOLYLINE
  5
8F41
330
2
100
AcDbEntity
  8
RAST3
100
AcDbPolyline
 90
        3
 70
   128
 43
0.0
 10
1980.721246412648
 20
147.8685162644078
 10
1980.303663717742
 20
147.9519958553155
 10
1980.470701417666
 20
148.1606874853227
  0
LWPOLYLINE
  5
8F42
330
2
100
AcDbEntity
  8
RAST3
100
AcDbPolyline
 90
        3
 70
   128
 43
0.0
 10
1987.238641310652
 20
145.0989156029968
 10
1986.821058615745
 20
145.1823951939045
 10
1986.98809631567
 20
145.3910868239117
  0
LWPOLYLINE
  5
8F43
330
2
100
AcDbEntity
  8
ZUB1
100
AcDbPolyline
 90
        6
 70
   129
 43
0.0
 10
1837.245625944807
 20
165.9999992393038
 10
1838.245625944807
 20
165.9999992393038
 10
1838.245625944807
 20
159.9999992393038
 10
1818.245625944807
 20
159.9999992393038
 10
1818.245625944807
 20
160.9999992393038
 10
1837.245625944807
 20
160.9999992393038
  0
LWPOLYLINE
  5
8F44
330
2
100
AcDbEntity
  8
ZUB1
100
AcDbPolyline
 90
        6
 70
   129
 43
0.0
 10
1849.245625944807
 20
165.9999992393038
 10
1848.245625944807
 20
165.9999992393038
 10
1848.245625944807
 20
159.9999992393038
 10
1868.245625944807
 20
159.9999992393038
 10
1868.245625944807
 20
160.9999992393038
 10
1849.245625944807
 20
160.9999992393038
  0
LINE
  5
8F45
330
2
100
AcDbEntity
  8
ZUB1
100
AcDbLine
 10
1838.245625944807
 20
165.9999992393038
 30
0.0
 11
1848.245625944807
 21
165.9999992393038
 31
0.0
  0
ARC
  5
8F46
330
2
100
AcDbEntity
  8
ZUB1
100
AcDbCircle
 10
1843.245625944807
 20
169.2499992393039
 30
0.0
 40
7.250000000000083
100
AcDbArc
 50
226.3971810272876
 51
313.6028189727124
  0
LINE
  5
8F47
330
2
100
AcDbEntity
  8
ZUB2
100
AcDbLine
 10
1836.245625944807
 20
165.9999992393038
 30
0.0
 11
1693.246916205026
 21
165.9999992393038
 31
0.0
  0
LINE
  5
8F48
330
2
100
AcDbEntity
  8
ZUB2
100
AcDbLine
 10
1836.245625944807
 20
160.9999992393038
 30
0.0
 11
1836.245625944807
 21
165.9999992393038
 31
0.0
  0
LINE
  5
8F49
330
2
100
AcDbEntity
  8
ZUB2
100
AcDbLine
 10
1850.245625944807
 20
165.9999992393038
 30
0.0
 11
1993.244335684588
 21
165.9999992393038
 31
0.0
  0
LINE
  5
8F4A
330
2
100
AcDbEntity
  8
ZUB2
100
AcDbLine
 10
1850.245625944807
 20
160.9999992393038
 30
0.0
 11
1850.245625944807
 21
165.9999992393038
 31
0.0
  0
HATCH
  5
8F4B
330
2
100
AcDbEntity
  8
ZUB1
100
AcDbHatch
 10
0.0
 20
0.0
 30
0.0
210
0.0
220
0.0
230
1.0
  2
ANSI37
 70
     0
 71
     0
 91
        1
 92
        7
 72
     1
 73
     1
 93
        4
 10
1848.245625944807
 20
163.9999992393038
 42
0.0
 10
1848.245625944807
 20
165.9999992393038
 42
0.0
 10
1838.245625944807
 20
165.9999992393038
 42
0.0
 10
1838.245625944807
 20
163.9999992393038
 42
0.4000000000000002
 97
        0
 75
     0
 76
     1
 52
0.0
 41
0.5
 77
     0
 78
     2
 53
45.0
 43
1090.746338599696
 44
-180.2532902712342
 45
-1.122532015133644
 46
1.122532015133644
 79
     0
 53
135.0
 43
1090.746338599696
 44
-180.2532902712342
 45
-1.122532015133644
 46
-1.122532015133644
 79
     0
 47
0.0637724023654289
 98
        1
 10
1845.025166526326
 20
163.925537467398
  0
LINE
  5
8F4C
330
2
100
AcDbEntity
  8
BEM1
100
AcDbLine
 10
1858.245625944807
 20
190.9999992393029
 30
0.0
 11
1828.245625944807
 21
190.9999992393037
 31
0.0
  0
LINE
  5
8F4D
330
2
100
AcDbEntity
  8
BEM1
100
AcDbLine
 10
1838.245625944807
 20
175.9999992393038
 30
0.0
 11
1838.245625944807
 21
200.9999992393038
 31
0.0
  0
LINE
  5
8F4E
330
2
100
AcDbEntity
  8
BEM1
100
AcDbLine
 10
1848.245625944807
 20
175.9999992393038
 30
0.0
 11
1848.245625944807
 21
200.9999992393029
 31
0.0
  0
TEXT
  5
8F4F
330
2
100
AcDbEntity
  8
BEM3
100
AcDbText
 10
1853.245625944807
 20
195.4999992393028
 30
0.0
 40
11.0
  1
10
  7
ar-na-light
 11
1853.245625944807
 21
200.9999992393028
 31
0.0
100
AcDbText
 73
     2
  0
LINE
  5
8F50
330
2
100
AcDbEntity
  8
TEXT2
100
AcDbLine
 10
1913.559719150253
 20
188.4999992393037
 30
0.0
 11
1913.559719150253
 21
149.9999992393039
 31
0.0
  0
LINE
  5
8F51
330
2
100
AcDbEntity
  8
TEXT2
100
AcDbLine
 10
1913.559719150255
 20
188.4999992393037
 30
0.0
 11
1923.559719150255
 21
188.4999992393042
 31
0.0
  0
TEXT
  5
8F52
330
2
100
AcDbEntity
  8
TEXT3
100
AcDbText
 10
1928.559719150255
 20
182.4999992393041
 30
0.0
 40
12.0
  1
Knauf Brio 18
  7
ar-na-fett
 11
1928.559719150255
 21
188.4999992393041
 31
0.0
100
AcDbText
 73
     2
  0
LINE
  5
8F53
330
2
100
AcDbEntity
  8
TEXT2
100
AcDbLine
 10
1898.559719150254
 20
208.4999992393023
 30
0.0
 11
1898.559719150254
 21
162.4999992393038
 31
0.0
  0
LINE
  5
8F54
330
2
100
AcDbEntity
  8
TEXT2
100
AcDbLine
 10
1898.559719150256
 20
208.4999992393023
 30
0.0
 11
1908.559719150256
 21
208.4999992393028
 31
0.0
  0
TEXT
  5
8F55
330
2
100
AcDbEntity
  8
TEXT3
100
AcDbText
 10
1913.559719150256
 20
202.9999992393026
 30
0.0
 40
11.0
  1
Acabado
  7
ar-na-light
 11
1913.559719150256
 21
208.4999992393026
 31
0.0
100
AcDbText
 73
     2
  0
LWPOLYLINE
  5
8F56
330
2
100
AcDbEntity
  8
TEXT7
100
AcDbPolyline
 90
        2
 70
     1
 43
3.0
 10
1915.059719150253
 20
149.9999992393039
 42
-1.0
 10
1912.059719150253
 20
149.9999992393039
 42
-1.0
  0
LWPOLYLINE
  5
8F57
330
2
100
AcDbEntity
  8
TEXT7
100
AcDbPolyline
 90
        2
 70
     1
 43
3.0
 10
1900.059719150254
 20
162.4999992393038
 42
-1.0
 10
1897.059719150254
 20
162.4999992393038
 42
-1.0
  0
TEXT
  5
8F58
330
2
100
AcDbEntity
  8
TEXT3
100
AcDbText
 10
1652.947411219196
 20
222.9999992393038
 30
0.0
 40
11.0
  1
Placa metálica de reparto
  7
ar-na-light
 72
     2
 11
1795.84986688086
 21
228.4999992393038
 31
0.0
100
AcDbText
 73
     2
  0
TEXT
  5
8F59
330
2
100
AcDbEntity
  8
TEXT3
100
AcDbText
 10
1691.184109718513
 20
202.9999992393042
 30
0.0
 40
11.0
  1
Poliestireno con
  7
ar-na-light
 72
     2
 11
1780.84986688086
 21
208.4999992393042
 31
0.0
100
AcDbText
 73
     2
  0
LINE
  5
8F5A
330
2
100
AcDbEntity
  8
TEXT2
100
AcDbLine
 10
1795.84986688086
 20
208.4999992393038
 30
0.0
 11
1785.84986688086
 21
208.4999992393042
 31
0.0
  0
LINE
  5
8F5B
330
2
100
AcDbEntity
  8
TEXT2
100
AcDbLine
 10
1810.84986688086
 20
228.4999992393029
 30
0.0
 11
1800.84986688086
 21
228.4999992393038
 31
0.0
  0
LINE
  5
8F5C
330
2
100
AcDbEntity
  8
TEXT2
100
AcDbLine
 10
1795.84986688086
 20
116.4999992393038
 30
0.0
 11
1795.84986688086
 21
208.4999992393038
 31
0.0
  0
LINE
  5
8F5D
330
2
100
AcDbEntity
  8
TEXT2
100
AcDbLine
 10
1810.84986688086
 20
139.4999992393038
 30
0.0
 11
1810.84986688086
 21
228.4999992393029
 31
0.0
  0
TEXT
  5
8F5E
330
2
100
AcDbEntity
  8
TEXT3
100
AcDbText
 10
1672.245501260123
 20
185.4999992393042
 30
0.0
 40
11.0
  1
tubo de calefacción
  7
ar-na-light
 72
     2
 11
1780.84986688086
 21
190.9999992393042
 31
0.0
100
AcDbText
 73
     2
  0
LWPOLYLINE
  5
8F5F
330
2
100
AcDbEntity
  8
TEXT7
100
AcDbPolyline
 90
        2
 70
     1
 43
3.0
 10
1812.34986688086
 20
139.4999992393038
 42
-1.0
 10
1809.34986688086
 20
139.4999992393038
 42
-1.0
  0
LWPOLYLINE
  5
8F60
330
2
100
AcDbEntity
  8
TEXT7
100
AcDbPolyline
 90
        2
 70
     1
 43
3.0
 10
1797.34986688086
 20
116.4999992393038
 42
-1.0
 10
1794.34986688086
 20
116.4999992393038
 42
-1.0
  0
LINE
  5
8F61
330
2
100
AcDbEntity
  8
TEXT2
100
AcDbLine
 10
1883.559719150254
 20
228.499999239301
 30
0.0
 11
1893.559719150254
 21
228.4999992393014
 31
0.0
  0
LINE
  5
8F62
330
2
100
AcDbEntity
  8
TEXT2
100
AcDbLine
 10
1883.559719150254
 20
228.499999239301
 30
0.0
 11
1862.277050900923
 21
160.9999992393038
 31
0.0
  0
LWPOLYLINE
  5
8F63
330
2
100
AcDbEntity
  8
TEXT7
100
AcDbPolyline
 90
        2
 70
     1
 43
3.0
 10
1863.777050900923
 20
160.9999992393038
 42
-1.0
 10
1860.777050900923
 20
160.9999992393038
 42
-1.0
  0
TEXT
  5
8F64
330
2
100
AcDbEntity
  8
TEXT3
100
AcDbText
 10
1898.559719150254
 20
222.9999992393013
 30
0.0
 40
11.0
  1
Perfil de juntas
  7
ar-na-light
 11
1898.559719150254
 21
228.4999992393013
 31
0.0
100
AcDbText
 73
     2
  0
HATCH
  5
8F65
330
2
100
AcDbEntity
  8
ZUB1
100
AcDbHatch
 10
0.0
 20
0.0
 30
0.0
210
0.0
220
0.0
230
1.0
  2
SOLID
 70
     1
 71
     0
 91
        2
 92
        1
 93
        6
 72
     1
 10
1849.245625944807
 20
165.9999992393038
 11
1848.245625944807
 21
165.9999992393038
 72
     1
 10
1848.245625944807
 20
165.9999992393038
 11
1848.245625944807
 21
159.9999992393038
 72
     1
 10
1848.245625944807
 20
159.9999992393038
 11
1868.245625944807
 21
159.9999992393038
 72
     1
 10
1868.245625944807
 20
159.9999992393038
 11
1868.245625944807
 21
160.9999992393038
 72
     1
 10
1868.245625944807
 20
160.9999992393038
 11
1849.245625944807
 21
160.9999992393038
 72
     1
 10
1849.245625944807
 20
160.9999992393038
 11
1849.245625944807
 21
165.9999992393038
 97
        0
 92
        1
 93
        6
 72
     1
 10
1837.245625944807
 20
165.9999992393038
 11
1838.245625944807
 21
165.9999992393038
 72
     1
 10
1838.245625944807
 20
165.9999992393038
 11
1838.245625944807
 21
159.9999992393038
 72
     1
 10
1838.245625944807
 20
159.9999992393038
 11
1818.245625944807
 21
159.9999992393038
 72
     1
 10
1818.245625944807
 20
159.9999992393038
 11
1818.245625944807
 21
160.9999992393038
 72
     1
 10
1818.245625944807
 20
160.9999992393038
 11
1837.245625944807
 21
160.9999992393038
 72
     1
 10
1837.245625944807
 20
160.9999992393038
 11
1837.245625944807
 21
165.9999992393038
 97
        0
 75
     0
 76
     1
 98
        1
 10
1093.246338599696
 20
-168.7532902712342
  0
LWPOLYLINE
  5
8F66
330
2
100
AcDbEntity
  8
BEM7
100
AcDbPolyline
 90
        2
 70
     1
 43
3.0
 10
1846.745625944807
 20
190.9999992393032
 42
1.0
 10
1849.745625944807
 20
190.9999992393032
 42
1.0
  0
LWPOLYLINE
  5
8F67
330
2
100
AcDbEntity
  8
BEM7
100
AcDbPolyline
 90
        2
 70
     1
 43
3.0
 10
1836.745625944807
 20
190.9999992393034
 42
1.0
 10
1839.745625944807
 20
190.9999992393034
 42
1.0
  0
ENDSEC
  0
SECTION
  2
OBJECTS
  0
DICTIONARY
  5
1B
330
0
100
AcDbDictionary
281
     1
  3
ACAD_COLOR
350
170A
  3
ACAD_GROUP
350
19
  3
ACAD_LAYOUT
350
105
  3
ACAD_MATERIAL
350
1709
  3
ACAD_MLEADERSTYLE
350
9097
  3
ACAD_MLINESTYLE
350
1A
  3
ACAD_PLOTSETTINGS
350
106
  3
ACAD_PLOTSTYLENAME
350
103
  3
ACAD_SCALELIST
350
9085
  3
ACAD_TABLESTYLE
350
188F
  3
ACAD_VBA
350
1992
  3
ACAD_VISUALSTYLE
350
9071
  3
ACDBHEADERROUNDTRIPXREC
350
9415
  3
AcDbVariableDictionary
350
1010
  3
DWGPROPS
350
9418
  0
DICTIONARY
  5
9419
330
13
100
AcDbDictionary
280
     1
281
     1
  3
ACAD_XREC_ROUNDTRIP
360
941A
  0
DICTIONARY
  5
18A4
330
B
100
AcDbDictionary
280
     1
281
     1
  3
ACAD_LAYERFILTERS
360
673F
  3
ACAD_LAYERSTATES
360
18A5
  3
ACLYDICTIONARY
360
673E
  0
DICTIONARY
  5
9376
330
C
100
AcDbDictionary
280
     1
281
     1
  3
ADSK_XREC_LAYER_RECONCILED
360
9377
  0
DICTIONARY
  5
9378
330
4CC
100
AcDbDictionary
280
     1
281
     1
  3
ADSK_XREC_LAYER_RECONCILED
360
9379
  0
DICTIONARY
  5
937A
330
4D4
100
AcDbDictionary
280
     1
281
     1
  3
ADSK_XREC_LAYER_RECONCILED
360
937B
  0
DICTIONARY
  5
937C
330
4D6
100
AcDbDictionary
280
     1
281
     1
  3
ADSK_XREC_LAYER_RECONCILED
360
937D
  0
DICTIONARY
  5
937E
330
189E
100
AcDbDictionary
280
     1
281
     1
  3
ADSK_XREC_LAYER_RECONCILED
360
937F
  0
DICTIONARY
  5
9380
330
19BE
100
AcDbDictionary
280
     1
281
     1
  3
ADSK_XREC_LAYER_RECONCILED
360
9381
  0
DICTIONARY
  5
9382
330
6E25
100
AcDbDictionary
280
     1
281
     1
  3
ADSK_XREC_LAYER_RECONCILED
360
9383
  0
DICTIONARY
  5
9384
330
6E26
100
AcDbDictionary
280
     1
281
     1
  3
ADSK_XREC_LAYER_RECONCILED
360
9385
  0
DICTIONARY
  5
9386
330
6E27
100
AcDbDictionary
280
     1
281
     1
  3
ADSK_XREC_LAYER_RECONCILED
360
9387
  0
DICTIONARY
  5
9388
330
6E28
100
AcDbDictionary
280
     1
281
     1
  3
ADSK_XREC_LAYER_RECONCILED
360
9389
  0
DICTIONARY
  5
938A
330
6E29
100
AcDbDictionary
280
     1
281
     1
  3
ADSK_XREC_LAYER_RECONCILED
360
938B
  0
DICTIONARY
  5
938C
330
6E2A
100
AcDbDictionary
280
     1
281
     1
  3
ADSK_XREC_LAYER_RECONCILED
360
938D
  0
DICTIONARY
  5
938E
330
6E2B
100
AcDbDictionary
280
     1
281
     1
  3
ADSK_XREC_LAYER_RECONCILED
360
938F
  0
DICTIONARY
  5
9390
330
6E2C
100
AcDbDictionary
280
     1
281
     1
  3
ADSK_XREC_LAYER_RECONCILED
360
9391
  0
DICTIONARY
  5
9392
330
6E2D
100
AcDbDictionary
280
     1
281
     1
  3
ADSK_XREC_LAYER_RECONCILED
360
9393
  0
DICTIONARY
  5
9394
330
6E2E
100
AcDbDictionary
280
     1
281
     1
  3
ADSK_XREC_LAYER_RECONCILED
360
9395
  0
DICTIONARY
  5
9396
330
6E2F
100
AcDbDictionary
280
     1
281
     1
  3
ADSK_XREC_LAYER_RECONCILED
360
9397
  0
DICTIONARY
  5
9398
330
6E30
100
AcDbDictionary
280
     1
281
     1
  3
ADSK_XREC_LAYER_RECONCILED
360
9399
  0
DICTIONARY
  5
939A
330
6E31
100
AcDbDictionary
280
     1
281
     1
  3
ADSK_XREC_LAYER_RECONCILED
360
939B
  0
DICTIONARY
  5
939C
330
6E32
100
AcDbDictionary
280
     1
281
     1
  3
ADSK_XREC_LAYER_RECONCILED
360
939D
  0
DICTIONARY
  5
939E
330
6E33
100
AcDbDictionary
280
     1
281
     1
  3
ADSK_XREC_LAYER_RECONCILED
360
939F
  0
DICTIONARY
  5
93A0
330
6E34
100
AcDbDictionary
280
     1
281
     1
  3
ADSK_XREC_LAYER_RECONCILED
360
93A1
  0
DICTIONARY
  5
93A2
330
6E35
100
AcDbDictionary
280
     1
281
     1
  3
ADSK_XREC_LAYER_RECONCILED
360
93A3
  0
DICTIONARY
  5
93A4
330
6E36
100
AcDbDictionary
280
     1
281
     1
  3
ADSK_XREC_LAYER_RECONCILED
360
93A5
  0
DICTIONARY
  5
93A6
330
6E37
100
AcDbDictionary
280
     1
281
     1
  3
ADSK_XREC_LAYER_RECONCILED
360
93A7
  0
DICTIONARY
  5
93A8
330
6E38
100
AcDbDictionary
280
     1
281
     1
  3
ADSK_XREC_LAYER_RECONCILED
360
93A9
  0
DICTIONARY
  5
93AA
330
6E39
100
AcDbDictionary
280
     1
281
     1
  3
ADSK_XREC_LAYER_RECONCILED
360
93AB
  0
DICTIONARY
  5
93AC
330
6E3B
100
AcDbDictionary
280
     1
281
     1
  3
ADSK_XREC_LAYER_RECONCILED
360
93AD
  0
DICTIONARY
  5
93AE
330
6E3D
100
AcDbDictionary
280
     1
281
     1
  3
ADSK_XREC_LAYER_RECONCILED
360
93AF
  0
DICTIONARY
  5
93B0
330
6E3E
100
AcDbDictionary
280
     1
281
     1
  3
ADSK_XREC_LAYER_RECONCILED
360
93B1
  0
DICTIONARY
  5
93B2
330
6E3F
100
AcDbDictionary
280
     1
281
     1
  3
ADSK_XREC_LAYER_RECONCILED
360
93B3
  0
DICTIONARY
  5
93B4
330
6E42
100
AcDbDictionary
280
     1
281
     1
  3
ADSK_XREC_LAYER_RECONCILED
360
93B5
  0
DICTIONARY
  5
93B6
330
6E44
100
AcDbDictionary
280
     1
281
     1
  3
ADSK_XREC_LAYER_RECONCILED
360
93B7
  0
DICTIONARY
  5
93B8
330
6E45
100
AcDbDictionary
280
     1
281
     1
  3
ADSK_XREC_LAYER_RECONCILED
360
93B9
  0
DICTIONARY
  5
93BA
330
7A22
100
AcDbDictionary
280
     1
281
     1
  3
ADSK_XREC_LAYER_RECONCILED
360
93BB
  0
DICTIONARY
  5
93BC
330
7A25
100
AcDbDictionary
280
     1
281
     1
  3
ADSK_XREC_LAYER_RECONCILED
360
93BD
  0
DICTIONARY
  5
93BE
330
7A26
100
AcDbDictionary
280
     1
281
     1
  3
ADSK_XREC_LAYER_RECONCILED
360
93BF
  0
DICTIONARY
  5
93C0
330
7A27
100
AcDbDictionary
280
     1
281
     1
  3
ADSK_XREC_LAYER_RECONCILED
360
93C1
  0
DICTIONARY
  5
93C2
330
7A28
100
AcDbDictionary
280
     1
281
     1
  3
ADSK_XREC_LAYER_RECONCILED
360
93C3
  0
DICTIONARY
  5
93C4
330
7A29
100
AcDbDictionary
280
     1
281
     1
  3
ADSK_XREC_LAYER_RECONCILED
360
93C5
  0
DICTIONARY
  5
93C6
330
7A2C
100
AcDbDictionary
280
     1
281
     1
  3
ADSK_XREC_LAYER_RECONCILED
360
93C7
  0
DICTIONARY
  5
93C8
330
7A2D
100
AcDbDictionary
280
     1
281
     1
  3
ADSK_XREC_LAYER_RECONCILED
360
93C9
  0
DICTIONARY
  5
93CA
330
873B
100
AcDbDictionary
280
     1
281
     1
  3
ADSK_XREC_LAYER_RECONCILED
360
93CB
  0
DICTIONARY
  5
93CC
330
873C
100
AcDbDictionary
280
     1
281
     1
  3
ADSK_XREC_LAYER_RECONCILED
360
93CD
  0
DICTIONARY
  5
93CE
330
873D
100
AcDbDictionary
280
     1
281
     1
  3
ADSK_XREC_LAYER_RECONCILED
360
93CF
  0
DICTIONARY
  5
93D0
330
8A62
100
AcDbDictionary
280
     1
281
     1
  3
ADSK_XREC_LAYER_RECONCILED
360
93D1
  0
DICTIONARY
  5
93D2
330
8D2D
100
AcDbDictionary
280
     1
281
     1
  3
ADSK_XREC_LAYER_RECONCILED
360
93D3
  0
DICTIONARY
  5
34D
330
2
100
AcDbDictionary
280
     1
281
     1
  3
ACAD_SORTENTS
360
1101
  0
DICTIONARY
  5
170A
102
{ACAD_REACTORS
330
1B
102
}
330
1B
100
AcDbDictionary
281
     1
  0
DICTIONARY
  5
19
102
{ACAD_REACTORS
330
1B
102
}
330
1B
100
AcDbDictionary
281
     1
  0
DICTIONARY
  5
105
102
{ACAD_REACTORS
330
1B
102
}
330
1B
100
AcDbDictionary
281
     1
  3
Layout1
350
108
  3
Model
350
107
  0
DICTIONARY
  5
1709
102
{ACAD_REACTORS
330
1B
102
}
330
1B
100
AcDbDictionary
281
     1
  3
ByBlock
350
9061
  3
ByLayer
350
9059
  3
Global
350
9069
  0
DICTIONARY
  5
9097
102
{ACAD_REACTORS
330
1B
102
}
330
1B
100
AcDbDictionary
281
     1
  3
Standard
350
9098
  0
DICTIONARY
  5
1A
102
{ACAD_REACTORS
330
1B
102
}
330
1B
100
AcDbDictionary
281
     1
  3
STANDARD
350
1E
  0
DICTIONARY
  5
106
102
{ACAD_REACTORS
330
1B
102
}
330
1B
100
AcDbDictionary
281
     1
  0
ACDBDICTIONARYWDFLT
  5
103
102
{ACAD_REACTORS
330
1B
102
}
330
1B
100
AcDbDictionary
281
     1
  3
Normal
350
104
100
AcDbDictionaryWithDefault
340
104
  0
DICTIONARY
  5
9085
102
{ACAD_REACTORS
330
1B
102
}
330
1B
100
AcDbDictionary
281
     1
  3
A0
350
9086
  3
A1
350
9087
  3
A2
350
9088
  3
A3
350
9089
  3
A4
350
908A
  3
A5
350
908B
  3
A6
350
908C
  3
A7
350
908D
  3
A8
350
908E
  3
A9
350
908F
  3
B0
350
9090
  3
B1
350
9091
  3
B2
350
9092
  3
B3
350
9093
  3
B4
350
9094
  3
B5
350
9095
  3
B6
350
9096
  0
DICTIONARY
  5
188F
102
{ACAD_REACTORS
330
1B
102
}
330
1B
100
AcDbDictionary
281
     1
  3
Standard
350
1890
  0
DICTIONARY
  5
1992
102
{ACAD_REACTORS
330
1B
102
}
330
1B
100
AcDbDictionary
281
     1
  3
VBAProject
350
1993
  0
DICTIONARY
  5
9071
102
{ACAD_REACTORS
330
1B
102
}
330
1B
100
AcDbDictionary
281
     1
  3
2dWireframe
350
9077
  3
3D Hidden
350
9079
  3
3dWireframe
350
9078
  3
Basic
350
9076
  3
Brighten
350
907D
  3
ColorChange
350
9081
  3
Conceptual
350
907A
  3
Dim
350
907C
  3
EdgeColorOff
350
9084
  3
Facepattern
350
9080
  3
Flat
350
9072
  3
FlatWithEdges
350
9073
  3
Gouraud
350
9074
  3
GouraudWithEdges
350
9075
  3
Hidden
350
940B
  3
JitterOff
350
9082
  3
Linepattern
350
907F
  3
OverhangOff
350
9083
  3
Realistic
350
907B
  3
Shaded
350
9410
  3
Shaded with edges
350
940F
  3
Shades of Gray
350
940C
  3
Sketchy
350
940D
  3
Thicken
350
907E
  3
Wireframe
350
940A
  3
X-Ray
350
940E
  0
DICTIONARY
  5
9415
102
{ACAD_REACTORS
330
1B
102
}
330
1B
100
AcDbDictionary
281
     1
  3
COLORDICT
350
9416
  3
MATERIALDICT
350
9417
  0
DICTIONARY
  5
1010
102
{ACAD_REACTORS
330
1B
102
}
330
1B
100
AcDbDictionary
281
     1
  3
CANNOSCALE
350
93D6
  3
CMLEADERSTYLE
350
93D4
  3
CTABLESTYLE
350
198A
  3
DIMASSOC
350
1718
  3
HIDETEXT
350
9411
  3
LAYEREVAL
350
93D8
  3
LAYERNOTIFY
350
93D9
  3
LIGHTINGUNITS
350
93D7
  3
MSLTSCALE
350
93D5
  3
PROJECTNAME
350
1719
  3
SORTENTS
350
1011
  3
XCLIPFRAME
350
9412
  0
XRECORD
  5
9418
102
{ACAD_REACTORS
330
1B
102
}
330
1B
100
AcDbXrecord
280
     1
  1
DWGPROPS COOKIE
  2

  3

  4

  6

  7

  8
acae2
  9

300
GAIN_AKT=11^IT2024^II:\ARCHIV\ZPM\TA\^IA^I95^I0b000c9f^I^I^IZPM^I^I^IZP^I^I1^Ischal1-3^I
301
=
302
=
303
=
304
=
305
=
306
=
307
=
308
=
309
=
 40
0.0
 41
2452345.647674155
 42
2460327.457234629
  1

 90
        1
  0
XRECORD
  5
941A
102
{ACAD_REACTORS
330
9419
102
}
330
9419
100
AcDbXrecord
280
     1
102
VTR_0.000_0.000_1.000_1.000_VISUALSTYLE
340
9077
102
VTR_0.000_0.000_1.000_1.000_GRIDDISPLAY
 70
     3
102
VTR_0.000_0.000_1.000_1.000_GRIDMAJOR
 70
     5
102
VTR_0.000_0.000_1.000_1.000_DEFAULTLIGHTING
280
     1
102
VTR_0.000_0.000_1.000_1.000_DEFAULTLIGHTINGTYPE
 70
     1
102
VTR_0.000_0.000_1.000_1.000_BRIGHTNESS
141
0.0
102
VTR_0.000_0.000_1.000_1.000_CONTRAST
142
0.0
  0
DICTIONARY
  5
673F
102
{ACAD_REACTORS
330
18A4
102
}
330
18A4
100
AcDbDictionary
281
     1
  0
DICTIONARY
  5
18A5
102
{ACAD_REACTORS
330
18A4
102
}
330
18A4
100
AcDbDictionary
281
     1
  0
DICTIONARY
  5
673E
102
{ACAD_REACTORS
330
18A4
102
}
330
18A4
100
AcDbDictionary
281
     1
1001
ACAD
1000
<All
  0
XRECORD
  5
9377
102
{ACAD_REACTORS
330
9376
102
}
330
9376
100
AcDbXrecord
280
     1
290
     1
  0
XRECORD
  5
9379
102
{ACAD_REACTORS
330
9378
102
}
330
9378
100
AcDbXrecord
280
     1
290
     1
  0
XRECORD
  5
937B
102
{ACAD_REACTORS
330
937A
102
}
330
937A
100
AcDbXrecord
280
     1
290
     1
  0
XRECORD
  5
937D
102
{ACAD_REACTORS
330
937C
102
}
330
937C
100
AcDbXrecord
280
     1
290
     1
  0
XRECORD
  5
937F
102
{ACAD_REACTORS
330
937E
102
}
330
937E
100
AcDbXrecord
280
     1
290
     1
  0
XRECORD
  5
9381
102
{ACAD_REACTORS
330
9380
102
}
330
9380
100
AcDbXrecord
280
     1
290
     1
  0
XRECORD
  5
9383
102
{ACAD_REACTORS
330
9382
102
}
330
9382
100
AcDbXrecord
280
     1
290
     1
  0
XRECORD
  5
9385
102
{ACAD_REACTORS
330
9384
102
}
330
9384
100
AcDbXrecord
280
     1
290
     1
  0
XRECORD
  5
9387
102
{ACAD_REACTORS
330
9386
102
}
330
9386
100
AcDbXrecord
280
     1
290
     1
  0
XRECORD
  5
9389
102
{ACAD_REACTORS
330
9388
102
}
330
9388
100
AcDbXrecord
280
     1
290
     1
  0
XRECORD
  5
938B
102
{ACAD_REACTORS
330
938A
102
}
330
938A
100
AcDbXrecord
280
     1
290
     1
  0
XRECORD
  5
938D
102
{ACAD_REACTORS
330
938C
102
}
330
938C
100
AcDbXrecord
280
     1
290
     1
  0
XRECORD
  5
938F
102
{ACAD_REACTORS
330
938E
102
}
330
938E
100
AcDbXrecord
280
     1
290
     1
  0
XRECORD
  5
9391
102
{ACAD_REACTORS
330
9390
102
}
330
9390
100
AcDbXrecord
280
     1
290
     1
  0
XRECORD
  5
9393
102
{ACAD_REACTORS
330
9392
102
}
330
9392
100
AcDbXrecord
280
     1
290
     1
  0
XRECORD
  5
9395
102
{ACAD_REACTORS
330
9394
102
}
330
9394
100
AcDbXrecord
280
     1
290
     1
  0
XRECORD
  5
9397
102
{ACAD_REACTORS
330
9396
102
}
330
9396
100
AcDbXrecord
280
     1
290
     1
  0
XRECORD
  5
9399
102
{ACAD_REACTORS
330
9398
102
}
330
9398
100
AcDbXrecord
280
     1
290
     1
  0
XRECORD
  5
939B
102
{ACAD_REACTORS
330
939A
102
}
330
939A
100
AcDbXrecord
280
     1
290
     1
  0
XRECORD
  5
939D
102
{ACAD_REACTORS
330
939C
102
}
330
939C
100
AcDbXrecord
280
     1
290
     1
  0
XRECORD
  5
939F
102
{ACAD_REACTORS
330
939E
102
}
330
939E
100
AcDbXrecord
280
     1
290
     1
  0
XRECORD
  5
93A1
102
{ACAD_REACTORS
330
93A0
102
}
330
93A0
100
AcDbXrecord
280
     1
290
     1
  0
XRECORD
  5
93A3
102
{ACAD_REACTORS
330
93A2
102
}
330
93A2
100
AcDbXrecord
280
     1
290
     1
  0
XRECORD
  5
93A5
102
{ACAD_REACTORS
330
93A4
102
}
330
93A4
100
AcDbXrecord
280
     1
290
     1
  0
XRECORD
  5
93A7
102
{ACAD_REACTORS
330
93A6
102
}
330
93A6
100
AcDbXrecord
280
     1
290
     1
  0
XRECORD
  5
93A9
102
{ACAD_REACTORS
330
93A8
102
}
330
93A8
100
AcDbXrecord
280
     1
290
     1
  0
XRECORD
  5
93AB
102
{ACAD_REACTORS
330
93AA
102
}
330
93AA
100
AcDbXrecord
280
     1
290
     1
  0
XRECORD
  5
93AD
102
{ACAD_REACTORS
330
93AC
102
}
330
93AC
100
AcDbXrecord
280
     1
290
     1
  0
XRECORD
  5
93AF
102
{ACAD_REACTORS
330
93AE
102
}
330
93AE
100
AcDbXrecord
280
     1
290
     1
  0
XRECORD
  5
93B1
102
{ACAD_REACTORS
330
93B0
102
}
330
93B0
100
AcDbXrecord
280
     1
290
     1
  0
XRECORD
  5
93B3
102
{ACAD_REACTORS
330
93B2
102
}
330
93B2
100
AcDbXrecord
280
     1
290
     1
  0
XRECORD
  5
93B5
102
{ACAD_REACTORS
330
93B4
102
}
330
93B4
100
AcDbXrecord
280
     1
290
     1
  0
XRECORD
  5
93B7
102
{ACAD_REACTORS
330
93B6
102
}
330
93B6
100
AcDbXrecord
280
     1
290
     1
  0
XRECORD
  5
93B9
102
{ACAD_REACTORS
330
93B8
102
}
330
93B8
100
AcDbXrecord
280
     1
290
     1
  0
XRECORD
  5
93BB
102
{ACAD_REACTORS
330
93BA
102
}
330
93BA
100
AcDbXrecord
280
     1
290
     1
  0
XRECORD
  5
93BD
102
{ACAD_REACTORS
330
93BC
102
}
330
93BC
100
AcDbXrecord
280
     1
290
     1
  0
XRECORD
  5
93BF
102
{ACAD_REACTORS
330
93BE
102
}
330
93BE
100
AcDbXrecord
280
     1
290
     1
  0
XRECORD
  5
93C1
102
{ACAD_REACTORS
330
93C0
102
}
330
93C0
100
AcDbXrecord
280
     1
290
     1
  0
XRECORD
  5
93C3
102
{ACAD_REACTORS
330
93C2
102
}
330
93C2
100
AcDbXrecord
280
     1
290
     1
  0
XRECORD
  5
93C5
102
{ACAD_REACTORS
330
93C4
102
}
330
93C4
100
AcDbXrecord
280
     1
290
     1
  0
XRECORD
  5
93C7
102
{ACAD_REACTORS
330
93C6
102
}
330
93C6
100
AcDbXrecord
280
     1
290
     1
  0
XRECORD
  5
93C9
102
{ACAD_REACTORS
330
93C8
102
}
330
93C8
100
AcDbXrecord
280
     1
290
     1
  0
XRECORD
  5
93CB
102
{ACAD_REACTORS
330
93CA
102
}
330
93CA
100
AcDbXrecord
280
     1
290
     1
  0
XRECORD
  5
93CD
102
{ACAD_REACTORS
330
93CC
102
}
330
93CC
100
AcDbXrecord
280
     1
290
     1
  0
XRECORD
  5
93CF
102
{ACAD_REACTORS
330
93CE
102
}
330
93CE
100
AcDbXrecord
280
     1
290
     1
  0
XRECORD
  5
93D1
102
{ACAD_REACTORS
330
93D0
102
}
330
93D0
100
AcDbXrecord
280
     1
290
     1
  0
XRECORD
  5
93D3
102
{ACAD_REACTORS
330
93D2
102
}
330
93D2
100
AcDbXrecord
280
     1
290
     1
  0
SORTENTSTABLE
  5
1101
102
{ACAD_REACTORS
330
34D
102
}
330
34D
100
AcDbSortentsTable
330
2
331
81AE
  5
84C0
331
81AF
  5
84C1
331
8F04
  5
73F5
331
8F05
  5
8F0B
331
8F06
  5
8F0C
331
8F07
  5
8F0D
331
8F08
  5
8F0E
331
8F09
  5
8F0F
331
8F0A
  5
8F10
331
8F0B
  5
8F11
331
8F0C
  5
8F12
331
8F0D
  5
8F13
331
8F0E
  5
8F14
331
8F0F
  5
8F15
331
8F10
  5
8F16
331
8F11
  5
8F17
331
8F12
  5
8F18
331
8F13
  5
8F19
331
8F14
  5
8F1A
331
8F15
  5
8F1B
331
8F16
  5
8F1C
331
8F17
  5
8F1D
331
8F18
  5
8F1E
331
8F19
  5
8F1F
331
8F1A
  5
8F20
331
8F1B
  5
8F21
331
8F1C
  5
8F22
331
8F1D
  5
8F23
331
8F1E
  5
8F24
331
8F1F
  5
8F25
331
8F20
  5
8F26
331
8F21
  5
8F27
331
8F22
  5
8F28
331
8F23
  5
8F29
331
8F24
  5
8F2A
331
8F25
  5
8F2B
331
8F26
  5
8F2C
331
8F27
  5
8F2D
331
8F28
  5
8F2E
331
8F29
  5
8F2F
331
8F2A
  5
8F30
331
8F2B
  5
8F31
331
8F2C
  5
8F32
331
8F2D
  5
8F33
331
8F2E
  5
8F34
331
8F2F
  5
8F35
331
8F30
  5
8F36
331
8F31
  5
8F37
331
8F32
  5
8F38
331
8F33
  5
8F39
331
8F34
  5
8F3A
331
8F35
  5
8F3B
331
8F36
  5
8F3C
331
8F37
  5
8F3D
331
8F38
  5
8F3E
331
8F39
  5
8F3F
331
8F3A
  5
8F40
331
8F3B
  5
8F41
331
8F3C
  5
8F42
331
8F3D
  5
8F43
331
8F3E
  5
8F44
331
8F3F
  5
8F45
331
8F40
  5
8F46
331
8F41
  5
8F47
331
8F42
  5
8F48
331
8F43
  5
8F49
331
8F44
  5
8F4A
331
8F45
  5
8F4B
331
8F46
  5
8F4C
331
8F47
  5
8F4D
331
8F48
  5
8F4E
331
8F49
  5
8F4F
331
8F4A
  5
8F50
331
8F4B
  5
8F51
331
8F4C
  5
8F52
331
8F4D
  5
8F53
331
8F4E
  5
8F54
331
8F4F
  5
8F55
331
8F50
  5
8F56
331
8F51
  5
8F57
331
8F52
  5
8F58
331
8F53
  5
8F59
331
8F54
  5
8F5A
331
8F55
  5
8F5B
331
8F56
  5
8F5C
331
8F57
  5
8F5D
331
8F58
  5
8F5E
331
8F59
  5
8F5F
331
8F5A
  5
8F60
331
8F5B
  5
8F61
331
8F5C
  5
8F62
331
8F5D
  5
8F63
331
8F5E
  5
8F64
331
8F5F
  5
8F65
331
8F60
  5
8F66
331
8F61
  5
8F67
331
8F62
  5
8F6E
331
8F63
  5
8F72
331
8F64
  5
8F73
331
8F65
  5
8F74
331
8F66
  5
8F75
331
8F67
  5
8F86
  0
LAYOUT
  5
108
102
{ACAD_REACTORS
330
105
102
}
330
105
100
AcDbPlotSettings
  1

  2
C:\Programme\AutoCAD2000i\plotters\X8830.pc3
  4

  6

 40
0.0
 41
0.0
 42
0.0
 43
0.0
 44
0.0
 45
0.0
 46
0.0
 47
0.0
 48
0.0
 49
0.0
140
0.0
141
0.0
142
1.0
143
1.0
 70
   688
 72
     0
 73
     0
 74
     5
  7
monochrome.ctb
 75
    16
147
1.0
148
0.0
149
0.0
100
AcDbLayout
  1
Layout1
 70
     0
 71
     1
 10
0.0
 20
0.0
 11
12.0
 21
9.0
 12
0.0
 22
0.0
 32
0.0
 14
1.000000000000000E+20
 24
1.000000000000000E+20
 34
1.000000000000000E+20
 15
-1.000000000000000E+20
 25
-1.000000000000000E+20
 35
-1.000000000000000E+20
146
0.0
 13
0.0
 23
0.0
 33
0.0
 16
1.0
 26
0.0
 36
0.0
 17
0.0
 27
1.0
 37
0.0
 76
     0
330
3
  0
LAYOUT
  5
107
102
{ACAD_REACTORS
330
105
102
}
330
105
100
AcDbPlotSettings
  1

  2
impresora IR2270 Canon
  4
A4
  6

 40
6.805083274841309
 41
5.619736671447754
 42
6.974411010742188
 43
5.027069091796875
 44
209.9733276367188
 45
296.9259948730469
 46
0.0
 47
4.402526685169761
 48
50.0
 49
50.0
140
937.9017133561965
141
1465.25192025871
142
1.0
143
5.351850168097672
 70
 11956
 72
     1
 73
     0
 74
     2
  7
monochrome.ctb
 75
     0
147
0.1868512698582241
148
0.0
149
0.0
100
AcDbLayout
  1
Model
 70
     1
 71
     0
 10
0.0
 20
0.0
 11
12.0
 21
9.0
 12
0.0
 22
0.0
 32
0.0
 14
0.0
 24
0.0
 34
0.0
 15
0.0
 25
0.0
 35
0.0
146
0.0
 13
0.0
 23
0.0
 33
0.0
 16
1.0
 26
0.0
 36
0.0
 17
0.0
 27
1.0
 37
0.0
 76
     0
330
2
331
9057
1001
ACAD_PSEXT
1000
impresora IR2270 Canon
1000
Canon iR2270/iR2870 PCL5e
1000
IP_192.168.3.6
1000

1070
     0
  0
MATERIAL
  5
9061
102
{ACAD_REACTORS
330
1709
102
}
102
{ACAD_XDICTIONARY
360
941B
102
}
330
1709
100
AcDbMaterial
  1
ByBlock
 72
     0
 73
     2
 43
0.0208333333333333
 43
0.0
 43
0.0
 43
0.0
 43
0.0
 43
0.0208333333333333
 43
0.0
 43
0.0
 43
0.0
 43
0.0
 43
1.0
 43
0.0
 43
0.0
 43
0.0
 43
0.0
 43
1.0
 77
     0
 78
     2
 47
0.0208333333333333
 47
0.0
 47
0.0
 47
0.0
 47
0.0
 47
0.0208333333333333
 47
0.0
 47
0.0
 47
0.0
 47
0.0
 47
1.0
 47
0.0
 47
0.0
 47
0.0
 47
0.0
 47
1.0
171
     0
172
     2
 49
0.0208333333333333
 49
0.0
 49
0.0
 49
0.0
 49
0.0
 49
0.0208333333333333
 49
0.0
 49
0.0
 49
0.0
 49
0.0
 49
1.0
 49
0.0
 49
0.0
 49
0.0
 49
0.0
 49
1.0
175
     0
176
     2
142
0.0208333333333333
142
0.0
142
0.0
142
0.0
142
0.0
142
0.0208333333333333
142
0.0
142
0.0
142
0.0
142
0.0
142
1.0
142
0.0
142
0.0
142
0.0
142
0.0
142
1.0
179
     0
270
     2
144
0.0208333333333333
144
0.0
144
0.0
144
0.0
144
0.0
144
0.0208333333333333
144
0.0
144
0.0
144
0.0
144
0.0
144
1.0
144
0.0
144
0.0
144
0.0
144
0.0
144
1.0
274
     2
147
0.0208333333333333
147
0.0
147
0.0
147
0.0
147
0.0
147
0.0208333333333333
147
0.0
147
0.0
147
0.0
147
0.0
147
1.0
147
0.0
147
0.0
147
0.0
147
0.0
147
1.0
  0
MATERIAL
  5
9059
102
{ACAD_REACTORS
330
1709
102
}
102
{ACAD_XDICTIONARY
360
941D
102
}
330
1709
100
AcDbMaterial
  1
ByLayer
 72
     0
 73
     2
 43
0.0208333333333333
 43
0.0
 43
0.0
 43
0.0
 43
0.0
 43
0.0208333333333333
 43
0.0
 43
0.0
 43
0.0
 43
0.0
 43
1.0
 43
0.0
 43
0.0
 43
0.0
 43
0.0
 43
1.0
 77
     0
 78
     2
 47
0.0208333333333333
 47
0.0
 47
0.0
 47
0.0
 47
0.0
 47
0.0208333333333333
 47
0.0
 47
0.0
 47
0.0
 47
0.0
 47
1.0
 47
0.0
 47
0.0
 47
0.0
 47
0.0
 47
1.0
171
     0
172
     2
 49
0.0208333333333333
 49
0.0
 49
0.0
 49
0.0
 49
0.0
 49
0.0208333333333333
 49
0.0
 49
0.0
 49
0.0
 49
0.0
 49
1.0
 49
0.0
 49
0.0
 49
0.0
 49
0.0
 49
1.0
175
     0
176
     2
142
0.0208333333333333
142
0.0
142
0.0
142
0.0
142
0.0
142
0.0208333333333333
142
0.0
142
0.0
142
0.0
142
0.0
142
1.0
142
0.0
142
0.0
142
0.0
142
0.0
142
1.0
179
     0
270
     2
144
0.0208333333333333
144
0.0
144
0.0
144
0.0
144
0.0
144
0.0208333333333333
144
0.0
144
0.0
144
0.0
144
0.0
144
1.0
144
0.0
144
0.0
144
0.0
144
0.0
144
1.0
274
     2
147
0.0208333333333333
147
0.0
147
0.0
147
0.0
147
0.0
147
0.0208333333333333
147
0.0
147
0.0
147
0.0
147
0.0
147
1.0
147
0.0
147
0.0
147
0.0
147
0.0
147
1.0
  0
MATERIAL
  5
9069
102
{ACAD_REACTORS
330
1709
102
}
102
{ACAD_XDICTIONARY
360
941F
102
}
330
1709
100
AcDbMaterial
  1
Global
 72
     0
 73
     2
 43
0.0208333333333333
 43
0.0
 43
0.0
 43
0.0
 43
0.0
 43
0.0208333333333333
 43
0.0
 43
0.0
 43
0.0
 43
0.0
 43
1.0
 43
0.0
 43
0.0
 43
0.0
 43
0.0
 43
1.0
 77
     0
 78
     2
 47
0.0208333333333333
 47
0.0
 47
0.0
 47
0.0
 47
0.0
 47
0.0208333333333333
 47
0.0
 47
0.0
 47
0.0
 47
0.0
 47
1.0
 47
0.0
 47
0.0
 47
0.0
 47
0.0
 47
1.0
171
     0
172
     2
 49
0.0208333333333333
 49
0.0
 49
0.0
 49
0.0
 49
0.0
 49
0.0208333333333333
 49
0.0
 49
0.0
 49
0.0
 49
0.0
 49
1.0
 49
0.0
 49
0.0
 49
0.0
 49
0.0
 49
1.0
175
     0
176
     2
142
0.0208333333333333
142
0.0
142
0.0
142
0.0
142
0.0
142
0.0208333333333333
142
0.0
142
0.0
142
0.0
142
0.0
142
1.0
142
0.0
142
0.0
142
0.0
142
0.0
142
1.0
179
     0
270
     2
144
0.0208333333333333
144
0.0
144
0.0
144
0.0
144
0.0
144
0.0208333333333333
144
0.0
144
0.0
144
0.0
144
0.0
144
1.0
144
0.0
144
0.0
144
0.0
144
0.0
144
1.0
274
     2
147
0.0208333333333333
147
0.0
147
0.0
147
0.0
147
0.0
147
0.0208333333333333
147
0.0
147
0.0
147
0.0
147
0.0
147
1.0
147
0.0
147
0.0
147
0.0
147
0.0
147
1.0
  0
MLEADERSTYLE
  5
9098
102
{ACAD_REACTORS
330
9097
102
}
102
{ACAD_XDICTIONARY
360
9421
102
}
330
9097
100
AcDbMLeaderStyle
170
     2
171
     1
172
     0
 90
        2
 40
0.0
 41
0.0
173
     1
 91
-1056964608
340
10
 92
       -2
290
     1
 42
2.0
291
     1
 43
0.36
  3
Standard
341
0
 44
4.0
300

342
E
174
     1
178
     6
175
     1
176
     0
 93
-1056964608
 45
4.0
292
     0
297
     0
 46
4.0
343
0
 94
-1056964608
 47
1.0
 49
1.0
140
1.0
293
     1
141
0.0
294
     1
177
     0
142
1.0
295
     0
296
     0
143
0.125
1001
ACAD_MLEADERVER
1070
     2
  0
MLINESTYLE
  5
1E
102
{ACAD_REACTORS
330
1A
102
}
330
1A
100
AcDbMlineStyle
  2
STANDARD
 70
     0
  3

 62
     0
 51
90.0
 52
90.0
 71
     2
 49
0.5
 62
   256
  6
BYLAYER
 49
-0.5
 62
   256
  6
BYLAYER
  0
ACDBPLACEHOLDER
  5
104
102
{ACAD_REACTORS
330
103
102
}
330
103
  0
SCALE
  5
9086
102
{ACAD_REACTORS
330
9085
102
}
330
9085
100
AcDbScale
 70
     0
300
1:1
140
1.0
141
1.0
290
     1
  0
SCALE
  5
9087
102
{ACAD_REACTORS
330
9085
102
}
330
9085
100
AcDbScale
 70
     0
300
1:2
140
1.0
141
2.0
290
     0
  0
SCALE
  5
9088
102
{ACAD_REACTORS
330
9085
102
}
330
9085
100
AcDbScale
 70
     0
300
1:4
140
1.0
141
4.0
290
     0
  0
SCALE
  5
9089
102
{ACAD_REACTORS
330
9085
102
}
330
9085
100
AcDbScale
 70
     0
300
1:5
140
1.0
141
5.0
290
     0
  0
SCALE
  5
908A
102
{ACAD_REACTORS
330
9085
102
}
330
9085
100
AcDbScale
 70
     0
300
1:8
140
1.0
141
8.0
290
     0
  0
SCALE
  5
908B
102
{ACAD_REACTORS
330
9085
102
}
330
9085
100
AcDbScale
 70
     0
300
1:10
140
1.0
141
10.0
290
     0
  0
SCALE
  5
908C
102
{ACAD_REACTORS
330
9085
102
}
330
9085
100
AcDbScale
 70
     0
300
1:16
140
1.0
141
16.0
290
     0
  0
SCALE
  5
908D
102
{ACAD_REACTORS
330
9085
102
}
330
9085
100
AcDbScale
 70
     0
300
1:20
140
1.0
141
20.0
290
     0
  0
SCALE
  5
908E
102
{ACAD_REACTORS
330
9085
102
}
330
9085
100
AcDbScale
 70
     0
300
1:30
140
1.0
141
30.0
290
     0
  0
SCALE
  5
908F
102
{ACAD_REACTORS
330
9085
102
}
330
9085
100
AcDbScale
 70
     0
300
1:40
140
1.0
141
40.0
290
     0
  0
SCALE
  5
9090
102
{ACAD_REACTORS
330
9085
102
}
330
9085
100
AcDbScale
 70
     0
300
1:50
140
1.0
141
50.0
290
     0
  0
SCALE
  5
9091
102
{ACAD_REACTORS
330
9085
102
}
330
9085
100
AcDbScale
 70
     0
300
1:100
140
1.0
141
100.0
290
     0
  0
SCALE
  5
9092
102
{ACAD_REACTORS
330
9085
102
}
330
9085
100
AcDbScale
 70
     0
300
2:1
140
2.0
141
1.0
290
     0
  0
SCALE
  5
9093
102
{ACAD_REACTORS
330
9085
102
}
330
9085
100
AcDbScale
 70
     0
300
4:1
140
4.0
141
1.0
290
     0
  0
SCALE
  5
9094
102
{ACAD_REACTORS
330
9085
102
}
330
9085
100
AcDbScale
 70
     0
300
8:1
140
8.0
141
1.0
290
     0
  0
SCALE
  5
9095
102
{ACAD_REACTORS
330
9085
102
}
330
9085
100
AcDbScale
 70
     0
300
10:1
140
10.0
141
1.0
290
     0
  0
SCALE
  5
9096
102
{ACAD_REACTORS
330
9085
102
}
330
9085
100
AcDbScale
 70
     0
300
100:1
140
100.0
141
1.0
290
     0
  0
TABLESTYLE
  5
1890
102
{ACAD_REACTORS
330
188F
102
}
330
188F
100
AcDbTableStyle
  3
Standard
 70
     0
 71
     0
 40
1.5
 41
1.5
280
     0
281
     0
  7
STANDARD
140
4.5
170
     2
 62
     0
 63
   257
283
     0
274
    -2
284
     1
 64
     0
275
    -2
285
     1
 65
     0
276
    -2
286
     1
 66
     0
277
    -2
287
     1
 67
     0
278
    -2
288
     1
 68
     0
279
    -2
289
     1
 69
     0
  7
STANDARD
140
6.0
170
     5
 62
     0
 63
   257
283
     0
274
    -2
284
     1
 64
     0
275
    -2
285
     1
 65
     0
276
    -2
286
     1
 66
     0
277
    -2
287
     1
 67
     0
278
    -2
288
     1
 68
     0
279
    -2
289
     1
 69
     0
  7
STANDARD
140
4.5
170
     5
 62
     0
 63
   257
283
     0
274
    -2
284
     1
 64
     0
275
    -2
285
     1
 65
     0
276
    -2
286
     1
 66
     0
277
    -2
287
     1
 67
     0
278
    -2
288
     1
 68
     0
279
    -2
289
     1
 69
     0
  0
VBA_PROJECT
  5
1993
102
{ACAD_REACTORS
330
1992
102
}
330
1992
100
AcDbVbaProject
 90
     7168
310
D0CF11E0A1B11AE1000000000000000000000000000000003E000300FEFF0900060000000000000000000000010000000100000000000000001000000200000001000000FEFFFFFF0000000000000000FFFFFFFFFFFFFFFFFFFFFFFFFFFFFFFFFFFFFFFFFFFFFFFFFFFFFFFFFFFFFFFFFFFFFFFFFFFFFFFFFFFFFFFFFFFFFF
310
FFFFFFFFFFFFFFFFFFFFFFFFFFFFFFFFFFFFFFFFFFFFFFFFFFFFFFFFFFFFFFFFFFFFFFFFFFFFFFFFFFFFFFFFFFFFFFFFFFFFFFFFFFFFFFFFFFFFFFFFFFFFFFFFFFFFFFFFFFFFFFFFFFFFFFFFFFFFFFFFFFFFFFFFFFFFFFFFFFFFFFFFFFFFFFFFFFFFFFFFFFFFFFFFFFFFFFFFFFFFFFFFFFFFFFFFFFFFFFFFFFFFFFFFFFFFFF
310
FFFFFFFFFFFFFFFFFFFFFFFFFFFFFFFFFFFFFFFFFFFFFFFFFFFFFFFFFFFFFFFFFFFFFFFFFFFFFFFFFFFFFFFFFFFFFFFFFFFFFFFFFFFFFFFFFFFFFFFFFFFFFFFFFFFFFFFFFFFFFFFFFFFFFFFFFFFFFFFFFFFFFFFFFFFFFFFFFFFFFFFFFFFFFFFFFFFFFFFFFFFFFFFFFFFFFFFFFFFFFFFFFFFFFFFFFFFFFFFFFFFFFFFFFFFFFF
310
FFFFFFFFFFFFFFFFFFFFFFFFFFFFFFFFFFFFFFFFFFFFFFFFFFFFFFFFFFFFFFFFFFFFFFFFFFFFFFFFFFFFFFFFFFFFFFFFFFFFFFFFFFFFFFFFFFFFFFFFFFFFFFFFFFFFFFFFFFFFFFFFFFFFFFFFFFFFFFFFFFFFFFFFFFFFFFFFFFFFFFFFFFFFFFFFFFFFFFFFFFFFFFFFFFFFFFFFFFFFFFFFFFFFFFFFFFFFFFFFFFFFFFFFFFFFFF
310
FFFFFFFFFDFFFFFF04000000FEFFFFFF050000000C000000060000000700000008000000090000000A0000000B000000FEFFFFFFFEFFFFFFFFFFFFFFFFFFFFFFFFFFFFFFFFFFFFFFFFFFFFFFFFFFFFFFFFFFFFFFFFFFFFFFFFFFFFFFFFFFFFFFFFFFFFFFFFFFFFFFFFFFFFFFFFFFFFFFFFFFFFFFFFFFFFFFFFFFFFFFFFFFFF
310
FFFFFFFFFFFFFFFFFFFFFFFFFFFFFFFFFFFFFFFFFFFFFFFFFFFFFFFFFFFFFFFFFFFFFFFFFFFFFFFFFFFFFFFFFFFFFFFFFFFFFFFFFFFFFFFFFFFFFFFFFFFFFFFFFFFFFFFFFFFFFFFFFFFFFFFFFFFFFFFFFFFFFFFFFFFFFFFFFFFFFFFFFFFFFFFFFFFFFFFFFFFFFFFFFFFFFFFFFFFFFFFFFFFFFFFFFFFFFFFFFFFFFFFFFFFFFF
310
FFFFFFFFFFFFFFFFFFFFFFFFFFFFFFFFFFFFFFFFFFFFFFFFFFFFFFFFFFFFFFFFFFFFFFFFFFFFFFFFFFFFFFFFFFFFFFFFFFFFFFFFFFFFFFFFFFFFFFFFFFFFFFFFFFFFFFFFFFFFFFFFFFFFFFFFFFFFFFFFFFFFFFFFFFFFFFFFFFFFFFFFFFFFFFFFFFFFFFFFFFFFFFFFFFFFFFFFFFFFFFFFFFFFFFFFFFFFFFFFFFFFFFFFFFFFFF
310
FFFFFFFFFFFFFFFFFFFFFFFFFFFFFFFFFFFFFFFFFFFFFFFFFFFFFFFFFFFFFFFFFFFFFFFFFFFFFFFFFFFFFFFFFFFFFFFFFFFFFFFFFFFFFFFFFFFFFFFFFFFFFFFFFFFFFFFFFFFFFFFFFFFFFFFFFFFFFFFFFFFFFFFFFFFFFFFFFFFFFFFFFFFFFFFFFFFFFFFFFFFFFFFFFFFFFFFFFFFFFFFFFFFFFFFFFFFFFFFFFFFFFFFFFFFFFF
310
FFFFFFFFFFFFFFFF52006F006F007400200045006E00740072007900000000000000000000000000000000000000000000000000000000000000000000000000000000000000000016000500FFFFFFFFFFFFFFFF010000000000000000000000000000000000000000000000000000000000000010C6EE77CFD2C901030000
310
00C00E0000000000005600420041005F00500072006F006A0065006300740000000000000000000000000000000000000000000000000000000000000000000000000000000000000018000101FFFFFFFF0800000006000000000000000000000000000000000000000000000010C6EE77CFD2C90110C6EE77CFD2C9010000
310
000000000000000000005600420041000000000000000000000000000000000000000000000000000000000000000000000000000000000000000000000000000000000000000000000008000100FFFFFFFFFFFFFFFF04000000000000000000000000000000000000000000000010C6EE77CFD2C90110C6EE77CFD2C90100
310
00000000000000000000006400690072000000000000000000000000000000000000000000000000000000000000000000000000000000000000000000000000000000000000000000000008000200FFFFFFFFFFFFFFFFFFFFFFFF000000000000000000000000000000000000000000000000000000000000000000000000
310
000000003C0100000000000001000000020000000300000004000000FEFFFFFF060000000700000008000000090000000A0000000B0000000C0000000D0000000E0000000F0000001000000011000000120000001300000014000000FEFFFFFF160000001700000018000000190000001A0000001B0000001C0000001D0000
310
001E0000001F000000200000002100000022000000230000002400000025000000260000002700000028000000290000002A0000002B0000002C0000002D0000002E0000002F000000300000003100000032000000FEFFFFFF3400000035000000360000003700000038000000FEFFFFFFFEFFFFFFFEFFFFFFFFFFFFFFFFFF
310
FFFFFFFFFFFFFFFFFFFFFFFFFFFFFFFFFFFFFFFFFFFFFFFFFFFFFFFFFFFFFFFFFFFFFFFFFFFFFFFFFFFFFFFFFFFFFFFFFFFFFFFFFFFFFFFFFFFFFFFFFFFFFFFFFFFFFFFFFFFFFFFFFFFFFFFFFFFFFFFFFFFFFFFFFFFFFFFFFFFFFFFFFFFFFFFFFFFFFFFFFFFFFFFFFFFFFFFFFFFFFFFFFFFFFFFFFFFFFFFFFFFFFFFFFFFFFF
310
FFFFFFFFFFFFFFFFFFFFFFFFFFFFFFFFFFFFFFFFFFFFFFFFFFFFFFFFFFFFFFFFFFFFFFFFFFFFFFFFFFFFFFFFFFFFFFFFFFFFFFFFFFFFFFFFFFFFFFFFFFFFFFFFFFFFFFFFFFFFFFFFFFFFFFFFFFFFFFFFFFFFFFFFFFFFFFFFFFFFFFFFFFFFFFFFFFFFFFFFFFFFFFFFFFFFFFFFFFFFFFFFFFFFFFFFFFFFFFFFFFFFFFFFFFFFFF
310
FFFFFFFFFFFFFFFFFFFFFFFFFFFFFFFF0138B1800100040000000100302A020290090070140648030082020064E40404000B001C004143414450726F6A10656374050038000040D5021406020A3D020A07027401140A0806120902126DCF8C472824000C024A3C020A16000101727374646F6C653E0102197300740064006F
310
00006C0065000D00680500255E00032A5C477B3000303032303433302D3B0008040443000A020E011230300034367D23322E3023003023433A5C57494E00444F57535C7379734074656D33325C036532002E746C62234F4C4500204175746F6D617458696F6E003000010F0274014400138203D25A19027854006869734472
310
617769A06E67470016001354004A006900730044007200006100770069006E00A867001A0D163218161C002328000048820231828C25035800001E8204010A2C8240D054DC2282102B8202108202000000000116010000F0000000C4020000D400000000020000FFFFFFFFCB0200001F0300000000000001000000D25AD0DC
310
0000FFFF2301000088000000B600FFFF010100000000FFFFFFFF00000000FFFFFFFFFFFF00000000000000000000000000000000000000000000000000000000000000000000000000000000000000000000000000000000000010000000030000000500000007000000FFFFFFFFFFFFFFFF010108000000FFFFFFFF780000
310
00080000000000000000000000000000000000005400680069007300440072006100770069006E006700000000000000000000000000000000000000000000000000000000000000000000000000000000000000180002010300000005000000FFFFFFFF000000000000000000000000000000000000000000000000000000
310
00000000000000000005000000E5030000000000005F005600420041005F00500052004F004A00450043005400000000000000000000000000000000000000000000000000000000000000000000000000000000001A000200FFFFFFFFFFFFFFFFFFFFFFFF0000000000000000000000000000000000000000000000000000
310
00000000000000000000150000004507000000000000500052004F004A004500430054000000000000000000000000000000000000000000000000000000000000000000000000000000000000000000000000000000100002010200000007000000FFFFFFFF00000000000000000000000000000000000000000000000000
310
0000000000000000000000330000004901000000000000500052004F004A0045004300540077006D000000000000000000000000000000000000000000000000000000000000000000000000000000000000000000000014000200FFFFFFFFFFFFFFFFFFFFFFFF000000000000000000000000000000000000000000000000
310
0000000000000000000000003900000026000000000000000000000000000000000000000000FFFF000000004D450000FFFFFFFFFFFF00000000FFFF00000000FFFF010100000000DF00FFFF000000000C00FFFFFFFFFFFFFFFFFFFFFFFFFFFFFFFFFFFFFFFFFFFFFFFFFFFFFFFFFFFFFFFFFFFFFFFFFFFFFFFFFFFFFFFFFF
310
FFFFFFFFFFFFFFFFFFFFFFFFFFFFFFFFFFFFFFFFFFFFFFFFFFFFFFFFFFFFFFFFFFFFFFFFFFFFFFFFFFFFFFFFFFFFFFFFFFFFFFFFFFFFFFFFFFFFFFFFFFFFFFFFFFFFFFFFFFFFFFFFFFFFFFFFFFFFFFFFFFFFFF280000000200534CFFFFFFFF000001005310FFFFFFFF000001005394FFFFFFFF00000000023CFFFFFFFF0000
310
FFFF01010000000001004E0030007B00380045003700350044003900310033002D0033004400320031002D0031003100440032002D0038003500430034002D003000380030003000300039004100300043003600320036007D0000000000FFFFFFFF0101380000000280FEFFFFFFFFFF1000FFFF280000000201FFFF000000
310
0000000000FFFFFFFFFFFFFFFF000000001D00000025000000FFFFFFFF480000000000FFFF000001000000000000000000FFFFFFFFFFFFFFFFFFFFFFFF00000000FFFFFFFFFFFFFFFFFFFFFFFFFFFFFFFFFFFFFFFF00000000FFFFFFFFFFFFFFFFFFFFFFFFFFFFFFFFFFFFFFFF0000000001000000FFFFFFFFFFFFFFFF0000
310
0000FFFFFFFFFFFFFFFFFFFFFFFFFFFFFFFFFFFFFFFFFFFFFFFFFFFFFFFFFFFF000000000000DF000000000000000000000000000000000000000000000000000000000000000000000000000000000000000000000000000000000000000000000000FECA01000000FFFFFFFF010108000000FFFFFFFF78000000FFFFFFFF
310
000001BCB000417474726962757400652056425F4E616D0065203D2022546869007344726177696E6788220D0A0A88426173028800307B3845373544390031332D334432312D00313144322D38354300342D303830303039804130433632367D0D7C40476C6F62616C01CE5308706163019246616C7302650C644372656174
310
6104626C151F507265646548636C610006496400B0540472750D424578706F730265141C54656D706C61807465446572697602120192427573746F6D697A0304440332000000000000000000000000000000000000000000000000000000CC616D00000100FF0A0C000009040000E404010000000000000000000100030002
310
00FA002A005C0047007B00300030003000320030003400450046002D0030003000300030002D0030003000300030002D0043003000300030002D003000300030003000300030003000300030003000340036007D00230034002E00300023003900230043003A005C004100520043004800490056007E0031005C0041005200
310
43004800490056007E0031005C004D004900430052004F0053007E0031005C005600420041005C0056004200410036005C0056004200450036002E0044004C004C002300560069007300750061006C00200042006100730069006300200046006F00720020004100700070006C00690063006100740069006F006E00730000
310
000000000000000000000020012A005C0047007B00310045004600440038004500380035002D0037004600330042002D0034003800450036002D0039003300340031002D003300430038004200320046003600300031003300360042007D00230031002E00310023003000230043003A005C00410072006300680069007600
310
6F0073002000640065002000700072006F006700720061006D0061005C004100720063006800690076006F007300200063006F006D0075006E00650073005C004100750074006F006400650073006B0020005300680061007200650064005C0061006300610078003100360065006E0075002E0074006C0062002300410075
310
0074006F00430041004400200032003000300036002000540079007000650020004C00690062007200610072007900000000000000000000000000BC002A005C0047007B00300030003000320030003400330030002D0030003000300030002D0030003000300030002D0043003000300030002D0030003000300030003000
310
30003000300030003000340036007D00230032002E00300023003000230043003A005C00570049004E0044004F00570053005C00730079007300740065006D00330032005C007300740064006F006C00650032002E0074006C00620023004F004C00450020004100750074006F006D006100740069006F006E000000000000
310
000000000000000100020004000402000006020100080200000A0201001002FFFFFFFFFFFF00000000FFFF00006DCF8C472400FFFFFFFFFFFFFFFFFFFFFFFFFFFFFFFFFFFFFFFFFFFFFFFFFFFFFFFFFFFFFFFFFFFFFFFF0000FFFFFFFFFFFFFFFFFFFFFFFFFFFFFFFFFFFFFFFFFFFFFFFFFFFF010000000000000000000000
310
0000000000000000D25A010016005400680069007300440072006100770069006E00670014003000620034003700380063006300660036006400FFFF130216005400680069007300440072006100770069006E006700FFFFD0DC000000000000000200000025030000FFFFFFFFFFFF010120020000FFFFFFFFFFFFFFFFFFFF
310
FFFFFFFFFFFFFFFFFFFFFFFFFFFFFFFFFFFFFFFFFFFFFFFFFFFFFFFFFFFFFFFFFFFFFFFFFFFFFFFFFFFFFFFFFFFFFFFFFFFFFFFFFFFFFFFFFFFFFFFFFFFF00020000FFFFFFFFFFFFFFFFFFFFFFFFFFFFFFFFFFFFFFFFFFFFFFFFFFFFFFFFFFFFFFFFFFFFFFFFFFFFFFFFFFFFFFFFFFFFFFFFFFFFFFFFFFFFFFFFFFFFFFFFFF
310
FFFFFFFFFFFFFFFFFFFFFFFFFFFFFFFFFFFFFFFFFFFFFFFFFFFFFFFFFFFFFFFFFFFFFFFFFFFFFFFFFFFFFFFFFFFFFFFFFFFFFFFFFFFFFFFFFFFFFFFFFFFFFFFFFFFFFFFFFFFFFFFFFFFFFFFFFFFFFFFFFFFFFFFFFFFFFFFFFFFFFFFFFFFFFFFFFFFFFFFFFFFFFFFFFFFFFFFFFFFFFFFFFFFFFFFFFFFFFFFFFFFFFFFFFFFFFF
310
FFFFFFFFFFFFFFFFFFFFFFFFFFFFFFFFFFFFFFFFFFFFFFFFFFFFFFFFFFFFFFFFFFFFFFFFFFFFFFFFFFFFFFFFFFFFFFFFFFFFFFFFFFFFFFFFFFFFFFFFFFFFFFFFFFFFFFFFFFFFFFFFFFFFFFFFFFFFFFFFFFFFFFFFFFFFFFFFFFFFFFFFFFFFFFFFFFFFFFFFFFFFFFFFFFFFFFFFFFFFFFFFFFFFFFFFFFFFFFFFFFFFFFFFFFFFFF
310
FFFFFFFFFFFFFFFFFFFFFFFFFFFFFFFFFFFFFFFFFFFFFFFFFFFFFFFFFFFFFFFFFFFFFFFFFFFFFFFFFFFFFFFFFFFFFFFFFFFFFFFFFFFFFFFFFFFFFFFFFFFFFFFFFFFFFFFFFFFFFFFFFFFFFFFFFFFFFFFFFFFFFFFFFFFFFFFFFFFFFFFFFFFFFFFFFFFFFFFFFFFFFFFFFFFFFFFFFFFFFFFFFFFFFFFFFFFFFFFFFF337F041A5EC5
310
4646A6D72AF5593868EFFFFFFFFF01000000FFFFFFFF600000008000000000000B010C00FF008825000007044175746F43414422F810000304564241F7E21000050457696E3136C17E1000050457696E3332077F100003044D6163B3B21000040456424136AD231000090450726F796563746F317F69100006047374646F6C
310
65936010000B044143414450726F6A656374A6D410000B045468697344726177696E67B935100009800000FF03FFFF5F4576616C7561746518D910000C0441636164446F63756D656E741B5A100002FFFF01013C000000FFFFFFFFFFFFFFFFFFFFFFFFFFFFFFFFFFFF0E020200FFFF1002FFFFFFFF13020000050000020100
310
FFFF02020000FFFFFFFFFFFFFFFFFFFFFFFFFFFF05000A000000010012000000000000000000000000000000000000000000000000000000000000000000000000000000000000000000000000000000000000000000000000000000000000000000000000000000000000000049443D227B37424644313343362D37333342
310
2D344246322D414442302D4633323944353536354532367D220D0A446F63756D656E743D5468697344726177696E672F264830303030303030300D0A4E616D653D224143414450726F6A656374220D0A48656C70436F6E7465787449443D2230220D0A56657273696F6E436F6D70617469626C6533323D2233393332323230
310
3030220D0A434D473D2230463044463539433042414341324230413242304132423041324230220D0A4450423D22414141383530333945413341454133414541220D0A47433D223435343742464441433137344332373443323842220D0A0D0A5B486F737420457874656E64657220496E666F5D0D0A264830303030303030
310
313D7B33383332443634302D434639302D313143462D384534332D3030413043393131303035417D3B5642453B264830303030303030300D0A0102030000000208A0020890D20108000000000000000000000000000000000000000000000000000000000000000000000000000000005468697344726177696E6700540068
310
0069007300440072006100770069006E006700000000000000000000000000000000000000000000000000000000000000100000000200000004000000616361640000000000000000000000000000000000000000000000000000000000000000000000000000000000000000000000000000000000000000000000000000
310
00000000000000000000000000000000000000000000000000000000000000000000000000000000000000000000000000000000000000000000000000000000000000000000000000000000000000000000000000000000000000000000000000000000000000000000000000000000000000000000000000000000000000
310
00000000000000000000000000000000000000000000000000000000000000000000000000000000000000000000000000000000000000000000000000000000000000000000000000000000000000000000000000000000000000000000000000000000000000000000000000000000000000000000000000000000000000
310
000000000000000000000000000000000000000000000000000000000000000000000000000000000000000000000000000000005600420041005F00500072006F006A006500630074005F00560065007200730069006F006E00000000000000000000000000000000000000000000000000000028000200FFFFFFFFFFFFFF
310
FFFFFFFFFF0000000000000000000000000000000000000000000000000000000000000000000000003A00000010000000000000000000000000000000000000000000000000000000000000000000000000000000000000000000000000000000000000000000000000000000000000000000000000000000FFFFFFFFFFFF
310
FFFFFFFFFFFF0000000000000000000000000000000000000000000000000000000000000000000000000000000000000000000000000000000000000000000000000000000000000000000000000000000000000000000000000000000000000000000000000000000000000000000000000000000000000000FFFFFFFFFF
310
FFFFFFFFFFFFFF0000000000000000000000000000000000000000000000000000000000000000000000000000000000000000000000000000000000000000000000000000000000000000000000000000000000000000000000000000000000000000000000000000000000000000000000000000000000000000FFFFFFFF
310
FFFFFFFFFFFFFFFF000000000000000000000000000000000000000000000000000000000000000000000000000000000000000000000000
  0
VISUALSTYLE
  5
9077
102
{ACAD_REACTORS
330
9071
102
}
102
{ACAD_XDICTIONARY
360
9423
102
}
330
9071
100
AcDbVisualStyle
  2
2dWireframe
 70
     4
 71
     0
 72
     2
 73
     0
 90
        0
 40
-0.6
 41
-30.0
 62
     5
 63
     7
 74
     1
 91
        4
 64
     7
 65
   257
 75
     1
175
     1
 42
1.0
 92
        0
 66
   257
 43
1.0
 76
     1
 77
     6
 78
     2
 67
     7
 79
     5
170
     0
171
     0
290
     0
174
     0
 93
        1
 44
0.0
173
     0
291
     0
 45
0.0
1001
ACAD
1000
AcDbSavedByObjectVersion
1070
     0
  0
VISUALSTYLE
  5
9079
102
{ACAD_REACTORS
330
9071
102
}
102
{ACAD_XDICTIONARY
360
9425
102
}
330
9071
100
AcDbVisualStyle
  2
3D Hidden
 70
     6
 71
     1
 72
     2
 73
     2
 90
        0
 40
-0.6
 41
-30.0
 62
     5
 63
     7
 74
     2
 91
        2
 64
     7
 65
   257
 75
     2
175
     1
 42
179.0
 92
        0
 66
   257
 43
1.0
 76
     1
 77
     6
 78
     2
 67
     7
 79
     3
170
     0
171
     0
290
     0
174
     0
 93
        1
 44
0.0
173
     0
291
     0
 45
0.0
1001
ACAD
1000
AcDbSavedByObjectVersion
1070
     0
  0
VISUALSTYLE
  5
9078
102
{ACAD_REACTORS
330
9071
102
}
102
{ACAD_XDICTIONARY
360
9427
102
}
330
9071
100
AcDbVisualStyle
  2
3dWireframe
 70
     5
 71
     0
 72
     2
 73
     0
 90
        0
 40
-0.6
 41
-30.0
 62
     5
 63
     7
 74
     1
 91
        4
 64
     7
 65
   257
 75
     1
175
     1
 42
1.0
 92
        0
 66
   257
 43
1.0
 76
     1
 77
     6
 78
     2
 67
     7
 79
     5
170
     0
171
     0
290
     0
174
     0
 93
        1
 44
0.0
173
     0
291
     0
 45
0.0
1001
ACAD
1000
AcDbSavedByObjectVersion
1070
     0
  0
VISUALSTYLE
  5
9076
102
{ACAD_REACTORS
330
9071
102
}
102
{ACAD_XDICTIONARY
360
9429
102
}
330
9071
100
AcDbVisualStyle
  2
Basic
 70
     7
 71
     1
 72
     0
 73
     1
 90
        0
 40
-0.6
 41
-30.0
 62
     5
 63
     7
 74
     0
 91
        4
 64
     7
 65
   257
 75
     1
175
     1
 42
1.0
 92
        8
 66
     7
 43
1.0
 76
     1
 77
     6
 78
     2
 67
     7
 79
     5
170
     0
171
     0
290
     0
174
     0
 93
        1
 44
0.0
173
     0
291
     1
 45
0.0
1001
ACAD
1000
AcDbSavedByObjectVersion
1070
     0
  0
VISUALSTYLE
  5
907D
102
{ACAD_REACTORS
330
9071
102
}
102
{ACAD_XDICTIONARY
360
942B
102
}
330
9071
100
AcDbVisualStyle
  2
Brighten
 70
    12
 71
     2
 72
     2
 73
     0
 90
        0
 40
-0.6
 41
-30.0
 62
     5
 63
     7
 74
     1
 91
        4
 64
     7
 65
   257
 75
     1
175
     1
 42
1.0
 92
        8
 66
     7
 43
1.0
 76
     1
 77
     6
 78
     2
 67
     7
 79
     5
170
     0
171
     0
290
     0
174
     0
 93
        1
 44
50.0
173
     0
291
     1
 45
0.0
1001
ACAD
1000
AcDbSavedByObjectVersion
1070
     0
  0
VISUALSTYLE
  5
9081
102
{ACAD_REACTORS
330
9071
102
}
102
{ACAD_XDICTIONARY
360
942D
102
}
330
9071
100
AcDbVisualStyle
  2
ColorChange
 70
    16
 71
     2
 72
     2
 73
     3
 90
        0
 40
-0.6
 41
-30.0
 62
     5
 63
     8
 74
     1
 91
        4
 64
     7
 65
   257
 75
     1
175
     1
 42
1.0
 92
        8
 66
     8
 43
1.0
 76
     1
 77
     6
 78
     2
 67
     7
 79
     5
170
     0
171
     0
290
     0
174
     0
 93
        1
 44
0.0
173
     0
291
     1
 45
0.0
1001
ACAD
1000
AcDbSavedByObjectVersion
1070
     0
  0
VISUALSTYLE
  5
907A
102
{ACAD_REACTORS
330
9071
102
}
102
{ACAD_XDICTIONARY
360
942F
102
}
330
9071
100
AcDbVisualStyle
  2
Conceptual
 70
     9
 71
     3
 72
     2
 73
     0
 90
        0
 40
-0.6
 41
-30.0
 62
     5
 63
     7
 74
     2
 91
        2
 64
     7
 65
   257
 75
     1
175
     1
 42
179.0
 92
        8
 66
     7
 43
1.0
 76
     1
 77
     6
 78
     2
 67
     7
 79
     3
170
     0
171
     0
290
     0
174
     0
 93
        1
 44
0.0
173
     0
291
     0
 45
0.0
1001
ACAD
1000
AcDbSavedByObjectVersion
1070
     0
  0
VISUALSTYLE
  5
907C
102
{ACAD_REACTORS
330
9071
102
}
102
{ACAD_XDICTIONARY
360
9431
102
}
330
9071
100
AcDbVisualStyle
  2
Dim
 70
    11
 71
     2
 72
     2
 73
     0
 90
        0
 40
-0.6
 41
-30.0
 62
     5
 63
     7
 74
     1
 91
        4
 64
     7
 65
   257
 75
     1
175
     1
 42
1.0
 92
        8
 66
     7
 43
1.0
 76
     1
 77
     6
 78
     2
 67
     7
 79
     5
170
     0
171
     0
290
     0
174
     0
 93
        1
 44
-50.0
173
     0
291
     1
 45
0.0
1001
ACAD
1000
AcDbSavedByObjectVersion
1070
     0
  0
VISUALSTYLE
  5
9084
102
{ACAD_REACTORS
330
9071
102
}
102
{ACAD_XDICTIONARY
360
9433
102
}
330
9071
100
AcDbVisualStyle
  2
EdgeColorOff
 70
    22
 71
     2
 72
     2
 73
     0
 90
        0
 40
-0.6
 41
-30.0
 62
     5
 63
     7
 74
     1
 91
        4
 64
     7
 65
   257
 75
     1
175
     1
 42
1.0
 92
        8
 66
     7
 43
1.0
 76
     1
 77
     6
 78
     2
 67
     7
 79
     5
170
     0
171
     0
290
     0
174
     0
 93
        1
 44
0.0
173
     0
291
     1
 45
0.0
1001
ACAD
1000
AcDbSavedByObjectVersion
1070
     0
  0
VISUALSTYLE
  5
9080
102
{ACAD_REACTORS
330
9071
102
}
102
{ACAD_XDICTIONARY
360
9435
102
}
330
9071
100
AcDbVisualStyle
  2
Facepattern
 70
    15
 71
     2
 72
     2
 73
     0
 90
        0
 40
-0.6
 41
-30.0
 62
     5
 63
     7
 74
     1
 91
        4
 64
     7
 65
   257
 75
     1
175
     1
 42
1.0
 92
        8
 66
     7
 43
1.0
 76
     1
 77
     6
 78
     2
 67
     7
 79
     5
170
     0
171
     0
290
     0
174
     0
 93
        1
 44
0.0
173
     0
291
     1
 45
0.0
1001
ACAD
1000
AcDbSavedByObjectVersion
1070
     0
  0
VISUALSTYLE
  5
9072
102
{ACAD_REACTORS
330
9071
102
}
102
{ACAD_XDICTIONARY
360
9437
102
}
330
9071
100
AcDbVisualStyle
  2
Flat
 70
     0
 71
     2
 72
     1
 73
     1
 90
        2
 40
-0.6
 41
30.0
 62
     5
 63
     7
 74
     0
 91
        4
 64
     7
 65
   257
 75
     1
175
     1
 42
1.0
 92
        8
 66
     7
 43
1.0
 76
     1
 77
     6
 78
     2
 67
     7
 79
     5
170
     0
171
     0
290
     0
174
     0
 93
       13
 44
0.0
173
     0
291
     1
 45
0.0
1001
ACAD
1000
AcDbSavedByObjectVersion
1070
     0
  0
VISUALSTYLE
  5
9073
102
{ACAD_REACTORS
330
9071
102
}
102
{ACAD_XDICTIONARY
360
9439
102
}
330
9071
100
AcDbVisualStyle
  2
FlatWithEdges
 70
     1
 71
     2
 72
     1
 73
     1
 90
        2
 40
-0.6
 41
30.0
 62
     5
 63
     7
 74
     1
 91
        4
 64
     7
 65
   257
 75
     1
175
     1
 42
1.0
 92
        0
 66
   257
 43
1.0
 76
     1
 77
     6
 78
     2
 67
     7
 79
     5
170
     0
171
     0
290
     0
174
     0
 93
       13
 44
0.0
173
     0
291
     1
 45
0.0
1001
ACAD
1000
AcDbSavedByObjectVersion
1070
     0
  0
VISUALSTYLE
  5
9074
102
{ACAD_REACTORS
330
9071
102
}
102
{ACAD_XDICTIONARY
360
943B
102
}
330
9071
100
AcDbVisualStyle
  2
Gouraud
 70
     2
 71
     2
 72
     2
 73
     1
 90
        2
 40
-0.6
 41
30.0
 62
     5
 63
     7
 74
     0
 91
        4
 64
     7
 65
   257
 75
     1
175
     1
 42
1.0
 92
        0
 66
     7
 43
1.0
 76
     1
 77
     6
 78
     2
 67
     7
 79
     5
170
     0
171
     0
290
     0
174
     0
 93
       13
 44
0.0
173
     0
291
     1
 45
0.0
1001
ACAD
1000
AcDbSavedByObjectVersion
1070
     0
  0
VISUALSTYLE
  5
9075
102
{ACAD_REACTORS
330
9071
102
}
102
{ACAD_XDICTIONARY
360
943D
102
}
330
9071
100
AcDbVisualStyle
  2
GouraudWithEdges
 70
     3
 71
     2
 72
     2
 73
     1
 90
        2
 40
-0.6
 41
30.0
 62
     5
 63
     7
 74
     1
 91
        4
 64
     7
 65
   257
 75
     1
175
     1
 42
1.0
 92
        0
 66
   257
 43
1.0
 76
     1
 77
     6
 78
     2
 67
     7
 79
     5
170
     0
171
     0
290
     0
174
     0
 93
       13
 44
0.0
173
     0
291
     1
 45
0.0
1001
ACAD
1000
AcDbSavedByObjectVersion
1070
     0
  0
VISUALSTYLE
  5
940B
102
{ACAD_REACTORS
330
9071
102
}
102
{ACAD_XDICTIONARY
360
944B
102
}
330
9071
100
AcDbVisualStyle
  2
Hidden
 70
     6
 71
     1
 72
     2
 73
     2
 90
        0
 40
0.6
 41
30.0
 62
     5
 63
     7
 74
     2
 91
        2
 64
     7
 65
   257
 75
     2
175
     1
 42
40.0
 92
        0
 66
   257
 43
1.0
 76
     1
 77
     6
 78
     2
 67
     7
 79
     3
170
     0
171
     0
290
     0
174
     0
 93
        1
 44
0.0
173
     0
291
     0
 45
0.0
1001
ACAD
1000
AcDbSavedByObjectVersion
1070
     0
  0
VISUALSTYLE
  5
9082
102
{ACAD_REACTORS
330
9071
102
}
102
{ACAD_XDICTIONARY
360
943F
102
}
330
9071
100
AcDbVisualStyle
  2
JitterOff
 70
    20
 71
     2
 72
     2
 73
     0
 90
        0
 40
-0.6
 41
-30.0
 62
     5
 63
     7
 74
     1
 91
        4
 64
     7
 65
   257
 75
     1
175
     1
 42
1.0
 92
       10
 66
     7
 43
1.0
 76
     1
 77
     6
 78
     2
 67
     7
 79
     5
170
     0
171
     0
290
     0
174
     0
 93
        1
 44
0.0
173
     0
291
     1
 45
0.0
1001
ACAD
1000
AcDbSavedByObjectVersion
1070
     0
  0
VISUALSTYLE
  5
907F
102
{ACAD_REACTORS
330
9071
102
}
102
{ACAD_XDICTIONARY
360
9441
102
}
330
9071
100
AcDbVisualStyle
  2
Linepattern
 70
    14
 71
     2
 72
     2
 73
     0
 90
        0
 40
-0.6
 41
-30.0
 62
     5
 63
     7
 74
     1
 91
        4
 64
     7
 65
   257
 75
     7
175
     7
 42
1.0
 92
        8
 66
     7
 43
1.0
 76
     1
 77
     6
 78
     2
 67
     7
 79
     5
170
     0
171
     0
290
     0
174
     0
 93
        1
 44
0.0
173
     0
291
     1
 45
0.0
1001
ACAD
1000
AcDbSavedByObjectVersion
1070
     0
  0
VISUALSTYLE
  5
9083
102
{ACAD_REACTORS
330
9071
102
}
102
{ACAD_XDICTIONARY
360
9443
102
}
330
9071
100
AcDbVisualStyle
  2
OverhangOff
 70
    21
 71
     2
 72
     2
 73
     0
 90
        0
 40
-0.6
 41
-30.0
 62
     5
 63
     7
 74
     1
 91
        4
 64
     7
 65
   257
 75
     1
175
     1
 42
1.0
 92
        9
 66
     7
 43
1.0
 76
     1
 77
     6
 78
     2
 67
     7
 79
     5
170
     0
171
     0
290
     0
174
     0
 93
        1
 44
0.0
173
     0
291
     1
 45
0.0
1001
ACAD
1000
AcDbSavedByObjectVersion
1070
     0
  0
VISUALSTYLE
  5
907B
102
{ACAD_REACTORS
330
9071
102
}
102
{ACAD_XDICTIONARY
360
9445
102
}
330
9071
100
AcDbVisualStyle
  2
Realistic
 70
     8
 71
     2
 72
     2
 73
     0
 90
        0
 40
-0.6
 41
-30.0
 62
     5
 63
     7
 74
     1
 91
        0
 64
     7
 65
   257
 75
     1
175
     1
 42
1.0
 92
        8
 66
     8
 43
1.0
 76
     1
 77
     6
 78
     2
 67
     7
 79
     5
170
     0
171
     0
290
     0
174
     0
 93
       13
 44
0.0
173
     0
291
     0
 45
0.0
1001
ACAD
1000
AcDbSavedByObjectVersion
1070
     0
  0
VISUALSTYLE
  5
9410
102
{ACAD_REACTORS
330
9071
102
}
102
{ACAD_XDICTIONARY
360
9455
102
}
330
9071
100
AcDbVisualStyle
  2
Shaded
 70
    27
 71
     2
 72
     2
 73
     1
 90
        2
 40
0.6
 41
30.0
 62
     5
 63
     7
 74
     0
 91
        4
 64
     7
 65
   257
 75
     1
175
     1
 42
1.0
 92
        8
 66
   257
 43
1.0
 76
     1
 77
     6
 78
     2
 67
     8
 79
     3
170
     0
171
     0
290
     0
174
     0
 93
        5
 44
0.0
173
     0
291
     0
 45
0.0
1001
ACAD
1000
AcDbSavedByObjectVersion
1070
     0
  0
VISUALSTYLE
  5
940F
102
{ACAD_REACTORS
330
9071
102
}
102
{ACAD_XDICTIONARY
360
9453
102
}
330
9071
100
AcDbVisualStyle
  2
Shaded with edges
 70
    26
 71
     2
 72
     2
 73
     1
 90
        2
 40
0.6
 41
30.0
 62
     5
 63
     7
 74
     1
 91
       10
 64
     7
 65
   257
 75
     2
175
     1
 42
1.0
 92
        8
 66
   257
 43
1.0
 76
     1
 77
     6
 78
     2
 67
     7
 79
     3
170
     0
171
     0
290
     0
174
     0
 93
        5
 44
0.0
173
     0
291
     0
 45
0.0
1001
ACAD
1000
AcDbSavedByObjectVersion
1070
     0
  0
VISUALSTYLE
  5
940C
102
{ACAD_REACTORS
330
9071
102
}
102
{ACAD_XDICTIONARY
360
944D
102
}
330
9071
100
AcDbVisualStyle
  2
Shades of Gray
 70
    23
 71
     2
 72
     2
 73
     3
 90
        0
 40
0.6
 41
30.0
 62
     5
 63
     7
 74
     2
 91
        2
 64
     7
 65
     7
 75
     1
175
     1
 42
40.0
 92
        8
 66
     7
 43
1.0
 76
     1
 77
     6
 78
     2
 67
     7
 79
     3
170
     0
171
     0
290
     0
174
     0
 93
        1
 44
0.0
173
     0
291
     0
 45
0.0
1001
ACAD
1000
AcDbSavedByObjectVersion
1070
     0
  0
VISUALSTYLE
  5
940D
102
{ACAD_REACTORS
330
9071
102
}
102
{ACAD_XDICTIONARY
360
944F
102
}
330
9071
100
AcDbVisualStyle
  2
Sketchy
 70
    24
 71
     1
 72
     2
 73
     2
 90
        0
 40
0.6
 41
30.0
 62
     5
 63
     7
 74
     2
 91
        2
 64
     7
 65
     7
 75
     1
175
     1
 42
40.0
 92
       11
 66
     7
 43
1.0
 76
     1
 77
     6
 78
     2
 67
     7
 79
     6
170
     0
171
     0
290
     0
174
     0
 93
        1
 44
0.0
173
     0
291
     0
 45
0.0
1001
ACAD
1000
AcDbSavedByObjectVersion
1070
     0
  0
VISUALSTYLE
  5
907E
102
{ACAD_REACTORS
330
9071
102
}
102
{ACAD_XDICTIONARY
360
9447
102
}
330
9071
100
AcDbVisualStyle
  2
Thicken
 70
    13
 71
     2
 72
     2
 73
     0
 90
        0
 40
-0.6
 41
-30.0
 62
     5
 63
     7
 74
     1
 91
        4
 64
     7
 65
   257
 75
     1
175
     1
 42
1.0
 92
       12
 66
     7
 43
1.0
 76
     1
 77
     6
 78
     2
 67
     7
 79
     5
170
     0
171
     0
290
     0
174
     0
 93
        1
 44
0.0
173
     0
291
     1
 45
0.0
1001
ACAD
1000
AcDbSavedByObjectVersion
1070
     0
  0
VISUALSTYLE
  5
940A
102
{ACAD_REACTORS
330
9071
102
}
102
{ACAD_XDICTIONARY
360
9449
102
}
330
9071
100
AcDbVisualStyle
  2
Wireframe
 70
     5
 71
     0
 72
     2
 73
     0
 90
        0
 40
0.6
 41
30.0
 62
     5
 63
     7
 74
     1
 91
        4
 64
     7
 65
   257
 75
     1
175
     1
 42
1.0
 92
        0
 66
   257
 43
1.0
 76
     1
 77
     6
 78
     2
 67
     7
 79
     3
170
     0
171
     0
290
     0
174
     0
 93
        1
 44
0.0
173
     0
291
     0
 45
0.0
1001
ACAD
1000
AcDbSavedByObjectVersion
1070
     0
  0
VISUALSTYLE
  5
940E
102
{ACAD_REACTORS
330
9071
102
}
102
{ACAD_XDICTIONARY
360
9451
102
}
330
9071
100
AcDbVisualStyle
  2
X-Ray
 70
    25
 71
     2
 72
     2
 73
     1
 90
        1
 40
0.5
 41
30.0
 62
     5
 63
     7
 74
     1
 91
        0
 64
     7
 65
   257
 75
     1
175
     1
 42
1.0
 92
        8
 66
     7
 43
1.0
 76
     1
 77
     6
 78
     2
 67
     7
 79
     3
170
     0
171
     0
290
     0
174
     0
 93
       13
 44
0.0
173
     0
291
     0
 45
0.0
1001
ACAD
1000
AcDbSavedByObjectVersion
1070
     0
  0
XRECORD
  5
9416
102
{ACAD_REACTORS
330
9415
102
}
330
9415
100
AcDbXrecord
280
     1
340
170A
  0
XRECORD
  5
9417
102
{ACAD_REACTORS
330
9415
102
}
330
9415
100
AcDbXrecord
280
     1
340
1709
  0
DICTIONARYVAR
  5
93D6
102
{ACAD_REACTORS
330
1010
102
}
330
1010
100
DictionaryVariables
280
     0
  1
1:1
  0
DICTIONARYVAR
  5
93D4
102
{ACAD_REACTORS
330
1010
102
}
330
1010
100
DictionaryVariables
280
     0
  1
Standard
  0
DICTIONARYVAR
  5
198A
102
{ACAD_REACTORS
330
1010
102
}
330
1010
100
DictionaryVariables
280
     0
  1
Standard
  0
DICTIONARYVAR
  5
1718
102
{ACAD_REACTORS
330
1010
102
}
330
1010
100
DictionaryVariables
280
     0
  1
1
  0
DICTIONARYVAR
  5
9411
102
{ACAD_REACTORS
330
1010
102
}
330
1010
100
DictionaryVariables
280
     0
  1
0
  0
DICTIONARYVAR
  5
93D8
102
{ACAD_REACTORS
330
1010
102
}
330
1010
100
DictionaryVariables
280
     0
  1
1
  0
DICTIONARYVAR
  5
93D9
102
{ACAD_REACTORS
330
1010
102
}
330
1010
100
DictionaryVariables
280
     0
  1
15
  0
DICTIONARYVAR
  5
93D7
102
{ACAD_REACTORS
330
1010
102
}
330
1010
100
DictionaryVariables
280
     0
  1
0
  0
DICTIONARYVAR
  5
93D5
102
{ACAD_REACTORS
330
1010
102
}
330
1010
100
DictionaryVariables
280
     0
  1
0
  0
DICTIONARYVAR
  5
1719
102
{ACAD_REACTORS
330
1010
102
}
330
1010
100
DictionaryVariables
280
     0
  1

  0
DICTIONARYVAR
  5
1011
102
{ACAD_REACTORS
330
1010
102
}
330
1010
100
DictionaryVariables
280
     0
  1
127
  0
DICTIONARYVAR
  5
9412
102
{ACAD_REACTORS
330
1010
102
}
330
1010
100
DictionaryVariables
280
     0
  1
0
  0
DICTIONARY
  5
941B
330
9061
100
AcDbDictionary
280
     1
281
     1
  3
ACAD_XREC_ROUNDTRIP
360
941C
  0
DICTIONARY
  5
941D
330
9059
100
AcDbDictionary
280
     1
281
     1
  3
ACAD_XREC_ROUNDTRIP
360
941E
  0
DICTIONARY
  5
941F
330
9069
100
AcDbDictionary
280
     1
281
     1
  3
ACAD_XREC_ROUNDTRIP
360
9420
  0
DICTIONARY
  5
9421
330
9098
100
AcDbDictionary
280
     1
281
     1
  3
ACAD_XREC_ROUNDTRIP
360
9422
  0
DICTIONARY
  5
9423
330
9077
100
AcDbDictionary
280
     1
281
     1
  3
ACAD_XREC_ROUNDTRIP
360
9424
  0
DICTIONARY
  5
9425
330
9079
100
AcDbDictionary
280
     1
281
     1
  3
ACAD_XREC_ROUNDTRIP
360
9426
  0
DICTIONARY
  5
9427
330
9078
100
AcDbDictionary
280
     1
281
     1
  3
ACAD_XREC_ROUNDTRIP
360
9428
  0
DICTIONARY
  5
9429
330
9076
100
AcDbDictionary
280
     1
281
     1
  3
ACAD_XREC_ROUNDTRIP
360
942A
  0
DICTIONARY
  5
942B
330
907D
100
AcDbDictionary
280
     1
281
     1
  3
ACAD_XREC_ROUNDTRIP
360
942C
  0
DICTIONARY
  5
942D
330
9081
100
AcDbDictionary
280
     1
281
     1
  3
ACAD_XREC_ROUNDTRIP
360
942E
  0
DICTIONARY
  5
942F
330
907A
100
AcDbDictionary
280
     1
281
     1
  3
ACAD_XREC_ROUNDTRIP
360
9430
  0
DICTIONARY
  5
9431
330
907C
100
AcDbDictionary
280
     1
281
     1
  3
ACAD_XREC_ROUNDTRIP
360
9432
  0
DICTIONARY
  5
9433
330
9084
100
AcDbDictionary
280
     1
281
     1
  3
ACAD_XREC_ROUNDTRIP
360
9434
  0
DICTIONARY
  5
9435
330
9080
100
AcDbDictionary
280
     1
281
     1
  3
ACAD_XREC_ROUNDTRIP
360
9436
  0
DICTIONARY
  5
9437
330
9072
100
AcDbDictionary
280
     1
281
     1
  3
ACAD_XREC_ROUNDTRIP
360
9438
  0
DICTIONARY
  5
9439
330
9073
100
AcDbDictionary
280
     1
281
     1
  3
ACAD_XREC_ROUNDTRIP
360
943A
  0
DICTIONARY
  5
943B
330
9074
100
AcDbDictionary
280
     1
281
     1
  3
ACAD_XREC_ROUNDTRIP
360
943C
  0
DICTIONARY
  5
943D
330
9075
100
AcDbDictionary
280
     1
281
     1
  3
ACAD_XREC_ROUNDTRIP
360
943E
  0
DICTIONARY
  5
944B
330
940B
100
AcDbDictionary
280
     1
281
     1
  3
ACAD_XREC_ROUNDTRIP
360
944C
  0
DICTIONARY
  5
943F
330
9082
100
AcDbDictionary
280
     1
281
     1
  3
ACAD_XREC_ROUNDTRIP
360
9440
  0
DICTIONARY
  5
9441
330
907F
100
AcDbDictionary
280
     1
281
     1
  3
ACAD_XREC_ROUNDTRIP
360
9442
  0
DICTIONARY
  5
9443
330
9083
100
AcDbDictionary
280
     1
281
     1
  3
ACAD_XREC_ROUNDTRIP
360
9444
  0
DICTIONARY
  5
9445
330
907B
100
AcDbDictionary
280
     1
281
     1
  3
ACAD_XREC_ROUNDTRIP
360
9446
  0
DICTIONARY
  5
9455
330
9410
100
AcDbDictionary
280
     1
281
     1
  3
ACAD_XREC_ROUNDTRIP
360
9456
  0
DICTIONARY
  5
9453
330
940F
100
AcDbDictionary
280
     1
281
     1
  3
ACAD_XREC_ROUNDTRIP
360
9454
  0
DICTIONARY
  5
944D
330
940C
100
AcDbDictionary
280
     1
281
     1
  3
ACAD_XREC_ROUNDTRIP
360
944E
  0
DICTIONARY
  5
944F
330
940D
100
AcDbDictionary
280
     1
281
     1
  3
ACAD_XREC_ROUNDTRIP
360
9450
  0
DICTIONARY
  5
9447
330
907E
100
AcDbDictionary
280
     1
281
     1
  3
ACAD_XREC_ROUNDTRIP
360
9448
  0
DICTIONARY
  5
9449
330
940A
100
AcDbDictionary
280
     1
281
     1
  3
ACAD_XREC_ROUNDTRIP
360
944A
  0
DICTIONARY
  5
9451
330
940E
100
AcDbDictionary
280
     1
281
     1
  3
ACAD_XREC_ROUNDTRIP
360
9452
  0
XRECORD
  5
941C
102
{ACAD_REACTORS
330
941B
102
}
330
941B
100
AcDbXrecord
280
     1
102
MATERIAL
148
0.0
149
0.0
149
0.0
 93
        0
 94
      127
282
     0
 72
     0
 77
     0
171
     0
175
     0
179
     0
273
     0
  0
XRECORD
  5
941E
102
{ACAD_REACTORS
330
941D
102
}
330
941D
100
AcDbXrecord
280
     1
102
MATERIAL
148
0.0
149
0.0
149
0.0
 93
        0
 94
      127
282
     0
 72
     0
 77
     0
171
     0
175
     0
179
     0
273
     0
  0
XRECORD
  5
9420
102
{ACAD_REACTORS
330
941F
102
}
330
941F
100
AcDbXrecord
280
     1
102
MATERIAL
148
0.0
149
0.0
149
0.0
 93
        0
 94
      127
282
     0
 72
     0
 77
     0
171
     0
175
     0
179
     0
273
     0
  0
XRECORD
  5
9422
102
{ACAD_REACTORS
330
9421
102
}
330
9421
100
AcDbXrecord
280
     1
102
ACAD_ROUNDTRIP_2010_MLEADER_STYLE
  0
XRECORD
  5
9424
102
{ACAD_REACTORS
330
9423
102
}
330
9423
100
AcDbXrecord
280
     1
102
RTVSPropertyOp0
 70
     1
102
RTVSPropertyOp1
 70
     1
102
RTVSPropertyOp2
 70
     1
102
RTVSPropertyOp3
 70
     1
102
RTVSPropertyOp4
 70
     1
102
RTVSPropertyOp5
 70
     1
102
RTVSPropertyOp6
 70
     1
102
RTVSPropertyOp7
 70
     1
102
RTVSPropertyOp8
 70
     1
102
RTVSPropertyOp9
 70
     1
102
RTVSPropertyOp10
 70
     1
102
RTVSPropertyOp11
 70
     1
102
RTVSPropertyOp12
 70
     1
102
RTVSPropertyOp13
 70
     1
102
RTVSPropertyOp14
 70
     1
102
RTVSPropertyOp15
 70
     1
102
RTVSPropertyOp16
 70
     1
102
RTVSPropertyOp17
 70
     1
102
RTVSPropertyOp18
 70
     1
102
RTVSPropertyOp19
 70
     1
102
RTVSPropertyOp20
 70
     1
102
RTVSPropertyOp21
 70
     1
102
RTVSPropertyOp22
 70
     1
102
RTVSPropertyOp23
 70
     1
102
RTVSPropertyOp24
 70
     1
102
RTVSPropertyOp25
 70
     1
102
RTVSPropertyOp26
 70
     1
102
RTVSPropertyOp27
 70
     1
102
RTVSPropertyOp28
 70
     1
102
RTVSPropertyOp29
 70
     1
102
RTVSPropertyOp30
 70
     1
102
RTVSPropertyOp31
 70
     1
102
RTVSPropertyOp32
 70
     1
102
RTVSPropertyOp33
 70
     1
102
RTVSPropertyOp34
 70
     1
102
RTVSPropertyOp35
 70
     1
102
RTVSPropertyOp36
 70
     1
102
RTVSPropertyOp37
 70
     1
102
RTVSPropertyOp38
 70
     1
102
RTVSPropertyOp39
 70
     1
102
RTVSPropertyOp40
 70
     1
102
RTVSPropertyOp41
 70
     1
102
RTVSPropertyOp42
 70
     1
102
RTVSPropertyOp43
 70
     1
102
RTVSPropertyOp44
 70
     1
102
RTVSPropertyOp45
 70
     1
102
RTVSPropertyOp46
 70
     1
102
RTVSPropertyOp47
 70
     1
102
RTVSPropertyOp48
 70
     1
102
RTVSPropertyOp49
 70
     1
102
RTVSPropertyOp50
 70
     1
102
RTVSPropertyOp51
 70
     0
102
RTVSPropertyOp52
 70
     0
102
RTVSPropertyOp53
 70
     1
102
RTVSPropertyOp54
 70
     1
102
RTVSPropertyOp55
 70
     1
102
RTVSPropertyOp56
 70
     1
102
RTVSPropertyOp57
 70
     1
102
RTVSPost2010Prop28
280
     1
102
RTVSPost2010PropOp28
 70
     1
102
RTVSPost2010Prop29
280
     1
102
RTVSPost2010PropOp29
 70
     1
102
RTVSPost2010Prop30
280
     0
102
RTVSPost2010PropOp30
 70
     1
102
RTVSPost2010Prop31
280
     0
102
RTVSPost2010PropOp31
 70
     1
102
RTVSPost2010Prop32
280
     0
102
RTVSPost2010PropOp32
 70
     1
102
RTVSPost2010Prop33
280
     0
102
RTVSPost2010PropOp33
 70
     1
102
RTVSPost2010Prop34
280
     0
102
RTVSPost2010PropOp34
 70
     1
102
RTVSPost2010Prop35
280
     0
102
RTVSPost2010PropOp35
 70
     1
102
RTVSPost2010Prop36
280
     0
102
RTVSPost2010PropOp36
 70
     1
102
RTVSPost2010Prop37
 90
       50
102
RTVSPost2010PropOp37
 70
     1
102
RTVSPost2010Prop38
140
0.0
102
RTVSPost2010PropOp38
 70
     1
102
RTVSPost2010Prop39
140
1.0
102
RTVSPost2010PropOp39
 70
     1
102
RTVSPost2010Prop40
 90
        0
102
RTVSPost2010PropOp40
 70
     1
102
RTVSPost2010Prop41ColorIndex
 90
       18
102
RTVSPost2010Prop41ColorRGB
 90
        0
102
RTVSPost2010PropOp41
 70
     1
102
RTVSPost2010Prop42
 90
       50
102
RTVSPost2010PropOp42
 70
     1
102
RTVSPost2010Prop43
 90
        3
102
RTVSPost2010PropOp43
 70
     1
102
RTVSPost2010Prop44ColorIndex
 90
        5
102
RTVSPost2010Prop44ColorRGB
 90
      255
102
RTVSPost2010PropOp44
 70
     1
102
RTVSPost2010Prop45
280
     0
102
RTVSPost2010PropOp45
 70
     1
102
RTVSPost2010Prop46
 90
       50
102
RTVSPost2010PropOp46
 70
     1
102
RTVSPost2010Prop47
 90
       50
102
RTVSPost2010PropOp47
 70
     1
102
RTVSPost2010Prop48
 90
       50
102
RTVSPost2010PropOp48
 70
     1
102
RTVSPost2010Prop49
280
     0
102
RTVSPost2010PropOp49
 70
     1
102
RTVSPost2010Prop50
 90
       50
102
RTVSPost2010PropOp50
 70
     1
102
RTVSPost2010Prop51ColorIndex
 90
      256
102
RTVSPost2010Prop51ColorRGB
 90
-16777216
102
RTVSPost2010PropOp51
 70
     0
102
RTVSPost2010Prop52
140
1.0
102
RTVSPost2010PropOp52
 70
     0
102
RTVSPost2010Prop53
 90
        2
102
RTVSPost2010PropOp53
 70
     1
102
RTVSPost2010Prop54
  1
strokes_ogs.tif
102
RTVSPost2010PropOp54
 70
     1
102
RTVSPost2010Prop55
280
     0
102
RTVSPost2010PropOp55
 70
     1
102
RTVSPost2010Prop56
140
1.0
102
RTVSPost2010PropOp56
 70
     1
102
RTVSPost2010Prop57
140
1.0
102
RTVSPost2010PropOp57
 70
     1
  0
XRECORD
  5
9426
102
{ACAD_REACTORS
330
9425
102
}
330
9425
100
AcDbXrecord
280
     1
102
RTVSPropertyOp0
 70
     1
102
RTVSPropertyOp1
 70
     1
102
RTVSPropertyOp2
 70
     1
102
RTVSPropertyOp3
 70
     1
102
RTVSPropertyOp4
 70
     1
102
RTVSPropertyOp5
 70
     1
102
RTVSPropertyOp6
 70
     1
102
RTVSPropertyOp7
 70
     1
102
RTVSPropertyOp8
 70
     1
102
RTVSPropertyOp9
 70
     1
102
RTVSPropertyOp10
 70
     1
102
RTVSPropertyOp11
 70
     1
102
RTVSPropertyOp12
 70
     1
102
RTVSPropertyOp13
 70
     1
102
RTVSPropertyOp14
 70
     1
102
RTVSPropertyOp15
 70
     1
102
RTVSPropertyOp16
 70
     1
102
RTVSPropertyOp17
 70
     1
102
RTVSPropertyOp18
 70
     1
102
RTVSPropertyOp19
 70
     1
102
RTVSPropertyOp20
 70
     1
102
RTVSPropertyOp21
 70
     1
102
RTVSPropertyOp22
 70
     1
102
RTVSPropertyOp23
 70
     1
102
RTVSPropertyOp24
 70
     1
102
RTVSPropertyOp25
 70
     1
102
RTVSPropertyOp26
 70
     1
102
RTVSPropertyOp27
 70
     1
102
RTVSPropertyOp28
 70
     1
102
RTVSPropertyOp29
 70
     1
102
RTVSPropertyOp30
 70
     1
102
RTVSPropertyOp31
 70
     1
102
RTVSPropertyOp32
 70
     1
102
RTVSPropertyOp33
 70
     1
102
RTVSPropertyOp34
 70
     1
102
RTVSPropertyOp35
 70
     1
102
RTVSPropertyOp36
 70
     1
102
RTVSPropertyOp37
 70
     1
102
RTVSPropertyOp38
 70
     1
102
RTVSPropertyOp39
 70
     1
102
RTVSPropertyOp40
 70
     1
102
RTVSPropertyOp41
 70
     1
102
RTVSPropertyOp42
 70
     1
102
RTVSPropertyOp43
 70
     1
102
RTVSPropertyOp44
 70
     1
102
RTVSPropertyOp45
 70
     1
102
RTVSPropertyOp46
 70
     1
102
RTVSPropertyOp47
 70
     1
102
RTVSPropertyOp48
 70
     1
102
RTVSPropertyOp49
 70
     1
102
RTVSPropertyOp50
 70
     1
102
RTVSPropertyOp51
 70
     0
102
RTVSPropertyOp52
 70
     0
102
RTVSPropertyOp53
 70
     1
102
RTVSPropertyOp54
 70
     1
102
RTVSPropertyOp55
 70
     1
102
RTVSPropertyOp56
 70
     1
102
RTVSPropertyOp57
 70
     1
102
RTVSPost2010Prop28
280
     0
102
RTVSPost2010PropOp28
 70
     1
102
RTVSPost2010Prop29
280
     1
102
RTVSPost2010PropOp29
 70
     1
102
RTVSPost2010Prop30
280
     1
102
RTVSPost2010PropOp30
 70
     1
102
RTVSPost2010Prop31
280
     0
102
RTVSPost2010PropOp31
 70
     1
102
RTVSPost2010Prop32
280
     0
102
RTVSPost2010PropOp32
 70
     1
102
RTVSPost2010Prop33
280
     0
102
RTVSPost2010PropOp33
 70
     1
102
RTVSPost2010Prop34
280
     0
102
RTVSPost2010PropOp34
 70
     1
102
RTVSPost2010Prop35
280
     0
102
RTVSPost2010PropOp35
 70
     1
102
RTVSPost2010Prop36
280
     0
102
RTVSPost2010PropOp36
 70
     1
102
RTVSPost2010Prop37
 90
       50
102
RTVSPost2010PropOp37
 70
     1
102
RTVSPost2010Prop38
140
0.0
102
RTVSPost2010PropOp38
 70
     1
102
RTVSPost2010Prop39
140
1.0
102
RTVSPost2010PropOp39
 70
     1
102
RTVSPost2010Prop40
 90
        0
102
RTVSPost2010PropOp40
 70
     1
102
RTVSPost2010Prop41ColorIndex
 90
       18
102
RTVSPost2010Prop41ColorRGB
 90
        0
102
RTVSPost2010PropOp41
 70
     1
102
RTVSPost2010Prop42
 90
       50
102
RTVSPost2010PropOp42
 70
     1
102
RTVSPost2010Prop43
 90
        3
102
RTVSPost2010PropOp43
 70
     1
102
RTVSPost2010Prop44ColorIndex
 90
        5
102
RTVSPost2010Prop44ColorRGB
 90
      255
102
RTVSPost2010PropOp44
 70
     1
102
RTVSPost2010Prop45
280
     0
102
RTVSPost2010PropOp45
 70
     1
102
RTVSPost2010Prop46
 90
       50
102
RTVSPost2010PropOp46
 70
     1
102
RTVSPost2010Prop47
 90
       50
102
RTVSPost2010PropOp47
 70
     1
102
RTVSPost2010Prop48
 90
       50
102
RTVSPost2010PropOp48
 70
     1
102
RTVSPost2010Prop49
280
     0
102
RTVSPost2010PropOp49
 70
     1
102
RTVSPost2010Prop50
 90
       50
102
RTVSPost2010PropOp50
 70
     1
102
RTVSPost2010Prop51ColorIndex
 90
      256
102
RTVSPost2010Prop51ColorRGB
 90
-16777216
102
RTVSPost2010PropOp51
 70
     0
102
RTVSPost2010Prop52
140
1.0
102
RTVSPost2010PropOp52
 70
     0
102
RTVSPost2010Prop53
 90
        2
102
RTVSPost2010PropOp53
 70
     1
102
RTVSPost2010Prop54
  1
strokes_ogs.tif
102
RTVSPost2010PropOp54
 70
     1
102
RTVSPost2010Prop55
280
     0
102
RTVSPost2010PropOp55
 70
     1
102
RTVSPost2010Prop56
140
1.0
102
RTVSPost2010PropOp56
 70
     1
102
RTVSPost2010Prop57
140
1.0
102
RTVSPost2010PropOp57
 70
     1
  0
XRECORD
  5
9428
102
{ACAD_REACTORS
330
9427
102
}
330
9427
100
AcDbXrecord
280
     1
102
RTVSPropertyOp0
 70
     1
102
RTVSPropertyOp1
 70
     1
102
RTVSPropertyOp2
 70
     1
102
RTVSPropertyOp3
 70
     1
102
RTVSPropertyOp4
 70
     1
102
RTVSPropertyOp5
 70
     1
102
RTVSPropertyOp6
 70
     1
102
RTVSPropertyOp7
 70
     1
102
RTVSPropertyOp8
 70
     1
102
RTVSPropertyOp9
 70
     1
102
RTVSPropertyOp10
 70
     1
102
RTVSPropertyOp11
 70
     1
102
RTVSPropertyOp12
 70
     1
102
RTVSPropertyOp13
 70
     1
102
RTVSPropertyOp14
 70
     1
102
RTVSPropertyOp15
 70
     1
102
RTVSPropertyOp16
 70
     1
102
RTVSPropertyOp17
 70
     1
102
RTVSPropertyOp18
 70
     1
102
RTVSPropertyOp19
 70
     1
102
RTVSPropertyOp20
 70
     1
102
RTVSPropertyOp21
 70
     1
102
RTVSPropertyOp22
 70
     1
102
RTVSPropertyOp23
 70
     1
102
RTVSPropertyOp24
 70
     1
102
RTVSPropertyOp25
 70
     1
102
RTVSPropertyOp26
 70
     1
102
RTVSPropertyOp27
 70
     1
102
RTVSPropertyOp28
 70
     1
102
RTVSPropertyOp29
 70
     1
102
RTVSPropertyOp30
 70
     1
102
RTVSPropertyOp31
 70
     1
102
RTVSPropertyOp32
 70
     1
102
RTVSPropertyOp33
 70
     1
102
RTVSPropertyOp34
 70
     1
102
RTVSPropertyOp35
 70
     1
102
RTVSPropertyOp36
 70
     1
102
RTVSPropertyOp37
 70
     1
102
RTVSPropertyOp38
 70
     1
102
RTVSPropertyOp39
 70
     1
102
RTVSPropertyOp40
 70
     1
102
RTVSPropertyOp41
 70
     1
102
RTVSPropertyOp42
 70
     1
102
RTVSPropertyOp43
 70
     1
102
RTVSPropertyOp44
 70
     1
102
RTVSPropertyOp45
 70
     1
102
RTVSPropertyOp46
 70
     1
102
RTVSPropertyOp47
 70
     1
102
RTVSPropertyOp48
 70
     1
102
RTVSPropertyOp49
 70
     1
102
RTVSPropertyOp50
 70
     1
102
RTVSPropertyOp51
 70
     0
102
RTVSPropertyOp52
 70
     0
102
RTVSPropertyOp53
 70
     1
102
RTVSPropertyOp54
 70
     1
102
RTVSPropertyOp55
 70
     1
102
RTVSPropertyOp56
 70
     1
102
RTVSPropertyOp57
 70
     1
102
RTVSPost2010Prop28
280
     0
102
RTVSPost2010PropOp28
 70
     1
102
RTVSPost2010Prop29
280
     1
102
RTVSPost2010PropOp29
 70
     1
102
RTVSPost2010Prop30
280
     1
102
RTVSPost2010PropOp30
 70
     1
102
RTVSPost2010Prop31
280
     0
102
RTVSPost2010PropOp31
 70
     1
102
RTVSPost2010Prop32
280
     0
102
RTVSPost2010PropOp32
 70
     1
102
RTVSPost2010Prop33
280
     0
102
RTVSPost2010PropOp33
 70
     1
102
RTVSPost2010Prop34
280
     0
102
RTVSPost2010PropOp34
 70
     1
102
RTVSPost2010Prop35
280
     0
102
RTVSPost2010PropOp35
 70
     1
102
RTVSPost2010Prop36
280
     0
102
RTVSPost2010PropOp36
 70
     1
102
RTVSPost2010Prop37
 90
       50
102
RTVSPost2010PropOp37
 70
     1
102
RTVSPost2010Prop38
140
0.0
102
RTVSPost2010PropOp38
 70
     1
102
RTVSPost2010Prop39
140
1.0
102
RTVSPost2010PropOp39
 70
     1
102
RTVSPost2010Prop40
 90
        0
102
RTVSPost2010PropOp40
 70
     1
102
RTVSPost2010Prop41ColorIndex
 90
       18
102
RTVSPost2010Prop41ColorRGB
 90
        0
102
RTVSPost2010PropOp41
 70
     1
102
RTVSPost2010Prop42
 90
       50
102
RTVSPost2010PropOp42
 70
     1
102
RTVSPost2010Prop43
 90
        3
102
RTVSPost2010PropOp43
 70
     1
102
RTVSPost2010Prop44ColorIndex
 90
        5
102
RTVSPost2010Prop44ColorRGB
 90
      255
102
RTVSPost2010PropOp44
 70
     1
102
RTVSPost2010Prop45
280
     0
102
RTVSPost2010PropOp45
 70
     1
102
RTVSPost2010Prop46
 90
       50
102
RTVSPost2010PropOp46
 70
     1
102
RTVSPost2010Prop47
 90
       50
102
RTVSPost2010PropOp47
 70
     1
102
RTVSPost2010Prop48
 90
       50
102
RTVSPost2010PropOp48
 70
     1
102
RTVSPost2010Prop49
280
     0
102
RTVSPost2010PropOp49
 70
     1
102
RTVSPost2010Prop50
 90
       50
102
RTVSPost2010PropOp50
 70
     1
102
RTVSPost2010Prop51ColorIndex
 90
      256
102
RTVSPost2010Prop51ColorRGB
 90
-16777216
102
RTVSPost2010PropOp51
 70
     0
102
RTVSPost2010Prop52
140
1.0
102
RTVSPost2010PropOp52
 70
     0
102
RTVSPost2010Prop53
 90
        2
102
RTVSPost2010PropOp53
 70
     1
102
RTVSPost2010Prop54
  1
strokes_ogs.tif
102
RTVSPost2010PropOp54
 70
     1
102
RTVSPost2010Prop55
280
     0
102
RTVSPost2010PropOp55
 70
     1
102
RTVSPost2010Prop56
140
1.0
102
RTVSPost2010PropOp56
 70
     1
102
RTVSPost2010Prop57
140
1.0
102
RTVSPost2010PropOp57
 70
     1
  0
XRECORD
  5
942A
102
{ACAD_REACTORS
330
9429
102
}
330
9429
100
AcDbXrecord
280
     1
102
RTVSPropertyOp0
 70
     1
102
RTVSPropertyOp1
 70
     1
102
RTVSPropertyOp2
 70
     1
102
RTVSPropertyOp3
 70
     1
102
RTVSPropertyOp4
 70
     1
102
RTVSPropertyOp5
 70
     1
102
RTVSPropertyOp6
 70
     1
102
RTVSPropertyOp7
 70
     1
102
RTVSPropertyOp8
 70
     1
102
RTVSPropertyOp9
 70
     1
102
RTVSPropertyOp10
 70
     1
102
RTVSPropertyOp11
 70
     1
102
RTVSPropertyOp12
 70
     1
102
RTVSPropertyOp13
 70
     1
102
RTVSPropertyOp14
 70
     1
102
RTVSPropertyOp15
 70
     1
102
RTVSPropertyOp16
 70
     1
102
RTVSPropertyOp17
 70
     1
102
RTVSPropertyOp18
 70
     1
102
RTVSPropertyOp19
 70
     1
102
RTVSPropertyOp20
 70
     1
102
RTVSPropertyOp21
 70
     1
102
RTVSPropertyOp22
 70
     1
102
RTVSPropertyOp23
 70
     1
102
RTVSPropertyOp24
 70
     1
102
RTVSPropertyOp25
 70
     1
102
RTVSPropertyOp26
 70
     1
102
RTVSPropertyOp27
 70
     1
102
RTVSPropertyOp28
 70
     1
102
RTVSPropertyOp29
 70
     1
102
RTVSPropertyOp30
 70
     1
102
RTVSPropertyOp31
 70
     1
102
RTVSPropertyOp32
 70
     1
102
RTVSPropertyOp33
 70
     1
102
RTVSPropertyOp34
 70
     1
102
RTVSPropertyOp35
 70
     1
102
RTVSPropertyOp36
 70
     1
102
RTVSPropertyOp37
 70
     1
102
RTVSPropertyOp38
 70
     1
102
RTVSPropertyOp39
 70
     1
102
RTVSPropertyOp40
 70
     1
102
RTVSPropertyOp41
 70
     1
102
RTVSPropertyOp42
 70
     1
102
RTVSPropertyOp43
 70
     1
102
RTVSPropertyOp44
 70
     1
102
RTVSPropertyOp45
 70
     1
102
RTVSPropertyOp46
 70
     1
102
RTVSPropertyOp47
 70
     1
102
RTVSPropertyOp48
 70
     1
102
RTVSPropertyOp49
 70
     1
102
RTVSPropertyOp50
 70
     1
102
RTVSPropertyOp51
 70
     0
102
RTVSPropertyOp52
 70
     0
102
RTVSPropertyOp53
 70
     1
102
RTVSPropertyOp54
 70
     1
102
RTVSPropertyOp55
 70
     1
102
RTVSPropertyOp56
 70
     1
102
RTVSPropertyOp57
 70
     1
102
RTVSPost2010Prop28
280
     0
102
RTVSPost2010PropOp28
 70
     1
102
RTVSPost2010Prop29
280
     1
102
RTVSPost2010PropOp29
 70
     1
102
RTVSPost2010Prop30
280
     1
102
RTVSPost2010PropOp30
 70
     1
102
RTVSPost2010Prop31
280
     0
102
RTVSPost2010PropOp31
 70
     1
102
RTVSPost2010Prop32
280
     0
102
RTVSPost2010PropOp32
 70
     1
102
RTVSPost2010Prop33
280
     0
102
RTVSPost2010PropOp33
 70
     1
102
RTVSPost2010Prop34
280
     0
102
RTVSPost2010PropOp34
 70
     1
102
RTVSPost2010Prop35
280
     0
102
RTVSPost2010PropOp35
 70
     1
102
RTVSPost2010Prop36
280
     0
102
RTVSPost2010PropOp36
 70
     1
102
RTVSPost2010Prop37
 90
       50
102
RTVSPost2010PropOp37
 70
     1
102
RTVSPost2010Prop38
140
0.0
102
RTVSPost2010PropOp38
 70
     1
102
RTVSPost2010Prop39
140
1.0
102
RTVSPost2010PropOp39
 70
     1
102
RTVSPost2010Prop40
 90
        0
102
RTVSPost2010PropOp40
 70
     1
102
RTVSPost2010Prop41ColorIndex
 90
       18
102
RTVSPost2010Prop41ColorRGB
 90
        0
102
RTVSPost2010PropOp41
 70
     1
102
RTVSPost2010Prop42
 90
       50
102
RTVSPost2010PropOp42
 70
     1
102
RTVSPost2010Prop43
 90
        3
102
RTVSPost2010PropOp43
 70
     1
102
RTVSPost2010Prop44ColorIndex
 90
        5
102
RTVSPost2010Prop44ColorRGB
 90
      255
102
RTVSPost2010PropOp44
 70
     1
102
RTVSPost2010Prop45
280
     0
102
RTVSPost2010PropOp45
 70
     1
102
RTVSPost2010Prop46
 90
       50
102
RTVSPost2010PropOp46
 70
     1
102
RTVSPost2010Prop47
 90
       50
102
RTVSPost2010PropOp47
 70
     1
102
RTVSPost2010Prop48
 90
       50
102
RTVSPost2010PropOp48
 70
     1
102
RTVSPost2010Prop49
280
     0
102
RTVSPost2010PropOp49
 70
     1
102
RTVSPost2010Prop50
 90
       50
102
RTVSPost2010PropOp50
 70
     1
102
RTVSPost2010Prop51ColorIndex
 90
      256
102
RTVSPost2010Prop51ColorRGB
 90
-16777216
102
RTVSPost2010PropOp51
 70
     0
102
RTVSPost2010Prop52
140
1.0
102
RTVSPost2010PropOp52
 70
     0
102
RTVSPost2010Prop53
 90
        2
102
RTVSPost2010PropOp53
 70
     1
102
RTVSPost2010Prop54
  1
strokes_ogs.tif
102
RTVSPost2010PropOp54
 70
     1
102
RTVSPost2010Prop55
280
     0
102
RTVSPost2010PropOp55
 70
     1
102
RTVSPost2010Prop56
140
1.0
102
RTVSPost2010PropOp56
 70
     1
102
RTVSPost2010Prop57
140
1.0
102
RTVSPost2010PropOp57
 70
     1
  0
XRECORD
  5
942C
102
{ACAD_REACTORS
330
942B
102
}
330
942B
100
AcDbXrecord
280
     1
102
RTVSPropertyOp0
 70
     1
102
RTVSPropertyOp1
 70
     1
102
RTVSPropertyOp2
 70
     1
102
RTVSPropertyOp3
 70
     1
102
RTVSPropertyOp4
 70
     1
102
RTVSPropertyOp5
 70
     1
102
RTVSPropertyOp6
 70
     1
102
RTVSPropertyOp7
 70
     1
102
RTVSPropertyOp8
 70
     1
102
RTVSPropertyOp9
 70
     1
102
RTVSPropertyOp10
 70
     1
102
RTVSPropertyOp11
 70
     1
102
RTVSPropertyOp12
 70
     1
102
RTVSPropertyOp13
 70
     1
102
RTVSPropertyOp14
 70
     1
102
RTVSPropertyOp15
 70
     1
102
RTVSPropertyOp16
 70
     1
102
RTVSPropertyOp17
 70
     1
102
RTVSPropertyOp18
 70
     1
102
RTVSPropertyOp19
 70
     1
102
RTVSPropertyOp20
 70
     1
102
RTVSPropertyOp21
 70
     1
102
RTVSPropertyOp22
 70
     1
102
RTVSPropertyOp23
 70
     1
102
RTVSPropertyOp24
 70
     1
102
RTVSPropertyOp25
 70
     1
102
RTVSPropertyOp26
 70
     1
102
RTVSPropertyOp27
 70
     1
102
RTVSPropertyOp28
 70
     1
102
RTVSPropertyOp29
 70
     1
102
RTVSPropertyOp30
 70
     1
102
RTVSPropertyOp31
 70
     1
102
RTVSPropertyOp32
 70
     1
102
RTVSPropertyOp33
 70
     1
102
RTVSPropertyOp34
 70
     1
102
RTVSPropertyOp35
 70
     1
102
RTVSPropertyOp36
 70
     1
102
RTVSPropertyOp37
 70
     1
102
RTVSPropertyOp38
 70
     1
102
RTVSPropertyOp39
 70
     1
102
RTVSPropertyOp40
 70
     1
102
RTVSPropertyOp41
 70
     1
102
RTVSPropertyOp42
 70
     1
102
RTVSPropertyOp43
 70
     1
102
RTVSPropertyOp44
 70
     1
102
RTVSPropertyOp45
 70
     1
102
RTVSPropertyOp46
 70
     1
102
RTVSPropertyOp47
 70
     1
102
RTVSPropertyOp48
 70
     1
102
RTVSPropertyOp49
 70
     1
102
RTVSPropertyOp50
 70
     1
102
RTVSPropertyOp51
 70
     0
102
RTVSPropertyOp52
 70
     0
102
RTVSPropertyOp53
 70
     1
102
RTVSPropertyOp54
 70
     1
102
RTVSPropertyOp55
 70
     1
102
RTVSPropertyOp56
 70
     1
102
RTVSPropertyOp57
 70
     1
102
RTVSPost2010Prop28
280
     0
102
RTVSPost2010PropOp28
 70
     1
102
RTVSPost2010Prop29
280
     1
102
RTVSPost2010PropOp29
 70
     1
102
RTVSPost2010Prop30
280
     1
102
RTVSPost2010PropOp30
 70
     1
102
RTVSPost2010Prop31
280
     0
102
RTVSPost2010PropOp31
 70
     1
102
RTVSPost2010Prop32
280
     0
102
RTVSPost2010PropOp32
 70
     1
102
RTVSPost2010Prop33
280
     0
102
RTVSPost2010PropOp33
 70
     1
102
RTVSPost2010Prop34
280
     0
102
RTVSPost2010PropOp34
 70
     1
102
RTVSPost2010Prop35
280
     0
102
RTVSPost2010PropOp35
 70
     1
102
RTVSPost2010Prop36
280
     0
102
RTVSPost2010PropOp36
 70
     1
102
RTVSPost2010Prop37
 90
       50
102
RTVSPost2010PropOp37
 70
     1
102
RTVSPost2010Prop38
140
0.0
102
RTVSPost2010PropOp38
 70
     1
102
RTVSPost2010Prop39
140
1.0
102
RTVSPost2010PropOp39
 70
     1
102
RTVSPost2010Prop40
 90
        0
102
RTVSPost2010PropOp40
 70
     1
102
RTVSPost2010Prop41ColorIndex
 90
       18
102
RTVSPost2010Prop41ColorRGB
 90
        0
102
RTVSPost2010PropOp41
 70
     1
102
RTVSPost2010Prop42
 90
       50
102
RTVSPost2010PropOp42
 70
     1
102
RTVSPost2010Prop43
 90
        3
102
RTVSPost2010PropOp43
 70
     1
102
RTVSPost2010Prop44ColorIndex
 90
        5
102
RTVSPost2010Prop44ColorRGB
 90
      255
102
RTVSPost2010PropOp44
 70
     1
102
RTVSPost2010Prop45
280
     0
102
RTVSPost2010PropOp45
 70
     1
102
RTVSPost2010Prop46
 90
       50
102
RTVSPost2010PropOp46
 70
     1
102
RTVSPost2010Prop47
 90
       50
102
RTVSPost2010PropOp47
 70
     1
102
RTVSPost2010Prop48
 90
       50
102
RTVSPost2010PropOp48
 70
     1
102
RTVSPost2010Prop49
280
     0
102
RTVSPost2010PropOp49
 70
     1
102
RTVSPost2010Prop50
 90
       50
102
RTVSPost2010PropOp50
 70
     1
102
RTVSPost2010Prop51ColorIndex
 90
      256
102
RTVSPost2010Prop51ColorRGB
 90
-16777216
102
RTVSPost2010PropOp51
 70
     0
102
RTVSPost2010Prop52
140
1.0
102
RTVSPost2010PropOp52
 70
     0
102
RTVSPost2010Prop53
 90
        2
102
RTVSPost2010PropOp53
 70
     1
102
RTVSPost2010Prop54
  1
strokes_ogs.tif
102
RTVSPost2010PropOp54
 70
     1
102
RTVSPost2010Prop55
280
     0
102
RTVSPost2010PropOp55
 70
     1
102
RTVSPost2010Prop56
140
1.0
102
RTVSPost2010PropOp56
 70
     1
102
RTVSPost2010Prop57
140
1.0
102
RTVSPost2010PropOp57
 70
     1
  0
XRECORD
  5
942E
102
{ACAD_REACTORS
330
942D
102
}
330
942D
100
AcDbXrecord
280
     1
102
RTVSPropertyOp0
 70
     1
102
RTVSPropertyOp1
 70
     1
102
RTVSPropertyOp2
 70
     1
102
RTVSPropertyOp3
 70
     1
102
RTVSPropertyOp4
 70
     1
102
RTVSPropertyOp5
 70
     1
102
RTVSPropertyOp6
 70
     1
102
RTVSPropertyOp7
 70
     1
102
RTVSPropertyOp8
 70
     1
102
RTVSPropertyOp9
 70
     1
102
RTVSPropertyOp10
 70
     1
102
RTVSPropertyOp11
 70
     1
102
RTVSPropertyOp12
 70
     1
102
RTVSPropertyOp13
 70
     1
102
RTVSPropertyOp14
 70
     1
102
RTVSPropertyOp15
 70
     1
102
RTVSPropertyOp16
 70
     1
102
RTVSPropertyOp17
 70
     1
102
RTVSPropertyOp18
 70
     1
102
RTVSPropertyOp19
 70
     1
102
RTVSPropertyOp20
 70
     1
102
RTVSPropertyOp21
 70
     1
102
RTVSPropertyOp22
 70
     1
102
RTVSPropertyOp23
 70
     1
102
RTVSPropertyOp24
 70
     1
102
RTVSPropertyOp25
 70
     1
102
RTVSPropertyOp26
 70
     1
102
RTVSPropertyOp27
 70
     1
102
RTVSPropertyOp28
 70
     1
102
RTVSPropertyOp29
 70
     1
102
RTVSPropertyOp30
 70
     1
102
RTVSPropertyOp31
 70
     1
102
RTVSPropertyOp32
 70
     1
102
RTVSPropertyOp33
 70
     1
102
RTVSPropertyOp34
 70
     1
102
RTVSPropertyOp35
 70
     1
102
RTVSPropertyOp36
 70
     1
102
RTVSPropertyOp37
 70
     1
102
RTVSPropertyOp38
 70
     1
102
RTVSPropertyOp39
 70
     1
102
RTVSPropertyOp40
 70
     1
102
RTVSPropertyOp41
 70
     1
102
RTVSPropertyOp42
 70
     1
102
RTVSPropertyOp43
 70
     1
102
RTVSPropertyOp44
 70
     1
102
RTVSPropertyOp45
 70
     1
102
RTVSPropertyOp46
 70
     1
102
RTVSPropertyOp47
 70
     1
102
RTVSPropertyOp48
 70
     1
102
RTVSPropertyOp49
 70
     1
102
RTVSPropertyOp50
 70
     1
102
RTVSPropertyOp51
 70
     0
102
RTVSPropertyOp52
 70
     0
102
RTVSPropertyOp53
 70
     1
102
RTVSPropertyOp54
 70
     1
102
RTVSPropertyOp55
 70
     1
102
RTVSPropertyOp56
 70
     1
102
RTVSPropertyOp57
 70
     1
102
RTVSPost2010Prop28
280
     0
102
RTVSPost2010PropOp28
 70
     1
102
RTVSPost2010Prop29
280
     1
102
RTVSPost2010PropOp29
 70
     1
102
RTVSPost2010Prop30
280
     1
102
RTVSPost2010PropOp30
 70
     1
102
RTVSPost2010Prop31
280
     0
102
RTVSPost2010PropOp31
 70
     1
102
RTVSPost2010Prop32
280
     0
102
RTVSPost2010PropOp32
 70
     1
102
RTVSPost2010Prop33
280
     0
102
RTVSPost2010PropOp33
 70
     1
102
RTVSPost2010Prop34
280
     0
102
RTVSPost2010PropOp34
 70
     1
102
RTVSPost2010Prop35
280
     0
102
RTVSPost2010PropOp35
 70
     1
102
RTVSPost2010Prop36
280
     0
102
RTVSPost2010PropOp36
 70
     1
102
RTVSPost2010Prop37
 90
       50
102
RTVSPost2010PropOp37
 70
     1
102
RTVSPost2010Prop38
140
0.0
102
RTVSPost2010PropOp38
 70
     1
102
RTVSPost2010Prop39
140
1.0
102
RTVSPost2010PropOp39
 70
     1
102
RTVSPost2010Prop40
 90
        0
102
RTVSPost2010PropOp40
 70
     1
102
RTVSPost2010Prop41ColorIndex
 90
       18
102
RTVSPost2010Prop41ColorRGB
 90
        0
102
RTVSPost2010PropOp41
 70
     1
102
RTVSPost2010Prop42
 90
       50
102
RTVSPost2010PropOp42
 70
     1
102
RTVSPost2010Prop43
 90
        3
102
RTVSPost2010PropOp43
 70
     1
102
RTVSPost2010Prop44ColorIndex
 90
        5
102
RTVSPost2010Prop44ColorRGB
 90
      255
102
RTVSPost2010PropOp44
 70
     1
102
RTVSPost2010Prop45
280
     0
102
RTVSPost2010PropOp45
 70
     1
102
RTVSPost2010Prop46
 90
       50
102
RTVSPost2010PropOp46
 70
     1
102
RTVSPost2010Prop47
 90
       50
102
RTVSPost2010PropOp47
 70
     1
102
RTVSPost2010Prop48
 90
       50
102
RTVSPost2010PropOp48
 70
     1
102
RTVSPost2010Prop49
280
     0
102
RTVSPost2010PropOp49
 70
     1
102
RTVSPost2010Prop50
 90
       50
102
RTVSPost2010PropOp50
 70
     1
102
RTVSPost2010Prop51ColorIndex
 90
      256
102
RTVSPost2010Prop51ColorRGB
 90
-16777216
102
RTVSPost2010PropOp51
 70
     0
102
RTVSPost2010Prop52
140
1.0
102
RTVSPost2010PropOp52
 70
     0
102
RTVSPost2010Prop53
 90
        2
102
RTVSPost2010PropOp53
 70
     1
102
RTVSPost2010Prop54
  1
strokes_ogs.tif
102
RTVSPost2010PropOp54
 70
     1
102
RTVSPost2010Prop55
280
     0
102
RTVSPost2010PropOp55
 70
     1
102
RTVSPost2010Prop56
140
1.0
102
RTVSPost2010PropOp56
 70
     1
102
RTVSPost2010Prop57
140
1.0
102
RTVSPost2010PropOp57
 70
     1
  0
XRECORD
  5
9430
102
{ACAD_REACTORS
330
942F
102
}
330
942F
100
AcDbXrecord
280
     1
102
RTVSPropertyOp0
 70
     1
102
RTVSPropertyOp1
 70
     1
102
RTVSPropertyOp2
 70
     1
102
RTVSPropertyOp3
 70
     1
102
RTVSPropertyOp4
 70
     1
102
RTVSPropertyOp5
 70
     1
102
RTVSPropertyOp6
 70
     1
102
RTVSPropertyOp7
 70
     1
102
RTVSPropertyOp8
 70
     1
102
RTVSPropertyOp9
 70
     1
102
RTVSPropertyOp10
 70
     1
102
RTVSPropertyOp11
 70
     1
102
RTVSPropertyOp12
 70
     1
102
RTVSPropertyOp13
 70
     1
102
RTVSPropertyOp14
 70
     1
102
RTVSPropertyOp15
 70
     1
102
RTVSPropertyOp16
 70
     1
102
RTVSPropertyOp17
 70
     1
102
RTVSPropertyOp18
 70
     1
102
RTVSPropertyOp19
 70
     1
102
RTVSPropertyOp20
 70
     1
102
RTVSPropertyOp21
 70
     1
102
RTVSPropertyOp22
 70
     1
102
RTVSPropertyOp23
 70
     1
102
RTVSPropertyOp24
 70
     1
102
RTVSPropertyOp25
 70
     1
102
RTVSPropertyOp26
 70
     1
102
RTVSPropertyOp27
 70
     1
102
RTVSPropertyOp28
 70
     1
102
RTVSPropertyOp29
 70
     1
102
RTVSPropertyOp30
 70
     1
102
RTVSPropertyOp31
 70
     1
102
RTVSPropertyOp32
 70
     1
102
RTVSPropertyOp33
 70
     1
102
RTVSPropertyOp34
 70
     1
102
RTVSPropertyOp35
 70
     1
102
RTVSPropertyOp36
 70
     1
102
RTVSPropertyOp37
 70
     1
102
RTVSPropertyOp38
 70
     1
102
RTVSPropertyOp39
 70
     1
102
RTVSPropertyOp40
 70
     1
102
RTVSPropertyOp41
 70
     1
102
RTVSPropertyOp42
 70
     1
102
RTVSPropertyOp43
 70
     1
102
RTVSPropertyOp44
 70
     1
102
RTVSPropertyOp45
 70
     1
102
RTVSPropertyOp46
 70
     1
102
RTVSPropertyOp47
 70
     1
102
RTVSPropertyOp48
 70
     1
102
RTVSPropertyOp49
 70
     1
102
RTVSPropertyOp50
 70
     1
102
RTVSPropertyOp51
 70
     0
102
RTVSPropertyOp52
 70
     0
102
RTVSPropertyOp53
 70
     1
102
RTVSPropertyOp54
 70
     1
102
RTVSPropertyOp55
 70
     1
102
RTVSPropertyOp56
 70
     1
102
RTVSPropertyOp57
 70
     1
102
RTVSPost2010Prop28
280
     0
102
RTVSPost2010PropOp28
 70
     1
102
RTVSPost2010Prop29
280
     1
102
RTVSPost2010PropOp29
 70
     1
102
RTVSPost2010Prop30
280
     1
102
RTVSPost2010PropOp30
 70
     1
102
RTVSPost2010Prop31
280
     0
102
RTVSPost2010PropOp31
 70
     1
102
RTVSPost2010Prop32
280
     0
102
RTVSPost2010PropOp32
 70
     1
102
RTVSPost2010Prop33
280
     0
102
RTVSPost2010PropOp33
 70
     1
102
RTVSPost2010Prop34
280
     0
102
RTVSPost2010PropOp34
 70
     1
102
RTVSPost2010Prop35
280
     0
102
RTVSPost2010PropOp35
 70
     1
102
RTVSPost2010Prop36
280
     0
102
RTVSPost2010PropOp36
 70
     1
102
RTVSPost2010Prop37
 90
       50
102
RTVSPost2010PropOp37
 70
     1
102
RTVSPost2010Prop38
140
0.0
102
RTVSPost2010PropOp38
 70
     1
102
RTVSPost2010Prop39
140
1.0
102
RTVSPost2010PropOp39
 70
     1
102
RTVSPost2010Prop40
 90
        0
102
RTVSPost2010PropOp40
 70
     1
102
RTVSPost2010Prop41ColorIndex
 90
       18
102
RTVSPost2010Prop41ColorRGB
 90
        0
102
RTVSPost2010PropOp41
 70
     1
102
RTVSPost2010Prop42
 90
       50
102
RTVSPost2010PropOp42
 70
     1
102
RTVSPost2010Prop43
 90
        3
102
RTVSPost2010PropOp43
 70
     1
102
RTVSPost2010Prop44ColorIndex
 90
        5
102
RTVSPost2010Prop44ColorRGB
 90
      255
102
RTVSPost2010PropOp44
 70
     1
102
RTVSPost2010Prop45
280
     0
102
RTVSPost2010PropOp45
 70
     1
102
RTVSPost2010Prop46
 90
       50
102
RTVSPost2010PropOp46
 70
     1
102
RTVSPost2010Prop47
 90
       50
102
RTVSPost2010PropOp47
 70
     1
102
RTVSPost2010Prop48
 90
       50
102
RTVSPost2010PropOp48
 70
     1
102
RTVSPost2010Prop49
280
     0
102
RTVSPost2010PropOp49
 70
     1
102
RTVSPost2010Prop50
 90
       50
102
RTVSPost2010PropOp50
 70
     1
102
RTVSPost2010Prop51ColorIndex
 90
      256
102
RTVSPost2010Prop51ColorRGB
 90
-16777216
102
RTVSPost2010PropOp51
 70
     0
102
RTVSPost2010Prop52
140
1.0
102
RTVSPost2010PropOp52
 70
     0
102
RTVSPost2010Prop53
 90
        2
102
RTVSPost2010PropOp53
 70
     1
102
RTVSPost2010Prop54
  1
strokes_ogs.tif
102
RTVSPost2010PropOp54
 70
     1
102
RTVSPost2010Prop55
280
     0
102
RTVSPost2010PropOp55
 70
     1
102
RTVSPost2010Prop56
140
1.0
102
RTVSPost2010PropOp56
 70
     1
102
RTVSPost2010Prop57
140
1.0
102
RTVSPost2010PropOp57
 70
     1
  0
XRECORD
  5
9432
102
{ACAD_REACTORS
330
9431
102
}
330
9431
100
AcDbXrecord
280
     1
102
RTVSPropertyOp0
 70
     1
102
RTVSPropertyOp1
 70
     1
102
RTVSPropertyOp2
 70
     1
102
RTVSPropertyOp3
 70
     1
102
RTVSPropertyOp4
 70
     1
102
RTVSPropertyOp5
 70
     1
102
RTVSPropertyOp6
 70
     1
102
RTVSPropertyOp7
 70
     1
102
RTVSPropertyOp8
 70
     1
102
RTVSPropertyOp9
 70
     1
102
RTVSPropertyOp10
 70
     1
102
RTVSPropertyOp11
 70
     1
102
RTVSPropertyOp12
 70
     1
102
RTVSPropertyOp13
 70
     1
102
RTVSPropertyOp14
 70
     1
102
RTVSPropertyOp15
 70
     1
102
RTVSPropertyOp16
 70
     1
102
RTVSPropertyOp17
 70
     1
102
RTVSPropertyOp18
 70
     1
102
RTVSPropertyOp19
 70
     1
102
RTVSPropertyOp20
 70
     1
102
RTVSPropertyOp21
 70
     1
102
RTVSPropertyOp22
 70
     1
102
RTVSPropertyOp23
 70
     1
102
RTVSPropertyOp24
 70
     1
102
RTVSPropertyOp25
 70
     1
102
RTVSPropertyOp26
 70
     1
102
RTVSPropertyOp27
 70
     1
102
RTVSPropertyOp28
 70
     1
102
RTVSPropertyOp29
 70
     1
102
RTVSPropertyOp30
 70
     1
102
RTVSPropertyOp31
 70
     1
102
RTVSPropertyOp32
 70
     1
102
RTVSPropertyOp33
 70
     1
102
RTVSPropertyOp34
 70
     1
102
RTVSPropertyOp35
 70
     1
102
RTVSPropertyOp36
 70
     1
102
RTVSPropertyOp37
 70
     1
102
RTVSPropertyOp38
 70
     1
102
RTVSPropertyOp39
 70
     1
102
RTVSPropertyOp40
 70
     1
102
RTVSPropertyOp41
 70
     1
102
RTVSPropertyOp42
 70
     1
102
RTVSPropertyOp43
 70
     1
102
RTVSPropertyOp44
 70
     1
102
RTVSPropertyOp45
 70
     1
102
RTVSPropertyOp46
 70
     1
102
RTVSPropertyOp47
 70
     1
102
RTVSPropertyOp48
 70
     1
102
RTVSPropertyOp49
 70
     1
102
RTVSPropertyOp50
 70
     1
102
RTVSPropertyOp51
 70
     0
102
RTVSPropertyOp52
 70
     0
102
RTVSPropertyOp53
 70
     1
102
RTVSPropertyOp54
 70
     1
102
RTVSPropertyOp55
 70
     1
102
RTVSPropertyOp56
 70
     1
102
RTVSPropertyOp57
 70
     1
102
RTVSPost2010Prop28
280
     0
102
RTVSPost2010PropOp28
 70
     1
102
RTVSPost2010Prop29
280
     1
102
RTVSPost2010PropOp29
 70
     1
102
RTVSPost2010Prop30
280
     1
102
RTVSPost2010PropOp30
 70
     1
102
RTVSPost2010Prop31
280
     0
102
RTVSPost2010PropOp31
 70
     1
102
RTVSPost2010Prop32
280
     0
102
RTVSPost2010PropOp32
 70
     1
102
RTVSPost2010Prop33
280
     0
102
RTVSPost2010PropOp33
 70
     1
102
RTVSPost2010Prop34
280
     0
102
RTVSPost2010PropOp34
 70
     1
102
RTVSPost2010Prop35
280
     0
102
RTVSPost2010PropOp35
 70
     1
102
RTVSPost2010Prop36
280
     0
102
RTVSPost2010PropOp36
 70
     1
102
RTVSPost2010Prop37
 90
       50
102
RTVSPost2010PropOp37
 70
     1
102
RTVSPost2010Prop38
140
0.0
102
RTVSPost2010PropOp38
 70
     1
102
RTVSPost2010Prop39
140
1.0
102
RTVSPost2010PropOp39
 70
     1
102
RTVSPost2010Prop40
 90
        0
102
RTVSPost2010PropOp40
 70
     1
102
RTVSPost2010Prop41ColorIndex
 90
       18
102
RTVSPost2010Prop41ColorRGB
 90
        0
102
RTVSPost2010PropOp41
 70
     1
102
RTVSPost2010Prop42
 90
       50
102
RTVSPost2010PropOp42
 70
     1
102
RTVSPost2010Prop43
 90
        3
102
RTVSPost2010PropOp43
 70
     1
102
RTVSPost2010Prop44ColorIndex
 90
        5
102
RTVSPost2010Prop44ColorRGB
 90
      255
102
RTVSPost2010PropOp44
 70
     1
102
RTVSPost2010Prop45
280
     0
102
RTVSPost2010PropOp45
 70
     1
102
RTVSPost2010Prop46
 90
       50
102
RTVSPost2010PropOp46
 70
     1
102
RTVSPost2010Prop47
 90
       50
102
RTVSPost2010PropOp47
 70
     1
102
RTVSPost2010Prop48
 90
       50
102
RTVSPost2010PropOp48
 70
     1
102
RTVSPost2010Prop49
280
     0
102
RTVSPost2010PropOp49
 70
     1
102
RTVSPost2010Prop50
 90
       50
102
RTVSPost2010PropOp50
 70
     1
102
RTVSPost2010Prop51ColorIndex
 90
      256
102
RTVSPost2010Prop51ColorRGB
 90
-16777216
102
RTVSPost2010PropOp51
 70
     0
102
RTVSPost2010Prop52
140
1.0
102
RTVSPost2010PropOp52
 70
     0
102
RTVSPost2010Prop53
 90
        2
102
RTVSPost2010PropOp53
 70
     1
102
RTVSPost2010Prop54
  1
strokes_ogs.tif
102
RTVSPost2010PropOp54
 70
     1
102
RTVSPost2010Prop55
280
     0
102
RTVSPost2010PropOp55
 70
     1
102
RTVSPost2010Prop56
140
1.0
102
RTVSPost2010PropOp56
 70
     1
102
RTVSPost2010Prop57
140
1.0
102
RTVSPost2010PropOp57
 70
     1
  0
XRECORD
  5
9434
102
{ACAD_REACTORS
330
9433
102
}
330
9433
100
AcDbXrecord
280
     1
102
RTVSPropertyOp0
 70
     0
102
RTVSPropertyOp1
 70
     0
102
RTVSPropertyOp2
 70
     0
102
RTVSPropertyOp3
 70
     0
102
RTVSPropertyOp4
 70
     0
102
RTVSPropertyOp5
 70
     0
102
RTVSPropertyOp6
 70
     0
102
RTVSPropertyOp7
 70
     0
102
RTVSPropertyOp8
 70
     0
102
RTVSPropertyOp9
 70
     0
102
RTVSPropertyOp10
 70
     0
102
RTVSPropertyOp11
 70
     0
102
RTVSPropertyOp12
 70
     0
102
RTVSPropertyOp13
 70
     0
102
RTVSPropertyOp14
 70
     2
102
RTVSPropertyOp15
 70
     0
102
RTVSPropertyOp16
 70
     0
102
RTVSPropertyOp17
 70
     0
102
RTVSPropertyOp18
 70
     0
102
RTVSPropertyOp19
 70
     0
102
RTVSPropertyOp20
 70
     0
102
RTVSPropertyOp21
 70
     0
102
RTVSPropertyOp22
 70
     0
102
RTVSPropertyOp23
 70
     0
102
RTVSPropertyOp24
 70
     0
102
RTVSPropertyOp25
 70
     0
102
RTVSPropertyOp26
 70
     0
102
RTVSPropertyOp27
 70
     0
102
RTVSPropertyOp28
 70
     1
102
RTVSPropertyOp29
 70
     1
102
RTVSPropertyOp30
 70
     1
102
RTVSPropertyOp31
 70
     1
102
RTVSPropertyOp32
 70
     1
102
RTVSPropertyOp33
 70
     1
102
RTVSPropertyOp34
 70
     1
102
RTVSPropertyOp35
 70
     1
102
RTVSPropertyOp36
 70
     1
102
RTVSPropertyOp37
 70
     1
102
RTVSPropertyOp38
 70
     1
102
RTVSPropertyOp39
 70
     1
102
RTVSPropertyOp40
 70
     1
102
RTVSPropertyOp41
 70
     1
102
RTVSPropertyOp42
 70
     1
102
RTVSPropertyOp43
 70
     1
102
RTVSPropertyOp44
 70
     1
102
RTVSPropertyOp45
 70
     1
102
RTVSPropertyOp46
 70
     1
102
RTVSPropertyOp47
 70
     1
102
RTVSPropertyOp48
 70
     1
102
RTVSPropertyOp49
 70
     1
102
RTVSPropertyOp50
 70
     1
102
RTVSPropertyOp51
 70
     0
102
RTVSPropertyOp52
 70
     0
102
RTVSPropertyOp53
 70
     1
102
RTVSPropertyOp54
 70
     1
102
RTVSPropertyOp55
 70
     1
102
RTVSPropertyOp56
 70
     1
102
RTVSPropertyOp57
 70
     1
102
RTVSPost2010Prop28
280
     0
102
RTVSPost2010PropOp28
 70
     1
102
RTVSPost2010Prop29
280
     1
102
RTVSPost2010PropOp29
 70
     1
102
RTVSPost2010Prop30
280
     1
102
RTVSPost2010PropOp30
 70
     1
102
RTVSPost2010Prop31
280
     0
102
RTVSPost2010PropOp31
 70
     1
102
RTVSPost2010Prop32
280
     0
102
RTVSPost2010PropOp32
 70
     1
102
RTVSPost2010Prop33
280
     0
102
RTVSPost2010PropOp33
 70
     1
102
RTVSPost2010Prop34
280
     0
102
RTVSPost2010PropOp34
 70
     1
102
RTVSPost2010Prop35
280
     0
102
RTVSPost2010PropOp35
 70
     1
102
RTVSPost2010Prop36
280
     0
102
RTVSPost2010PropOp36
 70
     1
102
RTVSPost2010Prop37
 90
       50
102
RTVSPost2010PropOp37
 70
     1
102
RTVSPost2010Prop38
140
0.0
102
RTVSPost2010PropOp38
 70
     1
102
RTVSPost2010Prop39
140
1.0
102
RTVSPost2010PropOp39
 70
     1
102
RTVSPost2010Prop40
 90
        0
102
RTVSPost2010PropOp40
 70
     1
102
RTVSPost2010Prop41ColorIndex
 90
       18
102
RTVSPost2010Prop41ColorRGB
 90
        0
102
RTVSPost2010PropOp41
 70
     1
102
RTVSPost2010Prop42
 90
       50
102
RTVSPost2010PropOp42
 70
     1
102
RTVSPost2010Prop43
 90
        3
102
RTVSPost2010PropOp43
 70
     1
102
RTVSPost2010Prop44ColorIndex
 90
        5
102
RTVSPost2010Prop44ColorRGB
 90
      255
102
RTVSPost2010PropOp44
 70
     1
102
RTVSPost2010Prop45
280
     0
102
RTVSPost2010PropOp45
 70
     1
102
RTVSPost2010Prop46
 90
       50
102
RTVSPost2010PropOp46
 70
     1
102
RTVSPost2010Prop47
 90
       50
102
RTVSPost2010PropOp47
 70
     1
102
RTVSPost2010Prop48
 90
       50
102
RTVSPost2010PropOp48
 70
     1
102
RTVSPost2010Prop49
280
     0
102
RTVSPost2010PropOp49
 70
     1
102
RTVSPost2010Prop50
 90
       50
102
RTVSPost2010PropOp50
 70
     1
102
RTVSPost2010Prop51ColorIndex
 90
      256
102
RTVSPost2010Prop51ColorRGB
 90
-16777216
102
RTVSPost2010PropOp51
 70
     0
102
RTVSPost2010Prop52
140
1.0
102
RTVSPost2010PropOp52
 70
     0
102
RTVSPost2010Prop53
 90
        2
102
RTVSPost2010PropOp53
 70
     1
102
RTVSPost2010Prop54
  1
strokes_ogs.tif
102
RTVSPost2010PropOp54
 70
     1
102
RTVSPost2010Prop55
280
     0
102
RTVSPost2010PropOp55
 70
     1
102
RTVSPost2010Prop56
140
1.0
102
RTVSPost2010PropOp56
 70
     1
102
RTVSPost2010Prop57
140
1.0
102
RTVSPost2010PropOp57
 70
     1
  0
XRECORD
  5
9436
102
{ACAD_REACTORS
330
9435
102
}
330
9435
100
AcDbXrecord
280
     1
102
RTVSPropertyOp0
 70
     1
102
RTVSPropertyOp1
 70
     1
102
RTVSPropertyOp2
 70
     1
102
RTVSPropertyOp3
 70
     1
102
RTVSPropertyOp4
 70
     1
102
RTVSPropertyOp5
 70
     1
102
RTVSPropertyOp6
 70
     1
102
RTVSPropertyOp7
 70
     1
102
RTVSPropertyOp8
 70
     1
102
RTVSPropertyOp9
 70
     1
102
RTVSPropertyOp10
 70
     1
102
RTVSPropertyOp11
 70
     1
102
RTVSPropertyOp12
 70
     1
102
RTVSPropertyOp13
 70
     1
102
RTVSPropertyOp14
 70
     1
102
RTVSPropertyOp15
 70
     1
102
RTVSPropertyOp16
 70
     1
102
RTVSPropertyOp17
 70
     1
102
RTVSPropertyOp18
 70
     1
102
RTVSPropertyOp19
 70
     1
102
RTVSPropertyOp20
 70
     1
102
RTVSPropertyOp21
 70
     1
102
RTVSPropertyOp22
 70
     1
102
RTVSPropertyOp23
 70
     1
102
RTVSPropertyOp24
 70
     1
102
RTVSPropertyOp25
 70
     1
102
RTVSPropertyOp26
 70
     1
102
RTVSPropertyOp27
 70
     1
102
RTVSPropertyOp28
 70
     1
102
RTVSPropertyOp29
 70
     1
102
RTVSPropertyOp30
 70
     1
102
RTVSPropertyOp31
 70
     1
102
RTVSPropertyOp32
 70
     1
102
RTVSPropertyOp33
 70
     1
102
RTVSPropertyOp34
 70
     1
102
RTVSPropertyOp35
 70
     1
102
RTVSPropertyOp36
 70
     1
102
RTVSPropertyOp37
 70
     1
102
RTVSPropertyOp38
 70
     1
102
RTVSPropertyOp39
 70
     1
102
RTVSPropertyOp40
 70
     1
102
RTVSPropertyOp41
 70
     1
102
RTVSPropertyOp42
 70
     1
102
RTVSPropertyOp43
 70
     1
102
RTVSPropertyOp44
 70
     1
102
RTVSPropertyOp45
 70
     1
102
RTVSPropertyOp46
 70
     1
102
RTVSPropertyOp47
 70
     1
102
RTVSPropertyOp48
 70
     1
102
RTVSPropertyOp49
 70
     1
102
RTVSPropertyOp50
 70
     1
102
RTVSPropertyOp51
 70
     0
102
RTVSPropertyOp52
 70
     0
102
RTVSPropertyOp53
 70
     1
102
RTVSPropertyOp54
 70
     1
102
RTVSPropertyOp55
 70
     1
102
RTVSPropertyOp56
 70
     1
102
RTVSPropertyOp57
 70
     1
102
RTVSPost2010Prop28
280
     0
102
RTVSPost2010PropOp28
 70
     1
102
RTVSPost2010Prop29
280
     1
102
RTVSPost2010PropOp29
 70
     1
102
RTVSPost2010Prop30
280
     1
102
RTVSPost2010PropOp30
 70
     1
102
RTVSPost2010Prop31
280
     0
102
RTVSPost2010PropOp31
 70
     1
102
RTVSPost2010Prop32
280
     0
102
RTVSPost2010PropOp32
 70
     1
102
RTVSPost2010Prop33
280
     0
102
RTVSPost2010PropOp33
 70
     1
102
RTVSPost2010Prop34
280
     0
102
RTVSPost2010PropOp34
 70
     1
102
RTVSPost2010Prop35
280
     0
102
RTVSPost2010PropOp35
 70
     1
102
RTVSPost2010Prop36
280
     0
102
RTVSPost2010PropOp36
 70
     1
102
RTVSPost2010Prop37
 90
       50
102
RTVSPost2010PropOp37
 70
     1
102
RTVSPost2010Prop38
140
0.0
102
RTVSPost2010PropOp38
 70
     1
102
RTVSPost2010Prop39
140
1.0
102
RTVSPost2010PropOp39
 70
     1
102
RTVSPost2010Prop40
 90
        0
102
RTVSPost2010PropOp40
 70
     1
102
RTVSPost2010Prop41ColorIndex
 90
       18
102
RTVSPost2010Prop41ColorRGB
 90
        0
102
RTVSPost2010PropOp41
 70
     1
102
RTVSPost2010Prop42
 90
       50
102
RTVSPost2010PropOp42
 70
     1
102
RTVSPost2010Prop43
 90
        3
102
RTVSPost2010PropOp43
 70
     1
102
RTVSPost2010Prop44ColorIndex
 90
        5
102
RTVSPost2010Prop44ColorRGB
 90
      255
102
RTVSPost2010PropOp44
 70
     1
102
RTVSPost2010Prop45
280
     0
102
RTVSPost2010PropOp45
 70
     1
102
RTVSPost2010Prop46
 90
       50
102
RTVSPost2010PropOp46
 70
     1
102
RTVSPost2010Prop47
 90
       50
102
RTVSPost2010PropOp47
 70
     1
102
RTVSPost2010Prop48
 90
       50
102
RTVSPost2010PropOp48
 70
     1
102
RTVSPost2010Prop49
280
     0
102
RTVSPost2010PropOp49
 70
     1
102
RTVSPost2010Prop50
 90
       50
102
RTVSPost2010PropOp50
 70
     1
102
RTVSPost2010Prop51ColorIndex
 90
      256
102
RTVSPost2010Prop51ColorRGB
 90
-16777216
102
RTVSPost2010PropOp51
 70
     0
102
RTVSPost2010Prop52
140
1.0
102
RTVSPost2010PropOp52
 70
     0
102
RTVSPost2010Prop53
 90
        2
102
RTVSPost2010PropOp53
 70
     1
102
RTVSPost2010Prop54
  1
strokes_ogs.tif
102
RTVSPost2010PropOp54
 70
     1
102
RTVSPost2010Prop55
280
     0
102
RTVSPost2010PropOp55
 70
     1
102
RTVSPost2010Prop56
140
1.0
102
RTVSPost2010PropOp56
 70
     1
102
RTVSPost2010Prop57
140
1.0
102
RTVSPost2010PropOp57
 70
     1
  0
XRECORD
  5
9438
102
{ACAD_REACTORS
330
9437
102
}
330
9437
100
AcDbXrecord
280
     1
102
RTVSPropertyOp0
 70
     1
102
RTVSPropertyOp1
 70
     1
102
RTVSPropertyOp2
 70
     1
102
RTVSPropertyOp3
 70
     1
102
RTVSPropertyOp4
 70
     1
102
RTVSPropertyOp5
 70
     1
102
RTVSPropertyOp6
 70
     1
102
RTVSPropertyOp7
 70
     1
102
RTVSPropertyOp8
 70
     1
102
RTVSPropertyOp9
 70
     1
102
RTVSPropertyOp10
 70
     1
102
RTVSPropertyOp11
 70
     1
102
RTVSPropertyOp12
 70
     1
102
RTVSPropertyOp13
 70
     1
102
RTVSPropertyOp14
 70
     1
102
RTVSPropertyOp15
 70
     1
102
RTVSPropertyOp16
 70
     1
102
RTVSPropertyOp17
 70
     1
102
RTVSPropertyOp18
 70
     1
102
RTVSPropertyOp19
 70
     1
102
RTVSPropertyOp20
 70
     1
102
RTVSPropertyOp21
 70
     1
102
RTVSPropertyOp22
 70
     1
102
RTVSPropertyOp23
 70
     1
102
RTVSPropertyOp24
 70
     1
102
RTVSPropertyOp25
 70
     1
102
RTVSPropertyOp26
 70
     1
102
RTVSPropertyOp27
 70
     1
102
RTVSPropertyOp28
 70
     1
102
RTVSPropertyOp29
 70
     1
102
RTVSPropertyOp30
 70
     1
102
RTVSPropertyOp31
 70
     1
102
RTVSPropertyOp32
 70
     1
102
RTVSPropertyOp33
 70
     1
102
RTVSPropertyOp34
 70
     1
102
RTVSPropertyOp35
 70
     1
102
RTVSPropertyOp36
 70
     1
102
RTVSPropertyOp37
 70
     1
102
RTVSPropertyOp38
 70
     1
102
RTVSPropertyOp39
 70
     1
102
RTVSPropertyOp40
 70
     1
102
RTVSPropertyOp41
 70
     1
102
RTVSPropertyOp42
 70
     1
102
RTVSPropertyOp43
 70
     1
102
RTVSPropertyOp44
 70
     1
102
RTVSPropertyOp45
 70
     1
102
RTVSPropertyOp46
 70
     1
102
RTVSPropertyOp47
 70
     1
102
RTVSPropertyOp48
 70
     1
102
RTVSPropertyOp49
 70
     1
102
RTVSPropertyOp50
 70
     1
102
RTVSPropertyOp51
 70
     0
102
RTVSPropertyOp52
 70
     0
102
RTVSPropertyOp53
 70
     1
102
RTVSPropertyOp54
 70
     1
102
RTVSPropertyOp55
 70
     1
102
RTVSPropertyOp56
 70
     1
102
RTVSPropertyOp57
 70
     1
102
RTVSPost2010Prop28
280
     0
102
RTVSPost2010PropOp28
 70
     1
102
RTVSPost2010Prop29
280
     1
102
RTVSPost2010PropOp29
 70
     1
102
RTVSPost2010Prop30
280
     1
102
RTVSPost2010PropOp30
 70
     1
102
RTVSPost2010Prop31
280
     0
102
RTVSPost2010PropOp31
 70
     1
102
RTVSPost2010Prop32
280
     0
102
RTVSPost2010PropOp32
 70
     1
102
RTVSPost2010Prop33
280
     0
102
RTVSPost2010PropOp33
 70
     1
102
RTVSPost2010Prop34
280
     0
102
RTVSPost2010PropOp34
 70
     1
102
RTVSPost2010Prop35
280
     0
102
RTVSPost2010PropOp35
 70
     1
102
RTVSPost2010Prop36
280
     0
102
RTVSPost2010PropOp36
 70
     1
102
RTVSPost2010Prop37
 90
       50
102
RTVSPost2010PropOp37
 70
     1
102
RTVSPost2010Prop38
140
0.0
102
RTVSPost2010PropOp38
 70
     1
102
RTVSPost2010Prop39
140
1.0
102
RTVSPost2010PropOp39
 70
     1
102
RTVSPost2010Prop40
 90
        0
102
RTVSPost2010PropOp40
 70
     1
102
RTVSPost2010Prop41ColorIndex
 90
       18
102
RTVSPost2010Prop41ColorRGB
 90
        0
102
RTVSPost2010PropOp41
 70
     1
102
RTVSPost2010Prop42
 90
       50
102
RTVSPost2010PropOp42
 70
     1
102
RTVSPost2010Prop43
 90
        3
102
RTVSPost2010PropOp43
 70
     1
102
RTVSPost2010Prop44ColorIndex
 90
        5
102
RTVSPost2010Prop44ColorRGB
 90
      255
102
RTVSPost2010PropOp44
 70
     1
102
RTVSPost2010Prop45
280
     0
102
RTVSPost2010PropOp45
 70
     1
102
RTVSPost2010Prop46
 90
       50
102
RTVSPost2010PropOp46
 70
     1
102
RTVSPost2010Prop47
 90
       50
102
RTVSPost2010PropOp47
 70
     1
102
RTVSPost2010Prop48
 90
       50
102
RTVSPost2010PropOp48
 70
     1
102
RTVSPost2010Prop49
280
     0
102
RTVSPost2010PropOp49
 70
     1
102
RTVSPost2010Prop50
 90
       50
102
RTVSPost2010PropOp50
 70
     1
102
RTVSPost2010Prop51ColorIndex
 90
      256
102
RTVSPost2010Prop51ColorRGB
 90
-16777216
102
RTVSPost2010PropOp51
 70
     0
102
RTVSPost2010Prop52
140
1.0
102
RTVSPost2010PropOp52
 70
     0
102
RTVSPost2010Prop53
 90
        2
102
RTVSPost2010PropOp53
 70
     1
102
RTVSPost2010Prop54
  1
strokes_ogs.tif
102
RTVSPost2010PropOp54
 70
     1
102
RTVSPost2010Prop55
280
     0
102
RTVSPost2010PropOp55
 70
     1
102
RTVSPost2010Prop56
140
1.0
102
RTVSPost2010PropOp56
 70
     1
102
RTVSPost2010Prop57
140
1.0
102
RTVSPost2010PropOp57
 70
     1
  0
XRECORD
  5
943A
102
{ACAD_REACTORS
330
9439
102
}
330
9439
100
AcDbXrecord
280
     1
102
RTVSPropertyOp0
 70
     1
102
RTVSPropertyOp1
 70
     1
102
RTVSPropertyOp2
 70
     1
102
RTVSPropertyOp3
 70
     1
102
RTVSPropertyOp4
 70
     1
102
RTVSPropertyOp5
 70
     1
102
RTVSPropertyOp6
 70
     1
102
RTVSPropertyOp7
 70
     1
102
RTVSPropertyOp8
 70
     1
102
RTVSPropertyOp9
 70
     1
102
RTVSPropertyOp10
 70
     1
102
RTVSPropertyOp11
 70
     1
102
RTVSPropertyOp12
 70
     1
102
RTVSPropertyOp13
 70
     1
102
RTVSPropertyOp14
 70
     1
102
RTVSPropertyOp15
 70
     1
102
RTVSPropertyOp16
 70
     1
102
RTVSPropertyOp17
 70
     1
102
RTVSPropertyOp18
 70
     1
102
RTVSPropertyOp19
 70
     1
102
RTVSPropertyOp20
 70
     1
102
RTVSPropertyOp21
 70
     1
102
RTVSPropertyOp22
 70
     1
102
RTVSPropertyOp23
 70
     1
102
RTVSPropertyOp24
 70
     1
102
RTVSPropertyOp25
 70
     1
102
RTVSPropertyOp26
 70
     1
102
RTVSPropertyOp27
 70
     1
102
RTVSPropertyOp28
 70
     1
102
RTVSPropertyOp29
 70
     1
102
RTVSPropertyOp30
 70
     1
102
RTVSPropertyOp31
 70
     1
102
RTVSPropertyOp32
 70
     1
102
RTVSPropertyOp33
 70
     1
102
RTVSPropertyOp34
 70
     1
102
RTVSPropertyOp35
 70
     1
102
RTVSPropertyOp36
 70
     1
102
RTVSPropertyOp37
 70
     1
102
RTVSPropertyOp38
 70
     1
102
RTVSPropertyOp39
 70
     1
102
RTVSPropertyOp40
 70
     1
102
RTVSPropertyOp41
 70
     1
102
RTVSPropertyOp42
 70
     1
102
RTVSPropertyOp43
 70
     1
102
RTVSPropertyOp44
 70
     1
102
RTVSPropertyOp45
 70
     1
102
RTVSPropertyOp46
 70
     1
102
RTVSPropertyOp47
 70
     1
102
RTVSPropertyOp48
 70
     1
102
RTVSPropertyOp49
 70
     1
102
RTVSPropertyOp50
 70
     1
102
RTVSPropertyOp51
 70
     0
102
RTVSPropertyOp52
 70
     0
102
RTVSPropertyOp53
 70
     1
102
RTVSPropertyOp54
 70
     1
102
RTVSPropertyOp55
 70
     1
102
RTVSPropertyOp56
 70
     1
102
RTVSPropertyOp57
 70
     1
102
RTVSPost2010Prop28
280
     0
102
RTVSPost2010PropOp28
 70
     1
102
RTVSPost2010Prop29
280
     1
102
RTVSPost2010PropOp29
 70
     1
102
RTVSPost2010Prop30
280
     1
102
RTVSPost2010PropOp30
 70
     1
102
RTVSPost2010Prop31
280
     0
102
RTVSPost2010PropOp31
 70
     1
102
RTVSPost2010Prop32
280
     0
102
RTVSPost2010PropOp32
 70
     1
102
RTVSPost2010Prop33
280
     0
102
RTVSPost2010PropOp33
 70
     1
102
RTVSPost2010Prop34
280
     0
102
RTVSPost2010PropOp34
 70
     1
102
RTVSPost2010Prop35
280
     0
102
RTVSPost2010PropOp35
 70
     1
102
RTVSPost2010Prop36
280
     0
102
RTVSPost2010PropOp36
 70
     1
102
RTVSPost2010Prop37
 90
       50
102
RTVSPost2010PropOp37
 70
     1
102
RTVSPost2010Prop38
140
0.0
102
RTVSPost2010PropOp38
 70
     1
102
RTVSPost2010Prop39
140
1.0
102
RTVSPost2010PropOp39
 70
     1
102
RTVSPost2010Prop40
 90
        0
102
RTVSPost2010PropOp40
 70
     1
102
RTVSPost2010Prop41ColorIndex
 90
       18
102
RTVSPost2010Prop41ColorRGB
 90
        0
102
RTVSPost2010PropOp41
 70
     1
102
RTVSPost2010Prop42
 90
       50
102
RTVSPost2010PropOp42
 70
     1
102
RTVSPost2010Prop43
 90
        3
102
RTVSPost2010PropOp43
 70
     1
102
RTVSPost2010Prop44ColorIndex
 90
        5
102
RTVSPost2010Prop44ColorRGB
 90
      255
102
RTVSPost2010PropOp44
 70
     1
102
RTVSPost2010Prop45
280
     0
102
RTVSPost2010PropOp45
 70
     1
102
RTVSPost2010Prop46
 90
       50
102
RTVSPost2010PropOp46
 70
     1
102
RTVSPost2010Prop47
 90
       50
102
RTVSPost2010PropOp47
 70
     1
102
RTVSPost2010Prop48
 90
       50
102
RTVSPost2010PropOp48
 70
     1
102
RTVSPost2010Prop49
280
     0
102
RTVSPost2010PropOp49
 70
     1
102
RTVSPost2010Prop50
 90
       50
102
RTVSPost2010PropOp50
 70
     1
102
RTVSPost2010Prop51ColorIndex
 90
      256
102
RTVSPost2010Prop51ColorRGB
 90
-16777216
102
RTVSPost2010PropOp51
 70
     0
102
RTVSPost2010Prop52
140
1.0
102
RTVSPost2010PropOp52
 70
     0
102
RTVSPost2010Prop53
 90
        2
102
RTVSPost2010PropOp53
 70
     1
102
RTVSPost2010Prop54
  1
strokes_ogs.tif
102
RTVSPost2010PropOp54
 70
     1
102
RTVSPost2010Prop55
280
     0
102
RTVSPost2010PropOp55
 70
     1
102
RTVSPost2010Prop56
140
1.0
102
RTVSPost2010PropOp56
 70
     1
102
RTVSPost2010Prop57
140
1.0
102
RTVSPost2010PropOp57
 70
     1
  0
XRECORD
  5
943C
102
{ACAD_REACTORS
330
943B
102
}
330
943B
100
AcDbXrecord
280
     1
102
RTVSPropertyOp0
 70
     1
102
RTVSPropertyOp1
 70
     1
102
RTVSPropertyOp2
 70
     1
102
RTVSPropertyOp3
 70
     1
102
RTVSPropertyOp4
 70
     1
102
RTVSPropertyOp5
 70
     1
102
RTVSPropertyOp6
 70
     1
102
RTVSPropertyOp7
 70
     1
102
RTVSPropertyOp8
 70
     1
102
RTVSPropertyOp9
 70
     1
102
RTVSPropertyOp10
 70
     1
102
RTVSPropertyOp11
 70
     1
102
RTVSPropertyOp12
 70
     1
102
RTVSPropertyOp13
 70
     1
102
RTVSPropertyOp14
 70
     1
102
RTVSPropertyOp15
 70
     1
102
RTVSPropertyOp16
 70
     1
102
RTVSPropertyOp17
 70
     1
102
RTVSPropertyOp18
 70
     1
102
RTVSPropertyOp19
 70
     1
102
RTVSPropertyOp20
 70
     1
102
RTVSPropertyOp21
 70
     1
102
RTVSPropertyOp22
 70
     1
102
RTVSPropertyOp23
 70
     1
102
RTVSPropertyOp24
 70
     1
102
RTVSPropertyOp25
 70
     1
102
RTVSPropertyOp26
 70
     1
102
RTVSPropertyOp27
 70
     1
102
RTVSPropertyOp28
 70
     1
102
RTVSPropertyOp29
 70
     1
102
RTVSPropertyOp30
 70
     1
102
RTVSPropertyOp31
 70
     1
102
RTVSPropertyOp32
 70
     1
102
RTVSPropertyOp33
 70
     1
102
RTVSPropertyOp34
 70
     1
102
RTVSPropertyOp35
 70
     1
102
RTVSPropertyOp36
 70
     1
102
RTVSPropertyOp37
 70
     1
102
RTVSPropertyOp38
 70
     1
102
RTVSPropertyOp39
 70
     1
102
RTVSPropertyOp40
 70
     1
102
RTVSPropertyOp41
 70
     1
102
RTVSPropertyOp42
 70
     1
102
RTVSPropertyOp43
 70
     1
102
RTVSPropertyOp44
 70
     1
102
RTVSPropertyOp45
 70
     1
102
RTVSPropertyOp46
 70
     1
102
RTVSPropertyOp47
 70
     1
102
RTVSPropertyOp48
 70
     1
102
RTVSPropertyOp49
 70
     1
102
RTVSPropertyOp50
 70
     1
102
RTVSPropertyOp51
 70
     0
102
RTVSPropertyOp52
 70
     0
102
RTVSPropertyOp53
 70
     1
102
RTVSPropertyOp54
 70
     1
102
RTVSPropertyOp55
 70
     1
102
RTVSPropertyOp56
 70
     1
102
RTVSPropertyOp57
 70
     1
102
RTVSPost2010Prop28
280
     0
102
RTVSPost2010PropOp28
 70
     1
102
RTVSPost2010Prop29
280
     1
102
RTVSPost2010PropOp29
 70
     1
102
RTVSPost2010Prop30
280
     1
102
RTVSPost2010PropOp30
 70
     1
102
RTVSPost2010Prop31
280
     0
102
RTVSPost2010PropOp31
 70
     1
102
RTVSPost2010Prop32
280
     0
102
RTVSPost2010PropOp32
 70
     1
102
RTVSPost2010Prop33
280
     0
102
RTVSPost2010PropOp33
 70
     1
102
RTVSPost2010Prop34
280
     0
102
RTVSPost2010PropOp34
 70
     1
102
RTVSPost2010Prop35
280
     0
102
RTVSPost2010PropOp35
 70
     1
102
RTVSPost2010Prop36
280
     0
102
RTVSPost2010PropOp36
 70
     1
102
RTVSPost2010Prop37
 90
       50
102
RTVSPost2010PropOp37
 70
     1
102
RTVSPost2010Prop38
140
0.0
102
RTVSPost2010PropOp38
 70
     1
102
RTVSPost2010Prop39
140
1.0
102
RTVSPost2010PropOp39
 70
     1
102
RTVSPost2010Prop40
 90
        0
102
RTVSPost2010PropOp40
 70
     1
102
RTVSPost2010Prop41ColorIndex
 90
       18
102
RTVSPost2010Prop41ColorRGB
 90
        0
102
RTVSPost2010PropOp41
 70
     1
102
RTVSPost2010Prop42
 90
       50
102
RTVSPost2010PropOp42
 70
     1
102
RTVSPost2010Prop43
 90
        3
102
RTVSPost2010PropOp43
 70
     1
102
RTVSPost2010Prop44ColorIndex
 90
        5
102
RTVSPost2010Prop44ColorRGB
 90
      255
102
RTVSPost2010PropOp44
 70
     1
102
RTVSPost2010Prop45
280
     0
102
RTVSPost2010PropOp45
 70
     1
102
RTVSPost2010Prop46
 90
       50
102
RTVSPost2010PropOp46
 70
     1
102
RTVSPost2010Prop47
 90
       50
102
RTVSPost2010PropOp47
 70
     1
102
RTVSPost2010Prop48
 90
       50
102
RTVSPost2010PropOp48
 70
     1
102
RTVSPost2010Prop49
280
     0
102
RTVSPost2010PropOp49
 70
     1
102
RTVSPost2010Prop50
 90
       50
102
RTVSPost2010PropOp50
 70
     1
102
RTVSPost2010Prop51ColorIndex
 90
      256
102
RTVSPost2010Prop51ColorRGB
 90
-16777216
102
RTVSPost2010PropOp51
 70
     0
102
RTVSPost2010Prop52
140
1.0
102
RTVSPost2010PropOp52
 70
     0
102
RTVSPost2010Prop53
 90
        2
102
RTVSPost2010PropOp53
 70
     1
102
RTVSPost2010Prop54
  1
strokes_ogs.tif
102
RTVSPost2010PropOp54
 70
     1
102
RTVSPost2010Prop55
280
     0
102
RTVSPost2010PropOp55
 70
     1
102
RTVSPost2010Prop56
140
1.0
102
RTVSPost2010PropOp56
 70
     1
102
RTVSPost2010Prop57
140
1.0
102
RTVSPost2010PropOp57
 70
     1
  0
XRECORD
  5
943E
102
{ACAD_REACTORS
330
943D
102
}
330
943D
100
AcDbXrecord
280
     1
102
RTVSPropertyOp0
 70
     1
102
RTVSPropertyOp1
 70
     1
102
RTVSPropertyOp2
 70
     1
102
RTVSPropertyOp3
 70
     1
102
RTVSPropertyOp4
 70
     1
102
RTVSPropertyOp5
 70
     1
102
RTVSPropertyOp6
 70
     1
102
RTVSPropertyOp7
 70
     1
102
RTVSPropertyOp8
 70
     1
102
RTVSPropertyOp9
 70
     1
102
RTVSPropertyOp10
 70
     1
102
RTVSPropertyOp11
 70
     1
102
RTVSPropertyOp12
 70
     1
102
RTVSPropertyOp13
 70
     1
102
RTVSPropertyOp14
 70
     1
102
RTVSPropertyOp15
 70
     1
102
RTVSPropertyOp16
 70
     1
102
RTVSPropertyOp17
 70
     1
102
RTVSPropertyOp18
 70
     1
102
RTVSPropertyOp19
 70
     1
102
RTVSPropertyOp20
 70
     1
102
RTVSPropertyOp21
 70
     1
102
RTVSPropertyOp22
 70
     1
102
RTVSPropertyOp23
 70
     1
102
RTVSPropertyOp24
 70
     1
102
RTVSPropertyOp25
 70
     1
102
RTVSPropertyOp26
 70
     1
102
RTVSPropertyOp27
 70
     1
102
RTVSPropertyOp28
 70
     1
102
RTVSPropertyOp29
 70
     1
102
RTVSPropertyOp30
 70
     1
102
RTVSPropertyOp31
 70
     1
102
RTVSPropertyOp32
 70
     1
102
RTVSPropertyOp33
 70
     1
102
RTVSPropertyOp34
 70
     1
102
RTVSPropertyOp35
 70
     1
102
RTVSPropertyOp36
 70
     1
102
RTVSPropertyOp37
 70
     1
102
RTVSPropertyOp38
 70
     1
102
RTVSPropertyOp39
 70
     1
102
RTVSPropertyOp40
 70
     1
102
RTVSPropertyOp41
 70
     1
102
RTVSPropertyOp42
 70
     1
102
RTVSPropertyOp43
 70
     1
102
RTVSPropertyOp44
 70
     1
102
RTVSPropertyOp45
 70
     1
102
RTVSPropertyOp46
 70
     1
102
RTVSPropertyOp47
 70
     1
102
RTVSPropertyOp48
 70
     1
102
RTVSPropertyOp49
 70
     1
102
RTVSPropertyOp50
 70
     1
102
RTVSPropertyOp51
 70
     0
102
RTVSPropertyOp52
 70
     0
102
RTVSPropertyOp53
 70
     1
102
RTVSPropertyOp54
 70
     1
102
RTVSPropertyOp55
 70
     1
102
RTVSPropertyOp56
 70
     1
102
RTVSPropertyOp57
 70
     1
102
RTVSPost2010Prop28
280
     0
102
RTVSPost2010PropOp28
 70
     1
102
RTVSPost2010Prop29
280
     1
102
RTVSPost2010PropOp29
 70
     1
102
RTVSPost2010Prop30
280
     1
102
RTVSPost2010PropOp30
 70
     1
102
RTVSPost2010Prop31
280
     0
102
RTVSPost2010PropOp31
 70
     1
102
RTVSPost2010Prop32
280
     0
102
RTVSPost2010PropOp32
 70
     1
102
RTVSPost2010Prop33
280
     0
102
RTVSPost2010PropOp33
 70
     1
102
RTVSPost2010Prop34
280
     0
102
RTVSPost2010PropOp34
 70
     1
102
RTVSPost2010Prop35
280
     0
102
RTVSPost2010PropOp35
 70
     1
102
RTVSPost2010Prop36
280
     0
102
RTVSPost2010PropOp36
 70
     1
102
RTVSPost2010Prop37
 90
       50
102
RTVSPost2010PropOp37
 70
     1
102
RTVSPost2010Prop38
140
0.0
102
RTVSPost2010PropOp38
 70
     1
102
RTVSPost2010Prop39
140
1.0
102
RTVSPost2010PropOp39
 70
     1
102
RTVSPost2010Prop40
 90
        0
102
RTVSPost2010PropOp40
 70
     1
102
RTVSPost2010Prop41ColorIndex
 90
       18
102
RTVSPost2010Prop41ColorRGB
 90
        0
102
RTVSPost2010PropOp41
 70
     1
102
RTVSPost2010Prop42
 90
       50
102
RTVSPost2010PropOp42
 70
     1
102
RTVSPost2010Prop43
 90
        3
102
RTVSPost2010PropOp43
 70
     1
102
RTVSPost2010Prop44ColorIndex
 90
        5
102
RTVSPost2010Prop44ColorRGB
 90
      255
102
RTVSPost2010PropOp44
 70
     1
102
RTVSPost2010Prop45
280
     0
102
RTVSPost2010PropOp45
 70
     1
102
RTVSPost2010Prop46
 90
       50
102
RTVSPost2010PropOp46
 70
     1
102
RTVSPost2010Prop47
 90
       50
102
RTVSPost2010PropOp47
 70
     1
102
RTVSPost2010Prop48
 90
       50
102
RTVSPost2010PropOp48
 70
     1
102
RTVSPost2010Prop49
280
     0
102
RTVSPost2010PropOp49
 70
     1
102
RTVSPost2010Prop50
 90
       50
102
RTVSPost2010PropOp50
 70
     1
102
RTVSPost2010Prop51ColorIndex
 90
      256
102
RTVSPost2010Prop51ColorRGB
 90
-16777216
102
RTVSPost2010PropOp51
 70
     0
102
RTVSPost2010Prop52
140
1.0
102
RTVSPost2010PropOp52
 70
     0
102
RTVSPost2010Prop53
 90
        2
102
RTVSPost2010PropOp53
 70
     1
102
RTVSPost2010Prop54
  1
strokes_ogs.tif
102
RTVSPost2010PropOp54
 70
     1
102
RTVSPost2010Prop55
280
     0
102
RTVSPost2010PropOp55
 70
     1
102
RTVSPost2010Prop56
140
1.0
102
RTVSPost2010PropOp56
 70
     1
102
RTVSPost2010Prop57
140
1.0
102
RTVSPost2010PropOp57
 70
     1
  0
XRECORD
  5
944C
102
{ACAD_REACTORS
330
944B
102
}
330
944B
100
AcDbXrecord
280
     1
102
RTVSPropertyOp0
 70
     1
102
RTVSPropertyOp1
 70
     1
102
RTVSPropertyOp2
 70
     1
102
RTVSPropertyOp3
 70
     1
102
RTVSPropertyOp4
 70
     1
102
RTVSPropertyOp5
 70
     1
102
RTVSPropertyOp6
 70
     1
102
RTVSPropertyOp7
 70
     1
102
RTVSPropertyOp8
 70
     1
102
RTVSPropertyOp9
 70
     1
102
RTVSPropertyOp10
 70
     1
102
RTVSPropertyOp11
 70
     1
102
RTVSPropertyOp12
 70
     1
102
RTVSPropertyOp13
 70
     1
102
RTVSPropertyOp14
 70
     1
102
RTVSPropertyOp15
 70
     1
102
RTVSPropertyOp16
 70
     1
102
RTVSPropertyOp17
 70
     1
102
RTVSPropertyOp18
 70
     1
102
RTVSPropertyOp19
 70
     1
102
RTVSPropertyOp20
 70
     1
102
RTVSPropertyOp21
 70
     1
102
RTVSPropertyOp22
 70
     1
102
RTVSPropertyOp23
 70
     1
102
RTVSPropertyOp24
 70
     1
102
RTVSPropertyOp25
 70
     1
102
RTVSPropertyOp26
 70
     1
102
RTVSPropertyOp27
 70
     1
102
RTVSPropertyOp28
 70
     1
102
RTVSPropertyOp29
 70
     1
102
RTVSPropertyOp30
 70
     1
102
RTVSPropertyOp31
 70
     1
102
RTVSPropertyOp32
 70
     1
102
RTVSPropertyOp33
 70
     1
102
RTVSPropertyOp34
 70
     1
102
RTVSPropertyOp35
 70
     1
102
RTVSPropertyOp36
 70
     1
102
RTVSPropertyOp37
 70
     1
102
RTVSPropertyOp38
 70
     1
102
RTVSPropertyOp39
 70
     1
102
RTVSPropertyOp40
 70
     1
102
RTVSPropertyOp41
 70
     1
102
RTVSPropertyOp42
 70
     1
102
RTVSPropertyOp43
 70
     1
102
RTVSPropertyOp44
 70
     1
102
RTVSPropertyOp45
 70
     1
102
RTVSPropertyOp46
 70
     1
102
RTVSPropertyOp47
 70
     1
102
RTVSPropertyOp48
 70
     1
102
RTVSPropertyOp49
 70
     1
102
RTVSPropertyOp50
 70
     1
102
RTVSPropertyOp51
 70
     0
102
RTVSPropertyOp52
 70
     0
102
RTVSPropertyOp53
 70
     1
102
RTVSPropertyOp54
 70
     1
102
RTVSPropertyOp55
 70
     1
102
RTVSPropertyOp56
 70
     1
102
RTVSPropertyOp57
 70
     1
102
RTVSPost2010Prop28
280
     0
102
RTVSPost2010PropOp28
 70
     1
102
RTVSPost2010Prop29
280
     1
102
RTVSPost2010PropOp29
 70
     1
102
RTVSPost2010Prop30
280
     1
102
RTVSPost2010PropOp30
 70
     1
102
RTVSPost2010Prop31
280
     0
102
RTVSPost2010PropOp31
 70
     1
102
RTVSPost2010Prop32
280
     0
102
RTVSPost2010PropOp32
 70
     1
102
RTVSPost2010Prop33
280
     0
102
RTVSPost2010PropOp33
 70
     1
102
RTVSPost2010Prop34
280
     0
102
RTVSPost2010PropOp34
 70
     1
102
RTVSPost2010Prop35
280
     0
102
RTVSPost2010PropOp35
 70
     1
102
RTVSPost2010Prop36
280
     0
102
RTVSPost2010PropOp36
 70
     1
102
RTVSPost2010Prop37
 90
       50
102
RTVSPost2010PropOp37
 70
     1
102
RTVSPost2010Prop38
140
0.0
102
RTVSPost2010PropOp38
 70
     1
102
RTVSPost2010Prop39
140
1.0
102
RTVSPost2010PropOp39
 70
     1
102
RTVSPost2010Prop40
 90
        0
102
RTVSPost2010PropOp40
 70
     1
102
RTVSPost2010Prop41ColorIndex
 90
       18
102
RTVSPost2010Prop41ColorRGB
 90
        0
102
RTVSPost2010PropOp41
 70
     1
102
RTVSPost2010Prop42
 90
       50
102
RTVSPost2010PropOp42
 70
     1
102
RTVSPost2010Prop43
 90
        3
102
RTVSPost2010PropOp43
 70
     1
102
RTVSPost2010Prop44ColorIndex
 90
        5
102
RTVSPost2010Prop44ColorRGB
 90
      255
102
RTVSPost2010PropOp44
 70
     1
102
RTVSPost2010Prop45
280
     0
102
RTVSPost2010PropOp45
 70
     1
102
RTVSPost2010Prop46
 90
       50
102
RTVSPost2010PropOp46
 70
     1
102
RTVSPost2010Prop47
 90
       50
102
RTVSPost2010PropOp47
 70
     1
102
RTVSPost2010Prop48
 90
       50
102
RTVSPost2010PropOp48
 70
     1
102
RTVSPost2010Prop49
280
     0
102
RTVSPost2010PropOp49
 70
     1
102
RTVSPost2010Prop50
 90
       50
102
RTVSPost2010PropOp50
 70
     1
102
RTVSPost2010Prop51ColorIndex
 90
      256
102
RTVSPost2010Prop51ColorRGB
 90
-16777216
102
RTVSPost2010PropOp51
 70
     0
102
RTVSPost2010Prop52
140
1.0
102
RTVSPost2010PropOp52
 70
     0
102
RTVSPost2010Prop53
 90
        2
102
RTVSPost2010PropOp53
 70
     1
102
RTVSPost2010Prop54
  1
strokes_ogs.tif
102
RTVSPost2010PropOp54
 70
     1
102
RTVSPost2010Prop55
280
     0
102
RTVSPost2010PropOp55
 70
     1
102
RTVSPost2010Prop56
140
1.0
102
RTVSPost2010PropOp56
 70
     1
102
RTVSPost2010Prop57
140
1.0
102
RTVSPost2010PropOp57
 70
     1
  0
XRECORD
  5
9440
102
{ACAD_REACTORS
330
943F
102
}
330
943F
100
AcDbXrecord
280
     1
102
RTVSPropertyOp0
 70
     0
102
RTVSPropertyOp1
 70
     0
102
RTVSPropertyOp2
 70
     0
102
RTVSPropertyOp3
 70
     0
102
RTVSPropertyOp4
 70
     0
102
RTVSPropertyOp5
 70
     0
102
RTVSPropertyOp6
 70
     0
102
RTVSPropertyOp7
 70
     0
102
RTVSPropertyOp8
 70
     0
102
RTVSPropertyOp9
 70
     0
102
RTVSPropertyOp10
 70
     0
102
RTVSPropertyOp11
 70
     0
102
RTVSPropertyOp12
 70
     0
102
RTVSPropertyOp13
 70
     0
102
RTVSPropertyOp14
 70
     2
102
RTVSPropertyOp15
 70
     0
102
RTVSPropertyOp16
 70
     0
102
RTVSPropertyOp17
 70
     0
102
RTVSPropertyOp18
 70
     0
102
RTVSPropertyOp19
 70
     0
102
RTVSPropertyOp20
 70
     0
102
RTVSPropertyOp21
 70
     0
102
RTVSPropertyOp22
 70
     0
102
RTVSPropertyOp23
 70
     0
102
RTVSPropertyOp24
 70
     0
102
RTVSPropertyOp25
 70
     0
102
RTVSPropertyOp26
 70
     0
102
RTVSPropertyOp27
 70
     0
102
RTVSPropertyOp28
 70
     1
102
RTVSPropertyOp29
 70
     1
102
RTVSPropertyOp30
 70
     1
102
RTVSPropertyOp31
 70
     1
102
RTVSPropertyOp32
 70
     1
102
RTVSPropertyOp33
 70
     1
102
RTVSPropertyOp34
 70
     1
102
RTVSPropertyOp35
 70
     1
102
RTVSPropertyOp36
 70
     1
102
RTVSPropertyOp37
 70
     1
102
RTVSPropertyOp38
 70
     1
102
RTVSPropertyOp39
 70
     1
102
RTVSPropertyOp40
 70
     1
102
RTVSPropertyOp41
 70
     1
102
RTVSPropertyOp42
 70
     1
102
RTVSPropertyOp43
 70
     1
102
RTVSPropertyOp44
 70
     1
102
RTVSPropertyOp45
 70
     1
102
RTVSPropertyOp46
 70
     1
102
RTVSPropertyOp47
 70
     1
102
RTVSPropertyOp48
 70
     1
102
RTVSPropertyOp49
 70
     1
102
RTVSPropertyOp50
 70
     1
102
RTVSPropertyOp51
 70
     0
102
RTVSPropertyOp52
 70
     0
102
RTVSPropertyOp53
 70
     1
102
RTVSPropertyOp54
 70
     1
102
RTVSPropertyOp55
 70
     1
102
RTVSPropertyOp56
 70
     1
102
RTVSPropertyOp57
 70
     1
102
RTVSPost2010Prop28
280
     0
102
RTVSPost2010PropOp28
 70
     1
102
RTVSPost2010Prop29
280
     1
102
RTVSPost2010PropOp29
 70
     1
102
RTVSPost2010Prop30
280
     1
102
RTVSPost2010PropOp30
 70
     1
102
RTVSPost2010Prop31
280
     0
102
RTVSPost2010PropOp31
 70
     1
102
RTVSPost2010Prop32
280
     0
102
RTVSPost2010PropOp32
 70
     1
102
RTVSPost2010Prop33
280
     0
102
RTVSPost2010PropOp33
 70
     1
102
RTVSPost2010Prop34
280
     0
102
RTVSPost2010PropOp34
 70
     1
102
RTVSPost2010Prop35
280
     0
102
RTVSPost2010PropOp35
 70
     1
102
RTVSPost2010Prop36
280
     0
102
RTVSPost2010PropOp36
 70
     1
102
RTVSPost2010Prop37
 90
       50
102
RTVSPost2010PropOp37
 70
     1
102
RTVSPost2010Prop38
140
0.0
102
RTVSPost2010PropOp38
 70
     1
102
RTVSPost2010Prop39
140
1.0
102
RTVSPost2010PropOp39
 70
     1
102
RTVSPost2010Prop40
 90
        0
102
RTVSPost2010PropOp40
 70
     1
102
RTVSPost2010Prop41ColorIndex
 90
       18
102
RTVSPost2010Prop41ColorRGB
 90
        0
102
RTVSPost2010PropOp41
 70
     1
102
RTVSPost2010Prop42
 90
       50
102
RTVSPost2010PropOp42
 70
     1
102
RTVSPost2010Prop43
 90
        3
102
RTVSPost2010PropOp43
 70
     1
102
RTVSPost2010Prop44ColorIndex
 90
        5
102
RTVSPost2010Prop44ColorRGB
 90
      255
102
RTVSPost2010PropOp44
 70
     1
102
RTVSPost2010Prop45
280
     0
102
RTVSPost2010PropOp45
 70
     1
102
RTVSPost2010Prop46
 90
       50
102
RTVSPost2010PropOp46
 70
     1
102
RTVSPost2010Prop47
 90
       50
102
RTVSPost2010PropOp47
 70
     1
102
RTVSPost2010Prop48
 90
       50
102
RTVSPost2010PropOp48
 70
     1
102
RTVSPost2010Prop49
280
     0
102
RTVSPost2010PropOp49
 70
     1
102
RTVSPost2010Prop50
 90
       50
102
RTVSPost2010PropOp50
 70
     1
102
RTVSPost2010Prop51ColorIndex
 90
      256
102
RTVSPost2010Prop51ColorRGB
 90
-16777216
102
RTVSPost2010PropOp51
 70
     0
102
RTVSPost2010Prop52
140
1.0
102
RTVSPost2010PropOp52
 70
     0
102
RTVSPost2010Prop53
 90
        2
102
RTVSPost2010PropOp53
 70
     1
102
RTVSPost2010Prop54
  1
strokes_ogs.tif
102
RTVSPost2010PropOp54
 70
     1
102
RTVSPost2010Prop55
280
     0
102
RTVSPost2010PropOp55
 70
     1
102
RTVSPost2010Prop56
140
1.0
102
RTVSPost2010PropOp56
 70
     1
102
RTVSPost2010Prop57
140
1.0
102
RTVSPost2010PropOp57
 70
     1
  0
XRECORD
  5
9442
102
{ACAD_REACTORS
330
9441
102
}
330
9441
100
AcDbXrecord
280
     1
102
RTVSPropertyOp0
 70
     1
102
RTVSPropertyOp1
 70
     1
102
RTVSPropertyOp2
 70
     1
102
RTVSPropertyOp3
 70
     1
102
RTVSPropertyOp4
 70
     1
102
RTVSPropertyOp5
 70
     1
102
RTVSPropertyOp6
 70
     1
102
RTVSPropertyOp7
 70
     1
102
RTVSPropertyOp8
 70
     1
102
RTVSPropertyOp9
 70
     1
102
RTVSPropertyOp10
 70
     1
102
RTVSPropertyOp11
 70
     1
102
RTVSPropertyOp12
 70
     1
102
RTVSPropertyOp13
 70
     1
102
RTVSPropertyOp14
 70
     1
102
RTVSPropertyOp15
 70
     1
102
RTVSPropertyOp16
 70
     1
102
RTVSPropertyOp17
 70
     1
102
RTVSPropertyOp18
 70
     1
102
RTVSPropertyOp19
 70
     1
102
RTVSPropertyOp20
 70
     1
102
RTVSPropertyOp21
 70
     1
102
RTVSPropertyOp22
 70
     1
102
RTVSPropertyOp23
 70
     1
102
RTVSPropertyOp24
 70
     1
102
RTVSPropertyOp25
 70
     1
102
RTVSPropertyOp26
 70
     1
102
RTVSPropertyOp27
 70
     1
102
RTVSPropertyOp28
 70
     1
102
RTVSPropertyOp29
 70
     1
102
RTVSPropertyOp30
 70
     1
102
RTVSPropertyOp31
 70
     1
102
RTVSPropertyOp32
 70
     1
102
RTVSPropertyOp33
 70
     1
102
RTVSPropertyOp34
 70
     1
102
RTVSPropertyOp35
 70
     1
102
RTVSPropertyOp36
 70
     1
102
RTVSPropertyOp37
 70
     1
102
RTVSPropertyOp38
 70
     1
102
RTVSPropertyOp39
 70
     1
102
RTVSPropertyOp40
 70
     1
102
RTVSPropertyOp41
 70
     1
102
RTVSPropertyOp42
 70
     1
102
RTVSPropertyOp43
 70
     1
102
RTVSPropertyOp44
 70
     1
102
RTVSPropertyOp45
 70
     1
102
RTVSPropertyOp46
 70
     1
102
RTVSPropertyOp47
 70
     1
102
RTVSPropertyOp48
 70
     1
102
RTVSPropertyOp49
 70
     1
102
RTVSPropertyOp50
 70
     1
102
RTVSPropertyOp51
 70
     0
102
RTVSPropertyOp52
 70
     0
102
RTVSPropertyOp53
 70
     1
102
RTVSPropertyOp54
 70
     1
102
RTVSPropertyOp55
 70
     1
102
RTVSPropertyOp56
 70
     1
102
RTVSPropertyOp57
 70
     1
102
RTVSPost2010Prop28
280
     0
102
RTVSPost2010PropOp28
 70
     1
102
RTVSPost2010Prop29
280
     1
102
RTVSPost2010PropOp29
 70
     1
102
RTVSPost2010Prop30
280
     1
102
RTVSPost2010PropOp30
 70
     1
102
RTVSPost2010Prop31
280
     0
102
RTVSPost2010PropOp31
 70
     1
102
RTVSPost2010Prop32
280
     0
102
RTVSPost2010PropOp32
 70
     1
102
RTVSPost2010Prop33
280
     0
102
RTVSPost2010PropOp33
 70
     1
102
RTVSPost2010Prop34
280
     0
102
RTVSPost2010PropOp34
 70
     1
102
RTVSPost2010Prop35
280
     0
102
RTVSPost2010PropOp35
 70
     1
102
RTVSPost2010Prop36
280
     0
102
RTVSPost2010PropOp36
 70
     1
102
RTVSPost2010Prop37
 90
       50
102
RTVSPost2010PropOp37
 70
     1
102
RTVSPost2010Prop38
140
0.0
102
RTVSPost2010PropOp38
 70
     1
102
RTVSPost2010Prop39
140
1.0
102
RTVSPost2010PropOp39
 70
     1
102
RTVSPost2010Prop40
 90
        0
102
RTVSPost2010PropOp40
 70
     1
102
RTVSPost2010Prop41ColorIndex
 90
       18
102
RTVSPost2010Prop41ColorRGB
 90
        0
102
RTVSPost2010PropOp41
 70
     1
102
RTVSPost2010Prop42
 90
       50
102
RTVSPost2010PropOp42
 70
     1
102
RTVSPost2010Prop43
 90
        3
102
RTVSPost2010PropOp43
 70
     1
102
RTVSPost2010Prop44ColorIndex
 90
        5
102
RTVSPost2010Prop44ColorRGB
 90
      255
102
RTVSPost2010PropOp44
 70
     1
102
RTVSPost2010Prop45
280
     0
102
RTVSPost2010PropOp45
 70
     1
102
RTVSPost2010Prop46
 90
       50
102
RTVSPost2010PropOp46
 70
     1
102
RTVSPost2010Prop47
 90
       50
102
RTVSPost2010PropOp47
 70
     1
102
RTVSPost2010Prop48
 90
       50
102
RTVSPost2010PropOp48
 70
     1
102
RTVSPost2010Prop49
280
     0
102
RTVSPost2010PropOp49
 70
     1
102
RTVSPost2010Prop50
 90
       50
102
RTVSPost2010PropOp50
 70
     1
102
RTVSPost2010Prop51ColorIndex
 90
      256
102
RTVSPost2010Prop51ColorRGB
 90
-16777216
102
RTVSPost2010PropOp51
 70
     0
102
RTVSPost2010Prop52
140
1.0
102
RTVSPost2010PropOp52
 70
     0
102
RTVSPost2010Prop53
 90
        2
102
RTVSPost2010PropOp53
 70
     1
102
RTVSPost2010Prop54
  1
strokes_ogs.tif
102
RTVSPost2010PropOp54
 70
     1
102
RTVSPost2010Prop55
280
     0
102
RTVSPost2010PropOp55
 70
     1
102
RTVSPost2010Prop56
140
1.0
102
RTVSPost2010PropOp56
 70
     1
102
RTVSPost2010Prop57
140
1.0
102
RTVSPost2010PropOp57
 70
     1
  0
XRECORD
  5
9444
102
{ACAD_REACTORS
330
9443
102
}
330
9443
100
AcDbXrecord
280
     1
102
RTVSPropertyOp0
 70
     0
102
RTVSPropertyOp1
 70
     0
102
RTVSPropertyOp2
 70
     0
102
RTVSPropertyOp3
 70
     0
102
RTVSPropertyOp4
 70
     0
102
RTVSPropertyOp5
 70
     0
102
RTVSPropertyOp6
 70
     0
102
RTVSPropertyOp7
 70
     0
102
RTVSPropertyOp8
 70
     0
102
RTVSPropertyOp9
 70
     0
102
RTVSPropertyOp10
 70
     0
102
RTVSPropertyOp11
 70
     0
102
RTVSPropertyOp12
 70
     0
102
RTVSPropertyOp13
 70
     0
102
RTVSPropertyOp14
 70
     2
102
RTVSPropertyOp15
 70
     0
102
RTVSPropertyOp16
 70
     0
102
RTVSPropertyOp17
 70
     0
102
RTVSPropertyOp18
 70
     0
102
RTVSPropertyOp19
 70
     0
102
RTVSPropertyOp20
 70
     0
102
RTVSPropertyOp21
 70
     0
102
RTVSPropertyOp22
 70
     0
102
RTVSPropertyOp23
 70
     0
102
RTVSPropertyOp24
 70
     0
102
RTVSPropertyOp25
 70
     0
102
RTVSPropertyOp26
 70
     0
102
RTVSPropertyOp27
 70
     0
102
RTVSPropertyOp28
 70
     1
102
RTVSPropertyOp29
 70
     1
102
RTVSPropertyOp30
 70
     1
102
RTVSPropertyOp31
 70
     1
102
RTVSPropertyOp32
 70
     1
102
RTVSPropertyOp33
 70
     1
102
RTVSPropertyOp34
 70
     1
102
RTVSPropertyOp35
 70
     1
102
RTVSPropertyOp36
 70
     1
102
RTVSPropertyOp37
 70
     1
102
RTVSPropertyOp38
 70
     1
102
RTVSPropertyOp39
 70
     1
102
RTVSPropertyOp40
 70
     1
102
RTVSPropertyOp41
 70
     1
102
RTVSPropertyOp42
 70
     1
102
RTVSPropertyOp43
 70
     1
102
RTVSPropertyOp44
 70
     1
102
RTVSPropertyOp45
 70
     1
102
RTVSPropertyOp46
 70
     1
102
RTVSPropertyOp47
 70
     1
102
RTVSPropertyOp48
 70
     1
102
RTVSPropertyOp49
 70
     1
102
RTVSPropertyOp50
 70
     1
102
RTVSPropertyOp51
 70
     0
102
RTVSPropertyOp52
 70
     0
102
RTVSPropertyOp53
 70
     1
102
RTVSPropertyOp54
 70
     1
102
RTVSPropertyOp55
 70
     1
102
RTVSPropertyOp56
 70
     1
102
RTVSPropertyOp57
 70
     1
102
RTVSPost2010Prop28
280
     0
102
RTVSPost2010PropOp28
 70
     1
102
RTVSPost2010Prop29
280
     1
102
RTVSPost2010PropOp29
 70
     1
102
RTVSPost2010Prop30
280
     1
102
RTVSPost2010PropOp30
 70
     1
102
RTVSPost2010Prop31
280
     0
102
RTVSPost2010PropOp31
 70
     1
102
RTVSPost2010Prop32
280
     0
102
RTVSPost2010PropOp32
 70
     1
102
RTVSPost2010Prop33
280
     0
102
RTVSPost2010PropOp33
 70
     1
102
RTVSPost2010Prop34
280
     0
102
RTVSPost2010PropOp34
 70
     1
102
RTVSPost2010Prop35
280
     0
102
RTVSPost2010PropOp35
 70
     1
102
RTVSPost2010Prop36
280
     0
102
RTVSPost2010PropOp36
 70
     1
102
RTVSPost2010Prop37
 90
       50
102
RTVSPost2010PropOp37
 70
     1
102
RTVSPost2010Prop38
140
0.0
102
RTVSPost2010PropOp38
 70
     1
102
RTVSPost2010Prop39
140
1.0
102
RTVSPost2010PropOp39
 70
     1
102
RTVSPost2010Prop40
 90
        0
102
RTVSPost2010PropOp40
 70
     1
102
RTVSPost2010Prop41ColorIndex
 90
       18
102
RTVSPost2010Prop41ColorRGB
 90
        0
102
RTVSPost2010PropOp41
 70
     1
102
RTVSPost2010Prop42
 90
       50
102
RTVSPost2010PropOp42
 70
     1
102
RTVSPost2010Prop43
 90
        3
102
RTVSPost2010PropOp43
 70
     1
102
RTVSPost2010Prop44ColorIndex
 90
        5
102
RTVSPost2010Prop44ColorRGB
 90
      255
102
RTVSPost2010PropOp44
 70
     1
102
RTVSPost2010Prop45
280
     0
102
RTVSPost2010PropOp45
 70
     1
102
RTVSPost2010Prop46
 90
       50
102
RTVSPost2010PropOp46
 70
     1
102
RTVSPost2010Prop47
 90
       50
102
RTVSPost2010PropOp47
 70
     1
102
RTVSPost2010Prop48
 90
       50
102
RTVSPost2010PropOp48
 70
     1
102
RTVSPost2010Prop49
280
     0
102
RTVSPost2010PropOp49
 70
     1
102
RTVSPost2010Prop50
 90
       50
102
RTVSPost2010PropOp50
 70
     1
102
RTVSPost2010Prop51ColorIndex
 90
      256
102
RTVSPost2010Prop51ColorRGB
 90
-16777216
102
RTVSPost2010PropOp51
 70
     0
102
RTVSPost2010Prop52
140
1.0
102
RTVSPost2010PropOp52
 70
     0
102
RTVSPost2010Prop53
 90
        2
102
RTVSPost2010PropOp53
 70
     1
102
RTVSPost2010Prop54
  1
strokes_ogs.tif
102
RTVSPost2010PropOp54
 70
     1
102
RTVSPost2010Prop55
280
     0
102
RTVSPost2010PropOp55
 70
     1
102
RTVSPost2010Prop56
140
1.0
102
RTVSPost2010PropOp56
 70
     1
102
RTVSPost2010Prop57
140
1.0
102
RTVSPost2010PropOp57
 70
     1
  0
XRECORD
  5
9446
102
{ACAD_REACTORS
330
9445
102
}
330
9445
100
AcDbXrecord
280
     1
102
RTVSPropertyOp0
 70
     1
102
RTVSPropertyOp1
 70
     1
102
RTVSPropertyOp2
 70
     1
102
RTVSPropertyOp3
 70
     1
102
RTVSPropertyOp4
 70
     1
102
RTVSPropertyOp5
 70
     1
102
RTVSPropertyOp6
 70
     1
102
RTVSPropertyOp7
 70
     1
102
RTVSPropertyOp8
 70
     1
102
RTVSPropertyOp9
 70
     1
102
RTVSPropertyOp10
 70
     1
102
RTVSPropertyOp11
 70
     1
102
RTVSPropertyOp12
 70
     1
102
RTVSPropertyOp13
 70
     1
102
RTVSPropertyOp14
 70
     1
102
RTVSPropertyOp15
 70
     1
102
RTVSPropertyOp16
 70
     1
102
RTVSPropertyOp17
 70
     1
102
RTVSPropertyOp18
 70
     1
102
RTVSPropertyOp19
 70
     1
102
RTVSPropertyOp20
 70
     1
102
RTVSPropertyOp21
 70
     1
102
RTVSPropertyOp22
 70
     1
102
RTVSPropertyOp23
 70
     1
102
RTVSPropertyOp24
 70
     1
102
RTVSPropertyOp25
 70
     1
102
RTVSPropertyOp26
 70
     1
102
RTVSPropertyOp27
 70
     1
102
RTVSPropertyOp28
 70
     1
102
RTVSPropertyOp29
 70
     1
102
RTVSPropertyOp30
 70
     1
102
RTVSPropertyOp31
 70
     1
102
RTVSPropertyOp32
 70
     1
102
RTVSPropertyOp33
 70
     1
102
RTVSPropertyOp34
 70
     1
102
RTVSPropertyOp35
 70
     1
102
RTVSPropertyOp36
 70
     1
102
RTVSPropertyOp37
 70
     1
102
RTVSPropertyOp38
 70
     1
102
RTVSPropertyOp39
 70
     1
102
RTVSPropertyOp40
 70
     1
102
RTVSPropertyOp41
 70
     1
102
RTVSPropertyOp42
 70
     1
102
RTVSPropertyOp43
 70
     1
102
RTVSPropertyOp44
 70
     1
102
RTVSPropertyOp45
 70
     1
102
RTVSPropertyOp46
 70
     1
102
RTVSPropertyOp47
 70
     1
102
RTVSPropertyOp48
 70
     1
102
RTVSPropertyOp49
 70
     1
102
RTVSPropertyOp50
 70
     1
102
RTVSPropertyOp51
 70
     0
102
RTVSPropertyOp52
 70
     0
102
RTVSPropertyOp53
 70
     1
102
RTVSPropertyOp54
 70
     1
102
RTVSPropertyOp55
 70
     1
102
RTVSPropertyOp56
 70
     1
102
RTVSPropertyOp57
 70
     1
102
RTVSPost2010Prop28
280
     0
102
RTVSPost2010PropOp28
 70
     1
102
RTVSPost2010Prop29
280
     1
102
RTVSPost2010PropOp29
 70
     1
102
RTVSPost2010Prop30
280
     1
102
RTVSPost2010PropOp30
 70
     1
102
RTVSPost2010Prop31
280
     0
102
RTVSPost2010PropOp31
 70
     1
102
RTVSPost2010Prop32
280
     0
102
RTVSPost2010PropOp32
 70
     1
102
RTVSPost2010Prop33
280
     0
102
RTVSPost2010PropOp33
 70
     1
102
RTVSPost2010Prop34
280
     0
102
RTVSPost2010PropOp34
 70
     1
102
RTVSPost2010Prop35
280
     0
102
RTVSPost2010PropOp35
 70
     1
102
RTVSPost2010Prop36
280
     0
102
RTVSPost2010PropOp36
 70
     1
102
RTVSPost2010Prop37
 90
       50
102
RTVSPost2010PropOp37
 70
     1
102
RTVSPost2010Prop38
140
0.0
102
RTVSPost2010PropOp38
 70
     1
102
RTVSPost2010Prop39
140
1.0
102
RTVSPost2010PropOp39
 70
     1
102
RTVSPost2010Prop40
 90
        0
102
RTVSPost2010PropOp40
 70
     1
102
RTVSPost2010Prop41ColorIndex
 90
       18
102
RTVSPost2010Prop41ColorRGB
 90
        0
102
RTVSPost2010PropOp41
 70
     1
102
RTVSPost2010Prop42
 90
       50
102
RTVSPost2010PropOp42
 70
     1
102
RTVSPost2010Prop43
 90
        3
102
RTVSPost2010PropOp43
 70
     1
102
RTVSPost2010Prop44ColorIndex
 90
        5
102
RTVSPost2010Prop44ColorRGB
 90
      255
102
RTVSPost2010PropOp44
 70
     1
102
RTVSPost2010Prop45
280
     0
102
RTVSPost2010PropOp45
 70
     1
102
RTVSPost2010Prop46
 90
       50
102
RTVSPost2010PropOp46
 70
     1
102
RTVSPost2010Prop47
 90
       50
102
RTVSPost2010PropOp47
 70
     1
102
RTVSPost2010Prop48
 90
       50
102
RTVSPost2010PropOp48
 70
     1
102
RTVSPost2010Prop49
280
     0
102
RTVSPost2010PropOp49
 70
     1
102
RTVSPost2010Prop50
 90
       50
102
RTVSPost2010PropOp50
 70
     1
102
RTVSPost2010Prop51ColorIndex
 90
      256
102
RTVSPost2010Prop51ColorRGB
 90
-16777216
102
RTVSPost2010PropOp51
 70
     0
102
RTVSPost2010Prop52
140
1.0
102
RTVSPost2010PropOp52
 70
     0
102
RTVSPost2010Prop53
 90
        2
102
RTVSPost2010PropOp53
 70
     1
102
RTVSPost2010Prop54
  1
strokes_ogs.tif
102
RTVSPost2010PropOp54
 70
     1
102
RTVSPost2010Prop55
280
     0
102
RTVSPost2010PropOp55
 70
     1
102
RTVSPost2010Prop56
140
1.0
102
RTVSPost2010PropOp56
 70
     1
102
RTVSPost2010Prop57
140
1.0
102
RTVSPost2010PropOp57
 70
     1
  0
XRECORD
  5
9456
102
{ACAD_REACTORS
330
9455
102
}
330
9455
100
AcDbXrecord
280
     1
102
RTVSPropertyOp0
 70
     1
102
RTVSPropertyOp1
 70
     1
102
RTVSPropertyOp2
 70
     1
102
RTVSPropertyOp3
 70
     1
102
RTVSPropertyOp4
 70
     1
102
RTVSPropertyOp5
 70
     1
102
RTVSPropertyOp6
 70
     1
102
RTVSPropertyOp7
 70
     1
102
RTVSPropertyOp8
 70
     1
102
RTVSPropertyOp9
 70
     1
102
RTVSPropertyOp10
 70
     1
102
RTVSPropertyOp11
 70
     1
102
RTVSPropertyOp12
 70
     1
102
RTVSPropertyOp13
 70
     1
102
RTVSPropertyOp14
 70
     1
102
RTVSPropertyOp15
 70
     1
102
RTVSPropertyOp16
 70
     1
102
RTVSPropertyOp17
 70
     1
102
RTVSPropertyOp18
 70
     1
102
RTVSPropertyOp19
 70
     1
102
RTVSPropertyOp20
 70
     1
102
RTVSPropertyOp21
 70
     1
102
RTVSPropertyOp22
 70
     1
102
RTVSPropertyOp23
 70
     1
102
RTVSPropertyOp24
 70
     1
102
RTVSPropertyOp25
 70
     1
102
RTVSPropertyOp26
 70
     1
102
RTVSPropertyOp27
 70
     1
102
RTVSPropertyOp28
 70
     1
102
RTVSPropertyOp29
 70
     1
102
RTVSPropertyOp30
 70
     1
102
RTVSPropertyOp31
 70
     1
102
RTVSPropertyOp32
 70
     1
102
RTVSPropertyOp33
 70
     1
102
RTVSPropertyOp34
 70
     1
102
RTVSPropertyOp35
 70
     1
102
RTVSPropertyOp36
 70
     1
102
RTVSPropertyOp37
 70
     1
102
RTVSPropertyOp38
 70
     1
102
RTVSPropertyOp39
 70
     1
102
RTVSPropertyOp40
 70
     1
102
RTVSPropertyOp41
 70
     1
102
RTVSPropertyOp42
 70
     1
102
RTVSPropertyOp43
 70
     1
102
RTVSPropertyOp44
 70
     1
102
RTVSPropertyOp45
 70
     1
102
RTVSPropertyOp46
 70
     1
102
RTVSPropertyOp47
 70
     1
102
RTVSPropertyOp48
 70
     1
102
RTVSPropertyOp49
 70
     1
102
RTVSPropertyOp50
 70
     1
102
RTVSPropertyOp51
 70
     0
102
RTVSPropertyOp52
 70
     0
102
RTVSPropertyOp53
 70
     1
102
RTVSPropertyOp54
 70
     1
102
RTVSPropertyOp55
 70
     1
102
RTVSPropertyOp56
 70
     1
102
RTVSPropertyOp57
 70
     1
102
RTVSPost2010Prop28
280
     0
102
RTVSPost2010PropOp28
 70
     1
102
RTVSPost2010Prop29
280
     1
102
RTVSPost2010PropOp29
 70
     1
102
RTVSPost2010Prop30
280
     1
102
RTVSPost2010PropOp30
 70
     1
102
RTVSPost2010Prop31
280
     0
102
RTVSPost2010PropOp31
 70
     1
102
RTVSPost2010Prop32
280
     0
102
RTVSPost2010PropOp32
 70
     1
102
RTVSPost2010Prop33
280
     0
102
RTVSPost2010PropOp33
 70
     1
102
RTVSPost2010Prop34
280
     0
102
RTVSPost2010PropOp34
 70
     1
102
RTVSPost2010Prop35
280
     0
102
RTVSPost2010PropOp35
 70
     1
102
RTVSPost2010Prop36
280
     0
102
RTVSPost2010PropOp36
 70
     1
102
RTVSPost2010Prop37
 90
       50
102
RTVSPost2010PropOp37
 70
     1
102
RTVSPost2010Prop38
140
0.0
102
RTVSPost2010PropOp38
 70
     1
102
RTVSPost2010Prop39
140
1.0
102
RTVSPost2010PropOp39
 70
     1
102
RTVSPost2010Prop40
 90
        0
102
RTVSPost2010PropOp40
 70
     1
102
RTVSPost2010Prop41ColorIndex
 90
       18
102
RTVSPost2010Prop41ColorRGB
 90
        0
102
RTVSPost2010PropOp41
 70
     1
102
RTVSPost2010Prop42
 90
       50
102
RTVSPost2010PropOp42
 70
     1
102
RTVSPost2010Prop43
 90
        3
102
RTVSPost2010PropOp43
 70
     1
102
RTVSPost2010Prop44ColorIndex
 90
        5
102
RTVSPost2010Prop44ColorRGB
 90
      255
102
RTVSPost2010PropOp44
 70
     1
102
RTVSPost2010Prop45
280
     0
102
RTVSPost2010PropOp45
 70
     1
102
RTVSPost2010Prop46
 90
       50
102
RTVSPost2010PropOp46
 70
     1
102
RTVSPost2010Prop47
 90
       50
102
RTVSPost2010PropOp47
 70
     1
102
RTVSPost2010Prop48
 90
       50
102
RTVSPost2010PropOp48
 70
     1
102
RTVSPost2010Prop49
280
     0
102
RTVSPost2010PropOp49
 70
     1
102
RTVSPost2010Prop50
 90
       50
102
RTVSPost2010PropOp50
 70
     1
102
RTVSPost2010Prop51ColorIndex
 90
      256
102
RTVSPost2010Prop51ColorRGB
 90
-16777216
102
RTVSPost2010PropOp51
 70
     0
102
RTVSPost2010Prop52
140
1.0
102
RTVSPost2010PropOp52
 70
     0
102
RTVSPost2010Prop53
 90
        2
102
RTVSPost2010PropOp53
 70
     1
102
RTVSPost2010Prop54
  1
strokes_ogs.tif
102
RTVSPost2010PropOp54
 70
     1
102
RTVSPost2010Prop55
280
     0
102
RTVSPost2010PropOp55
 70
     1
102
RTVSPost2010Prop56
140
1.0
102
RTVSPost2010PropOp56
 70
     1
102
RTVSPost2010Prop57
140
1.0
102
RTVSPost2010PropOp57
 70
     1
  0
XRECORD
  5
9454
102
{ACAD_REACTORS
330
9453
102
}
330
9453
100
AcDbXrecord
280
     1
102
RTVSPropertyOp0
 70
     1
102
RTVSPropertyOp1
 70
     1
102
RTVSPropertyOp2
 70
     1
102
RTVSPropertyOp3
 70
     1
102
RTVSPropertyOp4
 70
     1
102
RTVSPropertyOp5
 70
     1
102
RTVSPropertyOp6
 70
     1
102
RTVSPropertyOp7
 70
     1
102
RTVSPropertyOp8
 70
     1
102
RTVSPropertyOp9
 70
     1
102
RTVSPropertyOp10
 70
     1
102
RTVSPropertyOp11
 70
     1
102
RTVSPropertyOp12
 70
     1
102
RTVSPropertyOp13
 70
     1
102
RTVSPropertyOp14
 70
     1
102
RTVSPropertyOp15
 70
     1
102
RTVSPropertyOp16
 70
     1
102
RTVSPropertyOp17
 70
     1
102
RTVSPropertyOp18
 70
     1
102
RTVSPropertyOp19
 70
     1
102
RTVSPropertyOp20
 70
     1
102
RTVSPropertyOp21
 70
     1
102
RTVSPropertyOp22
 70
     1
102
RTVSPropertyOp23
 70
     1
102
RTVSPropertyOp24
 70
     1
102
RTVSPropertyOp25
 70
     1
102
RTVSPropertyOp26
 70
     1
102
RTVSPropertyOp27
 70
     1
102
RTVSPropertyOp28
 70
     1
102
RTVSPropertyOp29
 70
     1
102
RTVSPropertyOp30
 70
     1
102
RTVSPropertyOp31
 70
     1
102
RTVSPropertyOp32
 70
     1
102
RTVSPropertyOp33
 70
     1
102
RTVSPropertyOp34
 70
     1
102
RTVSPropertyOp35
 70
     1
102
RTVSPropertyOp36
 70
     1
102
RTVSPropertyOp37
 70
     1
102
RTVSPropertyOp38
 70
     1
102
RTVSPropertyOp39
 70
     1
102
RTVSPropertyOp40
 70
     1
102
RTVSPropertyOp41
 70
     1
102
RTVSPropertyOp42
 70
     1
102
RTVSPropertyOp43
 70
     1
102
RTVSPropertyOp44
 70
     1
102
RTVSPropertyOp45
 70
     1
102
RTVSPropertyOp46
 70
     1
102
RTVSPropertyOp47
 70
     1
102
RTVSPropertyOp48
 70
     1
102
RTVSPropertyOp49
 70
     1
102
RTVSPropertyOp50
 70
     1
102
RTVSPropertyOp51
 70
     0
102
RTVSPropertyOp52
 70
     0
102
RTVSPropertyOp53
 70
     1
102
RTVSPropertyOp54
 70
     1
102
RTVSPropertyOp55
 70
     1
102
RTVSPropertyOp56
 70
     1
102
RTVSPropertyOp57
 70
     1
102
RTVSPost2010Prop28
280
     0
102
RTVSPost2010PropOp28
 70
     1
102
RTVSPost2010Prop29
280
     1
102
RTVSPost2010PropOp29
 70
     1
102
RTVSPost2010Prop30
280
     1
102
RTVSPost2010PropOp30
 70
     1
102
RTVSPost2010Prop31
280
     0
102
RTVSPost2010PropOp31
 70
     1
102
RTVSPost2010Prop32
280
     0
102
RTVSPost2010PropOp32
 70
     1
102
RTVSPost2010Prop33
280
     0
102
RTVSPost2010PropOp33
 70
     1
102
RTVSPost2010Prop34
280
     0
102
RTVSPost2010PropOp34
 70
     1
102
RTVSPost2010Prop35
280
     0
102
RTVSPost2010PropOp35
 70
     1
102
RTVSPost2010Prop36
280
     0
102
RTVSPost2010PropOp36
 70
     1
102
RTVSPost2010Prop37
 90
       50
102
RTVSPost2010PropOp37
 70
     1
102
RTVSPost2010Prop38
140
0.0
102
RTVSPost2010PropOp38
 70
     1
102
RTVSPost2010Prop39
140
1.0
102
RTVSPost2010PropOp39
 70
     1
102
RTVSPost2010Prop40
 90
        0
102
RTVSPost2010PropOp40
 70
     1
102
RTVSPost2010Prop41ColorIndex
 90
       18
102
RTVSPost2010Prop41ColorRGB
 90
        0
102
RTVSPost2010PropOp41
 70
     1
102
RTVSPost2010Prop42
 90
       50
102
RTVSPost2010PropOp42
 70
     1
102
RTVSPost2010Prop43
 90
        3
102
RTVSPost2010PropOp43
 70
     1
102
RTVSPost2010Prop44ColorIndex
 90
        5
102
RTVSPost2010Prop44ColorRGB
 90
      255
102
RTVSPost2010PropOp44
 70
     1
102
RTVSPost2010Prop45
280
     0
102
RTVSPost2010PropOp45
 70
     1
102
RTVSPost2010Prop46
 90
       50
102
RTVSPost2010PropOp46
 70
     1
102
RTVSPost2010Prop47
 90
       50
102
RTVSPost2010PropOp47
 70
     1
102
RTVSPost2010Prop48
 90
       50
102
RTVSPost2010PropOp48
 70
     1
102
RTVSPost2010Prop49
280
     0
102
RTVSPost2010PropOp49
 70
     1
102
RTVSPost2010Prop50
 90
       50
102
RTVSPost2010PropOp50
 70
     1
102
RTVSPost2010Prop51ColorIndex
 90
      256
102
RTVSPost2010Prop51ColorRGB
 90
-16777216
102
RTVSPost2010PropOp51
 70
     0
102
RTVSPost2010Prop52
140
1.0
102
RTVSPost2010PropOp52
 70
     0
102
RTVSPost2010Prop53
 90
        2
102
RTVSPost2010PropOp53
 70
     1
102
RTVSPost2010Prop54
  1
strokes_ogs.tif
102
RTVSPost2010PropOp54
 70
     1
102
RTVSPost2010Prop55
280
     0
102
RTVSPost2010PropOp55
 70
     1
102
RTVSPost2010Prop56
140
1.0
102
RTVSPost2010PropOp56
 70
     1
102
RTVSPost2010Prop57
140
1.0
102
RTVSPost2010PropOp57
 70
     1
  0
XRECORD
  5
944E
102
{ACAD_REACTORS
330
944D
102
}
330
944D
100
AcDbXrecord
280
     1
102
RTVSPropertyOp0
 70
     1
102
RTVSPropertyOp1
 70
     1
102
RTVSPropertyOp2
 70
     1
102
RTVSPropertyOp3
 70
     1
102
RTVSPropertyOp4
 70
     1
102
RTVSPropertyOp5
 70
     1
102
RTVSPropertyOp6
 70
     1
102
RTVSPropertyOp7
 70
     1
102
RTVSPropertyOp8
 70
     1
102
RTVSPropertyOp9
 70
     1
102
RTVSPropertyOp10
 70
     1
102
RTVSPropertyOp11
 70
     1
102
RTVSPropertyOp12
 70
     1
102
RTVSPropertyOp13
 70
     1
102
RTVSPropertyOp14
 70
     1
102
RTVSPropertyOp15
 70
     1
102
RTVSPropertyOp16
 70
     1
102
RTVSPropertyOp17
 70
     1
102
RTVSPropertyOp18
 70
     1
102
RTVSPropertyOp19
 70
     1
102
RTVSPropertyOp20
 70
     1
102
RTVSPropertyOp21
 70
     1
102
RTVSPropertyOp22
 70
     1
102
RTVSPropertyOp23
 70
     1
102
RTVSPropertyOp24
 70
     1
102
RTVSPropertyOp25
 70
     1
102
RTVSPropertyOp26
 70
     1
102
RTVSPropertyOp27
 70
     1
102
RTVSPropertyOp28
 70
     1
102
RTVSPropertyOp29
 70
     1
102
RTVSPropertyOp30
 70
     1
102
RTVSPropertyOp31
 70
     1
102
RTVSPropertyOp32
 70
     1
102
RTVSPropertyOp33
 70
     1
102
RTVSPropertyOp34
 70
     1
102
RTVSPropertyOp35
 70
     1
102
RTVSPropertyOp36
 70
     1
102
RTVSPropertyOp37
 70
     1
102
RTVSPropertyOp38
 70
     1
102
RTVSPropertyOp39
 70
     1
102
RTVSPropertyOp40
 70
     1
102
RTVSPropertyOp41
 70
     1
102
RTVSPropertyOp42
 70
     1
102
RTVSPropertyOp43
 70
     1
102
RTVSPropertyOp44
 70
     1
102
RTVSPropertyOp45
 70
     1
102
RTVSPropertyOp46
 70
     1
102
RTVSPropertyOp47
 70
     1
102
RTVSPropertyOp48
 70
     1
102
RTVSPropertyOp49
 70
     1
102
RTVSPropertyOp50
 70
     1
102
RTVSPropertyOp51
 70
     0
102
RTVSPropertyOp52
 70
     0
102
RTVSPropertyOp53
 70
     1
102
RTVSPropertyOp54
 70
     1
102
RTVSPropertyOp55
 70
     1
102
RTVSPropertyOp56
 70
     1
102
RTVSPropertyOp57
 70
     1
102
RTVSPost2010Prop28
280
     0
102
RTVSPost2010PropOp28
 70
     1
102
RTVSPost2010Prop29
280
     1
102
RTVSPost2010PropOp29
 70
     1
102
RTVSPost2010Prop30
280
     1
102
RTVSPost2010PropOp30
 70
     1
102
RTVSPost2010Prop31
280
     0
102
RTVSPost2010PropOp31
 70
     1
102
RTVSPost2010Prop32
280
     0
102
RTVSPost2010PropOp32
 70
     1
102
RTVSPost2010Prop33
280
     0
102
RTVSPost2010PropOp33
 70
     1
102
RTVSPost2010Prop34
280
     0
102
RTVSPost2010PropOp34
 70
     1
102
RTVSPost2010Prop35
280
     0
102
RTVSPost2010PropOp35
 70
     1
102
RTVSPost2010Prop36
280
     0
102
RTVSPost2010PropOp36
 70
     1
102
RTVSPost2010Prop37
 90
       50
102
RTVSPost2010PropOp37
 70
     1
102
RTVSPost2010Prop38
140
0.0
102
RTVSPost2010PropOp38
 70
     1
102
RTVSPost2010Prop39
140
1.0
102
RTVSPost2010PropOp39
 70
     1
102
RTVSPost2010Prop40
 90
        0
102
RTVSPost2010PropOp40
 70
     1
102
RTVSPost2010Prop41ColorIndex
 90
       18
102
RTVSPost2010Prop41ColorRGB
 90
        0
102
RTVSPost2010PropOp41
 70
     1
102
RTVSPost2010Prop42
 90
       50
102
RTVSPost2010PropOp42
 70
     1
102
RTVSPost2010Prop43
 90
        3
102
RTVSPost2010PropOp43
 70
     1
102
RTVSPost2010Prop44ColorIndex
 90
        5
102
RTVSPost2010Prop44ColorRGB
 90
      255
102
RTVSPost2010PropOp44
 70
     1
102
RTVSPost2010Prop45
280
     0
102
RTVSPost2010PropOp45
 70
     1
102
RTVSPost2010Prop46
 90
       50
102
RTVSPost2010PropOp46
 70
     1
102
RTVSPost2010Prop47
 90
       50
102
RTVSPost2010PropOp47
 70
     1
102
RTVSPost2010Prop48
 90
       50
102
RTVSPost2010PropOp48
 70
     1
102
RTVSPost2010Prop49
280
     0
102
RTVSPost2010PropOp49
 70
     1
102
RTVSPost2010Prop50
 90
       50
102
RTVSPost2010PropOp50
 70
     1
102
RTVSPost2010Prop51ColorIndex
 90
      256
102
RTVSPost2010Prop51ColorRGB
 90
-16777216
102
RTVSPost2010PropOp51
 70
     0
102
RTVSPost2010Prop52
140
1.0
102
RTVSPost2010PropOp52
 70
     0
102
RTVSPost2010Prop53
 90
        2
102
RTVSPost2010PropOp53
 70
     1
102
RTVSPost2010Prop54
  1
strokes_ogs.tif
102
RTVSPost2010PropOp54
 70
     1
102
RTVSPost2010Prop55
280
     0
102
RTVSPost2010PropOp55
 70
     1
102
RTVSPost2010Prop56
140
1.0
102
RTVSPost2010PropOp56
 70
     1
102
RTVSPost2010Prop57
140
1.0
102
RTVSPost2010PropOp57
 70
     1
  0
XRECORD
  5
9450
102
{ACAD_REACTORS
330
944F
102
}
330
944F
100
AcDbXrecord
280
     1
102
RTVSPropertyOp0
 70
     1
102
RTVSPropertyOp1
 70
     1
102
RTVSPropertyOp2
 70
     1
102
RTVSPropertyOp3
 70
     1
102
RTVSPropertyOp4
 70
     1
102
RTVSPropertyOp5
 70
     1
102
RTVSPropertyOp6
 70
     1
102
RTVSPropertyOp7
 70
     1
102
RTVSPropertyOp8
 70
     1
102
RTVSPropertyOp9
 70
     1
102
RTVSPropertyOp10
 70
     1
102
RTVSPropertyOp11
 70
     1
102
RTVSPropertyOp12
 70
     1
102
RTVSPropertyOp13
 70
     1
102
RTVSPropertyOp14
 70
     1
102
RTVSPropertyOp15
 70
     1
102
RTVSPropertyOp16
 70
     1
102
RTVSPropertyOp17
 70
     1
102
RTVSPropertyOp18
 70
     1
102
RTVSPropertyOp19
 70
     1
102
RTVSPropertyOp20
 70
     1
102
RTVSPropertyOp21
 70
     1
102
RTVSPropertyOp22
 70
     1
102
RTVSPropertyOp23
 70
     1
102
RTVSPropertyOp24
 70
     1
102
RTVSPropertyOp25
 70
     1
102
RTVSPropertyOp26
 70
     1
102
RTVSPropertyOp27
 70
     1
102
RTVSPropertyOp28
 70
     1
102
RTVSPropertyOp29
 70
     1
102
RTVSPropertyOp30
 70
     1
102
RTVSPropertyOp31
 70
     1
102
RTVSPropertyOp32
 70
     1
102
RTVSPropertyOp33
 70
     1
102
RTVSPropertyOp34
 70
     1
102
RTVSPropertyOp35
 70
     1
102
RTVSPropertyOp36
 70
     1
102
RTVSPropertyOp37
 70
     1
102
RTVSPropertyOp38
 70
     1
102
RTVSPropertyOp39
 70
     1
102
RTVSPropertyOp40
 70
     1
102
RTVSPropertyOp41
 70
     1
102
RTVSPropertyOp42
 70
     1
102
RTVSPropertyOp43
 70
     1
102
RTVSPropertyOp44
 70
     1
102
RTVSPropertyOp45
 70
     1
102
RTVSPropertyOp46
 70
     1
102
RTVSPropertyOp47
 70
     1
102
RTVSPropertyOp48
 70
     1
102
RTVSPropertyOp49
 70
     1
102
RTVSPropertyOp50
 70
     1
102
RTVSPropertyOp51
 70
     0
102
RTVSPropertyOp52
 70
     0
102
RTVSPropertyOp53
 70
     1
102
RTVSPropertyOp54
 70
     1
102
RTVSPropertyOp55
 70
     1
102
RTVSPropertyOp56
 70
     1
102
RTVSPropertyOp57
 70
     1
102
RTVSPost2010Prop28
280
     0
102
RTVSPost2010PropOp28
 70
     1
102
RTVSPost2010Prop29
280
     1
102
RTVSPost2010PropOp29
 70
     1
102
RTVSPost2010Prop30
280
     1
102
RTVSPost2010PropOp30
 70
     1
102
RTVSPost2010Prop31
280
     0
102
RTVSPost2010PropOp31
 70
     1
102
RTVSPost2010Prop32
280
     0
102
RTVSPost2010PropOp32
 70
     1
102
RTVSPost2010Prop33
280
     0
102
RTVSPost2010PropOp33
 70
     1
102
RTVSPost2010Prop34
280
     0
102
RTVSPost2010PropOp34
 70
     1
102
RTVSPost2010Prop35
280
     0
102
RTVSPost2010PropOp35
 70
     1
102
RTVSPost2010Prop36
280
     0
102
RTVSPost2010PropOp36
 70
     1
102
RTVSPost2010Prop37
 90
       50
102
RTVSPost2010PropOp37
 70
     1
102
RTVSPost2010Prop38
140
0.0
102
RTVSPost2010PropOp38
 70
     1
102
RTVSPost2010Prop39
140
1.0
102
RTVSPost2010PropOp39
 70
     1
102
RTVSPost2010Prop40
 90
        0
102
RTVSPost2010PropOp40
 70
     1
102
RTVSPost2010Prop41ColorIndex
 90
       18
102
RTVSPost2010Prop41ColorRGB
 90
        0
102
RTVSPost2010PropOp41
 70
     1
102
RTVSPost2010Prop42
 90
       50
102
RTVSPost2010PropOp42
 70
     1
102
RTVSPost2010Prop43
 90
        3
102
RTVSPost2010PropOp43
 70
     1
102
RTVSPost2010Prop44ColorIndex
 90
        5
102
RTVSPost2010Prop44ColorRGB
 90
      255
102
RTVSPost2010PropOp44
 70
     1
102
RTVSPost2010Prop45
280
     0
102
RTVSPost2010PropOp45
 70
     1
102
RTVSPost2010Prop46
 90
       50
102
RTVSPost2010PropOp46
 70
     1
102
RTVSPost2010Prop47
 90
       50
102
RTVSPost2010PropOp47
 70
     1
102
RTVSPost2010Prop48
 90
       50
102
RTVSPost2010PropOp48
 70
     1
102
RTVSPost2010Prop49
280
     0
102
RTVSPost2010PropOp49
 70
     1
102
RTVSPost2010Prop50
 90
       50
102
RTVSPost2010PropOp50
 70
     1
102
RTVSPost2010Prop51ColorIndex
 90
      256
102
RTVSPost2010Prop51ColorRGB
 90
-16777216
102
RTVSPost2010PropOp51
 70
     0
102
RTVSPost2010Prop52
140
1.0
102
RTVSPost2010PropOp52
 70
     0
102
RTVSPost2010Prop53
 90
        2
102
RTVSPost2010PropOp53
 70
     1
102
RTVSPost2010Prop54
  1
strokes_ogs.tif
102
RTVSPost2010PropOp54
 70
     1
102
RTVSPost2010Prop55
280
     0
102
RTVSPost2010PropOp55
 70
     1
102
RTVSPost2010Prop56
140
1.0
102
RTVSPost2010PropOp56
 70
     1
102
RTVSPost2010Prop57
140
1.0
102
RTVSPost2010PropOp57
 70
     1
  0
XRECORD
  5
9448
102
{ACAD_REACTORS
330
9447
102
}
330
9447
100
AcDbXrecord
280
     1
102
RTVSPropertyOp0
 70
     1
102
RTVSPropertyOp1
 70
     1
102
RTVSPropertyOp2
 70
     1
102
RTVSPropertyOp3
 70
     1
102
RTVSPropertyOp4
 70
     1
102
RTVSPropertyOp5
 70
     1
102
RTVSPropertyOp6
 70
     1
102
RTVSPropertyOp7
 70
     1
102
RTVSPropertyOp8
 70
     1
102
RTVSPropertyOp9
 70
     1
102
RTVSPropertyOp10
 70
     1
102
RTVSPropertyOp11
 70
     1
102
RTVSPropertyOp12
 70
     1
102
RTVSPropertyOp13
 70
     1
102
RTVSPropertyOp14
 70
     1
102
RTVSPropertyOp15
 70
     1
102
RTVSPropertyOp16
 70
     1
102
RTVSPropertyOp17
 70
     1
102
RTVSPropertyOp18
 70
     1
102
RTVSPropertyOp19
 70
     1
102
RTVSPropertyOp20
 70
     1
102
RTVSPropertyOp21
 70
     1
102
RTVSPropertyOp22
 70
     1
102
RTVSPropertyOp23
 70
     1
102
RTVSPropertyOp24
 70
     1
102
RTVSPropertyOp25
 70
     1
102
RTVSPropertyOp26
 70
     1
102
RTVSPropertyOp27
 70
     1
102
RTVSPropertyOp28
 70
     1
102
RTVSPropertyOp29
 70
     1
102
RTVSPropertyOp30
 70
     1
102
RTVSPropertyOp31
 70
     1
102
RTVSPropertyOp32
 70
     1
102
RTVSPropertyOp33
 70
     1
102
RTVSPropertyOp34
 70
     1
102
RTVSPropertyOp35
 70
     1
102
RTVSPropertyOp36
 70
     1
102
RTVSPropertyOp37
 70
     1
102
RTVSPropertyOp38
 70
     1
102
RTVSPropertyOp39
 70
     1
102
RTVSPropertyOp40
 70
     1
102
RTVSPropertyOp41
 70
     1
102
RTVSPropertyOp42
 70
     1
102
RTVSPropertyOp43
 70
     1
102
RTVSPropertyOp44
 70
     1
102
RTVSPropertyOp45
 70
     1
102
RTVSPropertyOp46
 70
     1
102
RTVSPropertyOp47
 70
     1
102
RTVSPropertyOp48
 70
     1
102
RTVSPropertyOp49
 70
     1
102
RTVSPropertyOp50
 70
     1
102
RTVSPropertyOp51
 70
     0
102
RTVSPropertyOp52
 70
     0
102
RTVSPropertyOp53
 70
     1
102
RTVSPropertyOp54
 70
     1
102
RTVSPropertyOp55
 70
     1
102
RTVSPropertyOp56
 70
     1
102
RTVSPropertyOp57
 70
     1
102
RTVSPost2010Prop28
280
     0
102
RTVSPost2010PropOp28
 70
     1
102
RTVSPost2010Prop29
280
     1
102
RTVSPost2010PropOp29
 70
     1
102
RTVSPost2010Prop30
280
     1
102
RTVSPost2010PropOp30
 70
     1
102
RTVSPost2010Prop31
280
     0
102
RTVSPost2010PropOp31
 70
     1
102
RTVSPost2010Prop32
280
     0
102
RTVSPost2010PropOp32
 70
     1
102
RTVSPost2010Prop33
280
     0
102
RTVSPost2010PropOp33
 70
     1
102
RTVSPost2010Prop34
280
     0
102
RTVSPost2010PropOp34
 70
     1
102
RTVSPost2010Prop35
280
     0
102
RTVSPost2010PropOp35
 70
     1
102
RTVSPost2010Prop36
280
     0
102
RTVSPost2010PropOp36
 70
     1
102
RTVSPost2010Prop37
 90
       50
102
RTVSPost2010PropOp37
 70
     1
102
RTVSPost2010Prop38
140
0.0
102
RTVSPost2010PropOp38
 70
     1
102
RTVSPost2010Prop39
140
1.0
102
RTVSPost2010PropOp39
 70
     1
102
RTVSPost2010Prop40
 90
        0
102
RTVSPost2010PropOp40
 70
     1
102
RTVSPost2010Prop41ColorIndex
 90
       18
102
RTVSPost2010Prop41ColorRGB
 90
        0
102
RTVSPost2010PropOp41
 70
     1
102
RTVSPost2010Prop42
 90
       50
102
RTVSPost2010PropOp42
 70
     1
102
RTVSPost2010Prop43
 90
        3
102
RTVSPost2010PropOp43
 70
     1
102
RTVSPost2010Prop44ColorIndex
 90
        5
102
RTVSPost2010Prop44ColorRGB
 90
      255
102
RTVSPost2010PropOp44
 70
     1
102
RTVSPost2010Prop45
280
     0
102
RTVSPost2010PropOp45
 70
     1
102
RTVSPost2010Prop46
 90
       50
102
RTVSPost2010PropOp46
 70
     1
102
RTVSPost2010Prop47
 90
       50
102
RTVSPost2010PropOp47
 70
     1
102
RTVSPost2010Prop48
 90
       50
102
RTVSPost2010PropOp48
 70
     1
102
RTVSPost2010Prop49
280
     0
102
RTVSPost2010PropOp49
 70
     1
102
RTVSPost2010Prop50
 90
       50
102
RTVSPost2010PropOp50
 70
     1
102
RTVSPost2010Prop51ColorIndex
 90
      256
102
RTVSPost2010Prop51ColorRGB
 90
-16777216
102
RTVSPost2010PropOp51
 70
     0
102
RTVSPost2010Prop52
140
1.0
102
RTVSPost2010PropOp52
 70
     0
102
RTVSPost2010Prop53
 90
        2
102
RTVSPost2010PropOp53
 70
     1
102
RTVSPost2010Prop54
  1
strokes_ogs.tif
102
RTVSPost2010PropOp54
 70
     1
102
RTVSPost2010Prop55
280
     0
102
RTVSPost2010PropOp55
 70
     1
102
RTVSPost2010Prop56
140
1.0
102
RTVSPost2010PropOp56
 70
     1
102
RTVSPost2010Prop57
140
1.0
102
RTVSPost2010PropOp57
 70
     1
  0
XRECORD
  5
944A
102
{ACAD_REACTORS
330
9449
102
}
330
9449
100
AcDbXrecord
280
     1
102
RTVSPropertyOp0
 70
     1
102
RTVSPropertyOp1
 70
     1
102
RTVSPropertyOp2
 70
     1
102
RTVSPropertyOp3
 70
     1
102
RTVSPropertyOp4
 70
     1
102
RTVSPropertyOp5
 70
     1
102
RTVSPropertyOp6
 70
     1
102
RTVSPropertyOp7
 70
     1
102
RTVSPropertyOp8
 70
     1
102
RTVSPropertyOp9
 70
     1
102
RTVSPropertyOp10
 70
     1
102
RTVSPropertyOp11
 70
     1
102
RTVSPropertyOp12
 70
     1
102
RTVSPropertyOp13
 70
     1
102
RTVSPropertyOp14
 70
     1
102
RTVSPropertyOp15
 70
     1
102
RTVSPropertyOp16
 70
     1
102
RTVSPropertyOp17
 70
     1
102
RTVSPropertyOp18
 70
     1
102
RTVSPropertyOp19
 70
     1
102
RTVSPropertyOp20
 70
     1
102
RTVSPropertyOp21
 70
     1
102
RTVSPropertyOp22
 70
     1
102
RTVSPropertyOp23
 70
     1
102
RTVSPropertyOp24
 70
     1
102
RTVSPropertyOp25
 70
     1
102
RTVSPropertyOp26
 70
     1
102
RTVSPropertyOp27
 70
     1
102
RTVSPropertyOp28
 70
     1
102
RTVSPropertyOp29
 70
     1
102
RTVSPropertyOp30
 70
     1
102
RTVSPropertyOp31
 70
     1
102
RTVSPropertyOp32
 70
     1
102
RTVSPropertyOp33
 70
     1
102
RTVSPropertyOp34
 70
     1
102
RTVSPropertyOp35
 70
     1
102
RTVSPropertyOp36
 70
     1
102
RTVSPropertyOp37
 70
     1
102
RTVSPropertyOp38
 70
     1
102
RTVSPropertyOp39
 70
     1
102
RTVSPropertyOp40
 70
     1
102
RTVSPropertyOp41
 70
     1
102
RTVSPropertyOp42
 70
     1
102
RTVSPropertyOp43
 70
     1
102
RTVSPropertyOp44
 70
     1
102
RTVSPropertyOp45
 70
     1
102
RTVSPropertyOp46
 70
     1
102
RTVSPropertyOp47
 70
     1
102
RTVSPropertyOp48
 70
     1
102
RTVSPropertyOp49
 70
     1
102
RTVSPropertyOp50
 70
     1
102
RTVSPropertyOp51
 70
     0
102
RTVSPropertyOp52
 70
     0
102
RTVSPropertyOp53
 70
     1
102
RTVSPropertyOp54
 70
     1
102
RTVSPropertyOp55
 70
     1
102
RTVSPropertyOp56
 70
     1
102
RTVSPropertyOp57
 70
     1
102
RTVSPost2010Prop28
280
     0
102
RTVSPost2010PropOp28
 70
     1
102
RTVSPost2010Prop29
280
     1
102
RTVSPost2010PropOp29
 70
     1
102
RTVSPost2010Prop30
280
     1
102
RTVSPost2010PropOp30
 70
     1
102
RTVSPost2010Prop31
280
     0
102
RTVSPost2010PropOp31
 70
     1
102
RTVSPost2010Prop32
280
     0
102
RTVSPost2010PropOp32
 70
     1
102
RTVSPost2010Prop33
280
     0
102
RTVSPost2010PropOp33
 70
     1
102
RTVSPost2010Prop34
280
     0
102
RTVSPost2010PropOp34
 70
     1
102
RTVSPost2010Prop35
280
     0
102
RTVSPost2010PropOp35
 70
     1
102
RTVSPost2010Prop36
280
     0
102
RTVSPost2010PropOp36
 70
     1
102
RTVSPost2010Prop37
 90
       50
102
RTVSPost2010PropOp37
 70
     1
102
RTVSPost2010Prop38
140
0.0
102
RTVSPost2010PropOp38
 70
     1
102
RTVSPost2010Prop39
140
1.0
102
RTVSPost2010PropOp39
 70
     1
102
RTVSPost2010Prop40
 90
        0
102
RTVSPost2010PropOp40
 70
     1
102
RTVSPost2010Prop41ColorIndex
 90
       18
102
RTVSPost2010Prop41ColorRGB
 90
        0
102
RTVSPost2010PropOp41
 70
     1
102
RTVSPost2010Prop42
 90
       50
102
RTVSPost2010PropOp42
 70
     1
102
RTVSPost2010Prop43
 90
        3
102
RTVSPost2010PropOp43
 70
     1
102
RTVSPost2010Prop44ColorIndex
 90
        5
102
RTVSPost2010Prop44ColorRGB
 90
      255
102
RTVSPost2010PropOp44
 70
     1
102
RTVSPost2010Prop45
280
     0
102
RTVSPost2010PropOp45
 70
     1
102
RTVSPost2010Prop46
 90
       50
102
RTVSPost2010PropOp46
 70
     1
102
RTVSPost2010Prop47
 90
       50
102
RTVSPost2010PropOp47
 70
     1
102
RTVSPost2010Prop48
 90
       50
102
RTVSPost2010PropOp48
 70
     1
102
RTVSPost2010Prop49
280
     0
102
RTVSPost2010PropOp49
 70
     1
102
RTVSPost2010Prop50
 90
       50
102
RTVSPost2010PropOp50
 70
     1
102
RTVSPost2010Prop51ColorIndex
 90
      256
102
RTVSPost2010Prop51ColorRGB
 90
-16777216
102
RTVSPost2010PropOp51
 70
     0
102
RTVSPost2010Prop52
140
1.0
102
RTVSPost2010PropOp52
 70
     0
102
RTVSPost2010Prop53
 90
        2
102
RTVSPost2010PropOp53
 70
     1
102
RTVSPost2010Prop54
  1
strokes_ogs.tif
102
RTVSPost2010PropOp54
 70
     1
102
RTVSPost2010Prop55
280
     0
102
RTVSPost2010PropOp55
 70
     1
102
RTVSPost2010Prop56
140
1.0
102
RTVSPost2010PropOp56
 70
     1
102
RTVSPost2010Prop57
140
1.0
102
RTVSPost2010PropOp57
 70
     1
  0
XRECORD
  5
9452
102
{ACAD_REACTORS
330
9451
102
}
330
9451
100
AcDbXrecord
280
     1
102
RTVSPropertyOp0
 70
     1
102
RTVSPropertyOp1
 70
     1
102
RTVSPropertyOp2
 70
     1
102
RTVSPropertyOp3
 70
     1
102
RTVSPropertyOp4
 70
     1
102
RTVSPropertyOp5
 70
     1
102
RTVSPropertyOp6
 70
     1
102
RTVSPropertyOp7
 70
     1
102
RTVSPropertyOp8
 70
     1
102
RTVSPropertyOp9
 70
     1
102
RTVSPropertyOp10
 70
     1
102
RTVSPropertyOp11
 70
     1
102
RTVSPropertyOp12
 70
     1
102
RTVSPropertyOp13
 70
     1
102
RTVSPropertyOp14
 70
     1
102
RTVSPropertyOp15
 70
     1
102
RTVSPropertyOp16
 70
     1
102
RTVSPropertyOp17
 70
     1
102
RTVSPropertyOp18
 70
     1
102
RTVSPropertyOp19
 70
     1
102
RTVSPropertyOp20
 70
     1
102
RTVSPropertyOp21
 70
     1
102
RTVSPropertyOp22
 70
     1
102
RTVSPropertyOp23
 70
     1
102
RTVSPropertyOp24
 70
     1
102
RTVSPropertyOp25
 70
     1
102
RTVSPropertyOp26
 70
     1
102
RTVSPropertyOp27
 70
     1
102
RTVSPropertyOp28
 70
     1
102
RTVSPropertyOp29
 70
     1
102
RTVSPropertyOp30
 70
     1
102
RTVSPropertyOp31
 70
     1
102
RTVSPropertyOp32
 70
     1
102
RTVSPropertyOp33
 70
     1
102
RTVSPropertyOp34
 70
     1
102
RTVSPropertyOp35
 70
     1
102
RTVSPropertyOp36
 70
     1
102
RTVSPropertyOp37
 70
     1
102
RTVSPropertyOp38
 70
     1
102
RTVSPropertyOp39
 70
     1
102
RTVSPropertyOp40
 70
     1
102
RTVSPropertyOp41
 70
     1
102
RTVSPropertyOp42
 70
     1
102
RTVSPropertyOp43
 70
     1
102
RTVSPropertyOp44
 70
     1
102
RTVSPropertyOp45
 70
     1
102
RTVSPropertyOp46
 70
     1
102
RTVSPropertyOp47
 70
     1
102
RTVSPropertyOp48
 70
     1
102
RTVSPropertyOp49
 70
     1
102
RTVSPropertyOp50
 70
     1
102
RTVSPropertyOp51
 70
     0
102
RTVSPropertyOp52
 70
     0
102
RTVSPropertyOp53
 70
     1
102
RTVSPropertyOp54
 70
     1
102
RTVSPropertyOp55
 70
     1
102
RTVSPropertyOp56
 70
     1
102
RTVSPropertyOp57
 70
     1
102
RTVSPost2010Prop28
280
     0
102
RTVSPost2010PropOp28
 70
     1
102
RTVSPost2010Prop29
280
     1
102
RTVSPost2010PropOp29
 70
     1
102
RTVSPost2010Prop30
280
     1
102
RTVSPost2010PropOp30
 70
     1
102
RTVSPost2010Prop31
280
     0
102
RTVSPost2010PropOp31
 70
     1
102
RTVSPost2010Prop32
280
     0
102
RTVSPost2010PropOp32
 70
     1
102
RTVSPost2010Prop33
280
     0
102
RTVSPost2010PropOp33
 70
     1
102
RTVSPost2010Prop34
280
     0
102
RTVSPost2010PropOp34
 70
     1
102
RTVSPost2010Prop35
280
     0
102
RTVSPost2010PropOp35
 70
     1
102
RTVSPost2010Prop36
280
     0
102
RTVSPost2010PropOp36
 70
     1
102
RTVSPost2010Prop37
 90
       50
102
RTVSPost2010PropOp37
 70
     1
102
RTVSPost2010Prop38
140
0.0
102
RTVSPost2010PropOp38
 70
     1
102
RTVSPost2010Prop39
140
1.0
102
RTVSPost2010PropOp39
 70
     1
102
RTVSPost2010Prop40
 90
        0
102
RTVSPost2010PropOp40
 70
     1
102
RTVSPost2010Prop41ColorIndex
 90
       18
102
RTVSPost2010Prop41ColorRGB
 90
        0
102
RTVSPost2010PropOp41
 70
     1
102
RTVSPost2010Prop42
 90
       50
102
RTVSPost2010PropOp42
 70
     1
102
RTVSPost2010Prop43
 90
        3
102
RTVSPost2010PropOp43
 70
     1
102
RTVSPost2010Prop44ColorIndex
 90
        5
102
RTVSPost2010Prop44ColorRGB
 90
      255
102
RTVSPost2010PropOp44
 70
     1
102
RTVSPost2010Prop45
280
     0
102
RTVSPost2010PropOp45
 70
     1
102
RTVSPost2010Prop46
 90
       50
102
RTVSPost2010PropOp46
 70
     1
102
RTVSPost2010Prop47
 90
       50
102
RTVSPost2010PropOp47
 70
     1
102
RTVSPost2010Prop48
 90
       50
102
RTVSPost2010PropOp48
 70
     1
102
RTVSPost2010Prop49
280
     0
102
RTVSPost2010PropOp49
 70
     1
102
RTVSPost2010Prop50
 90
       50
102
RTVSPost2010PropOp50
 70
     1
102
RTVSPost2010Prop51ColorIndex
 90
      256
102
RTVSPost2010Prop51ColorRGB
 90
-16777216
102
RTVSPost2010PropOp51
 70
     0
102
RTVSPost2010Prop52
140
1.0
102
RTVSPost2010PropOp52
 70
     0
102
RTVSPost2010Prop53
 90
        2
102
RTVSPost2010PropOp53
 70
     1
102
RTVSPost2010Prop54
  1
strokes_ogs.tif
102
RTVSPost2010PropOp54
 70
     1
102
RTVSPost2010Prop55
280
     0
102
RTVSPost2010PropOp55
 70
     1
102
RTVSPost2010Prop56
140
1.0
102
RTVSPost2010PropOp56
 70
     1
102
RTVSPost2010Prop57
140
1.0
102
RTVSPost2010PropOp57
 70
     1
  0
ENDSEC
  0
EOF
