  0
SECTION
  2
HEADER
  9
$ACADVER
  1
AC1015
  9
$ACADMAINTVER
 70
     6
  9
$DWGCODEPAGE
  3
ANSI_1252
  9
$INSBASE
 10
0.0
 20
0.0
 30
0.0
  9
$EXTMIN
 10
7.40784441331607
 20
76.4050374543816
 30
0.0
  9
$EXTMAX
 10
345.214377550945
 20
236.8096811812906
 30
0.0
  9
$LIMMIN
 10
0.0
 20
0.0
  9
$LIMMAX
 10
420.0
 20
297.0
  9
$ORTHOMODE
 70
     0
  9
$REGENMODE
 70
     1
  9
$FILLMODE
 70
     1
  9
$QTEXTMODE
 70
     0
  9
$MIRRTEXT
 70
     1
  9
$LTSCALE
 40
1.0
  9
$ATTMODE
 70
     1
  9
$TEXTSIZE
 40
7.051976310349573
  9
$TRACEWID
 40
1.0
  9
$TEXTSTYLE
  7
STANDARD
  9
$CLAYER
  8
OTROS
  9
$CELTYPE
  6
BYLAYER
  9
$CECOLOR
 62
   256
  9
$CELTSCALE
 40
1.0
  9
$DISPSILH
 70
     0
  9
$DIMSCALE
 40
1.0
  9
$DIMASZ
 40
4.0
  9
$DIMEXO
 40
0.625
  9
$DIMDLI
 40
3.75
  9
$DIMRND
 40
0.0
  9
$DIMDLE
 40
0.0
  9
$DIMEXE
 40
1.25
  9
$DIMTP
 40
0.0
  9
$DIMTM
 40
0.0
  9
$DIMTXT
 40
4.0
  9
$DIMCEN
 40
2.5
  9
$DIMTSZ
 40
0.0
  9
$DIMTOL
 70
     0
  9
$DIMLIM
 70
     0
  9
$DIMTIH
 70
     0
  9
$DIMTOH
 70
     0
  9
$DIMSE1
 70
     0
  9
$DIMSE2
 70
     0
  9
$DIMTAD
 70
     1
  9
$DIMZIN
 70
     8
  9
$DIMBLK
  1

  9
$DIMASO
 70
     1
  9
$DIMSHO
 70
     1
  9
$DIMPOST
  1

  9
$DIMAPOST
  1

  9
$DIMALT
 70
     0
  9
$DIMALTD
 70
     4
  9
$DIMALTF
 40
0.0394
  9
$DIMLFAC
 40
1.0
  9
$DIMTOFL
 70
     1
  9
$DIMTVP
 40
0.0
  9
$DIMTIX
 70
     0
  9
$DIMSOXD
 70
     0
  9
$DIMSAH
 70
     0
  9
$DIMBLK1
  1

  9
$DIMBLK2
  1

  9
$DIMSTYLE
  2
ISO-25_WS
  9
$DIMCLRD
 70
   256
  9
$DIMCLRE
 70
   256
  9
$DIMCLRT
 70
   256
  9
$DIMTFAC
 40
1.0
  9
$DIMGAP
 40
0.625
  9
$DIMJUST
 70
     0
  9
$DIMSD1
 70
     0
  9
$DIMSD2
 70
     0
  9
$DIMTOLJ
 70
     1
  9
$DIMTZIN
 70
     0
  9
$DIMALTZ
 70
     0
  9
$DIMALTTZ
 70
     0
  9
$DIMUPT
 70
     0
  9
$DIMDEC
 70
     0
  9
$DIMTDEC
 70
     0
  9
$DIMALTU
 70
     8
  9
$DIMALTTD
 70
     4
  9
$DIMTXSTY
  7
ROMANS
  9
$DIMAUNIT
 70
     0
  9
$DIMADEC
 70
     0
  9
$DIMALTRND
 40
0.0
  9
$DIMAZIN
 70
     0
  9
$DIMDSEP
 70
    46
  9
$DIMATFIT
 70
     3
  9
$DIMFRAC
 70
     0
  9
$DIMLDRBLK
  1

  9
$DIMLUNIT
 70
     2
  9
$DIMLWD
 70
    -2
  9
$DIMLWE
 70
    -2
  9
$DIMTMOVE
 70
     0
  9
$LUNITS
 70
     2
  9
$LUPREC
 70
     0
  9
$SKETCHINC
 40
1.0
  9
$FILLETRAD
 40
2.0
  9
$AUNITS
 70
     0
  9
$AUPREC
 70
     0
  9
$MENU
  1
.
  9
$ELEVATION
 40
0.0
  9
$PELEVATION
 40
0.0
  9
$THICKNESS
 40
0.0
  9
$LIMCHECK
 70
     0
  9
$CHAMFERA
 40
0.0
  9
$CHAMFERB
 40
0.0
  9
$CHAMFERC
 40
20.0
  9
$CHAMFERD
 40
0.0
  9
$SKPOLY
 70
     1
  9
$TDCREATE
 40
2451967.578746169
  9
$TDUCREATE
 40
2451967.537079502
  9
$TDUPDATE
 40
2460006.349016539
  9
$TDUUPDATE
 40
2460006.307349873
  9
$TDINDWG
 40
0.3927246759
  9
$TDUSRTIMER
 40
0.3927246759
  9
$USRTIMER
 70
     1
  9
$ANGBASE
 50
0.0
  9
$ANGDIR
 70
     0
  9
$PDMODE
 70
     0
  9
$PDSIZE
 40
0.0
  9
$PLINEWID
 40
0.0
  9
$SPLFRAME
 70
     0
  9
$SPLINETYPE
 70
     6
  9
$SPLINESEGS
 70
     8
  9
$HANDSEED
  5
3368
  9
$SURFTAB1
 70
     6
  9
$SURFTAB2
 70
     6
  9
$SURFTYPE
 70
     6
  9
$SURFU
 70
     6
  9
$SURFV
 70
     6
  9
$UCSBASE
  2

  9
$UCSNAME
  2

  9
$UCSORG
 10
0.0
 20
0.0
 30
0.0
  9
$UCSXDIR
 10
1.0
 20
0.0
 30
0.0
  9
$UCSYDIR
 10
0.0
 20
1.0
 30
0.0
  9
$UCSORTHOREF
  2

  9
$UCSORTHOVIEW
 70
     0
  9
$UCSORGTOP
 10
0.0
 20
0.0
 30
0.0
  9
$UCSORGBOTTOM
 10
0.0
 20
0.0
 30
0.0
  9
$UCSORGLEFT
 10
0.0
 20
0.0
 30
0.0
  9
$UCSORGRIGHT
 10
0.0
 20
0.0
 30
0.0
  9
$UCSORGFRONT
 10
0.0
 20
0.0
 30
0.0
  9
$UCSORGBACK
 10
0.0
 20
0.0
 30
0.0
  9
$PUCSBASE
  2

  9
$PUCSNAME
  2

  9
$PUCSORG
 10
0.0
 20
0.0
 30
0.0
  9
$PUCSXDIR
 10
1.0
 20
0.0
 30
0.0
  9
$PUCSYDIR
 10
0.0
 20
1.0
 30
0.0
  9
$PUCSORTHOREF
  2

  9
$PUCSORTHOVIEW
 70
     0
  9
$PUCSORGTOP
 10
0.0
 20
0.0
 30
0.0
  9
$PUCSORGBOTTOM
 10
0.0
 20
0.0
 30
0.0
  9
$PUCSORGLEFT
 10
0.0
 20
0.0
 30
0.0
  9
$PUCSORGRIGHT
 10
0.0
 20
0.0
 30
0.0
  9
$PUCSORGFRONT
 10
0.0
 20
0.0
 30
0.0
  9
$PUCSORGBACK
 10
0.0
 20
0.0
 30
0.0
  9
$USERI1
 70
     0
  9
$USERI2
 70
     0
  9
$USERI3
 70
     0
  9
$USERI4
 70
     0
  9
$USERI5
 70
     0
  9
$USERR1
 40
0.0
  9
$USERR2
 40
0.0
  9
$USERR3
 40
0.0
  9
$USERR4
 40
0.0
  9
$USERR5
 40
0.0
  9
$WORLDVIEW
 70
     1
  9
$SHADEDGE
 70
     3
  9
$SHADEDIF
 70
    70
  9
$TILEMODE
 70
     0
  9
$MAXACTVP
 70
    48
  9
$PINSBASE
 10
0.0
 20
0.0
 30
0.0
  9
$PLIMCHECK
 70
     0
  9
$PEXTMIN
 10
1.0
 20
2.5
 30
-0.0000000349181948
  9
$PEXTMAX
 10
204.5223849659673
 20
289.7787747161209
 30
0.0000000814935746
  9
$PLIMMIN
 10
20.86472515275776
 20
-0.1286456574937058
  9
$PLIMMAX
 10
227.9533829822948
 20
292.9110908275451
  9
$UNITMODE
 70
     0
  9
$VISRETAIN
 70
     1
  9
$PLINEGEN
 70
     0
  9
$PSLTSCALE
 70
     1
  9
$TREEDEPTH
 70
  3020
  9
$CMLSTYLE
  2
STANDARD
  9
$CMLJUST
 70
     0
  9
$CMLSCALE
 40
1.0
  9
$PROXYGRAPHICS
 70
     1
  9
$MEASUREMENT
 70
     1
  9
$CELWEIGHT
370
    -1
  9
$ENDCAPS
280
     0
  9
$JOINSTYLE
280
     0
  9
$LWDISPLAY
290
     0
  9
$INSUNITS
 70
     0
  9
$HYPERLINKBASE
  1

  9
$STYLESHEET
  1

  9
$XEDIT
290
     1
  9
$CEPSNTYPE
380
     0
  9
$PSTYLEMODE
290
     1
  9
$FINGERPRINTGUID
  2
{066C5EB9-0589-4740-88B8-E880396BC6D8}
  9
$VERSIONGUID
  2
{2E60E51A-13E5-4866-9B4B-9CEA700B41A4}
  9
$EXTNAMES
290
     1
  9
$PSVPSCALE
 40
0.0
  9
$OLESTARTUP
290
     0
  0
ENDSEC
  0
SECTION
  2
CLASSES
  0
CLASS
  1
DICTIONARYVAR
  2
AcDbDictionaryVar
  3
ObjectDBX Classes
 90
        0
280
     0
281
     0
  0
CLASS
  1
HATCH
  2
AcDbHatch
  3
ObjectDBX Classes
 90
        0
280
     0
281
     1
  0
CLASS
  1
ACDBDICTIONARYWDFLT
  2
AcDbDictionaryWithDefault
  3
ObjectDBX Classes
 90
        0
280
     0
281
     0
  0
CLASS
  1
MATERIAL
  2
AcDbMaterial
  3
ObjectDBX Classes
 90
     1153
280
     0
281
     0
  0
CLASS
  1
VISUALSTYLE
  2
AcDbVisualStyle
  3
ObjectDBX Classes
 90
     4095
280
     0
281
     0
  0
CLASS
  1
TABLESTYLE
  2
AcDbTableStyle
  3
ObjectDBX Classes
 90
     4095
280
     0
281
     0
  0
CLASS
  1
SCALE
  2
AcDbScale
  3
ObjectDBX Classes
 90
     1153
280
     0
281
     0
  0
CLASS
  1
MLEADERSTYLE
  2
AcDbMLeaderStyle
  3
ACDB_MLEADERSTYLE_CLASS
 90
     4095
280
     0
281
     0
  0
CLASS
  1
ACDBPLACEHOLDER
  2
AcDbPlaceHolder
  3
ObjectDBX Classes
 90
        0
280
     0
281
     0
  0
CLASS
  1
LAYOUT
  2
AcDbLayout
  3
ObjectDBX Classes
 90
        0
280
     0
281
     0
  0
ENDSEC
  0
SECTION
  2
TABLES
  0
TABLE
  2
VPORT
  5
8
102
{ACAD_XDICTIONARY
360
331D
102
}
330
0
100
AcDbSymbolTable
 70
     1
  0
VPORT
  5
3299
330
8
100
AcDbSymbolTableRecord
100
AcDbViewportTableRecord
  2
*ACTIVE
 70
     0
 10
0.0
 20
0.0
 11
1.0
 21
1.0
 12
244.32890625
 22
148.5
 13
0.0
 23
0.0
 14
10.0
 24
10.0
 15
10.0
 25
10.0
 16
0.0
 26
0.0
 36
1.0
 17
0.0
 27
0.0
 37
0.0
 40
297.0
 41
1.6453125
 42
50.0
 43
0.0
 44
0.0
 50
0.0
 51
0.0
 71
     0
 72
   100
 73
     1
 74
     1
 75
     0
 76
     0
 77
     0
 78
     0
281
     0
 65
     1
110
0.0
120
0.0
130
0.0
111
1.0
121
0.0
131
0.0
112
0.0
122
1.0
132
0.0
 79
     0
146
0.0
  0
ENDTAB
  0
TABLE
  2
LTYPE
  5
5
330
0
100
AcDbSymbolTable
 70
     1
  0
LTYPE
  5
14
330
5
100
AcDbSymbolTableRecord
100
AcDbLinetypeTableRecord
  2
BYBLOCK
 70
     0
  3

 72
    65
 73
     0
 40
0.0
  0
LTYPE
  5
15
330
5
100
AcDbSymbolTableRecord
100
AcDbLinetypeTableRecord
  2
BYLAYER
 70
     0
  3

 72
    65
 73
     0
 40
0.0
  0
LTYPE
  5
16
330
5
100
AcDbSymbolTableRecord
100
AcDbLinetypeTableRecord
  2
CONTINUOUS
 70
     0
  3
Solid line
 72
    65
 73
     0
 40
0.0
  0
ENDTAB
  0
TABLE
  2
LAYER
  5
2
102
{ACAD_XDICTIONARY
360
32EA
102
}
330
0
100
AcDbSymbolTable
 70
    10
  0
LAYER
  5
F
330
2
100
AcDbSymbolTableRecord
100
AcDbLayerTableRecord
  2
0
 70
     0
 62
     5
  6
CONTINUOUS
370
    -3
390
32B3
  0
LAYER
  5
8A
330
2
100
AcDbSymbolTableRecord
100
AcDbLayerTableRecord
  2
FORMATO
 70
     0
 62
     7
  6
CONTINUOUS
370
    -3
390
32B3
  0
LAYER
  5
8B
330
2
100
AcDbSymbolTableRecord
100
AcDbLayerTableRecord
  2
ASHADE
 70
     0
 62
     5
  6
CONTINUOUS
370
    -3
390
32B3
  0
LAYER
  5
8C
330
2
100
AcDbSymbolTableRecord
100
AcDbLayerTableRecord
  2
SOMBREA
 70
     0
 62
     5
  6
CONTINUOUS
370
    -3
390
32B3
  0
LAYER
  5
CD
330
2
100
AcDbSymbolTableRecord
100
AcDbLayerTableRecord
  2
VIEWPORT
 70
     1
 62
    -5
  6
CONTINUOUS
370
    -3
390
32B3
  0
LAYER
  5
52F
330
2
100
AcDbSymbolTableRecord
100
AcDbLayerTableRecord
  2
SOPORTES
 70
     0
 62
     7
  6
CONTINUOUS
370
    -3
390
32B3
  0
LAYER
  5
530
330
2
100
AcDbSymbolTableRecord
100
AcDbLayerTableRecord
  2
BANDEJAS
 70
     0
 62
     3
  6
CONTINUOUS
370
    -3
390
32B3
  0
LAYER
  5
531
330
2
100
AcDbSymbolTableRecord
100
AcDbLayerTableRecord
  2
TORNILLERIA
 70
     0
 62
     6
  6
CONTINUOUS
370
    -3
390
32B3
  0
LAYER
  5
532
330
2
100
AcDbSymbolTableRecord
100
AcDbLayerTableRecord
  2
OTROS
 70
     0
 62
     4
  6
CONTINUOUS
370
    -3
390
32B3
  0
LAYER
  5
E9B
330
2
100
AcDbSymbolTableRecord
100
AcDbLayerTableRecord
  2
COTAS
 70
     0
 62
     5
  6
CONTINUOUS
370
    -3
390
32B3
  0
ENDTAB
  0
TABLE
  2
STYLE
  5
3
330
0
100
AcDbSymbolTable
 70
     3
  0
STYLE
  5
10
330
3
100
AcDbSymbolTableRecord
100
AcDbTextStyleTableRecord
  2
STANDARD
 70
     0
 40
0.0
 41
1.0
 50
0.0
 71
     0
 42
7.051976310349573
  3
ISOCP
  4

  0
STYLE
  5
8E
330
3
100
AcDbSymbolTableRecord
100
AcDbTextStyleTableRecord
  2
ROMANS
 70
     0
 40
0.0
 41
1.0
 50
0.0
 71
     0
 42
3.0
  3
romans
  4

  0
STYLE
  5
E9D
330
3
100
AcDbSymbolTableRecord
100
AcDbTextStyleTableRecord
  2
ESTANDAR
 70
     0
 40
0.0
 41
1.0
 50
0.0
 71
     0
 42
0.2
  3
txt
  4

  0
ENDTAB
  0
TABLE
  2
VIEW
  5
6
330
0
100
AcDbSymbolTable
 70
     0
  0
ENDTAB
  0
TABLE
  2
UCS
  5
7
330
0
100
AcDbSymbolTable
 70
     0
  0
ENDTAB
  0
TABLE
  2
APPID
  5
9
330
0
100
AcDbSymbolTable
 70
     6
  0
APPID
  5
11
330
9
100
AcDbSymbolTableRecord
100
AcDbRegAppTableRecord
  2
ACAD
 70
     0
  0
APPID
  5
91
330
9
100
AcDbSymbolTableRecord
100
AcDbRegAppTableRecord
  2
AVE_RENDER
 70
     0
  0
APPID
  5
92
330
9
100
AcDbSymbolTableRecord
100
AcDbRegAppTableRecord
  2
AME_SOL
 70
     0
  0
APPID
  5
EA0
330
9
100
AcDbSymbolTableRecord
100
AcDbRegAppTableRecord
  2
CONTENTBLOCKICON
 70
     0
  0
APPID
  5
32D5
330
9
100
AcDbSymbolTableRecord
100
AcDbRegAppTableRecord
  2
ACAD_PSEXT
 70
     0
  0
APPID
  5
335C
330
9
100
AcDbSymbolTableRecord
100
AcDbRegAppTableRecord
  2
ACAD_MLEADERVER
 70
     0
  0
ENDTAB
  0
TABLE
  2
DIMSTYLE
  5
A
330
0
100
AcDbSymbolTable
 70
     2
100
AcDbDimStyleTable
  0
DIMSTYLE
105
1D
330
A
100
AcDbSymbolTableRecord
100
AcDbDimStyleTableRecord
  2
STANDARD
 70
     0
 41
2.5
 42
0.625
 43
3.75
 44
1.25
 73
     0
 74
     0
 77
     1
 78
     8
140
2.5
141
2.5
143
0.0394
147
0.625
171
     4
172
     1
178
     0
273
     8
274
     4
277
     6
340
10
  0
DIMSTYLE
105
D0
330
A
100
AcDbSymbolTableRecord
100
AcDbDimStyleTableRecord
  2
ISO-25_WS
 70
     0
 41
2.5
 42
0.625
 43
3.75
 44
1.25
 73
     0
 74
     0
 77
     1
 78
     8
140
2.5
141
2.5
143
0.0394
147
0.625
171
     4
172
     1
178
     0
271
     0
272
     0
273
     8
274
     4
340
10
  0
ENDTAB
  0
TABLE
  2
BLOCK_RECORD
  5
1
330
0
100
AcDbSymbolTable
 70
     3
  0
BLOCK_RECORD
  5
1A
330
1
100
AcDbSymbolTableRecord
100
AcDbBlockTableRecord
  2
*MODEL_SPACE
340
32CF
  0
BLOCK_RECORD
  5
17
330
1
100
AcDbSymbolTableRecord
100
AcDbBlockTableRecord
  2
*PAPER_SPACE
340
32D0
  0
BLOCK_RECORD
  5
7F
330
1
100
AcDbSymbolTableRecord
100
AcDbBlockTableRecord
  2
AVE_RENDER
340
0
102
{BLKREFS
331
2D6
331
2D7
331
2D8
331
2D9
331
2DA
331
2DB
331
11B3
331
11B4
331
11B5
331
29B5
331
29B6
331
29B7
331
29B8
331
29B9
331
29BA
331
DE3
331
DE4
331
DE5
102
}
  0
BLOCK_RECORD
  5
82
330
1
100
AcDbSymbolTableRecord
100
AcDbBlockTableRecord
  2
AME_NIL
340
0
102
{BLKREFS
331
2DC
331
2DD
331
2DE
331
B91
331
B92
331
B93
331
1186
331
1187
331
1188
331
11B6
331
11B7
331
11B8
331
11BB
331
11BC
331
11BD
331
DDF
331
DE0
331
DE1
102
}
  0
BLOCK_RECORD
  5
85
330
1
100
AcDbSymbolTableRecord
100
AcDbBlockTableRecord
  2
AME_SOL
340
0
102
{BLKREFS
331
2DF
331
B94
331
1189
331
11B9
331
11BE
331
DE2
102
}
  0
ENDTAB
  0
ENDSEC
  0
SECTION
  2
BLOCKS
  0
BLOCK
  5
1B
330
1A
100
AcDbEntity
  8
0
370
    -1
100
AcDbBlockBegin
  2
*MODEL_SPACE
 70
     0
 10
0.0
 20
0.0
 30
0.0
  3
*MODEL_SPACE
  1

  0
ENDBLK
  5
1C
330
1A
100
AcDbEntity
  8
0
370
    -1
100
AcDbBlockEnd
  0
BLOCK
  5
18
330
17
100
AcDbEntity
 67
     1
  8
0
370
    -1
100
AcDbBlockBegin
  2
*PAPER_SPACE
 70
     0
 10
0.0
 20
0.0
 30
0.0
  3
*PAPER_SPACE
  1

  0
ENDBLK
  5
19
330
17
100
AcDbEntity
 67
     1
  8
0
370
    -1
100
AcDbBlockEnd
  0
BLOCK
  5
80
330
7F
100
AcDbEntity
  8
0
370
    -1
100
AcDbBlockBegin
  2
AVE_RENDER
 70
     0
 10
0.0
 20
0.0
 30
0.0
  3
AVE_RENDER
  1
AVE_RENDER
  0
ENDBLK
  5
81
330
7F
100
AcDbEntity
  8
0
370
    -1
100
AcDbBlockEnd
  0
BLOCK
  5
83
330
82
100
AcDbEntity
  8
0
370
    -1
100
AcDbBlockBegin
  2
AME_NIL
 70
     0
 10
0.0
 20
0.0
 30
0.0
  3
AME_NIL
  1
AME_NIL
  0
ENDBLK
  5
84
330
82
100
AcDbEntity
  8
0
370
    -1
100
AcDbBlockEnd
  0
BLOCK
  5
86
330
85
100
AcDbEntity
  8
0
370
    -1
100
AcDbBlockBegin
  2
AME_SOL
 70
     0
 10
0.0
 20
0.0
 30
0.0
  3
AME_SOL
  1
AME_SOL
  0
ENDBLK
  5
87
330
85
100
AcDbEntity
  8
0
370
    -1
100
AcDbBlockEnd
  0
ENDSEC
  0
SECTION
  2
ENTITIES
  0
INSERT
  5
2D6
330
1A
100
AcDbEntity
  8
ASHADE
 62
     1
370
    -1
100
AcDbBlockReference
  2
AVE_RENDER
 10
0.0
 20
0.0
 30
0.0
1001
AVE_RENDER
1002
{
1070
     2
1000
Pref
1070
    30
1070
    20
1070
     0
1070
     0
1000

1070
    10
1070
     0
1070
    30
1040
1.0
1070
     1
1040
0.3
1040
0.7
1040
0.0
1040
10.0
1010
-1.0
1020
-1.0
1030
-1.0
1040
0.3
1070
    49
1002
}
  0
INSERT
  5
2D7
330
1A
100
AcDbEntity
  8
ASHADE
 62
     3
370
    -1
100
AcDbBlockReference
  2
AVE_RENDER
 10
0.0
 20
0.0
 30
0.0
1001
AVE_RENDER
1002
{
1070
     0
1000
Full Opt
1070
     0
1070
     1
1070
     1
1070
     1
1070
     0
1070
     0
1070
     0
1070
     1
1070
     1
1040
0.0001
1040
0.0001
1002
}
  0
INSERT
  5
2D8
330
1A
100
AcDbEntity
  8
ASHADE
 62
     4
370
    -1
100
AcDbBlockReference
  2
AVE_RENDER
 10
0.0
 20
0.0
 30
0.0
1001
AVE_RENDER
1002
{
1070
     0
1000
Quick Opt
1070
     0
1070
     1
1070
     1
1070
     1
1070
     0
1070
     0
1070
     1
1002
}
  0
INSERT
  5
2D9
330
1A
100
AcDbEntity
  8
ASHADE
 62
     1
370
    -1
100
AcDbBlockReference
  2
AVE_RENDER
 10
0.0
 20
0.0
 30
0.0
1001
AVE_RENDER
1002
{
1070
     2
1000
Pref
1070
    30
1070
    20
1070
     0
1070
     0
1000

1070
    10
1070
     0
1070
    30
1040
1.0
1070
     1
1040
0.3
1040
0.7
1040
0.0
1040
10.0
1010
-1.0
1020
-1.0
1030
-1.0
1040
0.3
1070
    49
1002
}
  0
INSERT
  5
2DA
330
1A
100
AcDbEntity
  8
ASHADE
 62
     3
370
    -1
100
AcDbBlockReference
  2
AVE_RENDER
 10
0.0
 20
0.0
 30
0.0
1001
AVE_RENDER
1002
{
1070
     0
1000
Full Opt
1070
     0
1070
     1
1070
     1
1070
     1
1070
     0
1070
     0
1070
     0
1070
     1
1070
     1
1040
0.0001
1040
0.0001
1002
}
  0
INSERT
  5
2DB
330
1A
100
AcDbEntity
  8
ASHADE
 62
     4
370
    -1
100
AcDbBlockReference
  2
AVE_RENDER
 10
0.0
 20
0.0
 30
0.0
1001
AVE_RENDER
1002
{
1070
     0
1000
Quick Opt
1070
     0
1070
     1
1070
     1
1070
     1
1070
     0
1070
     0
1070
     1
1002
}
  0
INSERT
  5
2DC
330
1A
100
AcDbEntity
  8
SOMBREA
370
    -1
100
AcDbBlockReference
  2
AME_NIL
 10
25.14450809000432
 20
42.42209720895579
 30
0.0
  0
INSERT
  5
2DD
330
1A
100
AcDbEntity
  8
SOMBREA
370
    -1
100
AcDbBlockReference
  2
AME_NIL
 10
26.14450809000432
 20
43.42209720895579
 30
1.0
1001
AME_SOL
1004
C7CF0100AD005601550153014F01470122003A0129012D0017013B001000D90048013F003B019900DD00500149013C015600FD003D012A01B400FB002B01F40081004A013E012C01D1001801910005002D011901FC008E001A011500DA003F012E011B01840053001C01BF000C01F2000F002F011D010D01
1004
BC0079000E01BB0031001E010F016B00390010017400050165000400540151014B014001400030014E0019004101030031011F01FF00B1002001A90080004C01F0004201010032019700590052014D01430133018500E8003401AD0021010900440044013501220175005F002301DF002800360124012100
1004
5400250111014D0064001201D800A7004E0145013701260113016900960014010601EF00EE000701BD00A4002701150108018900380009017300620016010A0101010001F70002011C00D6000B010301BE00520004013D00660038010200C00046012B00390128016700EA00460000007D49F524E2AB4D13
1004
1313373AE652ADC721200C4BCEC721200C4BCECD834E393735323A1C8480312F20390900625E41BADF44E00A7EA12DCA9D9D4721200C4BCEC721200C4BCECD834E393735323A1C8480312F20390900625E41BADF44E00A7EA12D7D44169A8EB75AF9DF517FA85FFFFFFFA85FFFFFFFE675170CA182CF20A2
1004
E1943059E43FFFFFDF517FA85FFFFFFFA85FFFFFFFE675170CA182CF20A2E1943059E43FFFFF509B8FBEE168FF50BFFFFFFF50BFC33E9ECEE7C3CBCE328B8650C16790FF757EB99018AF60D4FD7320315EC1A7FDD77EB99018AF60D5FFFA84FD7320315EC1A56FFFFA84EAF9DF3ADFFFF509B8FAB770B47F
1004
A85FFFFFFFA85FEA2E1943059E43FFFDD5FAE64062BD8353F5CC80C57B069FF75DFAE64062BD8357FFEA13F5CC80C57B0695BFFFEA13ABE77CEB7FFFD426E3EBAEE168FF50BFFFFFFF50BFC33E9ECEE7C3CBCE328B8650C1679DFFBABF5CC80C57B06A7EB99018AF60D3FEEBBF5CC80C57B06AFE9FFA84FD
1004
7320315EC1A56FFD3FF509D5F3BE75BFF4FFD426E3EA5DC2D1FEA17FFFFFFEA17FA8B8650C1679D867D3D9DCF8790A73DFEEAFD7320315EC1A9FAE64062BD834FFBAEFD7320315EC1ABFFF509FAE64062BD834ADFFFF509D5F3BE75BFFFEA1153B2D1C8480312F3B1C8480312F3B360D38E4DCD4C8E87212
1004
00C4BC80E4240189790360D38E4DCD4C84B4E111F8F48EB75AE7F9C22FF50BFFFFFA7FEA3AFE9FFFFFFE67FFFFFFFFFF3845FEA17FFFFF4FFD475FD3FFFFFFCCFFFFFFFFFFA8454ECB4721200C4BCEC721200C4BCEDC94D72C2390E538821C8480312F20390900625E41BADF44E00A7EA12D3844DE3C23AD
1004
D69FDCE117FA85FFFFFFFA85FFFFFFFA8467FFFFFFFFFF3845FEA17FFFFFFEA17FFFFFFEA119FFFFFFFFFF509C7714721200C4BCEC721200C4BCEDC94D72C2390E538821C8480312F20390900625E41BADF44E00A7EA13584676D2AD8CCEDAC233B6956C6641D4D1A1CD39B47D3131685A6A3B78F08FBA85
1004
A6A3B78F08EB75B9A347FA85FFFFFFFA85FFFFFFFA847FD45C32860B3C828B8650C167906B08CEDA55B199DB584676D2AD8CC838EE28E424018979D8E424018979D9B069C726E6A6474390900625E40721200C4BC81B069C726E6A6426B08CEDA55B199DB584676D2AD8CC83A9A34379CE23EB531302D351
1004
CFC7A47DD4FC7A470B4D475BADCD1A3FD42FFFFFFFD42FFFFFFFF3FEA2E1943059E4145C32860B3C83584676D2AD8CCEDAC233B6956C664119A3987F
1005
0
  0
INSERT
  5
2DE
330
1A
100
AcDbEntity
  8
SOMBREA
370
    -1
100
AcDbBlockReference
  2
AME_NIL
 10
26.14450809000432
 20
43.42209720895579
 30
1.0
1001
AME_SOL
1004

1005
0
  0
INSERT
  5
2DF
330
1A
100
AcDbEntity
  8
SOMBREA
370
    -1
100
AcDbBlockReference
  2
AME_SOL
 10
25.14450809000432
 20
42.42209720895579
 30
0.0
1001
AME_SOL
1000
R2.1
1000
AME2
1000
cm^ 2
1070
     3
1070
     0
1070
     3
1000
wire
1040
45.0
1000
U
1040
1.0
1000
mm
1000
gm
1000
MILD_STEEL
1070
    25
1000
CSG
1070
     1
1070
     3
1070
     3
1070
     6
1070
     0
1000
cm^ 3
1070
     1
1070
     0
1005
0
  0
LINE
  5
51C
330
1A
100
AcDbEntity
  8
BANDEJAS
370
    -1
100
AcDbLine
 10
81.4622856443705
 20
234.5596811812905
 30
0.0
 11
81.46228564437052
 21
190.8096811812905
 31
0.0
  0
LINE
  5
51D
330
1A
100
AcDbEntity
  8
BANDEJAS
370
    -1
100
AcDbLine
 10
85.9622856443705
 20
234.5596811812905
 30
0.0
 11
85.96228564437052
 21
190.8096811812905
 31
0.0
  0
LINE
  5
51E
330
1A
100
AcDbEntity
  8
BANDEJAS
370
    -1
100
AcDbLine
 10
272.4622856443706
 20
234.5596811812904
 30
0.0
 11
272.4622856443706
 21
190.8096811812904
 31
0.0
  0
LINE
  5
51F
330
1A
100
AcDbEntity
  8
BANDEJAS
370
    -1
100
AcDbLine
 10
267.9622856443706
 20
234.5596811812904
 30
0.0
 11
267.9622856443706
 21
190.8096811812904
 31
0.0
  0
CIRCLE
  5
525
330
1A
100
AcDbEntity
  8
BANDEJAS
370
    -1
100
AcDbCircle
 10
79.21228564437048
 20
234.5596811812906
 30
0.0
 40
2.25
  0
ARC
  5
526
330
1A
100
AcDbEntity
  8
BANDEJAS
370
    -1
100
AcDbCircle
 10
83.71228564437048
 20
234.5596811812906
 30
0.0
 40
2.25
100
AcDbArc
 50
0.0
 51
180.0
  0
ARC
  5
527
330
1A
100
AcDbEntity
  8
BANDEJAS
370
    -1
100
AcDbCircle
 10
270.2122856443706
 20
234.5596811812904
 30
0.0
 40
2.25
100
AcDbArc
 50
0.0
 51
180.0
  0
CIRCLE
  5
528
330
1A
100
AcDbEntity
  8
BANDEJAS
370
    -1
100
AcDbCircle
 10
274.7122856443706
 20
234.5596811812904
 30
0.0
 40
2.25
  0
CIRCLE
  5
529
330
1A
100
AcDbEntity
  8
BANDEJAS
370
    -1
100
AcDbCircle
 10
79.21228564437048
 20
206.0596811812906
 30
0.0
 40
2.25
  0
CIRCLE
  5
52A
330
1A
100
AcDbEntity
  8
BANDEJAS
370
    -1
100
AcDbCircle
 10
274.7122856443705
 20
206.0596811812904
 30
0.0
 40
2.25
  0
ARC
  5
52B
330
1A
100
AcDbEntity
  8
BANDEJAS
370
    -1
100
AcDbCircle
 10
90.96228564437054
 20
190.8096811812905
 30
0.0
 40
5.0
100
AcDbArc
 50
180.0
 51
270.0
  0
ARC
  5
52C
330
1A
100
AcDbEntity
  8
BANDEJAS
370
    -1
100
AcDbCircle
 10
262.9622856443706
 20
190.8096811812904
 30
0.0
 40
5.0
100
AcDbArc
 50
270.0
 51
0.0000000000000799
  0
ARC
  5
52D
330
1A
100
AcDbEntity
  8
BANDEJAS
370
    -1
100
AcDbCircle
 10
90.96228564437054
 20
190.8096811812905
 30
0.0
 40
9.5
100
AcDbArc
 50
180.0
 51
270.0
  0
ARC
  5
52E
330
1A
100
AcDbEntity
  8
BANDEJAS
370
    -1
100
AcDbCircle
 10
262.9622856443706
 20
190.8096811812904
 30
0.0
 40
9.5
100
AcDbArc
 50
270.0
 51
0.0000000000000799
  0
CIRCLE
  5
5B1
330
1A
100
AcDbEntity
  8
BANDEJAS
370
    -1
100
AcDbCircle
 10
101.9622856443706
 20
179.0596811812905
 30
0.0
 40
2.25
  0
CIRCLE
  5
5B2
330
1A
100
AcDbEntity
  8
BANDEJAS
370
    -1
100
AcDbCircle
 10
151.9622856443706
 20
179.0596811812905
 30
0.0
 40
2.25
  0
INSERT
  5
B91
330
1A
100
AcDbEntity
  8
SOMBREA
370
    -1
100
AcDbBlockReference
  2
AME_NIL
 10
404.8909553890958
 20
164.7051795196725
 30
0.0
 41
0.5
 42
0.5
 43
0.5
  0
INSERT
  5
B92
330
1A
100
AcDbEntity
  8
SOMBREA
370
    -1
100
AcDbBlockReference
  2
AME_NIL
 10
405.3909553890958
 20
165.2051795196725
 30
0.5
 41
0.5
 42
0.5
 43
0.5
1001
AME_SOL
1004
C7CF0100AD005601550153014F01470122003A0129012D0017013B001000D90048013F003B019900DD00500149013C015600FD003D012A01B400FB002B01F40081004A013E012C01D1001801910005002D011901FC008E001A011500DA003F012E011B01840053001C01BF000C01F2000F002F011D010D01
1004
BC0079000E01BB0031001E010F016B00390010017400050165000400540151014B014001400030014E0019004101030031011F01FF00B1002001A90080004C01F0004201010032019700590052014D01430133018500E8003401AD0021010900440044013501220175005F002301DF002800360124012100
1004
5400250111014D0064001201D800A7004E0145013701260113016900960014010601EF00EE000701BD00A4002701150108018900380009017300620016010A0101010001F70002011C00D6000B010301BE00520004013D00660038010200C00046012B00390128016700EA00460000007D49F524E2AB4D13
1004
1313373AE652ADC721200C4BCEC721200C4BCECD834E393735323A1C8480312F20390900625E41BADF44E00A7EA12DCA9D9D4721200C4BCEC721200C4BCECD834E393735323A1C8480312F20390900625E41BADF44E00A7EA12D7D44169A8EB75AF9DF517FA85FFFFFFFA85FFFFFFFE675170CA182CF20A2
1004
E1943059E43FFFFFDF517FA85FFFFFFFA85FFFFFFFE675170CA182CF20A2E1943059E43FFFFF509B8FBEE168FF50BFFFFFFF50BFC33E9ECEE7C3CBCE328B8650C16790FF757EB99018AF60D4FD7320315EC1A7FDD77EB99018AF60D5FFFA84FD7320315EC1A56FFFFA84EAF9DF3ADFFFF509B8FAB770B47F
1004
A85FFFFFFFA85FEA2E1943059E43FFFDD5FAE64062BD8353F5CC80C57B069FF75DFAE64062BD8357FFEA13F5CC80C57B0695BFFFEA13ABE77CEB7FFFD426E3EBAEE168FF50BFFFFFFF50BFC33E9ECEE7C3CBCE328B8650C1679DFFBABF5CC80C57B06A7EB99018AF60D3FEEBBF5CC80C57B06AFE9FFA84FD
1004
7320315EC1A56FFD3FF509D5F3BE75BFF4FFD426E3EA5DC2D1FEA17FFFFFFEA17FA8B8650C1679D867D3D9DCF8790A73DFEEAFD7320315EC1A9FAE64062BD834FFBAEFD7320315EC1ABFFF509FAE64062BD834ADFFFF509D5F3BE75BFFFEA1153B2D1C8480312F3B1C8480312F3B360D38E4DCD4C8E87212
1004
00C4BC80E4240189790360D38E4DCD4C84B4E111F8F48EB75AE7F9C22FF50BFFFFFA7FEA3AFE9FFFFFFE67FFFFFFFFFF3845FEA17FFFFF4FFD475FD3FFFFFFCCFFFFFFFFFFA8454ECB4721200C4BCEC721200C4BCEDC94D72C2390E538821C8480312F20390900625E41BADF44E00A7EA12D3844DE3C23AD
1004
D69FDCE117FA85FFFFFFFA85FFFFFFFA8467FFFFFFFFFF3845FEA17FFFFFFEA17FFFFFFEA119FFFFFFFFFF509C7714721200C4BCEC721200C4BCEDC94D72C2390E538821C8480312F20390900625E41BADF44E00A7EA13584676D2AD8CCEDAC233B6956C6641D4D1A1CD39B47D3131685A6A3B78F08FBA85
1004
A6A3B78F08EB75B9A347FA85FFFFFFFA85FFFFFFFA847FD45C32860B3C828B8650C167906B08CEDA55B199DB584676D2AD8CC838EE28E424018979D8E424018979D9B069C726E6A6474390900625E40721200C4BC81B069C726E6A6426B08CEDA55B199DB584676D2AD8CC83A9A34379CE23EB531302D351
1004
CFC7A47DD4FC7A470B4D475BADCD1A3FD42FFFFFFFD42FFFFFFFF3FEA2E1943059E4145C32860B3C83584676D2AD8CCEDAC233B6956C664119A3987F
1005
0
  0
INSERT
  5
B93
330
1A
100
AcDbEntity
  8
SOMBREA
370
    -1
100
AcDbBlockReference
  2
AME_NIL
 10
405.3909553890958
 20
165.2051795196725
 30
0.5
 41
0.5
 42
0.5
 43
0.5
1001
AME_SOL
1004

1005
0
  0
INSERT
  5
B94
330
1A
100
AcDbEntity
  8
SOMBREA
370
    -1
100
AcDbBlockReference
  2
AME_SOL
 10
404.8909553890958
 20
164.7051795196725
 30
0.0
 41
0.5
 42
0.5
 43
0.5
1001
AME_SOL
1000
R2.1
1000
AME2
1000
cm^ 2
1070
     3
1070
     0
1070
     3
1000
wire
1040
45.0
1000
U
1040
1.0
1000
mm
1000
gm
1000
MILD_STEEL
1070
    25
1000
CSG
1070
     1
1070
     3
1070
     3
1070
     6
1070
     0
1000
cm^ 3
1070
     1
1070
     0
1005
0
  0
CIRCLE
  5
E2A
330
1A
100
AcDbEntity
  8
BANDEJAS
370
    -1
100
AcDbCircle
 10
201.9622856443706
 20
179.0596811812905
 30
0.0
 40
2.25
  0
CIRCLE
  5
E2B
330
1A
100
AcDbEntity
  8
BANDEJAS
370
    -1
100
AcDbCircle
 10
251.9622856443706
 20
179.0596811812904
 30
0.0
 40
2.25
  0
TEXT
  5
117D
330
1A
100
AcDbEntity
  8
COTAS
370
    -1
100
AcDbText
 10
505.2631392972718
 20
670.3675589196899
 30
0.0
 40
6.0
  1

 50
180.0
  7
ROMANS
 71
     4
100
AcDbText
  0
TEXT
  5
117E
330
1A
100
AcDbEntity
  8
COTAS
370
    -1
100
AcDbText
 10
478.1792044038297
 20
670.3675582865346
 30
0.0
 40
6.0
  1

 50
180.0
  7
ROMANS
 71
     4
100
AcDbText
  0
TEXT
  5
117F
330
1A
100
AcDbEntity
  8
COTAS
370
    -1
100
AcDbText
 10
559.4746235581213
 20
670.318817129967
 30
0.0
 40
6.0
  1

 50
180.0
  7
ROMANS
 71
     4
100
AcDbText
  0
TEXT
  5
1180
330
1A
100
AcDbEntity
  8
COTAS
370
    -1
100
AcDbText
 10
443.266099286081
 20
669.9907404766059
 30
0.0
 40
6.0
  1

 50
180.0
  7
ROMANS
 71
     4
100
AcDbText
  0
TEXT
  5
1181
330
1A
100
AcDbEntity
  8
COTAS
370
    -1
100
AcDbText
 10
326.0088737328601
 20
754.5104545621772
 30
0.0
 40
6.0
  1
  
 50
180.0
  7
ROMANS
 71
     4
 11
326.0088737328601
 21
757.5104545621772
 31
0.0
100
AcDbText
 73
     2
  0
MTEXT
  5
1182
330
1A
100
AcDbEntity
  8
COTAS
370
    -1
100
AcDbMText
 10
855.6838885994687
 20
426.5826430211356
 30
0.0
 40
2.5
 41
0.0
 71
     4
 72
     1
  1
\A1;
  7
ROMANS
 73
     1
 44
1.0
  0
TEXT
  5
1183
330
1A
100
AcDbEntity
  8
0
370
    -1
100
AcDbText
 10
3.753981845563203
 20
1290.840905577108
 30
0.0
 40
2.5
  1
 
 50
180.0
 71
     4
100
AcDbText
  0
TEXT
  5
1184
330
1A
100
AcDbEntity
  8
0
370
    -1
100
AcDbText
 10
4.878981845563203
 20
1055.97924642931
 30
0.0
 40
4.0
  1
 
 50
180.0
  7
ROMANS
 71
     4
100
AcDbText
  0
TEXT
  5
1185
330
1A
100
AcDbEntity
  8
0
370
    -1
100
AcDbText
 10
369.4149421845007
 20
1078.950311240537
 30
0.0
 40
5.0
  1
 
 50
180.0
  7
ROMANS
 71
     4
100
AcDbText
  0
INSERT
  5
1186
330
1A
100
AcDbEntity
  8
SOMBREA
370
    -1
100
AcDbBlockReference
  2
AME_NIL
 10
263.361729605527
 20
234.0318851053472
 30
0.0
  0
INSERT
  5
1187
330
1A
100
AcDbEntity
  8
SOMBREA
370
    -1
100
AcDbBlockReference
  2
AME_NIL
 10
264.361729605527
 20
235.0318851053472
 30
1.0
1001
AME_SOL
1004
C7CF0100AD005601550153014F01470122003A0129012D0017013B001000D90048013F003B019900DD00500149013C015600FD003D012A01B400FB002B01F40081004A013E012C01D1001801910005002D011901FC008E001A011500DA003F012E011B01840053001C01BF000C01F2000F002F011D010D01
1004
BC0079000E01BB0031001E010F016B00390010017400050165000400540151014B014001400030014E0019004101030031011F01FF00B1002001A90080004C01F0004201010032019700590052014D01430133018500E8003401AD0021010900440044013501220175005F002301DF002800360124012100
1004
5400250111014D0064001201D800A7004E0145013701260113016900960014010601EF00EE000701BD00A4002701150108018900380009017300620016010A0101010001F70002011C00D6000B010301BE00520004013D00660038010200C00046012B00390128016700EA00460000007D49F524E2AB4D13
1004
1313373AE652ADC721200C4BCEC721200C4BCECD834E393735323A1C8480312F20390900625E41BADF44E00A7EA12DCA9D9D4721200C4BCEC721200C4BCECD834E393735323A1C8480312F20390900625E41BADF44E00A7EA12D7D44169A8EB75AF9DF517FA85FFFFFFFA85FFFFFFFE675170CA182CF20A2
1004
E1943059E43FFFFFDF517FA85FFFFFFFA85FFFFFFFE675170CA182CF20A2E1943059E43FFFFF509B8FBEE168FF50BFFFFFFF50BFC33E9ECEE7C3CBCE328B8650C16790FF757EB99018AF60D4FD7320315EC1A7FDD77EB99018AF60D5FFFA84FD7320315EC1A56FFFFA84EAF9DF3ADFFFF509B8FAB770B47F
1004
A85FFFFFFFA85FEA2E1943059E43FFFDD5FAE64062BD8353F5CC80C57B069FF75DFAE64062BD8357FFEA13F5CC80C57B0695BFFFEA13ABE77CEB7FFFD426E3EBAEE168FF50BFFFFFFF50BFC33E9ECEE7C3CBCE328B8650C1679DFFBABF5CC80C57B06A7EB99018AF60D3FEEBBF5CC80C57B06AFE9FFA84FD
1004
7320315EC1A56FFD3FF509D5F3BE75BFF4FFD426E3EA5DC2D1FEA17FFFFFFEA17FA8B8650C1679D867D3D9DCF8790A73DFEEAFD7320315EC1A9FAE64062BD834FFBAEFD7320315EC1ABFFF509FAE64062BD834ADFFFF509D5F3BE75BFFFEA1153B2D1C8480312F3B1C8480312F3B360D38E4DCD4C8E87212
1004
00C4BC80E4240189790360D38E4DCD4C84B4E111F8F48EB75AE7F9C22FF50BFFFFFA7FEA3AFE9FFFFFFE67FFFFFFFFFF3845FEA17FFFFF4FFD475FD3FFFFFFCCFFFFFFFFFFA8454ECB4721200C4BCEC721200C4BCEDC94D72C2390E538821C8480312F20390900625E41BADF44E00A7EA12D3844DE3C23AD
1004
D69FDCE117FA85FFFFFFFA85FFFFFFFA8467FFFFFFFFFF3845FEA17FFFFFFEA17FFFFFFEA119FFFFFFFFFF509C7714721200C4BCEC721200C4BCEDC94D72C2390E538821C8480312F20390900625E41BADF44E00A7EA13584676D2AD8CCEDAC233B6956C6641D4D1A1CD39B47D3131685A6A3B78F08FBA85
1004
A6A3B78F08EB75B9A347FA85FFFFFFFA85FFFFFFFA847FD45C32860B3C828B8650C167906B08CEDA55B199DB584676D2AD8CC838EE28E424018979D8E424018979D9B069C726E6A6474390900625E40721200C4BC81B069C726E6A6426B08CEDA55B199DB584676D2AD8CC83A9A34379CE23EB531302D351
1004
CFC7A47DD4FC7A470B4D475BADCD1A3FD42FFFFFFFD42FFFFFFFF3FEA2E1943059E4145C32860B3C83584676D2AD8CCEDAC233B6956C664119A3987F
1005
1188
  0
INSERT
  5
1188
330
1A
100
AcDbEntity
  8
SOMBREA
370
    -1
100
AcDbBlockReference
  2
AME_NIL
 10
264.361729605527
 20
235.0318851053472
 30
1.0
1001
AME_SOL
1004

1005
0
  0
INSERT
  5
1189
330
1A
100
AcDbEntity
  8
SOMBREA
370
    -1
100
AcDbBlockReference
  2
AME_SOL
 10
263.361729605527
 20
234.0318851053472
 30
0.0
1001
AME_SOL
1000
R2.1
1000
AME2
1000
cm^ 2
1070
     3
1070
     0
1070
     3
1000
wire
1040
45.0
1000
U
1040
1.0
1000
mm
1000
gm
1000
MILD_STEEL
1070
    25
1000
CSG
1070
     1
1070
     3
1070
     3
1070
     6
1070
     0
1000
cm^ 3
1070
     1
1070
     0
1005
1186
  0
INSERT
  5
11B3
330
1A
100
AcDbEntity
  8
ASHADE
 62
     1
370
    -1
100
AcDbBlockReference
  2
AVE_RENDER
 10
346.5063288426743
 20
530.9966622088186
 30
0.0
1001
AVE_RENDER
1002
{
1070
     2
1000
Pref
1070
    30
1070
    20
1070
     0
1070
     0
1000

1070
    10
1070
     0
1070
    30
1040
1.0
1070
     1
1040
0.3
1040
0.7
1040
0.0
1040
10.0
1010
-1.0
1020
-1.0
1030
-1.0
1040
0.3
1070
    49
1002
}
  0
INSERT
  5
11B4
330
1A
100
AcDbEntity
  8
ASHADE
 62
     3
370
    -1
100
AcDbBlockReference
  2
AVE_RENDER
 10
346.5063288426743
 20
530.9966622088186
 30
0.0
1001
AVE_RENDER
1002
{
1070
     0
1000
Full Opt
1070
     0
1070
     1
1070
     1
1070
     1
1070
     0
1070
     0
1070
     0
1070
     1
1070
     1
1040
0.0001
1040
0.0001
1002
}
  0
INSERT
  5
11B5
330
1A
100
AcDbEntity
  8
ASHADE
 62
     4
370
    -1
100
AcDbBlockReference
  2
AVE_RENDER
 10
346.5063288426743
 20
530.9966622088186
 30
0.0
1001
AVE_RENDER
1002
{
1070
     0
1000
Quick Opt
1070
     0
1070
     1
1070
     1
1070
     1
1070
     0
1070
     0
1070
     1
1002
}
  0
INSERT
  5
11B6
330
1A
100
AcDbEntity
  8
SOMBREA
370
    -1
100
AcDbBlockReference
  2
AME_NIL
 10
236.2642226031377
 20
447.229115660522
 30
0.0
  0
INSERT
  5
11B7
330
1A
100
AcDbEntity
  8
SOMBREA
370
    -1
100
AcDbBlockReference
  2
AME_NIL
 10
237.2642226031377
 20
448.229115660522
 30
1.0
1001
AME_SOL
1004
C7CF0100AD005601550153014F01470122003A0129012D0017013B001000D90048013F003B019900DD00500149013C015600FD003D012A01B400FB002B01F40081004A013E012C01D1001801910005002D011901FC008E001A011500DA003F012E011B01840053001C01BF000C01F2000F002F011D010D01
1004
BC0079000E01BB0031001E010F016B00390010017400050165000400540151014B014001400030014E0019004101030031011F01FF00B1002001A90080004C01F0004201010032019700590052014D01430133018500E8003401AD0021010900440044013501220175005F002301DF002800360124012100
1004
5400250111014D0064001201D800A7004E0145013701260113016900960014010601EF00EE000701BD00A4002701150108018900380009017300620016010A0101010001F70002011C00D6000B010301BE00520004013D00660038010200C00046012B00390128016700EA00460000007D49F524E2AB4D13
1004
1313373AE652ADC721200C4BCEC721200C4BCECD834E393735323A1C8480312F20390900625E41BADF44E00A7EA12DCA9D9D4721200C4BCEC721200C4BCECD834E393735323A1C8480312F20390900625E41BADF44E00A7EA12D7D44169A8EB75AF9DF517FA85FFFFFFFA85FFFFFFFE675170CA182CF20A2
1004
E1943059E43FFFFFDF517FA85FFFFFFFA85FFFFFFFE675170CA182CF20A2E1943059E43FFFFF509B8FBEE168FF50BFFFFFFF50BFC33E9ECEE7C3CBCE328B8650C16790FF757EB99018AF60D4FD7320315EC1A7FDD77EB99018AF60D5FFFA84FD7320315EC1A56FFFFA84EAF9DF3ADFFFF509B8FAB770B47F
1004
A85FFFFFFFA85FEA2E1943059E43FFFDD5FAE64062BD8353F5CC80C57B069FF75DFAE64062BD8357FFEA13F5CC80C57B0695BFFFEA13ABE77CEB7FFFD426E3EBAEE168FF50BFFFFFFF50BFC33E9ECEE7C3CBCE328B8650C1679DFFBABF5CC80C57B06A7EB99018AF60D3FEEBBF5CC80C57B06AFE9FFA84FD
1004
7320315EC1A56FFD3FF509D5F3BE75BFF4FFD426E3EA5DC2D1FEA17FFFFFFEA17FA8B8650C1679D867D3D9DCF8790A73DFEEAFD7320315EC1A9FAE64062BD834FFBAEFD7320315EC1ABFFF509FAE64062BD834ADFFFF509D5F3BE75BFFFEA1153B2D1C8480312F3B1C8480312F3B360D38E4DCD4C8E87212
1004
00C4BC80E4240189790360D38E4DCD4C84B4E111F8F48EB75AE7F9C22FF50BFFFFFA7FEA3AFE9FFFFFFE67FFFFFFFFFF3845FEA17FFFFF4FFD475FD3FFFFFFCCFFFFFFFFFFA8454ECB4721200C4BCEC721200C4BCEDC94D72C2390E538821C8480312F20390900625E41BADF44E00A7EA12D3844DE3C23AD
1004
D69FDCE117FA85FFFFFFFA85FFFFFFFA8467FFFFFFFFFF3845FEA17FFFFFFEA17FFFFFFEA119FFFFFFFFFF509C7714721200C4BCEC721200C4BCEDC94D72C2390E538821C8480312F20390900625E41BADF44E00A7EA13584676D2AD8CCEDAC233B6956C6641D4D1A1CD39B47D3131685A6A3B78F08FBA85
1004
A6A3B78F08EB75B9A347FA85FFFFFFFA85FFFFFFFA847FD45C32860B3C828B8650C167906B08CEDA55B199DB584676D2AD8CC838EE28E424018979D8E424018979D9B069C726E6A6474390900625E40721200C4BC81B069C726E6A6426B08CEDA55B199DB584676D2AD8CC83A9A34379CE23EB531302D351
1004
CFC7A47DD4FC7A470B4D475BADCD1A3FD42FFFFFFFD42FFFFFFFF3FEA2E1943059E4145C32860B3C83584676D2AD8CCEDAC233B6956C664119A3987F
1005
11B8
  0
INSERT
  5
11B8
330
1A
100
AcDbEntity
  8
SOMBREA
370
    -1
100
AcDbBlockReference
  2
AME_NIL
 10
237.2642226031377
 20
448.229115660522
 30
1.0
1001
AME_SOL
1004

1005
0
  0
INSERT
  5
11B9
330
1A
100
AcDbEntity
  8
SOMBREA
370
    -1
100
AcDbBlockReference
  2
AME_SOL
 10
236.2642226031377
 20
447.229115660522
 30
0.0
1001
AME_SOL
1000
R2.1
1000
AME2
1000
cm^ 2
1070
     3
1070
     0
1070
     3
1000
wire
1040
45.0
1000
U
1040
1.0
1000
mm
1000
gm
1000
MILD_STEEL
1070
    25
1000
CSG
1070
     1
1070
     3
1070
     3
1070
     6
1070
     0
1000
cm^ 3
1070
     1
1070
     0
1005
11B6
  0
INSERT
  5
11BB
330
1A
100
AcDbEntity
  8
SOMBREA
370
    -1
100
AcDbBlockReference
  2
AME_NIL
 10
264.0847261777661
 20
824.3487302630572
 30
0.0
  0
INSERT
  5
11BC
330
1A
100
AcDbEntity
  8
SOMBREA
370
    -1
100
AcDbBlockReference
  2
AME_NIL
 10
265.0847261777661
 20
825.3487302630572
 30
1.0
1001
AME_SOL
1004
C7CF0100AD005601550153014F01470122003A0129012D0017013B001000D90048013F003B019900DD00500149013C015600FD003D012A01B400FB002B01F40081004A013E012C01D1001801910005002D011901FC008E001A011500DA003F012E011B01840053001C01BF000C01F2000F002F011D010D01
1004
BC0079000E01BB0031001E010F016B00390010017400050165000400540151014B014001400030014E0019004101030031011F01FF00B1002001A90080004C01F0004201010032019700590052014D01430133018500E8003401AD0021010900440044013501220175005F002301DF002800360124012100
1004
5400250111014D0064001201D800A7004E0145013701260113016900960014010601EF00EE000701BD00A4002701150108018900380009017300620016010A0101010001F70002011C00D6000B010301BE00520004013D00660038010200C00046012B00390128016700EA00460000007D49F524E2AB4D13
1004
1313373AE652ADC721200C4BCEC721200C4BCECD834E393735323A1C8480312F20390900625E41BADF44E00A7EA12DCA9D9D4721200C4BCEC721200C4BCECD834E393735323A1C8480312F20390900625E41BADF44E00A7EA12D7D44169A8EB75AF9DF517FA85FFFFFFFA85FFFFFFFE675170CA182CF20A2
1004
E1943059E43FFFFFDF517FA85FFFFFFFA85FFFFFFFE675170CA182CF20A2E1943059E43FFFFF509B8FBEE168FF50BFFFFFFF50BFC33E9ECEE7C3CBCE328B8650C16790FF757EB99018AF60D4FD7320315EC1A7FDD77EB99018AF60D5FFFA84FD7320315EC1A56FFFFA84EAF9DF3ADFFFF509B8FAB770B47F
1004
A85FFFFFFFA85FEA2E1943059E43FFFDD5FAE64062BD8353F5CC80C57B069FF75DFAE64062BD8357FFEA13F5CC80C57B0695BFFFEA13ABE77CEB7FFFD426E3EBAEE168FF50BFFFFFFF50BFC33E9ECEE7C3CBCE328B8650C1679DFFBABF5CC80C57B06A7EB99018AF60D3FEEBBF5CC80C57B06AFE9FFA84FD
1004
7320315EC1A56FFD3FF509D5F3BE75BFF4FFD426E3EA5DC2D1FEA17FFFFFFEA17FA8B8650C1679D867D3D9DCF8790A73DFEEAFD7320315EC1A9FAE64062BD834FFBAEFD7320315EC1ABFFF509FAE64062BD834ADFFFF509D5F3BE75BFFFEA1153B2D1C8480312F3B1C8480312F3B360D38E4DCD4C8E87212
1004
00C4BC80E4240189790360D38E4DCD4C84B4E111F8F48EB75AE7F9C22FF50BFFFFFA7FEA3AFE9FFFFFFE67FFFFFFFFFF3845FEA17FFFFF4FFD475FD3FFFFFFCCFFFFFFFFFFA8454ECB4721200C4BCEC721200C4BCEDC94D72C2390E538821C8480312F20390900625E41BADF44E00A7EA12D3844DE3C23AD
1004
D69FDCE117FA85FFFFFFFA85FFFFFFFA8467FFFFFFFFFF3845FEA17FFFFFFEA17FFFFFFEA119FFFFFFFFFF509C7714721200C4BCEC721200C4BCEDC94D72C2390E538821C8480312F20390900625E41BADF44E00A7EA13584676D2AD8CCEDAC233B6956C6641D4D1A1CD39B47D3131685A6A3B78F08FBA85
1004
A6A3B78F08EB75B9A347FA85FFFFFFFA85FFFFFFFA847FD45C32860B3C828B8650C167906B08CEDA55B199DB584676D2AD8CC838EE28E424018979D8E424018979D9B069C726E6A6474390900625E40721200C4BC81B069C726E6A6426B08CEDA55B199DB584676D2AD8CC83A9A34379CE23EB531302D351
1004
CFC7A47DD4FC7A470B4D475BADCD1A3FD42FFFFFFFD42FFFFFFFF3FEA2E1943059E4145C32860B3C83584676D2AD8CCEDAC233B6956C664119A3987F
1005
11BD
  0
INSERT
  5
11BD
330
1A
100
AcDbEntity
  8
SOMBREA
370
    -1
100
AcDbBlockReference
  2
AME_NIL
 10
265.0847261777661
 20
825.3487302630572
 30
1.0
1001
AME_SOL
1004

1005
0
  0
INSERT
  5
11BE
330
1A
100
AcDbEntity
  8
SOMBREA
370
    -1
100
AcDbBlockReference
  2
AME_SOL
 10
264.0847261777661
 20
824.3487302630572
 30
0.0
1001
AME_SOL
1000
R2.1
1000
AME2
1000
cm^ 2
1070
     3
1070
     0
1070
     3
1000
wire
1040
45.0
1000
U
1040
1.0
1000
mm
1000
gm
1000
MILD_STEEL
1070
    25
1000
CSG
1070
     1
1070
     3
1070
     3
1070
     6
1070
     0
1000
cm^ 3
1070
     1
1070
     0
1005
11BB
  0
TEXT
  5
11BF
330
1A
100
AcDbEntity
  8
COTAS
370
    -1
100
AcDbText
 10
1413.828296766366
 20
949.0973554570219
 30
0.0
 40
6.0
  1

  7
ROMANS
100
AcDbText
  0
TEXT
  5
11C0
330
1A
100
AcDbEntity
  8
COTAS
370
    -1
100
AcDbText
 10
1440.912231659808
 20
949.0973548238666
 30
0.0
 40
6.0
  1

  7
ROMANS
100
AcDbText
  0
TEXT
  5
11C1
330
1A
100
AcDbEntity
  8
COTAS
370
    -1
100
AcDbText
 10
1359.616812505517
 20
949.0486136672989
 30
0.0
 40
6.0
  1

  7
ROMANS
100
AcDbText
  0
TEXT
  5
11C2
330
1A
100
AcDbEntity
  8
COTAS
370
    -1
100
AcDbText
 10
1475.825336777557
 20
948.7205370139378
 30
0.0
 40
6.0
  1

  7
ROMANS
100
AcDbText
  0
TEXT
  5
11C3
330
1A
100
AcDbEntity
  8
COTAS
370
    -1
100
AcDbText
 10
1593.082562330778
 20
1033.240251099509
 30
0.0
 40
6.0
  1
  
  7
ROMANS
 11
1593.082562330778
 21
1036.240251099509
 31
0.0
100
AcDbText
 73
     2
  0
MTEXT
  5
11C4
330
1A
100
AcDbEntity
  8
COTAS
370
    -1
100
AcDbMText
 10
336.0573483410706
 20
446.9921376446039
 30
0.0
 40
5.0
 41
0.0
 71
     4
 72
     1
  1
\A1;
  7
ESTANDAR
 73
     1
 44
1.0
  0
MTEXT
  5
11C5
330
1A
100
AcDbEntity
  8
COTAS
370
    -1
100
AcDbMText
 10
931.627704555367
 20
1108.29080878721
 30
0.0
 40
2.5
 41
0.0
 71
     6
 72
     1
  1
\A1; 
 73
     1
 44
1.0
  0
MTEXT
  5
11C6
330
1A
100
AcDbEntity
  8
COTAS
370
    -1
100
AcDbMText
 10
933.502704555367
 20
874.1791496394125
 30
0.0
 40
4.0
 41
0.0
 71
     6
 72
     1
  1
\A1; 
  7
ROMANS
 73
     1
 44
1.0
  0
MTEXT
  5
1868
330
1A
100
AcDbEntity
  8
COTAS
370
    -1
100
AcDbMText
 10
324.3189830453316
 20
862.254110060763
 30
0.0
 40
2.5
 41
0.0
 71
     6
 72
     1
  1
\A1; 
 73
     1
 44
1.0
  0
MTEXT
  5
1869
330
1A
100
AcDbEntity
  8
COTAS
370
    -1
100
AcDbMText
 10
326.1939830453316
 20
628.142450912965
 30
0.0
 40
4.0
 41
0.0
 71
     6
 72
     1
  1
\A1; 
  7
ROMANS
 73
     1
 44
1.0
  0
LINE
  5
248B
330
1A
100
AcDbEntity
  8
BANDEJAS
370
    -1
100
AcDbLine
 10
90.96228564437052
 20
181.3096811812905
 30
0.0
 11
97.88385851962443
 21
181.3096811812904
 31
0.0
  0
LINE
  5
248C
330
1A
100
AcDbEntity
  8
BANDEJAS
370
    -1
100
AcDbLine
 10
90.96228564437052
 20
185.8096811812905
 30
0.0
 11
103.3622856443706
 21
185.8096811812904
 31
0.0
  0
INSERT
  5
29B5
330
1A
100
AcDbEntity
  8
ASHADE
 62
     1
370
    -1
100
AcDbBlockReference
  2
AVE_RENDER
 10
188.4624295034171
 20
97.53276090536508
 30
0.0
1001
AVE_RENDER
1002
{
1070
     2
1000
Pref
1070
    30
1070
    20
1070
     0
1070
     0
1000

1070
    10
1070
     0
1070
    30
1040
1.0
1070
     1
1040
0.3
1040
0.7
1040
0.0
1040
10.0
1010
-1.0
1020
-1.0
1030
-1.0
1040
0.3
1070
    49
1002
}
  0
INSERT
  5
29B6
330
1A
100
AcDbEntity
  8
ASHADE
 62
     3
370
    -1
100
AcDbBlockReference
  2
AVE_RENDER
 10
188.4624295034171
 20
97.53276090536508
 30
0.0
1001
AVE_RENDER
1002
{
1070
     0
1000
Full Opt
1070
     0
1070
     1
1070
     1
1070
     1
1070
     0
1070
     0
1070
     0
1070
     1
1070
     1
1040
0.0001
1040
0.0001
1002
}
  0
INSERT
  5
29B7
330
1A
100
AcDbEntity
  8
ASHADE
 62
     4
370
    -1
100
AcDbBlockReference
  2
AVE_RENDER
 10
188.4624295034171
 20
97.53276090536508
 30
0.0
1001
AVE_RENDER
1002
{
1070
     0
1000
Quick Opt
1070
     0
1070
     1
1070
     1
1070
     1
1070
     0
1070
     0
1070
     1
1002
}
  0
INSERT
  5
29B8
330
1A
100
AcDbEntity
  8
ASHADE
 62
     1
370
    -1
100
AcDbBlockReference
  2
AVE_RENDER
 10
188.4624295034171
 20
97.53276090536508
 30
0.0
1001
AVE_RENDER
1002
{
1070
     2
1000
Pref
1070
    30
1070
    20
1070
     0
1070
     0
1000

1070
    10
1070
     0
1070
    30
1040
1.0
1070
     1
1040
0.3
1040
0.7
1040
0.0
1040
10.0
1010
-1.0
1020
-1.0
1030
-1.0
1040
0.3
1070
    49
1002
}
  0
INSERT
  5
29B9
330
1A
100
AcDbEntity
  8
ASHADE
 62
     3
370
    -1
100
AcDbBlockReference
  2
AVE_RENDER
 10
188.4624295034171
 20
97.53276090536508
 30
0.0
1001
AVE_RENDER
1002
{
1070
     0
1000
Full Opt
1070
     0
1070
     1
1070
     1
1070
     1
1070
     0
1070
     0
1070
     0
1070
     1
1070
     1
1040
0.0001
1040
0.0001
1002
}
  0
INSERT
  5
29BA
330
1A
100
AcDbEntity
  8
ASHADE
 62
     4
370
    -1
100
AcDbBlockReference
  2
AVE_RENDER
 10
188.4624295034171
 20
97.53276090536508
 30
0.0
1001
AVE_RENDER
1002
{
1070
     0
1000
Quick Opt
1070
     0
1070
     1
1070
     1
1070
     1
1070
     0
1070
     0
1070
     1
1002
}
  0
LINE
  5
29D6
330
1A
100
AcDbEntity
  8
SOPORTES
370
    -1
100
AcDbLine
 10
24.46228564437058
 20
136.8096811812905
 30
0.0
 11
66.25085796675256
 21
136.8096811812905
 31
0.0
  0
LINE
  5
29D7
330
1A
100
AcDbEntity
  8
SOPORTES
370
    -1
100
AcDbLine
 10
24.46228564437058
 20
136.8096811812905
 30
0.0
 11
24.46228564437058
 21
139.8096811812905
 31
0.0
  0
LINE
  5
29D8
330
1A
100
AcDbEntity
  8
SOPORTES
370
    -1
100
AcDbLine
 10
86.96228564437058
 20
176.8096811812905
 30
0.0
 11
176.9622856443706
 21
176.8096811812904
 31
0.0
  0
LINE
  5
29E5
330
1A
100
AcDbEntity
  8
SOPORTES
370
    -1
100
AcDbLine
 10
24.46228564437058
 20
139.8096811812905
 30
0.0
 11
64.46228564437058
 21
139.8096811812905
 31
0.0
  0
LINE
  5
29E6
330
1A
100
AcDbEntity
  8
SOPORTES
370
    -1
100
AcDbLine
 10
88.75085796675256
 20
173.8096811812905
 30
0.0
 11
176.9622856443706
 21
173.8096811812904
 31
0.0
  0
LINE
  5
29E7
330
1A
100
AcDbEntity
  8
SOPORTES
370
    -1
100
AcDbLine
 10
64.46228564437058
 20
139.8096811812905
 30
0.0
 11
86.96228564437058
 21
176.8096811812905
 31
0.0
  0
LINE
  5
29E8
330
1A
100
AcDbEntity
  8
SOPORTES
370
    -1
100
AcDbLine
 10
66.25085796675256
 20
136.8096811812905
 30
0.0
 11
88.75085796675256
 21
173.8096811812905
 31
0.0
  0
LINE
  5
29E9
330
1A
100
AcDbEntity
  8
SOPORTES
370
    -1
100
AcDbLine
 10
289.4622856443707
 20
139.8096811812905
 30
0.0
 11
266.9622856443707
 21
176.8096811812904
 31
0.0
  0
LINE
  5
29EA
330
1A
100
AcDbEntity
  8
SOPORTES
370
    -1
100
AcDbLine
 10
287.6737133219887
 20
136.8096811812905
 30
0.0
 11
265.1737133219887
 21
173.8096811812904
 31
0.0
  0
LINE
  5
29EB
330
1A
100
AcDbEntity
  8
SOPORTES
370
    -1
100
AcDbLine
 10
265.1737133219887
 20
173.8096811812904
 30
0.0
 11
176.9622856443706
 21
173.8096811812904
 31
0.0
  0
LINE
  5
29EC
330
1A
100
AcDbEntity
  8
SOPORTES
370
    -1
100
AcDbLine
 10
266.9622856443707
 20
176.8096811812904
 30
0.0
 11
176.9622856443706
 21
176.8096811812904
 31
0.0
  0
LINE
  5
29ED
330
1A
100
AcDbEntity
  8
SOPORTES
370
    -1
100
AcDbLine
 10
329.4622856443707
 20
139.8096811812905
 30
0.0
 11
289.4622856443707
 21
139.8096811812905
 31
0.0
  0
LINE
  5
29EE
330
1A
100
AcDbEntity
  8
SOPORTES
370
    -1
100
AcDbLine
 10
329.4622856443707
 20
136.8096811812905
 30
0.0
 11
287.6737133219887
 21
136.8096811812905
 31
0.0
  0
LINE
  5
29EF
330
1A
100
AcDbEntity
  8
SOPORTES
370
    -1
100
AcDbLine
 10
329.4622856443707
 20
136.8096811812905
 30
0.0
 11
329.4622856443707
 21
139.8096811812905
 31
0.0
  0
HATCH
  5
2BE3
330
1A
100
AcDbEntity
  8
OTROS
370
    -1
100
AcDbHatch
 10
0.0
 20
0.0
 30
0.0
210
0.0
220
0.0
230
1.0
  2
ANSI31
 70
     0
 71
     0
 91
        2
 92
        7
 72
     0
 73
     1
 93
        4
 10
39.21228564437064
 20
139.8096811812904
 10
39.21228564437052
 20
141.8096811812905
 10
33.96228564437058
 20
141.8096811812906
 10
33.96228564437058
 20
139.8096811812905
 97
        0
 92
        7
 72
     0
 73
     1
 93
        4
 10
49.71228564437058
 20
139.8096811812905
 10
54.96228564437058
 20
139.8096811812905
 10
54.96228564437058
 20
141.8096811812905
 10
49.71228564437058
 20
141.8096811812905
 97
        0
 75
     0
 76
     1
 52
180.0
 41
0.5
 77
     0
 78
     1
 53
225.0
 43
242.8763664959259
 44
303.4330508634179
 45
1.122532015133644
 46
-1.122532015133644
 79
     0
 47
0.0403552920439478
 98
        2
 10
36.79771307215049
 20
140.6925658950045
 10
50.44615340496523
 20
140.894341946091
  0
LINE
  5
2BE5
330
1A
100
AcDbEntity
  8
OTROS
370
    -1
100
AcDbLine
 10
54.96228564437058
 20
141.8096811812905
 30
0.0
 11
49.46228564437058
 21
141.8096811812905
 31
0.0
  0
LINE
  5
2BE6
330
1A
100
AcDbEntity
  8
OTROS
370
    -1
100
AcDbLine
 10
54.96228564437058
 20
139.8096811812905
 30
0.0
 11
54.96228564437058
 21
141.8096811812905
 31
0.0
  0
LINE
  5
2BE7
330
1A
100
AcDbEntity
  8
OTROS
370
    -1
100
AcDbLine
 10
49.71228564437058
 20
139.8096811812905
 30
0.0
 11
49.71228564437058
 21
141.8096811812905
 31
0.0
  0
LINE
  5
2BE8
330
1A
100
AcDbEntity
  8
OTROS
370
    -1
100
AcDbLine
 10
33.96228564437058
 20
139.8096811812905
 30
0.0
 11
33.96228564437058
 21
141.8096811812905
 31
0.0
  0
LINE
  5
2BE9
330
1A
100
AcDbEntity
  8
OTROS
370
    -1
100
AcDbLine
 10
39.21228564437058
 20
139.8096811812905
 30
0.0
 11
39.21228564437058
 21
141.8096811812905
 31
0.0
  0
HATCH
  5
2BEA
330
1A
100
AcDbEntity
  8
OTROS
370
    -1
100
AcDbHatch
 10
0.0
 20
0.0
 30
0.0
210
0.0
220
0.0
230
1.0
  2
ANSI31
 70
     0
 71
     0
 91
        2
 92
        7
 72
     0
 73
     1
 93
        4
 10
304.2122856443707
 20
139.8096811812904
 10
304.2122856443708
 20
141.8096811812904
 10
298.9622856443707
 20
141.8096811812906
 10
298.9622856443707
 20
139.8096811812905
 97
        0
 92
        7
 72
     0
 73
     1
 93
        4
 10
314.7122856443707
 20
139.8096811812904
 10
319.9622856443707
 20
139.8096811812905
 10
319.9622856443707
 20
141.8096811812905
 10
314.7122856443707
 20
141.8096811812905
 97
        0
 75
     0
 76
     1
 52
180.0
 41
0.5
 77
     0
 78
     1
 53
225.0
 43
507.876366495926
 44
303.4330508634179
 45
1.122532015133644
 46
-1.122532015133644
 79
     0
 47
0.0403552920439478
 98
        2
 10
301.7977130721506
 20
140.6925658950045
 10
315.4461534049653
 20
140.8943419460909
  0
LINE
  5
2BEC
330
1A
100
AcDbEntity
  8
OTROS
370
    -1
100
AcDbLine
 10
319.9622856443707
 20
141.8096811812905
 30
0.0
 11
314.4622856443708
 21
141.8096811812905
 31
0.0
  0
LINE
  5
2BED
330
1A
100
AcDbEntity
  8
OTROS
370
    -1
100
AcDbLine
 10
319.9622856443707
 20
139.8096811812905
 30
0.0
 11
319.9622856443707
 21
141.8096811812905
 31
0.0
  0
LINE
  5
2BEE
330
1A
100
AcDbEntity
  8
OTROS
370
    -1
100
AcDbLine
 10
314.7122856443707
 20
139.8096811812905
 30
0.0
 11
314.7122856443707
 21
141.8096811812905
 31
0.0
  0
LINE
  5
2BEF
330
1A
100
AcDbEntity
  8
OTROS
370
    -1
100
AcDbLine
 10
298.9622856443707
 20
139.8096811812905
 30
0.0
 11
298.9622856443707
 21
141.8096811812905
 31
0.0
  0
LINE
  5
2BF0
330
1A
100
AcDbEntity
  8
OTROS
370
    -1
100
AcDbLine
 10
304.2122856443707
 20
139.8096811812905
 30
0.0
 11
304.2122856443707
 21
141.8096811812905
 31
0.0
  0
LINE
  5
2BF1
330
1A
100
AcDbEntity
  8
TORNILLERIA
370
    -1
100
AcDbLine
 10
40.46228564437064
 20
141.8096811812905
 30
0.0
 11
40.4622856443707
 21
139.8096811812905
 31
0.0
  0
LINE
  5
2BF2
330
1A
100
AcDbEntity
  8
TORNILLERIA
370
    -1
100
AcDbLine
 10
48.46228564437064
 20
141.8096811812905
 30
0.0
 11
48.4622856443707
 21
139.8096811812905
 31
0.0
  0
LINE
  5
2BF3
330
1A
100
AcDbEntity
  8
TORNILLERIA
370
    -1
100
AcDbLine
 10
49.46228564437064
 20
141.8096811812905
 30
0.0
 11
49.4622856443707
 21
139.8096811812905
 31
0.0
  0
LINE
  5
2BF4
330
1A
100
AcDbEntity
  8
TORNILLERIA
370
    -1
100
AcDbLine
 10
39.46228564437064
 20
141.8096811812905
 30
0.0
 11
39.4622856443707
 21
139.8096811812905
 31
0.0
  0
LINE
  5
2BF5
330
1A
100
AcDbEntity
  8
TORNILLERIA
370
    -1
100
AcDbLine
 10
48.46228564437064
 20
121.8096811812905
 30
0.0
 11
49.46228564437064
 21
122.8096811812905
 31
0.0
  0
LINE
  5
2BF6
330
1A
100
AcDbEntity
  8
TORNILLERIA
370
    -1
100
AcDbLine
 10
39.46228564437064
 20
122.8096811812905
 30
0.0
 11
49.46228564437064
 21
122.8096811812905
 31
0.0
  0
LINE
  5
2BF7
330
1A
100
AcDbEntity
  8
TORNILLERIA
370
    -1
100
AcDbLine
 10
40.46228564437064
 20
121.8096811812905
 30
0.0
 11
39.46228564437064
 21
122.8096811812905
 31
0.0
  0
LINE
  5
2BF8
330
1A
100
AcDbEntity
  8
TORNILLERIA
370
    -1
100
AcDbLine
 10
40.46228564437064
 20
121.8096811812905
 30
0.0
 11
48.46228564437064
 21
121.8096811812905
 31
0.0
  0
ARC
  5
2BF9
330
1A
100
AcDbEntity
  8
TORNILLERIA
370
    -1
100
AcDbCircle
 10
37.37478564437066
 20
144.9619254929504
 30
0.0
 40
3.847755688340217
100
AcDbArc
 50
52.1211205082802
 51
127.8788794917211
  0
LINE
  5
2BFA
330
1A
100
AcDbEntity
  8
TORNILLERIA
370
    -1
100
AcDbLine
 10
37.37478564437066
 20
148.8096811812905
 30
0.0
 11
51.5497856443705
 21
148.8096811812905
 31
0.0
  0
ARC
  5
2BFC
330
1A
100
AcDbEntity
  8
TORNILLERIA
370
    -1
100
AcDbCircle
 10
44.46228564437064
 20
134.6346811812906
 30
0.0
 40
14.17499999999998
100
AcDbArc
 50
70.52877936550941
 51
109.4712206344908
  0
LINE
  5
2BFD
330
1A
100
AcDbEntity
  8
TORNILLERIA
370
    -1
100
AcDbLine
 10
49.18728564437055
 20
147.9989993457162
 30
0.0
 11
49.18728564437055
 21
141.8096811812905
 31
0.0
  0
LINE
  5
2BFE
330
1A
100
AcDbEntity
  8
TORNILLERIA
370
    -1
100
AcDbLine
 10
53.91228564437057
 20
147.9989993457162
 30
0.0
 11
53.91228564437057
 21
141.8096811812905
 31
0.0
  0
ARC
  5
2BFF
330
1A
100
AcDbEntity
  8
TORNILLERIA
370
    -1
100
AcDbCircle
 10
51.5497856443705
 20
144.96192549295
 30
0.0
 40
3.847755688340433
100
AcDbArc
 50
52.1211205082826
 51
127.8788794917168
  0
LINE
  5
2C00
330
1A
100
AcDbEntity
  8
TORNILLERIA
370
    -1
100
AcDbLine
 10
39.73728564437062
 20
147.9989993457162
 30
0.0
 11
39.73728564437062
 21
141.8096811812905
 31
0.0
  0
LINE
  5
2C01
330
1A
100
AcDbEntity
  8
TORNILLERIA
370
    -1
100
AcDbLine
 10
35.01228564437059
 20
147.9989993457162
 30
0.0
 11
35.01228564437059
 21
141.8096811812905
 31
0.0
  0
LINE
  5
2C02
330
1A
100
AcDbEntity
  8
TORNILLERIA
370
    -1
100
AcDbLine
 10
305.4622856443708
 20
141.8096811812905
 30
0.0
 11
305.4622856443708
 21
139.8096811812904
 31
0.0
  0
LINE
  5
2C03
330
1A
100
AcDbEntity
  8
TORNILLERIA
370
    -1
100
AcDbLine
 10
313.4622856443708
 20
141.8096811812905
 30
0.0
 11
313.4622856443708
 21
139.8096811812904
 31
0.0
  0
LINE
  5
2C04
330
1A
100
AcDbEntity
  8
TORNILLERIA
370
    -1
100
AcDbLine
 10
314.4622856443708
 20
141.8096811812905
 30
0.0
 11
314.4622856443708
 21
139.8096811812905
 31
0.0
  0
LINE
  5
2C05
330
1A
100
AcDbEntity
  8
TORNILLERIA
370
    -1
100
AcDbLine
 10
304.4622856443708
 20
141.8096811812905
 30
0.0
 11
304.4622856443708
 21
139.8096811812905
 31
0.0
  0
LINE
  5
2C06
330
1A
100
AcDbEntity
  8
TORNILLERIA
370
    -1
100
AcDbLine
 10
313.4622856443708
 20
121.8096811812905
 30
0.0
 11
314.4622856443708
 21
122.8096811812905
 31
0.0
  0
LINE
  5
2C07
330
1A
100
AcDbEntity
  8
TORNILLERIA
370
    -1
100
AcDbLine
 10
304.4622856443708
 20
122.8096811812905
 30
0.0
 11
314.4622856443708
 21
122.8096811812905
 31
0.0
  0
LINE
  5
2C08
330
1A
100
AcDbEntity
  8
TORNILLERIA
370
    -1
100
AcDbLine
 10
305.4622856443708
 20
121.8096811812905
 30
0.0
 11
304.4622856443708
 21
122.8096811812905
 31
0.0
  0
LINE
  5
2C09
330
1A
100
AcDbEntity
  8
TORNILLERIA
370
    -1
100
AcDbLine
 10
305.4622856443708
 20
121.8096811812905
 30
0.0
 11
313.4622856443708
 21
121.8096811812905
 31
0.0
  0
ARC
  5
2C0A
330
1A
100
AcDbEntity
  8
TORNILLERIA
370
    -1
100
AcDbCircle
 10
302.3747856443708
 20
144.9619254929503
 30
0.0
 40
3.847755688340217
100
AcDbArc
 50
52.1211205082802
 51
127.8788794917211
  0
LINE
  5
2C0B
330
1A
100
AcDbEntity
  8
TORNILLERIA
370
    -1
100
AcDbLine
 10
302.3747856443708
 20
148.8096811812905
 30
0.0
 11
316.5497856443706
 21
148.8096811812905
 31
0.0
  0
LINE
  5
2C0C
330
1A
100
AcDbEntity
  8
TORNILLERIA
370
    -1
100
AcDbLine
 10
300.0122856443707
 20
141.8096811812905
 30
0.0
 11
318.9122856443707
 21
141.8096811812905
 31
0.0
  0
ARC
  5
2C0D
330
1A
100
AcDbEntity
  8
TORNILLERIA
370
    -1
100
AcDbCircle
 10
309.4622856443708
 20
134.6346811812905
 30
0.0
 40
14.17499999999998
100
AcDbArc
 50
70.52877936550941
 51
109.4712206344908
  0
LINE
  5
2C0E
330
1A
100
AcDbEntity
  8
TORNILLERIA
370
    -1
100
AcDbLine
 10
314.1872856443707
 20
147.9989993457162
 30
0.0
 11
314.1872856443707
 21
141.8096811812905
 31
0.0
  0
LINE
  5
2C0F
330
1A
100
AcDbEntity
  8
TORNILLERIA
370
    -1
100
AcDbLine
 10
318.9122856443707
 20
147.9989993457162
 30
0.0
 11
318.9122856443707
 21
141.8096811812905
 31
0.0
  0
ARC
  5
2C10
330
1A
100
AcDbEntity
  8
TORNILLERIA
370
    -1
100
AcDbCircle
 10
316.5497856443706
 20
144.96192549295
 30
0.0
 40
3.847755688340433
100
AcDbArc
 50
52.1211205082826
 51
127.8788794917168
  0
LINE
  5
2C11
330
1A
100
AcDbEntity
  8
TORNILLERIA
370
    -1
100
AcDbLine
 10
304.7372856443707
 20
147.9989993457162
 30
0.0
 11
304.7372856443707
 21
141.8096811812905
 31
0.0
  0
LINE
  5
2C12
330
1A
100
AcDbEntity
  8
TORNILLERIA
370
    -1
100
AcDbLine
 10
300.0122856443707
 20
147.9989993457162
 30
0.0
 11
300.0122856443707
 21
141.8096811812905
 31
0.0
  0
HATCH
  5
2C20
330
1A
100
AcDbEntity
  8
OTROS
370
    -1
100
AcDbHatch
 10
0.0
 20
0.0
 30
0.0
210
0.0
220
0.0
230
1.0
  2
ANSI31
 70
     0
 71
     0
 91
        2
 92
        7
 72
     0
 73
     1
 93
        4
 10
34.46228564437058
 20
96.80968118129051
 10
39.46228564437064
 20
96.80968118129051
 10
39.46228564437064
 20
136.8096811812905
 10
34.46228564437058
 20
136.8096811812906
 97
        0
 92
        7
 72
     0
 73
     1
 93
        4
 10
49.4622856443707
 20
96.80968118129046
 10
54.4622856443707
 20
96.8096811812904
 10
54.46228564437064
 20
136.8096811812905
 10
49.4622856443707
 20
136.8096811812905
 97
        0
 75
     0
 76
     1
 52
100.0
 41
1.0
 77
     0
 78
     1
 53
145.0
 43
201.4691811884066
 44
-156.6562268381196
 45
-1.821105185414572
 46
-2.600807740617548
 79
     0
 47
0.0614297214052676
 98
        2
 10
36.82123536159287
 20
118.6003199759021
 10
51.56436838705196
 20
119.6452656198549
  0
LINE
  5
2C21
330
1A
100
AcDbEntity
  8
OTROS
370
    -1
100
AcDbLine
 10
34.46228564437058
 20
136.8096811812905
 30
0.0
 11
34.46228564437058
 21
96.80968118129051
 31
0.0
  0
LINE
  5
2C22
330
1A
100
AcDbEntity
  8
OTROS
370
    -1
100
AcDbLine
 10
54.46228564437064
 20
136.8096811812905
 30
0.0
 11
54.46228564437064
 21
96.80968118129051
 31
0.0
  0
LINE
  5
2C23
330
1A
100
AcDbEntity
  8
OTROS
370
    -1
100
AcDbLine
 10
39.46228564437064
 20
136.8096811812905
 30
0.0
 11
39.46228564437064
 21
96.80968118129051
 31
0.0
  0
LINE
  5
2C24
330
1A
100
AcDbEntity
  8
OTROS
370
    -1
100
AcDbLine
 10
49.46228564437064
 20
136.8096811812905
 30
0.0
 11
49.46228564437064
 21
96.80968118129051
 31
0.0
  0
LINE
  5
2C25
330
1A
100
AcDbEntity
  8
OTROS
370
    -1
100
AcDbLine
 10
43.96228564437064
 20
116.8096811812905
 30
0.0
 11
43.96228564437064
 21
96.80968118129051
 31
0.0
  0
LINE
  5
2C26
330
1A
100
AcDbEntity
  8
OTROS
370
    -1
100
AcDbLine
 10
44.96228564437064
 20
116.8096811812905
 30
0.0
 11
44.96228564437064
 21
96.80968118129051
 31
0.0
  0
LINE
  5
2C27
330
1A
100
AcDbEntity
  8
OTROS
370
    -1
100
AcDbLine
 10
44.96228564437064
 20
96.80968118129051
 30
0.0
 11
54.46228564437064
 21
96.8096811812904
 31
0.0
  0
LINE
  5
2C28
330
1A
100
AcDbEntity
  8
OTROS
370
    -1
100
AcDbLine
 10
34.46228564437058
 20
96.80968118129051
 30
0.0
 11
43.96228564437064
 21
96.80968118129051
 31
0.0
  0
LINE
  5
2C29
330
1A
100
AcDbEntity
  8
OTROS
370
    -1
100
AcDbLine
 10
43.96228564437064
 20
116.8096811812905
 30
0.0
 11
44.96228564437064
 21
116.8096811812905
 31
0.0
  0
HATCH
  5
2C2B
330
1A
100
AcDbEntity
  8
OTROS
370
    -1
100
AcDbHatch
 10
0.0
 20
0.0
 30
0.0
210
0.0
220
0.0
230
1.0
  2
ANSI31
 70
     0
 71
     0
 91
        2
 92
        7
 72
     0
 73
     1
 93
        4
 10
299.4622856443708
 20
96.8096811812905
 10
304.4622856443708
 20
96.8096811812905
 10
304.4622856443708
 20
136.8096811812904
 10
299.4622856443708
 20
136.8096811812906
 97
        0
 92
        7
 72
     0
 73
     1
 93
        4
 10
314.4622856443708
 20
96.80968118129039
 10
319.4622856443708
 20
96.80968118129039
 10
319.4622856443708
 20
136.8096811812904
 10
314.4622856443708
 20
136.8096811812904
 97
        0
 75
     0
 76
     1
 52
100.0
 41
1.0
 77
     0
 78
     1
 53
145.0
 43
466.4691811884067
 44
-156.6562268381196
 45
-1.821105185414572
 46
-2.600807740617548
 79
     0
 47
0.0614297214052676
 98
        2
 10
301.821235361593
 20
118.6003199759021
 10
316.5643683870521
 20
119.6452656198549
  0
LINE
  5
2C2C
330
1A
100
AcDbEntity
  8
OTROS
370
    -1
100
AcDbLine
 10
299.4622856443708
 20
136.8096811812905
 30
0.0
 11
299.4622856443708
 21
96.8096811812905
 31
0.0
  0
LINE
  5
2C2D
330
1A
100
AcDbEntity
  8
OTROS
370
    -1
100
AcDbLine
 10
319.4622856443708
 20
136.8096811812905
 30
0.0
 11
319.4622856443708
 21
96.8096811812905
 31
0.0
  0
LINE
  5
2C2E
330
1A
100
AcDbEntity
  8
OTROS
370
    -1
100
AcDbLine
 10
304.4622856443708
 20
136.8096811812905
 30
0.0
 11
304.4622856443708
 21
96.8096811812905
 31
0.0
  0
LINE
  5
2C2F
330
1A
100
AcDbEntity
  8
OTROS
370
    -1
100
AcDbLine
 10
314.4622856443708
 20
136.8096811812905
 30
0.0
 11
314.4622856443708
 21
96.8096811812905
 31
0.0
  0
LINE
  5
2C30
330
1A
100
AcDbEntity
  8
OTROS
370
    -1
100
AcDbLine
 10
308.9622856443708
 20
116.8096811812905
 30
0.0
 11
308.9622856443708
 21
96.8096811812905
 31
0.0
  0
LINE
  5
2C31
330
1A
100
AcDbEntity
  8
OTROS
370
    -1
100
AcDbLine
 10
309.9622856443708
 20
116.8096811812905
 30
0.0
 11
309.9622856443708
 21
96.8096811812905
 31
0.0
  0
LINE
  5
2C32
330
1A
100
AcDbEntity
  8
OTROS
370
    -1
100
AcDbLine
 10
309.9622856443708
 20
96.8096811812905
 30
0.0
 11
319.4622856443708
 21
96.80968118129039
 31
0.0
  0
LINE
  5
2C33
330
1A
100
AcDbEntity
  8
OTROS
370
    -1
100
AcDbLine
 10
299.4622856443708
 20
96.8096811812905
 30
0.0
 11
308.9622856443708
 21
96.8096811812905
 31
0.0
  0
LINE
  5
2C34
330
1A
100
AcDbEntity
  8
OTROS
370
    -1
100
AcDbLine
 10
308.9622856443708
 20
116.8096811812905
 30
0.0
 11
309.9622856443708
 21
116.8096811812905
 31
0.0
  0
LINE
  5
2C36
330
1A
100
AcDbEntity
  8
TORNILLERIA
370
    -1
100
AcDbLine
 10
49.46228564437064
 20
136.8096811812905
 30
0.0
 11
49.46228564437064
 21
122.8096811812905
 31
0.0
  0
LINE
  5
2C37
330
1A
100
AcDbEntity
  8
TORNILLERIA
370
    -1
100
AcDbLine
 10
48.4622856443707
 20
136.8096811812905
 30
0.0
 11
48.46228564437064
 21
121.8096811812905
 31
0.0
  0
LINE
  5
2C38
330
1A
100
AcDbEntity
  8
TORNILLERIA
370
    -1
100
AcDbLine
 10
40.4622856443707
 20
136.8096811812905
 30
0.0
 11
40.46228564437064
 21
121.8096811812905
 31
0.0
  0
LINE
  5
2C39
330
1A
100
AcDbEntity
  8
TORNILLERIA
370
    -1
100
AcDbLine
 10
39.4622856443707
 20
136.8096811812905
 30
0.0
 11
39.46228564437064
 21
122.8096811812905
 31
0.0
  0
LINE
  5
2C3B
330
1A
100
AcDbEntity
  8
OTROS
370
    -1
100
AcDbLine
 10
39.46228564437058
 20
141.8096811812905
 30
0.0
 11
33.96228564437058
 21
141.8096811812905
 31
0.0
  0
LINE
  5
2C3C
330
1A
100
AcDbEntity
  8
TORNILLERIA
370
    -1
100
AcDbLine
 10
35.01228564437059
 20
141.8096811812905
 30
0.0
 11
53.91228564437057
 21
141.8096811812905
 31
0.0
  0
LINE
  5
2C3D
330
1A
100
AcDbEntity
  8
OTROS
370
    -1
100
AcDbLine
 10
304.4622856443708
 20
141.8096811812905
 30
0.0
 11
298.9622856443707
 21
141.8096811812905
 31
0.0
  0
LINE
  5
2C3E
330
1A
100
AcDbEntity
  8
TORNILLERIA
370
    -1
100
AcDbLine
 10
314.4622856443708
 20
136.8096811812904
 30
0.0
 11
314.4622856443708
 21
122.8096811812905
 31
0.0
  0
LINE
  5
2C3F
330
1A
100
AcDbEntity
  8
TORNILLERIA
370
    -1
100
AcDbLine
 10
313.4622856443708
 20
136.8096811812905
 30
0.0
 11
313.4622856443708
 21
121.8096811812905
 31
0.0
  0
LINE
  5
2C40
330
1A
100
AcDbEntity
  8
TORNILLERIA
370
    -1
100
AcDbLine
 10
304.4622856443708
 20
136.8096811812904
 30
0.0
 11
304.4622856443708
 21
122.8096811812905
 31
0.0
  0
LINE
  5
2C41
330
1A
100
AcDbEntity
  8
TORNILLERIA
370
    -1
100
AcDbLine
 10
305.4622856443708
 20
136.8096811812905
 30
0.0
 11
305.4622856443708
 21
121.8096811812905
 31
0.0
  0
LINE
  5
2F0E
330
1A
100
AcDbEntity
  8
TORNILLERIA
370
    -1
100
AcDbLine
 10
248.0622856443706
 20
163.3096811812904
 30
0.0
 11
244.0622856443706
 21
163.3096811812904
 31
0.0
  0
LINE
  5
2F0F
330
1A
100
AcDbEntity
  8
TORNILLERIA
370
    -1
100
AcDbLine
 10
256.2122856443706
 20
177.3096811812904
 30
0.0
 11
256.2122856443706
 21
180.3096811812904
 31
0.0
  0
LINE
  5
2F10
330
1A
100
AcDbEntity
  8
TORNILLERIA
370
    -1
100
AcDbLine
 10
235.9122856443706
 20
177.3096811812905
 30
0.0
 11
235.9122856443706
 21
180.3096811812905
 31
0.0
  0
LINE
  5
2F14
330
1A
100
AcDbEntity
  8
TORNILLERIA
370
    -1
100
AcDbLine
 10
249.6622856443706
 20
180.3096811812904
 30
0.0
 11
249.3122856443706
 21
180.3096811812904
 31
0.0
  0
LINE
  5
2F15
330
1A
100
AcDbEntity
  8
TORNILLERIA
370
    -1
100
AcDbLine
 10
249.0622856443706
 20
164.3096811812904
 30
0.0
 11
249.0622856443706
 21
167.8096811812904
 31
0.0
  0
LINE
  5
2F16
330
1A
100
AcDbEntity
  8
TORNILLERIA
370
    -1
100
AcDbLine
 10
243.0622856443706
 20
164.3096811812904
 30
0.0
 11
243.0622856443706
 21
167.8096811812903
 31
0.0
  0
LINE
  5
2F17
330
1A
100
AcDbEntity
  8
TORNILLERIA
370
    -1
100
AcDbLine
 10
249.6622856443706
 20
180.3096811812904
 30
0.0
 11
249.6622856443706
 21
181.3096811812904
 31
0.0
  0
LINE
  5
2F18
330
1A
100
AcDbEntity
  8
TORNILLERIA
370
    -1
100
AcDbLine
 10
242.4622856443706
 20
180.3096811812904
 30
0.0
 11
242.4622856443706
 21
181.3096811812904
 31
0.0
  0
LINE
  5
2F1F
330
1A
100
AcDbEntity
  8
TORNILLERIA
370
    -1
100
AcDbLine
 10
237.9122856443706
 20
177.3096811812904
 30
0.0
 11
237.9122856443706
 21
180.3096811812904
 31
0.0
  0
LINE
  5
2F20
330
1A
100
AcDbEntity
  8
TORNILLERIA
370
    -1
100
AcDbLine
 10
254.2122856443706
 20
177.3096811812904
 30
0.0
 11
254.2122856443706
 21
180.3096811812904
 31
0.0
  0
LINE
  5
2F21
330
1A
100
AcDbEntity
  8
TORNILLERIA
370
    -1
100
AcDbLine
 10
256.2122856443706
 20
177.3096811812904
 30
0.0
 11
254.2122856443706
 21
177.3096811812904
 31
0.0
  0
LINE
  5
2F22
330
1A
100
AcDbEntity
  8
TORNILLERIA
370
    -1
100
AcDbLine
 10
237.9122856443706
 20
177.3096811812904
 30
0.0
 11
235.9122856443706
 21
177.3096811812905
 31
0.0
  0
ARC
  5
2F23
330
1A
100
AcDbEntity
  8
TORNILLERIA
370
    -1
100
AcDbCircle
 10
253.2122856443706
 20
180.3096811812904
 30
0.0
 40
1.0
100
AcDbArc
 50
0.0
 51
90.0
  0
ARC
  5
2F24
330
1A
100
AcDbEntity
  8
TORNILLERIA
370
    -1
100
AcDbCircle
 10
238.9122856443706
 20
180.3096811812904
 30
0.0
 40
1.0
100
AcDbArc
 50
90.0
 51
180.0000000000004
  0
ARC
  5
2F25
330
1A
100
AcDbEntity
  8
TORNILLERIA
370
    -1
100
AcDbCircle
 10
253.2122856443706
 20
180.3096811812904
 30
0.0
 40
3.0
100
AcDbArc
 50
0.0
 51
19.4712206344909
  0
ARC
  5
2F26
330
1A
100
AcDbEntity
  8
TORNILLERIA
370
    -1
100
AcDbCircle
 10
238.9122856443706
 20
180.3096811812904
 30
0.0
 40
3.0
100
AcDbArc
 50
160.5287793655091
 51
180.0
  0
LINE
  5
2F27
330
1A
100
AcDbEntity
  8
TORNILLERIA
370
    -1
100
AcDbLine
 10
249.3122856443706
 20
177.3096811812904
 30
0.0
 11
249.3122856443706
 21
181.3096811812904
 31
0.0
  0
LINE
  5
2F28
330
1A
100
AcDbEntity
  8
TORNILLERIA
370
    -1
100
AcDbLine
 10
242.8122856443706
 20
177.3096811812904
 30
0.0
 11
242.8122856443706
 21
181.3096811812904
 31
0.0
  0
LINE
  5
2F29
330
1A
100
AcDbEntity
  8
TORNILLERIA
370
    -1
100
AcDbLine
 10
249.3122856443706
 20
177.3096811812904
 30
0.0
 11
242.8122856443706
 21
177.3096811812904
 31
0.0
  0
LINE
  5
2F2A
330
1A
100
AcDbEntity
  8
TORNILLERIA
370
    -1
100
AcDbLine
 10
242.8122856443706
 20
180.3096811812904
 30
0.0
 11
242.4622856443706
 21
180.3096811812904
 31
0.0
  0
LINE
  5
2F30
330
1A
100
AcDbEntity
  8
TORNILLERIA
370
    -1
100
AcDbLine
 10
249.0622856443706
 20
164.3096811812904
 30
0.0
 11
243.0622856443706
 21
164.3096811812904
 31
0.0
  0
LINE
  5
2F31
330
1A
100
AcDbEntity
  8
TORNILLERIA
370
    -1
100
AcDbLine
 10
248.0622856443706
 20
163.3096811812904
 30
0.0
 11
248.0622856443706
 21
167.8096811812904
 31
0.0
  0
LINE
  5
2F32
330
1A
100
AcDbEntity
  8
TORNILLERIA
370
    -1
100
AcDbLine
 10
244.0622856443706
 20
163.3096811812904
 30
0.0
 11
244.0622856443707
 21
167.8096811812903
 31
0.0
  0
LINE
  5
2F33
330
1A
100
AcDbEntity
  8
TORNILLERIA
370
    -1
100
AcDbLine
 10
249.0622856443706
 20
164.3096811812904
 30
0.0
 11
248.0622856443706
 21
163.3096811812904
 31
0.0
  0
LINE
  5
2F34
330
1A
100
AcDbEntity
  8
TORNILLERIA
370
    -1
100
AcDbLine
 10
244.0622856443706
 20
163.3096811812904
 30
0.0
 11
243.0622856443706
 21
164.3096811812904
 31
0.0
  0
LINE
  5
2F96
330
1A
100
AcDbEntity
  8
TORNILLERIA
370
    -1
100
AcDbLine
 10
239.0622856443706
 20
173.8096811812904
 30
0.0
 11
253.0622856443706
 21
173.8096811812904
 31
0.0
  0
LINE
  5
2F97
330
1A
100
AcDbEntity
  8
TORNILLERIA
370
    -1
100
AcDbLine
 10
239.0622856443706
 20
172.8096811812904
 30
0.0
 11
253.0622856443706
 21
172.8096811812904
 31
0.0
  0
LINE
  5
2F98
330
1A
100
AcDbEntity
  8
TORNILLERIA
370
    -1
100
AcDbLine
 10
241.5622856443706
 20
167.8096811812903
 30
0.0
 11
250.5622856443706
 21
167.8096811812904
 31
0.0
  0
LINE
  5
2F99
330
1A
100
AcDbEntity
  8
TORNILLERIA
370
    -1
100
AcDbLine
 10
239.0622856443706
 20
173.8096811812904
 30
0.0
 11
239.0622856443706
 21
172.8096811812904
 31
0.0
  0
LINE
  5
2F9A
330
1A
100
AcDbEntity
  8
TORNILLERIA
370
    -1
100
AcDbLine
 10
253.0622856443706
 20
173.8096811812904
 30
0.0
 11
253.0622856443706
 21
172.8096811812904
 31
0.0
  0
LINE
  5
2F9B
330
1A
100
AcDbEntity
  8
TORNILLERIA
370
    -1
100
AcDbLine
 10
240.5622856443706
 20
171.3096811812904
 30
0.0
 11
240.5622856443706
 21
168.8096811812903
 31
0.0
  0
LINE
  5
2F9C
330
1A
100
AcDbEntity
  8
TORNILLERIA
370
    -1
100
AcDbLine
 10
251.5622856443706
 20
171.3096811812904
 30
0.0
 11
251.5622856443706
 21
168.8096811812904
 31
0.0
  0
LINE
  5
2F9D
330
1A
100
AcDbEntity
  8
TORNILLERIA
370
    -1
100
AcDbLine
 10
253.0622856443706
 20
172.8096811812904
 30
0.0
 11
251.5622856443706
 21
171.3096811812904
 31
0.0
  0
LINE
  5
2F9E
330
1A
100
AcDbEntity
  8
TORNILLERIA
370
    -1
100
AcDbLine
 10
239.0622856443706
 20
172.8096811812904
 30
0.0
 11
240.5622856443706
 21
171.3096811812904
 31
0.0
  0
ARC
  5
2F9F
330
1A
100
AcDbEntity
  8
TORNILLERIA
370
    -1
100
AcDbCircle
 10
241.5622856443705
 20
168.8096811812903
 30
0.0
 40
1.0
100
AcDbArc
 50
179.9999999999997
 51
270.0
  0
ARC
  5
2FA0
330
1A
100
AcDbEntity
  8
TORNILLERIA
370
    -1
100
AcDbCircle
 10
250.5622856443705
 20
168.8096811812904
 30
0.0
 40
1.0
100
AcDbArc
 50
270.0000000000003
 51
0.0
  0
LINE
  5
2FA1
330
1A
100
AcDbEntity
  8
TORNILLERIA
370
    -1
100
AcDbLine
 10
243.0622856443706
 20
171.3096811812904
 30
0.0
 11
243.5622856443706
 21
171.3096811812904
 31
0.0
  0
LINE
  5
2FA2
330
1A
100
AcDbEntity
  8
TORNILLERIA
370
    -1
100
AcDbLine
 10
243.0622856443706
 20
171.3096811812904
 30
0.0
 11
243.0622856443706
 21
168.8096811812904
 31
0.0
  0
LINE
  5
2FA3
330
1A
100
AcDbEntity
  8
TORNILLERIA
370
    -1
100
AcDbLine
 10
243.5622856443706
 20
171.3096811812904
 30
0.0
 11
243.5622856443706
 21
168.8096811812903
 31
0.0
  0
LINE
  5
2FA4
330
1A
100
AcDbEntity
  8
TORNILLERIA
370
    -1
100
AcDbLine
 10
248.5622856443706
 20
171.3096811812904
 30
0.0
 11
248.5622856443706
 21
168.6881965846069
 31
0.0
  0
LINE
  5
2FA5
330
1A
100
AcDbEntity
  8
TORNILLERIA
370
    -1
100
AcDbLine
 10
249.0622856443706
 20
171.3096811812904
 30
0.0
 11
249.0622856443706
 21
168.55130103
 31
0.0
  0
LINE
  5
2FA6
330
1A
100
AcDbEntity
  8
TORNILLERIA
370
    -1
100
AcDbLine
 10
248.5622856443706
 20
171.3096811812904
 30
0.0
 11
249.0622856443706
 21
171.3096811812904
 31
0.0
  0
ARC
  5
2FA7
330
1A
100
AcDbEntity
  8
TORNILLERIA
370
    -1
100
AcDbCircle
 10
241.8122856443705
 20
172.6221811812903
 30
0.0
 40
1.812499999999939
100
AcDbArc
 50
226.3971810272958
 51
313.6028189727045
  0
ARC
  5
2FA8
330
1A
100
AcDbEntity
  8
TORNILLERIA
370
    -1
100
AcDbCircle
 10
246.0622856443705
 20
177.3096811812904
 30
0.0
 40
6.500000000000058
100
AcDbArc
 50
247.3801350519597
 51
292.6198649480403
  0
ARC
  5
2FA9
330
1A
100
AcDbEntity
  8
TORNILLERIA
370
    -1
100
AcDbCircle
 10
250.3122856443705
 20
172.6221811812903
 30
0.0
 40
1.812499999999898
100
AcDbArc
 50
226.3971810272946
 51
313.6028189727077
  0
ARC
  5
2FAA
330
1A
100
AcDbEntity
  8
TORNILLERIA
370
    -1
100
AcDbCircle
 10
244.0539054930801
 20
168.6804911056451
 30
0.0
 40
1.0
100
AcDbArc
 50
172.5772075955984
 51
240.5528947585562
  0
ARC
  5
2FAB
330
1A
100
AcDbEntity
  8
TORNILLERIA
370
    -1
100
AcDbCircle
 10
245.4443164510037
 20
168.7489388829486
 30
0.0
 40
1.883010776369531
100
AcDbArc
 50
178.1514278910232
 51
209.92105904483
  0
ARC
  5
2FAC
330
1A
100
AcDbEntity
  8
TORNILLERIA
370
    -1
100
AcDbCircle
 10
246.6802548377374
 20
168.7489388829486
 30
0.0
 40
1.883010776369531
100
AcDbArc
 50
330.07894095517
 51
1.848572108976789
  0
ARC
  5
2FAD
330
1A
100
AcDbEntity
  8
TORNILLERIA
370
    -1
100
AcDbCircle
 10
248.070665795661
 20
168.6804911056451
 30
0.0
 40
1.0
100
AcDbArc
 50
299.4471052414438
 51
7.422792404401637
  0
ARC
  5
3214
330
1A
100
AcDbEntity
  8
TORNILLERIA
370
    -1
100
AcDbCircle
 10
107.8622856443706
 20
177.3096811812905
 30
0.0
 40
6.500000000000058
100
AcDbArc
 50
247.3801350519597
 51
292.6198649480403
  0
LINE
  5
3215
330
1A
100
AcDbEntity
  8
TORNILLERIA
370
    -1
100
AcDbLine
 10
110.8622856443706
 20
164.3096811812904
 30
0.0
 11
104.8622856443706
 21
164.3096811812904
 31
0.0
  0
LINE
  5
3216
330
1A
100
AcDbEntity
  8
TORNILLERIA
370
    -1
100
AcDbLine
 10
109.8622856443706
 20
163.3096811812904
 30
0.0
 11
105.8622856443706
 21
163.3096811812904
 31
0.0
  0
LINE
  5
3217
330
1A
100
AcDbEntity
  8
TORNILLERIA
370
    -1
100
AcDbLine
 10
103.3622856443706
 20
167.8096811812903
 30
0.0
 11
112.3622856443706
 21
167.8096811812904
 31
0.0
  0
LINE
  5
3218
330
1A
100
AcDbEntity
  8
TORNILLERIA
370
    -1
100
AcDbLine
 10
100.8622856443706
 20
172.8096811812904
 30
0.0
 11
114.8622856443706
 21
172.8096811812904
 31
0.0
  0
LINE
  5
321A
330
1A
100
AcDbEntity
  8
TORNILLERIA
370
    -1
100
AcDbLine
 10
111.1122856443706
 20
177.3096811812904
 30
0.0
 11
104.6122856443706
 21
177.3096811812904
 31
0.0
  0
LINE
  5
321B
330
1A
100
AcDbEntity
  8
TORNILLERIA
370
    -1
100
AcDbLine
 10
115.0122856443708
 20
183.3096811812899
 30
0.0
 11
100.7122856443706
 21
183.3096811812904
 31
0.0
  0
LINE
  5
321D
330
1A
100
AcDbEntity
  8
TORNILLERIA
370
    -1
100
AcDbLine
 10
114.1122856443706
 20
183.8096811812904
 30
0.0
 11
101.6122856443706
 21
183.8096811812904
 31
0.0
  0
LINE
  5
321E
330
1A
100
AcDbEntity
  8
TORNILLERIA
370
    -1
100
AcDbLine
 10
110.8622856443706
 20
164.3096811812904
 30
0.0
 11
110.8622856443706
 21
167.8096811812903
 31
0.0
  0
LINE
  5
321F
330
1A
100
AcDbEntity
  8
TORNILLERIA
370
    -1
100
AcDbLine
 10
109.8622856443706
 20
163.3096811812904
 30
0.0
 11
109.8622856443706
 21
167.8096811812903
 31
0.0
  0
LINE
  5
3220
330
1A
100
AcDbEntity
  8
TORNILLERIA
370
    -1
100
AcDbLine
 10
114.8622856443706
 20
172.8096811812904
 30
0.0
 11
113.3622856443706
 21
171.3096811812904
 31
0.0
  0
LINE
  5
3221
330
1A
100
AcDbEntity
  8
TORNILLERIA
370
    -1
100
AcDbLine
 10
110.3622856443706
 20
171.3096811812904
 30
0.0
 11
110.3622856443706
 21
168.688196584607
 31
0.0
  0
LINE
  5
3222
330
1A
100
AcDbEntity
  8
TORNILLERIA
370
    -1
100
AcDbLine
 10
110.8622856443706
 20
171.3096811812904
 30
0.0
 11
110.8622856443706
 21
168.5513010300001
 31
0.0
  0
LINE
  5
3223
330
1A
100
AcDbEntity
  8
TORNILLERIA
370
    -1
100
AcDbLine
 10
110.3622856443706
 20
171.3096811812904
 30
0.0
 11
110.8622856443706
 21
171.3096811812904
 31
0.0
  0
LINE
  5
3224
330
1A
100
AcDbEntity
  8
TORNILLERIA
370
    -1
100
AcDbLine
 10
113.3622856443706
 20
171.3096811812904
 30
0.0
 11
113.3622856443706
 21
168.8096811812904
 31
0.0
  0
ARC
  5
3225
330
1A
100
AcDbEntity
  8
TORNILLERIA
370
    -1
100
AcDbCircle
 10
112.1122856443706
 20
172.6221811812904
 30
0.0
 40
1.812499999999898
100
AcDbArc
 50
226.3971810272946
 51
313.6028189727077
  0
ARC
  5
3226
330
1A
100
AcDbEntity
  8
TORNILLERIA
370
    -1
100
AcDbCircle
 10
112.3622856443706
 20
168.8096811812905
 30
0.0
 40
1.0
100
AcDbArc
 50
270.0000000000003
 51
0.0
  0
ARC
  5
3227
330
1A
100
AcDbEntity
  8
TORNILLERIA
370
    -1
100
AcDbCircle
 10
108.4802548377375
 20
168.7489388829487
 30
0.0
 40
1.883010776369531
100
AcDbArc
 50
330.07894095517
 51
1.848572108976789
  0
ARC
  5
3228
330
1A
100
AcDbEntity
  8
TORNILLERIA
370
    -1
100
AcDbCircle
 10
109.870665795661
 20
168.6804911056452
 30
0.0
 40
1.0
100
AcDbArc
 50
299.4471052414438
 51
7.422792404401637
  0
LINE
  5
3229
330
1A
100
AcDbEntity
  8
TORNILLERIA
370
    -1
100
AcDbLine
 10
114.8622856443706
 20
173.8096811812904
 30
0.0
 11
114.8622856443706
 21
172.8096811812904
 31
0.0
  0
LINE
  5
322A
330
1A
100
AcDbEntity
  8
TORNILLERIA
370
    -1
100
AcDbLine
 10
110.8622856443706
 20
164.3096811812904
 30
0.0
 11
109.8622856443706
 21
163.3096811812904
 31
0.0
  0
LINE
  5
322B
330
1A
100
AcDbEntity
  8
TORNILLERIA
370
    -1
100
AcDbLine
 10
114.1122856443706
 20
183.8096811812904
 30
0.0
 11
112.3622856443706
 21
185.8096811812904
 31
0.0
  0
LINE
  5
322C
330
1A
100
AcDbEntity
  8
TORNILLERIA
370
    -1
100
AcDbLine
 10
116.0122856443706
 20
177.3096811812904
 30
0.0
 11
116.0122856443706
 21
180.3096811812904
 31
0.0
  0
LINE
  5
322D
330
1A
100
AcDbEntity
  8
TORNILLERIA
370
    -1
100
AcDbLine
 10
111.1122856443706
 20
177.3096811812904
 30
0.0
 11
111.1122856443706
 21
182.3096811812904
 31
0.0
  0
LINE
  5
322E
330
1A
100
AcDbEntity
  8
TORNILLERIA
370
    -1
100
AcDbLine
 10
118.0122856443706
 20
177.3096811812904
 30
0.0
 11
118.0122856443706
 21
180.3096811812904
 31
0.0
  0
LINE
  5
322F
330
1A
100
AcDbEntity
  8
TORNILLERIA
370
    -1
100
AcDbLine
 10
118.0122856443706
 20
177.3096811812904
 30
0.0
 11
116.0122856443706
 21
177.3096811812904
 31
0.0
  0
LINE
  5
3230
330
1A
100
AcDbEntity
  8
TORNILLERIA
370
    -1
100
AcDbLine
 10
115.0122856443706
 20
181.3096811812904
 30
0.0
 11
111.1122856443706
 21
181.3096811812904
 31
0.0
  0
ARC
  5
3231
330
1A
100
AcDbEntity
  8
TORNILLERIA
370
    -1
100
AcDbCircle
 10
112.1122856443706
 20
182.3096811812905
 30
0.0
 40
1.0
100
AcDbArc
 50
89.99999999999991
 51
179.9999999999997
  0
LINE
  5
3232
330
1A
100
AcDbEntity
  8
TORNILLERIA
370
    -1
100
AcDbLine
 10
114.1122856443706
 20
183.3096811812904
 30
0.0
 11
114.1122856443706
 21
183.8096811812904
 31
0.0
  0
ARC
  5
3233
330
1A
100
AcDbEntity
  8
TORNILLERIA
370
    -1
100
AcDbCircle
 10
115.0122856443706
 20
180.3096811812905
 30
0.0
 40
1.0
100
AcDbArc
 50
0.0
 51
90.0
  0
LINE
  5
3234
330
1A
100
AcDbEntity
  8
TORNILLERIA
370
    -1
100
AcDbLine
 10
113.1122856443706
 20
181.3096811812904
 30
0.0
 11
113.1122856443706
 21
183.3096811812904
 31
0.0
  0
LINE
  5
3235
330
1A
100
AcDbEntity
  8
TORNILLERIA
370
    -1
100
AcDbLine
 10
111.4622856443706
 20
180.3096811812904
 30
0.0
 11
111.1122856443706
 21
180.3096811812904
 31
0.0
  0
LINE
  5
3236
330
1A
100
AcDbEntity
  8
TORNILLERIA
370
    -1
100
AcDbLine
 10
111.4622856443706
 20
180.3096811812904
 30
0.0
 11
111.4622856443706
 21
181.3096811812904
 31
0.0
  0
ARC
  5
3237
330
1A
100
AcDbEntity
  8
TORNILLERIA
370
    -1
100
AcDbCircle
 10
115.0122856443707
 20
180.3096811812905
 30
0.0
 40
3.0
100
AcDbArc
 50
0.0
 51
90.0
  0
LINE
  5
3238
330
1A
100
AcDbEntity
  8
TORNILLERIA
370
    -1
100
AcDbLine
 10
104.8622856443706
 20
164.3096811812904
 30
0.0
 11
104.8622856443706
 21
167.8096811812902
 31
0.0
  0
LINE
  5
3239
330
1A
100
AcDbEntity
  8
TORNILLERIA
370
    -1
100
AcDbLine
 10
105.8622856443706
 20
163.3096811812904
 30
0.0
 11
105.8622856443706
 21
167.8096811812903
 31
0.0
  0
LINE
  5
323A
330
1A
100
AcDbEntity
  8
TORNILLERIA
370
    -1
100
AcDbLine
 10
100.8622856443706
 20
172.8096811812904
 30
0.0
 11
102.3622856443706
 21
171.3096811812904
 31
0.0
  0
LINE
  5
323B
330
1A
100
AcDbEntity
  8
TORNILLERIA
370
    -1
100
AcDbLine
 10
102.3622856443706
 20
171.3096811812904
 30
0.0
 11
102.3622856443706
 21
168.8096811812903
 31
0.0
  0
ARC
  5
323C
330
1A
100
AcDbEntity
  8
TORNILLERIA
370
    -1
100
AcDbCircle
 10
103.3622856443706
 20
168.8096811812904
 30
0.0
 40
1.0
100
AcDbArc
 50
179.9999999999997
 51
270.0
  0
LINE
  5
323D
330
1A
100
AcDbEntity
  8
TORNILLERIA
370
    -1
100
AcDbLine
 10
104.8622856443706
 20
171.3096811812904
 30
0.0
 11
104.8622856443706
 21
168.8096811812904
 31
0.0
  0
LINE
  5
323E
330
1A
100
AcDbEntity
  8
TORNILLERIA
370
    -1
100
AcDbLine
 10
105.3622856443706
 20
171.3096811812904
 30
0.0
 11
105.3622856443706
 21
168.8096811812903
 31
0.0
  0
LINE
  5
323F
330
1A
100
AcDbEntity
  8
TORNILLERIA
370
    -1
100
AcDbLine
 10
104.8622856443706
 20
171.3096811812904
 30
0.0
 11
105.3622856443706
 21
171.3096811812904
 31
0.0
  0
ARC
  5
3240
330
1A
100
AcDbEntity
  8
TORNILLERIA
370
    -1
100
AcDbCircle
 10
107.2443164510037
 20
168.7489388829487
 30
0.0
 40
1.883010776369531
100
AcDbArc
 50
178.1514278910232
 51
209.92105904483
  0
ARC
  5
3241
330
1A
100
AcDbEntity
  8
TORNILLERIA
370
    -1
100
AcDbCircle
 10
105.8539054930801
 20
168.6804911056452
 30
0.0
 40
1.0
100
AcDbArc
 50
172.5772075955984
 51
240.5528947585562
  0
ARC
  5
3242
330
1A
100
AcDbEntity
  8
TORNILLERIA
370
    -1
100
AcDbCircle
 10
103.6122856443706
 20
172.6221811812904
 30
0.0
 40
1.812499999999939
100
AcDbArc
 50
226.3971810272958
 51
313.6028189727045
  0
LINE
  5
3243
330
1A
100
AcDbEntity
  8
TORNILLERIA
370
    -1
100
AcDbLine
 10
100.8622856443706
 20
173.8096811812904
 30
0.0
 11
100.8622856443706
 21
172.8096811812904
 31
0.0
  0
LINE
  5
3244
330
1A
100
AcDbEntity
  8
TORNILLERIA
370
    -1
100
AcDbLine
 10
105.8622856443706
 20
163.3096811812904
 30
0.0
 11
104.8622856443706
 21
164.3096811812904
 31
0.0
  0
LINE
  5
3245
330
1A
100
AcDbEntity
  8
TORNILLERIA
370
    -1
100
AcDbLine
 10
101.6122856443706
 20
183.8096811812904
 30
0.0
 11
103.3622856443706
 21
185.8096811812904
 31
0.0
  0
LINE
  5
3246
330
1A
100
AcDbEntity
  8
TORNILLERIA
370
    -1
100
AcDbLine
 10
99.71228564437064
 20
177.3096811812904
 30
0.0
 11
97.71228564437064
 21
177.3096811812905
 31
0.0
  0
ARC
  5
3247
330
1A
100
AcDbEntity
  8
TORNILLERIA
370
    -1
100
AcDbCircle
 10
100.7122856443707
 20
180.3096811812905
 30
0.0
 40
3.0
100
AcDbArc
 50
89.99999999999991
 51
180.0
  0
LINE
  5
3248
330
1A
100
AcDbEntity
  8
TORNILLERIA
370
    -1
100
AcDbLine
 10
99.71228564437064
 20
177.3096811812904
 30
0.0
 11
99.71228564437058
 21
180.3096811812904
 31
0.0
  0
LINE
  5
3249
330
1A
100
AcDbEntity
  8
TORNILLERIA
370
    -1
100
AcDbLine
 10
104.6122856443706
 20
177.3096811812904
 30
0.0
 11
104.6122856443706
 21
182.3096811812903
 31
0.0
  0
LINE
  5
324A
330
1A
100
AcDbEntity
  8
TORNILLERIA
370
    -1
100
AcDbLine
 10
104.2622856443706
 20
180.3096811812904
 30
0.0
 11
104.2622856443706
 21
181.3096811812904
 31
0.0
  0
LINE
  5
324B
330
1A
100
AcDbEntity
  8
TORNILLERIA
370
    -1
100
AcDbLine
 10
101.6122856443706
 20
183.3096811812904
 30
0.0
 11
101.6122856443706
 21
183.8096811812904
 31
0.0
  0
ARC
  5
324C
330
1A
100
AcDbEntity
  8
TORNILLERIA
370
    -1
100
AcDbCircle
 10
100.7122856443706
 20
180.3096811812905
 30
0.0
 40
1.0
100
AcDbArc
 50
90.0
 51
180.0000000000004
  0
LINE
  5
324D
330
1A
100
AcDbEntity
  8
TORNILLERIA
370
    -1
100
AcDbLine
 10
102.6122856443706
 20
181.3096811812904
 30
0.0
 11
102.6122856443706
 21
183.3096811812904
 31
0.0
  0
LINE
  5
324E
330
1A
100
AcDbEntity
  8
TORNILLERIA
370
    -1
100
AcDbLine
 10
104.6122856443706
 20
180.3096811812904
 30
0.0
 11
104.2622856443706
 21
180.3096811812904
 31
0.0
  0
ARC
  5
324F
330
1A
100
AcDbEntity
  8
TORNILLERIA
370
    -1
100
AcDbCircle
 10
103.6122856443706
 20
182.3096811812904
 30
0.0
 40
1.0
100
AcDbArc
 50
0.0
 51
89.99999999999815
  0
LINE
  5
3250
330
1A
100
AcDbEntity
  8
TORNILLERIA
370
    -1
100
AcDbLine
 10
104.6122856443706
 20
181.3096811812904
 30
0.0
 11
100.7122856443706
 21
181.3096811812904
 31
0.0
  0
LINE
  5
3251
330
1A
100
AcDbEntity
  8
TORNILLERIA
370
    -1
100
AcDbLine
 10
97.71228564437064
 20
177.3096811812905
 30
0.0
 11
97.71228564437064
 21
180.3096811812905
 31
0.0
  0
LINE
  5
3254
330
1A
100
AcDbEntity
  8
TORNILLERIA
370
    -1
100
AcDbLine
 10
110.8622856443706
 20
176.8096811812904
 30
0.0
 11
110.8622856443706
 21
177.3096811812904
 31
0.0
  0
LINE
  5
3255
330
1A
100
AcDbEntity
  8
TORNILLERIA
370
    -1
100
AcDbLine
 10
109.8622856443706
 20
176.8096811812905
 30
0.0
 11
109.8622856443706
 21
177.3096811812904
 31
0.0
  0
LINE
  5
3256
330
1A
100
AcDbEntity
  8
TORNILLERIA
370
    -1
100
AcDbLine
 10
105.8622856443706
 20
176.8096811812905
 30
0.0
 11
105.8622856443706
 21
177.3096811812904
 31
0.0
  0
LINE
  5
3257
330
1A
100
AcDbEntity
  8
TORNILLERIA
370
    -1
100
AcDbLine
 10
104.8622856443706
 20
176.8096811812904
 30
0.0
 11
104.8622856443706
 21
177.3096811812904
 31
0.0
  0
LINE
  5
3258
330
1A
100
AcDbEntity
  8
BANDEJAS
370
    -1
100
AcDbLine
 10
117.8407127691169
 20
181.3096811812904
 30
0.0
 11
262.9622856443706
 21
181.3096811812904
 31
0.0
  0
LINE
  5
3259
330
1A
100
AcDbEntity
  8
BANDEJAS
370
    -1
100
AcDbLine
 10
112.3622856443707
 20
185.8096811812904
 30
0.0
 11
262.9622856443706
 21
185.8096811812904
 31
0.0
  0
LINE
  5
325A
330
1A
100
AcDbEntity
  8
TORNILLERIA
370
    -1
100
AcDbLine
 10
103.3622856443706
 20
185.8096811812904
 30
0.0
 11
112.3622856443706
 21
185.8096811812904
 31
0.0
  0
LINE
  5
325C
330
1A
100
AcDbEntity
  8
TORNILLERIA
370
    -1
100
AcDbLine
 10
249.0622856443706
 20
176.8096811812905
 30
0.0
 11
249.0622856443706
 21
177.3096811812904
 31
0.0
  0
LINE
  5
325D
330
1A
100
AcDbEntity
  8
TORNILLERIA
370
    -1
100
AcDbLine
 10
248.0622856443707
 20
176.8096811812904
 30
0.0
 11
248.0622856443706
 21
177.3096811812904
 31
0.0
  0
LINE
  5
325E
330
1A
100
AcDbEntity
  8
TORNILLERIA
370
    -1
100
AcDbLine
 10
243.0622856443706
 20
176.8096811812905
 30
0.0
 11
243.0622856443706
 21
177.3096811812904
 31
0.0
  0
LINE
  5
325F
330
1A
100
AcDbEntity
  8
TORNILLERIA
370
    -1
100
AcDbLine
 10
244.0622856443707
 20
176.8096811812904
 30
0.0
 11
244.0622856443706
 21
177.3096811812904
 31
0.0
  0
LINE
  5
326B
330
1A
100
AcDbEntity
  8
OTROS
370
    -1
100
AcDbLine
 10
287.6737133219887
 20
136.8096811812905
 30
0.0
 11
66.25085796675256
 21
136.8096811812905
 31
0.0
  0
LINE
  5
326C
330
1A
100
AcDbEntity
  8
OTROS
370
    -1
100
AcDbLine
 10
24.46228564437058
 20
136.8096811812905
 30
0.0
 11
7.40784441331607
 21
136.8096811812905
 31
0.0
  0
LINE
  5
326D
330
1A
100
AcDbEntity
  8
OTROS
370
    -1
100
AcDbLine
 10
329.4622856443707
 20
136.8096811812905
 30
0.0
 11
345.214377550945
 21
136.8096811812905
 31
0.0
  0
SPLINE
  5
326E
330
1A
100
AcDbEntity
  8
OTROS
370
    -1
100
AcDbSpline
210
0.0
220
0.0
230
1.0
 70
  1064
 71
     3
 72
    16
 73
    12
 74
    10
 42
0.0000000001
 43
0.0000000001
 44
0.0000000001
 40
0.0
 40
0.0
 40
0.0
 40
0.0
 40
20.91805917581311
 40
51.76635732108095
 40
70.56973842178255
 40
136.5759186170795
 40
218.0359420605655
 40
285.6344329978513
 40
335.9948063509321
 40
368.8813491399537
 40
410.6075401422454
 40
410.6075401422454
 40
410.6075401422454
 40
410.6075401422454
 10
7.40784441331607
 20
136.8096811812905
 30
0.0
 10
10.90530589614241
 20
130.7887296534442
 30
0.0
 10
19.56054677269798
 20
115.8885553311635
 30
0.0
 10
23.9583801286625
 20
91.24149450840888
 30
0.0
 10
58.79765799842536
 20
68.29692357802242
 30
0.0
 10
116.2656585306733
 20
98.54480185669316
 30
0.0
 10
186.8122507166561
 20
68.18835313681988
 30
0.0
 10
252.9488640670735
 20
95.94887326527271
 30
0.0
 10
303.3488633948386
 20
67.51773301161494
 30
0.0
 10
341.8420824678153
 20
96.8243411212481
 30
0.0
 10
344.0048681025432
 20
122.4685142881216
 30
0.0
 10
345.214377550945
 20
136.8096811812905
 30
0.0
 11
7.40784441331607
 21
136.8096811812905
 31
0.0
 11
17.01371691792338
 21
118.2276357312318
 31
0.0
 11
29.28788787144879
 21
89.9263596846828
 31
0.0
 11
44.76401712296729
 21
79.2466328993893
 31
0.0
 11
110.4041490902802
 21
86.18845537535107
 31
0.0
 11
191.5204095126542
 21
78.71264675668785
 31
0.0
 11
258.7615210271922
 21
85.6544692326496
 31
0.0
 11
308.3918646903687
 21
77.11068832858325
 31
0.0
 11
335.0748451972624
 21
96.3341960179431
 31
0.0
 11
345.214377550945
 21
136.8096811812905
 31
0.0
  0
VIEWPORT
  5
22
102
{ACAD_XDICTIONARY
360
3319
102
}
330
17
100
AcDbEntity
 67
     1
  8
0
370
    -1
100
AcDbViewport
 10
124.4090540675263
 20
146.3912225850257
 30
0.0
 40
505.2787682094957
 41
310.036041201171
 68
     1
 69
     1
 12
124.4090540675263
 22
146.3912225850257
 13
0.0
 23
0.0
 14
1.0
 24
1.0
 15
10.0
 25
10.0
 16
0.0
 26
0.0
 36
1.0
 17
0.0
 27
0.0
 37
0.0
 42
50.0
 43
0.0
 44
0.0
 45
310.036041201171
 50
0.0
 51
0.0
 72
   100
 90
    32800
  1

281
     0
 71
     1
 74
     0
110
0.0
120
0.0
130
0.0
111
1.0
121
0.0
131
0.0
112
0.0
122
1.0
132
0.0
 79
     0
146
0.0
  0
VIEWPORT
  5
CF
102
{ACAD_XDICTIONARY
360
331B
102
}
330
17
100
AcDbEntity
 67
     1
  8
VIEWPORT
370
    -1
100
AcDbViewport
 10
102.7569583719095
 20
146.1373828500363
 30
0.0
 40
203.513916743819
 41
287.2747657000725
 68
     2
 69
     2
 12
152.3509474011414
 22
143.4267728431623
 13
0.0
 23
0.0
 14
10.0
 24
10.0
 15
10.0
 25
10.0
 16
0.0
 26
0.0
 36
1.0
 17
0.0
 27
0.0
 37
0.0
 42
50.0
 43
0.0
 44
0.0
 45
592.860692401248
 50
0.0
 51
0.0
 72
   100
 90
    32800
  1

281
     0
 71
     1
 74
     0
110
0.0
120
0.0
130
0.0
111
1.0
121
0.0
131
0.0
112
0.0
122
1.0
132
0.0
 79
     0
146
0.0
  0
INSERT
  5
DDF
330
17
100
AcDbEntity
 67
     1
  8
SOMBREA
370
    -1
100
AcDbBlockReference
  2
AME_NIL
 10
24.008130817938
 20
40.51347084596878
 30
0.0
  0
INSERT
  5
DE0
330
17
100
AcDbEntity
 67
     1
  8
SOMBREA
370
    -1
100
AcDbBlockReference
  2
AME_NIL
 10
25.008130817938
 20
41.51347084596878
 30
1.0
1001
AME_SOL
1004
C7CF0100AD005601550153014F01470122003A0129012D0017013B001000D90048013F003B019900DD00500149013C015600FD003D012A01B400FB002B01F40081004A013E012C01D1001801910005002D011901FC008E001A011500DA003F012E011B01840053001C01BF000C01F2000F002F011D010D01
1004
BC0079000E01BB0031001E010F016B00390010017400050165000400540151014B014001400030014E0019004101030031011F01FF00B1002001A90080004C01F0004201010032019700590052014D01430133018500E8003401AD0021010900440044013501220175005F002301DF002800360124012100
1004
5400250111014D0064001201D800A7004E0145013701260113016900960014010601EF00EE000701BD00A4002701150108018900380009017300620016010A0101010001F70002011C00D6000B010301BE00520004013D00660038010200C00046012B00390128016700EA00460000007D49F524E2AB4D13
1004
1313373AE652ADC721200C4BCEC721200C4BCECD834E393735323A1C8480312F20390900625E41BADF44E00A7EA12DCA9D9D4721200C4BCEC721200C4BCECD834E393735323A1C8480312F20390900625E41BADF44E00A7EA12D7D44169A8EB75AF9DF517FA85FFFFFFFA85FFFFFFFE675170CA182CF20A2
1004
E1943059E43FFFFFDF517FA85FFFFFFFA85FFFFFFFE675170CA182CF20A2E1943059E43FFFFF509B8FBEE168FF50BFFFFFFF50BFC33E9ECEE7C3CBCE328B8650C16790FF757EB99018AF60D4FD7320315EC1A7FDD77EB99018AF60D5FFFA84FD7320315EC1A56FFFFA84EAF9DF3ADFFFF509B8FAB770B47F
1004
A85FFFFFFFA85FEA2E1943059E43FFFDD5FAE64062BD8353F5CC80C57B069FF75DFAE64062BD8357FFEA13F5CC80C57B0695BFFFEA13ABE77CEB7FFFD426E3EBAEE168FF50BFFFFFFF50BFC33E9ECEE7C3CBCE328B8650C1679DFFBABF5CC80C57B06A7EB99018AF60D3FEEBBF5CC80C57B06AFE9FFA84FD
1004
7320315EC1A56FFD3FF509D5F3BE75BFF4FFD426E3EA5DC2D1FEA17FFFFFFEA17FA8B8650C1679D867D3D9DCF8790A73DFEEAFD7320315EC1A9FAE64062BD834FFBAEFD7320315EC1ABFFF509FAE64062BD834ADFFFF509D5F3BE75BFFFEA1153B2D1C8480312F3B1C8480312F3B360D38E4DCD4C8E87212
1004
00C4BC80E4240189790360D38E4DCD4C84B4E111F8F48EB75AE7F9C22FF50BFFFFFA7FEA3AFE9FFFFFFE67FFFFFFFFFF3845FEA17FFFFF4FFD475FD3FFFFFFCCFFFFFFFFFFA8454ECB4721200C4BCEC721200C4BCEDC94D72C2390E538821C8480312F20390900625E41BADF44E00A7EA12D3844DE3C23AD
1004
D69FDCE117FA85FFFFFFFA85FFFFFFFA8467FFFFFFFFFF3845FEA17FFFFFFEA17FFFFFFEA119FFFFFFFFFF509C7714721200C4BCEC721200C4BCEDC94D72C2390E538821C8480312F20390900625E41BADF44E00A7EA13584676D2AD8CCEDAC233B6956C6641D4D1A1CD39B47D3131685A6A3B78F08FBA85
1004
A6A3B78F08EB75B9A347FA85FFFFFFFA85FFFFFFFA847FD45C32860B3C828B8650C167906B08CEDA55B199DB584676D2AD8CC838EE28E424018979D8E424018979D9B069C726E6A6474390900625E40721200C4BC81B069C726E6A6426B08CEDA55B199DB584676D2AD8CC83A9A34379CE23EB531302D351
1004
CFC7A47DD4FC7A470B4D475BADCD1A3FD42FFFFFFFD42FFFFFFFF3FEA2E1943059E4145C32860B3C83584676D2AD8CCEDAC233B6956C664119A3987F
1005
0
  0
INSERT
  5
DE1
330
17
100
AcDbEntity
 67
     1
  8
SOMBREA
370
    -1
100
AcDbBlockReference
  2
AME_NIL
 10
25.008130817938
 20
41.51347084596878
 30
1.0
1001
AME_SOL
1004

1005
0
  0
INSERT
  5
DE2
330
17
100
AcDbEntity
 67
     1
  8
SOMBREA
370
    -1
100
AcDbBlockReference
  2
AME_SOL
 10
24.008130817938
 20
40.51347084596878
 30
0.0
1001
AME_SOL
1000
R2.1
1000
AME2
1000
cm^ 2
1070
     3
1070
     0
1070
     3
1000
wire
1040
45.0
1000
U
1040
1.0
1000
mm
1000
gm
1000
MILD_STEEL
1070
    25
1000
CSG
1070
     1
1070
     3
1070
     3
1070
     6
1070
     0
1000
cm^ 3
1070
     1
1070
     0
1005
0
  0
INSERT
  5
DE3
330
17
100
AcDbEntity
 67
     1
  8
ASHADE
 62
     1
370
    -1
100
AcDbBlockReference
  2
AVE_RENDER
 10
-0.991869182062004
 20
-1.978694513292169
 30
0.0
1001
AVE_RENDER
1002
{
1070
     2
1000
Pref
1070
    30
1070
    20
1070
     0
1070
     0
1000

1070
    10
1070
     0
1070
    30
1040
1.0
1070
     1
1040
0.3
1040
0.7
1040
0.0
1040
10.0
1010
-1.0
1020
-1.0
1030
-1.0
1040
0.3
1070
    49
1002
}
  0
INSERT
  5
DE4
330
17
100
AcDbEntity
 67
     1
  8
ASHADE
 62
     3
370
    -1
100
AcDbBlockReference
  2
AVE_RENDER
 10
-0.991869182062004
 20
-1.978694513292169
 30
0.0
1001
AVE_RENDER
1002
{
1070
     0
1000
Full Opt
1070
     0
1070
     1
1070
     1
1070
     1
1070
     0
1070
     0
1070
     0
1070
     1
1070
     1
1040
0.0001
1040
0.0001
1002
}
  0
INSERT
  5
DE5
330
17
100
AcDbEntity
 67
     1
  8
ASHADE
 62
     4
370
    -1
100
AcDbBlockReference
  2
AVE_RENDER
 10
-0.991869182062004
 20
-1.978694513292169
 30
0.0
1001
AVE_RENDER
1002
{
1070
     0
1000
Quick Opt
1070
     0
1070
     1
1070
     1
1070
     1
1070
     0
1070
     0
1070
     1
1002
}
  0
LINE
  5
DE6
330
17
100
AcDbEntity
 67
     1
  8
FORMATO
370
    -1
100
AcDbLine
 10
204.513916743819
 20
289.7747657000725
 30
0.0
 11
24.00813081793802
 21
289.7747657000725
 31
0.0
  0
LINE
  5
DE7
330
17
100
AcDbEntity
 67
     1
  8
FORMATO
370
    -1
100
AcDbLine
 10
24.00813081793802
 20
289.7747657000725
 30
0.0
 11
24.008130817938
 21
3.021305486707831
 31
0.0
  0
LINE
  5
DE8
330
17
100
AcDbEntity
 67
     1
  8
FORMATO
370
    -1
100
AcDbLine
 10
204.513916743819
 20
3.021305486707831
 30
0.0
 11
204.513916743819
 21
289.7747657000725
 31
0.0
  0
LINE
  5
DE9
330
17
100
AcDbEntity
 67
     1
  8
FORMATO
370
    -1
100
AcDbLine
 10
24.008130817938
 20
3.021305486707831
 30
0.0
 11
204.513916743819
 21
3.021305486707831
 31
0.0
  0
LINE
  5
DEA
330
17
100
AcDbEntity
 67
     1
  8
FORMATO
370
    -1
100
AcDbLine
 10
204.513916743819
 20
249.7747657000725
 30
0.0
 11
24.00813081793802
 21
249.7747657000725
 31
0.0
  0
TEXT
  5
DEB
330
17
100
AcDbEntity
 67
     1
  8
FORMATO
370
    -1
100
AcDbText
 10
61.97530949516423
 20
281.7747657000725
 30
0.0
 40
6.0
  1
MONTAJE REJIBAND 86
  7
ROMANS
 72
     1
 11
114.2610237808785
 21
281.7747657000725
 31
0.0
100
AcDbText
  0
TEXT
  5
DEC
330
17
100
AcDbEntity
 67
     1
  8
FORMATO
370
    -1
100
AcDbText
 10
69.83245235230709
 20
273.7747657000725
 30
0.0
 40
6.0
  1
SUELO HORIZONTAL
  7
ROMANS
 72
     1
 11
114.2610237808785
 21
273.7747657000725
 31
0.0
100
AcDbText
  0
TEXT
  5
DED
330
17
100
AcDbEntity
 67
     1
  8
FORMATO
370
    -1
100
AcDbText
 10
83.2610237808785
 20
265.7747657000725
 30
0.0
 40
6.0
  1
DISTANCIADOR
  7
ROMANS
 72
     1
 11
114.2610237808785
 21
265.7747657000725
 31
0.0
100
AcDbText
  0
TEXT
  5
DEE
330
17
100
AcDbEntity
 67
     1
  8
0
 62
     3
370
    -1
100
AcDbText
 10
56.45149997135471
 20
259.7747657000725
 30
0.0
 40
4.0
  1
APLICACION: Bandejas de 200 a 600
  7
ROMANS
 72
     1
 11
114.2610237808785
 21
259.7747657000725
 31
0.0
100
AcDbText
  0
TEXT
  5
DEF
330
17
100
AcDbEntity
 67
     1
  8
0
 62
     3
370
    -1
100
AcDbText
 10
34.45149997135468
 20
253.7747657000725
 30
0.0
 40
4.0
  1
CARGAS: Según pag. 29 Catalogo Nº206 (1000 N)
  7
ROMANS
 72
     1
 11
114.2610237808785
 21
253.7747657000725
 31
0.0
100
AcDbText
  0
LINE
  5
DF0
330
17
100
AcDbEntity
 67
     1
  8
FORMATO
370
    -1
100
AcDbLine
 10
24.008130817938
 20
34.7526383866753
 30
0.0
 11
204.513916743819
 21
34.7526383866753
 31
0.0
  0
LINE
  5
DF1
330
17
100
AcDbEntity
 67
     1
  8
FORMATO
370
    -1
100
AcDbLine
 10
24.008130817938
 20
25.08244959699169
 30
0.0
 11
204.513916743819
 21
25.08244959699169
 31
0.0
  0
TEXT
  5
DF2
330
17
100
AcDbEntity
 67
     1
  8
FORMATO
370
    -1
100
AcDbText
 10
26.54443758474773
 20
27.77674827571519
 30
0.0
 40
3.0
  1
Nº
  7
ROMANS
100
AcDbText
  0
TEXT
  5
DF3
330
17
100
AcDbEntity
 67
     1
  8
BANDEJAS
370
    -1
100
AcDbText
 10
26.54443758474773
 20
20.32153396795329
 30
0.0
 40
3.0
  1
1
  7
ROMANS
100
AcDbText
  0
TEXT
  5
DF4
330
17
100
AcDbEntity
 67
     1
  8
SOPORTES
370
    -1
100
AcDbText
 10
26.54443758474773
 20
15.46439111081042
 30
0.0
 40
3.0
  1
43
  7
ROMANS
100
AcDbText
  0
TEXT
  5
DF5
330
17
100
AcDbEntity
 67
     1
  8
TORNILLERIA
370
    -1
100
AcDbText
 10
26.54443758474773
 20
10.60724825366756
 30
0.0
 40
3.0
  1
44
  7
ROMANS
100
AcDbText
  0
TEXT
  5
DF6
330
17
100
AcDbEntity
 67
     1
  8
TORNILLERIA
370
    -1
100
AcDbText
 10
26.54443758474773
 20
5.750105396524702
 30
0.0
 40
3.0
  1
85
  7
ROMANS
100
AcDbText
  0
TEXT
  5
DFA
330
17
100
AcDbEntity
 67
     1
  8
BANDEJAS
370
    -1
100
AcDbText
 10
37.12877525591617
 20
20.32153396795329
 30
0.0
 40
3.0
  1
REJIBAND de 200 a 600
  7
ROMANS
100
AcDbText
  0
TEXT
  5
DFB
330
17
100
AcDbEntity
 67
     1
  8
TORNILLERIA
370
    -1
100
AcDbText
 10
37.12877525591617
 20
10.60724825366756
 30
0.0
 40
3.0
  1
Fijación
  7
ROMANS
100
AcDbText
  0
TEXT
  5
DFC
330
17
100
AcDbEntity
 67
     1
  8
SOPORTES
370
    -1
100
AcDbText
 10
37.12877525591617
 20
15.46439111081042
 30
0.0
 40
3.0
  1
Distanciador 180/350
  7
ROMANS
100
AcDbText
  0
TEXT
  5
DFD
330
17
100
AcDbEntity
 67
     1
  8
TORNILLERIA
370
    -1
100
AcDbText
 10
37.12877525591617
 20
5.750105396524702
 30
0.0
 40
3.0
  1
Tornillo C/Exagonal M10X20
  7
ROMANS
100
AcDbText
  0
TEXT
  5
DFF
330
17
100
AcDbEntity
 67
     1
  8
FORMATO
370
    -1
100
AcDbText
 10
37.12877525591617
 20
27.77674827571519
 30
0.0
 40
3.0
  1
DENOMINACIÓN
  7
ROMANS
100
AcDbText
  0
LINE
  5
E00
330
17
100
AcDbEntity
 67
     1
  8
FORMATO
370
    -1
100
AcDbLine
 10
34.59246848910644
 20
34.75263838667531
 30
0.0
 11
34.59246848910644
 21
3.021305486707831
 31
0.0
  0
TEXT
  5
E02
330
17
100
AcDbEntity
 67
     1
  8
BANDEJAS
370
    -1
100
AcDbText
 10
127.4287176938689
 20
20.32153396795329
 30
0.0
 40
3.0
  1
1
  7
ROMANS
100
AcDbText
  0
TEXT
  5
E03
330
17
100
AcDbEntity
 67
     1
  8
TORNILLERIA
370
    -1
100
AcDbText
 10
127.4287176938689
 20
10.60724825366756
 30
0.0
 40
3.0
  1
2
  7
ROMANS
100
AcDbText
  0
TEXT
  5
E04
330
17
100
AcDbEntity
 67
     1
  8
SOPORTES
370
    -1
100
AcDbText
 10
127.4287176938689
 20
15.46439111081042
 30
0.0
 40
3.0
  1
1
  7
ROMANS
100
AcDbText
  0
TEXT
  5
E05
330
17
100
AcDbEntity
 67
     1
  8
TORNILLERIA
370
    -1
100
AcDbText
 10
127.4287176938689
 20
5.750105396524702
 30
0.0
 40
3.0
  1
2
  7
ROMANS
100
AcDbText
  0
TEXT
  5
E07
330
17
100
AcDbEntity
 67
     1
  8
FORMATO
370
    -1
100
AcDbText
 10
127.4287176938689
 20
30.00366666195993
 30
0.0
 40
3.0
  1
Nº de
  7
ROMANS
100
AcDbText
  0
LINE
  5
E08
330
17
100
AcDbEntity
 67
     1
  8
FORMATO
370
    -1
100
AcDbLine
 10
124.8924109270592
 20
34.75263838667531
 30
0.0
 11
124.8924109270592
 21
3.021305486707831
 31
0.0
  0
TEXT
  5
E09
330
17
100
AcDbEntity
 67
     1
  8
FORMATO
370
    -1
100
AcDbText
 10
127.4287176938689
 20
25.92098295384432
 30
0.0
 40
3.0
  1
piezas
  7
ROMANS
100
AcDbText
  0
TEXT
  5
E0B
330
17
100
AcDbEntity
 67
     1
  8
BANDEJAS
370
    -1
100
AcDbText
 10
146.1834215154687
 20
20.32153396795329
 30
0.0
 40
3.0
  1
Cat. nº206 Pag. 10
  7
ROMANS
100
AcDbText
  0
TEXT
  5
E0C
330
17
100
AcDbEntity
 67
     1
  8
TORNILLERIA
370
    -1
100
AcDbText
 10
146.1834215154687
 20
10.60724825366756
 30
0.0
 40
3.0
  1
Cat. nº206 Pag. 15-22
  7
ROMANS
100
AcDbText
  0
TEXT
  5
E0D
330
17
100
AcDbEntity
 67
     1
  8
SOPORTES
370
    -1
100
AcDbText
 10
146.1834215154687
 20
15.46439111081042
 30
0.0
 40
3.0
  1
Cat. nº206 Pag. 30
  7
ROMANS
100
AcDbText
  0
TEXT
  5
E0E
330
17
100
AcDbEntity
 67
     1
  8
TORNILLERIA
370
    -1
100
AcDbText
 10
146.1834215154687
 20
5.750105396524702
 30
0.0
 40
3.0
  1
Cat. nº206 Pag. 99
  7
ROMANS
100
AcDbText
  0
TEXT
  5
E10
330
17
100
AcDbEntity
 67
     1
  8
FORMATO
370
    -1
100
AcDbText
 10
146.1834215154687
 20
27.77674827571519
 30
0.0
 40
3.0
  1
OBSERVACIONES
  7
ROMANS
100
AcDbText
  0
LINE
  5
E11
330
17
100
AcDbEntity
 67
     1
  8
FORMATO
370
    -1
100
AcDbLine
 10
143.647114748659
 20
34.7526383866753
 30
0.0
 11
143.647114748659
 21
3.021305486707831
 31
0.0
  0
LEADER
  5
329A
330
17
100
AcDbEntity
 67
     1
  8
BANDEJAS
370
    -1
100
AcDbLeader
  3
ISO-25_WS
 73
     0
 74
     0
 75
     1
 40
4.0
 41
5.333333333333333
 76
     3
 10
162.047994571659
 20
190.296466469436
 30
0.0
 10
172.8566610767625
 20
203.5982219825028
 30
0.0
 10
176.8566610767625
 20
203.5982219825028
 30
0.0
340
329B
1001
ACAD
1000
DSTYLE
1002
{
1070
   140
1040
4.0
1070
   340
1005
8E
1070
   178
1070
   256
1070
   177
1070
   256
1070
   176
1070
   256
1070
    41
1040
4.0
1002
}
  0
MTEXT
  5
329B
102
{ACAD_REACTORS
330
329A
102
}
330
17
100
AcDbEntity
 67
     1
  8
BANDEJAS
370
    -1
100
AcDbMText
 10
177.4816610767625
 20
206.2232219825028
 30
0.0
 40
4.0
 41
0.0
 71
     4
 72
     1
  1
\A1;01
  7
ROMANS
 73
     1
 44
1.0
  0
LEADER
  5
329C
330
17
100
AcDbEntity
 67
     1
  8
SOPORTES
370
    -1
100
AcDbLeader
  3
ISO-25_WS
 73
     0
 75
     1
 40
4.0
 41
6.476190476190476
 76
     3
 10
67.66407359201571
 20
155.1275503603887
 30
0.0
 10
54.83021585235429
 20
169.4964173092802
 30
0.0
 10
50.83021585235429
 20
169.4964173092802
 30
0.0
340
329D
1001
ACAD
1000
DSTYLE
1002
{
1070
   140
1040
4.0
1070
   340
1005
8E
1070
   178
1070
   256
1070
   177
1070
   256
1070
   176
1070
   256
1070
    41
1040
4.0
1002
}
  0
MTEXT
  5
329D
102
{ACAD_REACTORS
330
329C
102
}
330
17
100
AcDbEntity
 67
     1
  8
SOPORTES
370
    -1
100
AcDbMText
 10
50.20521585235429
 20
172.1214173092802
 30
0.0
 40
4.0
 41
0.0
 71
     6
 72
     1
  1
\A1;43
  7
ROMANS
 73
     1
 44
1.0
  0
LEADER
  5
329E
330
17
100
AcDbEntity
 67
     1
  8
TORNILLERIA
370
    -1
100
AcDbLeader
  3
ISO-25_WS
 73
     0
 74
     0
 75
     1
 40
4.0
 41
6.666666666666666
 76
     3
 10
80.85817752231083
 20
164.2213650303948
 30
0.0
 10
93.69203526197202
 20
181.318376244568
 30
0.0
 10
97.69203526197202
 20
181.318376244568
 30
0.0
340
329F
1001
ACAD
1000
DSTYLE
1002
{
1070
   140
1040
4.0
1070
   340
1005
8E
1070
   178
1070
   256
1070
   177
1070
   256
1070
   176
1070
   256
1070
    41
1040
4.0
1002
}
  0
MTEXT
  5
329F
102
{ACAD_REACTORS
330
329E
102
}
330
17
100
AcDbEntity
 67
     1
  8
TORNILLERIA
370
    -1
100
AcDbMText
 10
98.31703526197202
 20
183.943376244568
 30
0.0
 40
4.0
 41
0.0
 71
     4
 72
     1
  1
\A1;44
  7
ROMANS
 73
     1
 44
1.0
  0
LEADER
  5
32A0
330
17
100
AcDbEntity
 67
     1
  8
TORNILLERIA
370
    -1
100
AcDbLeader
  3
ISO-25_WS
 73
     0
 75
     1
 40
4.0
 41
6.476190476190476
 76
     3
 10
50.37524690531109
 20
146.9431175645436
 30
0.0
 10
40.72617291146253
 20
159.4932207651131
 30
0.0
 10
36.72617291146253
 20
159.4932207651131
 30
0.0
340
32A1
1001
ACAD
1000
DSTYLE
1002
{
1070
   140
1040
4.0
1070
   340
1005
8E
1070
   178
1070
   256
1070
   177
1070
   256
1070
   176
1070
   256
1070
    41
1040
4.0
1002
}
  0
MTEXT
  5
32A1
102
{ACAD_REACTORS
330
32A0
102
}
330
17
100
AcDbEntity
 67
     1
  8
TORNILLERIA
370
    -1
100
AcDbMText
 10
36.10117291146253
 20
162.1182207651131
 30
0.0
 40
4.0
 41
0.0
 71
     6
 72
     1
  1
\A1;85
  7
ROMANS
 73
     1
 44
1.0
  0
ENDSEC
  0
SECTION
  2
OBJECTS
  0
DICTIONARY
  5
C
330
0
100
AcDbDictionary
281
     1
  3
ACAD_COLOR
350
32C9
  3
ACAD_GROUP
350
D
  3
ACAD_LAYOUT
350
32CE
  3
ACAD_MATERIAL
350
32B4
  3
ACAD_MLEADERSTYLE
350
3302
  3
ACAD_MLINESTYLE
350
E
  3
ACAD_PLOTSETTINGS
350
32CD
  3
ACAD_PLOTSTYLENAME
350
32B2
  3
ACAD_SCALELIST
350
32F0
  3
ACAD_TABLESTYLE
350
32CA
  3
ACAD_VISUALSTYLE
350
32B8
  3
ACDBHEADERROUNDTRIPXREC
350
3315
  3
ACDBVARIABLEDICTIONARY
350
5D
  3
AcDsDecomposeData
350
335F
  3
DWGPROPS
350
3318
  0
DICTIONARY
  5
331D
330
8
100
AcDbDictionary
280
     1
281
     1
  3
ACAD_XREC_ROUNDTRIP
360
331E
  0
DICTIONARY
  5
32EA
330
2
100
AcDbDictionary
280
     1
281
     1
  3
ACAD_LAYERSTATES
360
32EB
  0
DICTIONARY
  5
3319
330
22
100
AcDbDictionary
280
     1
281
     1
  3
ACAD_XREC_ROUNDTRIP
360
331A
  0
DICTIONARY
  5
331B
330
CF
100
AcDbDictionary
280
     1
281
     1
  3
ACAD_XREC_ROUNDTRIP
360
331C
  0
DICTIONARY
  5
32C9
102
{ACAD_REACTORS
330
C
102
}
330
C
100
AcDbDictionary
281
     1
  0
DICTIONARY
  5
D
102
{ACAD_REACTORS
330
C
102
}
330
C
100
AcDbDictionary
281
     1
  0
DICTIONARY
  5
32CE
102
{ACAD_REACTORS
330
C
102
}
330
C
100
AcDbDictionary
281
     1
  3
Model
350
32CF
  3
Presentación1
350
32D0
  0
DICTIONARY
  5
32B4
102
{ACAD_REACTORS
330
C
102
}
330
C
100
AcDbDictionary
281
     1
  3
ByBlock
350
32B6
  3
ByLayer
350
32B5
  3
Global
350
32B7
  0
DICTIONARY
  5
3302
102
{ACAD_REACTORS
330
C
102
}
330
C
100
AcDbDictionary
281
     1
  3
Standard
350
3303
  0
DICTIONARY
  5
E
102
{ACAD_REACTORS
330
C
102
}
330
C
100
AcDbDictionary
281
     1
  3
STANDARD
350
13
  0
DICTIONARY
  5
32CD
102
{ACAD_REACTORS
330
C
102
}
330
C
100
AcDbDictionary
281
     1
  0
ACDBDICTIONARYWDFLT
  5
32B2
102
{ACAD_REACTORS
330
C
102
}
330
C
100
AcDbDictionary
281
     1
  3
Normal
350
32B3
100
AcDbDictionaryWithDefault
340
32B3
  0
DICTIONARY
  5
32F0
102
{ACAD_REACTORS
330
C
102
}
330
C
100
AcDbDictionary
281
     1
  3
A0
350
32F1
  3
A1
350
32F2
  3
A2
350
32F3
  3
A3
350
32F4
  3
A4
350
32F5
  3
A5
350
32F6
  3
A6
350
32F7
  3
A7
350
32F8
  3
A8
350
32F9
  3
A9
350
32FA
  3
B0
350
32FB
  3
B1
350
32FC
  3
B2
350
32FD
  3
B3
350
32FE
  3
B4
350
32FF
  3
B5
350
3300
  3
B6
350
3301
  0
DICTIONARY
  5
32CA
102
{ACAD_REACTORS
330
C
102
}
330
C
100
AcDbDictionary
281
     1
  3
Standard
350
32CB
  0
DICTIONARY
  5
32B8
102
{ACAD_REACTORS
330
C
102
}
330
C
100
AcDbDictionary
281
     1
  3
2dWireframe
350
32BE
  3
3D Hidden
350
32C0
  3
3dWireframe
350
32BF
  3
Basic
350
32BD
  3
Brighten
350
32C4
  3
ColorChange
350
32C8
  3
Conceptual
350
32C1
  3
Dim
350
32C3
  3
EdgeColorOff
350
3308
  3
Facepattern
350
32C7
  3
Flat
350
32B9
  3
FlatWithEdges
350
32BA
  3
Gouraud
350
32BB
  3
GouraudWithEdges
350
32BC
  3
Hidden
350
3305
  3
JitterOff
350
3306
  3
Linepattern
350
32C6
  3
OverhangOff
350
3307
  3
Realistic
350
32C2
  3
Shaded
350
330D
  3
Shaded with edges
350
330C
  3
Shades of Gray
350
3309
  3
Sketchy
350
330A
  3
Thicken
350
32C5
  3
Wireframe
350
3304
  3
X-Ray
350
330B
  0
DICTIONARY
  5
3315
102
{ACAD_REACTORS
330
C
102
}
330
C
100
AcDbDictionary
281
     1
  3
COLORDICT
350
3316
  3
MATERIALDICT
350
3317
  0
DICTIONARY
  5
5D
102
{ACAD_REACTORS
330
C
102
}
330
C
100
AcDbDictionary
281
     1
  3
CANNOSCALE
350
331F
  3
CMLEADERSTYLE
350
330E
  3
CTABLESTYLE
350
32D6
  3
DIMADEC
350
5E
  3
DIMASSOC
350
3310
  3
HIDETEXT
350
3311
  3
MSLTSCALE
350
330F
  3
SORTENTS
350
CF1
  3
XCLIPFRAME
350
3312
  0
DICTIONARY
  5
335F
102
{ACAD_REACTORS
330
C
102
}
330
C
100
AcDbDictionary
281
     1
  3
AcDsRecords
350
3360
  3
AcDsSchemas
350
3361
1001
ACAD
1070
     2
  0
XRECORD
  5
3318
102
{ACAD_REACTORS
330
C
102
}
330
C
100
AcDbXrecord
280
     1
  1
DWGPROPS COOKIE
  2

  3

  4

  6

  7

  8
Susana
  9

300
=
301
=
302
=
303
=
304
=
305
=
306
=
307
=
308
=
309
=
 40
0.0
 41
2451967.537079502
 42
2460006.307349873
  1

 90
        0
  0
XRECORD
  5
331E
102
{ACAD_REACTORS
330
331D
102
}
330
331D
100
AcDbXrecord
280
     1
102
VTR_0.000_0.000_1.000_1.000_VISUALSTYLE
340
32BE
102
VTR_0.000_0.000_1.000_1.000_GRIDDISPLAY
 70
     3
102
VTR_0.000_0.000_1.000_1.000_GRIDMAJOR
 70
     5
102
VTR_0.000_0.000_1.000_1.000_DEFAULTLIGHTING
280
     1
102
VTR_0.000_0.000_1.000_1.000_DEFAULTLIGHTINGTYPE
 70
     1
102
VTR_0.000_0.000_1.000_1.000_BRIGHTNESS
141
0.0
102
VTR_0.000_0.000_1.000_1.000_CONTRAST
142
0.0
  0
DICTIONARY
  5
32EB
102
{ACAD_REACTORS
330
32EA
102
}
330
32EA
100
AcDbDictionary
281
     1
  0
XRECORD
  5
331A
102
{ACAD_REACTORS
330
3319
102
}
330
3319
100
AcDbXrecord
280
     1
102
VISUALSTYLE
340
32BE
102
GRIDDISPLAY
 70
     0
102
GRIDMAJOR
 70
     5
102
DEFAULTLIGHTING
280
     1
102
DEFAULTLIGHTINGTYPE
 70
     1
102
BRIGHTNESS
141
0.0
102
CONTRAST
142
0.0
  0
XRECORD
  5
331C
102
{ACAD_REACTORS
330
331B
102
}
330
331B
100
AcDbXrecord
280
     1
102
VISUALSTYLE
340
32BE
102
GRIDDISPLAY
 70
     0
102
GRIDMAJOR
 70
     5
102
DEFAULTLIGHTING
280
     1
102
DEFAULTLIGHTINGTYPE
 70
     1
102
BRIGHTNESS
141
0.0
102
CONTRAST
142
0.0
  0
LAYOUT
  5
32CF
102
{ACAD_REACTORS
330
32CE
102
}
330
32CE
100
AcDbPlotSettings
  1

  2
PDFCreator
  4

  6

 40
0.0
 41
0.0
 42
0.0
 43
0.0
 44
0.0
 45
0.0
 46
0.0
 47
0.0
 48
0.0
 49
0.0
140
0.0
141
0.0
142
1.0
143
1.0
 70
  1712
 72
     0
 73
     0
 74
     0
  7

 75
     0
147
1.0
148
0.0
149
0.0
100
AcDbLayout
  1
Model
 70
     1
 71
     0
 10
0.0
 20
0.0
 11
12.0
 21
9.0
 12
0.0
 22
0.0
 32
0.0
 14
0.0
 24
0.0
 34
0.0
 15
0.0
 25
0.0
 35
0.0
146
0.0
 13
0.0
 23
0.0
 33
0.0
 16
1.0
 26
0.0
 36
0.0
 17
0.0
 27
1.0
 37
0.0
 76
     0
330
1A
331
3299
  0
LAYOUT
  5
32D0
102
{ACAD_REACTORS
330
32CE
102
}
102
{ACAD_XDICTIONARY
360
3320
102
}
330
32CE
100
AcDbPlotSettings
  1

  2
Adobe PDF Esquemas Cad.pc3
  4
A4
  6

 40
3.174999952316284
 41
3.174999952316284
 42
3.175003051757812
 43
3.17498779296875
 44
209.9098358154297
 45
297.0318298339844
 46
0.0
 47
0.0
 48
0.0
 49
0.0
140
0.0
141
0.0
142
1.0
143
0.986560048627863
 70
   688
 72
     1
 73
     0
 74
     1
  7

 75
     0
147
1.013623044426773
148
-23.99705326010837
149
-3.00368244985691
100
AcDbLayout
  1
Presentación1
 70
     1
 71
     1
 10
19.52366503082423
 20
-1.469722911298496
 11
438.055489633542
 21
294.2521844442239
 12
0.0
 22
0.0
 32
0.0
 14
23.99705326010837
 24
3.00368244985691
 34
-0.0000000349181948
 15
204.5223849659673
 25
289.7787747161209
 35
0.0000000814935746
146
0.0
 13
0.0
 23
0.0
 33
0.0
 16
1.0
 26
0.0
 36
0.0
 17
0.0
 27
1.0
 37
0.0
 76
     0
330
17
331
22
1001
ACAD_PSEXT
1000
Adobe PDF Esquemas Cad.pc3
1000
Adobe PDF Converter
1000
Mis documentos
1000
Creates Adobe PDF
1070
     0
  0
MATERIAL
  5
32B6
102
{ACAD_REACTORS
330
32B4
102
}
102
{ACAD_XDICTIONARY
360
3322
102
}
330
32B4
100
AcDbMaterial
  1
ByBlock
  0
MATERIAL
  5
32B5
102
{ACAD_REACTORS
330
32B4
102
}
102
{ACAD_XDICTIONARY
360
3324
102
}
330
32B4
100
AcDbMaterial
  1
ByLayer
  0
MATERIAL
  5
32B7
102
{ACAD_REACTORS
330
32B4
102
}
102
{ACAD_XDICTIONARY
360
3326
102
}
330
32B4
100
AcDbMaterial
  1
Global
  0
MLEADERSTYLE
  5
3303
102
{ACAD_REACTORS
330
3302
102
}
102
{ACAD_XDICTIONARY
360
335D
102
}
330
3302
100
AcDbMLeaderStyle
170
     2
171
     1
172
     0
 90
        2
 40
0.0
 41
0.0
173
     1
 91
-1056964608
340
14
 92
       -2
290
     1
 42
2.0
291
     1
 43
8.0
  3
Standard
341
0
 44
4.0
300

342
10
174
     1
178
     6
175
     1
176
     0
 93
-1056964608
 45
4.0
292
     0
297
     0
 46
4.0
343
0
 94
-1056964608
 47
1.0
 49
1.0
140
1.0
293
     1
141
0.0
294
     1
177
     0
142
1.0
295
     0
296
     0
143
3.75
1001
ACAD_MLEADERVER
1070
     2
  0
MLINESTYLE
  5
13
102
{ACAD_REACTORS
330
E
102
}
330
E
100
AcDbMlineStyle
  2
STANDARD
 70
     0
  3

 62
     0
 51
90.0
 52
90.0
 71
     2
 49
0.5
 62
   256
  6
BYLAYER
 49
-0.5
 62
   256
  6
BYLAYER
  0
ACDBPLACEHOLDER
  5
32B3
102
{ACAD_REACTORS
330
32B2
102
}
330
32B2
  0
SCALE
  5
32F1
102
{ACAD_REACTORS
330
32F0
102
}
330
32F0
100
AcDbScale
 70
     0
300
1:1
140
1.0
141
1.0
290
     1
  0
SCALE
  5
32F2
102
{ACAD_REACTORS
330
32F0
102
}
330
32F0
100
AcDbScale
 70
     0
300
1:2
140
1.0
141
2.0
290
     0
  0
SCALE
  5
32F3
102
{ACAD_REACTORS
330
32F0
102
}
330
32F0
100
AcDbScale
 70
     0
300
1:4
140
1.0
141
4.0
290
     0
  0
SCALE
  5
32F4
102
{ACAD_REACTORS
330
32F0
102
}
330
32F0
100
AcDbScale
 70
     0
300
1:5
140
1.0
141
5.0
290
     0
  0
SCALE
  5
32F5
102
{ACAD_REACTORS
330
32F0
102
}
330
32F0
100
AcDbScale
 70
     0
300
1:8
140
1.0
141
8.0
290
     0
  0
SCALE
  5
32F6
102
{ACAD_REACTORS
330
32F0
102
}
330
32F0
100
AcDbScale
 70
     0
300
1:10
140
1.0
141
10.0
290
     0
  0
SCALE
  5
32F7
102
{ACAD_REACTORS
330
32F0
102
}
330
32F0
100
AcDbScale
 70
     0
300
1:16
140
1.0
141
16.0
290
     0
  0
SCALE
  5
32F8
102
{ACAD_REACTORS
330
32F0
102
}
330
32F0
100
AcDbScale
 70
     0
300
1:20
140
1.0
141
20.0
290
     0
  0
SCALE
  5
32F9
102
{ACAD_REACTORS
330
32F0
102
}
330
32F0
100
AcDbScale
 70
     0
300
1:30
140
1.0
141
30.0
290
     0
  0
SCALE
  5
32FA
102
{ACAD_REACTORS
330
32F0
102
}
330
32F0
100
AcDbScale
 70
     0
300
1:40
140
1.0
141
40.0
290
     0
  0
SCALE
  5
32FB
102
{ACAD_REACTORS
330
32F0
102
}
330
32F0
100
AcDbScale
 70
     0
300
1:50
140
1.0
141
50.0
290
     0
  0
SCALE
  5
32FC
102
{ACAD_REACTORS
330
32F0
102
}
330
32F0
100
AcDbScale
 70
     0
300
1:100
140
1.0
141
100.0
290
     0
  0
SCALE
  5
32FD
102
{ACAD_REACTORS
330
32F0
102
}
330
32F0
100
AcDbScale
 70
     0
300
2:1
140
2.0
141
1.0
290
     0
  0
SCALE
  5
32FE
102
{ACAD_REACTORS
330
32F0
102
}
330
32F0
100
AcDbScale
 70
     0
300
4:1
140
4.0
141
1.0
290
     0
  0
SCALE
  5
32FF
102
{ACAD_REACTORS
330
32F0
102
}
330
32F0
100
AcDbScale
 70
     0
300
8:1
140
8.0
141
1.0
290
     0
  0
SCALE
  5
3300
102
{ACAD_REACTORS
330
32F0
102
}
330
32F0
100
AcDbScale
 70
     0
300
10:1
140
10.0
141
1.0
290
     0
  0
SCALE
  5
3301
102
{ACAD_REACTORS
330
32F0
102
}
330
32F0
100
AcDbScale
 70
     0
300
100:1
140
100.0
141
1.0
290
     0
  0
TABLESTYLE
  5
32CB
102
{ACAD_REACTORS
330
32CA
102
}
330
32CA
100
AcDbTableStyle
  3
Standard
 70
     0
 71
     8
 40
1.5
 41
1.5
280
     0
281
     0
  7
STANDARD
140
4.5
170
     2
 62
     0
 63
   257
283
     0
274
    -2
284
     1
 64
     0
275
    -2
285
     1
 65
     0
276
    -2
286
     1
 66
     0
277
    -2
287
     1
 67
     0
278
    -2
288
     1
 68
     0
279
    -2
289
     1
 69
     0
  7
STANDARD
140
6.0
170
     5
 62
     0
 63
   257
283
     0
274
    -2
284
     1
 64
     0
275
    -2
285
     1
 65
     0
276
    -2
286
     1
 66
     0
277
    -2
287
     1
 67
     0
278
    -2
288
     1
 68
     0
279
    -2
289
     1
 69
     0
  7
STANDARD
140
4.5
170
     5
 62
     0
 63
   257
283
     0
274
    -2
284
     1
 64
     0
275
    -2
285
     1
 65
     0
276
    -2
286
     1
 66
     0
277
    -2
287
     1
 67
     0
278
    -2
288
     1
 68
     0
279
    -2
289
     1
 69
     0
  0
VISUALSTYLE
  5
32BE
102
{ACAD_REACTORS
330
32B8
102
}
102
{ACAD_XDICTIONARY
360
3328
102
}
330
32B8
100
AcDbVisualStyle
  2
2dWireframe
 70
     4
 71
     0
 72
     2
 73
     0
 90
        0
 40
-0.6
 41
-30.0
 62
     5
 63
     7
 74
     1
 91
        4
 64
     7
 65
   257
 75
     1
175
     1
 42
1.0
 92
        0
 66
   257
 43
1.0
 76
     1
 77
     6
 78
     2
 67
     7
 79
     5
170
     0
171
     0
290
     0
174
     0
 93
        1
 44
0.0
173
     0
291
     0
 45
0.0
1001
ACAD
1000
AcDbSavedByObjectVersion
1070
     0
  0
VISUALSTYLE
  5
32C0
102
{ACAD_REACTORS
330
32B8
102
}
102
{ACAD_XDICTIONARY
360
332A
102
}
330
32B8
100
AcDbVisualStyle
  2
3D Hidden
 70
     6
 71
     1
 72
     2
 73
     2
 90
        0
 40
-0.6
 41
-30.0
 62
     5
 63
     7
 74
     2
 91
        2
 64
     7
 65
   257
 75
     2
175
     1
 42
40.0
 92
        0
 66
   257
 43
1.0
 76
     1
 77
     6
 78
     2
 67
     7
 79
     3
170
     0
171
     0
290
     0
174
     0
 93
        1
 44
0.0
173
     0
291
     0
 45
0.0
1001
ACAD
1000
AcDbSavedByObjectVersion
1070
     0
  0
VISUALSTYLE
  5
32BF
102
{ACAD_REACTORS
330
32B8
102
}
102
{ACAD_XDICTIONARY
360
332C
102
}
330
32B8
100
AcDbVisualStyle
  2
3dWireframe
 70
     5
 71
     0
 72
     2
 73
     0
 90
        0
 40
-0.6
 41
-30.0
 62
     5
 63
     7
 74
     1
 91
        4
 64
     7
 65
   257
 75
     1
175
     1
 42
1.0
 92
        0
 66
   257
 43
1.0
 76
     1
 77
     6
 78
     2
 67
     7
 79
     5
170
     0
171
     0
290
     0
174
     0
 93
        1
 44
0.0
173
     0
291
     0
 45
0.0
1001
ACAD
1000
AcDbSavedByObjectVersion
1070
     0
  0
VISUALSTYLE
  5
32BD
102
{ACAD_REACTORS
330
32B8
102
}
102
{ACAD_XDICTIONARY
360
332E
102
}
330
32B8
100
AcDbVisualStyle
  2
Basic
 70
     7
 71
     1
 72
     0
 73
     1
 90
        0
 40
-0.6
 41
-30.0
 62
     5
 63
     7
 74
     0
 91
        4
 64
     7
 65
   257
 75
     1
175
     1
 42
1.0
 92
        8
 66
     7
 43
1.0
 76
     1
 77
     6
 78
     2
 67
     7
 79
     5
170
     0
171
     0
290
     0
174
     0
 93
        1
 44
0.0
173
     0
291
     1
 45
0.0
1001
ACAD
1000
AcDbSavedByObjectVersion
1070
     0
  0
VISUALSTYLE
  5
32C4
102
{ACAD_REACTORS
330
32B8
102
}
102
{ACAD_XDICTIONARY
360
3330
102
}
330
32B8
100
AcDbVisualStyle
  2
Brighten
 70
    12
 71
     2
 72
     2
 73
     0
 90
        0
 40
-0.6
 41
-30.0
 62
     5
 63
     7
 74
     1
 91
        4
 64
     7
 65
   257
 75
     1
175
     1
 42
1.0
 92
        8
 66
     7
 43
1.0
 76
     1
 77
     6
 78
     2
 67
     7
 79
     5
170
     0
171
     0
290
     0
174
     0
 93
        1
 44
50.0
173
     0
291
     1
 45
0.0
1001
ACAD
1000
AcDbSavedByObjectVersion
1070
     0
  0
VISUALSTYLE
  5
32C8
102
{ACAD_REACTORS
330
32B8
102
}
102
{ACAD_XDICTIONARY
360
3332
102
}
330
32B8
100
AcDbVisualStyle
  2
ColorChange
 70
    16
 71
     2
 72
     2
 73
     3
 90
        0
 40
-0.6
 41
-30.0
 62
     5
 63
     8
 74
     1
 91
        4
 64
     7
 65
   257
 75
     1
175
     1
 42
1.0
 92
        8
 66
     8
 43
1.0
 76
     1
 77
     6
 78
     2
 67
     7
 79
     5
170
     0
171
     0
290
     0
174
     0
 93
        1
 44
0.0
173
     0
291
     1
 45
0.0
1001
ACAD
1000
AcDbSavedByObjectVersion
1070
     0
  0
VISUALSTYLE
  5
32C1
102
{ACAD_REACTORS
330
32B8
102
}
102
{ACAD_XDICTIONARY
360
3334
102
}
330
32B8
100
AcDbVisualStyle
  2
Conceptual
 70
     9
 71
     3
 72
     2
 73
     0
 90
        0
 40
-0.6
 41
-30.0
 62
     5
 63
     7
 74
     2
 91
        2
 64
     7
 65
   257
 75
     1
175
     1
 42
40.0
 92
        8
 66
     7
 43
1.0
 76
     1
 77
     6
 78
     2
 67
     7
 79
     3
170
     0
171
     0
290
     0
174
     0
 93
        1
 44
0.0
173
     0
291
     0
 45
0.0
1001
ACAD
1000
AcDbSavedByObjectVersion
1070
     0
  0
VISUALSTYLE
  5
32C3
102
{ACAD_REACTORS
330
32B8
102
}
102
{ACAD_XDICTIONARY
360
3336
102
}
330
32B8
100
AcDbVisualStyle
  2
Dim
 70
    11
 71
     2
 72
     2
 73
     0
 90
        0
 40
-0.6
 41
-30.0
 62
     5
 63
     7
 74
     1
 91
        4
 64
     7
 65
   257
 75
     1
175
     1
 42
1.0
 92
        8
 66
     7
 43
1.0
 76
     1
 77
     6
 78
     2
 67
     7
 79
     5
170
     0
171
     0
290
     0
174
     0
 93
        1
 44
-50.0
173
     0
291
     1
 45
0.0
1001
ACAD
1000
AcDbSavedByObjectVersion
1070
     0
  0
VISUALSTYLE
  5
3308
102
{ACAD_REACTORS
330
32B8
102
}
102
{ACAD_XDICTIONARY
360
3350
102
}
330
32B8
100
AcDbVisualStyle
  2
EdgeColorOff
 70
    22
 71
     2
 72
     2
 73
     0
 90
        0
 40
0.6
 41
30.0
 62
     5
 63
     7
 74
     1
 91
        4
 64
     7
 65
   257
 75
     1
175
     1
 42
1.0
 92
        8
 66
     7
 43
1.0
 76
     1
 77
     6
 78
     2
 67
     7
 79
     5
170
     0
171
     0
290
     0
174
     0
 93
        1
 44
0.0
173
     0
291
     1
 45
0.0
1001
ACAD
1000
AcDbSavedByObjectVersion
1070
     0
  0
VISUALSTYLE
  5
32C7
102
{ACAD_REACTORS
330
32B8
102
}
102
{ACAD_XDICTIONARY
360
3338
102
}
330
32B8
100
AcDbVisualStyle
  2
Facepattern
 70
    15
 71
     2
 72
     2
 73
     0
 90
        0
 40
-0.6
 41
-30.0
 62
     5
 63
     7
 74
     1
 91
        4
 64
     7
 65
   257
 75
     1
175
     1
 42
1.0
 92
        8
 66
     7
 43
1.0
 76
     1
 77
     6
 78
     2
 67
     7
 79
     5
170
     0
171
     0
290
     0
174
     0
 93
        1
 44
0.0
173
     0
291
     1
 45
0.0
1001
ACAD
1000
AcDbSavedByObjectVersion
1070
     0
  0
VISUALSTYLE
  5
32B9
102
{ACAD_REACTORS
330
32B8
102
}
102
{ACAD_XDICTIONARY
360
333A
102
}
330
32B8
100
AcDbVisualStyle
  2
Flat
 70
     0
 71
     2
 72
     1
 73
     1
 90
        2
 40
-0.6
 41
30.0
 62
     5
 63
     7
 74
     0
 91
        4
 64
     7
 65
   257
 75
     1
175
     1
 42
1.0
 92
        8
 66
     7
 43
1.0
 76
     1
 77
     6
 78
     2
 67
     7
 79
     5
170
     0
171
     0
290
     0
174
     0
 93
       13
 44
0.0
173
     0
291
     1
 45
0.0
1001
ACAD
1000
AcDbSavedByObjectVersion
1070
     0
  0
VISUALSTYLE
  5
32BA
102
{ACAD_REACTORS
330
32B8
102
}
102
{ACAD_XDICTIONARY
360
333C
102
}
330
32B8
100
AcDbVisualStyle
  2
FlatWithEdges
 70
     1
 71
     2
 72
     1
 73
     1
 90
        2
 40
-0.6
 41
30.0
 62
     5
 63
     7
 74
     1
 91
        4
 64
     7
 65
   257
 75
     1
175
     1
 42
1.0
 92
        0
 66
   257
 43
1.0
 76
     1
 77
     6
 78
     2
 67
     7
 79
     5
170
     0
171
     0
290
     0
174
     0
 93
       13
 44
0.0
173
     0
291
     1
 45
0.0
1001
ACAD
1000
AcDbSavedByObjectVersion
1070
     0
  0
VISUALSTYLE
  5
32BB
102
{ACAD_REACTORS
330
32B8
102
}
102
{ACAD_XDICTIONARY
360
333E
102
}
330
32B8
100
AcDbVisualStyle
  2
Gouraud
 70
     2
 71
     2
 72
     2
 73
     1
 90
        2
 40
-0.6
 41
30.0
 62
     5
 63
     7
 74
     0
 91
        4
 64
     7
 65
   257
 75
     1
175
     1
 42
1.0
 92
        0
 66
     7
 43
1.0
 76
     1
 77
     6
 78
     2
 67
     7
 79
     5
170
     0
171
     0
290
     0
174
     0
 93
       13
 44
0.0
173
     0
291
     1
 45
0.0
1001
ACAD
1000
AcDbSavedByObjectVersion
1070
     0
  0
VISUALSTYLE
  5
32BC
102
{ACAD_REACTORS
330
32B8
102
}
102
{ACAD_XDICTIONARY
360
3340
102
}
330
32B8
100
AcDbVisualStyle
  2
GouraudWithEdges
 70
     3
 71
     2
 72
     2
 73
     1
 90
        2
 40
-0.6
 41
30.0
 62
     5
 63
     7
 74
     1
 91
        4
 64
     7
 65
   257
 75
     1
175
     1
 42
1.0
 92
        0
 66
   257
 43
1.0
 76
     1
 77
     6
 78
     2
 67
     7
 79
     5
170
     0
171
     0
290
     0
174
     0
 93
       13
 44
0.0
173
     0
291
     1
 45
0.0
1001
ACAD
1000
AcDbSavedByObjectVersion
1070
     0
  0
VISUALSTYLE
  5
3305
102
{ACAD_REACTORS
330
32B8
102
}
102
{ACAD_XDICTIONARY
360
334A
102
}
330
32B8
100
AcDbVisualStyle
  2
Hidden
 70
     6
 71
     1
 72
     2
 73
     2
 90
        0
 40
0.6
 41
30.0
 62
     5
 63
     7
 74
     2
 91
        2
 64
     7
 65
   257
 75
     2
175
     1
 42
40.0
 92
        0
 66
   257
 43
1.0
 76
     1
 77
     6
 78
     2
 67
     7
 79
     3
170
     0
171
     0
290
     0
174
     0
 93
        1
 44
0.0
173
     0
291
     0
 45
0.0
1001
ACAD
1000
AcDbSavedByObjectVersion
1070
     0
  0
VISUALSTYLE
  5
3306
102
{ACAD_REACTORS
330
32B8
102
}
102
{ACAD_XDICTIONARY
360
334C
102
}
330
32B8
100
AcDbVisualStyle
  2
JitterOff
 70
    20
 71
     2
 72
     2
 73
     0
 90
        0
 40
0.6
 41
30.0
 62
     5
 63
     7
 74
     1
 91
        4
 64
     7
 65
   257
 75
     1
175
     1
 42
1.0
 92
       10
 66
     7
 43
1.0
 76
     1
 77
     6
 78
     2
 67
     7
 79
     5
170
     0
171
     0
290
     0
174
     0
 93
        1
 44
0.0
173
     0
291
     1
 45
0.0
1001
ACAD
1000
AcDbSavedByObjectVersion
1070
     0
  0
VISUALSTYLE
  5
32C6
102
{ACAD_REACTORS
330
32B8
102
}
102
{ACAD_XDICTIONARY
360
3342
102
}
330
32B8
100
AcDbVisualStyle
  2
Linepattern
 70
    14
 71
     2
 72
     2
 73
     0
 90
        0
 40
-0.6
 41
-30.0
 62
     5
 63
     7
 74
     1
 91
        4
 64
     7
 65
   257
 75
     7
175
     7
 42
1.0
 92
        8
 66
     7
 43
1.0
 76
     1
 77
     6
 78
     2
 67
     7
 79
     5
170
     0
171
     0
290
     0
174
     0
 93
        1
 44
0.0
173
     0
291
     1
 45
0.0
1001
ACAD
1000
AcDbSavedByObjectVersion
1070
     0
  0
VISUALSTYLE
  5
3307
102
{ACAD_REACTORS
330
32B8
102
}
102
{ACAD_XDICTIONARY
360
334E
102
}
330
32B8
100
AcDbVisualStyle
  2
OverhangOff
 70
    21
 71
     2
 72
     2
 73
     0
 90
        0
 40
0.6
 41
30.0
 62
     5
 63
     7
 74
     1
 91
        4
 64
     7
 65
   257
 75
     1
175
     1
 42
1.0
 92
        9
 66
     7
 43
1.0
 76
     1
 77
     6
 78
     2
 67
     7
 79
     5
170
     0
171
     0
290
     0
174
     0
 93
        1
 44
0.0
173
     0
291
     1
 45
0.0
1001
ACAD
1000
AcDbSavedByObjectVersion
1070
     0
  0
VISUALSTYLE
  5
32C2
102
{ACAD_REACTORS
330
32B8
102
}
102
{ACAD_XDICTIONARY
360
3344
102
}
330
32B8
100
AcDbVisualStyle
  2
Realistic
 70
     8
 71
     2
 72
     2
 73
     0
 90
        0
 40
-0.6
 41
-30.0
 62
     5
 63
     7
 74
     1
 91
        0
 64
     7
 65
   257
 75
     1
175
     1
 42
1.0
 92
        8
 66
     8
 43
1.0
 76
     1
 77
     6
 78
     2
 67
     7
 79
     5
170
     0
171
     0
290
     0
174
     0
 93
       13
 44
0.0
173
     0
291
     0
 45
0.0
1001
ACAD
1000
AcDbSavedByObjectVersion
1070
     0
  0
VISUALSTYLE
  5
330D
102
{ACAD_REACTORS
330
32B8
102
}
102
{ACAD_XDICTIONARY
360
335A
102
}
330
32B8
100
AcDbVisualStyle
  2
Shaded
 70
    27
 71
     2
 72
     2
 73
     1
 90
        2
 40
0.6
 41
30.0
 62
     5
 63
     7
 74
     0
 91
        4
 64
     7
 65
   257
 75
     1
175
     1
 42
1.0
 92
        8
 66
   257
 43
1.0
 76
     1
 77
     6
 78
     2
 67
     8
 79
     3
170
     0
171
     0
290
     0
174
     0
 93
        5
 44
0.0
173
     0
291
     0
 45
0.0
1001
ACAD
1000
AcDbSavedByObjectVersion
1070
     0
  0
VISUALSTYLE
  5
330C
102
{ACAD_REACTORS
330
32B8
102
}
102
{ACAD_XDICTIONARY
360
3358
102
}
330
32B8
100
AcDbVisualStyle
  2
Shaded with edges
 70
    26
 71
     2
 72
     2
 73
     1
 90
        2
 40
0.6
 41
30.0
 62
     5
 63
     7
 74
     1
 91
       10
 64
     7
 65
   257
 75
     2
175
     1
 42
1.0
 92
        8
 66
   257
 43
1.0
 76
     1
 77
     6
 78
     2
 67
     7
 79
     3
170
     0
171
     0
290
     0
174
     0
 93
        5
 44
0.0
173
     0
291
     0
 45
0.0
1001
ACAD
1000
AcDbSavedByObjectVersion
1070
     0
  0
VISUALSTYLE
  5
3309
102
{ACAD_REACTORS
330
32B8
102
}
102
{ACAD_XDICTIONARY
360
3352
102
}
330
32B8
100
AcDbVisualStyle
  2
Shades of Gray
 70
    23
 71
     2
 72
     2
 73
     3
 90
        0
 40
0.6
 41
30.0
 62
     5
 63
     7
 74
     2
 91
        2
 64
     7
 65
     7
 75
     1
175
     1
 42
40.0
 92
        8
 66
     7
 43
1.0
 76
     1
 77
     6
 78
     2
 67
     7
 79
     3
170
     0
171
     0
290
     0
174
     0
 93
        1
 44
0.0
173
     0
291
     0
 45
0.0
1001
ACAD
1000
AcDbSavedByObjectVersion
1070
     0
  0
VISUALSTYLE
  5
330A
102
{ACAD_REACTORS
330
32B8
102
}
102
{ACAD_XDICTIONARY
360
3354
102
}
330
32B8
100
AcDbVisualStyle
  2
Sketchy
 70
    24
 71
     1
 72
     2
 73
     2
 90
        0
 40
0.6
 41
30.0
 62
     5
 63
     7
 74
     2
 91
        2
 64
     7
 65
     7
 75
     1
175
     1
 42
40.0
 92
       11
 66
     7
 43
1.0
 76
     1
 77
     6
 78
     2
 67
     7
 79
     6
170
     0
171
     0
290
     0
174
     0
 93
        1
 44
0.0
173
     0
291
     0
 45
0.0
1001
ACAD
1000
AcDbSavedByObjectVersion
1070
     0
  0
VISUALSTYLE
  5
32C5
102
{ACAD_REACTORS
330
32B8
102
}
102
{ACAD_XDICTIONARY
360
3346
102
}
330
32B8
100
AcDbVisualStyle
  2
Thicken
 70
    13
 71
     2
 72
     2
 73
     0
 90
        0
 40
-0.6
 41
-30.0
 62
     5
 63
     7
 74
     1
 91
        4
 64
     7
 65
   257
 75
     1
175
     1
 42
1.0
 92
       12
 66
     7
 43
1.0
 76
     1
 77
     6
 78
     2
 67
     7
 79
     5
170
     0
171
     0
290
     0
174
     0
 93
        1
 44
0.0
173
     0
291
     1
 45
0.0
1001
ACAD
1000
AcDbSavedByObjectVersion
1070
     0
  0
VISUALSTYLE
  5
3304
102
{ACAD_REACTORS
330
32B8
102
}
102
{ACAD_XDICTIONARY
360
3348
102
}
330
32B8
100
AcDbVisualStyle
  2
Wireframe
 70
     5
 71
     0
 72
     2
 73
     0
 90
        0
 40
0.6
 41
30.0
 62
     5
 63
     7
 74
     1
 91
        4
 64
     7
 65
   257
 75
     1
175
     1
 42
1.0
 92
        0
 66
   257
 43
1.0
 76
     1
 77
     6
 78
     2
 67
     7
 79
     3
170
     0
171
     0
290
     0
174
     0
 93
        1
 44
0.0
173
     0
291
     0
 45
0.0
1001
ACAD
1000
AcDbSavedByObjectVersion
1070
     0
  0
VISUALSTYLE
  5
330B
102
{ACAD_REACTORS
330
32B8
102
}
102
{ACAD_XDICTIONARY
360
3356
102
}
330
32B8
100
AcDbVisualStyle
  2
X-Ray
 70
    25
 71
     2
 72
     2
 73
     1
 90
        1
 40
0.5
 41
30.0
 62
     5
 63
     7
 74
     1
 91
        0
 64
     7
 65
   257
 75
     1
175
     1
 42
1.0
 92
        8
 66
     7
 43
1.0
 76
     1
 77
     6
 78
     2
 67
     7
 79
     3
170
     0
171
     0
290
     0
174
     0
 93
       13
 44
0.0
173
     0
291
     0
 45
0.0
1001
ACAD
1000
AcDbSavedByObjectVersion
1070
     0
  0
XRECORD
  5
3316
102
{ACAD_REACTORS
330
3315
102
}
330
3315
100
AcDbXrecord
280
     1
340
32C9
  0
XRECORD
  5
3317
102
{ACAD_REACTORS
330
3315
102
}
330
3315
100
AcDbXrecord
280
     1
340
32B4
  0
DICTIONARYVAR
  5
331F
102
{ACAD_REACTORS
330
5D
102
}
330
5D
100
DictionaryVariables
280
     0
  1
1:1
  0
DICTIONARYVAR
  5
330E
102
{ACAD_REACTORS
330
5D
102
}
330
5D
100
DictionaryVariables
280
     0
  1
Standard
  0
DICTIONARYVAR
  5
32D6
102
{ACAD_REACTORS
330
5D
102
}
330
5D
100
DictionaryVariables
280
     0
  1
Standard
  0
DICTIONARYVAR
  5
5E
102
{ACAD_REACTORS
330
5D
102
}
330
5D
100
DictionaryVariables
280
     0
  1
0
  0
DICTIONARYVAR
  5
3310
102
{ACAD_REACTORS
330
5D
102
}
330
5D
100
DictionaryVariables
280
     0
  1
1
  0
DICTIONARYVAR
  5
3311
102
{ACAD_REACTORS
330
5D
102
}
330
5D
100
DictionaryVariables
280
     0
  1
0
  0
DICTIONARYVAR
  5
330F
102
{ACAD_REACTORS
330
5D
102
}
330
5D
100
DictionaryVariables
280
     0
  1
0
  0
DICTIONARYVAR
  5
CF1
102
{ACAD_REACTORS
330
5D
102
}
330
5D
100
DictionaryVariables
280
     0
  1
96
  0
DICTIONARYVAR
  5
3312
102
{ACAD_REACTORS
330
5D
102
}
330
5D
100
DictionaryVariables
280
     0
  1
0
  0
DICTIONARY
  5
3360
102
{ACAD_REACTORS
330
335F
102
}
330
335F
100
AcDbDictionary
281
     1
  0
DICTIONARY
  5
3361
102
{ACAD_REACTORS
330
335F
102
}
330
335F
100
AcDbDictionary
281
     1
  3
8796076268760
350
3362
  3
8796076268776
350
3363
  3
8796076268792
350
3364
  3
8796076268808
350
3365
  3
8796076268824
350
3366
  3
8796076268840
350
3367
  0
DICTIONARY
  5
3320
330
32D0
100
AcDbDictionary
280
     1
281
     1
  3
ADSK_XREC_LAYOUTTHUMBNAIL
360
3321
  0
DICTIONARY
  5
3322
330
32B6
100
AcDbDictionary
280
     1
281
     1
  3
ACAD_XREC_ROUNDTRIP
360
3323
  0
DICTIONARY
  5
3324
330
32B5
100
AcDbDictionary
280
     1
281
     1
  3
ACAD_XREC_ROUNDTRIP
360
3325
  0
DICTIONARY
  5
3326
330
32B7
100
AcDbDictionary
280
     1
281
     1
  3
ACAD_XREC_ROUNDTRIP
360
3327
  0
DICTIONARY
  5
335D
330
3303
100
AcDbDictionary
280
     1
281
     1
  3
ACAD_XREC_ROUNDTRIP
360
335E
  0
DICTIONARY
  5
3328
330
32BE
100
AcDbDictionary
280
     1
281
     1
  3
ACAD_XREC_ROUNDTRIP
360
3329
  0
DICTIONARY
  5
332A
330
32C0
100
AcDbDictionary
280
     1
281
     1
  3
ACAD_XREC_ROUNDTRIP
360
332B
  0
DICTIONARY
  5
332C
330
32BF
100
AcDbDictionary
280
     1
281
     1
  3
ACAD_XREC_ROUNDTRIP
360
332D
  0
DICTIONARY
  5
332E
330
32BD
100
AcDbDictionary
280
     1
281
     1
  3
ACAD_XREC_ROUNDTRIP
360
332F
  0
DICTIONARY
  5
3330
330
32C4
100
AcDbDictionary
280
     1
281
     1
  3
ACAD_XREC_ROUNDTRIP
360
3331
  0
DICTIONARY
  5
3332
330
32C8
100
AcDbDictionary
280
     1
281
     1
  3
ACAD_XREC_ROUNDTRIP
360
3333
  0
DICTIONARY
  5
3334
330
32C1
100
AcDbDictionary
280
     1
281
     1
  3
ACAD_XREC_ROUNDTRIP
360
3335
  0
DICTIONARY
  5
3336
330
32C3
100
AcDbDictionary
280
     1
281
     1
  3
ACAD_XREC_ROUNDTRIP
360
3337
  0
DICTIONARY
  5
3350
330
3308
100
AcDbDictionary
280
     1
281
     1
  3
ACAD_XREC_ROUNDTRIP
360
3351
  0
DICTIONARY
  5
3338
330
32C7
100
AcDbDictionary
280
     1
281
     1
  3
ACAD_XREC_ROUNDTRIP
360
3339
  0
DICTIONARY
  5
333A
330
32B9
100
AcDbDictionary
280
     1
281
     1
  3
ACAD_XREC_ROUNDTRIP
360
333B
  0
DICTIONARY
  5
333C
330
32BA
100
AcDbDictionary
280
     1
281
     1
  3
ACAD_XREC_ROUNDTRIP
360
333D
  0
DICTIONARY
  5
333E
330
32BB
100
AcDbDictionary
280
     1
281
     1
  3
ACAD_XREC_ROUNDTRIP
360
333F
  0
DICTIONARY
  5
3340
330
32BC
100
AcDbDictionary
280
     1
281
     1
  3
ACAD_XREC_ROUNDTRIP
360
3341
  0
DICTIONARY
  5
334A
330
3305
100
AcDbDictionary
280
     1
281
     1
  3
ACAD_XREC_ROUNDTRIP
360
334B
  0
DICTIONARY
  5
334C
330
3306
100
AcDbDictionary
280
     1
281
     1
  3
ACAD_XREC_ROUNDTRIP
360
334D
  0
DICTIONARY
  5
3342
330
32C6
100
AcDbDictionary
280
     1
281
     1
  3
ACAD_XREC_ROUNDTRIP
360
3343
  0
DICTIONARY
  5
334E
330
3307
100
AcDbDictionary
280
     1
281
     1
  3
ACAD_XREC_ROUNDTRIP
360
334F
  0
DICTIONARY
  5
3344
330
32C2
100
AcDbDictionary
280
     1
281
     1
  3
ACAD_XREC_ROUNDTRIP
360
3345
  0
DICTIONARY
  5
335A
330
330D
100
AcDbDictionary
280
     1
281
     1
  3
ACAD_XREC_ROUNDTRIP
360
335B
  0
DICTIONARY
  5
3358
330
330C
100
AcDbDictionary
280
     1
281
     1
  3
ACAD_XREC_ROUNDTRIP
360
3359
  0
DICTIONARY
  5
3352
330
3309
100
AcDbDictionary
280
     1
281
     1
  3
ACAD_XREC_ROUNDTRIP
360
3353
  0
DICTIONARY
  5
3354
330
330A
100
AcDbDictionary
280
     1
281
     1
  3
ACAD_XREC_ROUNDTRIP
360
3355
  0
DICTIONARY
  5
3346
330
32C5
100
AcDbDictionary
280
     1
281
     1
  3
ACAD_XREC_ROUNDTRIP
360
3347
  0
DICTIONARY
  5
3348
330
3304
100
AcDbDictionary
280
     1
281
     1
  3
ACAD_XREC_ROUNDTRIP
360
3349
  0
DICTIONARY
  5
3356
330
330B
100
AcDbDictionary
280
     1
281
     1
  3
ACAD_XREC_ROUNDTRIP
360
3357
  0
XRECORD
  5
3362
102
{ACAD_REACTORS
330
3361
102
}
330
3361
100
AcDbXrecord
280
     1
  1
AcDb_Thumbnail_Schema
102
{ATTRRECORD
341
3364
  2
AcDbDs::TreatedAsObjectData
280
     1
291
     1
102
ATTRRECORD}
102
{ATTRRECORD
341
3365
  2
AcDbDs::Legacy
280
     1
291
     1
102
ATTRRECORD}
  2
AcDbDs::ID
280
    10
 91
        8
102
{ATTRRECORD
341
3366
  2
AcDs:Indexable
280
     1
291
     1
102
ATTRRECORD}
102
{ATTRRECORD
341
3367
  2
AcDbDs::HandleAttribute
280
     7
282
     1
102
ATTRRECORD}
  2
Thumbnail_Data
280
    15
 91
        0
  0
XRECORD
  5
3363
102
{ACAD_REACTORS
330
3361
102
}
330
3361
100
AcDbXrecord
280
     1
  1
AcDb3DSolid_ASM_Data
102
{ATTRRECORD
341
3364
  2
AcDbDs::TreatedAsObjectData
280
     1
291
     1
102
ATTRRECORD}
102
{ATTRRECORD
341
3365
  2
AcDbDs::Legacy
280
     1
291
     1
102
ATTRRECORD}
  2
AcDbDs::ID
280
    10
 91
        8
102
{ATTRRECORD
341
3366
  2
AcDs:Indexable
280
     1
291
     1
102
ATTRRECORD}
102
{ATTRRECORD
341
3367
  2
AcDbDs::HandleAttribute
280
     7
282
     1
102
ATTRRECORD}
  2
ASM_Data
280
    15
 91
        0
  0
XRECORD
  5
3364
102
{ACAD_REACTORS
330
3361
102
}
330
3361
100
AcDbXrecord
280
     1
  1
AcDbDs::TreatedAsObjectDataSchema
  2
AcDbDs::TreatedAsObjectData
280
     1
 91
        0
  0
XRECORD
  5
3365
102
{ACAD_REACTORS
330
3361
102
}
330
3361
100
AcDbXrecord
280
     1
  1
AcDbDs::LegacySchema
  2
AcDbDs::Legacy
280
     1
 91
        0
  0
XRECORD
  5
3366
102
{ACAD_REACTORS
330
3361
102
}
330
3361
100
AcDbXrecord
280
     1
  1
AcDbDs::IndexedPropertySchema
  2
AcDs:Indexable
280
     1
 91
        0
  0
XRECORD
  5
3367
102
{ACAD_REACTORS
330
3361
102
}
330
3361
100
AcDbXrecord
280
     1
  1
AcDbDs::HandleAttributeSchema
  2
AcDbDs::HandleAttribute
280
     7
 91
        1
284
     1
  0
XRECORD
  5
3321
102
{ACAD_REACTORS
330
3320
102
}
330
3320
100
AcDbXrecord
280
     1
310
28000000620000008C0000000100080000000000B036000000000000000000000001000000000000FFFFFF0000000000FFFFFF000000000000000000000000000000000000000000000000000000000000000000330000006600000099000000CC000000FF00000000330000333300006633000099330000CC330000FF3300
310
0000660000336600006666000099660000CC660000FF66000000990000339900006699000099990000CC990000FF99000000CC000033CC000066CC000099CC0000CCCC0000FFCC000000FF000033FF000066FF000099FF0000CCFF0000FFFF000000003300330033006600330099003300CC003300FF003300003333003333
310
33006633330099333300CC333300FF33330000663300336633006666330099663300CC663300FF66330000993300339933006699330099993300CC993300FF99330000CC330033CC330066CC330099CC3300CCCC3300FFCC330000FF330033FF330066FF330099FF3300CCFF3300FFFF330000006600330066006600660099
310
006600CC006600FF00660000336600333366006633660099336600CC336600FF33660000666600336666006666660099666600CC666600FF66660000996600339966006699660099996600CC996600FF99660000CC660033CC660066CC660099CC6600CCCC6600FFCC660000FF660033FF660066FF660099FF6600CCFF6600
310
FFFF660000009900330099006600990099009900CC009900FF00990000339900333399006633990099339900CC339900FF33990000669900336699006666990099669900CC669900FF66990000999900339999006699990099999900CC999900FF99990000CC990033CC990066CC990099CC9900CCCC9900FFCC990000FF99
310
0033FF990066FF990099FF9900CCFF9900FFFF99000000CC003300CC006600CC009900CC00CC00CC00FF00CC000033CC003333CC006633CC009933CC00CC33CC00FF33CC000066CC003366CC006666CC009966CC00CC66CC00FF66CC000099CC003399CC006699CC009999CC00CC99CC00FF99CC0000CCCC0033CCCC0066CC
310
CC0099CCCC00CCCCCC00FFCCCC0000FFCC0033FFCC0066FFCC0099FFCC00CCFFCC00FFFFCC000000FF003300FF006600FF009900FF00CC00FF00FF00FF000033FF003333FF006633FF009933FF00CC33FF00FF33FF000066FF003366FF006666FF009966FF00CC66FF00FF66FF000099FF003399FF006699FF009999FF00CC
310
99FF00FF99FF0000CCFF0033CCFF0066CCFF0099CCFF00CCCCFF00FFCCFF0000FFFF0033FFFF0066FFFF0099FFFF00CCFFFF00FFFFFF00000000000D0D0D001A1A1A00282828003535350043434300505050005D5D5D006B6B6B00787878008686860093939300A1A1A100AEAEAE00BBBBBB00C9C9C900D6D6D600E4E4E400
310
F1F1F100FFFFFF0000000000000000000000000000000000000000000000000000000000000000000000000000000000E2E2E2E2E2E2E2E2E2E2E2E2E2E2E2E2E2E2E2E2E2E2E2E2E2E2E2E2E2E2E2E2E2E2E2E2E2E2E2E2E2E2E2E2E2E2E2E2E2E2E2E2E2E2E2E2E2E2E2E2E2E2E2E2E2E2E2E2E2E2E2E2E2E2E2E2E2E2E2
310
E2E2E2E2E2E2E2E2E2E2E2E2E2E2E2E2E2E2E20000E2F5F5F5F5F5F5F5F5F5F5F5F5F5F5F5F5F5F5F5F5F5F5F5F5F5F5F5F5F5F5F5F5F5F5F5F5F5F5F5F5F5F5F5F5F5F5F5F5F5F5F5F5F5F5F5F5F5F5F5F5F5F5F5F5F5F5F5F5F5F5F5F5F5F5F5F5F5F5F5F5F5F5F5F5F5F5F5F5F5F5F5F5F5F5F5F5F50000E2F5E2E2E2E2
310
E2E2E2E2E2E2E2E2E2E2E2E2E2E2E2E2E2E2E2E2E2E2E2E2E2E2E2E2E2E2E2E2E2E2E2E2E2E2E2E2E2E2E2E2E2E2E2E2E2E2E2E2E2E2E2E2E2E2E2E2E2E2E2E2E2E2E2E2E2E2E2E2E2E2E2E2E2E2E2E2E2E2F5E2E2E2E2E2E2E2E2F50000E2F5E2C3C3C3F5E2C3C3C3C3C3C3C3C3F5C3C3F5C3C3C3C3C3C3C3C3C3C3F5C3C3
310
C3C3C3C3C3C3F5F5F5F5F5F5F5F5F5F5E2F5C3C3F5F5F5F5F5E2F5C3C3C3C3F5C3C3C3C3C3C3C3F5C3C3C3C3C3F5C3C3C3F5F5F5F5F5E2F5F5F5F5F5F5F5F5E2F50000E2F5E2C3C3C3F5E2C3C3C3C3C3C3C3C3F5C3C3C3C3C3C3C3C3C3C3C3C3C3F5C3C3C3C3F5C3C3C3C3F5F5F5F5F5F5F5F5F5E2F5C3F5F5F5F5F5F5E2C3
310
C3C3C3C3F5C3C3C3C3C3C3C3F5C3C3C3C3F5F5C3C3C3F5F5F5F5F5E2F5F5F5F5F5F5F5F5E2F50000E2F5E2C3C3C3F5E2C3C3C3C3C3C3C3C3C3C3C3C3C3C3F5F5F5F5F5F5F5C3F5C3C3C3C3C3C3C3C3F5F5F5F5F5F5F5F5F5F5E2F5C3C3F5F5F5F5F5E2F5C3C3C3C3F5C3C3C3C3C3C3C3F5C3C3C3C3C3F5C3C3C3F5C3C3C3F5
310
E2F5F5F5F5F5F5F5F5E2F50000E2F5E2C3C3C3F5E2C3C3C3C3C3C3C3C3C3F5F5F5F5F5F5F5F5F5F5F5F5F5F5F5F5F5F5F5F5F5F5F5F5F5F5F5F5F5F5F5F5E2F5C3F5F5F5F5F5F5E2C3C3C3C3C3F5C3C3C3C3C3C3C3F5C3C3C3C3C3F5C3C3C3C3C3C3C3F5E2F5F5F5F5F5F5F5F5E2F50000E2F5E2F5C3C3F5E2C3C3C3F5F5C3
310
C3F5F5F5F5F5F5F5F5F5F5F5E2F5F5F5F5F5F5F5F5F5F5F5F5F5F5F5F5F5F5F5F5F5F5E2F5C3F5F5F5F5F5F5E2F5C3F5C3F5F5F5C3C3C3C3C3C3F5C3C3F5E2F5F5C3C3C3F5C3C3C3F5E2F5F5F5F5F5F5F5F5E2F50000E2F5E2E2E2E2F5E2E2E2E2E2E2E2E2E2E2E2E2E2E2F5F5E2E2E2E2E2E2E2E2E2E2F5F5F5F5F5F5F5F5
310
F5F5F5F5F5F5F5F5E2F5E2F5F5F5F5F5F5E2E2E2E2E2E2F5E2E2E2E2E2E2E2F5E2E2E2E2E2F5E2E2E2F5F5F5F5F5E2F5F5F5F5F5F5F5F5E2F50000E2F5E2F5E2E2F5E2E2E2E2E2E2E2E2E2E2E2E2E2E2E2F5E2E2E2E2F5E2E2E2E2E2F5F5F5F5F5F5F5F5F5F5F5F5F5F5F5F5E2F5E2F5F5F5F5F5F5E2E2E2E2E2E2F5E2E2E2
310
E2E2E2E2F5E2E2E2E2F5F5E2E2E2F5F5F5F5F5E2F5F5F5F5F5F5F5F5E2F50000E2F5E2F528F5F5E228282828282828282828F5282828F52828282828F528282828282828F5F5F5F5F5F5F5F5F5F5F5F5F5E2F528F5F5F5F5F5F5E2F528282828F528282828282828F52828282828F5282828F5F5F5F5F5E2F5F5F5F5F5F5F5
310
F5E2F50000E2F5E22828F5F5E22828282828282828282828282828F52828282828F528282828282828F5F5F5F5F5F5F5F5F5F5F5F5F5E2F528F5F5F5F5F5F5E22828282828F528282828282828F528282828F5F5282828F5F5F5F5F5E2F5F5F5F5F5F5F5F5F5F50000E2F5E2E2E2E2E2E2E2E2E2E2E2E2E2E2E2E2E2E2E2E2
310
E2E2E2E2E2E2E2E2E2E2E2E2E2E2E2E2E2E2E2E2E2E2E2E2E2E2E2E2E2E2E2E2E2E2E2E2E2E2E2E2E2E2E2E2E2E2E2E2E2E2E2E2E2E2E2E2E2E2E2E2E2E2E2E2E2E2F5F5F5F5F5F5F5F5F5F50000E2F5E2E2E2F5F5E2E2E2E2E2E2E2E2E2E2E2E2E2E2E2E2E2F5F5F5F5F5F5F5F5F5F5F5F5F5F5F5F5F5F5F5F5F5F5F5F5F5
310
E2F5E2E2E2E2E2E2E2E2F5E2E2E2E2E2E2E2E2F5E2E2E2E2E2E2E2E2F5F5F5F5F5F5F5F5F5F5E2F5F5F5F5F5F5F5F5F5F50000E2F5E2E2E2E2F5E2E2E2E2E2E2E2E2E2E2E2E2E2E2E2E2E2F5F5F5F5F5F5F5F5F5F5F5F5F5F5F5F5F5F5F5F5F5F5F5F5F5E2F5E2E2E2E2E2E2E2E2E2E2E2E2E2E2E2E2E2E2E2E2E2E2E2E2E2
310
E2F5F5F5F5F5F5F5F5F5F5E2F5F5F5F5F5F5F5F5F5F50000E2F5E2E2E2E2F5E2E2E2E2E2E2E2E2E2E2E2E2E2E2E2E2E2F5F5F5F5F5F5F5F5F5F5F5F5F5F5F5F5F5F5F5F5F5F5F5F5F5E2F5E2E2E2E2E2E2F5E2F5E2E2E2E2E2E2E2E2E2E2E2E2E2E2E2E2E2F5F5F5F5F5F5F5F5F5F5E2F5F5F5F5F5F5F5F5F5F50000E2F5E2
310
F5F5F5F5E2F5F5F5F5F5F5F5F5F5F5F5F5F5F5F5F5F5F5F5F5F5F5F5F5F5F5F5F5F5F5F5F5F5F5F5F5F5F5F5F5F5E2F5E2E2E2F5E2F5F5E2F5F5F5F5F5F5F5F5F5F5F5F5F5F5F5F5F5F5F5F5F5F5F5F5F5F5F5F5E2F5F5F5F5F5F5F5F5F5F50000E2F5E2E2E2E2E2E2E2E2E2E2E2E2E2E2E2E2E2E2E2E2E2E2E2E2E2E2E2E2
310
E2E2E2E2E2E2E2E2E2E2E2E2E2E2E2E2E2E2E2E2E2E2E2E2E2E2E2E2E2E2E2E2E2E2E2E2E2E2E2E2E2E2E2E2E2E2E2E2E2E2E2E2E2E2E2E2E2E2F5F5F5F5F5F5F5F5F5F50000E2F5E2F5F5F5F5F5F5F5F5F5F5F5F5F5F5F5F5F5F5F5F5F5F5F5F5F5F5F5F5F5F5F5F5F5F5F5F5F5F5F5F5F5F5F5F5F5F5F5F5F5F5F5F5F5F5
310
F5F5F5F5F5F5F5F5F5F5F5F5F5F5F5F5F5F5F5F5F5F5F5F5F5F5F5F5F5F5E2F5F5F5F5F5F5F5F5F5F50000E2F5E2F5F5F5F5F5F5F5F5F5F5F5F5F5F5F5F5F5F5F5F5F5F5F5F5F5F5F5F5F5F5F5F5F5F5F5F5F5F5F5F5F5F5F5F5F5F5F5F5F5F5F5F5F5F5F5F5F5F5F5F5F5F5F5F5F5F5F5F5F5F5F5F5F5F5F5F5F5F5F5F5F5
310
F5F5F5E2F5F5F5F5F5F5F5F5F5F50000E2F5E2F5F5F5F5F5F5F5F5F5F5F5F5F5F5F5F5F5F5F5F5F5F5F5F5F5F5F5F5F5F5F5F5F5F5F5F5F5F5F5F5F5F5F5F5F5F5F5F5F5F5F5F5F5F5F5F5F5F5F5F5F5F5F5F5F5F5F5F5F5F5F5F5F5F5F5F5F5F5F5F5F5F5F5F5E2F5F5F5F5F5F5F5F5F5F50000E2F5E2F5F5F5F5F5F5F5F5
310
F5F5F5F5F5F5F5F5F5F5F5F5F5F5F5F5F5F5F5F5F5F5F5F5F5F5F5F5F5F5F5F5F5F5F5F5F5F5F5F5F5F5F5F5F5F5F5F5F5F5F5F5F5F5F5F5F5F5F5F5F5F5F5F5F5F5F5F5F5F5F5F5F5F5F5F5E2F5F5F5F5F5F5F5F5E2F50000E2F5E2F5F5F5F5F5F5F5F5F5F5F5F5F5F5F5F5F5F5F5F5F5F5F5F5F5F5F5F5F5F5F5F5F5F5F5
310
F5F5F5F5F5F5F5F5F5F5F5F5F5F5F5F5F5F5F5F5F5F5F5F5F5F5F5F5F5F5F5F5F5F5F5F5F5F5F5F5F5F5F5F5F5F5F5F5F5E2F5F5F5F5F5F5F5F5E2F50000E2F5E2F5F5F5F5F5F5F5F5F5F5F5F5F5F5F5F5F5F5F5F5F5F5F5F5F5F5F5F5F5F5F5F5F5F5F5F5F5F5F5F5F5F5F5F5F5F5F5F5F5F5F5F5F5F5F5F5F5F5F5F5F5F5
310
F5F5F5F5F5F5F5F5F5F5F5F5F5F5F5F5F5F5F5F5F5F5E2F5F5F5F5F5F5F5F5E2F50000E2F5E2F5F5F5F5F5F5F5F5F5F5F5F5F5F5F5F5F5F5F5F5F5F5F5F5F5F5F5F5F5F5F5F5F5F5F5F5F5F5F5F5F5F5F5F5F5F5F5F5F5F5F5F5F5F5F5F5F5F5F5F5F5F5F5F5F5F5F5F5F5F5F5F5F5F5F5F5F5F5F5F5F5F5F5F5E2F5F5F5F5
310
F5F5F5F5E2F50000E2F5E2F5F5F5F5F5F5F5F5F5F5F5F5F5F5F5F5F5F5F5F5F5F5F5F5F5F5F5F5F5F5F5F5F5F5F5F5F5F5F5F5F5F5F5F5F5F5F5F5F5F5F5F5F5F5F5F5F5F5F5F5F5F5F5F5F5F5F5F5F5F5F5F5F5F5F5F5F5F5F5F5F5F5F5F5E2F5F5F5F5F5F5F5F5E2F50000E2F5E2F5F5F5F5F5F5F5F5F5F5F5F5F5F5F5F5
310
F5F5F5F5F5F5F5F5F5F5F5F5F5F5F5F5F5F5F5F5F5F5F5F5F5F5F5F5F5F5F5F5F5F5F5F5F5F5F5F5F5F5F5F5F5F5F5F5F5F5F5F5F5F5F5F5F5F5F5F5F5F5F5F5F5F5F5F5E2F5F5F5F5F5F5F5F5E2F50000E2F5E2F5F5F5F5F5F5F5F5F5F5F5F5F5F5F5F5F5F5F5F5F5F5F5F5F5F5F5F5F5F5F5F5F5F5F5F5F5F5F5F5F5F5F5
310
F5F5F5F5F5F5F5F5F5F5F5F5F5F5F5F5F5F5F5F5F5F5F5F5F5F5F5F5F5F5F5F5F5F5F5F5F5F5F5F5F5E2F5F5F5F5F5F5F5F5E2F50000E2F5E2F5F5F5F5F5F5F5F5F5F5F5F5F5F5F5F5F5F5F5F5F5F5F5F5F5F5F5F5F5F5F5F5F5F5F5F5F5F5F5F5F5F5F5F5F5F5F5F5F5F5F5F5F5F5F5F5F5F5F5F5F5F5F5F5F5F5F5F5F5F5
310
F5F5F5F5F5F5F5F5F5F5F5F5F5F5E2F5F5F5F5F5F5F5F5E2F50000E2F5E2F5F5F5F5F5F5F5F5F5F5F5F5F5F5F5F5F5F5F5F5F5F5F5F5F5F5F5F5F5F5F5F5F5F5F5F5F5F5F5F5F5F5F5F5F5F5F5F5F5F5F5F5F5F5F5F5F5F5F5F5F5F5F5F5F5F5F5F5F5F5F5F5F5F5F5F5F5F5F5F5F5F5F5F5E2F5F5F5F5F5F5F5F5E2F50000
310
E2F5E2F5F5F5F5F5F5F5F5F5F5F5F5F5F5F5F5F5F5F5F5F5F5F5F5F5F5F5F5F5F5F5F5F5F5F5F5F5F5F5F5F5F5F5F5F5F5F5F5F5F5F5F5F5F5F5F5F5F5F5F5F5F5F5F5F5F5F5F5F5F5F5F5F5F5F5F5F5F5F5F5F5F5F5F5E2F5F5F5F5F5F5F5F5E2F50000E2F5E2F5F5F5F5F5F5F5F5F5F5F5F5F5F5F5F5F5F5F5F5F5F5F5F5
310
F5F5F5F5F5F5F5F5F5F5F5F5F5F5F5F5F5F5F5F5F5F5F5F5F5F5F5F5F5F5F5F5F5F5F5F5F5F5F5F5F5F5F5F5F5F5F5F5F5F5F5F5F5F5F5F5F5F5F5F5E2F5F5F5F5F5F5F5F5E2F50000E2F5E2F5F5F5F5F5F5F5F5F5F5F5F5F5F5F5F5F5F5F5F5F5F5F5F5F5F5F5F5F5F5F5F5F5F5F5F5F5F5F5F5F5F5F5F5F5F5F5F5F5F5F5
310
F5F5F5F5F5F5F5F5F5F5F5F5F5F5F5F5F5F5F5F5F5F5F5F5F5F5F5F5F5F5F5F5F5E2F5F5F5F5F5F5F5F5E2F50000E2F5E2F5F5F5F5F5F5F5F5F5F5F5F5F5F5F5F5F5F5F5F5F5F5F5F5F5F5F5F5F5F5F5F5F5F5F5F5F5F5F5F5F5F5F5F5F5F5F5F5F5F5F5F5F5F5F5F5F5F5F5F5F5F5F5F5F5F5F5F5F5F5F5F5F5F5F5F5F5F5
310
F5F5F5F5F5F5E2F5F5F5F5F5F5F5F5E2F50000E2F5E2F5F5F5F5F5F5F5F5F5F5F5F5F5F5F5F5F5F5F5F5F5F5F5F5F5F5F5F5F5F5F5F5F5F5F5F5F5F5F5F5F5F5F5F5F5F5F5F5F5F5F5F5F5F5F5F5F5F5F5F5F5F5F5F5F5F5F5F5F5F5F5F5F5F5F5F5F5F5F5F5F5F5F5F5E2F5F5F5F5F5F5F5F5E2F50000E2F5E2F5F5F5F5F5
310
F5F5F5F5F5F5F5F5F5F5F5F5F5F5F5F5F5F5F5F5F5F5F5F5F5F5F5F5F5F5F5F5F5F5F5F5F5F5F5F5F5F5F5F5F5F5F5F5F5F5F5F5F5F5F5F5F5F5F5F5F5F5F5F5F5F5F5F5F5F5F5F5F5F5F5F5F5F5F5E2F5F5F5F5F5F5F5F5E2F50000E2F5E2F5F5F5F5F5F5F5F5F5F5F5F5F5F5F5F5F5F5F5F5F5F5F5F5F5F5F5F5F5F5F5F5
310
F5F5F5F5F5F5F5F5F5F5F5F5F5F5F5F5F5F5F5F5F5F5F5F5F5F5F5F5F5F5F5F5F5F5F5F5F5F5F5F5F5F5F5F5F5F5F5F5F5F5F5F5E2F5F5F5F5F5F5F5F5E2F50000E2F5E2F5F5F5F5F5F5F5F5F5F5F5F5F5F5F5F5F5F5F5F5F5F5F5F5F5F5F5F5F5F5F5F5F5F5F5F5F5F5F5F5F5F5F5F5F5F5F5F5F5F5F5F5F5F5F5F5F5F5F5
310
F5F5F5F5F5F5F5F5F5F5F5F5F5F5F5F5F5F5F5F5F5F5F5F5F5E2F5F5F5F5F5F5F5F5E2F50000E2F5E2F5F5F5F5F5F5F5F5F5F5F5F5F5F5F5F5F5F5F5F5F5F5F5F5F5F5F5F5F5F5F5F5F5F5F5F5F5F5F5F5F5F5F5F5F5F5F5F5F5F5F5F5F5F5F5F5F5F5F5F5F5F5F5F5F5F5F5F5F5F5F5F5F5F5F5F5F5F5F5F5F5F5F5F5E2F5
310
F5F5F5F5F5F5F5F5F50000E2F5E2F5F5F5F5F5F5F5F5F5F5F5F5F5F5F5F5F5F5F5F5F5F5F5F5F5F5F5F5F5F5F5F5F5F5F5F5F5F5F5F5F5F5F5F5F5F5F5F5F5F5F5F5F5F5F5F5F5F5F5F5F5F5F5F5F5F5F5F5F5F5F5F5F5F5F5F5F5F5F5F5F5F5F5F5E2F5F5F5F5F5F5F5F5F5F50000E2F5E2F5F5F5F5F5F5F5F5F5F5F5F5F5
310
F5F5F5F5F5F5F5F5F5F5F5F5F5F5F5F5F5F5F5F5F5F5F5F5F5F5F5F5F5F5F5F5F5F5F5F5F5F5F5F5F5F5F5F5F5F5F5F5F5F5F5F5F5F5F5F5F5F5F5F5F5F5F5F5F5F5F5F5F5F5F5E2F5F5F5F5F5F5F5F5F5F50000E2F5E2F5F5F5F5F5F5F5F5F5F5F5F5F5F5F5F5F5F5F5F5F5F5F5F5F5F5F5F5F5F5F5F5F5F5F5F5F5F5F5F5
310
F5F5F5F5F5F5F5F5F5F5F5F5F5F5F5F5F5F5F5F5F5F5F5F5F5F5F5F5F5F5F5F5F5F5F5F5F5F5F5F5F5F5F5F5E2F5F5F5F5F5F5F5F5F5F50000E2F5E2F5F5F5F5F5F5F5F5F5F5F5F5F5F5F5F5F5F5F5F5F5F5F5F5F5F5F5F5F5F5F5F5F5F5F5F5F5F5F5F5F5F5F5F5F5F5F5F5F5F5F5F5F5F5F5F5F5F5F5F5F5F5F5F5F5F5F5
310
F5F5F5F5F5F5F5F5F5F5F5F5F5F5F5F5F5E2F5F5F5F5F5F5F5F5F5F50000E2F5E2F5F5F5F5F5F5F5F5F5F5F5F5F5F5F5F5F5F5F5F5F5F5F5F5F5F5F5F5F5F5F5F5F5F5F5F5F5F5F5F5F5F5F5F5F5F5F5F5F5F5F5F5F5F5F5F5F5F5F5F5F5F5F5F5F5F5F5F5F5F5F5F5F5F5F5F5F5F5F5F5F5F5F5F5E2F5F5F5F5F5F5F5F5F5
310
F50000E2F5E2F5F5F5F5F5F5F5F5F5F5F5F5F5F5F5F5F5F5F5F5F5F5F5F5F5F5F5F5F5F5F5F5F5F5F5F5F5F5F5F5F5F5F5F5F5F5F5F5F5F5F5F5F5F5F5F5F5F5F5F5F5F5F5F5F5F5F5F5F5F5F5F5F5F5F5F5F5F5F5F5F5F5F5F5E2F5F5F5F5F5F5F5F5F5F50000E2F5E2F5F5F5F5F5F5F5F5F5F5F5F5F5F5F5F5F5F5F5F5F5
310
F5F5F5F5F5F5F5F5F5F5F5F5F5F5F5F5F5F5F5F5F5F5F5F5F5F5F5F5F5F5F5F5F5F5F5F5F5F5F5F5F5F5F5F5F5F5F5F5F5F5F5F5F5F5F5F5F5F5F5F5F5F5F5E2F5F5F5F5F5F5F5F5F5F50000E2F5E2F5F5F5F5F5F5F5F5F5F5F5F5F5F5F5F5F5F5F5F5F5F5F5F5F5F5F5F5F5F5F5F5F5F5F5F5F5F5F5F5F5F5F5F5F5F5F5F5
310
F5F5F5F5F5F5F5F5F5F5F5F5F5F5F5F5F5F5F5F5F5F5F5F5F5F5F5F5F5F5F5F5F5F5F5F5E2F5F5F5F5F5F5F5F5F5F50000E2F5E2F5F5F5F5F5F5F5F5F5F5F5F5F5F5F5F5F5F5F5F5F5F5F5F5F5F5F5F5F5F5F5F5F5F5F5F5F5F5F5F5F5F5F5F5F5F5F5F5F5F5F5F5F5F5F5F5F5F5F5F5F5F5F5F5F5F5F5F5F5F5F5F5F5F5F5
310
F5F5F5F5F5F5F5F5F5E2F5F5F5F5F5F5F5F5F5F50000E2F5E2F5F5F5F5F5F5F5F5F5F5F5F5F5F5F5F5F5F5F5F5F5F5F5F5F5F5F5F5F5F5F5F5F5F5F5F5F5F5F5F5F5F5F5F5F5F5F5F5F5F5F5F5F5F5F5F5F5F5F5F5F5F5F5F5F5F5F5F5F5F5F5F5F5F5F5F5F5F5F5F5F5F5F5F5E2F5F5F5F5F5F5F5F5E2F50000E2F5E2F5F5
310
F5F5F5F5F5F5F5F5F5F5F5F5F5F5F5F5F5F5F5F5F5F5F5F5F5F5F5F5F5F5F5F5F5F5F5F5F5F5F5F5F5F5F5F5F5F5F5F5F5F5F5F5F5F5F5F5F5F5F5F5F5F5F5F5F5F5F5F5F5F5F5F5F5F5F5F5F5F5F5F5F5F5E2F5F5F5F5F5F5F5F5E2F50000E2F5E2F5F5F5F5F5F5F5F5F5F5F5F5F5F5F5F5F5F5F5F5F5F5F5F5F5F5F5F5F5
310
F5F5F5F5F5F5F5F5F5F5F5F5F5F5F5F5F5F5F5F5F5F5F5F5F5F5F5F5F5F5F5F5F5F5F5F5F5F5F5F5F5F5F5F5F5F5F5F5F5F5F5F5F5F5F5E2F5F5F5F5F5F5F5F5E2F50000E2F5E2F5F5F5F5F5F5F5F5F5F5F5F5F5F5F5F5F5F5F5F5F5F5F5F5F5F5F5F5F5F5F5F5F5F5F5F5F5F5F5F5F5F5F5F5F5F5F5F5F5F5F5F5F5F5F5F5
310
F5F5F5F5F5F5F5F5F5F5F5F5F5F5F5F5F5F5F5F5F5F5F5F5F5F5F5F5E2F5F5F5F5F5F5F5F5E2F50000E2F5E2F5F5F5F5F5F5F5F5F5F5F5F5F5F5F5F5F5F5F5F5F5F5F5F5F5F5F5F5F5F5F5F5F5F5F5F5F5F5F5F5F5F5F5F5F5F5F5F5F5F5F5F5F5F5F5F5F5F5F5F5F5F5F5F5F5F5F5F5F5F5F5F5F5F5F5F5F5F5F5F5F5F5F5
310
F5E2F5F5F5F5F5F5F5F5E2F50000E2F5E2F5F5F5F5F5F5F5F5F5F5F5F5F5F5F5F5F5F5F5F5F5F5F5F5F5F5F5F5F5F5F5F5F5F5F5F5F5F5F5F5F5F5F5F5F5F5F5F5F5F5F5F5F5F5F5F5F5F5F5F5F5F5F5F5F5F5F5F5F5F5F5F5F5F5F5F5F5F5F5F5F5F5F5F5E2F5F5F5F5F5F5F5F5E2F50000E2F5E2F5F5F5F5F5F5F5F5F5F5
310
F52D2D2D2D2D2D2D2D2DF5F5F5F5F5F5F5F5F5F5F5F5F5F5F5F5F5F5F5F52D2D2D2D2D2D2DF5F5F5F5F5F5F5F5F5F5F5F5F5F5F5F5F5F5F5F5F52D2D2D2D2D2DF5F5F5F5F5F5F5F5F5F5E2F5F5F5F5F5F5F5F5E2F50000E2F5E2F5F5F5F5F5F5F5F5F5F52DF5F5F5F5F5F5F5F5F52D2D2DF5F5F5F5F5F5F5F5F5F5F52D2D2D
310
2D2D2DF5F5F5F5F5F5F52D2D2D2DF5F5F5F5F5F5F5F5F5F5F52D2D2D2D2D2DF5F5F5F5F5F52DF5F5F5F5F5F5F5F5F5E2F5F5F5F5F5F5F5F5E2F50000E2F5E2F5F5F5F5F5F5F5F5F52DF5F5F5F5F5F5F5F5F5F5F5F5F52D2D2D2D2D2D2D2D2D2D2DF5F5F5F5F5F5F5F5F5F5F5F5F5F5F5F5F52D2D2D2D2D2D2D2D2D2D2DF5F5
310
F5F5F5F5F5F5F5F5F5F5F52DF5F5F5F5F5F5F5F5E2F5F5F5F5F5F5F5F5E2F50000E2F5E2F5F5F5F5F5F5F5F52DF5F5F5F5F5F5F5F5F5F5F5F5F5F5F5F5F5F5F5F5F5F5F5F5F5F5F5F5F5F5F5F5F5F5F5F5F5F5F5F5F5F5F5F5F5F5F5F5F5F5F5F5F5F5F5F5F5F5F5F5F5F5F5F5F5F5F52D2DF5F5F5F5F5F5E2F5F5F5F5F5F5
310
F5F5E2F50000E2F5E2F5F5F5F5F5F5F52DF52D2D2D2D2D2DF5F5F5F5F5F5F5F5F5F5F5F5F5F5F5F5F5F5F5F5F5F5F5F5F5F5F5F5F5F5F5F5F5F5F5F5F5F5F5F5F5F5F5F5F5F5F5F5F5F5F5F5F5F5F52D2D2D2D2DF5F5F52DF5F5F5F5F5E2F5F5F5F5F5F5F5F5E2F50000E2F5E2F5F5F5F5F5F52DF5F52D2D2D2D2D2DF5F5F5
310
F5F5F5F5F5F5F5F5F5F5F5F5F5F5F5F5F5F5F5F5F5F5F5F5F5F5F5F5F5F5F5F5F5F5F5F5F5F5F5F5F5F5F5F5F5F5F5F5F5F5F5F52D2D2D2D2DF5F5F52DF5F5F5F5F5E2F5F5F5F5F5F5F5F5E2F50000E2F5E2F5F5F5F5F5F52DF5F52D2D2D2D2D2DF5F5F5F5F5F5F5F5F5F5F5F5F5F5F5F5F5F5F5F5F5F5F5F5F5F5F5F5F5F5
310
F5F5F5F5F5F5F5F5F5F5F5F5F5F5F5F5F5F5F5F5F5F5F5F5F52D2D2D2D2DF5F5F52DF5F5F5F5F5E2F5F5F5F5F5F5F5F5E2F50000E2F5E2F5F5F5F5F52DF5F5F52D2D2D2D2D2DF5F5F5F5F5F5F5F5F5F5F5F5F5F5F5F5F5F5F5F5F5F5F5F5F5F5F5F5F5F5F5F5F5F5F5F5F5F5F5F5F5F5F5F5F5F5F5F5F5F5F5F5F5F5F52D2D
310
2D2D2DF5F5F5F52DF5F5F5F5E2F5F5F5F5F5F5F5F5E2F50000E2F5E2F5F5F5F5F52DF5F5F52D2D2D2D2D2DF5F5F5F5F5F5F5F5F5F5F5F5F5F5F5F5F5F5F5F5F5F5F5F5F5F5F5F5F5F5F5F5F5F5F5F5F5F5F5F5F5F5F5F5F5F5F5F5F5F5F5F5F5F5F52D2D2D2D2DF5F5F5F52DF5F5F5F5E2F5F5F5F5F5F5F5F5E2F50000E2F5
310
E2F5F5F5F5F52DF5F5F52D2D2D2D2D2DF5F5F5F5F5F5F5F5F5F5F5F5F5F5F5F5F5F5F5F5F5F5F5F5F5F5F5F5F5F5F5F5F5F5F5F5F5F5F5F5F5F5F5F5F5F5F5F5F5F5F5F5F5F5F52D2D2D2D2DF5F5F5F52DF5F5F5F5E2F5F5F5F5F5F5F5F5E2F50000E2F5E2F5F5F5F52DF5F5F5F52DC3C3C32D2DF5F5F5F5F5F5F5F5F5F5F5
310
F5F5F5F5F5F5F5F5F5F5F5F5F5F5F5F5F5F5F5F5F5F5F5F5F5F5F5F5F5F5F5F5F5F5F5F5F5F5F5F5F5F5F5F52DC3C3C32DF5F5F5F5F52DF5F5F5E2F5F5F5F5F5F5F5F5E2F50000E2F5E2F5F5F5F52DF5F5F5F52DC3F5C32D2DF5F5F5F5F5F5F5F5F5F5F5F5F5F5F5F5F5F5F5F5F5F5F5F5F5F5F5F5F5F5F5F5F5F5F5F5F5F5
310
F5F5F5F5F5F5F5F5F5F5F5F5F5F5F5F5F52DC3F5C32DF5F5F5F5F52DF5F5F5E2F5F5F5F5F5F5F5F5F5F5F5F5E2F5E2F5F5F5F52DF5F5F5F52DC3F5C32D2DF5F5F5F5F5F5F5F5F5F5F5F5F5F5F5F5F5F5F5F5F5F5F5F5F5F5F5F5F5F5F5F5F5F5F5F5F5F5F5F5F5F5F5F5F5F5F5F5F5F5F5F5F5F5F52DC3F5C32DF5F5F5F5F5
310
2DF5F5F5E2F5F5F5F5F5F5F5F5F5F50000E2F5E2F5F5F52D2D2D2D2DE22DC3E2C32D2DE22D2D2D2D2D2D2D2D2D2D2D2D2D2D2D2D2D2D2D2D2D2D2D2D2D2D2D2D2D2D2D2D2D2D2D2D2D2D2D2D2D2D2D2D2D2D2D2D2D2D2D2DE2E22DC3E2C32DE2E22D2D2D2DF5F5F5E2F5F5F5F5F5F5F5F5F5F50000E2F5E2F5F5F5F5F5F5F5
310
E2E22DC3E2C32D2DE2E2E2F5F5F5F5F5F5F5F5F5F5F5F5F5F5F5F5F5F5F5F5F5F5F5F5F5F5F5F5F5F5F5F5F5F5F5F5F5F5F5F5F5F5F5F5F5F5F5F5E2E2E2E22DC3E2C32DE2E2E2F5F5F5F5F5F5E2F5F5F5F5F5F5F5F5F5F50000E2F5E2F5F5F5F5F5F5F5F5F5C3C3C3C3C32DF5F5E2F5F5F5F5F5F5F5F5F5F5F5F5F5F5F5F5
310
F5F5F5F5F5F5F5F5F5F5F5F5F5F5F5F5F5F5F5F5F5F5F5F5F5F5F5F5F5F5F5F5E2F5F5F52D2DC3C3C3F5F5F5F5F5F5F5F5F5E2F5F5F5F5F5F5F5F5F5F50000E2F5E2F5F5F5F5F5F5F5F5F5C3C3C3C3C3F5F5F5E2E2F5F5F5F5F5F5F5F5F5F5F5F5F5F5F5F5F5F5F5F5F5F5F5F5F5F5F5F5F5F5F5F5F5F5F5F5F5F5F5F5F5F5
310
F5F5F5F5E2E2F5F5F5C3C3C3C3C3F5F5F5F5F5F5F5F5F5E2F5F5F5F5F5F5F5F5F5F50000E2F5E2F5F5F5F5F5F5F5F5F5F5C3F5F5F5F5F5F5F5E2F5F5F5F5F5F5F5F5F5F5F5F5F5F5F5F5F5F5F5F5F5F5F5F5F5F5F5F5F5F5F5F5F5F5F5F5F5F5F5F5F5F5F5F5F5F5E2F5F5F5F5F5F5F5F5F5F5F5F5F5F5F5F5F5F5E2F5F5F5
310
F5F5F5F5F5F5F50000E2F5E2F5F5F5F5F5F5F5F5F5C3F5F5F5F5F5F5F5F5E2E2F5F5F5F5F5F5F5F5F5F5F5F5F5F5F5F5F5F5F5F5F5F5F5F5F5F5F5F5F5F5F5F5F5F5F5F5F5F5F5F5F5F5F5F5E2E2F5F5F5F5F5F5F5F5F5F5F5F5F5F5F5F5F5F5E2F5F5F5F5F5F5F5F5F5F50000E2F5E2F5F5F5F5F5F5F5F5F5C3F5F5F5F5F5
310
F5F5F5F5E2F5F5F5F5F5F5F5F5F5F5F5F5F5F5F5F5F5F5F5F5F5F5F5F5F5F5F5F5F5F5F5F5F5F5F5F5F5F5F5F5F5F5F5F5E2F5F5F5F5F5F5F5F5F5F5F5F5F5F5F5F5F5F5F5E2F5F5F5F5F5F5F5F5F5F50000E2F5E2F5F5F5F5F5F5F5F5C3F5F5F5F5F5F5F5F5F5E2E2E2F5F5F5F5C3C3F5F5F5F5F5F5F5F5F5F5F5F5F5F5F5
310
F5F5F5F5F5F5F5F5F5F5F5F5F5F5F5C3C3F5F5F5F5E2E2F5F5F5F5F5F5F5F5F5F5F5F5F5F5F5F5F5F5F5E2F5F5F5F5F5F5F5F5E2F50000E2F5E2F5C3C3C3C3C3C3C3F5F5F5F5F5F5F5F5F5E2E2F5E2F5F5F5F5C3C3C3F5F5F5F5F5F5F5F5F5F5F5F5F5F5F5F5F5F5F5F5F5F5F5F5F5F5F5F5C3C3C3C3F5F5F5E2F5F5F5F5F5
310
F5F5F5F5F5F5F5F5F5F5F5F5F5F5F5E2F5F5F5F5F5F5F5F5E2F50000E2F5E2F5C3C3C3C3F5F5F5F5F5F5F5F5F5F5F5E2F5F5F5E2E2E2E2C3C3C3C3E2E2E2E2E2E2E2E2E2E2E2E2E2E2E2E2E2E2E2E2E2E2E2E2E2E2E2E2C3C3C3C3E2E2E2E2F5F5F5F5F5F5F5F5F5F5F5F5F5F5F5F5F5F5F5F5E2F5F5F5F5F5F5F5F5E2F500
310
00E2F5E2F5C3C3C3C3F5F5F5F5F5F5F5F5F5F5F5E2F5F5F5F5E2E2C3C3C3C3C3C3E2E2E2E2E2E2E2E2E2E2E2E2E2E2E2E2E2E2E2E2E2E2E2E2E2E2C3C3C3C3C3C3E2E2F5F5F5F5F5F5F5F5F5F5F5F5F5F5F5F5F5F5F5F5F5E2F5F5F5F5F5F5F5F5E2F50000E2F5E2F5F5F5F5F5F5F5F5F5F5F5F5F5F5F5E2F5F5F5F5F52828
310
28C3C3C3C32828282828282828282828282828282828282828282828282828282828282828282828F5F5F5F5F5F5F5F5F5F5F5F5F5F5F5F5F5F5F5F5F5E2F5F5F5F5F5F5F5F5E2F50000E2F5E2F5F5F5F5F5F5F5F5F5F5F5F5F5F5E2F5F5F5F5F52828282828C3C3C328282828282828282828282828282828282828282828
310
2828282828282828282828282828F5F5F5F5F5F5F5F5F5F5F5F5F5F5F5F5F5F5F5F5E2F5F5F5F5F5F5F5F5E2F50000E2F5E2F5F5F5F5F5F5F5F5E2E2E2E2E2E2F5F5F5F5F5F52828F5F5F5F5F5F5C3F5F5F5F5F5F5F5F5F5F5F5F5F5F5F5F5F5F5F5F5F5F5F5F5F5F5F5F5F5F5F5F5F5F52828F5F5F5F5F5F5F5F5F5F5F5F5
310
F5F5F5F5F5F5F5E2F5F5F5F5F5F5F5F5E2F50000E2F5E2F5F5F5F5F5F5F5F5E2E2E2E2F5F5F5F5F5F5F5F52828F5F5F5F5F5F5F5C3F5F5F5F5F5F5F5F5F5F5F5F5F5F5F5F5F5F5F5F5F5F5F5F5F5F5F5F5F5F5F5F5F52828F5F5F5F5F5F5F5F5F5F5F5F5F5F5F5F5F5F5F5E2F5F5F5F5F5F5F5F5E2F50000E2F5E2F5F5F5F5
310
F5F5F5F5F5E2E2E2F5F5F5F5F5F5F5F52828F5F5F5F5F5F5F5C3F5F5F5F5F5F5F5F5F5F5F5F5F5F5F5F5F5F5F5F5F5F5F5F5F5F5F5F5F5F5F5F5F52828F5F5F5F5F5F5F5F5F5F5F5F5F5F5F5F5F5F5F5E2F5F5F5F5F5F5F5F5E2F50000E2F5E2F5F5F5F5F5F5F5F5F5F5F5F5F5F5F5F5F5F5F5282828F5F5F5F5F5F5F5F5C3
310
F5F5F5F5F5F5F5F5F5F5F5F5F5F5F5F5F5F5F5F5F5F5F5F5F5F5F5F5F5F5F5F5282828F5F5F5F5F5F5F5F5F5F5F5F5F5F5F5F5F5F5E2F5F5F5F5F5F5F5F5E2F50000E2F5E2F5F5F5F5F5F5F5F5F5F5F5F5F5F5F5F5F5F5F5282828F5F5F5F5F5F5F5F5F5C3F5F5F5F5F5F5F5F5F5F5F5F5F5F5F5F5F5F5F5F5F5F5F5F5F5F5
310
F5F5F5F5F52828F5F5F5F5F5F5F5F5F5F5F5F5F5F5F5F5F5F5F5E2F5F5F5F5F5F5F5F5E2F50000E2F5E2F5F5F5F5F5F5F5F5F5F5F5F5F5F5F5F5F5F5F5F52828F5F5F5F5F5F5F5F5F5F5C3C3C3C3C3C3F5F5F5F5F5F5F5F5F5F5F5F5F5F5F5F5F5F5F5F5F5F5F5F5F52828F5F5F5F5F5F5F5F5F5F5F5F5F5F5F5F5F5F5F5E2
310
F5F5F5F5F5F5F5F5E2F50000E2F5E2F5F5F5F5F5F5F5F5F5F5F5F5F5F5F5F5F5F5F5F52828F5F5F5F5F5F5F5F5F5F5F5F5C3C3C3C3F5F5F5F5F5F5F5F5F5F5F5F5F5F5F5F5F5F5F5F5F5F5F5F5F52828F5F5F5F5F5F5F5F5F5F5F5F5F5F5F5F5F5F5F5E2F5F5F5F5F5F5F5F5E2F5FFFFE2F5E2F5F5F5F5F5F5F5F5F5F5F5F5
310
F5F5F5F5F5F5F5F52828F5F5F5F5F5F5F5F5F5F5F5F5F5C3C3F5F5F5F5F5F5F5F5F5F5F5F5F5F5F5F5F5F5F5F5F5F5F5F5F5F52828F5F5F5F5F5F5F5F5F5F5F5F5F5F5F5F5F5F5F5E2F5F5F5F5F5F5F5F5E2F5FFFFE2F5E2F5F5F5F5F5F5F5F5F5F5F5F5F5F5F5F5F5F5F5F52828F5F5F5F5F5F5F5F5F5F5F5F5F5C3C3F5F5
310
F5F5F5F5F5F5F5F5F5F5F5F5F5F5F5F5F5F5F5F5F5F5F5F52828F5F5F5F5F5F5F5F5F5F5F5F5F5F5F5F5F5F5F5E2F5F5F5F5F5F5F5F5E2F5FFFFE2F5E2F5F5F5F5F5F5F5F5F5F5F5F5F5F5F5F5F5F5F5282828F5F5F5F5F5F5F5F5F5F5F5F5F5F5F5F5F5F5F5F5F5F5F5F5F5F5F5F5F5F5F5F5F5F5F5F5F5F5F5F5F52828F5
310
F5F5F5F5F5F5F5F5F5F5F5F5F5F5F5F5F5F5E2F5F5F5F5F5F5F5F5E2F5FFFFE2F5E2F5F5F5F5F5F5F5F5F5F5F5F5F5F5F5F5F5F5F5282828F5F5F5F5F5F5F5F5F5F5F5F5F5F5F5F5F5F5F5F5F5F5F5F5F5F5F5F5F5F5F5F5F5F5F5F5F5F5F5F5F5282828F5F5F5F5F5F5F5F5F5F5F5F5F5F5F5F5F5F5E2F5F5F5F5F5F5F5F5
310
E2F5FFFFE2F5E2F5F5F5F5F5F5F5F5F5F5F5F5F5F5F5F5F5F5F5F5F5F5F5F5F5F5F5F5F5F5F5F5F5F5F5F5F5F5F5F5F5F5F5F5F5F5F5F5F5F5F5F5F5F5F5F5F5F5F5F5F5F5F5F5F528F5F5F5F5F5F5F5F5F5F5F5F5F5F5F5F5F5F5E2F5F5F5F5F5F5F5F5F5F5FFFFE2F5E2F5F5F5F5F5F5F5F5F5F5F5F5F5F5F5F5F5F5F5F5
310
F5F5F5F5F5F5F5F5F5F5F5F5F5F5F5F5F5F5F5F5F5F5F5F5F5F5F5F5F5F5F5F5F5F5F5F5F5F5F5F5F5F5F5F5F5F528F5F5F5F5F5F5F5F5F5F5F5F5F5F5F5F5F5E2F5F5F5F5F5F5F5F5F5F5FFFFE2F5E2F5F5F5F5F5F5F5F5F5F5F5F5F5F5F5F5F5F5F5F5F5F5F5F5F5F5F5F5F5F5F5F5F5F5F5F5F5F5F5F5F5F5F5F5F5F5F5
310
F5F5F5F5F5F5F5F5F5F5F5F5F5F5F5F5F5F5F5F528F5F5F5F5F5F5F5F5F5F5F5F5F5F5F5F5E2F5F5F5F5F5F5F5F5F5F5FFFFE2F5E2F5F5F5F5F5F5F5F5F5F5F5F5F5F5F5F5F5F5F5F5F5F5F5F5F5F5F5F5F5F5F5F5F5F5F5F5F5F5F5F5F5F5F5F5F5F5F5F5F5F5F5F5F5F5F5F5F5F5F5F5F5F5F5F5F5F5F528F5F5F5F5F5F5
310
F5F5F5F5F5F5F5F5F5F5E2F5F5F5F5F5F5F5F5F5F5FFFFE2F5E2F5F5F5F5F5F5F5F5F5F5F5F5F5F5F5F5F5F5F5F5F5F5F5F5F5F5F5F5F5F5F5F5F5F5F5F5F5F5F5F5F5F5F5F5F5F5F5F5F5F5F5F5F5F5F5F5F5F5F5F5F5F5F5F5F5F5F5F528F5F5F5F5F5F5F5F5F5F5F5F5F5F5F5E2F5F5F5F5F5F5F5F5F5F5FFFFE2F5E2F5
310
F5F5F5F5F5F5F5F5F5F5F5F5F5F5F5F5F5F5F5F5F5F5F5F5F5F5F5F5F5F5F5F5F5F5F5F5F5F5F5F5F5F5F5F5F5F5F5F5F5F5F5F5F5F5F5F5F5F5F5F5F5F5F5F5F5F5F5F52828282828F5F5F5F5F5F5F5F5F5F5E2F5F5F5F5F5F5F5F5F5F5FFFFE2F5E2F5F5F5F5F5F5F5F5F5F5F5F5F5F5F5F5F5F5F5F5F5F5F5F5F5F5F5F5
310
F5F5F5F5F5F5F5F5F5F5F5F5F5F5F5F5F5F5F5F5F5F5F5F5F5F5F5F5F5F5F5F5F5F5F5F5F5F5F5F5F5F5F5282828F5F5F5F5F5F5F5F5F5F5E2F5F5F5F5F5F5F5F5F5F5FFFFE2F5E2F5F5F5F5F5F5F5F5F5F5F5F5F5F5F5F5F5F5F5F5F5F5F5F5F5F5F5F5F5F5F5F5F5F5F5F5F5F5F5F5F5F5F5F5F5F5F5F5F5F5F5F5F5F5F5
310
F5F5F5F5F5F5F5F5F5F5F5F5F5F5F5F5282828F5F5F5F5F5F5F5F5F5F5E2F5F5F5F5F5F5F5F5F5F5FFFFE2F5E2F5F5F5F5F5F5F5F5F5F5F5F5F5F5F5F5F5F5F5F5F5F5F5F5F5F5F5F5F5F5F5F5F5F5F5F5F5F5F5F5F5F5F5F5F5F5F5F5F5F5F5F5F5F5F5F5F5F5F5F5F5F5F5F5F5F5F5F5F5F5F5F5F5F5F5F5F5F5F5F5F5F5
310
F5F5E2F5F5F5F5F5F5F5F5F5F5FFFFE2F5E2F5F5F5F5F5F5F5F5F5F5F5F5F5F5F5F5F5F5F5F5F5F5F5F5F5F5F5F5F5F5F5F5F5F5F5F5F5F5F5F5F5F5F5F5F5F5F5F5F5F5F5F5F5F5F5F5F5F5F5F5F5F5F5F5F5F5F5F5F5F5F5F5F5F5F5F5F5F5F5F5F5F5F5F5E2F5F5F5F5F5F5F5F5F5F5FFFFE2F5E2F5F5F5F5F5F5F5F5F5
310
F5F5F5F5F5F5F5F5F5F5F5F5F5F5F5F5F5F5F5F5F5F5F5F5F5F5F5F5F5F5F5F5F5F5F5F5F5F5F5F5F5F5F5F5F5F5F5F5F5F5F5F5F5F5F5F5F5F5F5F5F5F5F5F5F5F5F5F5F5F5F5F5F5F5F5E2F5F5F5F5F5F5F5F5E2F5FFFFE2F5E2F5F5F5F5F5F5F5F5F5F5F5F5F5F5F5F5F5F5F5F5F5F5F5F5F5F5F5F5F5F5F5F5F5F5F5F5
310
F5F5F5F5F5F5F5F5F5F5F5F5F5F5F5F5F5F5F5F5F5F5F5F5F5F5F5F5F5F5F5F5F5F5F5F5F5F5F5F5F5F5F5F5F5F5F5F5E2F5F5F5F5F5F5F5F5E2F5FFFFE2F5E2F5F5F5F5F5F5F5F5F5F5F5F5F5F5F5F5F5F5F5F5F5F5F5F5F5F5F5F5F5F5F5F5F5F5F5F5F5F5F5F5F5F5F5F5F5F5F5F5F5F5F5F5F5F5F5F5F5F5F5F5F5F5F5
310
F5F5F5F5F5F5F5F5F5F5F5F5F5F5F5F5F5F5F5F5F5E2F5F5F5F5F5F5F5F5E2F5FFFFE2F5E2F5F5F5F5F5F5F5F5F5F5F5F5F5F5F5F5F5F5F5F5F5F5F5F5F5F5F5F5F5F5F5F5F5F5F5F5F5F5F5F5F5F5F5F5F5F5F5F5F5F5F5F5F5F5F5F5F5F5F5F5F5F5F5F5F5F5F5F5F5F5F5F5F5F5F5F5F5F5F5F5F5F5F5F5E2F5F5F5F5F5
310
F5F5F5E2F5FFFFE2F5E2F5F5F5F5F5F5F5F5F5F5F5F5F5F5F5F5F5F5F5F5F5F5F5F5F5F5F5F5F5F5F5F5F5F5F5F5F5F5F5F5F5F5F5F5F5F5F5F5F5F5F5F5F5F5F5F5F5F5F5F5F5F5F5F5F5F5F5F5F5F5F5F5F5F5F5F5F5F5F5F5F5F5F5F5E2F5F5F5F5F5F5F5F5E2F5FFFFE2F5E2F5F5F5F5F5F5F5F5F5F5F5F5F5F5F5F5F5
310
F5F5F5F5F5F5F5F5F5F5F5F5F5F5F5F5F5F5F5F5F5F5F5F5F5F5F5F5F5F5F5F5F5F5F5F5F5F5F5F5F5F5F5F5F5F5F5F5F5F5F5F5F5F5F5F5F5F5F5F5F5F5F5F5F5F5F5E2F5F5F5F5F5F5F5F5E2F5FFFFE2F5E2F5F5F5F5F5F5F5F5F5F5F5F5F5F5F5F5F5F5F5F5F5F5F5F5F5F5F5F5F5F5F5F5F5F5F5F5F5F5F5F5F5F5F5F5
310
F5F5F5F5F5F5F5F5F5F5F5F5F5F5F5F5F5F5F5F5F5F5F5F5F5F5F5F5F5F5F5F5F5F5F5F5F5F5F5F5E2F5F5F5F5F5F5F5F5E2F5FFFFE2F5E2F5F5F5F5F5F5F5F5F5F5F5F5F5F5F5F5F5F5F5F5F5F5F5F5F5F5F5F5F5F5F5F5F5F5F5F5F5F5F5F5F5F5F5F5F5F5F5F5F5F5F5F5F5F5F5F5F5F5F5F5F5F5F5F5F5F5F5F5F5F5F5
310
F5F5F5F5F5F5F5F5F5F5F5F5F5E2F5F5F5F5F5F5F5F5E2F5FFFFE2F5E2F5F5F5F5F5F5F5F5F5F5F5F5F5F5F5F5F5F5F5F5F5F5F5F5F5F5F5F5F5F5F5F5F5F5F5F5F5F5F5F5F5F5F5F5F5F5F5F5F5F5F5F5F5F5F5F5F5F5F5F5F5F5F5F5F5F5F5F5F5F5F5F5F5F5F5F5F5F5F5F5F5F5F5F5E2F5F5F5F5F5F5F5F5E2F5FFFFE2
310
F5E2F5F5F5F5F5F5F5F5F5F5F5F5F5F5F5F5F5F5F5F5F5F5F5F5F5F5F5F5F5F5F5F5F5F5F5F5F5F5F5F5F5F5F5F5F5F5F5F5F5F5F5F5F5F5F5F5F5F5F5F5F5F5F5F5F5F5F5F5F5F5F5F5F5F5F5F5F5F5F5F5F5F5F5F5E2F5F5F5F5F5F5F5F5E2F5FFFFE2F5E2F5F5F5F5F5F5F5F5F5F5F5F5F5F5F5F5F5F5F5F5F5F5F5F5F5
310
F5F5F5F5F5F5F5F5F5F5F5F5F5F5F5F5F5F5F5F5F5F5F5F5F5F5F5F5F5F5F5F5F5F5F5F5F5F5F5F5F5F5F5F5F5F5F5F5F5F5F5F5F5F5F5F5F5F5F5E2F5F5F5F5F5F5F5F5E2F5FFFFE2F5E2F5F5F5F5F5F5F5F5F5F5F5F5F5F5F5F5F5F5F5F5F5F5F5F5F5F5F5F5F5F5F5F5F5F5F5F5F5F5F5F5F5F5F5F5F5F5F5F5F5F5F5F5
310
F5F5F5F5F5F5F5F5F5F5F5F5F5F5F5F5F5F5F5F5F5F5F5F5F5F5F5F5F5F5F5F5E2F5F5F5F5F5F5F5F5E2F5FFFFE2F5E2F5F5F5F5F5F5F5F5F5F5F5F5F5F5F5F5F5F5F5F5F5F5F5F5F5F5F5F5F5F5F5F5F5F5F5F5F5F5F5F5F5F5F5F5F5F5F5F5F5F5F5F5F5F5F5F5F5F5F5F5F5F5F5F5F5F5F5F5F5F5F5F5F5F5F5F5F5F5F5
310
F5F5F5F5F5E2F5F5F5F5F5F5F5F5E2F5FFFFE2F5E2F5F5F5F5F5F5F5F5F5F5F5F5F5F5F5F5F5F5F5F5F5F5F5F5F5F5F5F5F5F5F5F5F5F5F5F5F5F5F5F5F5F5F5F5F5F5F5F5F5F5F5F5F5F5F5F5F5F5F5F5F5F5F5F5F5F5F5F5F5F5F5F5F5F5F5F5F5F5F5F5F5F5F5F5E2F5F5F5F5F5F5F5F5E2F5FFFFE2F5E2F5F5F5F5F5F5
310
F5F5F5F5F5F5F5F5F5F5F5F5F5F5F5F5F5F5F5F5F5F5F5F5F5F5F5F5F5F5F5F5F5F5F5F5F5F5F5F5F5F5F5F5F5F5F5F5F5F5F5F5F5F5F5F5F5F5F5F5F5F5F5F5F5F5F5F5F5F5F5F5F5F5F5F5F5F5E2F5F5F5F5F5F5F5F5E2F5FFFFE2F5E2F5F5F5F5F5F5F5F5F5F5F5F5F5F5F5F5F5F5F5F5F5F5F5F5F5F5F5F5F5F5F5F5F5
310
F5F5F5F5F5F5F5F5F5F5F5F5F5F5F5F5F5F5F5F5F5F5F5F5F5F5F5F5F5F5F5F5F5F5F5F5F5F5F5F5F5F5F5F5F5F5F5F5F5F5F5E2F5F5F5F5F5F5F5F5E2F5FFFFE2F5E2E2E2E2E2E2E2E2E2E2E2E2E2E2E2E2E2E2E2E2E2E2E2E2E2E2E2E2E2E2E2E2E2E2E2E2E2E2E2E2E2E2E2E2E2E2E2E2E2E2E2E2E2E2E2E2E2E2E2E2E2
310
E2E2E2E2E2E2E2E2E2E2E2E2E2E2E2E2E2E2E2E2E2E2E2E2E2F5F5F5F5F5F5F5F5E2F5FFFFE2F5E2F5F5F5F5F5F5F5F5F5F5F5F5F5F5F5F5F5F5F5F5F5F5F5F5F5F5F5F5F5F5F5F5F5F5F5F5F5F5F5F5F5F5F5F5F5F5F5F5F5F5F5F5F5F5F5F5F5F5F5F5F5F5F5F5F5F5F5F5F5F5F5F5F5F5F5F5F5F5F5F5F5F5F5F5E2F5F5
310
F5F5F5F5F5F5F5F5FFFFE2F5E2F5F5F5F5282828282828282828282828F5F52828282828282828F5F5282828282828F5F5282828F5F528282828282828282828282828F528F528282828282828F5F528F528282828F528F5F5282828F5F5F5F5F5E2F5F5F5F5F5F5F5F5F5F5FFFFE2F5E2F5F5F5F528282828282828282828
310
2828F5282828282828282828F5F52828282828F5F5F5F5282828F528282828282828282828282828F5282828F52828282828F5F528F5282828282828F5F52828F528F5F5F5F5E2F5F5F5F5F5F5F5F5F5F5FFFFE2F5E2F5F5F5F5282828F52828282828282828F5282828282828282828F5F528F5282828F5F5F528282828F5
310
282828282828282828282828F5F528F528282828282828F5F52828282828282828F5F5282828F5F5F5F5F5E2F5F5F5F5F5F5F5F5F5F5FFFFE2F5E2F5F5F5F5F5F5F5F5F5F5F5F5F5F528F528F528282828282828282828282828F5F528282828282828282828282828F5F5282828F5F52828282828F5F52828F5F528282828
310
28F5F5F5F5F5F5F5F5F5F5F5F5F5F5F5E2F5F5F5F5F5F5F5F5F5F5FFFFE2F5E2F5F5F5F5F5F5F5F5F5F5F5F5F5F52828282828282828282828282828282828F5F528282828282828282828282828F528282828F5F52828F52828F5F52828F5F52828F52828F5F5F5F5F5F5F5F5F5F5F5F5F5F5F5E2F5F5F5F5F5F5F5F5F5F5
310
FFFFE2F5E2F5F5F5F5F5F5F5F5F5F5F5F5F5F5F52828282828282828F5282828282828F5F5F52828F5F5F5F528F5F528F5F5F5F5F5F528F5F5F52828282828F5F5F5F5F5F52828282828F5F5F5F5F5F5F5F5F5F5F5F5F5F5F5E2F5F5F5F5F5F5F5F5F5F5FFFFE2F5E2F5F5F5F5F5F5F5F5F5F5F5F5F5F5F5F5F5F5F5F5F5F5
310
F5F5F5F5F5E2E2E2E2E2E2E2E2F5E2F5E2F5E2E2E2E2E2E2F5E2E2E2F5E2E2E2F5E2F5F5F5F5F5F5F5F5F5F5F5F5F5F5F5F5F5F5F5F5F5F5F5F5F5F5F5F5E2F5F5F5F5F5F5F5F5F5F5FFFFE2F5E2F5F5F5F5F5F5F5F5F5F5F5F5F5F5F5F5F5F5F5F5F5F5F5F5F5F5F5E2F5E2E2E2E2E2E2F5E2E2E2E2E2E2F5E2E2E2E2E2E2
310
E2E2F5E2E2E2E2F5F5F5F5F5F5F5F5F5F5F5F5F5F5F5F5F5F5F5F5F5F5F5F5F5F5F5F5E2F5F5F5F5F5F5F5F5F5F5FFFFE2F5E2F5F5F5F5F5F5F5F5F5F5F5F5F5F5F5F5F5F5F5F5F5F5F5F5F5F5F5E2F5E2E2E2F5E2E2F5F5E2E2E2E2E2F5E2E2F5E2F5E2E2E2E2E2E2F5E2F5F5F5F5F5F5F5F5F5F5F5F5F5F5F5F5F5F5F5F5
310
F5F5F5F5F5F5F5F5E2F5F5F5F5F5F5F5F5F5F50101E2F5E2F5F5F5F5F5F5F5F5F5F5F5F5F5F5F5F5F5F5F5F5F5F5F5F5F5F5F5E2E2E2E2E2E2E2E2E2F5E2E2F5E2F5E2E2E2F5E2F5E2E2F5E2E2E2E2E2F5F5F5F5F5F5F5F5F5F5F5F5F5F5F5F5F5F5F5F5F5F5F5F5F5F5F5F5E2F5F5F5F5F5F5F5F5E2F50101E2F5E2F5F5F5
310
F5F5F5F5F5F5F5F5F5F5F5F5F5F5F5F5F5F5E2E2E2E2E2F5E2E2E2E2E2E2E2F5F5F5E2F5E2E2E2E2E2F5E2E2E2E2E2E2E2E2E2E2F5E2E2F5E2E2E2E2F5F5F5F5F5F5F5F5F5F5F5F5F5F5F5F5F5F5F5F5F5E2F5F5F5F5F5F5F5F5E2F50101E2F5E2F5F5F5F5F5F5F5F5F5F5F5F5F5F5F5F5F5F5F5F5F5E2E2F5E2E2F5E2E2E2
310
F5E2F5E2F5F5F5E2E2E2E2F5E2E2E2E2E2F5E2E2F5F5E2E2E2F5E2F5E2E2E2F5F5F5F5F5F5F5F5F5F5F5F5F5F5F5F5F5F5F5F5F5F5F5E2F5F5F5F5F5F5F5F5E2F50101E2F5E2F5F5F5F5F5F5F5F5F5F5F5F5F5F5F5F5F5F5F5F5F5E2E2E2E2E2F5E2E2E2F5E2E2E2F5F5F5E2F5E2E2E2E2E2E2E2E2E2E2E2E2E2E2E2E2E2E2
310
E2E2F5E2F5F5F5F5F5F5F5F5F5F5F5F5F5F5F5F5F5F5F5F5F5F5F5E2F5F5F5F5F5F5F5F5E2F50101E2F5E2F5F5F5F5F5F5F5F5F5F5F5F5F5F5F5F5F5E2E2E2F5E2E2E2F5E2F5E2E2F5E2E2E2E2E2E2F5F5E2F5E2E2E2E2E2E2E2E2E2E2F5F5E2F5E2E2E2E2F5F5F5E2E2F5E2E2F5F5F5F5F5F5F5F5F5F5F5F5F5F5F5F5F5F5
310
E2F5F5F5F5F5F5F5F5E2F50101E2F5E2F5F5F5F5F5F5F5F5F5F5F5F5F5F5F5F5F5E2E2E2E2E2E2E2E2E2F5E2E2E2E2E2E2E2F5F5F5F5E2F5E2E2F5F5E2E2E2E2F5E2E2E2E2E2E2E2F5E2F5F5F5E2E2E2E2E2F5F5F5F5F5F5F5F5F5F5F5F5F5F5F5F5F5F5E2F5F5F5F5F5F5F5F5E2F50101E2F5E2F5F5F5F5F5F5F5F5F5F5F5
310
F5F5F5F5F5F5E2F5E2E2F5E2E2E2E2F5E2F5E2F5F5E2E2E2F5F5F5E2E2E2E2E2F5F5E2E2E2E2E2E2E2E2E2E2E2F5E2F5F5F5E2E2F5E2E2F5F5F5F5F5F5F5F5F5F5F5F5F5F5F5F5F5F5E2F5F5F5F5F5F5F5F5E2F50101E2F5E2F5F5F5F5F5F5F5F5F5F5F5F5F5F5F5F5F5E2F5E2F5E2E2E2F5E2E2E2E2E2F5F5E2E2E2E2F5F5
310
E2E2E2E2E2E2F5E2E2E2E2E2F5E2E2F5E2E2E2E2F5F5F5E2E2F5E2E2F5F5F5F5F5F5F5F5F5F5F5F5F5F5F5F5F5F5E2F5F5F5F5F5F5F5F5E2F50101E2F5E2E2E2E2E2E2E2E2E2E2E2E2E2E2E2E2E2E2E2E2E2E2E2E2E2E2E2E2E2E2E2E2E2E2E2E2E2E2E2E2E2E2E2E2E2E2E2E2E2E2E2E2E2E2E2E2E2E2E2E2E2E2E2E2E2E2
310
E2E2E2E2E2E2E2E2E2E2E2E2E2E2E2E2E2E2E2E2F5E2E2E2E2E2E2E2E2F50101E2F5F5F5F5F5F5F5F5F5F5F5F5F5F5F5F5F5F5F5F5F5F5F5F5F5F5F5F5F5F5F5F5F5F5F5F5F5F5F5F5F5F5F5F5F5F5F5F5F5F5F5F5F5F5F5F5F5F5F5F5F5F5F5F5F5F5F5F5F5F5F5F5F5F5F5F5F5F5F5F5F5F5F5F5F5F5F5F5F5F5F5F5F5F5
310
F5F5F50000E2E2E2E2E2E2E2E2E2E2E2E2E2E2E2E2E2E2E2E2E2E2E2E2E2E2E2E2E2E2E2E2E2E2E2E2E2E2E2E2E2E2E2E2E2E2E2E2E2E2E2E2E2E2E2E2E2E2E2E2E2E2E2E2E2E2E2E2E2E2E2E2E2E2E2E2E2E2E2E2E2E2E2E2E2E2E2E2E2E2E2E2E2E2E2E2E2E20000EFEFEFEFEFEFEFEFEFEFEFEFEFEFEFEFEFEFEFEFEFEF
310
EFEFEFEFEFEFEFEFEFEFEFEFEFEFEFEFEFEFEFEFEFEFEFEFEFEFEFEFEFEFEFEFEFEFEFEFEFEFEFEFEFEFEFEFEFEFEFEFEFEFEFEFEFEFEFEFEFEFEFEFEFEFEFEFEFEFEFEFEFEFEFEFEFEFEFEF0000
  0
XRECORD
  5
3323
102
{ACAD_REACTORS
330
3322
102
}
330
3322
100
AcDbXrecord
280
     1
102
MATERIAL
148
0.0
149
0.0
149
0.0
 93
        0
 94
       63
282
     0
 72
     1
 77
     1
171
     1
175
     1
179
     1
273
     0
  0
XRECORD
  5
3325
102
{ACAD_REACTORS
330
3324
102
}
330
3324
100
AcDbXrecord
280
     1
102
MATERIAL
148
0.0
149
0.0
149
0.0
 93
        0
 94
       63
282
     0
 72
     1
 77
     1
171
     1
175
     1
179
     1
273
     0
  0
XRECORD
  5
3327
102
{ACAD_REACTORS
330
3326
102
}
330
3326
100
AcDbXrecord
280
     1
102
MATERIAL
148
0.0
149
0.0
149
0.0
 93
        0
 94
       63
282
     0
 72
     1
 77
     1
171
     1
175
     1
179
     1
273
     0
  0
XRECORD
  5
335E
102
{ACAD_REACTORS
330
335D
102
}
330
335D
100
AcDbXrecord
280
     1
102
ACAD_ROUNDTRIP_2010_MLEADER_STYLE
  0
XRECORD
  5
3329
102
{ACAD_REACTORS
330
3328
102
}
330
3328
100
AcDbXrecord
280
     1
102
RTVSPropertyOp0
 70
     1
102
RTVSPropertyOp1
 70
     1
102
RTVSPropertyOp2
 70
     1
102
RTVSPropertyOp3
 70
     1
102
RTVSPropertyOp4
 70
     1
102
RTVSPropertyOp5
 70
     1
102
RTVSPropertyOp6
 70
     1
102
RTVSPropertyOp7
 70
     1
102
RTVSPropertyOp8
 70
     1
102
RTVSPropertyOp9
 70
     1
102
RTVSPropertyOp10
 70
     1
102
RTVSPropertyOp11
 70
     1
102
RTVSPropertyOp12
 70
     1
102
RTVSPropertyOp13
 70
     1
102
RTVSPropertyOp14
 70
     1
102
RTVSPropertyOp15
 70
     1
102
RTVSPropertyOp16
 70
     1
102
RTVSPropertyOp17
 70
     1
102
RTVSPropertyOp18
 70
     1
102
RTVSPropertyOp19
 70
     1
102
RTVSPropertyOp20
 70
     1
102
RTVSPropertyOp21
 70
     1
102
RTVSPropertyOp22
 70
     1
102
RTVSPropertyOp23
 70
     1
102
RTVSPropertyOp24
 70
     1
102
RTVSPropertyOp25
 70
     1
102
RTVSPropertyOp26
 70
     1
102
RTVSPropertyOp27
 70
     1
102
RTVSPropertyOp28
 70
     1
102
RTVSPropertyOp29
 70
     1
102
RTVSPropertyOp30
 70
     1
102
RTVSPropertyOp31
 70
     1
102
RTVSPropertyOp32
 70
     1
102
RTVSPropertyOp33
 70
     1
102
RTVSPropertyOp34
 70
     1
102
RTVSPropertyOp35
 70
     1
102
RTVSPropertyOp36
 70
     1
102
RTVSPropertyOp37
 70
     1
102
RTVSPropertyOp38
 70
     1
102
RTVSPropertyOp39
 70
     1
102
RTVSPropertyOp40
 70
     1
102
RTVSPropertyOp41
 70
     1
102
RTVSPropertyOp42
 70
     1
102
RTVSPropertyOp43
 70
     1
102
RTVSPropertyOp44
 70
     1
102
RTVSPropertyOp45
 70
     1
102
RTVSPropertyOp46
 70
     1
102
RTVSPropertyOp47
 70
     1
102
RTVSPropertyOp48
 70
     1
102
RTVSPropertyOp49
 70
     1
102
RTVSPropertyOp50
 70
     1
102
RTVSPropertyOp51
 70
     0
102
RTVSPropertyOp52
 70
     0
102
RTVSPropertyOp53
 70
     1
102
RTVSPropertyOp54
 70
     1
102
RTVSPropertyOp55
 70
     1
102
RTVSPropertyOp56
 70
     1
102
RTVSPropertyOp57
 70
     1
102
RTVSPost2010Prop28
280
     1
102
RTVSPost2010PropOp28
 70
     1
102
RTVSPost2010Prop29
280
     1
102
RTVSPost2010PropOp29
 70
     1
102
RTVSPost2010Prop30
280
     0
102
RTVSPost2010PropOp30
 70
     1
102
RTVSPost2010Prop31
280
     0
102
RTVSPost2010PropOp31
 70
     1
102
RTVSPost2010Prop32
280
     0
102
RTVSPost2010PropOp32
 70
     1
102
RTVSPost2010Prop33
280
     0
102
RTVSPost2010PropOp33
 70
     1
102
RTVSPost2010Prop34
280
     0
102
RTVSPost2010PropOp34
 70
     1
102
RTVSPost2010Prop35
280
     0
102
RTVSPost2010PropOp35
 70
     1
102
RTVSPost2010Prop36
280
     0
102
RTVSPost2010PropOp36
 70
     1
102
RTVSPost2010Prop37
 90
       50
102
RTVSPost2010PropOp37
 70
     1
102
RTVSPost2010Prop38
140
0.0
102
RTVSPost2010PropOp38
 70
     1
102
RTVSPost2010Prop39
140
1.0
102
RTVSPost2010PropOp39
 70
     1
102
RTVSPost2010Prop40
 90
        0
102
RTVSPost2010PropOp40
 70
     1
102
RTVSPost2010Prop41ColorIndex
 90
       18
102
RTVSPost2010Prop41ColorRGB
 90
        0
102
RTVSPost2010PropOp41
 70
     1
102
RTVSPost2010Prop42
 90
       50
102
RTVSPost2010PropOp42
 70
     1
102
RTVSPost2010Prop43
 90
        3
102
RTVSPost2010PropOp43
 70
     1
102
RTVSPost2010Prop44ColorIndex
 90
        5
102
RTVSPost2010Prop44ColorRGB
 90
      255
102
RTVSPost2010PropOp44
 70
     1
102
RTVSPost2010Prop45
280
     0
102
RTVSPost2010PropOp45
 70
     1
102
RTVSPost2010Prop46
 90
       50
102
RTVSPost2010PropOp46
 70
     1
102
RTVSPost2010Prop47
 90
       50
102
RTVSPost2010PropOp47
 70
     1
102
RTVSPost2010Prop48
 90
       50
102
RTVSPost2010PropOp48
 70
     1
102
RTVSPost2010Prop49
280
     0
102
RTVSPost2010PropOp49
 70
     1
102
RTVSPost2010Prop50
 90
       50
102
RTVSPost2010PropOp50
 70
     1
102
RTVSPost2010Prop51ColorIndex
 90
      256
102
RTVSPost2010Prop51ColorRGB
 90
-16777216
102
RTVSPost2010PropOp51
 70
     0
102
RTVSPost2010Prop52
140
1.0
102
RTVSPost2010PropOp52
 70
     0
102
RTVSPost2010Prop53
 90
        2
102
RTVSPost2010PropOp53
 70
     1
102
RTVSPost2010Prop54
  1
strokes_ogs.tif
102
RTVSPost2010PropOp54
 70
     1
102
RTVSPost2010Prop55
280
     0
102
RTVSPost2010PropOp55
 70
     1
102
RTVSPost2010Prop56
140
1.0
102
RTVSPost2010PropOp56
 70
     1
102
RTVSPost2010Prop57
140
1.0
102
RTVSPost2010PropOp57
 70
     1
  0
XRECORD
  5
332B
102
{ACAD_REACTORS
330
332A
102
}
330
332A
100
AcDbXrecord
280
     1
102
RTVSPropertyOp0
 70
     1
102
RTVSPropertyOp1
 70
     1
102
RTVSPropertyOp2
 70
     1
102
RTVSPropertyOp3
 70
     1
102
RTVSPropertyOp4
 70
     1
102
RTVSPropertyOp5
 70
     1
102
RTVSPropertyOp6
 70
     1
102
RTVSPropertyOp7
 70
     1
102
RTVSPropertyOp8
 70
     1
102
RTVSPropertyOp9
 70
     1
102
RTVSPropertyOp10
 70
     1
102
RTVSPropertyOp11
 70
     1
102
RTVSPropertyOp12
 70
     1
102
RTVSPropertyOp13
 70
     1
102
RTVSPropertyOp14
 70
     1
102
RTVSPropertyOp15
 70
     1
102
RTVSPropertyOp16
 70
     1
102
RTVSPropertyOp17
 70
     1
102
RTVSPropertyOp18
 70
     1
102
RTVSPropertyOp19
 70
     1
102
RTVSPropertyOp20
 70
     1
102
RTVSPropertyOp21
 70
     1
102
RTVSPropertyOp22
 70
     1
102
RTVSPropertyOp23
 70
     1
102
RTVSPropertyOp24
 70
     1
102
RTVSPropertyOp25
 70
     1
102
RTVSPropertyOp26
 70
     1
102
RTVSPropertyOp27
 70
     1
102
RTVSPropertyOp28
 70
     1
102
RTVSPropertyOp29
 70
     1
102
RTVSPropertyOp30
 70
     1
102
RTVSPropertyOp31
 70
     1
102
RTVSPropertyOp32
 70
     1
102
RTVSPropertyOp33
 70
     1
102
RTVSPropertyOp34
 70
     1
102
RTVSPropertyOp35
 70
     1
102
RTVSPropertyOp36
 70
     1
102
RTVSPropertyOp37
 70
     1
102
RTVSPropertyOp38
 70
     1
102
RTVSPropertyOp39
 70
     1
102
RTVSPropertyOp40
 70
     1
102
RTVSPropertyOp41
 70
     1
102
RTVSPropertyOp42
 70
     1
102
RTVSPropertyOp43
 70
     1
102
RTVSPropertyOp44
 70
     1
102
RTVSPropertyOp45
 70
     1
102
RTVSPropertyOp46
 70
     1
102
RTVSPropertyOp47
 70
     1
102
RTVSPropertyOp48
 70
     1
102
RTVSPropertyOp49
 70
     1
102
RTVSPropertyOp50
 70
     1
102
RTVSPropertyOp51
 70
     0
102
RTVSPropertyOp52
 70
     0
102
RTVSPropertyOp53
 70
     1
102
RTVSPropertyOp54
 70
     1
102
RTVSPropertyOp55
 70
     1
102
RTVSPropertyOp56
 70
     1
102
RTVSPropertyOp57
 70
     1
102
RTVSPost2010Prop28
280
     0
102
RTVSPost2010PropOp28
 70
     1
102
RTVSPost2010Prop29
280
     1
102
RTVSPost2010PropOp29
 70
     1
102
RTVSPost2010Prop30
280
     1
102
RTVSPost2010PropOp30
 70
     1
102
RTVSPost2010Prop31
280
     0
102
RTVSPost2010PropOp31
 70
     1
102
RTVSPost2010Prop32
280
     0
102
RTVSPost2010PropOp32
 70
     1
102
RTVSPost2010Prop33
280
     0
102
RTVSPost2010PropOp33
 70
     1
102
RTVSPost2010Prop34
280
     0
102
RTVSPost2010PropOp34
 70
     1
102
RTVSPost2010Prop35
280
     0
102
RTVSPost2010PropOp35
 70
     1
102
RTVSPost2010Prop36
280
     0
102
RTVSPost2010PropOp36
 70
     1
102
RTVSPost2010Prop37
 90
       50
102
RTVSPost2010PropOp37
 70
     1
102
RTVSPost2010Prop38
140
0.0
102
RTVSPost2010PropOp38
 70
     1
102
RTVSPost2010Prop39
140
1.0
102
RTVSPost2010PropOp39
 70
     1
102
RTVSPost2010Prop40
 90
        0
102
RTVSPost2010PropOp40
 70
     1
102
RTVSPost2010Prop41ColorIndex
 90
       18
102
RTVSPost2010Prop41ColorRGB
 90
        0
102
RTVSPost2010PropOp41
 70
     1
102
RTVSPost2010Prop42
 90
       50
102
RTVSPost2010PropOp42
 70
     1
102
RTVSPost2010Prop43
 90
        3
102
RTVSPost2010PropOp43
 70
     1
102
RTVSPost2010Prop44ColorIndex
 90
        5
102
RTVSPost2010Prop44ColorRGB
 90
      255
102
RTVSPost2010PropOp44
 70
     1
102
RTVSPost2010Prop45
280
     0
102
RTVSPost2010PropOp45
 70
     1
102
RTVSPost2010Prop46
 90
       50
102
RTVSPost2010PropOp46
 70
     1
102
RTVSPost2010Prop47
 90
       50
102
RTVSPost2010PropOp47
 70
     1
102
RTVSPost2010Prop48
 90
       50
102
RTVSPost2010PropOp48
 70
     1
102
RTVSPost2010Prop49
280
     0
102
RTVSPost2010PropOp49
 70
     1
102
RTVSPost2010Prop50
 90
       50
102
RTVSPost2010PropOp50
 70
     1
102
RTVSPost2010Prop51ColorIndex
 90
      256
102
RTVSPost2010Prop51ColorRGB
 90
-16777216
102
RTVSPost2010PropOp51
 70
     0
102
RTVSPost2010Prop52
140
1.0
102
RTVSPost2010PropOp52
 70
     0
102
RTVSPost2010Prop53
 90
        2
102
RTVSPost2010PropOp53
 70
     1
102
RTVSPost2010Prop54
  1
strokes_ogs.tif
102
RTVSPost2010PropOp54
 70
     1
102
RTVSPost2010Prop55
280
     0
102
RTVSPost2010PropOp55
 70
     1
102
RTVSPost2010Prop56
140
1.0
102
RTVSPost2010PropOp56
 70
     1
102
RTVSPost2010Prop57
140
1.0
102
RTVSPost2010PropOp57
 70
     1
  0
XRECORD
  5
332D
102
{ACAD_REACTORS
330
332C
102
}
330
332C
100
AcDbXrecord
280
     1
102
RTVSPropertyOp0
 70
     1
102
RTVSPropertyOp1
 70
     1
102
RTVSPropertyOp2
 70
     1
102
RTVSPropertyOp3
 70
     1
102
RTVSPropertyOp4
 70
     1
102
RTVSPropertyOp5
 70
     1
102
RTVSPropertyOp6
 70
     1
102
RTVSPropertyOp7
 70
     1
102
RTVSPropertyOp8
 70
     1
102
RTVSPropertyOp9
 70
     1
102
RTVSPropertyOp10
 70
     1
102
RTVSPropertyOp11
 70
     1
102
RTVSPropertyOp12
 70
     1
102
RTVSPropertyOp13
 70
     1
102
RTVSPropertyOp14
 70
     1
102
RTVSPropertyOp15
 70
     1
102
RTVSPropertyOp16
 70
     1
102
RTVSPropertyOp17
 70
     1
102
RTVSPropertyOp18
 70
     1
102
RTVSPropertyOp19
 70
     1
102
RTVSPropertyOp20
 70
     1
102
RTVSPropertyOp21
 70
     1
102
RTVSPropertyOp22
 70
     1
102
RTVSPropertyOp23
 70
     1
102
RTVSPropertyOp24
 70
     1
102
RTVSPropertyOp25
 70
     1
102
RTVSPropertyOp26
 70
     1
102
RTVSPropertyOp27
 70
     1
102
RTVSPropertyOp28
 70
     1
102
RTVSPropertyOp29
 70
     1
102
RTVSPropertyOp30
 70
     1
102
RTVSPropertyOp31
 70
     1
102
RTVSPropertyOp32
 70
     1
102
RTVSPropertyOp33
 70
     1
102
RTVSPropertyOp34
 70
     1
102
RTVSPropertyOp35
 70
     1
102
RTVSPropertyOp36
 70
     1
102
RTVSPropertyOp37
 70
     1
102
RTVSPropertyOp38
 70
     1
102
RTVSPropertyOp39
 70
     1
102
RTVSPropertyOp40
 70
     1
102
RTVSPropertyOp41
 70
     1
102
RTVSPropertyOp42
 70
     1
102
RTVSPropertyOp43
 70
     1
102
RTVSPropertyOp44
 70
     1
102
RTVSPropertyOp45
 70
     1
102
RTVSPropertyOp46
 70
     1
102
RTVSPropertyOp47
 70
     1
102
RTVSPropertyOp48
 70
     1
102
RTVSPropertyOp49
 70
     1
102
RTVSPropertyOp50
 70
     1
102
RTVSPropertyOp51
 70
     0
102
RTVSPropertyOp52
 70
     0
102
RTVSPropertyOp53
 70
     1
102
RTVSPropertyOp54
 70
     1
102
RTVSPropertyOp55
 70
     1
102
RTVSPropertyOp56
 70
     1
102
RTVSPropertyOp57
 70
     1
102
RTVSPost2010Prop28
280
     0
102
RTVSPost2010PropOp28
 70
     1
102
RTVSPost2010Prop29
280
     1
102
RTVSPost2010PropOp29
 70
     1
102
RTVSPost2010Prop30
280
     1
102
RTVSPost2010PropOp30
 70
     1
102
RTVSPost2010Prop31
280
     0
102
RTVSPost2010PropOp31
 70
     1
102
RTVSPost2010Prop32
280
     0
102
RTVSPost2010PropOp32
 70
     1
102
RTVSPost2010Prop33
280
     0
102
RTVSPost2010PropOp33
 70
     1
102
RTVSPost2010Prop34
280
     0
102
RTVSPost2010PropOp34
 70
     1
102
RTVSPost2010Prop35
280
     0
102
RTVSPost2010PropOp35
 70
     1
102
RTVSPost2010Prop36
280
     0
102
RTVSPost2010PropOp36
 70
     1
102
RTVSPost2010Prop37
 90
       50
102
RTVSPost2010PropOp37
 70
     1
102
RTVSPost2010Prop38
140
0.0
102
RTVSPost2010PropOp38
 70
     1
102
RTVSPost2010Prop39
140
1.0
102
RTVSPost2010PropOp39
 70
     1
102
RTVSPost2010Prop40
 90
        0
102
RTVSPost2010PropOp40
 70
     1
102
RTVSPost2010Prop41ColorIndex
 90
       18
102
RTVSPost2010Prop41ColorRGB
 90
        0
102
RTVSPost2010PropOp41
 70
     1
102
RTVSPost2010Prop42
 90
       50
102
RTVSPost2010PropOp42
 70
     1
102
RTVSPost2010Prop43
 90
        3
102
RTVSPost2010PropOp43
 70
     1
102
RTVSPost2010Prop44ColorIndex
 90
        5
102
RTVSPost2010Prop44ColorRGB
 90
      255
102
RTVSPost2010PropOp44
 70
     1
102
RTVSPost2010Prop45
280
     0
102
RTVSPost2010PropOp45
 70
     1
102
RTVSPost2010Prop46
 90
       50
102
RTVSPost2010PropOp46
 70
     1
102
RTVSPost2010Prop47
 90
       50
102
RTVSPost2010PropOp47
 70
     1
102
RTVSPost2010Prop48
 90
       50
102
RTVSPost2010PropOp48
 70
     1
102
RTVSPost2010Prop49
280
     0
102
RTVSPost2010PropOp49
 70
     1
102
RTVSPost2010Prop50
 90
       50
102
RTVSPost2010PropOp50
 70
     1
102
RTVSPost2010Prop51ColorIndex
 90
      256
102
RTVSPost2010Prop51ColorRGB
 90
-16777216
102
RTVSPost2010PropOp51
 70
     0
102
RTVSPost2010Prop52
140
1.0
102
RTVSPost2010PropOp52
 70
     0
102
RTVSPost2010Prop53
 90
        2
102
RTVSPost2010PropOp53
 70
     1
102
RTVSPost2010Prop54
  1
strokes_ogs.tif
102
RTVSPost2010PropOp54
 70
     1
102
RTVSPost2010Prop55
280
     0
102
RTVSPost2010PropOp55
 70
     1
102
RTVSPost2010Prop56
140
1.0
102
RTVSPost2010PropOp56
 70
     1
102
RTVSPost2010Prop57
140
1.0
102
RTVSPost2010PropOp57
 70
     1
  0
XRECORD
  5
332F
102
{ACAD_REACTORS
330
332E
102
}
330
332E
100
AcDbXrecord
280
     1
102
RTVSPropertyOp0
 70
     1
102
RTVSPropertyOp1
 70
     1
102
RTVSPropertyOp2
 70
     1
102
RTVSPropertyOp3
 70
     1
102
RTVSPropertyOp4
 70
     1
102
RTVSPropertyOp5
 70
     1
102
RTVSPropertyOp6
 70
     1
102
RTVSPropertyOp7
 70
     1
102
RTVSPropertyOp8
 70
     1
102
RTVSPropertyOp9
 70
     1
102
RTVSPropertyOp10
 70
     1
102
RTVSPropertyOp11
 70
     1
102
RTVSPropertyOp12
 70
     1
102
RTVSPropertyOp13
 70
     1
102
RTVSPropertyOp14
 70
     1
102
RTVSPropertyOp15
 70
     1
102
RTVSPropertyOp16
 70
     1
102
RTVSPropertyOp17
 70
     1
102
RTVSPropertyOp18
 70
     1
102
RTVSPropertyOp19
 70
     1
102
RTVSPropertyOp20
 70
     1
102
RTVSPropertyOp21
 70
     1
102
RTVSPropertyOp22
 70
     1
102
RTVSPropertyOp23
 70
     1
102
RTVSPropertyOp24
 70
     1
102
RTVSPropertyOp25
 70
     1
102
RTVSPropertyOp26
 70
     1
102
RTVSPropertyOp27
 70
     1
102
RTVSPropertyOp28
 70
     1
102
RTVSPropertyOp29
 70
     1
102
RTVSPropertyOp30
 70
     1
102
RTVSPropertyOp31
 70
     1
102
RTVSPropertyOp32
 70
     1
102
RTVSPropertyOp33
 70
     1
102
RTVSPropertyOp34
 70
     1
102
RTVSPropertyOp35
 70
     1
102
RTVSPropertyOp36
 70
     1
102
RTVSPropertyOp37
 70
     1
102
RTVSPropertyOp38
 70
     1
102
RTVSPropertyOp39
 70
     1
102
RTVSPropertyOp40
 70
     1
102
RTVSPropertyOp41
 70
     1
102
RTVSPropertyOp42
 70
     1
102
RTVSPropertyOp43
 70
     1
102
RTVSPropertyOp44
 70
     1
102
RTVSPropertyOp45
 70
     1
102
RTVSPropertyOp46
 70
     1
102
RTVSPropertyOp47
 70
     1
102
RTVSPropertyOp48
 70
     1
102
RTVSPropertyOp49
 70
     1
102
RTVSPropertyOp50
 70
     1
102
RTVSPropertyOp51
 70
     0
102
RTVSPropertyOp52
 70
     0
102
RTVSPropertyOp53
 70
     1
102
RTVSPropertyOp54
 70
     1
102
RTVSPropertyOp55
 70
     1
102
RTVSPropertyOp56
 70
     1
102
RTVSPropertyOp57
 70
     1
102
RTVSPost2010Prop28
280
     0
102
RTVSPost2010PropOp28
 70
     1
102
RTVSPost2010Prop29
280
     1
102
RTVSPost2010PropOp29
 70
     1
102
RTVSPost2010Prop30
280
     1
102
RTVSPost2010PropOp30
 70
     1
102
RTVSPost2010Prop31
280
     0
102
RTVSPost2010PropOp31
 70
     1
102
RTVSPost2010Prop32
280
     0
102
RTVSPost2010PropOp32
 70
     1
102
RTVSPost2010Prop33
280
     0
102
RTVSPost2010PropOp33
 70
     1
102
RTVSPost2010Prop34
280
     0
102
RTVSPost2010PropOp34
 70
     1
102
RTVSPost2010Prop35
280
     0
102
RTVSPost2010PropOp35
 70
     1
102
RTVSPost2010Prop36
280
     0
102
RTVSPost2010PropOp36
 70
     1
102
RTVSPost2010Prop37
 90
       50
102
RTVSPost2010PropOp37
 70
     1
102
RTVSPost2010Prop38
140
0.0
102
RTVSPost2010PropOp38
 70
     1
102
RTVSPost2010Prop39
140
1.0
102
RTVSPost2010PropOp39
 70
     1
102
RTVSPost2010Prop40
 90
        0
102
RTVSPost2010PropOp40
 70
     1
102
RTVSPost2010Prop41ColorIndex
 90
       18
102
RTVSPost2010Prop41ColorRGB
 90
        0
102
RTVSPost2010PropOp41
 70
     1
102
RTVSPost2010Prop42
 90
       50
102
RTVSPost2010PropOp42
 70
     1
102
RTVSPost2010Prop43
 90
        3
102
RTVSPost2010PropOp43
 70
     1
102
RTVSPost2010Prop44ColorIndex
 90
        5
102
RTVSPost2010Prop44ColorRGB
 90
      255
102
RTVSPost2010PropOp44
 70
     1
102
RTVSPost2010Prop45
280
     0
102
RTVSPost2010PropOp45
 70
     1
102
RTVSPost2010Prop46
 90
       50
102
RTVSPost2010PropOp46
 70
     1
102
RTVSPost2010Prop47
 90
       50
102
RTVSPost2010PropOp47
 70
     1
102
RTVSPost2010Prop48
 90
       50
102
RTVSPost2010PropOp48
 70
     1
102
RTVSPost2010Prop49
280
     0
102
RTVSPost2010PropOp49
 70
     1
102
RTVSPost2010Prop50
 90
       50
102
RTVSPost2010PropOp50
 70
     1
102
RTVSPost2010Prop51ColorIndex
 90
      256
102
RTVSPost2010Prop51ColorRGB
 90
-16777216
102
RTVSPost2010PropOp51
 70
     0
102
RTVSPost2010Prop52
140
1.0
102
RTVSPost2010PropOp52
 70
     0
102
RTVSPost2010Prop53
 90
        2
102
RTVSPost2010PropOp53
 70
     1
102
RTVSPost2010Prop54
  1
strokes_ogs.tif
102
RTVSPost2010PropOp54
 70
     1
102
RTVSPost2010Prop55
280
     0
102
RTVSPost2010PropOp55
 70
     1
102
RTVSPost2010Prop56
140
1.0
102
RTVSPost2010PropOp56
 70
     1
102
RTVSPost2010Prop57
140
1.0
102
RTVSPost2010PropOp57
 70
     1
  0
XRECORD
  5
3331
102
{ACAD_REACTORS
330
3330
102
}
330
3330
100
AcDbXrecord
280
     1
102
RTVSPropertyOp0
 70
     1
102
RTVSPropertyOp1
 70
     1
102
RTVSPropertyOp2
 70
     1
102
RTVSPropertyOp3
 70
     1
102
RTVSPropertyOp4
 70
     1
102
RTVSPropertyOp5
 70
     1
102
RTVSPropertyOp6
 70
     1
102
RTVSPropertyOp7
 70
     1
102
RTVSPropertyOp8
 70
     1
102
RTVSPropertyOp9
 70
     1
102
RTVSPropertyOp10
 70
     1
102
RTVSPropertyOp11
 70
     1
102
RTVSPropertyOp12
 70
     1
102
RTVSPropertyOp13
 70
     1
102
RTVSPropertyOp14
 70
     1
102
RTVSPropertyOp15
 70
     1
102
RTVSPropertyOp16
 70
     1
102
RTVSPropertyOp17
 70
     1
102
RTVSPropertyOp18
 70
     1
102
RTVSPropertyOp19
 70
     1
102
RTVSPropertyOp20
 70
     1
102
RTVSPropertyOp21
 70
     1
102
RTVSPropertyOp22
 70
     1
102
RTVSPropertyOp23
 70
     1
102
RTVSPropertyOp24
 70
     1
102
RTVSPropertyOp25
 70
     1
102
RTVSPropertyOp26
 70
     1
102
RTVSPropertyOp27
 70
     1
102
RTVSPropertyOp28
 70
     1
102
RTVSPropertyOp29
 70
     1
102
RTVSPropertyOp30
 70
     1
102
RTVSPropertyOp31
 70
     1
102
RTVSPropertyOp32
 70
     1
102
RTVSPropertyOp33
 70
     1
102
RTVSPropertyOp34
 70
     1
102
RTVSPropertyOp35
 70
     1
102
RTVSPropertyOp36
 70
     1
102
RTVSPropertyOp37
 70
     1
102
RTVSPropertyOp38
 70
     1
102
RTVSPropertyOp39
 70
     1
102
RTVSPropertyOp40
 70
     1
102
RTVSPropertyOp41
 70
     1
102
RTVSPropertyOp42
 70
     1
102
RTVSPropertyOp43
 70
     1
102
RTVSPropertyOp44
 70
     1
102
RTVSPropertyOp45
 70
     1
102
RTVSPropertyOp46
 70
     1
102
RTVSPropertyOp47
 70
     1
102
RTVSPropertyOp48
 70
     1
102
RTVSPropertyOp49
 70
     1
102
RTVSPropertyOp50
 70
     1
102
RTVSPropertyOp51
 70
     0
102
RTVSPropertyOp52
 70
     0
102
RTVSPropertyOp53
 70
     1
102
RTVSPropertyOp54
 70
     1
102
RTVSPropertyOp55
 70
     1
102
RTVSPropertyOp56
 70
     1
102
RTVSPropertyOp57
 70
     1
102
RTVSPost2010Prop28
280
     0
102
RTVSPost2010PropOp28
 70
     1
102
RTVSPost2010Prop29
280
     1
102
RTVSPost2010PropOp29
 70
     1
102
RTVSPost2010Prop30
280
     1
102
RTVSPost2010PropOp30
 70
     1
102
RTVSPost2010Prop31
280
     0
102
RTVSPost2010PropOp31
 70
     1
102
RTVSPost2010Prop32
280
     0
102
RTVSPost2010PropOp32
 70
     1
102
RTVSPost2010Prop33
280
     0
102
RTVSPost2010PropOp33
 70
     1
102
RTVSPost2010Prop34
280
     0
102
RTVSPost2010PropOp34
 70
     1
102
RTVSPost2010Prop35
280
     0
102
RTVSPost2010PropOp35
 70
     1
102
RTVSPost2010Prop36
280
     0
102
RTVSPost2010PropOp36
 70
     1
102
RTVSPost2010Prop37
 90
       50
102
RTVSPost2010PropOp37
 70
     1
102
RTVSPost2010Prop38
140
0.0
102
RTVSPost2010PropOp38
 70
     1
102
RTVSPost2010Prop39
140
1.0
102
RTVSPost2010PropOp39
 70
     1
102
RTVSPost2010Prop40
 90
        0
102
RTVSPost2010PropOp40
 70
     1
102
RTVSPost2010Prop41ColorIndex
 90
       18
102
RTVSPost2010Prop41ColorRGB
 90
        0
102
RTVSPost2010PropOp41
 70
     1
102
RTVSPost2010Prop42
 90
       50
102
RTVSPost2010PropOp42
 70
     1
102
RTVSPost2010Prop43
 90
        3
102
RTVSPost2010PropOp43
 70
     1
102
RTVSPost2010Prop44ColorIndex
 90
        5
102
RTVSPost2010Prop44ColorRGB
 90
      255
102
RTVSPost2010PropOp44
 70
     1
102
RTVSPost2010Prop45
280
     0
102
RTVSPost2010PropOp45
 70
     1
102
RTVSPost2010Prop46
 90
       50
102
RTVSPost2010PropOp46
 70
     1
102
RTVSPost2010Prop47
 90
       50
102
RTVSPost2010PropOp47
 70
     1
102
RTVSPost2010Prop48
 90
       50
102
RTVSPost2010PropOp48
 70
     1
102
RTVSPost2010Prop49
280
     0
102
RTVSPost2010PropOp49
 70
     1
102
RTVSPost2010Prop50
 90
       50
102
RTVSPost2010PropOp50
 70
     1
102
RTVSPost2010Prop51ColorIndex
 90
      256
102
RTVSPost2010Prop51ColorRGB
 90
-16777216
102
RTVSPost2010PropOp51
 70
     0
102
RTVSPost2010Prop52
140
1.0
102
RTVSPost2010PropOp52
 70
     0
102
RTVSPost2010Prop53
 90
        2
102
RTVSPost2010PropOp53
 70
     1
102
RTVSPost2010Prop54
  1
strokes_ogs.tif
102
RTVSPost2010PropOp54
 70
     1
102
RTVSPost2010Prop55
280
     0
102
RTVSPost2010PropOp55
 70
     1
102
RTVSPost2010Prop56
140
1.0
102
RTVSPost2010PropOp56
 70
     1
102
RTVSPost2010Prop57
140
1.0
102
RTVSPost2010PropOp57
 70
     1
  0
XRECORD
  5
3333
102
{ACAD_REACTORS
330
3332
102
}
330
3332
100
AcDbXrecord
280
     1
102
RTVSPropertyOp0
 70
     1
102
RTVSPropertyOp1
 70
     1
102
RTVSPropertyOp2
 70
     1
102
RTVSPropertyOp3
 70
     1
102
RTVSPropertyOp4
 70
     1
102
RTVSPropertyOp5
 70
     1
102
RTVSPropertyOp6
 70
     1
102
RTVSPropertyOp7
 70
     1
102
RTVSPropertyOp8
 70
     1
102
RTVSPropertyOp9
 70
     1
102
RTVSPropertyOp10
 70
     1
102
RTVSPropertyOp11
 70
     1
102
RTVSPropertyOp12
 70
     1
102
RTVSPropertyOp13
 70
     1
102
RTVSPropertyOp14
 70
     1
102
RTVSPropertyOp15
 70
     1
102
RTVSPropertyOp16
 70
     1
102
RTVSPropertyOp17
 70
     1
102
RTVSPropertyOp18
 70
     1
102
RTVSPropertyOp19
 70
     1
102
RTVSPropertyOp20
 70
     1
102
RTVSPropertyOp21
 70
     1
102
RTVSPropertyOp22
 70
     1
102
RTVSPropertyOp23
 70
     1
102
RTVSPropertyOp24
 70
     1
102
RTVSPropertyOp25
 70
     1
102
RTVSPropertyOp26
 70
     1
102
RTVSPropertyOp27
 70
     1
102
RTVSPropertyOp28
 70
     1
102
RTVSPropertyOp29
 70
     1
102
RTVSPropertyOp30
 70
     1
102
RTVSPropertyOp31
 70
     1
102
RTVSPropertyOp32
 70
     1
102
RTVSPropertyOp33
 70
     1
102
RTVSPropertyOp34
 70
     1
102
RTVSPropertyOp35
 70
     1
102
RTVSPropertyOp36
 70
     1
102
RTVSPropertyOp37
 70
     1
102
RTVSPropertyOp38
 70
     1
102
RTVSPropertyOp39
 70
     1
102
RTVSPropertyOp40
 70
     1
102
RTVSPropertyOp41
 70
     1
102
RTVSPropertyOp42
 70
     1
102
RTVSPropertyOp43
 70
     1
102
RTVSPropertyOp44
 70
     1
102
RTVSPropertyOp45
 70
     1
102
RTVSPropertyOp46
 70
     1
102
RTVSPropertyOp47
 70
     1
102
RTVSPropertyOp48
 70
     1
102
RTVSPropertyOp49
 70
     1
102
RTVSPropertyOp50
 70
     1
102
RTVSPropertyOp51
 70
     0
102
RTVSPropertyOp52
 70
     0
102
RTVSPropertyOp53
 70
     1
102
RTVSPropertyOp54
 70
     1
102
RTVSPropertyOp55
 70
     1
102
RTVSPropertyOp56
 70
     1
102
RTVSPropertyOp57
 70
     1
102
RTVSPost2010Prop28
280
     0
102
RTVSPost2010PropOp28
 70
     1
102
RTVSPost2010Prop29
280
     1
102
RTVSPost2010PropOp29
 70
     1
102
RTVSPost2010Prop30
280
     1
102
RTVSPost2010PropOp30
 70
     1
102
RTVSPost2010Prop31
280
     0
102
RTVSPost2010PropOp31
 70
     1
102
RTVSPost2010Prop32
280
     0
102
RTVSPost2010PropOp32
 70
     1
102
RTVSPost2010Prop33
280
     0
102
RTVSPost2010PropOp33
 70
     1
102
RTVSPost2010Prop34
280
     0
102
RTVSPost2010PropOp34
 70
     1
102
RTVSPost2010Prop35
280
     0
102
RTVSPost2010PropOp35
 70
     1
102
RTVSPost2010Prop36
280
     0
102
RTVSPost2010PropOp36
 70
     1
102
RTVSPost2010Prop37
 90
       50
102
RTVSPost2010PropOp37
 70
     1
102
RTVSPost2010Prop38
140
0.0
102
RTVSPost2010PropOp38
 70
     1
102
RTVSPost2010Prop39
140
1.0
102
RTVSPost2010PropOp39
 70
     1
102
RTVSPost2010Prop40
 90
        0
102
RTVSPost2010PropOp40
 70
     1
102
RTVSPost2010Prop41ColorIndex
 90
       18
102
RTVSPost2010Prop41ColorRGB
 90
        0
102
RTVSPost2010PropOp41
 70
     1
102
RTVSPost2010Prop42
 90
       50
102
RTVSPost2010PropOp42
 70
     1
102
RTVSPost2010Prop43
 90
        3
102
RTVSPost2010PropOp43
 70
     1
102
RTVSPost2010Prop44ColorIndex
 90
        5
102
RTVSPost2010Prop44ColorRGB
 90
      255
102
RTVSPost2010PropOp44
 70
     1
102
RTVSPost2010Prop45
280
     0
102
RTVSPost2010PropOp45
 70
     1
102
RTVSPost2010Prop46
 90
       50
102
RTVSPost2010PropOp46
 70
     1
102
RTVSPost2010Prop47
 90
       50
102
RTVSPost2010PropOp47
 70
     1
102
RTVSPost2010Prop48
 90
       50
102
RTVSPost2010PropOp48
 70
     1
102
RTVSPost2010Prop49
280
     0
102
RTVSPost2010PropOp49
 70
     1
102
RTVSPost2010Prop50
 90
       50
102
RTVSPost2010PropOp50
 70
     1
102
RTVSPost2010Prop51ColorIndex
 90
      256
102
RTVSPost2010Prop51ColorRGB
 90
-16777216
102
RTVSPost2010PropOp51
 70
     0
102
RTVSPost2010Prop52
140
1.0
102
RTVSPost2010PropOp52
 70
     0
102
RTVSPost2010Prop53
 90
        2
102
RTVSPost2010PropOp53
 70
     1
102
RTVSPost2010Prop54
  1
strokes_ogs.tif
102
RTVSPost2010PropOp54
 70
     1
102
RTVSPost2010Prop55
280
     0
102
RTVSPost2010PropOp55
 70
     1
102
RTVSPost2010Prop56
140
1.0
102
RTVSPost2010PropOp56
 70
     1
102
RTVSPost2010Prop57
140
1.0
102
RTVSPost2010PropOp57
 70
     1
  0
XRECORD
  5
3335
102
{ACAD_REACTORS
330
3334
102
}
330
3334
100
AcDbXrecord
280
     1
102
RTVSPropertyOp0
 70
     1
102
RTVSPropertyOp1
 70
     1
102
RTVSPropertyOp2
 70
     1
102
RTVSPropertyOp3
 70
     1
102
RTVSPropertyOp4
 70
     1
102
RTVSPropertyOp5
 70
     1
102
RTVSPropertyOp6
 70
     1
102
RTVSPropertyOp7
 70
     1
102
RTVSPropertyOp8
 70
     1
102
RTVSPropertyOp9
 70
     1
102
RTVSPropertyOp10
 70
     1
102
RTVSPropertyOp11
 70
     1
102
RTVSPropertyOp12
 70
     1
102
RTVSPropertyOp13
 70
     1
102
RTVSPropertyOp14
 70
     1
102
RTVSPropertyOp15
 70
     1
102
RTVSPropertyOp16
 70
     1
102
RTVSPropertyOp17
 70
     1
102
RTVSPropertyOp18
 70
     1
102
RTVSPropertyOp19
 70
     1
102
RTVSPropertyOp20
 70
     1
102
RTVSPropertyOp21
 70
     1
102
RTVSPropertyOp22
 70
     1
102
RTVSPropertyOp23
 70
     1
102
RTVSPropertyOp24
 70
     1
102
RTVSPropertyOp25
 70
     1
102
RTVSPropertyOp26
 70
     1
102
RTVSPropertyOp27
 70
     1
102
RTVSPropertyOp28
 70
     1
102
RTVSPropertyOp29
 70
     1
102
RTVSPropertyOp30
 70
     1
102
RTVSPropertyOp31
 70
     1
102
RTVSPropertyOp32
 70
     1
102
RTVSPropertyOp33
 70
     1
102
RTVSPropertyOp34
 70
     1
102
RTVSPropertyOp35
 70
     1
102
RTVSPropertyOp36
 70
     1
102
RTVSPropertyOp37
 70
     1
102
RTVSPropertyOp38
 70
     1
102
RTVSPropertyOp39
 70
     1
102
RTVSPropertyOp40
 70
     1
102
RTVSPropertyOp41
 70
     1
102
RTVSPropertyOp42
 70
     1
102
RTVSPropertyOp43
 70
     1
102
RTVSPropertyOp44
 70
     1
102
RTVSPropertyOp45
 70
     1
102
RTVSPropertyOp46
 70
     1
102
RTVSPropertyOp47
 70
     1
102
RTVSPropertyOp48
 70
     1
102
RTVSPropertyOp49
 70
     1
102
RTVSPropertyOp50
 70
     1
102
RTVSPropertyOp51
 70
     0
102
RTVSPropertyOp52
 70
     0
102
RTVSPropertyOp53
 70
     1
102
RTVSPropertyOp54
 70
     1
102
RTVSPropertyOp55
 70
     1
102
RTVSPropertyOp56
 70
     1
102
RTVSPropertyOp57
 70
     1
102
RTVSPost2010Prop28
280
     0
102
RTVSPost2010PropOp28
 70
     1
102
RTVSPost2010Prop29
280
     1
102
RTVSPost2010PropOp29
 70
     1
102
RTVSPost2010Prop30
280
     1
102
RTVSPost2010PropOp30
 70
     1
102
RTVSPost2010Prop31
280
     0
102
RTVSPost2010PropOp31
 70
     1
102
RTVSPost2010Prop32
280
     0
102
RTVSPost2010PropOp32
 70
     1
102
RTVSPost2010Prop33
280
     0
102
RTVSPost2010PropOp33
 70
     1
102
RTVSPost2010Prop34
280
     0
102
RTVSPost2010PropOp34
 70
     1
102
RTVSPost2010Prop35
280
     0
102
RTVSPost2010PropOp35
 70
     1
102
RTVSPost2010Prop36
280
     0
102
RTVSPost2010PropOp36
 70
     1
102
RTVSPost2010Prop37
 90
       50
102
RTVSPost2010PropOp37
 70
     1
102
RTVSPost2010Prop38
140
0.0
102
RTVSPost2010PropOp38
 70
     1
102
RTVSPost2010Prop39
140
1.0
102
RTVSPost2010PropOp39
 70
     1
102
RTVSPost2010Prop40
 90
        0
102
RTVSPost2010PropOp40
 70
     1
102
RTVSPost2010Prop41ColorIndex
 90
       18
102
RTVSPost2010Prop41ColorRGB
 90
        0
102
RTVSPost2010PropOp41
 70
     1
102
RTVSPost2010Prop42
 90
       50
102
RTVSPost2010PropOp42
 70
     1
102
RTVSPost2010Prop43
 90
        3
102
RTVSPost2010PropOp43
 70
     1
102
RTVSPost2010Prop44ColorIndex
 90
        5
102
RTVSPost2010Prop44ColorRGB
 90
      255
102
RTVSPost2010PropOp44
 70
     1
102
RTVSPost2010Prop45
280
     0
102
RTVSPost2010PropOp45
 70
     1
102
RTVSPost2010Prop46
 90
       50
102
RTVSPost2010PropOp46
 70
     1
102
RTVSPost2010Prop47
 90
       50
102
RTVSPost2010PropOp47
 70
     1
102
RTVSPost2010Prop48
 90
       50
102
RTVSPost2010PropOp48
 70
     1
102
RTVSPost2010Prop49
280
     0
102
RTVSPost2010PropOp49
 70
     1
102
RTVSPost2010Prop50
 90
       50
102
RTVSPost2010PropOp50
 70
     1
102
RTVSPost2010Prop51ColorIndex
 90
      256
102
RTVSPost2010Prop51ColorRGB
 90
-16777216
102
RTVSPost2010PropOp51
 70
     0
102
RTVSPost2010Prop52
140
1.0
102
RTVSPost2010PropOp52
 70
     0
102
RTVSPost2010Prop53
 90
        2
102
RTVSPost2010PropOp53
 70
     1
102
RTVSPost2010Prop54
  1
strokes_ogs.tif
102
RTVSPost2010PropOp54
 70
     1
102
RTVSPost2010Prop55
280
     0
102
RTVSPost2010PropOp55
 70
     1
102
RTVSPost2010Prop56
140
1.0
102
RTVSPost2010PropOp56
 70
     1
102
RTVSPost2010Prop57
140
1.0
102
RTVSPost2010PropOp57
 70
     1
  0
XRECORD
  5
3337
102
{ACAD_REACTORS
330
3336
102
}
330
3336
100
AcDbXrecord
280
     1
102
RTVSPropertyOp0
 70
     1
102
RTVSPropertyOp1
 70
     1
102
RTVSPropertyOp2
 70
     1
102
RTVSPropertyOp3
 70
     1
102
RTVSPropertyOp4
 70
     1
102
RTVSPropertyOp5
 70
     1
102
RTVSPropertyOp6
 70
     1
102
RTVSPropertyOp7
 70
     1
102
RTVSPropertyOp8
 70
     1
102
RTVSPropertyOp9
 70
     1
102
RTVSPropertyOp10
 70
     1
102
RTVSPropertyOp11
 70
     1
102
RTVSPropertyOp12
 70
     1
102
RTVSPropertyOp13
 70
     1
102
RTVSPropertyOp14
 70
     1
102
RTVSPropertyOp15
 70
     1
102
RTVSPropertyOp16
 70
     1
102
RTVSPropertyOp17
 70
     1
102
RTVSPropertyOp18
 70
     1
102
RTVSPropertyOp19
 70
     1
102
RTVSPropertyOp20
 70
     1
102
RTVSPropertyOp21
 70
     1
102
RTVSPropertyOp22
 70
     1
102
RTVSPropertyOp23
 70
     1
102
RTVSPropertyOp24
 70
     1
102
RTVSPropertyOp25
 70
     1
102
RTVSPropertyOp26
 70
     1
102
RTVSPropertyOp27
 70
     1
102
RTVSPropertyOp28
 70
     1
102
RTVSPropertyOp29
 70
     1
102
RTVSPropertyOp30
 70
     1
102
RTVSPropertyOp31
 70
     1
102
RTVSPropertyOp32
 70
     1
102
RTVSPropertyOp33
 70
     1
102
RTVSPropertyOp34
 70
     1
102
RTVSPropertyOp35
 70
     1
102
RTVSPropertyOp36
 70
     1
102
RTVSPropertyOp37
 70
     1
102
RTVSPropertyOp38
 70
     1
102
RTVSPropertyOp39
 70
     1
102
RTVSPropertyOp40
 70
     1
102
RTVSPropertyOp41
 70
     1
102
RTVSPropertyOp42
 70
     1
102
RTVSPropertyOp43
 70
     1
102
RTVSPropertyOp44
 70
     1
102
RTVSPropertyOp45
 70
     1
102
RTVSPropertyOp46
 70
     1
102
RTVSPropertyOp47
 70
     1
102
RTVSPropertyOp48
 70
     1
102
RTVSPropertyOp49
 70
     1
102
RTVSPropertyOp50
 70
     1
102
RTVSPropertyOp51
 70
     0
102
RTVSPropertyOp52
 70
     0
102
RTVSPropertyOp53
 70
     1
102
RTVSPropertyOp54
 70
     1
102
RTVSPropertyOp55
 70
     1
102
RTVSPropertyOp56
 70
     1
102
RTVSPropertyOp57
 70
     1
102
RTVSPost2010Prop28
280
     0
102
RTVSPost2010PropOp28
 70
     1
102
RTVSPost2010Prop29
280
     1
102
RTVSPost2010PropOp29
 70
     1
102
RTVSPost2010Prop30
280
     1
102
RTVSPost2010PropOp30
 70
     1
102
RTVSPost2010Prop31
280
     0
102
RTVSPost2010PropOp31
 70
     1
102
RTVSPost2010Prop32
280
     0
102
RTVSPost2010PropOp32
 70
     1
102
RTVSPost2010Prop33
280
     0
102
RTVSPost2010PropOp33
 70
     1
102
RTVSPost2010Prop34
280
     0
102
RTVSPost2010PropOp34
 70
     1
102
RTVSPost2010Prop35
280
     0
102
RTVSPost2010PropOp35
 70
     1
102
RTVSPost2010Prop36
280
     0
102
RTVSPost2010PropOp36
 70
     1
102
RTVSPost2010Prop37
 90
       50
102
RTVSPost2010PropOp37
 70
     1
102
RTVSPost2010Prop38
140
0.0
102
RTVSPost2010PropOp38
 70
     1
102
RTVSPost2010Prop39
140
1.0
102
RTVSPost2010PropOp39
 70
     1
102
RTVSPost2010Prop40
 90
        0
102
RTVSPost2010PropOp40
 70
     1
102
RTVSPost2010Prop41ColorIndex
 90
       18
102
RTVSPost2010Prop41ColorRGB
 90
        0
102
RTVSPost2010PropOp41
 70
     1
102
RTVSPost2010Prop42
 90
       50
102
RTVSPost2010PropOp42
 70
     1
102
RTVSPost2010Prop43
 90
        3
102
RTVSPost2010PropOp43
 70
     1
102
RTVSPost2010Prop44ColorIndex
 90
        5
102
RTVSPost2010Prop44ColorRGB
 90
      255
102
RTVSPost2010PropOp44
 70
     1
102
RTVSPost2010Prop45
280
     0
102
RTVSPost2010PropOp45
 70
     1
102
RTVSPost2010Prop46
 90
       50
102
RTVSPost2010PropOp46
 70
     1
102
RTVSPost2010Prop47
 90
       50
102
RTVSPost2010PropOp47
 70
     1
102
RTVSPost2010Prop48
 90
       50
102
RTVSPost2010PropOp48
 70
     1
102
RTVSPost2010Prop49
280
     0
102
RTVSPost2010PropOp49
 70
     1
102
RTVSPost2010Prop50
 90
       50
102
RTVSPost2010PropOp50
 70
     1
102
RTVSPost2010Prop51ColorIndex
 90
      256
102
RTVSPost2010Prop51ColorRGB
 90
-16777216
102
RTVSPost2010PropOp51
 70
     0
102
RTVSPost2010Prop52
140
1.0
102
RTVSPost2010PropOp52
 70
     0
102
RTVSPost2010Prop53
 90
        2
102
RTVSPost2010PropOp53
 70
     1
102
RTVSPost2010Prop54
  1
strokes_ogs.tif
102
RTVSPost2010PropOp54
 70
     1
102
RTVSPost2010Prop55
280
     0
102
RTVSPost2010PropOp55
 70
     1
102
RTVSPost2010Prop56
140
1.0
102
RTVSPost2010PropOp56
 70
     1
102
RTVSPost2010Prop57
140
1.0
102
RTVSPost2010PropOp57
 70
     1
  0
XRECORD
  5
3351
102
{ACAD_REACTORS
330
3350
102
}
330
3350
100
AcDbXrecord
280
     1
102
RTVSPropertyOp0
 70
     0
102
RTVSPropertyOp1
 70
     0
102
RTVSPropertyOp2
 70
     0
102
RTVSPropertyOp3
 70
     0
102
RTVSPropertyOp4
 70
     0
102
RTVSPropertyOp5
 70
     0
102
RTVSPropertyOp6
 70
     0
102
RTVSPropertyOp7
 70
     0
102
RTVSPropertyOp8
 70
     0
102
RTVSPropertyOp9
 70
     0
102
RTVSPropertyOp10
 70
     0
102
RTVSPropertyOp11
 70
     0
102
RTVSPropertyOp12
 70
     0
102
RTVSPropertyOp13
 70
     0
102
RTVSPropertyOp14
 70
     2
102
RTVSPropertyOp15
 70
     0
102
RTVSPropertyOp16
 70
     0
102
RTVSPropertyOp17
 70
     0
102
RTVSPropertyOp18
 70
     0
102
RTVSPropertyOp19
 70
     0
102
RTVSPropertyOp20
 70
     0
102
RTVSPropertyOp21
 70
     0
102
RTVSPropertyOp22
 70
     0
102
RTVSPropertyOp23
 70
     0
102
RTVSPropertyOp24
 70
     0
102
RTVSPropertyOp25
 70
     0
102
RTVSPropertyOp26
 70
     0
102
RTVSPropertyOp27
 70
     0
102
RTVSPropertyOp28
 70
     0
102
RTVSPropertyOp29
 70
     0
102
RTVSPropertyOp30
 70
     0
102
RTVSPropertyOp31
 70
     0
102
RTVSPropertyOp32
 70
     0
102
RTVSPropertyOp33
 70
     0
102
RTVSPropertyOp34
 70
     0
102
RTVSPropertyOp35
 70
     0
102
RTVSPropertyOp36
 70
     0
102
RTVSPropertyOp37
 70
     0
102
RTVSPropertyOp38
 70
     0
102
RTVSPropertyOp39
 70
     0
102
RTVSPropertyOp40
 70
     0
102
RTVSPropertyOp41
 70
     0
102
RTVSPropertyOp42
 70
     0
102
RTVSPropertyOp43
 70
     0
102
RTVSPropertyOp44
 70
     0
102
RTVSPropertyOp45
 70
     0
102
RTVSPropertyOp46
 70
     0
102
RTVSPropertyOp47
 70
     0
102
RTVSPropertyOp48
 70
     0
102
RTVSPropertyOp49
 70
     0
102
RTVSPropertyOp50
 70
     0
102
RTVSPropertyOp51
 70
     0
102
RTVSPropertyOp52
 70
     0
102
RTVSPropertyOp53
 70
     0
102
RTVSPropertyOp54
 70
     0
102
RTVSPropertyOp55
 70
     0
102
RTVSPropertyOp56
 70
     0
102
RTVSPropertyOp57
 70
     0
102
RTVSPost2010Prop28
280
     0
102
RTVSPost2010PropOp28
 70
     0
102
RTVSPost2010Prop29
280
     1
102
RTVSPost2010PropOp29
 70
     0
102
RTVSPost2010Prop30
280
     1
102
RTVSPost2010PropOp30
 70
     0
102
RTVSPost2010Prop31
280
     0
102
RTVSPost2010PropOp31
 70
     0
102
RTVSPost2010Prop32
280
     0
102
RTVSPost2010PropOp32
 70
     0
102
RTVSPost2010Prop33
280
     0
102
RTVSPost2010PropOp33
 70
     0
102
RTVSPost2010Prop34
280
     0
102
RTVSPost2010PropOp34
 70
     0
102
RTVSPost2010Prop35
280
     0
102
RTVSPost2010PropOp35
 70
     0
102
RTVSPost2010Prop36
280
     0
102
RTVSPost2010PropOp36
 70
     0
102
RTVSPost2010Prop37
 90
       50
102
RTVSPost2010PropOp37
 70
     0
102
RTVSPost2010Prop38
140
0.0
102
RTVSPost2010PropOp38
 70
     0
102
RTVSPost2010Prop39
140
1.0
102
RTVSPost2010PropOp39
 70
     0
102
RTVSPost2010Prop40
 90
        0
102
RTVSPost2010PropOp40
 70
     0
102
RTVSPost2010Prop41ColorIndex
 90
       18
102
RTVSPost2010Prop41ColorRGB
 90
        0
102
RTVSPost2010PropOp41
 70
     0
102
RTVSPost2010Prop42
 90
       50
102
RTVSPost2010PropOp42
 70
     0
102
RTVSPost2010Prop43
 90
        3
102
RTVSPost2010PropOp43
 70
     0
102
RTVSPost2010Prop44ColorIndex
 90
        5
102
RTVSPost2010Prop44ColorRGB
 90
      255
102
RTVSPost2010PropOp44
 70
     0
102
RTVSPost2010Prop45
280
     0
102
RTVSPost2010PropOp45
 70
     0
102
RTVSPost2010Prop46
 90
       50
102
RTVSPost2010PropOp46
 70
     0
102
RTVSPost2010Prop47
 90
       50
102
RTVSPost2010PropOp47
 70
     0
102
RTVSPost2010Prop48
 90
       50
102
RTVSPost2010PropOp48
 70
     0
102
RTVSPost2010Prop49
280
     0
102
RTVSPost2010PropOp49
 70
     0
102
RTVSPost2010Prop50
 90
       50
102
RTVSPost2010PropOp50
 70
     0
102
RTVSPost2010Prop51ColorIndex
 90
      256
102
RTVSPost2010Prop51ColorRGB
 90
-16777216
102
RTVSPost2010PropOp51
 70
     0
102
RTVSPost2010Prop52
140
1.0
102
RTVSPost2010PropOp52
 70
     0
102
RTVSPost2010Prop53
 90
        2
102
RTVSPost2010PropOp53
 70
     0
102
RTVSPost2010Prop54
  1
strokes_ogs.tif
102
RTVSPost2010PropOp54
 70
     0
102
RTVSPost2010Prop55
280
     0
102
RTVSPost2010PropOp55
 70
     0
102
RTVSPost2010Prop56
140
1.0
102
RTVSPost2010PropOp56
 70
     0
102
RTVSPost2010Prop57
140
1.0
102
RTVSPost2010PropOp57
 70
     0
  0
XRECORD
  5
3339
102
{ACAD_REACTORS
330
3338
102
}
330
3338
100
AcDbXrecord
280
     1
102
RTVSPropertyOp0
 70
     1
102
RTVSPropertyOp1
 70
     1
102
RTVSPropertyOp2
 70
     1
102
RTVSPropertyOp3
 70
     1
102
RTVSPropertyOp4
 70
     1
102
RTVSPropertyOp5
 70
     1
102
RTVSPropertyOp6
 70
     1
102
RTVSPropertyOp7
 70
     1
102
RTVSPropertyOp8
 70
     1
102
RTVSPropertyOp9
 70
     1
102
RTVSPropertyOp10
 70
     1
102
RTVSPropertyOp11
 70
     1
102
RTVSPropertyOp12
 70
     1
102
RTVSPropertyOp13
 70
     1
102
RTVSPropertyOp14
 70
     1
102
RTVSPropertyOp15
 70
     1
102
RTVSPropertyOp16
 70
     1
102
RTVSPropertyOp17
 70
     1
102
RTVSPropertyOp18
 70
     1
102
RTVSPropertyOp19
 70
     1
102
RTVSPropertyOp20
 70
     1
102
RTVSPropertyOp21
 70
     1
102
RTVSPropertyOp22
 70
     1
102
RTVSPropertyOp23
 70
     1
102
RTVSPropertyOp24
 70
     1
102
RTVSPropertyOp25
 70
     1
102
RTVSPropertyOp26
 70
     1
102
RTVSPropertyOp27
 70
     1
102
RTVSPropertyOp28
 70
     1
102
RTVSPropertyOp29
 70
     1
102
RTVSPropertyOp30
 70
     1
102
RTVSPropertyOp31
 70
     1
102
RTVSPropertyOp32
 70
     1
102
RTVSPropertyOp33
 70
     1
102
RTVSPropertyOp34
 70
     1
102
RTVSPropertyOp35
 70
     1
102
RTVSPropertyOp36
 70
     1
102
RTVSPropertyOp37
 70
     1
102
RTVSPropertyOp38
 70
     1
102
RTVSPropertyOp39
 70
     1
102
RTVSPropertyOp40
 70
     1
102
RTVSPropertyOp41
 70
     1
102
RTVSPropertyOp42
 70
     1
102
RTVSPropertyOp43
 70
     1
102
RTVSPropertyOp44
 70
     1
102
RTVSPropertyOp45
 70
     1
102
RTVSPropertyOp46
 70
     1
102
RTVSPropertyOp47
 70
     1
102
RTVSPropertyOp48
 70
     1
102
RTVSPropertyOp49
 70
     1
102
RTVSPropertyOp50
 70
     1
102
RTVSPropertyOp51
 70
     0
102
RTVSPropertyOp52
 70
     0
102
RTVSPropertyOp53
 70
     1
102
RTVSPropertyOp54
 70
     1
102
RTVSPropertyOp55
 70
     1
102
RTVSPropertyOp56
 70
     1
102
RTVSPropertyOp57
 70
     1
102
RTVSPost2010Prop28
280
     0
102
RTVSPost2010PropOp28
 70
     1
102
RTVSPost2010Prop29
280
     1
102
RTVSPost2010PropOp29
 70
     1
102
RTVSPost2010Prop30
280
     1
102
RTVSPost2010PropOp30
 70
     1
102
RTVSPost2010Prop31
280
     0
102
RTVSPost2010PropOp31
 70
     1
102
RTVSPost2010Prop32
280
     0
102
RTVSPost2010PropOp32
 70
     1
102
RTVSPost2010Prop33
280
     0
102
RTVSPost2010PropOp33
 70
     1
102
RTVSPost2010Prop34
280
     0
102
RTVSPost2010PropOp34
 70
     1
102
RTVSPost2010Prop35
280
     0
102
RTVSPost2010PropOp35
 70
     1
102
RTVSPost2010Prop36
280
     0
102
RTVSPost2010PropOp36
 70
     1
102
RTVSPost2010Prop37
 90
       50
102
RTVSPost2010PropOp37
 70
     1
102
RTVSPost2010Prop38
140
0.0
102
RTVSPost2010PropOp38
 70
     1
102
RTVSPost2010Prop39
140
1.0
102
RTVSPost2010PropOp39
 70
     1
102
RTVSPost2010Prop40
 90
        0
102
RTVSPost2010PropOp40
 70
     1
102
RTVSPost2010Prop41ColorIndex
 90
       18
102
RTVSPost2010Prop41ColorRGB
 90
        0
102
RTVSPost2010PropOp41
 70
     1
102
RTVSPost2010Prop42
 90
       50
102
RTVSPost2010PropOp42
 70
     1
102
RTVSPost2010Prop43
 90
        3
102
RTVSPost2010PropOp43
 70
     1
102
RTVSPost2010Prop44ColorIndex
 90
        5
102
RTVSPost2010Prop44ColorRGB
 90
      255
102
RTVSPost2010PropOp44
 70
     1
102
RTVSPost2010Prop45
280
     0
102
RTVSPost2010PropOp45
 70
     1
102
RTVSPost2010Prop46
 90
       50
102
RTVSPost2010PropOp46
 70
     1
102
RTVSPost2010Prop47
 90
       50
102
RTVSPost2010PropOp47
 70
     1
102
RTVSPost2010Prop48
 90
       50
102
RTVSPost2010PropOp48
 70
     1
102
RTVSPost2010Prop49
280
     0
102
RTVSPost2010PropOp49
 70
     1
102
RTVSPost2010Prop50
 90
       50
102
RTVSPost2010PropOp50
 70
     1
102
RTVSPost2010Prop51ColorIndex
 90
      256
102
RTVSPost2010Prop51ColorRGB
 90
-16777216
102
RTVSPost2010PropOp51
 70
     0
102
RTVSPost2010Prop52
140
1.0
102
RTVSPost2010PropOp52
 70
     0
102
RTVSPost2010Prop53
 90
        2
102
RTVSPost2010PropOp53
 70
     1
102
RTVSPost2010Prop54
  1
strokes_ogs.tif
102
RTVSPost2010PropOp54
 70
     1
102
RTVSPost2010Prop55
280
     0
102
RTVSPost2010PropOp55
 70
     1
102
RTVSPost2010Prop56
140
1.0
102
RTVSPost2010PropOp56
 70
     1
102
RTVSPost2010Prop57
140
1.0
102
RTVSPost2010PropOp57
 70
     1
  0
XRECORD
  5
333B
102
{ACAD_REACTORS
330
333A
102
}
330
333A
100
AcDbXrecord
280
     1
102
RTVSPropertyOp0
 70
     1
102
RTVSPropertyOp1
 70
     1
102
RTVSPropertyOp2
 70
     1
102
RTVSPropertyOp3
 70
     1
102
RTVSPropertyOp4
 70
     1
102
RTVSPropertyOp5
 70
     1
102
RTVSPropertyOp6
 70
     1
102
RTVSPropertyOp7
 70
     1
102
RTVSPropertyOp8
 70
     1
102
RTVSPropertyOp9
 70
     1
102
RTVSPropertyOp10
 70
     1
102
RTVSPropertyOp11
 70
     1
102
RTVSPropertyOp12
 70
     1
102
RTVSPropertyOp13
 70
     1
102
RTVSPropertyOp14
 70
     1
102
RTVSPropertyOp15
 70
     1
102
RTVSPropertyOp16
 70
     1
102
RTVSPropertyOp17
 70
     1
102
RTVSPropertyOp18
 70
     1
102
RTVSPropertyOp19
 70
     1
102
RTVSPropertyOp20
 70
     1
102
RTVSPropertyOp21
 70
     1
102
RTVSPropertyOp22
 70
     1
102
RTVSPropertyOp23
 70
     1
102
RTVSPropertyOp24
 70
     1
102
RTVSPropertyOp25
 70
     1
102
RTVSPropertyOp26
 70
     1
102
RTVSPropertyOp27
 70
     1
102
RTVSPropertyOp28
 70
     1
102
RTVSPropertyOp29
 70
     1
102
RTVSPropertyOp30
 70
     1
102
RTVSPropertyOp31
 70
     1
102
RTVSPropertyOp32
 70
     1
102
RTVSPropertyOp33
 70
     1
102
RTVSPropertyOp34
 70
     1
102
RTVSPropertyOp35
 70
     1
102
RTVSPropertyOp36
 70
     1
102
RTVSPropertyOp37
 70
     1
102
RTVSPropertyOp38
 70
     1
102
RTVSPropertyOp39
 70
     1
102
RTVSPropertyOp40
 70
     1
102
RTVSPropertyOp41
 70
     1
102
RTVSPropertyOp42
 70
     1
102
RTVSPropertyOp43
 70
     1
102
RTVSPropertyOp44
 70
     1
102
RTVSPropertyOp45
 70
     1
102
RTVSPropertyOp46
 70
     1
102
RTVSPropertyOp47
 70
     1
102
RTVSPropertyOp48
 70
     1
102
RTVSPropertyOp49
 70
     1
102
RTVSPropertyOp50
 70
     1
102
RTVSPropertyOp51
 70
     0
102
RTVSPropertyOp52
 70
     0
102
RTVSPropertyOp53
 70
     1
102
RTVSPropertyOp54
 70
     1
102
RTVSPropertyOp55
 70
     1
102
RTVSPropertyOp56
 70
     1
102
RTVSPropertyOp57
 70
     1
102
RTVSPost2010Prop28
280
     0
102
RTVSPost2010PropOp28
 70
     1
102
RTVSPost2010Prop29
280
     1
102
RTVSPost2010PropOp29
 70
     1
102
RTVSPost2010Prop30
280
     1
102
RTVSPost2010PropOp30
 70
     1
102
RTVSPost2010Prop31
280
     0
102
RTVSPost2010PropOp31
 70
     1
102
RTVSPost2010Prop32
280
     0
102
RTVSPost2010PropOp32
 70
     1
102
RTVSPost2010Prop33
280
     0
102
RTVSPost2010PropOp33
 70
     1
102
RTVSPost2010Prop34
280
     0
102
RTVSPost2010PropOp34
 70
     1
102
RTVSPost2010Prop35
280
     0
102
RTVSPost2010PropOp35
 70
     1
102
RTVSPost2010Prop36
280
     0
102
RTVSPost2010PropOp36
 70
     1
102
RTVSPost2010Prop37
 90
       50
102
RTVSPost2010PropOp37
 70
     1
102
RTVSPost2010Prop38
140
0.0
102
RTVSPost2010PropOp38
 70
     1
102
RTVSPost2010Prop39
140
1.0
102
RTVSPost2010PropOp39
 70
     1
102
RTVSPost2010Prop40
 90
        0
102
RTVSPost2010PropOp40
 70
     1
102
RTVSPost2010Prop41ColorIndex
 90
       18
102
RTVSPost2010Prop41ColorRGB
 90
        0
102
RTVSPost2010PropOp41
 70
     1
102
RTVSPost2010Prop42
 90
       50
102
RTVSPost2010PropOp42
 70
     1
102
RTVSPost2010Prop43
 90
        3
102
RTVSPost2010PropOp43
 70
     1
102
RTVSPost2010Prop44ColorIndex
 90
        5
102
RTVSPost2010Prop44ColorRGB
 90
      255
102
RTVSPost2010PropOp44
 70
     1
102
RTVSPost2010Prop45
280
     0
102
RTVSPost2010PropOp45
 70
     1
102
RTVSPost2010Prop46
 90
       50
102
RTVSPost2010PropOp46
 70
     1
102
RTVSPost2010Prop47
 90
       50
102
RTVSPost2010PropOp47
 70
     1
102
RTVSPost2010Prop48
 90
       50
102
RTVSPost2010PropOp48
 70
     1
102
RTVSPost2010Prop49
280
     0
102
RTVSPost2010PropOp49
 70
     1
102
RTVSPost2010Prop50
 90
       50
102
RTVSPost2010PropOp50
 70
     1
102
RTVSPost2010Prop51ColorIndex
 90
      256
102
RTVSPost2010Prop51ColorRGB
 90
-16777216
102
RTVSPost2010PropOp51
 70
     0
102
RTVSPost2010Prop52
140
1.0
102
RTVSPost2010PropOp52
 70
     0
102
RTVSPost2010Prop53
 90
        2
102
RTVSPost2010PropOp53
 70
     1
102
RTVSPost2010Prop54
  1
strokes_ogs.tif
102
RTVSPost2010PropOp54
 70
     1
102
RTVSPost2010Prop55
280
     0
102
RTVSPost2010PropOp55
 70
     1
102
RTVSPost2010Prop56
140
1.0
102
RTVSPost2010PropOp56
 70
     1
102
RTVSPost2010Prop57
140
1.0
102
RTVSPost2010PropOp57
 70
     1
  0
XRECORD
  5
333D
102
{ACAD_REACTORS
330
333C
102
}
330
333C
100
AcDbXrecord
280
     1
102
RTVSPropertyOp0
 70
     1
102
RTVSPropertyOp1
 70
     1
102
RTVSPropertyOp2
 70
     1
102
RTVSPropertyOp3
 70
     1
102
RTVSPropertyOp4
 70
     1
102
RTVSPropertyOp5
 70
     1
102
RTVSPropertyOp6
 70
     1
102
RTVSPropertyOp7
 70
     1
102
RTVSPropertyOp8
 70
     1
102
RTVSPropertyOp9
 70
     1
102
RTVSPropertyOp10
 70
     1
102
RTVSPropertyOp11
 70
     1
102
RTVSPropertyOp12
 70
     1
102
RTVSPropertyOp13
 70
     1
102
RTVSPropertyOp14
 70
     1
102
RTVSPropertyOp15
 70
     1
102
RTVSPropertyOp16
 70
     1
102
RTVSPropertyOp17
 70
     1
102
RTVSPropertyOp18
 70
     1
102
RTVSPropertyOp19
 70
     1
102
RTVSPropertyOp20
 70
     1
102
RTVSPropertyOp21
 70
     1
102
RTVSPropertyOp22
 70
     1
102
RTVSPropertyOp23
 70
     1
102
RTVSPropertyOp24
 70
     1
102
RTVSPropertyOp25
 70
     1
102
RTVSPropertyOp26
 70
     1
102
RTVSPropertyOp27
 70
     1
102
RTVSPropertyOp28
 70
     1
102
RTVSPropertyOp29
 70
     1
102
RTVSPropertyOp30
 70
     1
102
RTVSPropertyOp31
 70
     1
102
RTVSPropertyOp32
 70
     1
102
RTVSPropertyOp33
 70
     1
102
RTVSPropertyOp34
 70
     1
102
RTVSPropertyOp35
 70
     1
102
RTVSPropertyOp36
 70
     1
102
RTVSPropertyOp37
 70
     1
102
RTVSPropertyOp38
 70
     1
102
RTVSPropertyOp39
 70
     1
102
RTVSPropertyOp40
 70
     1
102
RTVSPropertyOp41
 70
     1
102
RTVSPropertyOp42
 70
     1
102
RTVSPropertyOp43
 70
     1
102
RTVSPropertyOp44
 70
     1
102
RTVSPropertyOp45
 70
     1
102
RTVSPropertyOp46
 70
     1
102
RTVSPropertyOp47
 70
     1
102
RTVSPropertyOp48
 70
     1
102
RTVSPropertyOp49
 70
     1
102
RTVSPropertyOp50
 70
     1
102
RTVSPropertyOp51
 70
     0
102
RTVSPropertyOp52
 70
     0
102
RTVSPropertyOp53
 70
     1
102
RTVSPropertyOp54
 70
     1
102
RTVSPropertyOp55
 70
     1
102
RTVSPropertyOp56
 70
     1
102
RTVSPropertyOp57
 70
     1
102
RTVSPost2010Prop28
280
     0
102
RTVSPost2010PropOp28
 70
     1
102
RTVSPost2010Prop29
280
     1
102
RTVSPost2010PropOp29
 70
     1
102
RTVSPost2010Prop30
280
     1
102
RTVSPost2010PropOp30
 70
     1
102
RTVSPost2010Prop31
280
     0
102
RTVSPost2010PropOp31
 70
     1
102
RTVSPost2010Prop32
280
     0
102
RTVSPost2010PropOp32
 70
     1
102
RTVSPost2010Prop33
280
     0
102
RTVSPost2010PropOp33
 70
     1
102
RTVSPost2010Prop34
280
     0
102
RTVSPost2010PropOp34
 70
     1
102
RTVSPost2010Prop35
280
     0
102
RTVSPost2010PropOp35
 70
     1
102
RTVSPost2010Prop36
280
     0
102
RTVSPost2010PropOp36
 70
     1
102
RTVSPost2010Prop37
 90
       50
102
RTVSPost2010PropOp37
 70
     1
102
RTVSPost2010Prop38
140
0.0
102
RTVSPost2010PropOp38
 70
     1
102
RTVSPost2010Prop39
140
1.0
102
RTVSPost2010PropOp39
 70
     1
102
RTVSPost2010Prop40
 90
        0
102
RTVSPost2010PropOp40
 70
     1
102
RTVSPost2010Prop41ColorIndex
 90
       18
102
RTVSPost2010Prop41ColorRGB
 90
        0
102
RTVSPost2010PropOp41
 70
     1
102
RTVSPost2010Prop42
 90
       50
102
RTVSPost2010PropOp42
 70
     1
102
RTVSPost2010Prop43
 90
        3
102
RTVSPost2010PropOp43
 70
     1
102
RTVSPost2010Prop44ColorIndex
 90
        5
102
RTVSPost2010Prop44ColorRGB
 90
      255
102
RTVSPost2010PropOp44
 70
     1
102
RTVSPost2010Prop45
280
     0
102
RTVSPost2010PropOp45
 70
     1
102
RTVSPost2010Prop46
 90
       50
102
RTVSPost2010PropOp46
 70
     1
102
RTVSPost2010Prop47
 90
       50
102
RTVSPost2010PropOp47
 70
     1
102
RTVSPost2010Prop48
 90
       50
102
RTVSPost2010PropOp48
 70
     1
102
RTVSPost2010Prop49
280
     0
102
RTVSPost2010PropOp49
 70
     1
102
RTVSPost2010Prop50
 90
       50
102
RTVSPost2010PropOp50
 70
     1
102
RTVSPost2010Prop51ColorIndex
 90
      256
102
RTVSPost2010Prop51ColorRGB
 90
-16777216
102
RTVSPost2010PropOp51
 70
     0
102
RTVSPost2010Prop52
140
1.0
102
RTVSPost2010PropOp52
 70
     0
102
RTVSPost2010Prop53
 90
        2
102
RTVSPost2010PropOp53
 70
     1
102
RTVSPost2010Prop54
  1
strokes_ogs.tif
102
RTVSPost2010PropOp54
 70
     1
102
RTVSPost2010Prop55
280
     0
102
RTVSPost2010PropOp55
 70
     1
102
RTVSPost2010Prop56
140
1.0
102
RTVSPost2010PropOp56
 70
     1
102
RTVSPost2010Prop57
140
1.0
102
RTVSPost2010PropOp57
 70
     1
  0
XRECORD
  5
333F
102
{ACAD_REACTORS
330
333E
102
}
330
333E
100
AcDbXrecord
280
     1
102
RTVSPropertyOp0
 70
     1
102
RTVSPropertyOp1
 70
     1
102
RTVSPropertyOp2
 70
     1
102
RTVSPropertyOp3
 70
     1
102
RTVSPropertyOp4
 70
     1
102
RTVSPropertyOp5
 70
     1
102
RTVSPropertyOp6
 70
     1
102
RTVSPropertyOp7
 70
     1
102
RTVSPropertyOp8
 70
     1
102
RTVSPropertyOp9
 70
     1
102
RTVSPropertyOp10
 70
     1
102
RTVSPropertyOp11
 70
     1
102
RTVSPropertyOp12
 70
     1
102
RTVSPropertyOp13
 70
     1
102
RTVSPropertyOp14
 70
     1
102
RTVSPropertyOp15
 70
     1
102
RTVSPropertyOp16
 70
     1
102
RTVSPropertyOp17
 70
     1
102
RTVSPropertyOp18
 70
     1
102
RTVSPropertyOp19
 70
     1
102
RTVSPropertyOp20
 70
     1
102
RTVSPropertyOp21
 70
     1
102
RTVSPropertyOp22
 70
     1
102
RTVSPropertyOp23
 70
     1
102
RTVSPropertyOp24
 70
     1
102
RTVSPropertyOp25
 70
     1
102
RTVSPropertyOp26
 70
     1
102
RTVSPropertyOp27
 70
     1
102
RTVSPropertyOp28
 70
     1
102
RTVSPropertyOp29
 70
     1
102
RTVSPropertyOp30
 70
     1
102
RTVSPropertyOp31
 70
     1
102
RTVSPropertyOp32
 70
     1
102
RTVSPropertyOp33
 70
     1
102
RTVSPropertyOp34
 70
     1
102
RTVSPropertyOp35
 70
     1
102
RTVSPropertyOp36
 70
     1
102
RTVSPropertyOp37
 70
     1
102
RTVSPropertyOp38
 70
     1
102
RTVSPropertyOp39
 70
     1
102
RTVSPropertyOp40
 70
     1
102
RTVSPropertyOp41
 70
     1
102
RTVSPropertyOp42
 70
     1
102
RTVSPropertyOp43
 70
     1
102
RTVSPropertyOp44
 70
     1
102
RTVSPropertyOp45
 70
     1
102
RTVSPropertyOp46
 70
     1
102
RTVSPropertyOp47
 70
     1
102
RTVSPropertyOp48
 70
     1
102
RTVSPropertyOp49
 70
     1
102
RTVSPropertyOp50
 70
     1
102
RTVSPropertyOp51
 70
     0
102
RTVSPropertyOp52
 70
     0
102
RTVSPropertyOp53
 70
     1
102
RTVSPropertyOp54
 70
     1
102
RTVSPropertyOp55
 70
     1
102
RTVSPropertyOp56
 70
     1
102
RTVSPropertyOp57
 70
     1
102
RTVSPost2010Prop28
280
     0
102
RTVSPost2010PropOp28
 70
     1
102
RTVSPost2010Prop29
280
     1
102
RTVSPost2010PropOp29
 70
     1
102
RTVSPost2010Prop30
280
     1
102
RTVSPost2010PropOp30
 70
     1
102
RTVSPost2010Prop31
280
     0
102
RTVSPost2010PropOp31
 70
     1
102
RTVSPost2010Prop32
280
     0
102
RTVSPost2010PropOp32
 70
     1
102
RTVSPost2010Prop33
280
     0
102
RTVSPost2010PropOp33
 70
     1
102
RTVSPost2010Prop34
280
     0
102
RTVSPost2010PropOp34
 70
     1
102
RTVSPost2010Prop35
280
     0
102
RTVSPost2010PropOp35
 70
     1
102
RTVSPost2010Prop36
280
     0
102
RTVSPost2010PropOp36
 70
     1
102
RTVSPost2010Prop37
 90
       50
102
RTVSPost2010PropOp37
 70
     1
102
RTVSPost2010Prop38
140
0.0
102
RTVSPost2010PropOp38
 70
     1
102
RTVSPost2010Prop39
140
1.0
102
RTVSPost2010PropOp39
 70
     1
102
RTVSPost2010Prop40
 90
        0
102
RTVSPost2010PropOp40
 70
     1
102
RTVSPost2010Prop41ColorIndex
 90
       18
102
RTVSPost2010Prop41ColorRGB
 90
        0
102
RTVSPost2010PropOp41
 70
     1
102
RTVSPost2010Prop42
 90
       50
102
RTVSPost2010PropOp42
 70
     1
102
RTVSPost2010Prop43
 90
        3
102
RTVSPost2010PropOp43
 70
     1
102
RTVSPost2010Prop44ColorIndex
 90
        5
102
RTVSPost2010Prop44ColorRGB
 90
      255
102
RTVSPost2010PropOp44
 70
     1
102
RTVSPost2010Prop45
280
     0
102
RTVSPost2010PropOp45
 70
     1
102
RTVSPost2010Prop46
 90
       50
102
RTVSPost2010PropOp46
 70
     1
102
RTVSPost2010Prop47
 90
       50
102
RTVSPost2010PropOp47
 70
     1
102
RTVSPost2010Prop48
 90
       50
102
RTVSPost2010PropOp48
 70
     1
102
RTVSPost2010Prop49
280
     0
102
RTVSPost2010PropOp49
 70
     1
102
RTVSPost2010Prop50
 90
       50
102
RTVSPost2010PropOp50
 70
     1
102
RTVSPost2010Prop51ColorIndex
 90
      256
102
RTVSPost2010Prop51ColorRGB
 90
-16777216
102
RTVSPost2010PropOp51
 70
     0
102
RTVSPost2010Prop52
140
1.0
102
RTVSPost2010PropOp52
 70
     0
102
RTVSPost2010Prop53
 90
        2
102
RTVSPost2010PropOp53
 70
     1
102
RTVSPost2010Prop54
  1
strokes_ogs.tif
102
RTVSPost2010PropOp54
 70
     1
102
RTVSPost2010Prop55
280
     0
102
RTVSPost2010PropOp55
 70
     1
102
RTVSPost2010Prop56
140
1.0
102
RTVSPost2010PropOp56
 70
     1
102
RTVSPost2010Prop57
140
1.0
102
RTVSPost2010PropOp57
 70
     1
  0
XRECORD
  5
3341
102
{ACAD_REACTORS
330
3340
102
}
330
3340
100
AcDbXrecord
280
     1
102
RTVSPropertyOp0
 70
     1
102
RTVSPropertyOp1
 70
     1
102
RTVSPropertyOp2
 70
     1
102
RTVSPropertyOp3
 70
     1
102
RTVSPropertyOp4
 70
     1
102
RTVSPropertyOp5
 70
     1
102
RTVSPropertyOp6
 70
     1
102
RTVSPropertyOp7
 70
     1
102
RTVSPropertyOp8
 70
     1
102
RTVSPropertyOp9
 70
     1
102
RTVSPropertyOp10
 70
     1
102
RTVSPropertyOp11
 70
     1
102
RTVSPropertyOp12
 70
     1
102
RTVSPropertyOp13
 70
     1
102
RTVSPropertyOp14
 70
     1
102
RTVSPropertyOp15
 70
     1
102
RTVSPropertyOp16
 70
     1
102
RTVSPropertyOp17
 70
     1
102
RTVSPropertyOp18
 70
     1
102
RTVSPropertyOp19
 70
     1
102
RTVSPropertyOp20
 70
     1
102
RTVSPropertyOp21
 70
     1
102
RTVSPropertyOp22
 70
     1
102
RTVSPropertyOp23
 70
     1
102
RTVSPropertyOp24
 70
     1
102
RTVSPropertyOp25
 70
     1
102
RTVSPropertyOp26
 70
     1
102
RTVSPropertyOp27
 70
     1
102
RTVSPropertyOp28
 70
     1
102
RTVSPropertyOp29
 70
     1
102
RTVSPropertyOp30
 70
     1
102
RTVSPropertyOp31
 70
     1
102
RTVSPropertyOp32
 70
     1
102
RTVSPropertyOp33
 70
     1
102
RTVSPropertyOp34
 70
     1
102
RTVSPropertyOp35
 70
     1
102
RTVSPropertyOp36
 70
     1
102
RTVSPropertyOp37
 70
     1
102
RTVSPropertyOp38
 70
     1
102
RTVSPropertyOp39
 70
     1
102
RTVSPropertyOp40
 70
     1
102
RTVSPropertyOp41
 70
     1
102
RTVSPropertyOp42
 70
     1
102
RTVSPropertyOp43
 70
     1
102
RTVSPropertyOp44
 70
     1
102
RTVSPropertyOp45
 70
     1
102
RTVSPropertyOp46
 70
     1
102
RTVSPropertyOp47
 70
     1
102
RTVSPropertyOp48
 70
     1
102
RTVSPropertyOp49
 70
     1
102
RTVSPropertyOp50
 70
     1
102
RTVSPropertyOp51
 70
     0
102
RTVSPropertyOp52
 70
     0
102
RTVSPropertyOp53
 70
     1
102
RTVSPropertyOp54
 70
     1
102
RTVSPropertyOp55
 70
     1
102
RTVSPropertyOp56
 70
     1
102
RTVSPropertyOp57
 70
     1
102
RTVSPost2010Prop28
280
     0
102
RTVSPost2010PropOp28
 70
     1
102
RTVSPost2010Prop29
280
     1
102
RTVSPost2010PropOp29
 70
     1
102
RTVSPost2010Prop30
280
     1
102
RTVSPost2010PropOp30
 70
     1
102
RTVSPost2010Prop31
280
     0
102
RTVSPost2010PropOp31
 70
     1
102
RTVSPost2010Prop32
280
     0
102
RTVSPost2010PropOp32
 70
     1
102
RTVSPost2010Prop33
280
     0
102
RTVSPost2010PropOp33
 70
     1
102
RTVSPost2010Prop34
280
     0
102
RTVSPost2010PropOp34
 70
     1
102
RTVSPost2010Prop35
280
     0
102
RTVSPost2010PropOp35
 70
     1
102
RTVSPost2010Prop36
280
     0
102
RTVSPost2010PropOp36
 70
     1
102
RTVSPost2010Prop37
 90
       50
102
RTVSPost2010PropOp37
 70
     1
102
RTVSPost2010Prop38
140
0.0
102
RTVSPost2010PropOp38
 70
     1
102
RTVSPost2010Prop39
140
1.0
102
RTVSPost2010PropOp39
 70
     1
102
RTVSPost2010Prop40
 90
        0
102
RTVSPost2010PropOp40
 70
     1
102
RTVSPost2010Prop41ColorIndex
 90
       18
102
RTVSPost2010Prop41ColorRGB
 90
        0
102
RTVSPost2010PropOp41
 70
     1
102
RTVSPost2010Prop42
 90
       50
102
RTVSPost2010PropOp42
 70
     1
102
RTVSPost2010Prop43
 90
        3
102
RTVSPost2010PropOp43
 70
     1
102
RTVSPost2010Prop44ColorIndex
 90
        5
102
RTVSPost2010Prop44ColorRGB
 90
      255
102
RTVSPost2010PropOp44
 70
     1
102
RTVSPost2010Prop45
280
     0
102
RTVSPost2010PropOp45
 70
     1
102
RTVSPost2010Prop46
 90
       50
102
RTVSPost2010PropOp46
 70
     1
102
RTVSPost2010Prop47
 90
       50
102
RTVSPost2010PropOp47
 70
     1
102
RTVSPost2010Prop48
 90
       50
102
RTVSPost2010PropOp48
 70
     1
102
RTVSPost2010Prop49
280
     0
102
RTVSPost2010PropOp49
 70
     1
102
RTVSPost2010Prop50
 90
       50
102
RTVSPost2010PropOp50
 70
     1
102
RTVSPost2010Prop51ColorIndex
 90
      256
102
RTVSPost2010Prop51ColorRGB
 90
-16777216
102
RTVSPost2010PropOp51
 70
     0
102
RTVSPost2010Prop52
140
1.0
102
RTVSPost2010PropOp52
 70
     0
102
RTVSPost2010Prop53
 90
        2
102
RTVSPost2010PropOp53
 70
     1
102
RTVSPost2010Prop54
  1
strokes_ogs.tif
102
RTVSPost2010PropOp54
 70
     1
102
RTVSPost2010Prop55
280
     0
102
RTVSPost2010PropOp55
 70
     1
102
RTVSPost2010Prop56
140
1.0
102
RTVSPost2010PropOp56
 70
     1
102
RTVSPost2010Prop57
140
1.0
102
RTVSPost2010PropOp57
 70
     1
  0
XRECORD
  5
334B
102
{ACAD_REACTORS
330
334A
102
}
330
334A
100
AcDbXrecord
280
     1
102
RTVSPropertyOp0
 70
     1
102
RTVSPropertyOp1
 70
     1
102
RTVSPropertyOp2
 70
     1
102
RTVSPropertyOp3
 70
     1
102
RTVSPropertyOp4
 70
     1
102
RTVSPropertyOp5
 70
     1
102
RTVSPropertyOp6
 70
     1
102
RTVSPropertyOp7
 70
     1
102
RTVSPropertyOp8
 70
     1
102
RTVSPropertyOp9
 70
     1
102
RTVSPropertyOp10
 70
     1
102
RTVSPropertyOp11
 70
     1
102
RTVSPropertyOp12
 70
     1
102
RTVSPropertyOp13
 70
     1
102
RTVSPropertyOp14
 70
     1
102
RTVSPropertyOp15
 70
     1
102
RTVSPropertyOp16
 70
     1
102
RTVSPropertyOp17
 70
     1
102
RTVSPropertyOp18
 70
     1
102
RTVSPropertyOp19
 70
     1
102
RTVSPropertyOp20
 70
     1
102
RTVSPropertyOp21
 70
     1
102
RTVSPropertyOp22
 70
     1
102
RTVSPropertyOp23
 70
     1
102
RTVSPropertyOp24
 70
     1
102
RTVSPropertyOp25
 70
     1
102
RTVSPropertyOp26
 70
     1
102
RTVSPropertyOp27
 70
     1
102
RTVSPropertyOp28
 70
     1
102
RTVSPropertyOp29
 70
     1
102
RTVSPropertyOp30
 70
     1
102
RTVSPropertyOp31
 70
     1
102
RTVSPropertyOp32
 70
     1
102
RTVSPropertyOp33
 70
     1
102
RTVSPropertyOp34
 70
     1
102
RTVSPropertyOp35
 70
     1
102
RTVSPropertyOp36
 70
     1
102
RTVSPropertyOp37
 70
     1
102
RTVSPropertyOp38
 70
     1
102
RTVSPropertyOp39
 70
     1
102
RTVSPropertyOp40
 70
     1
102
RTVSPropertyOp41
 70
     1
102
RTVSPropertyOp42
 70
     1
102
RTVSPropertyOp43
 70
     1
102
RTVSPropertyOp44
 70
     1
102
RTVSPropertyOp45
 70
     1
102
RTVSPropertyOp46
 70
     1
102
RTVSPropertyOp47
 70
     1
102
RTVSPropertyOp48
 70
     1
102
RTVSPropertyOp49
 70
     1
102
RTVSPropertyOp50
 70
     1
102
RTVSPropertyOp51
 70
     0
102
RTVSPropertyOp52
 70
     0
102
RTVSPropertyOp53
 70
     1
102
RTVSPropertyOp54
 70
     1
102
RTVSPropertyOp55
 70
     1
102
RTVSPropertyOp56
 70
     1
102
RTVSPropertyOp57
 70
     1
102
RTVSPost2010Prop28
280
     0
102
RTVSPost2010PropOp28
 70
     1
102
RTVSPost2010Prop29
280
     1
102
RTVSPost2010PropOp29
 70
     1
102
RTVSPost2010Prop30
280
     1
102
RTVSPost2010PropOp30
 70
     1
102
RTVSPost2010Prop31
280
     0
102
RTVSPost2010PropOp31
 70
     1
102
RTVSPost2010Prop32
280
     0
102
RTVSPost2010PropOp32
 70
     1
102
RTVSPost2010Prop33
280
     0
102
RTVSPost2010PropOp33
 70
     1
102
RTVSPost2010Prop34
280
     0
102
RTVSPost2010PropOp34
 70
     1
102
RTVSPost2010Prop35
280
     0
102
RTVSPost2010PropOp35
 70
     1
102
RTVSPost2010Prop36
280
     0
102
RTVSPost2010PropOp36
 70
     1
102
RTVSPost2010Prop37
 90
       50
102
RTVSPost2010PropOp37
 70
     1
102
RTVSPost2010Prop38
140
0.0
102
RTVSPost2010PropOp38
 70
     1
102
RTVSPost2010Prop39
140
1.0
102
RTVSPost2010PropOp39
 70
     1
102
RTVSPost2010Prop40
 90
        0
102
RTVSPost2010PropOp40
 70
     1
102
RTVSPost2010Prop41ColorIndex
 90
       18
102
RTVSPost2010Prop41ColorRGB
 90
        0
102
RTVSPost2010PropOp41
 70
     1
102
RTVSPost2010Prop42
 90
       50
102
RTVSPost2010PropOp42
 70
     1
102
RTVSPost2010Prop43
 90
        3
102
RTVSPost2010PropOp43
 70
     1
102
RTVSPost2010Prop44ColorIndex
 90
        5
102
RTVSPost2010Prop44ColorRGB
 90
      255
102
RTVSPost2010PropOp44
 70
     1
102
RTVSPost2010Prop45
280
     0
102
RTVSPost2010PropOp45
 70
     1
102
RTVSPost2010Prop46
 90
       50
102
RTVSPost2010PropOp46
 70
     1
102
RTVSPost2010Prop47
 90
       50
102
RTVSPost2010PropOp47
 70
     1
102
RTVSPost2010Prop48
 90
       50
102
RTVSPost2010PropOp48
 70
     1
102
RTVSPost2010Prop49
280
     0
102
RTVSPost2010PropOp49
 70
     1
102
RTVSPost2010Prop50
 90
       50
102
RTVSPost2010PropOp50
 70
     1
102
RTVSPost2010Prop51ColorIndex
 90
      256
102
RTVSPost2010Prop51ColorRGB
 90
-16777216
102
RTVSPost2010PropOp51
 70
     0
102
RTVSPost2010Prop52
140
1.0
102
RTVSPost2010PropOp52
 70
     0
102
RTVSPost2010Prop53
 90
        2
102
RTVSPost2010PropOp53
 70
     1
102
RTVSPost2010Prop54
  1
strokes_ogs.tif
102
RTVSPost2010PropOp54
 70
     1
102
RTVSPost2010Prop55
280
     0
102
RTVSPost2010PropOp55
 70
     1
102
RTVSPost2010Prop56
140
1.0
102
RTVSPost2010PropOp56
 70
     1
102
RTVSPost2010Prop57
140
1.0
102
RTVSPost2010PropOp57
 70
     1
  0
XRECORD
  5
334D
102
{ACAD_REACTORS
330
334C
102
}
330
334C
100
AcDbXrecord
280
     1
102
RTVSPropertyOp0
 70
     0
102
RTVSPropertyOp1
 70
     0
102
RTVSPropertyOp2
 70
     0
102
RTVSPropertyOp3
 70
     0
102
RTVSPropertyOp4
 70
     0
102
RTVSPropertyOp5
 70
     0
102
RTVSPropertyOp6
 70
     0
102
RTVSPropertyOp7
 70
     0
102
RTVSPropertyOp8
 70
     0
102
RTVSPropertyOp9
 70
     0
102
RTVSPropertyOp10
 70
     0
102
RTVSPropertyOp11
 70
     0
102
RTVSPropertyOp12
 70
     0
102
RTVSPropertyOp13
 70
     0
102
RTVSPropertyOp14
 70
     2
102
RTVSPropertyOp15
 70
     0
102
RTVSPropertyOp16
 70
     0
102
RTVSPropertyOp17
 70
     0
102
RTVSPropertyOp18
 70
     0
102
RTVSPropertyOp19
 70
     0
102
RTVSPropertyOp20
 70
     0
102
RTVSPropertyOp21
 70
     0
102
RTVSPropertyOp22
 70
     0
102
RTVSPropertyOp23
 70
     0
102
RTVSPropertyOp24
 70
     0
102
RTVSPropertyOp25
 70
     0
102
RTVSPropertyOp26
 70
     0
102
RTVSPropertyOp27
 70
     0
102
RTVSPropertyOp28
 70
     0
102
RTVSPropertyOp29
 70
     0
102
RTVSPropertyOp30
 70
     0
102
RTVSPropertyOp31
 70
     0
102
RTVSPropertyOp32
 70
     0
102
RTVSPropertyOp33
 70
     0
102
RTVSPropertyOp34
 70
     0
102
RTVSPropertyOp35
 70
     0
102
RTVSPropertyOp36
 70
     0
102
RTVSPropertyOp37
 70
     0
102
RTVSPropertyOp38
 70
     0
102
RTVSPropertyOp39
 70
     0
102
RTVSPropertyOp40
 70
     0
102
RTVSPropertyOp41
 70
     0
102
RTVSPropertyOp42
 70
     0
102
RTVSPropertyOp43
 70
     0
102
RTVSPropertyOp44
 70
     0
102
RTVSPropertyOp45
 70
     0
102
RTVSPropertyOp46
 70
     0
102
RTVSPropertyOp47
 70
     0
102
RTVSPropertyOp48
 70
     0
102
RTVSPropertyOp49
 70
     0
102
RTVSPropertyOp50
 70
     0
102
RTVSPropertyOp51
 70
     0
102
RTVSPropertyOp52
 70
     0
102
RTVSPropertyOp53
 70
     0
102
RTVSPropertyOp54
 70
     0
102
RTVSPropertyOp55
 70
     0
102
RTVSPropertyOp56
 70
     0
102
RTVSPropertyOp57
 70
     0
102
RTVSPost2010Prop28
280
     0
102
RTVSPost2010PropOp28
 70
     0
102
RTVSPost2010Prop29
280
     1
102
RTVSPost2010PropOp29
 70
     0
102
RTVSPost2010Prop30
280
     1
102
RTVSPost2010PropOp30
 70
     0
102
RTVSPost2010Prop31
280
     0
102
RTVSPost2010PropOp31
 70
     0
102
RTVSPost2010Prop32
280
     0
102
RTVSPost2010PropOp32
 70
     0
102
RTVSPost2010Prop33
280
     0
102
RTVSPost2010PropOp33
 70
     0
102
RTVSPost2010Prop34
280
     0
102
RTVSPost2010PropOp34
 70
     0
102
RTVSPost2010Prop35
280
     0
102
RTVSPost2010PropOp35
 70
     0
102
RTVSPost2010Prop36
280
     0
102
RTVSPost2010PropOp36
 70
     0
102
RTVSPost2010Prop37
 90
       50
102
RTVSPost2010PropOp37
 70
     0
102
RTVSPost2010Prop38
140
0.0
102
RTVSPost2010PropOp38
 70
     0
102
RTVSPost2010Prop39
140
1.0
102
RTVSPost2010PropOp39
 70
     0
102
RTVSPost2010Prop40
 90
        0
102
RTVSPost2010PropOp40
 70
     0
102
RTVSPost2010Prop41ColorIndex
 90
       18
102
RTVSPost2010Prop41ColorRGB
 90
        0
102
RTVSPost2010PropOp41
 70
     0
102
RTVSPost2010Prop42
 90
       50
102
RTVSPost2010PropOp42
 70
     0
102
RTVSPost2010Prop43
 90
        3
102
RTVSPost2010PropOp43
 70
     0
102
RTVSPost2010Prop44ColorIndex
 90
        5
102
RTVSPost2010Prop44ColorRGB
 90
      255
102
RTVSPost2010PropOp44
 70
     0
102
RTVSPost2010Prop45
280
     0
102
RTVSPost2010PropOp45
 70
     0
102
RTVSPost2010Prop46
 90
       50
102
RTVSPost2010PropOp46
 70
     0
102
RTVSPost2010Prop47
 90
       50
102
RTVSPost2010PropOp47
 70
     0
102
RTVSPost2010Prop48
 90
       50
102
RTVSPost2010PropOp48
 70
     0
102
RTVSPost2010Prop49
280
     0
102
RTVSPost2010PropOp49
 70
     0
102
RTVSPost2010Prop50
 90
       50
102
RTVSPost2010PropOp50
 70
     0
102
RTVSPost2010Prop51ColorIndex
 90
      256
102
RTVSPost2010Prop51ColorRGB
 90
-16777216
102
RTVSPost2010PropOp51
 70
     0
102
RTVSPost2010Prop52
140
1.0
102
RTVSPost2010PropOp52
 70
     0
102
RTVSPost2010Prop53
 90
        2
102
RTVSPost2010PropOp53
 70
     0
102
RTVSPost2010Prop54
  1
strokes_ogs.tif
102
RTVSPost2010PropOp54
 70
     0
102
RTVSPost2010Prop55
280
     0
102
RTVSPost2010PropOp55
 70
     0
102
RTVSPost2010Prop56
140
1.0
102
RTVSPost2010PropOp56
 70
     0
102
RTVSPost2010Prop57
140
1.0
102
RTVSPost2010PropOp57
 70
     0
  0
XRECORD
  5
3343
102
{ACAD_REACTORS
330
3342
102
}
330
3342
100
AcDbXrecord
280
     1
102
RTVSPropertyOp0
 70
     1
102
RTVSPropertyOp1
 70
     1
102
RTVSPropertyOp2
 70
     1
102
RTVSPropertyOp3
 70
     1
102
RTVSPropertyOp4
 70
     1
102
RTVSPropertyOp5
 70
     1
102
RTVSPropertyOp6
 70
     1
102
RTVSPropertyOp7
 70
     1
102
RTVSPropertyOp8
 70
     1
102
RTVSPropertyOp9
 70
     1
102
RTVSPropertyOp10
 70
     1
102
RTVSPropertyOp11
 70
     1
102
RTVSPropertyOp12
 70
     1
102
RTVSPropertyOp13
 70
     1
102
RTVSPropertyOp14
 70
     1
102
RTVSPropertyOp15
 70
     1
102
RTVSPropertyOp16
 70
     1
102
RTVSPropertyOp17
 70
     1
102
RTVSPropertyOp18
 70
     1
102
RTVSPropertyOp19
 70
     1
102
RTVSPropertyOp20
 70
     1
102
RTVSPropertyOp21
 70
     1
102
RTVSPropertyOp22
 70
     1
102
RTVSPropertyOp23
 70
     1
102
RTVSPropertyOp24
 70
     1
102
RTVSPropertyOp25
 70
     1
102
RTVSPropertyOp26
 70
     1
102
RTVSPropertyOp27
 70
     1
102
RTVSPropertyOp28
 70
     1
102
RTVSPropertyOp29
 70
     1
102
RTVSPropertyOp30
 70
     1
102
RTVSPropertyOp31
 70
     1
102
RTVSPropertyOp32
 70
     1
102
RTVSPropertyOp33
 70
     1
102
RTVSPropertyOp34
 70
     1
102
RTVSPropertyOp35
 70
     1
102
RTVSPropertyOp36
 70
     1
102
RTVSPropertyOp37
 70
     1
102
RTVSPropertyOp38
 70
     1
102
RTVSPropertyOp39
 70
     1
102
RTVSPropertyOp40
 70
     1
102
RTVSPropertyOp41
 70
     1
102
RTVSPropertyOp42
 70
     1
102
RTVSPropertyOp43
 70
     1
102
RTVSPropertyOp44
 70
     1
102
RTVSPropertyOp45
 70
     1
102
RTVSPropertyOp46
 70
     1
102
RTVSPropertyOp47
 70
     1
102
RTVSPropertyOp48
 70
     1
102
RTVSPropertyOp49
 70
     1
102
RTVSPropertyOp50
 70
     1
102
RTVSPropertyOp51
 70
     0
102
RTVSPropertyOp52
 70
     0
102
RTVSPropertyOp53
 70
     1
102
RTVSPropertyOp54
 70
     1
102
RTVSPropertyOp55
 70
     1
102
RTVSPropertyOp56
 70
     1
102
RTVSPropertyOp57
 70
     1
102
RTVSPost2010Prop28
280
     0
102
RTVSPost2010PropOp28
 70
     1
102
RTVSPost2010Prop29
280
     1
102
RTVSPost2010PropOp29
 70
     1
102
RTVSPost2010Prop30
280
     1
102
RTVSPost2010PropOp30
 70
     1
102
RTVSPost2010Prop31
280
     0
102
RTVSPost2010PropOp31
 70
     1
102
RTVSPost2010Prop32
280
     0
102
RTVSPost2010PropOp32
 70
     1
102
RTVSPost2010Prop33
280
     0
102
RTVSPost2010PropOp33
 70
     1
102
RTVSPost2010Prop34
280
     0
102
RTVSPost2010PropOp34
 70
     1
102
RTVSPost2010Prop35
280
     0
102
RTVSPost2010PropOp35
 70
     1
102
RTVSPost2010Prop36
280
     0
102
RTVSPost2010PropOp36
 70
     1
102
RTVSPost2010Prop37
 90
       50
102
RTVSPost2010PropOp37
 70
     1
102
RTVSPost2010Prop38
140
0.0
102
RTVSPost2010PropOp38
 70
     1
102
RTVSPost2010Prop39
140
1.0
102
RTVSPost2010PropOp39
 70
     1
102
RTVSPost2010Prop40
 90
        0
102
RTVSPost2010PropOp40
 70
     1
102
RTVSPost2010Prop41ColorIndex
 90
       18
102
RTVSPost2010Prop41ColorRGB
 90
        0
102
RTVSPost2010PropOp41
 70
     1
102
RTVSPost2010Prop42
 90
       50
102
RTVSPost2010PropOp42
 70
     1
102
RTVSPost2010Prop43
 90
        3
102
RTVSPost2010PropOp43
 70
     1
102
RTVSPost2010Prop44ColorIndex
 90
        5
102
RTVSPost2010Prop44ColorRGB
 90
      255
102
RTVSPost2010PropOp44
 70
     1
102
RTVSPost2010Prop45
280
     0
102
RTVSPost2010PropOp45
 70
     1
102
RTVSPost2010Prop46
 90
       50
102
RTVSPost2010PropOp46
 70
     1
102
RTVSPost2010Prop47
 90
       50
102
RTVSPost2010PropOp47
 70
     1
102
RTVSPost2010Prop48
 90
       50
102
RTVSPost2010PropOp48
 70
     1
102
RTVSPost2010Prop49
280
     0
102
RTVSPost2010PropOp49
 70
     1
102
RTVSPost2010Prop50
 90
       50
102
RTVSPost2010PropOp50
 70
     1
102
RTVSPost2010Prop51ColorIndex
 90
      256
102
RTVSPost2010Prop51ColorRGB
 90
-16777216
102
RTVSPost2010PropOp51
 70
     0
102
RTVSPost2010Prop52
140
1.0
102
RTVSPost2010PropOp52
 70
     0
102
RTVSPost2010Prop53
 90
        2
102
RTVSPost2010PropOp53
 70
     1
102
RTVSPost2010Prop54
  1
strokes_ogs.tif
102
RTVSPost2010PropOp54
 70
     1
102
RTVSPost2010Prop55
280
     0
102
RTVSPost2010PropOp55
 70
     1
102
RTVSPost2010Prop56
140
1.0
102
RTVSPost2010PropOp56
 70
     1
102
RTVSPost2010Prop57
140
1.0
102
RTVSPost2010PropOp57
 70
     1
  0
XRECORD
  5
334F
102
{ACAD_REACTORS
330
334E
102
}
330
334E
100
AcDbXrecord
280
     1
102
RTVSPropertyOp0
 70
     0
102
RTVSPropertyOp1
 70
     0
102
RTVSPropertyOp2
 70
     0
102
RTVSPropertyOp3
 70
     0
102
RTVSPropertyOp4
 70
     0
102
RTVSPropertyOp5
 70
     0
102
RTVSPropertyOp6
 70
     0
102
RTVSPropertyOp7
 70
     0
102
RTVSPropertyOp8
 70
     0
102
RTVSPropertyOp9
 70
     0
102
RTVSPropertyOp10
 70
     0
102
RTVSPropertyOp11
 70
     0
102
RTVSPropertyOp12
 70
     0
102
RTVSPropertyOp13
 70
     0
102
RTVSPropertyOp14
 70
     2
102
RTVSPropertyOp15
 70
     0
102
RTVSPropertyOp16
 70
     0
102
RTVSPropertyOp17
 70
     0
102
RTVSPropertyOp18
 70
     0
102
RTVSPropertyOp19
 70
     0
102
RTVSPropertyOp20
 70
     0
102
RTVSPropertyOp21
 70
     0
102
RTVSPropertyOp22
 70
     0
102
RTVSPropertyOp23
 70
     0
102
RTVSPropertyOp24
 70
     0
102
RTVSPropertyOp25
 70
     0
102
RTVSPropertyOp26
 70
     0
102
RTVSPropertyOp27
 70
     0
102
RTVSPropertyOp28
 70
     0
102
RTVSPropertyOp29
 70
     0
102
RTVSPropertyOp30
 70
     0
102
RTVSPropertyOp31
 70
     0
102
RTVSPropertyOp32
 70
     0
102
RTVSPropertyOp33
 70
     0
102
RTVSPropertyOp34
 70
     0
102
RTVSPropertyOp35
 70
     0
102
RTVSPropertyOp36
 70
     0
102
RTVSPropertyOp37
 70
     0
102
RTVSPropertyOp38
 70
     0
102
RTVSPropertyOp39
 70
     0
102
RTVSPropertyOp40
 70
     0
102
RTVSPropertyOp41
 70
     0
102
RTVSPropertyOp42
 70
     0
102
RTVSPropertyOp43
 70
     0
102
RTVSPropertyOp44
 70
     0
102
RTVSPropertyOp45
 70
     0
102
RTVSPropertyOp46
 70
     0
102
RTVSPropertyOp47
 70
     0
102
RTVSPropertyOp48
 70
     0
102
RTVSPropertyOp49
 70
     0
102
RTVSPropertyOp50
 70
     0
102
RTVSPropertyOp51
 70
     0
102
RTVSPropertyOp52
 70
     0
102
RTVSPropertyOp53
 70
     0
102
RTVSPropertyOp54
 70
     0
102
RTVSPropertyOp55
 70
     0
102
RTVSPropertyOp56
 70
     0
102
RTVSPropertyOp57
 70
     0
102
RTVSPost2010Prop28
280
     0
102
RTVSPost2010PropOp28
 70
     0
102
RTVSPost2010Prop29
280
     1
102
RTVSPost2010PropOp29
 70
     0
102
RTVSPost2010Prop30
280
     1
102
RTVSPost2010PropOp30
 70
     0
102
RTVSPost2010Prop31
280
     0
102
RTVSPost2010PropOp31
 70
     0
102
RTVSPost2010Prop32
280
     0
102
RTVSPost2010PropOp32
 70
     0
102
RTVSPost2010Prop33
280
     0
102
RTVSPost2010PropOp33
 70
     0
102
RTVSPost2010Prop34
280
     0
102
RTVSPost2010PropOp34
 70
     0
102
RTVSPost2010Prop35
280
     0
102
RTVSPost2010PropOp35
 70
     0
102
RTVSPost2010Prop36
280
     0
102
RTVSPost2010PropOp36
 70
     0
102
RTVSPost2010Prop37
 90
       50
102
RTVSPost2010PropOp37
 70
     0
102
RTVSPost2010Prop38
140
0.0
102
RTVSPost2010PropOp38
 70
     0
102
RTVSPost2010Prop39
140
1.0
102
RTVSPost2010PropOp39
 70
     0
102
RTVSPost2010Prop40
 90
        0
102
RTVSPost2010PropOp40
 70
     0
102
RTVSPost2010Prop41ColorIndex
 90
       18
102
RTVSPost2010Prop41ColorRGB
 90
        0
102
RTVSPost2010PropOp41
 70
     0
102
RTVSPost2010Prop42
 90
       50
102
RTVSPost2010PropOp42
 70
     0
102
RTVSPost2010Prop43
 90
        3
102
RTVSPost2010PropOp43
 70
     0
102
RTVSPost2010Prop44ColorIndex
 90
        5
102
RTVSPost2010Prop44ColorRGB
 90
      255
102
RTVSPost2010PropOp44
 70
     0
102
RTVSPost2010Prop45
280
     0
102
RTVSPost2010PropOp45
 70
     0
102
RTVSPost2010Prop46
 90
       50
102
RTVSPost2010PropOp46
 70
     0
102
RTVSPost2010Prop47
 90
       50
102
RTVSPost2010PropOp47
 70
     0
102
RTVSPost2010Prop48
 90
       50
102
RTVSPost2010PropOp48
 70
     0
102
RTVSPost2010Prop49
280
     0
102
RTVSPost2010PropOp49
 70
     0
102
RTVSPost2010Prop50
 90
       50
102
RTVSPost2010PropOp50
 70
     0
102
RTVSPost2010Prop51ColorIndex
 90
      256
102
RTVSPost2010Prop51ColorRGB
 90
-16777216
102
RTVSPost2010PropOp51
 70
     0
102
RTVSPost2010Prop52
140
1.0
102
RTVSPost2010PropOp52
 70
     0
102
RTVSPost2010Prop53
 90
        2
102
RTVSPost2010PropOp53
 70
     0
102
RTVSPost2010Prop54
  1
strokes_ogs.tif
102
RTVSPost2010PropOp54
 70
     0
102
RTVSPost2010Prop55
280
     0
102
RTVSPost2010PropOp55
 70
     0
102
RTVSPost2010Prop56
140
1.0
102
RTVSPost2010PropOp56
 70
     0
102
RTVSPost2010Prop57
140
1.0
102
RTVSPost2010PropOp57
 70
     0
  0
XRECORD
  5
3345
102
{ACAD_REACTORS
330
3344
102
}
330
3344
100
AcDbXrecord
280
     1
102
RTVSPropertyOp0
 70
     1
102
RTVSPropertyOp1
 70
     1
102
RTVSPropertyOp2
 70
     1
102
RTVSPropertyOp3
 70
     1
102
RTVSPropertyOp4
 70
     1
102
RTVSPropertyOp5
 70
     1
102
RTVSPropertyOp6
 70
     1
102
RTVSPropertyOp7
 70
     1
102
RTVSPropertyOp8
 70
     1
102
RTVSPropertyOp9
 70
     1
102
RTVSPropertyOp10
 70
     1
102
RTVSPropertyOp11
 70
     1
102
RTVSPropertyOp12
 70
     1
102
RTVSPropertyOp13
 70
     1
102
RTVSPropertyOp14
 70
     1
102
RTVSPropertyOp15
 70
     1
102
RTVSPropertyOp16
 70
     1
102
RTVSPropertyOp17
 70
     1
102
RTVSPropertyOp18
 70
     1
102
RTVSPropertyOp19
 70
     1
102
RTVSPropertyOp20
 70
     1
102
RTVSPropertyOp21
 70
     1
102
RTVSPropertyOp22
 70
     1
102
RTVSPropertyOp23
 70
     1
102
RTVSPropertyOp24
 70
     1
102
RTVSPropertyOp25
 70
     1
102
RTVSPropertyOp26
 70
     1
102
RTVSPropertyOp27
 70
     1
102
RTVSPropertyOp28
 70
     1
102
RTVSPropertyOp29
 70
     1
102
RTVSPropertyOp30
 70
     1
102
RTVSPropertyOp31
 70
     1
102
RTVSPropertyOp32
 70
     1
102
RTVSPropertyOp33
 70
     1
102
RTVSPropertyOp34
 70
     1
102
RTVSPropertyOp35
 70
     1
102
RTVSPropertyOp36
 70
     1
102
RTVSPropertyOp37
 70
     1
102
RTVSPropertyOp38
 70
     1
102
RTVSPropertyOp39
 70
     1
102
RTVSPropertyOp40
 70
     1
102
RTVSPropertyOp41
 70
     1
102
RTVSPropertyOp42
 70
     1
102
RTVSPropertyOp43
 70
     1
102
RTVSPropertyOp44
 70
     1
102
RTVSPropertyOp45
 70
     1
102
RTVSPropertyOp46
 70
     1
102
RTVSPropertyOp47
 70
     1
102
RTVSPropertyOp48
 70
     1
102
RTVSPropertyOp49
 70
     1
102
RTVSPropertyOp50
 70
     1
102
RTVSPropertyOp51
 70
     0
102
RTVSPropertyOp52
 70
     0
102
RTVSPropertyOp53
 70
     1
102
RTVSPropertyOp54
 70
     1
102
RTVSPropertyOp55
 70
     1
102
RTVSPropertyOp56
 70
     1
102
RTVSPropertyOp57
 70
     1
102
RTVSPost2010Prop28
280
     0
102
RTVSPost2010PropOp28
 70
     1
102
RTVSPost2010Prop29
280
     1
102
RTVSPost2010PropOp29
 70
     1
102
RTVSPost2010Prop30
280
     1
102
RTVSPost2010PropOp30
 70
     1
102
RTVSPost2010Prop31
280
     0
102
RTVSPost2010PropOp31
 70
     1
102
RTVSPost2010Prop32
280
     0
102
RTVSPost2010PropOp32
 70
     1
102
RTVSPost2010Prop33
280
     0
102
RTVSPost2010PropOp33
 70
     1
102
RTVSPost2010Prop34
280
     0
102
RTVSPost2010PropOp34
 70
     1
102
RTVSPost2010Prop35
280
     0
102
RTVSPost2010PropOp35
 70
     1
102
RTVSPost2010Prop36
280
     0
102
RTVSPost2010PropOp36
 70
     1
102
RTVSPost2010Prop37
 90
       50
102
RTVSPost2010PropOp37
 70
     1
102
RTVSPost2010Prop38
140
0.0
102
RTVSPost2010PropOp38
 70
     1
102
RTVSPost2010Prop39
140
1.0
102
RTVSPost2010PropOp39
 70
     1
102
RTVSPost2010Prop40
 90
        0
102
RTVSPost2010PropOp40
 70
     1
102
RTVSPost2010Prop41ColorIndex
 90
       18
102
RTVSPost2010Prop41ColorRGB
 90
        0
102
RTVSPost2010PropOp41
 70
     1
102
RTVSPost2010Prop42
 90
       50
102
RTVSPost2010PropOp42
 70
     1
102
RTVSPost2010Prop43
 90
        3
102
RTVSPost2010PropOp43
 70
     1
102
RTVSPost2010Prop44ColorIndex
 90
        5
102
RTVSPost2010Prop44ColorRGB
 90
      255
102
RTVSPost2010PropOp44
 70
     1
102
RTVSPost2010Prop45
280
     0
102
RTVSPost2010PropOp45
 70
     1
102
RTVSPost2010Prop46
 90
       50
102
RTVSPost2010PropOp46
 70
     1
102
RTVSPost2010Prop47
 90
       50
102
RTVSPost2010PropOp47
 70
     1
102
RTVSPost2010Prop48
 90
       50
102
RTVSPost2010PropOp48
 70
     1
102
RTVSPost2010Prop49
280
     0
102
RTVSPost2010PropOp49
 70
     1
102
RTVSPost2010Prop50
 90
       50
102
RTVSPost2010PropOp50
 70
     1
102
RTVSPost2010Prop51ColorIndex
 90
      256
102
RTVSPost2010Prop51ColorRGB
 90
-16777216
102
RTVSPost2010PropOp51
 70
     0
102
RTVSPost2010Prop52
140
1.0
102
RTVSPost2010PropOp52
 70
     0
102
RTVSPost2010Prop53
 90
        2
102
RTVSPost2010PropOp53
 70
     1
102
RTVSPost2010Prop54
  1
strokes_ogs.tif
102
RTVSPost2010PropOp54
 70
     1
102
RTVSPost2010Prop55
280
     0
102
RTVSPost2010PropOp55
 70
     1
102
RTVSPost2010Prop56
140
1.0
102
RTVSPost2010PropOp56
 70
     1
102
RTVSPost2010Prop57
140
1.0
102
RTVSPost2010PropOp57
 70
     1
  0
XRECORD
  5
335B
102
{ACAD_REACTORS
330
335A
102
}
330
335A
100
AcDbXrecord
280
     1
102
RTVSPropertyOp0
 70
     1
102
RTVSPropertyOp1
 70
     1
102
RTVSPropertyOp2
 70
     1
102
RTVSPropertyOp3
 70
     1
102
RTVSPropertyOp4
 70
     1
102
RTVSPropertyOp5
 70
     1
102
RTVSPropertyOp6
 70
     1
102
RTVSPropertyOp7
 70
     1
102
RTVSPropertyOp8
 70
     1
102
RTVSPropertyOp9
 70
     1
102
RTVSPropertyOp10
 70
     1
102
RTVSPropertyOp11
 70
     1
102
RTVSPropertyOp12
 70
     1
102
RTVSPropertyOp13
 70
     1
102
RTVSPropertyOp14
 70
     1
102
RTVSPropertyOp15
 70
     1
102
RTVSPropertyOp16
 70
     1
102
RTVSPropertyOp17
 70
     1
102
RTVSPropertyOp18
 70
     1
102
RTVSPropertyOp19
 70
     1
102
RTVSPropertyOp20
 70
     1
102
RTVSPropertyOp21
 70
     1
102
RTVSPropertyOp22
 70
     1
102
RTVSPropertyOp23
 70
     1
102
RTVSPropertyOp24
 70
     1
102
RTVSPropertyOp25
 70
     1
102
RTVSPropertyOp26
 70
     1
102
RTVSPropertyOp27
 70
     1
102
RTVSPropertyOp28
 70
     1
102
RTVSPropertyOp29
 70
     1
102
RTVSPropertyOp30
 70
     1
102
RTVSPropertyOp31
 70
     1
102
RTVSPropertyOp32
 70
     1
102
RTVSPropertyOp33
 70
     1
102
RTVSPropertyOp34
 70
     1
102
RTVSPropertyOp35
 70
     1
102
RTVSPropertyOp36
 70
     1
102
RTVSPropertyOp37
 70
     1
102
RTVSPropertyOp38
 70
     1
102
RTVSPropertyOp39
 70
     1
102
RTVSPropertyOp40
 70
     1
102
RTVSPropertyOp41
 70
     1
102
RTVSPropertyOp42
 70
     1
102
RTVSPropertyOp43
 70
     1
102
RTVSPropertyOp44
 70
     1
102
RTVSPropertyOp45
 70
     1
102
RTVSPropertyOp46
 70
     1
102
RTVSPropertyOp47
 70
     1
102
RTVSPropertyOp48
 70
     1
102
RTVSPropertyOp49
 70
     1
102
RTVSPropertyOp50
 70
     1
102
RTVSPropertyOp51
 70
     0
102
RTVSPropertyOp52
 70
     0
102
RTVSPropertyOp53
 70
     1
102
RTVSPropertyOp54
 70
     1
102
RTVSPropertyOp55
 70
     1
102
RTVSPropertyOp56
 70
     1
102
RTVSPropertyOp57
 70
     1
102
RTVSPost2010Prop28
280
     0
102
RTVSPost2010PropOp28
 70
     1
102
RTVSPost2010Prop29
280
     1
102
RTVSPost2010PropOp29
 70
     1
102
RTVSPost2010Prop30
280
     1
102
RTVSPost2010PropOp30
 70
     1
102
RTVSPost2010Prop31
280
     0
102
RTVSPost2010PropOp31
 70
     1
102
RTVSPost2010Prop32
280
     0
102
RTVSPost2010PropOp32
 70
     1
102
RTVSPost2010Prop33
280
     0
102
RTVSPost2010PropOp33
 70
     1
102
RTVSPost2010Prop34
280
     0
102
RTVSPost2010PropOp34
 70
     1
102
RTVSPost2010Prop35
280
     0
102
RTVSPost2010PropOp35
 70
     1
102
RTVSPost2010Prop36
280
     0
102
RTVSPost2010PropOp36
 70
     1
102
RTVSPost2010Prop37
 90
       50
102
RTVSPost2010PropOp37
 70
     1
102
RTVSPost2010Prop38
140
0.0
102
RTVSPost2010PropOp38
 70
     1
102
RTVSPost2010Prop39
140
1.0
102
RTVSPost2010PropOp39
 70
     1
102
RTVSPost2010Prop40
 90
        0
102
RTVSPost2010PropOp40
 70
     1
102
RTVSPost2010Prop41ColorIndex
 90
       18
102
RTVSPost2010Prop41ColorRGB
 90
        0
102
RTVSPost2010PropOp41
 70
     1
102
RTVSPost2010Prop42
 90
       50
102
RTVSPost2010PropOp42
 70
     1
102
RTVSPost2010Prop43
 90
        3
102
RTVSPost2010PropOp43
 70
     1
102
RTVSPost2010Prop44ColorIndex
 90
        5
102
RTVSPost2010Prop44ColorRGB
 90
      255
102
RTVSPost2010PropOp44
 70
     1
102
RTVSPost2010Prop45
280
     0
102
RTVSPost2010PropOp45
 70
     1
102
RTVSPost2010Prop46
 90
       50
102
RTVSPost2010PropOp46
 70
     1
102
RTVSPost2010Prop47
 90
       50
102
RTVSPost2010PropOp47
 70
     1
102
RTVSPost2010Prop48
 90
       50
102
RTVSPost2010PropOp48
 70
     1
102
RTVSPost2010Prop49
280
     0
102
RTVSPost2010PropOp49
 70
     1
102
RTVSPost2010Prop50
 90
       50
102
RTVSPost2010PropOp50
 70
     1
102
RTVSPost2010Prop51ColorIndex
 90
      256
102
RTVSPost2010Prop51ColorRGB
 90
-16777216
102
RTVSPost2010PropOp51
 70
     0
102
RTVSPost2010Prop52
140
1.0
102
RTVSPost2010PropOp52
 70
     0
102
RTVSPost2010Prop53
 90
        2
102
RTVSPost2010PropOp53
 70
     1
102
RTVSPost2010Prop54
  1
strokes_ogs.tif
102
RTVSPost2010PropOp54
 70
     1
102
RTVSPost2010Prop55
280
     0
102
RTVSPost2010PropOp55
 70
     1
102
RTVSPost2010Prop56
140
1.0
102
RTVSPost2010PropOp56
 70
     1
102
RTVSPost2010Prop57
140
1.0
102
RTVSPost2010PropOp57
 70
     1
  0
XRECORD
  5
3359
102
{ACAD_REACTORS
330
3358
102
}
330
3358
100
AcDbXrecord
280
     1
102
RTVSPropertyOp0
 70
     1
102
RTVSPropertyOp1
 70
     1
102
RTVSPropertyOp2
 70
     1
102
RTVSPropertyOp3
 70
     1
102
RTVSPropertyOp4
 70
     1
102
RTVSPropertyOp5
 70
     1
102
RTVSPropertyOp6
 70
     1
102
RTVSPropertyOp7
 70
     1
102
RTVSPropertyOp8
 70
     1
102
RTVSPropertyOp9
 70
     1
102
RTVSPropertyOp10
 70
     1
102
RTVSPropertyOp11
 70
     1
102
RTVSPropertyOp12
 70
     1
102
RTVSPropertyOp13
 70
     1
102
RTVSPropertyOp14
 70
     1
102
RTVSPropertyOp15
 70
     1
102
RTVSPropertyOp16
 70
     1
102
RTVSPropertyOp17
 70
     1
102
RTVSPropertyOp18
 70
     1
102
RTVSPropertyOp19
 70
     1
102
RTVSPropertyOp20
 70
     1
102
RTVSPropertyOp21
 70
     1
102
RTVSPropertyOp22
 70
     1
102
RTVSPropertyOp23
 70
     1
102
RTVSPropertyOp24
 70
     1
102
RTVSPropertyOp25
 70
     1
102
RTVSPropertyOp26
 70
     1
102
RTVSPropertyOp27
 70
     1
102
RTVSPropertyOp28
 70
     1
102
RTVSPropertyOp29
 70
     1
102
RTVSPropertyOp30
 70
     1
102
RTVSPropertyOp31
 70
     1
102
RTVSPropertyOp32
 70
     1
102
RTVSPropertyOp33
 70
     1
102
RTVSPropertyOp34
 70
     1
102
RTVSPropertyOp35
 70
     1
102
RTVSPropertyOp36
 70
     1
102
RTVSPropertyOp37
 70
     1
102
RTVSPropertyOp38
 70
     1
102
RTVSPropertyOp39
 70
     1
102
RTVSPropertyOp40
 70
     1
102
RTVSPropertyOp41
 70
     1
102
RTVSPropertyOp42
 70
     1
102
RTVSPropertyOp43
 70
     1
102
RTVSPropertyOp44
 70
     1
102
RTVSPropertyOp45
 70
     1
102
RTVSPropertyOp46
 70
     1
102
RTVSPropertyOp47
 70
     1
102
RTVSPropertyOp48
 70
     1
102
RTVSPropertyOp49
 70
     1
102
RTVSPropertyOp50
 70
     1
102
RTVSPropertyOp51
 70
     0
102
RTVSPropertyOp52
 70
     0
102
RTVSPropertyOp53
 70
     1
102
RTVSPropertyOp54
 70
     1
102
RTVSPropertyOp55
 70
     1
102
RTVSPropertyOp56
 70
     1
102
RTVSPropertyOp57
 70
     1
102
RTVSPost2010Prop28
280
     0
102
RTVSPost2010PropOp28
 70
     1
102
RTVSPost2010Prop29
280
     1
102
RTVSPost2010PropOp29
 70
     1
102
RTVSPost2010Prop30
280
     1
102
RTVSPost2010PropOp30
 70
     1
102
RTVSPost2010Prop31
280
     0
102
RTVSPost2010PropOp31
 70
     1
102
RTVSPost2010Prop32
280
     0
102
RTVSPost2010PropOp32
 70
     1
102
RTVSPost2010Prop33
280
     0
102
RTVSPost2010PropOp33
 70
     1
102
RTVSPost2010Prop34
280
     0
102
RTVSPost2010PropOp34
 70
     1
102
RTVSPost2010Prop35
280
     0
102
RTVSPost2010PropOp35
 70
     1
102
RTVSPost2010Prop36
280
     0
102
RTVSPost2010PropOp36
 70
     1
102
RTVSPost2010Prop37
 90
       50
102
RTVSPost2010PropOp37
 70
     1
102
RTVSPost2010Prop38
140
0.0
102
RTVSPost2010PropOp38
 70
     1
102
RTVSPost2010Prop39
140
1.0
102
RTVSPost2010PropOp39
 70
     1
102
RTVSPost2010Prop40
 90
        0
102
RTVSPost2010PropOp40
 70
     1
102
RTVSPost2010Prop41ColorIndex
 90
       18
102
RTVSPost2010Prop41ColorRGB
 90
        0
102
RTVSPost2010PropOp41
 70
     1
102
RTVSPost2010Prop42
 90
       50
102
RTVSPost2010PropOp42
 70
     1
102
RTVSPost2010Prop43
 90
        3
102
RTVSPost2010PropOp43
 70
     1
102
RTVSPost2010Prop44ColorIndex
 90
        5
102
RTVSPost2010Prop44ColorRGB
 90
      255
102
RTVSPost2010PropOp44
 70
     1
102
RTVSPost2010Prop45
280
     0
102
RTVSPost2010PropOp45
 70
     1
102
RTVSPost2010Prop46
 90
       50
102
RTVSPost2010PropOp46
 70
     1
102
RTVSPost2010Prop47
 90
       50
102
RTVSPost2010PropOp47
 70
     1
102
RTVSPost2010Prop48
 90
       50
102
RTVSPost2010PropOp48
 70
     1
102
RTVSPost2010Prop49
280
     0
102
RTVSPost2010PropOp49
 70
     1
102
RTVSPost2010Prop50
 90
       50
102
RTVSPost2010PropOp50
 70
     1
102
RTVSPost2010Prop51ColorIndex
 90
      256
102
RTVSPost2010Prop51ColorRGB
 90
-16777216
102
RTVSPost2010PropOp51
 70
     0
102
RTVSPost2010Prop52
140
1.0
102
RTVSPost2010PropOp52
 70
     0
102
RTVSPost2010Prop53
 90
        2
102
RTVSPost2010PropOp53
 70
     1
102
RTVSPost2010Prop54
  1
strokes_ogs.tif
102
RTVSPost2010PropOp54
 70
     1
102
RTVSPost2010Prop55
280
     0
102
RTVSPost2010PropOp55
 70
     1
102
RTVSPost2010Prop56
140
1.0
102
RTVSPost2010PropOp56
 70
     1
102
RTVSPost2010Prop57
140
1.0
102
RTVSPost2010PropOp57
 70
     1
  0
XRECORD
  5
3353
102
{ACAD_REACTORS
330
3352
102
}
330
3352
100
AcDbXrecord
280
     1
102
RTVSPropertyOp0
 70
     1
102
RTVSPropertyOp1
 70
     1
102
RTVSPropertyOp2
 70
     1
102
RTVSPropertyOp3
 70
     1
102
RTVSPropertyOp4
 70
     1
102
RTVSPropertyOp5
 70
     1
102
RTVSPropertyOp6
 70
     1
102
RTVSPropertyOp7
 70
     1
102
RTVSPropertyOp8
 70
     1
102
RTVSPropertyOp9
 70
     1
102
RTVSPropertyOp10
 70
     1
102
RTVSPropertyOp11
 70
     1
102
RTVSPropertyOp12
 70
     1
102
RTVSPropertyOp13
 70
     1
102
RTVSPropertyOp14
 70
     1
102
RTVSPropertyOp15
 70
     1
102
RTVSPropertyOp16
 70
     1
102
RTVSPropertyOp17
 70
     1
102
RTVSPropertyOp18
 70
     1
102
RTVSPropertyOp19
 70
     1
102
RTVSPropertyOp20
 70
     1
102
RTVSPropertyOp21
 70
     1
102
RTVSPropertyOp22
 70
     1
102
RTVSPropertyOp23
 70
     1
102
RTVSPropertyOp24
 70
     1
102
RTVSPropertyOp25
 70
     1
102
RTVSPropertyOp26
 70
     1
102
RTVSPropertyOp27
 70
     1
102
RTVSPropertyOp28
 70
     1
102
RTVSPropertyOp29
 70
     1
102
RTVSPropertyOp30
 70
     1
102
RTVSPropertyOp31
 70
     1
102
RTVSPropertyOp32
 70
     1
102
RTVSPropertyOp33
 70
     1
102
RTVSPropertyOp34
 70
     1
102
RTVSPropertyOp35
 70
     1
102
RTVSPropertyOp36
 70
     1
102
RTVSPropertyOp37
 70
     1
102
RTVSPropertyOp38
 70
     1
102
RTVSPropertyOp39
 70
     1
102
RTVSPropertyOp40
 70
     1
102
RTVSPropertyOp41
 70
     1
102
RTVSPropertyOp42
 70
     1
102
RTVSPropertyOp43
 70
     1
102
RTVSPropertyOp44
 70
     1
102
RTVSPropertyOp45
 70
     1
102
RTVSPropertyOp46
 70
     1
102
RTVSPropertyOp47
 70
     1
102
RTVSPropertyOp48
 70
     1
102
RTVSPropertyOp49
 70
     1
102
RTVSPropertyOp50
 70
     1
102
RTVSPropertyOp51
 70
     0
102
RTVSPropertyOp52
 70
     0
102
RTVSPropertyOp53
 70
     1
102
RTVSPropertyOp54
 70
     1
102
RTVSPropertyOp55
 70
     1
102
RTVSPropertyOp56
 70
     1
102
RTVSPropertyOp57
 70
     1
102
RTVSPost2010Prop28
280
     0
102
RTVSPost2010PropOp28
 70
     1
102
RTVSPost2010Prop29
280
     1
102
RTVSPost2010PropOp29
 70
     1
102
RTVSPost2010Prop30
280
     1
102
RTVSPost2010PropOp30
 70
     1
102
RTVSPost2010Prop31
280
     0
102
RTVSPost2010PropOp31
 70
     1
102
RTVSPost2010Prop32
280
     0
102
RTVSPost2010PropOp32
 70
     1
102
RTVSPost2010Prop33
280
     0
102
RTVSPost2010PropOp33
 70
     1
102
RTVSPost2010Prop34
280
     0
102
RTVSPost2010PropOp34
 70
     1
102
RTVSPost2010Prop35
280
     0
102
RTVSPost2010PropOp35
 70
     1
102
RTVSPost2010Prop36
280
     0
102
RTVSPost2010PropOp36
 70
     1
102
RTVSPost2010Prop37
 90
       50
102
RTVSPost2010PropOp37
 70
     1
102
RTVSPost2010Prop38
140
0.0
102
RTVSPost2010PropOp38
 70
     1
102
RTVSPost2010Prop39
140
1.0
102
RTVSPost2010PropOp39
 70
     1
102
RTVSPost2010Prop40
 90
        0
102
RTVSPost2010PropOp40
 70
     1
102
RTVSPost2010Prop41ColorIndex
 90
       18
102
RTVSPost2010Prop41ColorRGB
 90
        0
102
RTVSPost2010PropOp41
 70
     1
102
RTVSPost2010Prop42
 90
       50
102
RTVSPost2010PropOp42
 70
     1
102
RTVSPost2010Prop43
 90
        3
102
RTVSPost2010PropOp43
 70
     1
102
RTVSPost2010Prop44ColorIndex
 90
        5
102
RTVSPost2010Prop44ColorRGB
 90
      255
102
RTVSPost2010PropOp44
 70
     1
102
RTVSPost2010Prop45
280
     0
102
RTVSPost2010PropOp45
 70
     1
102
RTVSPost2010Prop46
 90
       50
102
RTVSPost2010PropOp46
 70
     1
102
RTVSPost2010Prop47
 90
       50
102
RTVSPost2010PropOp47
 70
     1
102
RTVSPost2010Prop48
 90
       50
102
RTVSPost2010PropOp48
 70
     1
102
RTVSPost2010Prop49
280
     0
102
RTVSPost2010PropOp49
 70
     1
102
RTVSPost2010Prop50
 90
       50
102
RTVSPost2010PropOp50
 70
     1
102
RTVSPost2010Prop51ColorIndex
 90
      256
102
RTVSPost2010Prop51ColorRGB
 90
-16777216
102
RTVSPost2010PropOp51
 70
     0
102
RTVSPost2010Prop52
140
1.0
102
RTVSPost2010PropOp52
 70
     0
102
RTVSPost2010Prop53
 90
        2
102
RTVSPost2010PropOp53
 70
     1
102
RTVSPost2010Prop54
  1
strokes_ogs.tif
102
RTVSPost2010PropOp54
 70
     1
102
RTVSPost2010Prop55
280
     0
102
RTVSPost2010PropOp55
 70
     1
102
RTVSPost2010Prop56
140
1.0
102
RTVSPost2010PropOp56
 70
     1
102
RTVSPost2010Prop57
140
1.0
102
RTVSPost2010PropOp57
 70
     1
  0
XRECORD
  5
3355
102
{ACAD_REACTORS
330
3354
102
}
330
3354
100
AcDbXrecord
280
     1
102
RTVSPropertyOp0
 70
     1
102
RTVSPropertyOp1
 70
     1
102
RTVSPropertyOp2
 70
     1
102
RTVSPropertyOp3
 70
     1
102
RTVSPropertyOp4
 70
     1
102
RTVSPropertyOp5
 70
     1
102
RTVSPropertyOp6
 70
     1
102
RTVSPropertyOp7
 70
     1
102
RTVSPropertyOp8
 70
     1
102
RTVSPropertyOp9
 70
     1
102
RTVSPropertyOp10
 70
     1
102
RTVSPropertyOp11
 70
     1
102
RTVSPropertyOp12
 70
     1
102
RTVSPropertyOp13
 70
     1
102
RTVSPropertyOp14
 70
     1
102
RTVSPropertyOp15
 70
     1
102
RTVSPropertyOp16
 70
     1
102
RTVSPropertyOp17
 70
     1
102
RTVSPropertyOp18
 70
     1
102
RTVSPropertyOp19
 70
     1
102
RTVSPropertyOp20
 70
     1
102
RTVSPropertyOp21
 70
     1
102
RTVSPropertyOp22
 70
     1
102
RTVSPropertyOp23
 70
     1
102
RTVSPropertyOp24
 70
     1
102
RTVSPropertyOp25
 70
     1
102
RTVSPropertyOp26
 70
     1
102
RTVSPropertyOp27
 70
     1
102
RTVSPropertyOp28
 70
     1
102
RTVSPropertyOp29
 70
     1
102
RTVSPropertyOp30
 70
     1
102
RTVSPropertyOp31
 70
     1
102
RTVSPropertyOp32
 70
     1
102
RTVSPropertyOp33
 70
     1
102
RTVSPropertyOp34
 70
     1
102
RTVSPropertyOp35
 70
     1
102
RTVSPropertyOp36
 70
     1
102
RTVSPropertyOp37
 70
     1
102
RTVSPropertyOp38
 70
     1
102
RTVSPropertyOp39
 70
     1
102
RTVSPropertyOp40
 70
     1
102
RTVSPropertyOp41
 70
     1
102
RTVSPropertyOp42
 70
     1
102
RTVSPropertyOp43
 70
     1
102
RTVSPropertyOp44
 70
     1
102
RTVSPropertyOp45
 70
     1
102
RTVSPropertyOp46
 70
     1
102
RTVSPropertyOp47
 70
     1
102
RTVSPropertyOp48
 70
     1
102
RTVSPropertyOp49
 70
     1
102
RTVSPropertyOp50
 70
     1
102
RTVSPropertyOp51
 70
     0
102
RTVSPropertyOp52
 70
     0
102
RTVSPropertyOp53
 70
     1
102
RTVSPropertyOp54
 70
     1
102
RTVSPropertyOp55
 70
     1
102
RTVSPropertyOp56
 70
     1
102
RTVSPropertyOp57
 70
     1
102
RTVSPost2010Prop28
280
     0
102
RTVSPost2010PropOp28
 70
     1
102
RTVSPost2010Prop29
280
     1
102
RTVSPost2010PropOp29
 70
     1
102
RTVSPost2010Prop30
280
     1
102
RTVSPost2010PropOp30
 70
     1
102
RTVSPost2010Prop31
280
     0
102
RTVSPost2010PropOp31
 70
     1
102
RTVSPost2010Prop32
280
     0
102
RTVSPost2010PropOp32
 70
     1
102
RTVSPost2010Prop33
280
     0
102
RTVSPost2010PropOp33
 70
     1
102
RTVSPost2010Prop34
280
     0
102
RTVSPost2010PropOp34
 70
     1
102
RTVSPost2010Prop35
280
     0
102
RTVSPost2010PropOp35
 70
     1
102
RTVSPost2010Prop36
280
     0
102
RTVSPost2010PropOp36
 70
     1
102
RTVSPost2010Prop37
 90
       50
102
RTVSPost2010PropOp37
 70
     1
102
RTVSPost2010Prop38
140
0.0
102
RTVSPost2010PropOp38
 70
     1
102
RTVSPost2010Prop39
140
1.0
102
RTVSPost2010PropOp39
 70
     1
102
RTVSPost2010Prop40
 90
        0
102
RTVSPost2010PropOp40
 70
     1
102
RTVSPost2010Prop41ColorIndex
 90
       18
102
RTVSPost2010Prop41ColorRGB
 90
        0
102
RTVSPost2010PropOp41
 70
     1
102
RTVSPost2010Prop42
 90
       50
102
RTVSPost2010PropOp42
 70
     1
102
RTVSPost2010Prop43
 90
        3
102
RTVSPost2010PropOp43
 70
     1
102
RTVSPost2010Prop44ColorIndex
 90
        5
102
RTVSPost2010Prop44ColorRGB
 90
      255
102
RTVSPost2010PropOp44
 70
     1
102
RTVSPost2010Prop45
280
     0
102
RTVSPost2010PropOp45
 70
     1
102
RTVSPost2010Prop46
 90
       50
102
RTVSPost2010PropOp46
 70
     1
102
RTVSPost2010Prop47
 90
       50
102
RTVSPost2010PropOp47
 70
     1
102
RTVSPost2010Prop48
 90
       50
102
RTVSPost2010PropOp48
 70
     1
102
RTVSPost2010Prop49
280
     0
102
RTVSPost2010PropOp49
 70
     1
102
RTVSPost2010Prop50
 90
       50
102
RTVSPost2010PropOp50
 70
     1
102
RTVSPost2010Prop51ColorIndex
 90
      256
102
RTVSPost2010Prop51ColorRGB
 90
-16777216
102
RTVSPost2010PropOp51
 70
     0
102
RTVSPost2010Prop52
140
1.0
102
RTVSPost2010PropOp52
 70
     0
102
RTVSPost2010Prop53
 90
        2
102
RTVSPost2010PropOp53
 70
     1
102
RTVSPost2010Prop54
  1
strokes_ogs.tif
102
RTVSPost2010PropOp54
 70
     1
102
RTVSPost2010Prop55
280
     0
102
RTVSPost2010PropOp55
 70
     1
102
RTVSPost2010Prop56
140
1.0
102
RTVSPost2010PropOp56
 70
     1
102
RTVSPost2010Prop57
140
1.0
102
RTVSPost2010PropOp57
 70
     1
  0
XRECORD
  5
3347
102
{ACAD_REACTORS
330
3346
102
}
330
3346
100
AcDbXrecord
280
     1
102
RTVSPropertyOp0
 70
     1
102
RTVSPropertyOp1
 70
     1
102
RTVSPropertyOp2
 70
     1
102
RTVSPropertyOp3
 70
     1
102
RTVSPropertyOp4
 70
     1
102
RTVSPropertyOp5
 70
     1
102
RTVSPropertyOp6
 70
     1
102
RTVSPropertyOp7
 70
     1
102
RTVSPropertyOp8
 70
     1
102
RTVSPropertyOp9
 70
     1
102
RTVSPropertyOp10
 70
     1
102
RTVSPropertyOp11
 70
     1
102
RTVSPropertyOp12
 70
     1
102
RTVSPropertyOp13
 70
     1
102
RTVSPropertyOp14
 70
     1
102
RTVSPropertyOp15
 70
     1
102
RTVSPropertyOp16
 70
     1
102
RTVSPropertyOp17
 70
     1
102
RTVSPropertyOp18
 70
     1
102
RTVSPropertyOp19
 70
     1
102
RTVSPropertyOp20
 70
     1
102
RTVSPropertyOp21
 70
     1
102
RTVSPropertyOp22
 70
     1
102
RTVSPropertyOp23
 70
     1
102
RTVSPropertyOp24
 70
     1
102
RTVSPropertyOp25
 70
     1
102
RTVSPropertyOp26
 70
     1
102
RTVSPropertyOp27
 70
     1
102
RTVSPropertyOp28
 70
     1
102
RTVSPropertyOp29
 70
     1
102
RTVSPropertyOp30
 70
     1
102
RTVSPropertyOp31
 70
     1
102
RTVSPropertyOp32
 70
     1
102
RTVSPropertyOp33
 70
     1
102
RTVSPropertyOp34
 70
     1
102
RTVSPropertyOp35
 70
     1
102
RTVSPropertyOp36
 70
     1
102
RTVSPropertyOp37
 70
     1
102
RTVSPropertyOp38
 70
     1
102
RTVSPropertyOp39
 70
     1
102
RTVSPropertyOp40
 70
     1
102
RTVSPropertyOp41
 70
     1
102
RTVSPropertyOp42
 70
     1
102
RTVSPropertyOp43
 70
     1
102
RTVSPropertyOp44
 70
     1
102
RTVSPropertyOp45
 70
     1
102
RTVSPropertyOp46
 70
     1
102
RTVSPropertyOp47
 70
     1
102
RTVSPropertyOp48
 70
     1
102
RTVSPropertyOp49
 70
     1
102
RTVSPropertyOp50
 70
     1
102
RTVSPropertyOp51
 70
     0
102
RTVSPropertyOp52
 70
     0
102
RTVSPropertyOp53
 70
     1
102
RTVSPropertyOp54
 70
     1
102
RTVSPropertyOp55
 70
     1
102
RTVSPropertyOp56
 70
     1
102
RTVSPropertyOp57
 70
     1
102
RTVSPost2010Prop28
280
     0
102
RTVSPost2010PropOp28
 70
     1
102
RTVSPost2010Prop29
280
     1
102
RTVSPost2010PropOp29
 70
     1
102
RTVSPost2010Prop30
280
     1
102
RTVSPost2010PropOp30
 70
     1
102
RTVSPost2010Prop31
280
     0
102
RTVSPost2010PropOp31
 70
     1
102
RTVSPost2010Prop32
280
     0
102
RTVSPost2010PropOp32
 70
     1
102
RTVSPost2010Prop33
280
     0
102
RTVSPost2010PropOp33
 70
     1
102
RTVSPost2010Prop34
280
     0
102
RTVSPost2010PropOp34
 70
     1
102
RTVSPost2010Prop35
280
     0
102
RTVSPost2010PropOp35
 70
     1
102
RTVSPost2010Prop36
280
     0
102
RTVSPost2010PropOp36
 70
     1
102
RTVSPost2010Prop37
 90
       50
102
RTVSPost2010PropOp37
 70
     1
102
RTVSPost2010Prop38
140
0.0
102
RTVSPost2010PropOp38
 70
     1
102
RTVSPost2010Prop39
140
1.0
102
RTVSPost2010PropOp39
 70
     1
102
RTVSPost2010Prop40
 90
        0
102
RTVSPost2010PropOp40
 70
     1
102
RTVSPost2010Prop41ColorIndex
 90
       18
102
RTVSPost2010Prop41ColorRGB
 90
        0
102
RTVSPost2010PropOp41
 70
     1
102
RTVSPost2010Prop42
 90
       50
102
RTVSPost2010PropOp42
 70
     1
102
RTVSPost2010Prop43
 90
        3
102
RTVSPost2010PropOp43
 70
     1
102
RTVSPost2010Prop44ColorIndex
 90
        5
102
RTVSPost2010Prop44ColorRGB
 90
      255
102
RTVSPost2010PropOp44
 70
     1
102
RTVSPost2010Prop45
280
     0
102
RTVSPost2010PropOp45
 70
     1
102
RTVSPost2010Prop46
 90
       50
102
RTVSPost2010PropOp46
 70
     1
102
RTVSPost2010Prop47
 90
       50
102
RTVSPost2010PropOp47
 70
     1
102
RTVSPost2010Prop48
 90
       50
102
RTVSPost2010PropOp48
 70
     1
102
RTVSPost2010Prop49
280
     0
102
RTVSPost2010PropOp49
 70
     1
102
RTVSPost2010Prop50
 90
       50
102
RTVSPost2010PropOp50
 70
     1
102
RTVSPost2010Prop51ColorIndex
 90
      256
102
RTVSPost2010Prop51ColorRGB
 90
-16777216
102
RTVSPost2010PropOp51
 70
     0
102
RTVSPost2010Prop52
140
1.0
102
RTVSPost2010PropOp52
 70
     0
102
RTVSPost2010Prop53
 90
        2
102
RTVSPost2010PropOp53
 70
     1
102
RTVSPost2010Prop54
  1
strokes_ogs.tif
102
RTVSPost2010PropOp54
 70
     1
102
RTVSPost2010Prop55
280
     0
102
RTVSPost2010PropOp55
 70
     1
102
RTVSPost2010Prop56
140
1.0
102
RTVSPost2010PropOp56
 70
     1
102
RTVSPost2010Prop57
140
1.0
102
RTVSPost2010PropOp57
 70
     1
  0
XRECORD
  5
3349
102
{ACAD_REACTORS
330
3348
102
}
330
3348
100
AcDbXrecord
280
     1
102
RTVSPropertyOp0
 70
     1
102
RTVSPropertyOp1
 70
     1
102
RTVSPropertyOp2
 70
     1
102
RTVSPropertyOp3
 70
     1
102
RTVSPropertyOp4
 70
     1
102
RTVSPropertyOp5
 70
     1
102
RTVSPropertyOp6
 70
     1
102
RTVSPropertyOp7
 70
     1
102
RTVSPropertyOp8
 70
     1
102
RTVSPropertyOp9
 70
     1
102
RTVSPropertyOp10
 70
     1
102
RTVSPropertyOp11
 70
     1
102
RTVSPropertyOp12
 70
     1
102
RTVSPropertyOp13
 70
     1
102
RTVSPropertyOp14
 70
     1
102
RTVSPropertyOp15
 70
     1
102
RTVSPropertyOp16
 70
     1
102
RTVSPropertyOp17
 70
     1
102
RTVSPropertyOp18
 70
     1
102
RTVSPropertyOp19
 70
     1
102
RTVSPropertyOp20
 70
     1
102
RTVSPropertyOp21
 70
     1
102
RTVSPropertyOp22
 70
     1
102
RTVSPropertyOp23
 70
     1
102
RTVSPropertyOp24
 70
     1
102
RTVSPropertyOp25
 70
     1
102
RTVSPropertyOp26
 70
     1
102
RTVSPropertyOp27
 70
     1
102
RTVSPropertyOp28
 70
     1
102
RTVSPropertyOp29
 70
     1
102
RTVSPropertyOp30
 70
     1
102
RTVSPropertyOp31
 70
     1
102
RTVSPropertyOp32
 70
     1
102
RTVSPropertyOp33
 70
     1
102
RTVSPropertyOp34
 70
     1
102
RTVSPropertyOp35
 70
     1
102
RTVSPropertyOp36
 70
     1
102
RTVSPropertyOp37
 70
     1
102
RTVSPropertyOp38
 70
     1
102
RTVSPropertyOp39
 70
     1
102
RTVSPropertyOp40
 70
     1
102
RTVSPropertyOp41
 70
     1
102
RTVSPropertyOp42
 70
     1
102
RTVSPropertyOp43
 70
     1
102
RTVSPropertyOp44
 70
     1
102
RTVSPropertyOp45
 70
     1
102
RTVSPropertyOp46
 70
     1
102
RTVSPropertyOp47
 70
     1
102
RTVSPropertyOp48
 70
     1
102
RTVSPropertyOp49
 70
     1
102
RTVSPropertyOp50
 70
     1
102
RTVSPropertyOp51
 70
     0
102
RTVSPropertyOp52
 70
     0
102
RTVSPropertyOp53
 70
     1
102
RTVSPropertyOp54
 70
     1
102
RTVSPropertyOp55
 70
     1
102
RTVSPropertyOp56
 70
     1
102
RTVSPropertyOp57
 70
     1
102
RTVSPost2010Prop28
280
     0
102
RTVSPost2010PropOp28
 70
     1
102
RTVSPost2010Prop29
280
     1
102
RTVSPost2010PropOp29
 70
     1
102
RTVSPost2010Prop30
280
     1
102
RTVSPost2010PropOp30
 70
     1
102
RTVSPost2010Prop31
280
     0
102
RTVSPost2010PropOp31
 70
     1
102
RTVSPost2010Prop32
280
     0
102
RTVSPost2010PropOp32
 70
     1
102
RTVSPost2010Prop33
280
     0
102
RTVSPost2010PropOp33
 70
     1
102
RTVSPost2010Prop34
280
     0
102
RTVSPost2010PropOp34
 70
     1
102
RTVSPost2010Prop35
280
     0
102
RTVSPost2010PropOp35
 70
     1
102
RTVSPost2010Prop36
280
     0
102
RTVSPost2010PropOp36
 70
     1
102
RTVSPost2010Prop37
 90
       50
102
RTVSPost2010PropOp37
 70
     1
102
RTVSPost2010Prop38
140
0.0
102
RTVSPost2010PropOp38
 70
     1
102
RTVSPost2010Prop39
140
1.0
102
RTVSPost2010PropOp39
 70
     1
102
RTVSPost2010Prop40
 90
        0
102
RTVSPost2010PropOp40
 70
     1
102
RTVSPost2010Prop41ColorIndex
 90
       18
102
RTVSPost2010Prop41ColorRGB
 90
        0
102
RTVSPost2010PropOp41
 70
     1
102
RTVSPost2010Prop42
 90
       50
102
RTVSPost2010PropOp42
 70
     1
102
RTVSPost2010Prop43
 90
        3
102
RTVSPost2010PropOp43
 70
     1
102
RTVSPost2010Prop44ColorIndex
 90
        5
102
RTVSPost2010Prop44ColorRGB
 90
      255
102
RTVSPost2010PropOp44
 70
     1
102
RTVSPost2010Prop45
280
     0
102
RTVSPost2010PropOp45
 70
     1
102
RTVSPost2010Prop46
 90
       50
102
RTVSPost2010PropOp46
 70
     1
102
RTVSPost2010Prop47
 90
       50
102
RTVSPost2010PropOp47
 70
     1
102
RTVSPost2010Prop48
 90
       50
102
RTVSPost2010PropOp48
 70
     1
102
RTVSPost2010Prop49
280
     0
102
RTVSPost2010PropOp49
 70
     1
102
RTVSPost2010Prop50
 90
       50
102
RTVSPost2010PropOp50
 70
     1
102
RTVSPost2010Prop51ColorIndex
 90
      256
102
RTVSPost2010Prop51ColorRGB
 90
-16777216
102
RTVSPost2010PropOp51
 70
     0
102
RTVSPost2010Prop52
140
1.0
102
RTVSPost2010PropOp52
 70
     0
102
RTVSPost2010Prop53
 90
        2
102
RTVSPost2010PropOp53
 70
     1
102
RTVSPost2010Prop54
  1
strokes_ogs.tif
102
RTVSPost2010PropOp54
 70
     1
102
RTVSPost2010Prop55
280
     0
102
RTVSPost2010PropOp55
 70
     1
102
RTVSPost2010Prop56
140
1.0
102
RTVSPost2010PropOp56
 70
     1
102
RTVSPost2010Prop57
140
1.0
102
RTVSPost2010PropOp57
 70
     1
  0
XRECORD
  5
3357
102
{ACAD_REACTORS
330
3356
102
}
330
3356
100
AcDbXrecord
280
     1
102
RTVSPropertyOp0
 70
     1
102
RTVSPropertyOp1
 70
     1
102
RTVSPropertyOp2
 70
     1
102
RTVSPropertyOp3
 70
     1
102
RTVSPropertyOp4
 70
     1
102
RTVSPropertyOp5
 70
     1
102
RTVSPropertyOp6
 70
     1
102
RTVSPropertyOp7
 70
     1
102
RTVSPropertyOp8
 70
     1
102
RTVSPropertyOp9
 70
     1
102
RTVSPropertyOp10
 70
     1
102
RTVSPropertyOp11
 70
     1
102
RTVSPropertyOp12
 70
     1
102
RTVSPropertyOp13
 70
     1
102
RTVSPropertyOp14
 70
     1
102
RTVSPropertyOp15
 70
     1
102
RTVSPropertyOp16
 70
     1
102
RTVSPropertyOp17
 70
     1
102
RTVSPropertyOp18
 70
     1
102
RTVSPropertyOp19
 70
     1
102
RTVSPropertyOp20
 70
     1
102
RTVSPropertyOp21
 70
     1
102
RTVSPropertyOp22
 70
     1
102
RTVSPropertyOp23
 70
     1
102
RTVSPropertyOp24
 70
     1
102
RTVSPropertyOp25
 70
     1
102
RTVSPropertyOp26
 70
     1
102
RTVSPropertyOp27
 70
     1
102
RTVSPropertyOp28
 70
     1
102
RTVSPropertyOp29
 70
     1
102
RTVSPropertyOp30
 70
     1
102
RTVSPropertyOp31
 70
     1
102
RTVSPropertyOp32
 70
     1
102
RTVSPropertyOp33
 70
     1
102
RTVSPropertyOp34
 70
     1
102
RTVSPropertyOp35
 70
     1
102
RTVSPropertyOp36
 70
     1
102
RTVSPropertyOp37
 70
     1
102
RTVSPropertyOp38
 70
     1
102
RTVSPropertyOp39
 70
     1
102
RTVSPropertyOp40
 70
     1
102
RTVSPropertyOp41
 70
     1
102
RTVSPropertyOp42
 70
     1
102
RTVSPropertyOp43
 70
     1
102
RTVSPropertyOp44
 70
     1
102
RTVSPropertyOp45
 70
     1
102
RTVSPropertyOp46
 70
     1
102
RTVSPropertyOp47
 70
     1
102
RTVSPropertyOp48
 70
     1
102
RTVSPropertyOp49
 70
     1
102
RTVSPropertyOp50
 70
     1
102
RTVSPropertyOp51
 70
     0
102
RTVSPropertyOp52
 70
     0
102
RTVSPropertyOp53
 70
     1
102
RTVSPropertyOp54
 70
     1
102
RTVSPropertyOp55
 70
     1
102
RTVSPropertyOp56
 70
     1
102
RTVSPropertyOp57
 70
     1
102
RTVSPost2010Prop28
280
     0
102
RTVSPost2010PropOp28
 70
     1
102
RTVSPost2010Prop29
280
     1
102
RTVSPost2010PropOp29
 70
     1
102
RTVSPost2010Prop30
280
     1
102
RTVSPost2010PropOp30
 70
     1
102
RTVSPost2010Prop31
280
     0
102
RTVSPost2010PropOp31
 70
     1
102
RTVSPost2010Prop32
280
     0
102
RTVSPost2010PropOp32
 70
     1
102
RTVSPost2010Prop33
280
     0
102
RTVSPost2010PropOp33
 70
     1
102
RTVSPost2010Prop34
280
     0
102
RTVSPost2010PropOp34
 70
     1
102
RTVSPost2010Prop35
280
     0
102
RTVSPost2010PropOp35
 70
     1
102
RTVSPost2010Prop36
280
     0
102
RTVSPost2010PropOp36
 70
     1
102
RTVSPost2010Prop37
 90
       50
102
RTVSPost2010PropOp37
 70
     1
102
RTVSPost2010Prop38
140
0.0
102
RTVSPost2010PropOp38
 70
     1
102
RTVSPost2010Prop39
140
1.0
102
RTVSPost2010PropOp39
 70
     1
102
RTVSPost2010Prop40
 90
        0
102
RTVSPost2010PropOp40
 70
     1
102
RTVSPost2010Prop41ColorIndex
 90
       18
102
RTVSPost2010Prop41ColorRGB
 90
        0
102
RTVSPost2010PropOp41
 70
     1
102
RTVSPost2010Prop42
 90
       50
102
RTVSPost2010PropOp42
 70
     1
102
RTVSPost2010Prop43
 90
        3
102
RTVSPost2010PropOp43
 70
     1
102
RTVSPost2010Prop44ColorIndex
 90
        5
102
RTVSPost2010Prop44ColorRGB
 90
      255
102
RTVSPost2010PropOp44
 70
     1
102
RTVSPost2010Prop45
280
     0
102
RTVSPost2010PropOp45
 70
     1
102
RTVSPost2010Prop46
 90
       50
102
RTVSPost2010PropOp46
 70
     1
102
RTVSPost2010Prop47
 90
       50
102
RTVSPost2010PropOp47
 70
     1
102
RTVSPost2010Prop48
 90
       50
102
RTVSPost2010PropOp48
 70
     1
102
RTVSPost2010Prop49
280
     0
102
RTVSPost2010PropOp49
 70
     1
102
RTVSPost2010Prop50
 90
       50
102
RTVSPost2010PropOp50
 70
     1
102
RTVSPost2010Prop51ColorIndex
 90
      256
102
RTVSPost2010Prop51ColorRGB
 90
-16777216
102
RTVSPost2010PropOp51
 70
     0
102
RTVSPost2010Prop52
140
1.0
102
RTVSPost2010PropOp52
 70
     0
102
RTVSPost2010Prop53
 90
        2
102
RTVSPost2010PropOp53
 70
     1
102
RTVSPost2010Prop54
  1
strokes_ogs.tif
102
RTVSPost2010PropOp54
 70
     1
102
RTVSPost2010Prop55
280
     0
102
RTVSPost2010PropOp55
 70
     1
102
RTVSPost2010Prop56
140
1.0
102
RTVSPost2010PropOp56
 70
     1
102
RTVSPost2010Prop57
140
1.0
102
RTVSPost2010PropOp57
 70
     1
  0
ENDSEC
  0
EOF
