  0
SECTION
  2
HEADER
  9
$ACADVER
  1
AC1015
  9
$ACADMAINTVER
 70
     6
  9
$DWGCODEPAGE
  3
ANSI_1252
  9
$INSBASE
 10
0.0
 20
0.0
 30
0.0
  9
$EXTMIN
 10
149.3521014638176
 20
19.43303461684769
 30
0.0
  9
$EXTMAX
 10
216.0898526471915
 20
209.0532941469957
 30
0.0
  9
$LIMMIN
 10
0.0
 20
0.0
  9
$LIMMAX
 10
420.0
 20
297.0
  9
$ORTHOMODE
 70
     0
  9
$REGENMODE
 70
     1
  9
$FILLMODE
 70
     1
  9
$QTEXTMODE
 70
     0
  9
$MIRRTEXT
 70
     1
  9
$LTSCALE
 40
1.0
  9
$ATTMODE
 70
     1
  9
$TEXTSIZE
 40
3.0
  9
$TRACEWID
 40
1.0
  9
$TEXTSTYLE
  7
STANDARD
  9
$CLAYER
  8
OTROS
  9
$CELTYPE
  6
BYLAYER
  9
$CECOLOR
 62
   256
  9
$CELTSCALE
 40
1.0
  9
$DISPSILH
 70
     0
  9
$DIMSCALE
 40
1.0
  9
$DIMASZ
 40
4.0
  9
$DIMEXO
 40
0.625
  9
$DIMDLI
 40
3.75
  9
$DIMRND
 40
0.0
  9
$DIMDLE
 40
0.0
  9
$DIMEXE
 40
1.25
  9
$DIMTP
 40
0.0
  9
$DIMTM
 40
0.0
  9
$DIMTXT
 40
4.0
  9
$DIMCEN
 40
2.5
  9
$DIMTSZ
 40
0.0
  9
$DIMTOL
 70
     0
  9
$DIMLIM
 70
     0
  9
$DIMTIH
 70
     0
  9
$DIMTOH
 70
     0
  9
$DIMSE1
 70
     0
  9
$DIMSE2
 70
     0
  9
$DIMTAD
 70
     1
  9
$DIMZIN
 70
     8
  9
$DIMBLK
  1

  9
$DIMASO
 70
     1
  9
$DIMSHO
 70
     1
  9
$DIMPOST
  1

  9
$DIMAPOST
  1

  9
$DIMALT
 70
     0
  9
$DIMALTD
 70
     4
  9
$DIMALTF
 40
0.0394
  9
$DIMLFAC
 40
1.0
  9
$DIMTOFL
 70
     1
  9
$DIMTVP
 40
0.0
  9
$DIMTIX
 70
     0
  9
$DIMSOXD
 70
     0
  9
$DIMSAH
 70
     0
  9
$DIMBLK1
  1

  9
$DIMBLK2
  1

  9
$DIMSTYLE
  2
ISO-25_WS
  9
$DIMCLRD
 70
   256
  9
$DIMCLRE
 70
   256
  9
$DIMCLRT
 70
   256
  9
$DIMTFAC
 40
1.0
  9
$DIMGAP
 40
0.625
  9
$DIMJUST
 70
     0
  9
$DIMSD1
 70
     0
  9
$DIMSD2
 70
     0
  9
$DIMTOLJ
 70
     1
  9
$DIMTZIN
 70
     0
  9
$DIMALTZ
 70
     0
  9
$DIMALTTZ
 70
     0
  9
$DIMUPT
 70
     0
  9
$DIMDEC
 70
     0
  9
$DIMTDEC
 70
     0
  9
$DIMALTU
 70
     8
  9
$DIMALTTD
 70
     4
  9
$DIMTXSTY
  7
ROMANS
  9
$DIMAUNIT
 70
     0
  9
$DIMADEC
 70
     0
  9
$DIMALTRND
 40
0.0
  9
$DIMAZIN
 70
     0
  9
$DIMDSEP
 70
    46
  9
$DIMATFIT
 70
     3
  9
$DIMFRAC
 70
     0
  9
$DIMLDRBLK
  1

  9
$DIMLUNIT
 70
     2
  9
$DIMLWD
 70
    -2
  9
$DIMLWE
 70
    -2
  9
$DIMTMOVE
 70
     0
  9
$LUNITS
 70
     2
  9
$LUPREC
 70
     0
  9
$SKETCHINC
 40
1.0
  9
$FILLETRAD
 40
1.0
  9
$AUNITS
 70
     0
  9
$AUPREC
 70
     0
  9
$MENU
  1
.
  9
$ELEVATION
 40
0.0
  9
$PELEVATION
 40
0.0
  9
$THICKNESS
 40
0.0
  9
$LIMCHECK
 70
     0
  9
$CHAMFERA
 40
0.0
  9
$CHAMFERB
 40
0.0
  9
$CHAMFERC
 40
20.0
  9
$CHAMFERD
 40
0.0
  9
$SKPOLY
 70
     1
  9
$TDCREATE
 40
2451967.578746169
  9
$TDUCREATE
 40
2451967.537079502
  9
$TDUPDATE
 40
2460006.348847303
  9
$TDUUPDATE
 40
2460006.307180637
  9
$TDINDWG
 40
0.2687522338
  9
$TDUSRTIMER
 40
0.2687522338
  9
$USRTIMER
 70
     1
  9
$ANGBASE
 50
0.0
  9
$ANGDIR
 70
     0
  9
$PDMODE
 70
     0
  9
$PDSIZE
 40
0.0
  9
$PLINEWID
 40
0.0
  9
$SPLFRAME
 70
     0
  9
$SPLINETYPE
 70
     6
  9
$SPLINESEGS
 70
     8
  9
$HANDSEED
  5
3346
  9
$SURFTAB1
 70
     6
  9
$SURFTAB2
 70
     6
  9
$SURFTYPE
 70
     6
  9
$SURFU
 70
     6
  9
$SURFV
 70
     6
  9
$UCSBASE
  2

  9
$UCSNAME
  2

  9
$UCSORG
 10
0.0
 20
0.0
 30
0.0
  9
$UCSXDIR
 10
1.0
 20
0.0
 30
0.0
  9
$UCSYDIR
 10
0.0
 20
1.0
 30
0.0
  9
$UCSORTHOREF
  2

  9
$UCSORTHOVIEW
 70
     0
  9
$UCSORGTOP
 10
0.0
 20
0.0
 30
0.0
  9
$UCSORGBOTTOM
 10
0.0
 20
0.0
 30
0.0
  9
$UCSORGLEFT
 10
0.0
 20
0.0
 30
0.0
  9
$UCSORGRIGHT
 10
0.0
 20
0.0
 30
0.0
  9
$UCSORGFRONT
 10
0.0
 20
0.0
 30
0.0
  9
$UCSORGBACK
 10
0.0
 20
0.0
 30
0.0
  9
$PUCSBASE
  2

  9
$PUCSNAME
  2

  9
$PUCSORG
 10
0.0
 20
0.0
 30
0.0
  9
$PUCSXDIR
 10
1.0
 20
0.0
 30
0.0
  9
$PUCSYDIR
 10
0.0
 20
1.0
 30
0.0
  9
$PUCSORTHOREF
  2

  9
$PUCSORTHOVIEW
 70
     0
  9
$PUCSORGTOP
 10
0.0
 20
0.0
 30
0.0
  9
$PUCSORGBOTTOM
 10
0.0
 20
0.0
 30
0.0
  9
$PUCSORGLEFT
 10
0.0
 20
0.0
 30
0.0
  9
$PUCSORGRIGHT
 10
0.0
 20
0.0
 30
0.0
  9
$PUCSORGFRONT
 10
0.0
 20
0.0
 30
0.0
  9
$PUCSORGBACK
 10
0.0
 20
0.0
 30
0.0
  9
$USERI1
 70
     0
  9
$USERI2
 70
     0
  9
$USERI3
 70
     0
  9
$USERI4
 70
     0
  9
$USERI5
 70
     0
  9
$USERR1
 40
0.0
  9
$USERR2
 40
0.0
  9
$USERR3
 40
0.0
  9
$USERR4
 40
0.0
  9
$USERR5
 40
0.0
  9
$WORLDVIEW
 70
     1
  9
$SHADEDGE
 70
     3
  9
$SHADEDIF
 70
    70
  9
$TILEMODE
 70
     0
  9
$MAXACTVP
 70
    48
  9
$PINSBASE
 10
0.0
 20
0.0
 30
0.0
  9
$PLIMCHECK
 70
     0
  9
$PEXTMIN
 10
24.00475073910343
 20
3.00077133648881
 30
-0.0000000000112498
  9
$PEXTMAX
 10
204.5139488389271
 20
289.79008973749
 30
0.0000000000002956
  9
$PLIMMIN
 10
20.86890942764536
 20
-0.1201982338664478
  9
$PLIMMAX
 10
227.9515742966584
 20
292.9110579433122
  9
$UNITMODE
 70
     0
  9
$VISRETAIN
 70
     1
  9
$PLINEGEN
 70
     0
  9
$PSLTSCALE
 70
     1
  9
$TREEDEPTH
 70
  3020
  9
$CMLSTYLE
  2
STANDARD
  9
$CMLJUST
 70
     0
  9
$CMLSCALE
 40
1.0
  9
$PROXYGRAPHICS
 70
     1
  9
$MEASUREMENT
 70
     1
  9
$CELWEIGHT
370
    -1
  9
$ENDCAPS
280
     0
  9
$JOINSTYLE
280
     0
  9
$LWDISPLAY
290
     0
  9
$INSUNITS
 70
     0
  9
$HYPERLINKBASE
  1

  9
$STYLESHEET
  1

  9
$XEDIT
290
     1
  9
$CEPSNTYPE
380
     0
  9
$PSTYLEMODE
290
     1
  9
$FINGERPRINTGUID
  2
{7F82BA3E-8432-47FD-A45B-0B52B3216B34}
  9
$VERSIONGUID
  2
{ABA4FB7A-662D-4B25-B337-A57A31D6A70B}
  9
$EXTNAMES
290
     1
  9
$PSVPSCALE
 40
0.0
  9
$OLESTARTUP
290
     0
  0
ENDSEC
  0
SECTION
  2
CLASSES
  0
CLASS
  1
DICTIONARYVAR
  2
AcDbDictionaryVar
  3
ObjectDBX Classes
 90
        0
280
     0
281
     0
  0
CLASS
  1
HATCH
  2
AcDbHatch
  3
ObjectDBX Classes
 90
        0
280
     0
281
     1
  0
CLASS
  1
ACDBDICTIONARYWDFLT
  2
AcDbDictionaryWithDefault
  3
ObjectDBX Classes
 90
        0
280
     0
281
     0
  0
CLASS
  1
MATERIAL
  2
AcDbMaterial
  3
ObjectDBX Classes
 90
     1153
280
     0
281
     0
  0
CLASS
  1
VISUALSTYLE
  2
AcDbVisualStyle
  3
ObjectDBX Classes
 90
     4095
280
     0
281
     0
  0
CLASS
  1
TABLESTYLE
  2
AcDbTableStyle
  3
ObjectDBX Classes
 90
     4095
280
     0
281
     0
  0
CLASS
  1
SCALE
  2
AcDbScale
  3
ObjectDBX Classes
 90
     1153
280
     0
281
     0
  0
CLASS
  1
MLEADERSTYLE
  2
AcDbMLeaderStyle
  3
ACDB_MLEADERSTYLE_CLASS
 90
     4095
280
     0
281
     0
  0
CLASS
  1
ACDBPLACEHOLDER
  2
AcDbPlaceHolder
  3
ObjectDBX Classes
 90
        0
280
     0
281
     0
  0
CLASS
  1
LAYOUT
  2
AcDbLayout
  3
ObjectDBX Classes
 90
        0
280
     0
281
     0
  0
ENDSEC
  0
SECTION
  2
TABLES
  0
TABLE
  2
VPORT
  5
8
102
{ACAD_XDICTIONARY
360
32FB
102
}
330
0
100
AcDbSymbolTable
 70
     1
  0
VPORT
  5
326A
330
8
100
AcDbSymbolTableRecord
100
AcDbViewportTableRecord
  2
*ACTIVE
 70
     0
 10
0.0
 20
0.0
 11
1.0
 21
1.0
 12
244.32890625
 22
148.5
 13
0.0
 23
0.0
 14
10.0
 24
10.0
 15
10.0
 25
10.0
 16
0.0
 26
0.0
 36
1.0
 17
0.0
 27
0.0
 37
0.0
 40
297.0
 41
1.6453125
 42
50.0
 43
0.0
 44
0.0
 50
0.0
 51
0.0
 71
     0
 72
   100
 73
     1
 74
     1
 75
     0
 76
     0
 77
     0
 78
     0
281
     0
 65
     1
110
0.0
120
0.0
130
0.0
111
1.0
121
0.0
131
0.0
112
0.0
122
1.0
132
0.0
 79
     0
146
0.0
  0
ENDTAB
  0
TABLE
  2
LTYPE
  5
5
330
0
100
AcDbSymbolTable
 70
     1
  0
LTYPE
  5
14
330
5
100
AcDbSymbolTableRecord
100
AcDbLinetypeTableRecord
  2
BYBLOCK
 70
     0
  3

 72
    65
 73
     0
 40
0.0
  0
LTYPE
  5
15
330
5
100
AcDbSymbolTableRecord
100
AcDbLinetypeTableRecord
  2
BYLAYER
 70
     0
  3

 72
    65
 73
     0
 40
0.0
  0
LTYPE
  5
16
330
5
100
AcDbSymbolTableRecord
100
AcDbLinetypeTableRecord
  2
CONTINUOUS
 70
     0
  3
Solid line
 72
    65
 73
     0
 40
0.0
  0
ENDTAB
  0
TABLE
  2
LAYER
  5
2
102
{ACAD_XDICTIONARY
360
32BA
102
}
330
0
100
AcDbSymbolTable
 70
    10
  0
LAYER
  5
F
330
2
100
AcDbSymbolTableRecord
100
AcDbLayerTableRecord
  2
0
 70
     0
 62
     5
  6
CONTINUOUS
370
    -3
390
3283
  0
LAYER
  5
8A
330
2
100
AcDbSymbolTableRecord
100
AcDbLayerTableRecord
  2
FORMATO
 70
     0
 62
     7
  6
CONTINUOUS
370
    -3
390
3283
  0
LAYER
  5
8B
330
2
100
AcDbSymbolTableRecord
100
AcDbLayerTableRecord
  2
ASHADE
 70
     0
 62
     5
  6
CONTINUOUS
370
    -3
390
3283
  0
LAYER
  5
8C
330
2
100
AcDbSymbolTableRecord
100
AcDbLayerTableRecord
  2
SOMBREA
 70
     0
 62
     5
  6
CONTINUOUS
370
    -3
390
3283
  0
LAYER
  5
CD
330
2
100
AcDbSymbolTableRecord
100
AcDbLayerTableRecord
  2
VIEWPORT
 70
     1
 62
    -5
  6
CONTINUOUS
370
    -3
390
3283
  0
LAYER
  5
52F
330
2
100
AcDbSymbolTableRecord
100
AcDbLayerTableRecord
  2
SOPORTES
 70
     0
 62
     7
  6
CONTINUOUS
370
    -3
390
3283
  0
LAYER
  5
530
330
2
100
AcDbSymbolTableRecord
100
AcDbLayerTableRecord
  2
BANDEJAS
 70
     0
 62
     3
  6
CONTINUOUS
370
    -3
390
3283
  0
LAYER
  5
531
330
2
100
AcDbSymbolTableRecord
100
AcDbLayerTableRecord
  2
TORNILLERIA
 70
     0
 62
     6
  6
CONTINUOUS
370
    -3
390
3283
  0
LAYER
  5
532
330
2
100
AcDbSymbolTableRecord
100
AcDbLayerTableRecord
  2
OTROS
 70
     0
 62
     4
  6
CONTINUOUS
370
    -3
390
3283
  0
LAYER
  5
E9B
330
2
100
AcDbSymbolTableRecord
100
AcDbLayerTableRecord
  2
COTAS
 70
     0
 62
     5
  6
CONTINUOUS
370
    -3
390
3283
  0
ENDTAB
  0
TABLE
  2
STYLE
  5
3
330
0
100
AcDbSymbolTable
 70
     3
  0
STYLE
  5
10
330
3
100
AcDbSymbolTableRecord
100
AcDbTextStyleTableRecord
  2
STANDARD
 70
     0
 40
0.0
 41
1.0
 50
0.0
 71
     0
 42
3.0
  3
ISOCP
  4

  0
STYLE
  5
8E
330
3
100
AcDbSymbolTableRecord
100
AcDbTextStyleTableRecord
  2
ROMANS
 70
     0
 40
0.0
 41
1.0
 50
0.0
 71
     0
 42
3.0
  3
romans
  4

  0
STYLE
  5
E9D
330
3
100
AcDbSymbolTableRecord
100
AcDbTextStyleTableRecord
  2
ESTANDAR
 70
     0
 40
0.0
 41
1.0
 50
0.0
 71
     0
 42
0.2
  3
txt
  4

  0
ENDTAB
  0
TABLE
  2
VIEW
  5
6
330
0
100
AcDbSymbolTable
 70
     0
  0
ENDTAB
  0
TABLE
  2
UCS
  5
7
330
0
100
AcDbSymbolTable
 70
     0
  0
ENDTAB
  0
TABLE
  2
APPID
  5
9
330
0
100
AcDbSymbolTable
 70
     6
  0
APPID
  5
11
330
9
100
AcDbSymbolTableRecord
100
AcDbRegAppTableRecord
  2
ACAD
 70
     0
  0
APPID
  5
91
330
9
100
AcDbSymbolTableRecord
100
AcDbRegAppTableRecord
  2
AVE_RENDER
 70
     0
  0
APPID
  5
92
330
9
100
AcDbSymbolTableRecord
100
AcDbRegAppTableRecord
  2
AME_SOL
 70
     0
  0
APPID
  5
EA0
330
9
100
AcDbSymbolTableRecord
100
AcDbRegAppTableRecord
  2
CONTENTBLOCKICON
 70
     0
  0
APPID
  5
32A5
330
9
100
AcDbSymbolTableRecord
100
AcDbRegAppTableRecord
  2
ACAD_PSEXT
 70
     0
  0
APPID
  5
333A
330
9
100
AcDbSymbolTableRecord
100
AcDbRegAppTableRecord
  2
ACAD_MLEADERVER
 70
     0
  0
ENDTAB
  0
TABLE
  2
DIMSTYLE
  5
A
330
0
100
AcDbSymbolTable
 70
     2
100
AcDbDimStyleTable
  0
DIMSTYLE
105
1D
330
A
100
AcDbSymbolTableRecord
100
AcDbDimStyleTableRecord
  2
STANDARD
 70
     0
 41
2.5
 42
0.625
 43
3.75
 44
1.25
 73
     0
 74
     0
 77
     1
 78
     8
140
2.5
141
2.5
143
0.0394
147
0.625
171
     4
172
     1
178
     0
273
     8
274
     4
277
     6
340
10
  0
DIMSTYLE
105
D0
330
A
100
AcDbSymbolTableRecord
100
AcDbDimStyleTableRecord
  2
ISO-25_WS
 70
     0
 41
2.5
 42
0.625
 43
3.75
 44
1.25
 73
     0
 74
     0
 77
     1
 78
     8
140
2.5
141
2.5
143
0.0394
147
0.625
171
     4
172
     1
178
     0
271
     0
272
     0
273
     8
274
     4
340
10
  0
ENDTAB
  0
TABLE
  2
BLOCK_RECORD
  5
1
330
0
100
AcDbSymbolTable
 70
     3
  0
BLOCK_RECORD
  5
1A
330
1
100
AcDbSymbolTableRecord
100
AcDbBlockTableRecord
  2
*MODEL_SPACE
340
329F
  0
BLOCK_RECORD
  5
17
330
1
100
AcDbSymbolTableRecord
100
AcDbBlockTableRecord
  2
*PAPER_SPACE
340
32A0
  0
BLOCK_RECORD
  5
7F
330
1
100
AcDbSymbolTableRecord
100
AcDbBlockTableRecord
  2
AVE_RENDER
340
0
102
{BLKREFS
331
2D6
331
2D7
331
2D8
331
2D9
331
2DA
331
2DB
331
11B3
331
11B4
331
11B5
331
2B86
331
2B87
331
2B88
331
2B90
331
2B91
331
2B92
331
2DC0
331
2DC1
331
2DC2
331
2DC3
331
2DC4
331
2DC5
331
2DEC
331
2DED
331
2DEE
331
2E5A
331
2E5B
331
2E5C
331
3035
331
3036
331
3037
331
3038
331
3039
331
303A
331
3061
331
3062
331
3063
331
30B5
331
30B6
331
30B7
331
3202
331
3203
331
3204
331
320C
331
320D
331
320E
331
DE3
331
DE4
331
DE5
102
}
  0
BLOCK_RECORD
  5
82
330
1
100
AcDbSymbolTableRecord
100
AcDbBlockTableRecord
  2
AME_NIL
340
0
102
{BLKREFS
331
2DC
331
2DD
331
2DE
331
B91
331
B92
331
B93
331
1186
331
1187
331
1188
331
11B6
331
11B7
331
11B8
331
11BB
331
11BC
331
11BD
331
2803
331
2804
331
2805
331
2DC6
331
2DC7
331
2DC8
331
2DD9
331
2DDA
331
2DDB
331
2DE8
331
2DE9
331
2DEA
331
2DEF
331
2DF0
331
2DF1
331
2DF3
331
2DF4
331
2DF5
331
2E04
331
2E05
331
2E06
331
303B
331
303C
331
303D
331
304E
331
304F
331
3050
331
305D
331
305E
331
305F
331
3064
331
3065
331
3066
331
3068
331
3069
331
306A
331
3079
331
307A
331
307B
331
DDF
331
DE0
331
DE1
102
}
  0
BLOCK_RECORD
  5
85
330
1
100
AcDbSymbolTableRecord
100
AcDbBlockTableRecord
  2
AME_SOL
340
0
102
{BLKREFS
331
2DF
331
B94
331
1189
331
11B9
331
11BE
331
2806
331
2DC9
331
2DDC
331
2DEB
331
2DF2
331
2DF6
331
2E07
331
303E
331
3051
331
3060
331
3067
331
306B
331
307C
331
DE2
102
}
  0
ENDTAB
  0
ENDSEC
  0
SECTION
  2
BLOCKS
  0
BLOCK
  5
1B
330
1A
100
AcDbEntity
  8
0
370
    -1
100
AcDbBlockBegin
  2
*MODEL_SPACE
 70
     0
 10
0.0
 20
0.0
 30
0.0
  3
*MODEL_SPACE
  1

  0
ENDBLK
  5
1C
330
1A
100
AcDbEntity
  8
0
370
    -1
100
AcDbBlockEnd
  0
BLOCK
  5
18
330
17
100
AcDbEntity
 67
     1
  8
0
370
    -1
100
AcDbBlockBegin
  2
*PAPER_SPACE
 70
     0
 10
0.0
 20
0.0
 30
0.0
  3
*PAPER_SPACE
  1

  0
ENDBLK
  5
19
330
17
100
AcDbEntity
 67
     1
  8
0
370
    -1
100
AcDbBlockEnd
  0
BLOCK
  5
80
330
7F
100
AcDbEntity
  8
0
370
    -1
100
AcDbBlockBegin
  2
AVE_RENDER
 70
     0
 10
0.0
 20
0.0
 30
0.0
  3
AVE_RENDER
  1
AVE_RENDER
  0
ENDBLK
  5
81
330
7F
100
AcDbEntity
  8
0
370
    -1
100
AcDbBlockEnd
  0
BLOCK
  5
83
330
82
100
AcDbEntity
  8
0
370
    -1
100
AcDbBlockBegin
  2
AME_NIL
 70
     0
 10
0.0
 20
0.0
 30
0.0
  3
AME_NIL
  1
AME_NIL
  0
ENDBLK
  5
84
330
82
100
AcDbEntity
  8
0
370
    -1
100
AcDbBlockEnd
  0
BLOCK
  5
86
330
85
100
AcDbEntity
  8
0
370
    -1
100
AcDbBlockBegin
  2
AME_SOL
 70
     0
 10
0.0
 20
0.0
 30
0.0
  3
AME_SOL
  1
AME_SOL
  0
ENDBLK
  5
87
330
85
100
AcDbEntity
  8
0
370
    -1
100
AcDbBlockEnd
  0
ENDSEC
  0
SECTION
  2
ENTITIES
  0
INSERT
  5
2D6
330
1A
100
AcDbEntity
  8
ASHADE
 62
     1
370
    -1
100
AcDbBlockReference
  2
AVE_RENDER
 10
0.0
 20
0.0
 30
0.0
1001
AVE_RENDER
1002
{
1070
     2
1000
Pref
1070
    30
1070
    20
1070
     0
1070
     0
1000

1070
    10
1070
     0
1070
    30
1040
1.0
1070
     1
1040
0.3
1040
0.7
1040
0.0
1040
10.0
1010
-1.0
1020
-1.0
1030
-1.0
1040
0.3
1070
    49
1002
}
  0
INSERT
  5
2D7
330
1A
100
AcDbEntity
  8
ASHADE
 62
     3
370
    -1
100
AcDbBlockReference
  2
AVE_RENDER
 10
0.0
 20
0.0
 30
0.0
1001
AVE_RENDER
1002
{
1070
     0
1000
Full Opt
1070
     0
1070
     1
1070
     1
1070
     1
1070
     0
1070
     0
1070
     0
1070
     1
1070
     1
1040
0.0001
1040
0.0001
1002
}
  0
INSERT
  5
2D8
330
1A
100
AcDbEntity
  8
ASHADE
 62
     4
370
    -1
100
AcDbBlockReference
  2
AVE_RENDER
 10
0.0
 20
0.0
 30
0.0
1001
AVE_RENDER
1002
{
1070
     0
1000
Quick Opt
1070
     0
1070
     1
1070
     1
1070
     1
1070
     0
1070
     0
1070
     1
1002
}
  0
INSERT
  5
2D9
330
1A
100
AcDbEntity
  8
ASHADE
 62
     1
370
    -1
100
AcDbBlockReference
  2
AVE_RENDER
 10
0.0
 20
0.0
 30
0.0
1001
AVE_RENDER
1002
{
1070
     2
1000
Pref
1070
    30
1070
    20
1070
     0
1070
     0
1000

1070
    10
1070
     0
1070
    30
1040
1.0
1070
     1
1040
0.3
1040
0.7
1040
0.0
1040
10.0
1010
-1.0
1020
-1.0
1030
-1.0
1040
0.3
1070
    49
1002
}
  0
INSERT
  5
2DA
330
1A
100
AcDbEntity
  8
ASHADE
 62
     3
370
    -1
100
AcDbBlockReference
  2
AVE_RENDER
 10
0.0
 20
0.0
 30
0.0
1001
AVE_RENDER
1002
{
1070
     0
1000
Full Opt
1070
     0
1070
     1
1070
     1
1070
     1
1070
     0
1070
     0
1070
     0
1070
     1
1070
     1
1040
0.0001
1040
0.0001
1002
}
  0
INSERT
  5
2DB
330
1A
100
AcDbEntity
  8
ASHADE
 62
     4
370
    -1
100
AcDbBlockReference
  2
AVE_RENDER
 10
0.0
 20
0.0
 30
0.0
1001
AVE_RENDER
1002
{
1070
     0
1000
Quick Opt
1070
     0
1070
     1
1070
     1
1070
     1
1070
     0
1070
     0
1070
     1
1002
}
  0
INSERT
  5
2DC
330
1A
100
AcDbEntity
  8
SOMBREA
370
    -1
100
AcDbBlockReference
  2
AME_NIL
 10
25.14450809000432
 20
42.42209720895579
 30
0.0
  0
INSERT
  5
2DD
330
1A
100
AcDbEntity
  8
SOMBREA
370
    -1
100
AcDbBlockReference
  2
AME_NIL
 10
26.14450809000432
 20
43.42209720895579
 30
1.0
1001
AME_SOL
1004
C7CF0100AD005601550153014F01470122003A0129012D0017013B001000D90048013F003B019900DD00500149013C015600FD003D012A01B400FB002B01F40081004A013E012C01D1001801910005002D011901FC008E001A011500DA003F012E011B01840053001C01BF000C01F2000F002F011D010D01
1004
BC0079000E01BB0031001E010F016B00390010017400050165000400540151014B014001400030014E0019004101030031011F01FF00B1002001A90080004C01F0004201010032019700590052014D01430133018500E8003401AD0021010900440044013501220175005F002301DF002800360124012100
1004
5400250111014D0064001201D800A7004E0145013701260113016900960014010601EF00EE000701BD00A4002701150108018900380009017300620016010A0101010001F70002011C00D6000B010301BE00520004013D00660038010200C00046012B00390128016700EA00460000007D49F524E2AB4D13
1004
1313373AE652ADC721200C4BCEC721200C4BCECD834E393735323A1C8480312F20390900625E41BADF44E00A7EA12DCA9D9D4721200C4BCEC721200C4BCECD834E393735323A1C8480312F20390900625E41BADF44E00A7EA12D7D44169A8EB75AF9DF517FA85FFFFFFFA85FFFFFFFE675170CA182CF20A2
1004
E1943059E43FFFFFDF517FA85FFFFFFFA85FFFFFFFE675170CA182CF20A2E1943059E43FFFFF509B8FBEE168FF50BFFFFFFF50BFC33E9ECEE7C3CBCE328B8650C16790FF757EB99018AF60D4FD7320315EC1A7FDD77EB99018AF60D5FFFA84FD7320315EC1A56FFFFA84EAF9DF3ADFFFF509B8FAB770B47F
1004
A85FFFFFFFA85FEA2E1943059E43FFFDD5FAE64062BD8353F5CC80C57B069FF75DFAE64062BD8357FFEA13F5CC80C57B0695BFFFEA13ABE77CEB7FFFD426E3EBAEE168FF50BFFFFFFF50BFC33E9ECEE7C3CBCE328B8650C1679DFFBABF5CC80C57B06A7EB99018AF60D3FEEBBF5CC80C57B06AFE9FFA84FD
1004
7320315EC1A56FFD3FF509D5F3BE75BFF4FFD426E3EA5DC2D1FEA17FFFFFFEA17FA8B8650C1679D867D3D9DCF8790A73DFEEAFD7320315EC1A9FAE64062BD834FFBAEFD7320315EC1ABFFF509FAE64062BD834ADFFFF509D5F3BE75BFFFEA1153B2D1C8480312F3B1C8480312F3B360D38E4DCD4C8E87212
1004
00C4BC80E4240189790360D38E4DCD4C84B4E111F8F48EB75AE7F9C22FF50BFFFFFA7FEA3AFE9FFFFFFE67FFFFFFFFFF3845FEA17FFFFF4FFD475FD3FFFFFFCCFFFFFFFFFFA8454ECB4721200C4BCEC721200C4BCEDC94D72C2390E538821C8480312F20390900625E41BADF44E00A7EA12D3844DE3C23AD
1004
D69FDCE117FA85FFFFFFFA85FFFFFFFA8467FFFFFFFFFF3845FEA17FFFFFFEA17FFFFFFEA119FFFFFFFFFF509C7714721200C4BCEC721200C4BCEDC94D72C2390E538821C8480312F20390900625E41BADF44E00A7EA13584676D2AD8CCEDAC233B6956C6641D4D1A1CD39B47D3131685A6A3B78F08FBA85
1004
A6A3B78F08EB75B9A347FA85FFFFFFFA85FFFFFFFA847FD45C32860B3C828B8650C167906B08CEDA55B199DB584676D2AD8CC838EE28E424018979D8E424018979D9B069C726E6A6474390900625E40721200C4BC81B069C726E6A6426B08CEDA55B199DB584676D2AD8CC83A9A34379CE23EB531302D351
1004
CFC7A47DD4FC7A470B4D475BADCD1A3FD42FFFFFFFD42FFFFFFFF3FEA2E1943059E4145C32860B3C83584676D2AD8CCEDAC233B6956C664119A3987F
1005
0
  0
INSERT
  5
2DE
330
1A
100
AcDbEntity
  8
SOMBREA
370
    -1
100
AcDbBlockReference
  2
AME_NIL
 10
26.14450809000432
 20
43.42209720895579
 30
1.0
1001
AME_SOL
1004

1005
0
  0
INSERT
  5
2DF
330
1A
100
AcDbEntity
  8
SOMBREA
370
    -1
100
AcDbBlockReference
  2
AME_SOL
 10
25.14450809000432
 20
42.42209720895579
 30
0.0
1001
AME_SOL
1000
R2.1
1000
AME2
1000
cm^ 2
1070
     3
1070
     0
1070
     3
1000
wire
1040
45.0
1000
U
1040
1.0
1000
mm
1000
gm
1000
MILD_STEEL
1070
    25
1000
CSG
1070
     1
1070
     3
1070
     3
1070
     6
1070
     0
1000
cm^ 3
1070
     1
1070
     0
1005
0
  0
INSERT
  5
B91
330
1A
100
AcDbEntity
  8
SOMBREA
370
    -1
100
AcDbBlockReference
  2
AME_NIL
 10
404.8909553890958
 20
164.7051795196725
 30
0.0
 41
0.5
 42
0.5
 43
0.5
  0
INSERT
  5
B92
330
1A
100
AcDbEntity
  8
SOMBREA
370
    -1
100
AcDbBlockReference
  2
AME_NIL
 10
405.3909553890958
 20
165.2051795196725
 30
0.5
 41
0.5
 42
0.5
 43
0.5
1001
AME_SOL
1004
C7CF0100AD005601550153014F01470122003A0129012D0017013B001000D90048013F003B019900DD00500149013C015600FD003D012A01B400FB002B01F40081004A013E012C01D1001801910005002D011901FC008E001A011500DA003F012E011B01840053001C01BF000C01F2000F002F011D010D01
1004
BC0079000E01BB0031001E010F016B00390010017400050165000400540151014B014001400030014E0019004101030031011F01FF00B1002001A90080004C01F0004201010032019700590052014D01430133018500E8003401AD0021010900440044013501220175005F002301DF002800360124012100
1004
5400250111014D0064001201D800A7004E0145013701260113016900960014010601EF00EE000701BD00A4002701150108018900380009017300620016010A0101010001F70002011C00D6000B010301BE00520004013D00660038010200C00046012B00390128016700EA00460000007D49F524E2AB4D13
1004
1313373AE652ADC721200C4BCEC721200C4BCECD834E393735323A1C8480312F20390900625E41BADF44E00A7EA12DCA9D9D4721200C4BCEC721200C4BCECD834E393735323A1C8480312F20390900625E41BADF44E00A7EA12D7D44169A8EB75AF9DF517FA85FFFFFFFA85FFFFFFFE675170CA182CF20A2
1004
E1943059E43FFFFFDF517FA85FFFFFFFA85FFFFFFFE675170CA182CF20A2E1943059E43FFFFF509B8FBEE168FF50BFFFFFFF50BFC33E9ECEE7C3CBCE328B8650C16790FF757EB99018AF60D4FD7320315EC1A7FDD77EB99018AF60D5FFFA84FD7320315EC1A56FFFFA84EAF9DF3ADFFFF509B8FAB770B47F
1004
A85FFFFFFFA85FEA2E1943059E43FFFDD5FAE64062BD8353F5CC80C57B069FF75DFAE64062BD8357FFEA13F5CC80C57B0695BFFFEA13ABE77CEB7FFFD426E3EBAEE168FF50BFFFFFFF50BFC33E9ECEE7C3CBCE328B8650C1679DFFBABF5CC80C57B06A7EB99018AF60D3FEEBBF5CC80C57B06AFE9FFA84FD
1004
7320315EC1A56FFD3FF509D5F3BE75BFF4FFD426E3EA5DC2D1FEA17FFFFFFEA17FA8B8650C1679D867D3D9DCF8790A73DFEEAFD7320315EC1A9FAE64062BD834FFBAEFD7320315EC1ABFFF509FAE64062BD834ADFFFF509D5F3BE75BFFFEA1153B2D1C8480312F3B1C8480312F3B360D38E4DCD4C8E87212
1004
00C4BC80E4240189790360D38E4DCD4C84B4E111F8F48EB75AE7F9C22FF50BFFFFFA7FEA3AFE9FFFFFFE67FFFFFFFFFF3845FEA17FFFFF4FFD475FD3FFFFFFCCFFFFFFFFFFA8454ECB4721200C4BCEC721200C4BCEDC94D72C2390E538821C8480312F20390900625E41BADF44E00A7EA12D3844DE3C23AD
1004
D69FDCE117FA85FFFFFFFA85FFFFFFFA8467FFFFFFFFFF3845FEA17FFFFFFEA17FFFFFFEA119FFFFFFFFFF509C7714721200C4BCEC721200C4BCEDC94D72C2390E538821C8480312F20390900625E41BADF44E00A7EA13584676D2AD8CCEDAC233B6956C6641D4D1A1CD39B47D3131685A6A3B78F08FBA85
1004
A6A3B78F08EB75B9A347FA85FFFFFFFA85FFFFFFFA847FD45C32860B3C828B8650C167906B08CEDA55B199DB584676D2AD8CC838EE28E424018979D8E424018979D9B069C726E6A6474390900625E40721200C4BC81B069C726E6A6426B08CEDA55B199DB584676D2AD8CC83A9A34379CE23EB531302D351
1004
CFC7A47DD4FC7A470B4D475BADCD1A3FD42FFFFFFFD42FFFFFFFF3FEA2E1943059E4145C32860B3C83584676D2AD8CCEDAC233B6956C664119A3987F
1005
0
  0
INSERT
  5
B93
330
1A
100
AcDbEntity
  8
SOMBREA
370
    -1
100
AcDbBlockReference
  2
AME_NIL
 10
405.3909553890958
 20
165.2051795196725
 30
0.5
 41
0.5
 42
0.5
 43
0.5
1001
AME_SOL
1004

1005
0
  0
INSERT
  5
B94
330
1A
100
AcDbEntity
  8
SOMBREA
370
    -1
100
AcDbBlockReference
  2
AME_SOL
 10
404.8909553890958
 20
164.7051795196725
 30
0.0
 41
0.5
 42
0.5
 43
0.5
1001
AME_SOL
1000
R2.1
1000
AME2
1000
cm^ 2
1070
     3
1070
     0
1070
     3
1000
wire
1040
45.0
1000
U
1040
1.0
1000
mm
1000
gm
1000
MILD_STEEL
1070
    25
1000
CSG
1070
     1
1070
     3
1070
     3
1070
     6
1070
     0
1000
cm^ 3
1070
     1
1070
     0
1005
0
  0
TEXT
  5
117D
330
1A
100
AcDbEntity
  8
COTAS
370
    -1
100
AcDbText
 10
505.2631392972718
 20
670.3675589196899
 30
0.0
 40
6.0
  1

 50
180.0
  7
ROMANS
 71
     4
100
AcDbText
  0
TEXT
  5
117E
330
1A
100
AcDbEntity
  8
COTAS
370
    -1
100
AcDbText
 10
478.1792044038297
 20
670.3675582865346
 30
0.0
 40
6.0
  1

 50
180.0
  7
ROMANS
 71
     4
100
AcDbText
  0
TEXT
  5
117F
330
1A
100
AcDbEntity
  8
COTAS
370
    -1
100
AcDbText
 10
559.4746235581213
 20
670.318817129967
 30
0.0
 40
6.0
  1

 50
180.0
  7
ROMANS
 71
     4
100
AcDbText
  0
TEXT
  5
1180
330
1A
100
AcDbEntity
  8
COTAS
370
    -1
100
AcDbText
 10
443.266099286081
 20
669.9907404766059
 30
0.0
 40
6.0
  1

 50
180.0
  7
ROMANS
 71
     4
100
AcDbText
  0
TEXT
  5
1181
330
1A
100
AcDbEntity
  8
COTAS
370
    -1
100
AcDbText
 10
326.0088737328601
 20
754.5104545621772
 30
0.0
 40
6.0
  1
  
 50
180.0
  7
ROMANS
 71
     4
 11
326.0088737328601
 21
757.5104545621772
 31
0.0
100
AcDbText
 73
     2
  0
MTEXT
  5
1182
330
1A
100
AcDbEntity
  8
COTAS
370
    -1
100
AcDbMText
 10
855.6838885994687
 20
426.5826430211356
 30
0.0
 40
2.5
 41
0.0
 71
     4
 72
     1
  1
\A1;
  7
ROMANS
 73
     1
 44
1.0
  0
TEXT
  5
1183
330
1A
100
AcDbEntity
  8
0
370
    -1
100
AcDbText
 10
3.753981845563203
 20
1290.840905577108
 30
0.0
 40
2.5
  1
 
 50
180.0
 71
     4
100
AcDbText
  0
TEXT
  5
1184
330
1A
100
AcDbEntity
  8
0
370
    -1
100
AcDbText
 10
4.878981845563203
 20
1055.97924642931
 30
0.0
 40
4.0
  1
 
 50
180.0
  7
ROMANS
 71
     4
100
AcDbText
  0
TEXT
  5
1185
330
1A
100
AcDbEntity
  8
0
370
    -1
100
AcDbText
 10
369.4149421845007
 20
1078.950311240537
 30
0.0
 40
5.0
  1
 
 50
180.0
  7
ROMANS
 71
     4
100
AcDbText
  0
INSERT
  5
1186
330
1A
100
AcDbEntity
  8
SOMBREA
370
    -1
100
AcDbBlockReference
  2
AME_NIL
 10
263.361729605527
 20
234.0318851053472
 30
0.0
  0
INSERT
  5
1187
330
1A
100
AcDbEntity
  8
SOMBREA
370
    -1
100
AcDbBlockReference
  2
AME_NIL
 10
264.361729605527
 20
235.0318851053472
 30
1.0
1001
AME_SOL
1004
C7CF0100AD005601550153014F01470122003A0129012D0017013B001000D90048013F003B019900DD00500149013C015600FD003D012A01B400FB002B01F40081004A013E012C01D1001801910005002D011901FC008E001A011500DA003F012E011B01840053001C01BF000C01F2000F002F011D010D01
1004
BC0079000E01BB0031001E010F016B00390010017400050165000400540151014B014001400030014E0019004101030031011F01FF00B1002001A90080004C01F0004201010032019700590052014D01430133018500E8003401AD0021010900440044013501220175005F002301DF002800360124012100
1004
5400250111014D0064001201D800A7004E0145013701260113016900960014010601EF00EE000701BD00A4002701150108018900380009017300620016010A0101010001F70002011C00D6000B010301BE00520004013D00660038010200C00046012B00390128016700EA00460000007D49F524E2AB4D13
1004
1313373AE652ADC721200C4BCEC721200C4BCECD834E393735323A1C8480312F20390900625E41BADF44E00A7EA12DCA9D9D4721200C4BCEC721200C4BCECD834E393735323A1C8480312F20390900625E41BADF44E00A7EA12D7D44169A8EB75AF9DF517FA85FFFFFFFA85FFFFFFFE675170CA182CF20A2
1004
E1943059E43FFFFFDF517FA85FFFFFFFA85FFFFFFFE675170CA182CF20A2E1943059E43FFFFF509B8FBEE168FF50BFFFFFFF50BFC33E9ECEE7C3CBCE328B8650C16790FF757EB99018AF60D4FD7320315EC1A7FDD77EB99018AF60D5FFFA84FD7320315EC1A56FFFFA84EAF9DF3ADFFFF509B8FAB770B47F
1004
A85FFFFFFFA85FEA2E1943059E43FFFDD5FAE64062BD8353F5CC80C57B069FF75DFAE64062BD8357FFEA13F5CC80C57B0695BFFFEA13ABE77CEB7FFFD426E3EBAEE168FF50BFFFFFFF50BFC33E9ECEE7C3CBCE328B8650C1679DFFBABF5CC80C57B06A7EB99018AF60D3FEEBBF5CC80C57B06AFE9FFA84FD
1004
7320315EC1A56FFD3FF509D5F3BE75BFF4FFD426E3EA5DC2D1FEA17FFFFFFEA17FA8B8650C1679D867D3D9DCF8790A73DFEEAFD7320315EC1A9FAE64062BD834FFBAEFD7320315EC1ABFFF509FAE64062BD834ADFFFF509D5F3BE75BFFFEA1153B2D1C8480312F3B1C8480312F3B360D38E4DCD4C8E87212
1004
00C4BC80E4240189790360D38E4DCD4C84B4E111F8F48EB75AE7F9C22FF50BFFFFFA7FEA3AFE9FFFFFFE67FFFFFFFFFF3845FEA17FFFFF4FFD475FD3FFFFFFCCFFFFFFFFFFA8454ECB4721200C4BCEC721200C4BCEDC94D72C2390E538821C8480312F20390900625E41BADF44E00A7EA12D3844DE3C23AD
1004
D69FDCE117FA85FFFFFFFA85FFFFFFFA8467FFFFFFFFFF3845FEA17FFFFFFEA17FFFFFFEA119FFFFFFFFFF509C7714721200C4BCEC721200C4BCEDC94D72C2390E538821C8480312F20390900625E41BADF44E00A7EA13584676D2AD8CCEDAC233B6956C6641D4D1A1CD39B47D3131685A6A3B78F08FBA85
1004
A6A3B78F08EB75B9A347FA85FFFFFFFA85FFFFFFFA847FD45C32860B3C828B8650C167906B08CEDA55B199DB584676D2AD8CC838EE28E424018979D8E424018979D9B069C726E6A6474390900625E40721200C4BC81B069C726E6A6426B08CEDA55B199DB584676D2AD8CC83A9A34379CE23EB531302D351
1004
CFC7A47DD4FC7A470B4D475BADCD1A3FD42FFFFFFFD42FFFFFFFF3FEA2E1943059E4145C32860B3C83584676D2AD8CCEDAC233B6956C664119A3987F
1005
1188
  0
INSERT
  5
1188
330
1A
100
AcDbEntity
  8
SOMBREA
370
    -1
100
AcDbBlockReference
  2
AME_NIL
 10
264.361729605527
 20
235.0318851053472
 30
1.0
1001
AME_SOL
1004

1005
0
  0
INSERT
  5
1189
330
1A
100
AcDbEntity
  8
SOMBREA
370
    -1
100
AcDbBlockReference
  2
AME_SOL
 10
263.361729605527
 20
234.0318851053472
 30
0.0
1001
AME_SOL
1000
R2.1
1000
AME2
1000
cm^ 2
1070
     3
1070
     0
1070
     3
1000
wire
1040
45.0
1000
U
1040
1.0
1000
mm
1000
gm
1000
MILD_STEEL
1070
    25
1000
CSG
1070
     1
1070
     3
1070
     3
1070
     6
1070
     0
1000
cm^ 3
1070
     1
1070
     0
1005
1186
  0
INSERT
  5
11B3
330
1A
100
AcDbEntity
  8
ASHADE
 62
     1
370
    -1
100
AcDbBlockReference
  2
AVE_RENDER
 10
346.5063288426743
 20
530.9966622088186
 30
0.0
1001
AVE_RENDER
1002
{
1070
     2
1000
Pref
1070
    30
1070
    20
1070
     0
1070
     0
1000

1070
    10
1070
     0
1070
    30
1040
1.0
1070
     1
1040
0.3
1040
0.7
1040
0.0
1040
10.0
1010
-1.0
1020
-1.0
1030
-1.0
1040
0.3
1070
    49
1002
}
  0
INSERT
  5
11B4
330
1A
100
AcDbEntity
  8
ASHADE
 62
     3
370
    -1
100
AcDbBlockReference
  2
AVE_RENDER
 10
346.5063288426743
 20
530.9966622088186
 30
0.0
1001
AVE_RENDER
1002
{
1070
     0
1000
Full Opt
1070
     0
1070
     1
1070
     1
1070
     1
1070
     0
1070
     0
1070
     0
1070
     1
1070
     1
1040
0.0001
1040
0.0001
1002
}
  0
INSERT
  5
11B5
330
1A
100
AcDbEntity
  8
ASHADE
 62
     4
370
    -1
100
AcDbBlockReference
  2
AVE_RENDER
 10
346.5063288426743
 20
530.9966622088186
 30
0.0
1001
AVE_RENDER
1002
{
1070
     0
1000
Quick Opt
1070
     0
1070
     1
1070
     1
1070
     1
1070
     0
1070
     0
1070
     1
1002
}
  0
INSERT
  5
11B6
330
1A
100
AcDbEntity
  8
SOMBREA
370
    -1
100
AcDbBlockReference
  2
AME_NIL
 10
236.2642226031377
 20
447.229115660522
 30
0.0
  0
INSERT
  5
11B7
330
1A
100
AcDbEntity
  8
SOMBREA
370
    -1
100
AcDbBlockReference
  2
AME_NIL
 10
237.2642226031377
 20
448.229115660522
 30
1.0
1001
AME_SOL
1004
C7CF0100AD005601550153014F01470122003A0129012D0017013B001000D90048013F003B019900DD00500149013C015600FD003D012A01B400FB002B01F40081004A013E012C01D1001801910005002D011901FC008E001A011500DA003F012E011B01840053001C01BF000C01F2000F002F011D010D01
1004
BC0079000E01BB0031001E010F016B00390010017400050165000400540151014B014001400030014E0019004101030031011F01FF00B1002001A90080004C01F0004201010032019700590052014D01430133018500E8003401AD0021010900440044013501220175005F002301DF002800360124012100
1004
5400250111014D0064001201D800A7004E0145013701260113016900960014010601EF00EE000701BD00A4002701150108018900380009017300620016010A0101010001F70002011C00D6000B010301BE00520004013D00660038010200C00046012B00390128016700EA00460000007D49F524E2AB4D13
1004
1313373AE652ADC721200C4BCEC721200C4BCECD834E393735323A1C8480312F20390900625E41BADF44E00A7EA12DCA9D9D4721200C4BCEC721200C4BCECD834E393735323A1C8480312F20390900625E41BADF44E00A7EA12D7D44169A8EB75AF9DF517FA85FFFFFFFA85FFFFFFFE675170CA182CF20A2
1004
E1943059E43FFFFFDF517FA85FFFFFFFA85FFFFFFFE675170CA182CF20A2E1943059E43FFFFF509B8FBEE168FF50BFFFFFFF50BFC33E9ECEE7C3CBCE328B8650C16790FF757EB99018AF60D4FD7320315EC1A7FDD77EB99018AF60D5FFFA84FD7320315EC1A56FFFFA84EAF9DF3ADFFFF509B8FAB770B47F
1004
A85FFFFFFFA85FEA2E1943059E43FFFDD5FAE64062BD8353F5CC80C57B069FF75DFAE64062BD8357FFEA13F5CC80C57B0695BFFFEA13ABE77CEB7FFFD426E3EBAEE168FF50BFFFFFFF50BFC33E9ECEE7C3CBCE328B8650C1679DFFBABF5CC80C57B06A7EB99018AF60D3FEEBBF5CC80C57B06AFE9FFA84FD
1004
7320315EC1A56FFD3FF509D5F3BE75BFF4FFD426E3EA5DC2D1FEA17FFFFFFEA17FA8B8650C1679D867D3D9DCF8790A73DFEEAFD7320315EC1A9FAE64062BD834FFBAEFD7320315EC1ABFFF509FAE64062BD834ADFFFF509D5F3BE75BFFFEA1153B2D1C8480312F3B1C8480312F3B360D38E4DCD4C8E87212
1004
00C4BC80E4240189790360D38E4DCD4C84B4E111F8F48EB75AE7F9C22FF50BFFFFFA7FEA3AFE9FFFFFFE67FFFFFFFFFF3845FEA17FFFFF4FFD475FD3FFFFFFCCFFFFFFFFFFA8454ECB4721200C4BCEC721200C4BCEDC94D72C2390E538821C8480312F20390900625E41BADF44E00A7EA12D3844DE3C23AD
1004
D69FDCE117FA85FFFFFFFA85FFFFFFFA8467FFFFFFFFFF3845FEA17FFFFFFEA17FFFFFFEA119FFFFFFFFFF509C7714721200C4BCEC721200C4BCEDC94D72C2390E538821C8480312F20390900625E41BADF44E00A7EA13584676D2AD8CCEDAC233B6956C6641D4D1A1CD39B47D3131685A6A3B78F08FBA85
1004
A6A3B78F08EB75B9A347FA85FFFFFFFA85FFFFFFFA847FD45C32860B3C828B8650C167906B08CEDA55B199DB584676D2AD8CC838EE28E424018979D8E424018979D9B069C726E6A6474390900625E40721200C4BC81B069C726E6A6426B08CEDA55B199DB584676D2AD8CC83A9A34379CE23EB531302D351
1004
CFC7A47DD4FC7A470B4D475BADCD1A3FD42FFFFFFFD42FFFFFFFF3FEA2E1943059E4145C32860B3C83584676D2AD8CCEDAC233B6956C664119A3987F
1005
11B8
  0
INSERT
  5
11B8
330
1A
100
AcDbEntity
  8
SOMBREA
370
    -1
100
AcDbBlockReference
  2
AME_NIL
 10
237.2642226031377
 20
448.229115660522
 30
1.0
1001
AME_SOL
1004

1005
0
  0
INSERT
  5
11B9
330
1A
100
AcDbEntity
  8
SOMBREA
370
    -1
100
AcDbBlockReference
  2
AME_SOL
 10
236.2642226031377
 20
447.229115660522
 30
0.0
1001
AME_SOL
1000
R2.1
1000
AME2
1000
cm^ 2
1070
     3
1070
     0
1070
     3
1000
wire
1040
45.0
1000
U
1040
1.0
1000
mm
1000
gm
1000
MILD_STEEL
1070
    25
1000
CSG
1070
     1
1070
     3
1070
     3
1070
     6
1070
     0
1000
cm^ 3
1070
     1
1070
     0
1005
11B6
  0
INSERT
  5
11BB
330
1A
100
AcDbEntity
  8
SOMBREA
370
    -1
100
AcDbBlockReference
  2
AME_NIL
 10
264.0847261777661
 20
824.3487302630572
 30
0.0
  0
INSERT
  5
11BC
330
1A
100
AcDbEntity
  8
SOMBREA
370
    -1
100
AcDbBlockReference
  2
AME_NIL
 10
265.0847261777661
 20
825.3487302630572
 30
1.0
1001
AME_SOL
1004
C7CF0100AD005601550153014F01470122003A0129012D0017013B001000D90048013F003B019900DD00500149013C015600FD003D012A01B400FB002B01F40081004A013E012C01D1001801910005002D011901FC008E001A011500DA003F012E011B01840053001C01BF000C01F2000F002F011D010D01
1004
BC0079000E01BB0031001E010F016B00390010017400050165000400540151014B014001400030014E0019004101030031011F01FF00B1002001A90080004C01F0004201010032019700590052014D01430133018500E8003401AD0021010900440044013501220175005F002301DF002800360124012100
1004
5400250111014D0064001201D800A7004E0145013701260113016900960014010601EF00EE000701BD00A4002701150108018900380009017300620016010A0101010001F70002011C00D6000B010301BE00520004013D00660038010200C00046012B00390128016700EA00460000007D49F524E2AB4D13
1004
1313373AE652ADC721200C4BCEC721200C4BCECD834E393735323A1C8480312F20390900625E41BADF44E00A7EA12DCA9D9D4721200C4BCEC721200C4BCECD834E393735323A1C8480312F20390900625E41BADF44E00A7EA12D7D44169A8EB75AF9DF517FA85FFFFFFFA85FFFFFFFE675170CA182CF20A2
1004
E1943059E43FFFFFDF517FA85FFFFFFFA85FFFFFFFE675170CA182CF20A2E1943059E43FFFFF509B8FBEE168FF50BFFFFFFF50BFC33E9ECEE7C3CBCE328B8650C16790FF757EB99018AF60D4FD7320315EC1A7FDD77EB99018AF60D5FFFA84FD7320315EC1A56FFFFA84EAF9DF3ADFFFF509B8FAB770B47F
1004
A85FFFFFFFA85FEA2E1943059E43FFFDD5FAE64062BD8353F5CC80C57B069FF75DFAE64062BD8357FFEA13F5CC80C57B0695BFFFEA13ABE77CEB7FFFD426E3EBAEE168FF50BFFFFFFF50BFC33E9ECEE7C3CBCE328B8650C1679DFFBABF5CC80C57B06A7EB99018AF60D3FEEBBF5CC80C57B06AFE9FFA84FD
1004
7320315EC1A56FFD3FF509D5F3BE75BFF4FFD426E3EA5DC2D1FEA17FFFFFFEA17FA8B8650C1679D867D3D9DCF8790A73DFEEAFD7320315EC1A9FAE64062BD834FFBAEFD7320315EC1ABFFF509FAE64062BD834ADFFFF509D5F3BE75BFFFEA1153B2D1C8480312F3B1C8480312F3B360D38E4DCD4C8E87212
1004
00C4BC80E4240189790360D38E4DCD4C84B4E111F8F48EB75AE7F9C22FF50BFFFFFA7FEA3AFE9FFFFFFE67FFFFFFFFFF3845FEA17FFFFF4FFD475FD3FFFFFFCCFFFFFFFFFFA8454ECB4721200C4BCEC721200C4BCEDC94D72C2390E538821C8480312F20390900625E41BADF44E00A7EA12D3844DE3C23AD
1004
D69FDCE117FA85FFFFFFFA85FFFFFFFA8467FFFFFFFFFF3845FEA17FFFFFFEA17FFFFFFEA119FFFFFFFFFF509C7714721200C4BCEC721200C4BCEDC94D72C2390E538821C8480312F20390900625E41BADF44E00A7EA13584676D2AD8CCEDAC233B6956C6641D4D1A1CD39B47D3131685A6A3B78F08FBA85
1004
A6A3B78F08EB75B9A347FA85FFFFFFFA85FFFFFFFA847FD45C32860B3C828B8650C167906B08CEDA55B199DB584676D2AD8CC838EE28E424018979D8E424018979D9B069C726E6A6474390900625E40721200C4BC81B069C726E6A6426B08CEDA55B199DB584676D2AD8CC83A9A34379CE23EB531302D351
1004
CFC7A47DD4FC7A470B4D475BADCD1A3FD42FFFFFFFD42FFFFFFFF3FEA2E1943059E4145C32860B3C83584676D2AD8CCEDAC233B6956C664119A3987F
1005
11BD
  0
INSERT
  5
11BD
330
1A
100
AcDbEntity
  8
SOMBREA
370
    -1
100
AcDbBlockReference
  2
AME_NIL
 10
265.0847261777661
 20
825.3487302630572
 30
1.0
1001
AME_SOL
1004

1005
0
  0
INSERT
  5
11BE
330
1A
100
AcDbEntity
  8
SOMBREA
370
    -1
100
AcDbBlockReference
  2
AME_SOL
 10
264.0847261777661
 20
824.3487302630572
 30
0.0
1001
AME_SOL
1000
R2.1
1000
AME2
1000
cm^ 2
1070
     3
1070
     0
1070
     3
1000
wire
1040
45.0
1000
U
1040
1.0
1000
mm
1000
gm
1000
MILD_STEEL
1070
    25
1000
CSG
1070
     1
1070
     3
1070
     3
1070
     6
1070
     0
1000
cm^ 3
1070
     1
1070
     0
1005
11BB
  0
TEXT
  5
11BF
330
1A
100
AcDbEntity
  8
COTAS
370
    -1
100
AcDbText
 10
1413.828296766366
 20
949.0973554570219
 30
0.0
 40
6.0
  1

  7
ROMANS
100
AcDbText
  0
TEXT
  5
11C0
330
1A
100
AcDbEntity
  8
COTAS
370
    -1
100
AcDbText
 10
1440.912231659808
 20
949.0973548238666
 30
0.0
 40
6.0
  1

  7
ROMANS
100
AcDbText
  0
TEXT
  5
11C1
330
1A
100
AcDbEntity
  8
COTAS
370
    -1
100
AcDbText
 10
1359.616812505517
 20
949.0486136672989
 30
0.0
 40
6.0
  1

  7
ROMANS
100
AcDbText
  0
TEXT
  5
11C2
330
1A
100
AcDbEntity
  8
COTAS
370
    -1
100
AcDbText
 10
1475.825336777557
 20
948.7205370139378
 30
0.0
 40
6.0
  1

  7
ROMANS
100
AcDbText
  0
TEXT
  5
11C3
330
1A
100
AcDbEntity
  8
COTAS
370
    -1
100
AcDbText
 10
1593.082562330778
 20
1033.240251099509
 30
0.0
 40
6.0
  1
  
  7
ROMANS
 11
1593.082562330778
 21
1036.240251099509
 31
0.0
100
AcDbText
 73
     2
  0
MTEXT
  5
11C4
330
1A
100
AcDbEntity
  8
COTAS
370
    -1
100
AcDbMText
 10
336.0573483410706
 20
446.9921376446039
 30
0.0
 40
5.0
 41
0.0
 71
     4
 72
     1
  1
\A1;
  7
ESTANDAR
 73
     1
 44
1.0
  0
MTEXT
  5
11C5
330
1A
100
AcDbEntity
  8
COTAS
370
    -1
100
AcDbMText
 10
931.627704555367
 20
1108.29080878721
 30
0.0
 40
2.5
 41
0.0
 71
     6
 72
     1
  1
\A1; 
 73
     1
 44
1.0
  0
MTEXT
  5
11C6
330
1A
100
AcDbEntity
  8
COTAS
370
    -1
100
AcDbMText
 10
933.502704555367
 20
874.1791496394125
 30
0.0
 40
4.0
 41
0.0
 71
     6
 72
     1
  1
\A1; 
  7
ROMANS
 73
     1
 44
1.0
  0
MTEXT
  5
1868
330
1A
100
AcDbEntity
  8
COTAS
370
    -1
100
AcDbMText
 10
324.3189830453316
 20
862.254110060763
 30
0.0
 40
2.5
 41
0.0
 71
     6
 72
     1
  1
\A1; 
 73
     1
 44
1.0
  0
MTEXT
  5
1869
330
1A
100
AcDbEntity
  8
COTAS
370
    -1
100
AcDbMText
 10
326.1939830453316
 20
628.142450912965
 30
0.0
 40
4.0
 41
0.0
 71
     6
 72
     1
  1
\A1; 
  7
ROMANS
 73
     1
 44
1.0
  0
INSERT
  5
2803
330
1A
100
AcDbEntity
  8
SOMBREA
370
    -1
100
AcDbBlockReference
  2
AME_NIL
 10
345.5148989280194
 20
117.4308417371739
 30
0.0
  0
INSERT
  5
2804
330
1A
100
AcDbEntity
  8
SOMBREA
370
    -1
100
AcDbBlockReference
  2
AME_NIL
 10
346.5148989280194
 20
118.4308417371739
 30
1.0
1001
AME_SOL
1004
C7CF0100AD005601550153014F01470122003A0129012D0017013B001000D90048013F003B019900DD00500149013C015600FD003D012A01B400FB002B01F40081004A013E012C01D1001801910005002D011901FC008E001A011500DA003F012E011B01840053001C01BF000C01F2000F002F011D010D01
1004
BC0079000E01BB0031001E010F016B00390010017400050165000400540151014B014001400030014E0019004101030031011F01FF00B1002001A90080004C01F0004201010032019700590052014D01430133018500E8003401AD0021010900440044013501220175005F002301DF002800360124012100
1004
5400250111014D0064001201D800A7004E0145013701260113016900960014010601EF00EE000701BD00A4002701150108018900380009017300620016010A0101010001F70002011C00D6000B010301BE00520004013D00660038010200C00046012B00390128016700EA00460000007D49F524E2AB4D13
1004
1313373AE652ADC721200C4BCEC721200C4BCECD834E393735323A1C8480312F20390900625E41BADF44E00A7EA12DCA9D9D4721200C4BCEC721200C4BCECD834E393735323A1C8480312F20390900625E41BADF44E00A7EA12D7D44169A8EB75AF9DF517FA85FFFFFFFA85FFFFFFFE675170CA182CF20A2
1004
E1943059E43FFFFFDF517FA85FFFFFFFA85FFFFFFFE675170CA182CF20A2E1943059E43FFFFF509B8FBEE168FF50BFFFFFFF50BFC33E9ECEE7C3CBCE328B8650C16790FF757EB99018AF60D4FD7320315EC1A7FDD77EB99018AF60D5FFFA84FD7320315EC1A56FFFFA84EAF9DF3ADFFFF509B8FAB770B47F
1004
A85FFFFFFFA85FEA2E1943059E43FFFDD5FAE64062BD8353F5CC80C57B069FF75DFAE64062BD8357FFEA13F5CC80C57B0695BFFFEA13ABE77CEB7FFFD426E3EBAEE168FF50BFFFFFFF50BFC33E9ECEE7C3CBCE328B8650C1679DFFBABF5CC80C57B06A7EB99018AF60D3FEEBBF5CC80C57B06AFE9FFA84FD
1004
7320315EC1A56FFD3FF509D5F3BE75BFF4FFD426E3EA5DC2D1FEA17FFFFFFEA17FA8B8650C1679D867D3D9DCF8790A73DFEEAFD7320315EC1A9FAE64062BD834FFBAEFD7320315EC1ABFFF509FAE64062BD834ADFFFF509D5F3BE75BFFFEA1153B2D1C8480312F3B1C8480312F3B360D38E4DCD4C8E87212
1004
00C4BC80E4240189790360D38E4DCD4C84B4E111F8F48EB75AE7F9C22FF50BFFFFFA7FEA3AFE9FFFFFFE67FFFFFFFFFF3845FEA17FFFFF4FFD475FD3FFFFFFCCFFFFFFFFFFA8454ECB4721200C4BCEC721200C4BCEDC94D72C2390E538821C8480312F20390900625E41BADF44E00A7EA12D3844DE3C23AD
1004
D69FDCE117FA85FFFFFFFA85FFFFFFFA8467FFFFFFFFFF3845FEA17FFFFFFEA17FFFFFFEA119FFFFFFFFFF509C7714721200C4BCEC721200C4BCEDC94D72C2390E538821C8480312F20390900625E41BADF44E00A7EA13584676D2AD8CCEDAC233B6956C6641D4D1A1CD39B47D3131685A6A3B78F08FBA85
1004
A6A3B78F08EB75B9A347FA85FFFFFFFA85FFFFFFFA847FD45C32860B3C828B8650C167906B08CEDA55B199DB584676D2AD8CC838EE28E424018979D8E424018979D9B069C726E6A6474390900625E40721200C4BC81B069C726E6A6426B08CEDA55B199DB584676D2AD8CC83A9A34379CE23EB531302D351
1004
CFC7A47DD4FC7A470B4D475BADCD1A3FD42FFFFFFFD42FFFFFFFF3FEA2E1943059E4145C32860B3C83584676D2AD8CCEDAC233B6956C664119A3987F
1005
0
  0
INSERT
  5
2805
330
1A
100
AcDbEntity
  8
SOMBREA
370
    -1
100
AcDbBlockReference
  2
AME_NIL
 10
346.5148989280194
 20
118.4308417371739
 30
1.0
1001
AME_SOL
1004

1005
0
  0
INSERT
  5
2806
330
1A
100
AcDbEntity
  8
SOMBREA
370
    -1
100
AcDbBlockReference
  2
AME_SOL
 10
345.5148989280194
 20
117.4308417371739
 30
0.0
1001
AME_SOL
1000
R2.1
1000
AME2
1000
cm^ 2
1070
     3
1070
     0
1070
     3
1000
wire
1040
45.0
1000
U
1040
1.0
1000
mm
1000
gm
1000
MILD_STEEL
1070
    25
1000
CSG
1070
     1
1070
     3
1070
     3
1070
     6
1070
     0
1000
cm^ 3
1070
     1
1070
     0
1005
0
  0
MTEXT
  5
2A84
330
1A
100
AcDbEntity
  8
TORNILLERIA
370
    -1
100
AcDbMText
 10
85.84165989330907
 20
317.4568060704431
 30
0.0
 40
5.3332
 41
0.0
 71
     6
 72
     1
  1
\A1; 
 73
     1
 44
1.0
  0
LINE
  5
2B45
330
1A
100
AcDbEntity
  8
BANDEJAS
370
    -1
100
AcDbLine
 10
156.0898526471915
 20
97.558507080465
 30
0.0
 11
156.0898526471915
 21
54.52753380912463
 31
0.0
  0
LINE
  5
2B46
330
1A
100
AcDbEntity
  8
BANDEJAS
370
    -1
100
AcDbLine
 10
165.0889526471915
 20
104.5250338091246
 30
0.0
 11
164.2890326471914
 21
105.1249738091245
 31
0.0
  0
LINE
  5
2B69
330
1A
100
AcDbEntity
  8
BANDEJAS
370
    -1
100
AcDbLine
 10
216.0898526471915
 20
97.5372083211306
 30
0.0
 11
216.0897526471917
 21
55.52763380912461
 31
0.0
  0
LINE
  5
2B6A
330
1A
100
AcDbEntity
  8
BANDEJAS
370
    -1
100
AcDbLine
 10
215.0899526471914
 20
97.17311891150518
 30
0.0
 11
215.0898526471916
 21
55.52763380912461
 31
0.0
  0
ARC
  5
2B6B
330
1A
100
AcDbEntity
  8
BANDEJAS
370
    -1
100
AcDbCircle
 10
211.0903526471914
 20
107.5247338091247
 30
0.0
 40
4.999499999999999
100
AcDbArc
 50
310.0000000000001
 51
216.8698976458441
  0
ARC
  5
2B6C
330
1A
100
AcDbEntity
  8
BANDEJAS
370
    -1
100
AcDbCircle
 10
211.0903526471914
 20
107.5247338091247
 30
0.0
 40
3.9996
100
AcDbArc
 50
309.9999999999999
 51
216.8698976458441
  0
LINE
  5
2B6D
330
1A
100
AcDbEntity
  8
BANDEJAS
370
    -1
100
AcDbLine
 10
207.0907526471915
 20
104.5250338091246
 30
0.0
 11
207.8906726471914
 21
105.1249738091245
 31
0.0
  0
ARC
  5
2B6E
330
1A
100
AcDbEntity
  8
BANDEJAS
370
    -1
100
AcDbCircle
 10
213.0898526471916
 20
55.52763380912461
 30
0.0
 40
2.0
100
AcDbArc
 50
270.0
 51
0.0
  0
ARC
  5
2B6F
330
1A
100
AcDbEntity
  8
BANDEJAS
370
    -1
100
AcDbCircle
 10
213.0897526471917
 20
55.52763380912461
 30
0.0
 40
3.0
100
AcDbArc
 50
270.0000000000011
 51
0.0000000000000509
  0
LINE
  5
2B70
330
1A
100
AcDbEntity
  8
BANDEJAS
370
    -1
100
AcDbLine
 10
213.6612459708937
 20
104.4608624544261
 30
0.0
 11
211.8563970903103
 21
102.9464144243979
 31
0.0
  0
LINE
  5
2B71
330
1A
100
AcDbEntity
  8
BANDEJAS
370
    -1
100
AcDbLine
 10
211.733140256878
 20
101.5375823715923
 30
0.0
 11
214.8559970903103
 21
97.81590652119178
 31
0.0
  0
LINE
  5
2B72
330
1A
100
AcDbEntity
  8
BANDEJAS
370
    -1
100
AcDbLine
 10
214.3039693018193
 20
103.6948946157514
 30
0.0
 11
213.2651648643549
 21
102.8232341954097
 31
0.0
  0
LINE
  5
2B73
330
1A
100
AcDbEntity
  8
BANDEJAS
370
    -1
100
AcDbLine
 10
213.1419080309224
 20
101.4144021426042
 30
0.0
 11
215.8558970903105
 21
98.1799959308172
 31
0.0
  0
ARC
  5
2B74
330
1A
100
AcDbEntity
  8
BANDEJAS
370
    -1
100
AcDbCircle
 10
214.0899526471914
 20
97.17311891150518
 30
0.0
 40
1.0
100
AcDbArc
 50
0.0
 51
39.99999999999975
  0
ARC
  5
2B75
330
1A
100
AcDbEntity
  8
BANDEJAS
370
    -1
100
AcDbCircle
 10
213.9079524740414
 20
102.0571897522907
 30
0.0
 40
1.0
100
AcDbArc
 50
130.0000000000004
 51
219.9999999999998
  0
ARC
  5
2B76
330
1A
100
AcDbEntity
  8
BANDEJAS
370
    -1
100
AcDbCircle
 10
212.4991846999969
 20
102.1803699812789
 30
0.0
 40
1.0
100
AcDbArc
 50
130.0000000000004
 51
219.9999999999996
  0
ARC
  5
2B77
330
1A
100
AcDbEntity
  8
BANDEJAS
370
    -1
100
AcDbCircle
 10
215.0898526471915
 20
97.5372083211306
 30
0.0
 40
1.0
100
AcDbArc
 50
0.0000000000001018
 51
40.00000000000021
  0
LINE
  5
2B78
330
1A
100
AcDbEntity
  8
BANDEJAS
370
    -1
100
AcDbLine
 10
157.0897526471915
 20
97.17311891150518
 30
0.0
 11
157.089855651063
 21
55.02762479767205
 31
0.0
  0
LINE
  5
2B79
330
1A
100
AcDbEntity
  8
BANDEJAS
370
    -1
100
AcDbLine
 10
156.0898526471914
 20
97.5372083211306
 30
0.0
 11
156.0899555862106
 21
55.02771911152001
 31
0.0
  0
ARC
  5
2B7A
330
1A
100
AcDbEntity
  8
BANDEJAS
370
    -1
100
AcDbCircle
 10
161.0893526471915
 20
107.5247338091247
 30
0.0
 40
4.999499999999999
100
AcDbArc
 50
323.130102354156
 51
229.9999999999999
  0
ARC
  5
2B7B
330
1A
100
AcDbEntity
  8
BANDEJAS
370
    -1
100
AcDbCircle
 10
161.0893526471915
 20
107.5247338091247
 30
0.0
 40
3.9996
100
AcDbArc
 50
323.130102354156
 51
230.0000000000001
  0
ARC
  5
2B7C
330
1A
100
AcDbEntity
  8
BANDEJAS
370
    -1
100
AcDbCircle
 10
157.0898526471914
 20
97.5372083211306
 30
0.0
 40
1.0
100
AcDbArc
 50
139.9999999999998
 51
179.9999999999999
  0
LINE
  5
2B7D
330
1A
100
AcDbEntity
  8
BANDEJAS
370
    -1
100
AcDbLine
 10
159.0377972634604
 20
101.4144021426042
 30
0.0
 11
156.3238082040724
 21
98.1799959308172
 31
0.0
  0
LINE
  5
2B7E
330
1A
100
AcDbEntity
  8
BANDEJAS
370
    -1
100
AcDbLine
 10
160.4465650375049
 20
101.5375823715923
 30
0.0
 11
157.3237082040725
 21
97.81590652119178
 31
0.0
  0
ARC
  5
2B7F
330
1A
100
AcDbEntity
  8
BANDEJAS
370
    -1
100
AcDbCircle
 10
158.0897526471915
 20
97.17311891150518
 30
0.0
 40
1.0
100
AcDbArc
 50
140.0000000000003
 51
180.0
  0
ARC
  5
2B80
330
1A
100
AcDbEntity
  8
BANDEJAS
370
    -1
100
AcDbCircle
 10
158.2717528203415
 20
102.0571897522907
 30
0.0
 40
1.0
100
AcDbArc
 50
320.0000000000001
 51
49.99999999999962
  0
LINE
  5
2B81
330
1A
100
AcDbEntity
  8
BANDEJAS
370
    -1
100
AcDbLine
 10
158.5184593234892
 20
104.4608624544261
 30
0.0
 11
160.3233082040725
 21
102.9464144243979
 31
0.0
  0
ARC
  5
2B82
330
1A
100
AcDbEntity
  8
BANDEJAS
370
    -1
100
AcDbCircle
 10
159.6805205943859
 20
102.1803699812789
 30
0.0
 40
1.0
100
AcDbArc
 50
320.0000000000005
 51
49.99999999999962
  0
LINE
  5
2B83
330
1A
100
AcDbEntity
  8
BANDEJAS
370
    -1
100
AcDbLine
 10
157.8757359925636
 20
103.6948946157514
 30
0.0
 11
158.914540430028
 21
102.8232341954097
 31
0.0
  0
ARC
  5
2B84
330
1A
100
AcDbEntity
  8
BANDEJAS
370
    -1
100
AcDbCircle
 10
158.5898556510359
 20
55.02763380912461
 30
0.0
 40
1.5
100
AcDbArc
 50
180.0003442121335
 51
270.0
  0
ARC
  5
2B85
330
1A
100
AcDbEntity
  8
BANDEJAS
370
    -1
100
AcDbCircle
 10
158.5899555861674
 20
55.02773380912458
 30
0.0
 40
2.5
100
AcDbArc
 50
180.0003368442835
 51
270.0
  0
INSERT
  5
2B86
330
1A
100
AcDbEntity
  8
ASHADE
 62
     1
370
    -1
100
AcDbBlockReference
  2
AVE_RENDER
 10
316.3719630040774
 20
259.7054503512242
 30
0.0
1001
AVE_RENDER
1002
{
1070
     2
1000
Pref
1070
    30
1070
    20
1070
     0
1070
     0
1000

1070
    10
1070
     0
1070
    30
1040
1.0
1070
     1
1040
0.3
1040
0.7
1040
0.0
1040
10.0
1010
-1.0
1020
-1.0
1030
-1.0
1040
0.3
1070
    49
1002
}
  0
INSERT
  5
2B87
330
1A
100
AcDbEntity
  8
ASHADE
 62
     3
370
    -1
100
AcDbBlockReference
  2
AVE_RENDER
 10
316.3719630040774
 20
259.7054503512242
 30
0.0
1001
AVE_RENDER
1002
{
1070
     0
1000
Full Opt
1070
     0
1070
     1
1070
     1
1070
     1
1070
     0
1070
     0
1070
     0
1070
     1
1070
     1
1040
0.0001
1040
0.0001
1002
}
  0
INSERT
  5
2B88
330
1A
100
AcDbEntity
  8
ASHADE
 62
     4
370
    -1
100
AcDbBlockReference
  2
AVE_RENDER
 10
316.3719630040774
 20
259.7054503512242
 30
0.0
1001
AVE_RENDER
1002
{
1070
     0
1000
Quick Opt
1070
     0
1070
     1
1070
     1
1070
     1
1070
     0
1070
     0
1070
     1
1002
}
  0
LINE
  5
2B8A
330
1A
100
AcDbEntity
  8
BANDEJAS
370
    -1
100
AcDbLine
 10
158.5898556510359
 20
53.52763380912461
 30
0.0
 11
213.0898526471916
 21
53.52763380912461
 31
0.0
  0
LINE
  5
2B8B
330
1A
100
AcDbEntity
  8
BANDEJAS
370
    -1
100
AcDbLine
 10
158.5899555861674
 20
52.52773380912458
 30
0.0
 11
213.1142473414677
 21
52.52773380912458
 31
0.0
  0
INSERT
  5
2B90
330
1A
100
AcDbEntity
  8
ASHADE
 62
     1
370
    -1
100
AcDbBlockReference
  2
AVE_RENDER
 10
553.0036702339673
 20
684.7884873143416
 30
0.0
1001
AVE_RENDER
1002
{
1070
     2
1000
Pref
1070
    30
1070
    20
1070
     0
1070
     0
1000

1070
    10
1070
     0
1070
    30
1040
1.0
1070
     1
1040
0.3
1040
0.7
1040
0.0
1040
10.0
1010
-1.0
1020
-1.0
1030
-1.0
1040
0.3
1070
    49
1002
}
  0
INSERT
  5
2B91
330
1A
100
AcDbEntity
  8
ASHADE
 62
     3
370
    -1
100
AcDbBlockReference
  2
AVE_RENDER
 10
553.0036702339673
 20
684.7884873143416
 30
0.0
1001
AVE_RENDER
1002
{
1070
     0
1000
Full Opt
1070
     0
1070
     1
1070
     1
1070
     1
1070
     0
1070
     0
1070
     0
1070
     1
1070
     1
1040
0.0001
1040
0.0001
1002
}
  0
INSERT
  5
2B92
330
1A
100
AcDbEntity
  8
ASHADE
 62
     4
370
    -1
100
AcDbBlockReference
  2
AVE_RENDER
 10
553.0036702339673
 20
684.7884873143416
 30
0.0
1001
AVE_RENDER
1002
{
1070
     0
1000
Quick Opt
1070
     0
1070
     1
1070
     1
1070
     1
1070
     0
1070
     0
1070
     1
1002
}
  0
LINE
  5
2B94
330
1A
100
AcDbEntity
  8
TORNILLERIA
370
    -1
100
AcDbLine
 10
192.8398541491138
 20
54.52763380912461
 30
0.0
 11
178.8398541491138
 21
54.52763380912461
 31
0.0
  0
LINE
  5
2B95
330
1A
100
AcDbEntity
  8
TORNILLERIA
370
    -1
100
AcDbLine
 10
190.3398541491138
 20
59.52763380912467
 30
0.0
 11
181.3398541491138
 21
59.52763380912455
 31
0.0
  0
LINE
  5
2B96
330
1A
100
AcDbEntity
  8
TORNILLERIA
370
    -1
100
AcDbLine
 10
192.8398541491138
 20
53.52763380912461
 30
0.0
 11
192.8398541491138
 21
54.52763380912461
 31
0.0
  0
LINE
  5
2B97
330
1A
100
AcDbEntity
  8
TORNILLERIA
370
    -1
100
AcDbLine
 10
178.8398541491138
 20
53.52763380912461
 30
0.0
 11
178.8398541491138
 21
54.52763380912461
 31
0.0
  0
LINE
  5
2B98
330
1A
100
AcDbEntity
  8
TORNILLERIA
370
    -1
100
AcDbLine
 10
191.3398541491138
 20
56.02763380912461
 30
0.0
 11
191.3398541491138
 21
58.52763380912467
 31
0.0
  0
LINE
  5
2B99
330
1A
100
AcDbEntity
  8
TORNILLERIA
370
    -1
100
AcDbLine
 10
180.3398541491138
 20
56.02763380912455
 30
0.0
 11
180.3398541491138
 21
58.52763380912455
 31
0.0
  0
LINE
  5
2B9A
330
1A
100
AcDbEntity
  8
TORNILLERIA
370
    -1
100
AcDbLine
 10
178.8398541491138
 20
54.52763380912461
 30
0.0
 11
180.3398541491138
 21
56.02763380912455
 31
0.0
  0
LINE
  5
2B9B
330
1A
100
AcDbEntity
  8
TORNILLERIA
370
    -1
100
AcDbLine
 10
192.8398541491138
 20
54.52763380912461
 30
0.0
 11
191.3398541491138
 21
56.02763380912461
 31
0.0
  0
ARC
  5
2B9C
330
1A
100
AcDbEntity
  8
TORNILLERIA
370
    -1
100
AcDbCircle
 10
190.3398541491138
 20
58.52763380912467
 30
0.0
 40
1.0
100
AcDbArc
 50
359.9999999999998
 51
90.0
  0
ARC
  5
2B9D
330
1A
100
AcDbEntity
  8
TORNILLERIA
370
    -1
100
AcDbCircle
 10
181.3398541491138
 20
58.52763380912455
 30
0.0
 40
1.0
100
AcDbArc
 50
90.00000000000031
 51
180.0
  0
LINE
  5
2B9E
330
1A
100
AcDbEntity
  8
TORNILLERIA
370
    -1
100
AcDbLine
 10
188.8398541491138
 20
56.02763380912461
 30
0.0
 11
188.3398541491138
 21
56.02763380912461
 31
0.0
  0
LINE
  5
2B9F
330
1A
100
AcDbEntity
  8
TORNILLERIA
370
    -1
100
AcDbLine
 10
188.8398541491138
 20
56.02763380912461
 30
0.0
 11
188.8398541491138
 21
58.52763380912461
 31
0.0
  0
LINE
  5
2BA0
330
1A
100
AcDbEntity
  8
TORNILLERIA
370
    -1
100
AcDbLine
 10
188.3398541491138
 20
56.02763380912461
 30
0.0
 11
188.3398541491138
 21
58.52763380912467
 31
0.0
  0
LINE
  5
2BA1
330
1A
100
AcDbEntity
  8
TORNILLERIA
370
    -1
100
AcDbLine
 10
183.3398541491138
 20
56.02763380912461
 30
0.0
 11
183.3398541491138
 21
58.64911840580805
 31
0.0
  0
LINE
  5
2BA2
330
1A
100
AcDbEntity
  8
TORNILLERIA
370
    -1
100
AcDbLine
 10
182.8398541491138
 20
56.02763380912461
 30
0.0
 11
182.8398541491138
 21
58.78601396041489
 31
0.0
  0
LINE
  5
2BA3
330
1A
100
AcDbEntity
  8
TORNILLERIA
370
    -1
100
AcDbLine
 10
183.3398541491138
 20
56.02763380912461
 30
0.0
 11
182.8398541491138
 21
56.02763380912461
 31
0.0
  0
ARC
  5
2BA4
330
1A
100
AcDbEntity
  8
TORNILLERIA
370
    -1
100
AcDbCircle
 10
190.0898541491138
 20
54.71513380912467
 30
0.0
 40
1.812499999999939
100
AcDbArc
 50
46.39718102729583
 51
133.6028189727046
  0
ARC
  5
2BA5
330
1A
100
AcDbEntity
  8
TORNILLERIA
370
    -1
100
AcDbCircle
 10
185.8398541491138
 20
50.02763380912455
 30
0.0
 40
6.500000000000058
100
AcDbArc
 50
67.38013505195971
 51
112.6198649480404
  0
ARC
  5
2BA6
330
1A
100
AcDbEntity
  8
TORNILLERIA
370
    -1
100
AcDbCircle
 10
181.5898541491138
 20
54.71513380912472
 30
0.0
 40
1.812499999999898
100
AcDbArc
 50
46.39718102729455
 51
133.6028189727077
  0
ARC
  5
2BA7
330
1A
100
AcDbEntity
  8
TORNILLERIA
370
    -1
100
AcDbCircle
 10
187.8482343004042
 20
58.65682388476989
 30
0.0
 40
1.0
100
AcDbArc
 50
352.5772075955983
 51
60.55289475855617
  0
ARC
  5
2BA8
330
1A
100
AcDbEntity
  8
TORNILLERIA
370
    -1
100
AcDbCircle
 10
186.4578233424807
 20
58.58837610746639
 30
0.0
 40
1.883010776369531
100
AcDbArc
 50
358.1514278910232
 51
29.92105904483
  0
ARC
  5
2BA9
330
1A
100
AcDbEntity
  8
TORNILLERIA
370
    -1
100
AcDbCircle
 10
185.2218849557469
 20
58.58837610746639
 30
0.0
 40
1.883010776369531
100
AcDbArc
 50
150.0789409551699
 51
181.8485721089768
  0
ARC
  5
2BAA
330
1A
100
AcDbEntity
  8
TORNILLERIA
370
    -1
100
AcDbCircle
 10
183.8314739978233
 20
58.65682388476989
 30
0.0
 40
1.0
100
AcDbArc
 50
119.4471052414438
 51
187.4227924044017
  0
LINE
  5
2BD3
330
1A
100
AcDbEntity
  8
SOPORTES
370
    -1
100
AcDbLine
 10
157.8521014638175
 20
52.52773380912458
 30
0.0
 11
156.4378879014444
 21
51.11352024675148
 31
0.0
  0
LINE
  5
2BD4
330
1A
100
AcDbEntity
  8
SOPORTES
370
    -1
100
AcDbLine
 10
156.4378879014444
 20
51.11352024675148
 30
0.0
 11
160.144994682631
 21
47.40641346556492
 31
0.0
  0
LINE
  5
2BD7
330
1A
100
AcDbEntity
  8
SOPORTES
370
    -1
100
AcDbLine
 10
160.144994682631
 20
50.23484059031114
 30
0.0
 11
157.8521014638175
 21
52.52773380912458
 31
0.0
  0
ARC
  5
2BD8
330
1A
100
AcDbEntity
  8
SOPORTES
370
    -1
100
AcDbCircle
 10
164.2663150261906
 20
51.52773380912458
 30
0.0
 40
1.0
100
AcDbArc
 50
90.0
 51
134.9999999999998
  0
ARC
  5
2BD9
330
1A
100
AcDbEntity
  8
SOPORTES
370
    -1
100
AcDbCircle
 10
207.4378879014445
 20
51.52773380912458
 30
0.0
 40
1.0
100
AcDbArc
 50
45.00000000000024
 51
90.0
  0
LINE
  5
2BDA
330
1A
100
AcDbEntity
  8
SOPORTES
370
    -1
100
AcDbLine
 10
211.5592082450041
 20
50.23484059031114
 30
0.0
 11
213.8521014638176
 21
52.52773380912458
 31
0.0
  0
LINE
  5
2BDB
330
1A
100
AcDbEntity
  8
SOPORTES
370
    -1
100
AcDbLine
 10
213.8521014638176
 20
52.52773380912458
 30
0.0
 11
215.2663150261907
 21
51.11352024675148
 31
0.0
  0
LINE
  5
2BE1
330
1A
100
AcDbEntity
  8
SOPORTES
370
    -1
100
AcDbLine
 10
206.6094607766982
 20
50.52773380912458
 30
0.0
 11
185.8521014638176
 21
50.52773380912458
 31
0.0
  0
LINE
  5
2BE2
330
1A
100
AcDbEntity
  8
SOPORTES
370
    -1
100
AcDbLine
 10
208.6094607766983
 20
48.52773380912453
 30
0.0
 11
185.8521014638175
 21
48.52773380912453
 31
0.0
  0
LINE
  5
2BE6
330
1A
100
AcDbEntity
  8
SOPORTES
370
    -1
100
AcDbLine
 10
163.0947421509368
 20
48.52773380912453
 30
0.0
 11
185.8521014638175
 21
48.52773380912453
 31
0.0
  0
LINE
  5
2BE7
330
1A
100
AcDbEntity
  8
SOPORTES
370
    -1
100
AcDbLine
 10
165.0947421509369
 20
50.52773380912458
 30
0.0
 11
185.8521014638175
 21
50.52773380912458
 31
0.0
  0
ARC
  5
2BE8
330
1A
100
AcDbEntity
  8
SOPORTES
370
    -1
100
AcDbCircle
 10
165.0947421509369
 20
49.52773380912458
 30
0.0
 40
1.0
100
AcDbArc
 50
90.0
 51
134.9999999999999
  0
ARC
  5
2BE9
330
1A
100
AcDbEntity
  8
SOPORTES
370
    -1
100
AcDbCircle
 10
160.8521014638175
 20
48.11352024675148
 30
0.0
 40
1.0
100
AcDbArc
 50
225.0
 51
315.0
  0
ARC
  5
2BEA
330
1A
100
AcDbEntity
  8
SOPORTES
370
    -1
100
AcDbCircle
 10
160.8521014638175
 20
50.94194737149769
 30
0.0
 40
1.0
100
AcDbArc
 50
225.0
 51
315.0
  0
ARC
  5
2BEB
330
1A
100
AcDbEntity
  8
SOPORTES
370
    -1
100
AcDbCircle
 10
163.0947421509368
 20
47.52773380912453
 30
0.0
 40
1.0
100
AcDbArc
 50
90.0
 51
134.9999999999994
  0
LINE
  5
2BEC
330
1A
100
AcDbEntity
  8
SOPORTES
370
    -1
100
AcDbLine
 10
161.5592082450041
 20
50.23484059031114
 30
0.0
 11
163.5592082450041
 21
52.23484059031114
 31
0.0
  0
LINE
  5
2BED
330
1A
100
AcDbEntity
  8
SOPORTES
370
    -1
100
AcDbLine
 10
164.3876353697503
 20
50.23484059031119
 30
0.0
 11
161.5592082450041
 21
47.40641346556492
 31
0.0
  0
LINE
  5
2BF7
330
1A
100
AcDbEntity
  8
SOPORTES
370
    -1
100
AcDbLine
 10
215.2663150261907
 20
51.11352024675148
 30
0.0
 11
211.5592082450041
 21
47.40641346556492
 31
0.0
  0
LINE
  5
2BF8
330
1A
100
AcDbEntity
  8
SOPORTES
370
    -1
100
AcDbLine
 10
210.144994682631
 20
50.23484059031114
 30
0.0
 11
208.144994682631
 21
52.23484059031114
 31
0.0
  0
LINE
  5
2BF9
330
1A
100
AcDbEntity
  8
SOPORTES
370
    -1
100
AcDbLine
 10
207.3165675578847
 20
50.23484059031108
 30
0.0
 11
210.144994682631
 21
47.40641346556492
 31
0.0
  0
ARC
  5
2BFA
330
1A
100
AcDbEntity
  8
SOPORTES
370
    -1
100
AcDbCircle
 10
208.6094607766983
 20
47.52773380912453
 30
0.0
 40
1.0
100
AcDbArc
 50
45.00000000000048
 51
90.0
  0
ARC
  5
2BFB
330
1A
100
AcDbEntity
  8
SOPORTES
370
    -1
100
AcDbCircle
 10
206.6094607766982
 20
49.52773380912458
 30
0.0
 40
1.0
100
AcDbArc
 50
45.00000000000016
 51
90.0
  0
ARC
  5
2BFC
330
1A
100
AcDbEntity
  8
SOPORTES
370
    -1
100
AcDbCircle
 10
210.8521014638175
 20
48.11352024675148
 30
0.0
 40
1.0
100
AcDbArc
 50
225.0
 51
315.0
  0
ARC
  5
2BFD
330
1A
100
AcDbEntity
  8
SOPORTES
370
    -1
100
AcDbCircle
 10
210.8521014638176
 20
50.94194737149769
 30
0.0
 40
1.0
100
AcDbArc
 50
225.0
 51
315.0
  0
ARC
  5
2C0D
330
1A
100
AcDbEntity
  8
TORNILLERIA
370
    -1
100
AcDbCircle
 10
181.3521014638175
 20
43.52773380912447
 30
0.0
 40
1.0
100
AcDbArc
 50
179.9999999999998
 51
270.0
  0
ARC
  5
2C0E
330
1A
100
AcDbEntity
  8
TORNILLERIA
370
    -1
100
AcDbCircle
 10
190.3521014638175
 20
43.52773380912458
 30
0.0
 40
1.0
100
AcDbArc
 50
270.0000000000003
 51
0.0
  0
ARC
  5
2C0F
330
1A
100
AcDbEntity
  8
TORNILLERIA
370
    -1
100
AcDbCircle
 10
183.8437213125271
 20
43.39854373347924
 30
0.0
 40
1.0
100
AcDbArc
 50
172.5772075955983
 51
240.5528947585562
  0
ARC
  5
2C10
330
1A
100
AcDbEntity
  8
TORNILLERIA
370
    -1
100
AcDbCircle
 10
185.2341322704506
 20
43.46699151078275
 30
0.0
 40
1.883010776369531
100
AcDbArc
 50
178.1514278910232
 51
209.92105904483
  0
ARC
  5
2C11
330
1A
100
AcDbEntity
  8
TORNILLERIA
370
    -1
100
AcDbCircle
 10
186.4700706571844
 20
43.46699151078275
 30
0.0
 40
1.883010776369531
100
AcDbArc
 50
330.07894095517
 51
1.848572108976792
  0
ARC
  5
2C12
330
1A
100
AcDbEntity
  8
TORNILLERIA
370
    -1
100
AcDbCircle
 10
187.860481615108
 20
43.39854373347924
 30
0.0
 40
1.0
100
AcDbArc
 50
299.4471052414438
 51
7.422792404401676
  0
LINE
  5
2C13
330
1A
100
AcDbEntity
  8
TORNILLERIA
370
    -1
100
AcDbLine
 10
181.3521014638175
 20
42.52773380912447
 30
0.0
 11
190.3521014638175
 21
42.52773380912458
 31
0.0
  0
LINE
  5
2C15
330
1A
100
AcDbEntity
  8
TORNILLERIA
370
    -1
100
AcDbLine
 10
178.8521014638175
 20
47.52773380912453
 30
0.0
 11
192.8521014638175
 21
47.52773380912453
 31
0.0
  0
ARC
  5
2C16
330
1A
100
AcDbEntity
  8
TORNILLERIA
370
    -1
100
AcDbCircle
 10
185.8521014638175
 20
52.02773380912458
 30
0.0
 40
6.500000000000058
100
AcDbArc
 50
247.3801350519597
 51
292.6198649480403
  0
LINE
  5
2C17
330
1A
100
AcDbEntity
  8
TORNILLERIA
370
    -1
100
AcDbLine
 10
178.8521014638175
 20
48.52773380912453
 30
0.0
 11
178.8521014638175
 21
47.52773380912453
 31
0.0
  0
ARC
  5
2C18
330
1A
100
AcDbEntity
  8
TORNILLERIA
370
    -1
100
AcDbCircle
 10
181.6021014638175
 20
47.34023380912447
 30
0.0
 40
1.812499999999939
100
AcDbArc
 50
226.3971810272958
 51
313.6028189727045
  0
LINE
  5
2C19
330
1A
100
AcDbEntity
  8
TORNILLERIA
370
    -1
100
AcDbLine
 10
180.3521014638175
 20
46.02773380912453
 30
0.0
 11
180.3521014638175
 21
43.52773380912447
 31
0.0
  0
LINE
  5
2C1A
330
1A
100
AcDbEntity
  8
TORNILLERIA
370
    -1
100
AcDbLine
 10
178.8521014638175
 20
47.52773380912453
 30
0.0
 11
180.3521014638175
 21
46.02773380912453
 31
0.0
  0
LINE
  5
2C1B
330
1A
100
AcDbEntity
  8
TORNILLERIA
370
    -1
100
AcDbLine
 10
182.8521014638175
 20
46.02773380912453
 30
0.0
 11
183.3521014638175
 21
46.02773380912453
 31
0.0
  0
LINE
  5
2C1C
330
1A
100
AcDbEntity
  8
TORNILLERIA
370
    -1
100
AcDbLine
 10
182.8521014638175
 20
46.02773380912453
 30
0.0
 11
182.8521014638175
 21
43.52773380912453
 31
0.0
  0
LINE
  5
2C1D
330
1A
100
AcDbEntity
  8
TORNILLERIA
370
    -1
100
AcDbLine
 10
183.3521014638175
 20
46.02773380912453
 30
0.0
 11
183.3521014638175
 21
43.52773380912447
 31
0.0
  0
LINE
  5
2C1E
330
1A
100
AcDbEntity
  8
TORNILLERIA
370
    -1
100
AcDbLine
 10
192.8521014638175
 20
48.52773380912453
 30
0.0
 11
192.8521014638175
 21
47.52773380912453
 31
0.0
  0
ARC
  5
2C1F
330
1A
100
AcDbEntity
  8
TORNILLERIA
370
    -1
100
AcDbCircle
 10
190.1021014638175
 20
47.34023380912441
 30
0.0
 40
1.812499999999898
100
AcDbArc
 50
226.3971810272946
 51
313.6028189727077
  0
LINE
  5
2C20
330
1A
100
AcDbEntity
  8
TORNILLERIA
370
    -1
100
AcDbLine
 10
188.3521014638175
 20
46.02773380912453
 30
0.0
 11
188.3521014638175
 21
43.40624921244108
 31
0.0
  0
LINE
  5
2C21
330
1A
100
AcDbEntity
  8
TORNILLERIA
370
    -1
100
AcDbLine
 10
188.8521014638175
 20
46.02773380912453
 30
0.0
 11
188.8521014638175
 21
43.26935365783424
 31
0.0
  0
LINE
  5
2C22
330
1A
100
AcDbEntity
  8
TORNILLERIA
370
    -1
100
AcDbLine
 10
188.3521014638175
 20
46.02773380912453
 30
0.0
 11
188.8521014638175
 21
46.02773380912453
 31
0.0
  0
LINE
  5
2C23
330
1A
100
AcDbEntity
  8
TORNILLERIA
370
    -1
100
AcDbLine
 10
191.3521014638175
 20
46.02773380912458
 30
0.0
 11
191.3521014638175
 21
43.52773380912458
 31
0.0
  0
LINE
  5
2C24
330
1A
100
AcDbEntity
  8
TORNILLERIA
370
    -1
100
AcDbLine
 10
192.8521014638175
 20
47.52773380912453
 30
0.0
 11
191.3521014638175
 21
46.02773380912458
 31
0.0
  0
LINE
  5
2C3A
330
1A
100
AcDbEntity
  8
SOPORTES
370
    -1
100
AcDbLine
 10
183.8521014638175
 20
19.43303461684769
 30
0.0
 11
187.8521014638175
 21
19.43303461684769
 31
0.0
  0
LINE
  5
2C3C
330
1A
100
AcDbEntity
  8
SOPORTES
370
    -1
100
AcDbLine
 10
182.8521014638175
 20
20.43303461684769
 30
0.0
 11
188.8521014638175
 21
20.43303461684769
 31
0.0
  0
LINE
  5
2C3F
330
1A
100
AcDbEntity
  8
SOPORTES
370
    -1
100
AcDbLine
 10
183.8521014638175
 20
19.43303461684769
 30
0.0
 11
182.8521014638175
 21
20.43303461684769
 31
0.0
  0
LINE
  5
2C40
330
1A
100
AcDbEntity
  8
SOPORTES
370
    -1
100
AcDbLine
 10
187.8521014638175
 20
19.43303461684769
 30
0.0
 11
188.8521014638175
 21
20.43303461684769
 31
0.0
  0
LINE
  5
2C42
330
1A
100
AcDbEntity
  8
SOPORTES
370
    -1
100
AcDbLine
 10
188.8521014638175
 20
42.52773380912458
 30
0.0
 11
188.8521014638175
 21
20.43303461684769
 31
0.0
  0
LINE
  5
2C43
330
1A
100
AcDbEntity
  8
SOPORTES
370
    -1
100
AcDbLine
 10
187.8521014638175
 20
42.52773380912453
 30
0.0
 11
187.8521014638175
 21
19.43303461684769
 31
0.0
  0
LINE
  5
2C44
330
1A
100
AcDbEntity
  8
SOPORTES
370
    -1
100
AcDbLine
 10
183.8521014638175
 20
42.52773380912447
 30
0.0
 11
183.8521014638175
 21
19.43303461684769
 31
0.0
  0
LINE
  5
2C45
330
1A
100
AcDbEntity
  8
SOPORTES
370
    -1
100
AcDbLine
 10
182.8521014638175
 20
42.52773380912447
 30
0.0
 11
182.8521014638175
 21
20.43303461684769
 31
0.0
  0
SPLINE
  5
2C7D
330
1A
100
AcDbEntity
  8
SOPORTES
370
    -1
100
AcDbSpline
210
0.0
220
0.0
230
1.0
 70
  1064
 71
     3
 72
    10
 73
     6
 74
     4
 42
0.0000000001
 43
0.0000000001
 44
0.0000000001
 40
0.0
 40
0.0
 40
0.0
 40
0.0
 40
2.876819840126755
 40
5.708878983354253
 40
8.175397470393225
 40
8.175397470393225
 40
8.175397470393225
 40
8.175397470393225
 10
188.8521014638175
 20
116.8561433247378
 30
0.0
 10
188.3522613979447
 20
115.6347787032541
 30
0.0
 10
187.3603583224386
 20
113.2110527815457
 30
0.0
 10
184.9522954662476
 20
117.2120349557967
 30
0.0
 10
183.519210699184
 20
115.5470451163211
 30
0.0
 10
182.8521014638176
 20
114.7719827304574
 30
0.0
 11
188.8521014638175
 21
116.8561433247378
 31
0.0
 11
187.1774553396803
 21
114.5169869059707
 31
0.0
 11
184.8810819090689
 21
116.1744633184487
 31
0.0
 11
182.8521014638176
 21
114.7719827304574
 31
0.0
  0
INSERT
  5
2DC0
330
1A
100
AcDbEntity
  8
ASHADE
 62
     1
370
    -1
100
AcDbBlockReference
  2
AVE_RENDER
 10
260.3238728527542
 20
47.95553768957518
 30
0.0
1001
AVE_RENDER
1002
{
1070
     2
1000
Pref
1070
    30
1070
    20
1070
     0
1070
     0
1000

1070
    10
1070
     0
1070
    30
1040
1.0
1070
     1
1040
0.3
1040
0.7
1040
0.0
1040
10.0
1010
-1.0
1020
-1.0
1030
-1.0
1040
0.3
1070
    49
1002
}
  0
INSERT
  5
2DC1
330
1A
100
AcDbEntity
  8
ASHADE
 62
     3
370
    -1
100
AcDbBlockReference
  2
AVE_RENDER
 10
260.3238728527542
 20
47.95553768957518
 30
0.0
1001
AVE_RENDER
1002
{
1070
     0
1000
Full Opt
1070
     0
1070
     1
1070
     1
1070
     1
1070
     0
1070
     0
1070
     0
1070
     1
1070
     1
1040
0.0001
1040
0.0001
1002
}
  0
INSERT
  5
2DC2
330
1A
100
AcDbEntity
  8
ASHADE
 62
     4
370
    -1
100
AcDbBlockReference
  2
AVE_RENDER
 10
260.3238728527542
 20
47.95553768957518
 30
0.0
1001
AVE_RENDER
1002
{
1070
     0
1000
Quick Opt
1070
     0
1070
     1
1070
     1
1070
     1
1070
     0
1070
     0
1070
     1
1002
}
  0
INSERT
  5
2DC3
330
1A
100
AcDbEntity
  8
ASHADE
 62
     1
370
    -1
100
AcDbBlockReference
  2
AVE_RENDER
 10
260.3238728527542
 20
47.95553768957518
 30
0.0
1001
AVE_RENDER
1002
{
1070
     2
1000
Pref
1070
    30
1070
    20
1070
     0
1070
     0
1000

1070
    10
1070
     0
1070
    30
1040
1.0
1070
     1
1040
0.3
1040
0.7
1040
0.0
1040
10.0
1010
-1.0
1020
-1.0
1030
-1.0
1040
0.3
1070
    49
1002
}
  0
INSERT
  5
2DC4
330
1A
100
AcDbEntity
  8
ASHADE
 62
     3
370
    -1
100
AcDbBlockReference
  2
AVE_RENDER
 10
260.3238728527542
 20
47.95553768957518
 30
0.0
1001
AVE_RENDER
1002
{
1070
     0
1000
Full Opt
1070
     0
1070
     1
1070
     1
1070
     1
1070
     0
1070
     0
1070
     0
1070
     1
1070
     1
1040
0.0001
1040
0.0001
1002
}
  0
INSERT
  5
2DC5
330
1A
100
AcDbEntity
  8
ASHADE
 62
     4
370
    -1
100
AcDbBlockReference
  2
AVE_RENDER
 10
260.3238728527542
 20
47.95553768957518
 30
0.0
1001
AVE_RENDER
1002
{
1070
     0
1000
Quick Opt
1070
     0
1070
     1
1070
     1
1070
     1
1070
     0
1070
     0
1070
     1
1002
}
  0
INSERT
  5
2DC6
330
1A
100
AcDbEntity
  8
SOMBREA
370
    -1
100
AcDbBlockReference
  2
AME_NIL
 10
285.4683809427585
 20
90.37763489853097
 30
0.0
  0
INSERT
  5
2DC7
330
1A
100
AcDbEntity
  8
SOMBREA
370
    -1
100
AcDbBlockReference
  2
AME_NIL
 10
286.4683809427585
 20
91.37763489853097
 30
1.0
1001
AME_SOL
1004
C7CF0100AD005601550153014F01470122003A0129012D0017013B001000D90048013F003B019900DD00500149013C015600FD003D012A01B400FB002B01F40081004A013E012C01D1001801910005002D011901FC008E001A011500DA003F012E011B01840053001C01BF000C01F2000F002F011D010D01
1004
BC0079000E01BB0031001E010F016B00390010017400050165000400540151014B014001400030014E0019004101030031011F01FF00B1002001A90080004C01F0004201010032019700590052014D01430133018500E8003401AD0021010900440044013501220175005F002301DF002800360124012100
1004
5400250111014D0064001201D800A7004E0145013701260113016900960014010601EF00EE000701BD00A4002701150108018900380009017300620016010A0101010001F70002011C00D6000B010301BE00520004013D00660038010200C00046012B00390128016700EA00460000007D49F524E2AB4D13
1004
1313373AE652ADC721200C4BCEC721200C4BCECD834E393735323A1C8480312F20390900625E41BADF44E00A7EA12DCA9D9D4721200C4BCEC721200C4BCECD834E393735323A1C8480312F20390900625E41BADF44E00A7EA12D7D44169A8EB75AF9DF517FA85FFFFFFFA85FFFFFFFE675170CA182CF20A2
1004
E1943059E43FFFFFDF517FA85FFFFFFFA85FFFFFFFE675170CA182CF20A2E1943059E43FFFFF509B8FBEE168FF50BFFFFFFF50BFC33E9ECEE7C3CBCE328B8650C16790FF757EB99018AF60D4FD7320315EC1A7FDD77EB99018AF60D5FFFA84FD7320315EC1A56FFFFA84EAF9DF3ADFFFF509B8FAB770B47F
1004
A85FFFFFFFA85FEA2E1943059E43FFFDD5FAE64062BD8353F5CC80C57B069FF75DFAE64062BD8357FFEA13F5CC80C57B0695BFFFEA13ABE77CEB7FFFD426E3EBAEE168FF50BFFFFFFF50BFC33E9ECEE7C3CBCE328B8650C1679DFFBABF5CC80C57B06A7EB99018AF60D3FEEBBF5CC80C57B06AFE9FFA84FD
1004
7320315EC1A56FFD3FF509D5F3BE75BFF4FFD426E3EA5DC2D1FEA17FFFFFFEA17FA8B8650C1679D867D3D9DCF8790A73DFEEAFD7320315EC1A9FAE64062BD834FFBAEFD7320315EC1ABFFF509FAE64062BD834ADFFFF509D5F3BE75BFFFEA1153B2D1C8480312F3B1C8480312F3B360D38E4DCD4C8E87212
1004
00C4BC80E4240189790360D38E4DCD4C84B4E111F8F48EB75AE7F9C22FF50BFFFFFA7FEA3AFE9FFFFFFE67FFFFFFFFFF3845FEA17FFFFF4FFD475FD3FFFFFFCCFFFFFFFFFFA8454ECB4721200C4BCEC721200C4BCEDC94D72C2390E538821C8480312F20390900625E41BADF44E00A7EA12D3844DE3C23AD
1004
D69FDCE117FA85FFFFFFFA85FFFFFFFA8467FFFFFFFFFF3845FEA17FFFFFFEA17FFFFFFEA119FFFFFFFFFF509C7714721200C4BCEC721200C4BCEDC94D72C2390E538821C8480312F20390900625E41BADF44E00A7EA13584676D2AD8CCEDAC233B6956C6641D4D1A1CD39B47D3131685A6A3B78F08FBA85
1004
A6A3B78F08EB75B9A347FA85FFFFFFFA85FFFFFFFA847FD45C32860B3C828B8650C167906B08CEDA55B199DB584676D2AD8CC838EE28E424018979D8E424018979D9B069C726E6A6474390900625E40721200C4BC81B069C726E6A6426B08CEDA55B199DB584676D2AD8CC83A9A34379CE23EB531302D351
1004
CFC7A47DD4FC7A470B4D475BADCD1A3FD42FFFFFFFD42FFFFFFFF3FEA2E1943059E4145C32860B3C83584676D2AD8CCEDAC233B6956C664119A3987F
1005
0
  0
INSERT
  5
2DC8
330
1A
100
AcDbEntity
  8
SOMBREA
370
    -1
100
AcDbBlockReference
  2
AME_NIL
 10
286.4683809427585
 20
91.37763489853097
 30
1.0
1001
AME_SOL
1004

1005
0
  0
INSERT
  5
2DC9
330
1A
100
AcDbEntity
  8
SOMBREA
370
    -1
100
AcDbBlockReference
  2
AME_SOL
 10
285.4683809427585
 20
90.37763489853097
 30
0.0
1001
AME_SOL
1000
R2.1
1000
AME2
1000
cm^ 2
1070
     3
1070
     0
1070
     3
1000
wire
1040
45.0
1000
U
1040
1.0
1000
mm
1000
gm
1000
MILD_STEEL
1070
    25
1000
CSG
1070
     1
1070
     3
1070
     3
1070
     6
1070
     0
1000
cm^ 3
1070
     1
1070
     0
1005
0
  0
INSERT
  5
2DD9
330
1A
100
AcDbEntity
  8
SOMBREA
370
    -1
100
AcDbBlockReference
  2
AME_NIL
 10
665.21482824185
 20
212.6607172092477
 30
0.0
 41
0.5
 42
0.5
 43
0.5
  0
INSERT
  5
2DDA
330
1A
100
AcDbEntity
  8
SOMBREA
370
    -1
100
AcDbBlockReference
  2
AME_NIL
 10
665.71482824185
 20
213.1607172092477
 30
0.5
 41
0.5
 42
0.5
 43
0.5
1001
AME_SOL
1004
C7CF0100AD005601550153014F01470122003A0129012D0017013B001000D90048013F003B019900DD00500149013C015600FD003D012A01B400FB002B01F40081004A013E012C01D1001801910005002D011901FC008E001A011500DA003F012E011B01840053001C01BF000C01F2000F002F011D010D01
1004
BC0079000E01BB0031001E010F016B00390010017400050165000400540151014B014001400030014E0019004101030031011F01FF00B1002001A90080004C01F0004201010032019700590052014D01430133018500E8003401AD0021010900440044013501220175005F002301DF002800360124012100
1004
5400250111014D0064001201D800A7004E0145013701260113016900960014010601EF00EE000701BD00A4002701150108018900380009017300620016010A0101010001F70002011C00D6000B010301BE00520004013D00660038010200C00046012B00390128016700EA00460000007D49F524E2AB4D13
1004
1313373AE652ADC721200C4BCEC721200C4BCECD834E393735323A1C8480312F20390900625E41BADF44E00A7EA12DCA9D9D4721200C4BCEC721200C4BCECD834E393735323A1C8480312F20390900625E41BADF44E00A7EA12D7D44169A8EB75AF9DF517FA85FFFFFFFA85FFFFFFFE675170CA182CF20A2
1004
E1943059E43FFFFFDF517FA85FFFFFFFA85FFFFFFFE675170CA182CF20A2E1943059E43FFFFF509B8FBEE168FF50BFFFFFFF50BFC33E9ECEE7C3CBCE328B8650C16790FF757EB99018AF60D4FD7320315EC1A7FDD77EB99018AF60D5FFFA84FD7320315EC1A56FFFFA84EAF9DF3ADFFFF509B8FAB770B47F
1004
A85FFFFFFFA85FEA2E1943059E43FFFDD5FAE64062BD8353F5CC80C57B069FF75DFAE64062BD8357FFEA13F5CC80C57B0695BFFFEA13ABE77CEB7FFFD426E3EBAEE168FF50BFFFFFFF50BFC33E9ECEE7C3CBCE328B8650C1679DFFBABF5CC80C57B06A7EB99018AF60D3FEEBBF5CC80C57B06AFE9FFA84FD
1004
7320315EC1A56FFD3FF509D5F3BE75BFF4FFD426E3EA5DC2D1FEA17FFFFFFEA17FA8B8650C1679D867D3D9DCF8790A73DFEEAFD7320315EC1A9FAE64062BD834FFBAEFD7320315EC1ABFFF509FAE64062BD834ADFFFF509D5F3BE75BFFFEA1153B2D1C8480312F3B1C8480312F3B360D38E4DCD4C8E87212
1004
00C4BC80E4240189790360D38E4DCD4C84B4E111F8F48EB75AE7F9C22FF50BFFFFFA7FEA3AFE9FFFFFFE67FFFFFFFFFF3845FEA17FFFFF4FFD475FD3FFFFFFCCFFFFFFFFFFA8454ECB4721200C4BCEC721200C4BCEDC94D72C2390E538821C8480312F20390900625E41BADF44E00A7EA12D3844DE3C23AD
1004
D69FDCE117FA85FFFFFFFA85FFFFFFFA8467FFFFFFFFFF3845FEA17FFFFFFEA17FFFFFFEA119FFFFFFFFFF509C7714721200C4BCEC721200C4BCEDC94D72C2390E538821C8480312F20390900625E41BADF44E00A7EA13584676D2AD8CCEDAC233B6956C6641D4D1A1CD39B47D3131685A6A3B78F08FBA85
1004
A6A3B78F08EB75B9A347FA85FFFFFFFA85FFFFFFFA847FD45C32860B3C828B8650C167906B08CEDA55B199DB584676D2AD8CC838EE28E424018979D8E424018979D9B069C726E6A6474390900625E40721200C4BC81B069C726E6A6426B08CEDA55B199DB584676D2AD8CC83A9A34379CE23EB531302D351
1004
CFC7A47DD4FC7A470B4D475BADCD1A3FD42FFFFFFFD42FFFFFFFF3FEA2E1943059E4145C32860B3C83584676D2AD8CCEDAC233B6956C664119A3987F
1005
0
  0
INSERT
  5
2DDB
330
1A
100
AcDbEntity
  8
SOMBREA
370
    -1
100
AcDbBlockReference
  2
AME_NIL
 10
665.71482824185
 20
213.1607172092477
 30
0.5
 41
0.5
 42
0.5
 43
0.5
1001
AME_SOL
1004

1005
0
  0
INSERT
  5
2DDC
330
1A
100
AcDbEntity
  8
SOMBREA
370
    -1
100
AcDbBlockReference
  2
AME_SOL
 10
665.21482824185
 20
212.6607172092477
 30
0.0
 41
0.5
 42
0.5
 43
0.5
1001
AME_SOL
1000
R2.1
1000
AME2
1000
cm^ 2
1070
     3
1070
     0
1070
     3
1000
wire
1040
45.0
1000
U
1040
1.0
1000
mm
1000
gm
1000
MILD_STEEL
1070
    25
1000
CSG
1070
     1
1070
     3
1070
     3
1070
     6
1070
     0
1000
cm^ 3
1070
     1
1070
     0
1005
0
  0
TEXT
  5
2DDF
330
1A
100
AcDbEntity
  8
COTAS
370
    -1
100
AcDbText
 10
765.587012150026
 20
718.3230966092651
 30
0.0
 40
6.0
  1

 50
180.0
  7
ROMANS
 71
     4
100
AcDbText
  0
TEXT
  5
2DE0
330
1A
100
AcDbEntity
  8
COTAS
370
    -1
100
AcDbText
 10
738.503077256584
 20
718.3230959761098
 30
0.0
 40
6.0
  1

 50
180.0
  7
ROMANS
 71
     4
100
AcDbText
  0
TEXT
  5
2DE1
330
1A
100
AcDbEntity
  8
COTAS
370
    -1
100
AcDbText
 10
819.7984964108755
 20
718.2743548195422
 30
0.0
 40
6.0
  1

 50
180.0
  7
ROMANS
 71
     4
100
AcDbText
  0
TEXT
  5
2DE2
330
1A
100
AcDbEntity
  8
COTAS
370
    -1
100
AcDbText
 10
703.5899721388353
 20
717.9462781661811
 30
0.0
 40
6.0
  1

 50
180.0
  7
ROMANS
 71
     4
100
AcDbText
  0
TEXT
  5
2DE3
330
1A
100
AcDbEntity
  8
COTAS
370
    -1
100
AcDbText
 10
586.3327465856144
 20
802.4659922517524
 30
0.0
 40
6.0
  1
  
 50
180.0
  7
ROMANS
 71
     4
 11
586.3327465856144
 21
805.4659922517524
 31
0.0
100
AcDbText
 73
     2
  0
MTEXT
  5
2DE4
330
1A
100
AcDbEntity
  8
COTAS
370
    -1
100
AcDbMText
 10
1116.007761452223
 20
474.5381807107108
 30
0.0
 40
2.5
 41
0.0
 71
     4
 72
     1
  1
\A1;
  7
ROMANS
 73
     1
 44
1.0
  0
TEXT
  5
2DE5
330
1A
100
AcDbEntity
  8
0
370
    -1
100
AcDbText
 10
264.0778546983174
 20
1338.796443266683
 30
0.0
 40
2.5
  1
 
 50
180.0
 71
     4
100
AcDbText
  0
TEXT
  5
2DE6
330
1A
100
AcDbEntity
  8
0
370
    -1
100
AcDbText
 10
265.2028546983174
 20
1103.934784118885
 30
0.0
 40
4.0
  1
 
 50
180.0
  7
ROMANS
 71
     4
100
AcDbText
  0
TEXT
  5
2DE7
330
1A
100
AcDbEntity
  8
0
370
    -1
100
AcDbText
 10
629.7388150372549
 20
1126.905848930112
 30
0.0
 40
5.0
  1
 
 50
180.0
  7
ROMANS
 71
     4
100
AcDbText
  0
INSERT
  5
2DE8
330
1A
100
AcDbEntity
  8
SOMBREA
370
    -1
100
AcDbBlockReference
  2
AME_NIL
 10
523.6856024582812
 20
281.9874227949224
 30
0.0
  0
INSERT
  5
2DE9
330
1A
100
AcDbEntity
  8
SOMBREA
370
    -1
100
AcDbBlockReference
  2
AME_NIL
 10
524.6856024582812
 20
282.9874227949224
 30
1.0
1001
AME_SOL
1004
C7CF0100AD005601550153014F01470122003A0129012D0017013B001000D90048013F003B019900DD00500149013C015600FD003D012A01B400FB002B01F40081004A013E012C01D1001801910005002D011901FC008E001A011500DA003F012E011B01840053001C01BF000C01F2000F002F011D010D01
1004
BC0079000E01BB0031001E010F016B00390010017400050165000400540151014B014001400030014E0019004101030031011F01FF00B1002001A90080004C01F0004201010032019700590052014D01430133018500E8003401AD0021010900440044013501220175005F002301DF002800360124012100
1004
5400250111014D0064001201D800A7004E0145013701260113016900960014010601EF00EE000701BD00A4002701150108018900380009017300620016010A0101010001F70002011C00D6000B010301BE00520004013D00660038010200C00046012B00390128016700EA00460000007D49F524E2AB4D13
1004
1313373AE652ADC721200C4BCEC721200C4BCECD834E393735323A1C8480312F20390900625E41BADF44E00A7EA12DCA9D9D4721200C4BCEC721200C4BCECD834E393735323A1C8480312F20390900625E41BADF44E00A7EA12D7D44169A8EB75AF9DF517FA85FFFFFFFA85FFFFFFFE675170CA182CF20A2
1004
E1943059E43FFFFFDF517FA85FFFFFFFA85FFFFFFFE675170CA182CF20A2E1943059E43FFFFF509B8FBEE168FF50BFFFFFFF50BFC33E9ECEE7C3CBCE328B8650C16790FF757EB99018AF60D4FD7320315EC1A7FDD77EB99018AF60D5FFFA84FD7320315EC1A56FFFFA84EAF9DF3ADFFFF509B8FAB770B47F
1004
A85FFFFFFFA85FEA2E1943059E43FFFDD5FAE64062BD8353F5CC80C57B069FF75DFAE64062BD8357FFEA13F5CC80C57B0695BFFFEA13ABE77CEB7FFFD426E3EBAEE168FF50BFFFFFFF50BFC33E9ECEE7C3CBCE328B8650C1679DFFBABF5CC80C57B06A7EB99018AF60D3FEEBBF5CC80C57B06AFE9FFA84FD
1004
7320315EC1A56FFD3FF509D5F3BE75BFF4FFD426E3EA5DC2D1FEA17FFFFFFEA17FA8B8650C1679D867D3D9DCF8790A73DFEEAFD7320315EC1A9FAE64062BD834FFBAEFD7320315EC1ABFFF509FAE64062BD834ADFFFF509D5F3BE75BFFFEA1153B2D1C8480312F3B1C8480312F3B360D38E4DCD4C8E87212
1004
00C4BC80E4240189790360D38E4DCD4C84B4E111F8F48EB75AE7F9C22FF50BFFFFFA7FEA3AFE9FFFFFFE67FFFFFFFFFF3845FEA17FFFFF4FFD475FD3FFFFFFCCFFFFFFFFFFA8454ECB4721200C4BCEC721200C4BCEDC94D72C2390E538821C8480312F20390900625E41BADF44E00A7EA12D3844DE3C23AD
1004
D69FDCE117FA85FFFFFFFA85FFFFFFFA8467FFFFFFFFFF3845FEA17FFFFFFEA17FFFFFFEA119FFFFFFFFFF509C7714721200C4BCEC721200C4BCEDC94D72C2390E538821C8480312F20390900625E41BADF44E00A7EA13584676D2AD8CCEDAC233B6956C6641D4D1A1CD39B47D3131685A6A3B78F08FBA85
1004
A6A3B78F08EB75B9A347FA85FFFFFFFA85FFFFFFFA847FD45C32860B3C828B8650C167906B08CEDA55B199DB584676D2AD8CC838EE28E424018979D8E424018979D9B069C726E6A6474390900625E40721200C4BC81B069C726E6A6426B08CEDA55B199DB584676D2AD8CC83A9A34379CE23EB531302D351
1004
CFC7A47DD4FC7A470B4D475BADCD1A3FD42FFFFFFFD42FFFFFFFF3FEA2E1943059E4145C32860B3C83584676D2AD8CCEDAC233B6956C664119A3987F
1005
2DEA
  0
INSERT
  5
2DEA
330
1A
100
AcDbEntity
  8
SOMBREA
370
    -1
100
AcDbBlockReference
  2
AME_NIL
 10
524.6856024582812
 20
282.9874227949224
 30
1.0
1001
AME_SOL
1004

1005
0
  0
INSERT
  5
2DEB
330
1A
100
AcDbEntity
  8
SOMBREA
370
    -1
100
AcDbBlockReference
  2
AME_SOL
 10
523.6856024582812
 20
281.9874227949224
 30
0.0
1001
AME_SOL
1000
R2.1
1000
AME2
1000
cm^ 2
1070
     3
1070
     0
1070
     3
1000
wire
1040
45.0
1000
U
1040
1.0
1000
mm
1000
gm
1000
MILD_STEEL
1070
    25
1000
CSG
1070
     1
1070
     3
1070
     3
1070
     6
1070
     0
1000
cm^ 3
1070
     1
1070
     0
1005
2DE8
  0
INSERT
  5
2DEC
330
1A
100
AcDbEntity
  8
ASHADE
 62
     1
370
    -1
100
AcDbBlockReference
  2
AVE_RENDER
 10
606.8302016954285
 20
578.9521998983938
 30
0.0
1001
AVE_RENDER
1002
{
1070
     2
1000
Pref
1070
    30
1070
    20
1070
     0
1070
     0
1000

1070
    10
1070
     0
1070
    30
1040
1.0
1070
     1
1040
0.3
1040
0.7
1040
0.0
1040
10.0
1010
-1.0
1020
-1.0
1030
-1.0
1040
0.3
1070
    49
1002
}
  0
INSERT
  5
2DED
330
1A
100
AcDbEntity
  8
ASHADE
 62
     3
370
    -1
100
AcDbBlockReference
  2
AVE_RENDER
 10
606.8302016954285
 20
578.9521998983938
 30
0.0
1001
AVE_RENDER
1002
{
1070
     0
1000
Full Opt
1070
     0
1070
     1
1070
     1
1070
     1
1070
     0
1070
     0
1070
     0
1070
     1
1070
     1
1040
0.0001
1040
0.0001
1002
}
  0
INSERT
  5
2DEE
330
1A
100
AcDbEntity
  8
ASHADE
 62
     4
370
    -1
100
AcDbBlockReference
  2
AVE_RENDER
 10
606.8302016954285
 20
578.9521998983938
 30
0.0
1001
AVE_RENDER
1002
{
1070
     0
1000
Quick Opt
1070
     0
1070
     1
1070
     1
1070
     1
1070
     0
1070
     0
1070
     1
1002
}
  0
INSERT
  5
2DEF
330
1A
100
AcDbEntity
  8
SOMBREA
370
    -1
100
AcDbBlockReference
  2
AME_NIL
 10
496.5880954558919
 20
495.1846533500972
 30
0.0
  0
INSERT
  5
2DF0
330
1A
100
AcDbEntity
  8
SOMBREA
370
    -1
100
AcDbBlockReference
  2
AME_NIL
 10
497.5880954558919
 20
496.1846533500972
 30
1.0
1001
AME_SOL
1004
C7CF0100AD005601550153014F01470122003A0129012D0017013B001000D90048013F003B019900DD00500149013C015600FD003D012A01B400FB002B01F40081004A013E012C01D1001801910005002D011901FC008E001A011500DA003F012E011B01840053001C01BF000C01F2000F002F011D010D01
1004
BC0079000E01BB0031001E010F016B00390010017400050165000400540151014B014001400030014E0019004101030031011F01FF00B1002001A90080004C01F0004201010032019700590052014D01430133018500E8003401AD0021010900440044013501220175005F002301DF002800360124012100
1004
5400250111014D0064001201D800A7004E0145013701260113016900960014010601EF00EE000701BD00A4002701150108018900380009017300620016010A0101010001F70002011C00D6000B010301BE00520004013D00660038010200C00046012B00390128016700EA00460000007D49F524E2AB4D13
1004
1313373AE652ADC721200C4BCEC721200C4BCECD834E393735323A1C8480312F20390900625E41BADF44E00A7EA12DCA9D9D4721200C4BCEC721200C4BCECD834E393735323A1C8480312F20390900625E41BADF44E00A7EA12D7D44169A8EB75AF9DF517FA85FFFFFFFA85FFFFFFFE675170CA182CF20A2
1004
E1943059E43FFFFFDF517FA85FFFFFFFA85FFFFFFFE675170CA182CF20A2E1943059E43FFFFF509B8FBEE168FF50BFFFFFFF50BFC33E9ECEE7C3CBCE328B8650C16790FF757EB99018AF60D4FD7320315EC1A7FDD77EB99018AF60D5FFFA84FD7320315EC1A56FFFFA84EAF9DF3ADFFFF509B8FAB770B47F
1004
A85FFFFFFFA85FEA2E1943059E43FFFDD5FAE64062BD8353F5CC80C57B069FF75DFAE64062BD8357FFEA13F5CC80C57B0695BFFFEA13ABE77CEB7FFFD426E3EBAEE168FF50BFFFFFFF50BFC33E9ECEE7C3CBCE328B8650C1679DFFBABF5CC80C57B06A7EB99018AF60D3FEEBBF5CC80C57B06AFE9FFA84FD
1004
7320315EC1A56FFD3FF509D5F3BE75BFF4FFD426E3EA5DC2D1FEA17FFFFFFEA17FA8B8650C1679D867D3D9DCF8790A73DFEEAFD7320315EC1A9FAE64062BD834FFBAEFD7320315EC1ABFFF509FAE64062BD834ADFFFF509D5F3BE75BFFFEA1153B2D1C8480312F3B1C8480312F3B360D38E4DCD4C8E87212
1004
00C4BC80E4240189790360D38E4DCD4C84B4E111F8F48EB75AE7F9C22FF50BFFFFFA7FEA3AFE9FFFFFFE67FFFFFFFFFF3845FEA17FFFFF4FFD475FD3FFFFFFCCFFFFFFFFFFA8454ECB4721200C4BCEC721200C4BCEDC94D72C2390E538821C8480312F20390900625E41BADF44E00A7EA12D3844DE3C23AD
1004
D69FDCE117FA85FFFFFFFA85FFFFFFFA8467FFFFFFFFFF3845FEA17FFFFFFEA17FFFFFFEA119FFFFFFFFFF509C7714721200C4BCEC721200C4BCEDC94D72C2390E538821C8480312F20390900625E41BADF44E00A7EA13584676D2AD8CCEDAC233B6956C6641D4D1A1CD39B47D3131685A6A3B78F08FBA85
1004
A6A3B78F08EB75B9A347FA85FFFFFFFA85FFFFFFFA847FD45C32860B3C828B8650C167906B08CEDA55B199DB584676D2AD8CC838EE28E424018979D8E424018979D9B069C726E6A6474390900625E40721200C4BC81B069C726E6A6426B08CEDA55B199DB584676D2AD8CC83A9A34379CE23EB531302D351
1004
CFC7A47DD4FC7A470B4D475BADCD1A3FD42FFFFFFFD42FFFFFFFF3FEA2E1943059E4145C32860B3C83584676D2AD8CCEDAC233B6956C664119A3987F
1005
2DF1
  0
INSERT
  5
2DF1
330
1A
100
AcDbEntity
  8
SOMBREA
370
    -1
100
AcDbBlockReference
  2
AME_NIL
 10
497.5880954558919
 20
496.1846533500972
 30
1.0
1001
AME_SOL
1004

1005
0
  0
INSERT
  5
2DF2
330
1A
100
AcDbEntity
  8
SOMBREA
370
    -1
100
AcDbBlockReference
  2
AME_SOL
 10
496.5880954558919
 20
495.1846533500972
 30
0.0
1001
AME_SOL
1000
R2.1
1000
AME2
1000
cm^ 2
1070
     3
1070
     0
1070
     3
1000
wire
1040
45.0
1000
U
1040
1.0
1000
mm
1000
gm
1000
MILD_STEEL
1070
    25
1000
CSG
1070
     1
1070
     3
1070
     3
1070
     6
1070
     0
1000
cm^ 3
1070
     1
1070
     0
1005
2DEF
  0
INSERT
  5
2DF3
330
1A
100
AcDbEntity
  8
SOMBREA
370
    -1
100
AcDbBlockReference
  2
AME_NIL
 10
524.4085990305202
 20
872.3042679526324
 30
0.0
  0
INSERT
  5
2DF4
330
1A
100
AcDbEntity
  8
SOMBREA
370
    -1
100
AcDbBlockReference
  2
AME_NIL
 10
525.4085990305202
 20
873.3042679526324
 30
1.0
1001
AME_SOL
1004
C7CF0100AD005601550153014F01470122003A0129012D0017013B001000D90048013F003B019900DD00500149013C015600FD003D012A01B400FB002B01F40081004A013E012C01D1001801910005002D011901FC008E001A011500DA003F012E011B01840053001C01BF000C01F2000F002F011D010D01
1004
BC0079000E01BB0031001E010F016B00390010017400050165000400540151014B014001400030014E0019004101030031011F01FF00B1002001A90080004C01F0004201010032019700590052014D01430133018500E8003401AD0021010900440044013501220175005F002301DF002800360124012100
1004
5400250111014D0064001201D800A7004E0145013701260113016900960014010601EF00EE000701BD00A4002701150108018900380009017300620016010A0101010001F70002011C00D6000B010301BE00520004013D00660038010200C00046012B00390128016700EA00460000007D49F524E2AB4D13
1004
1313373AE652ADC721200C4BCEC721200C4BCECD834E393735323A1C8480312F20390900625E41BADF44E00A7EA12DCA9D9D4721200C4BCEC721200C4BCECD834E393735323A1C8480312F20390900625E41BADF44E00A7EA12D7D44169A8EB75AF9DF517FA85FFFFFFFA85FFFFFFFE675170CA182CF20A2
1004
E1943059E43FFFFFDF517FA85FFFFFFFA85FFFFFFFE675170CA182CF20A2E1943059E43FFFFF509B8FBEE168FF50BFFFFFFF50BFC33E9ECEE7C3CBCE328B8650C16790FF757EB99018AF60D4FD7320315EC1A7FDD77EB99018AF60D5FFFA84FD7320315EC1A56FFFFA84EAF9DF3ADFFFF509B8FAB770B47F
1004
A85FFFFFFFA85FEA2E1943059E43FFFDD5FAE64062BD8353F5CC80C57B069FF75DFAE64062BD8357FFEA13F5CC80C57B0695BFFFEA13ABE77CEB7FFFD426E3EBAEE168FF50BFFFFFFF50BFC33E9ECEE7C3CBCE328B8650C1679DFFBABF5CC80C57B06A7EB99018AF60D3FEEBBF5CC80C57B06AFE9FFA84FD
1004
7320315EC1A56FFD3FF509D5F3BE75BFF4FFD426E3EA5DC2D1FEA17FFFFFFEA17FA8B8650C1679D867D3D9DCF8790A73DFEEAFD7320315EC1A9FAE64062BD834FFBAEFD7320315EC1ABFFF509FAE64062BD834ADFFFF509D5F3BE75BFFFEA1153B2D1C8480312F3B1C8480312F3B360D38E4DCD4C8E87212
1004
00C4BC80E4240189790360D38E4DCD4C84B4E111F8F48EB75AE7F9C22FF50BFFFFFA7FEA3AFE9FFFFFFE67FFFFFFFFFF3845FEA17FFFFF4FFD475FD3FFFFFFCCFFFFFFFFFFA8454ECB4721200C4BCEC721200C4BCEDC94D72C2390E538821C8480312F20390900625E41BADF44E00A7EA12D3844DE3C23AD
1004
D69FDCE117FA85FFFFFFFA85FFFFFFFA8467FFFFFFFFFF3845FEA17FFFFFFEA17FFFFFFEA119FFFFFFFFFF509C7714721200C4BCEC721200C4BCEDC94D72C2390E538821C8480312F20390900625E41BADF44E00A7EA13584676D2AD8CCEDAC233B6956C6641D4D1A1CD39B47D3131685A6A3B78F08FBA85
1004
A6A3B78F08EB75B9A347FA85FFFFFFFA85FFFFFFFA847FD45C32860B3C828B8650C167906B08CEDA55B199DB584676D2AD8CC838EE28E424018979D8E424018979D9B069C726E6A6474390900625E40721200C4BC81B069C726E6A6426B08CEDA55B199DB584676D2AD8CC83A9A34379CE23EB531302D351
1004
CFC7A47DD4FC7A470B4D475BADCD1A3FD42FFFFFFFD42FFFFFFFF3FEA2E1943059E4145C32860B3C83584676D2AD8CCEDAC233B6956C664119A3987F
1005
2DF5
  0
INSERT
  5
2DF5
330
1A
100
AcDbEntity
  8
SOMBREA
370
    -1
100
AcDbBlockReference
  2
AME_NIL
 10
525.4085990305202
 20
873.3042679526324
 30
1.0
1001
AME_SOL
1004

1005
0
  0
INSERT
  5
2DF6
330
1A
100
AcDbEntity
  8
SOMBREA
370
    -1
100
AcDbBlockReference
  2
AME_SOL
 10
524.4085990305202
 20
872.3042679526324
 30
0.0
1001
AME_SOL
1000
R2.1
1000
AME2
1000
cm^ 2
1070
     3
1070
     0
1070
     3
1000
wire
1040
45.0
1000
U
1040
1.0
1000
mm
1000
gm
1000
MILD_STEEL
1070
    25
1000
CSG
1070
     1
1070
     3
1070
     3
1070
     6
1070
     0
1000
cm^ 3
1070
     1
1070
     0
1005
2DF3
  0
TEXT
  5
2DF7
330
1A
100
AcDbEntity
  8
COTAS
370
    -1
100
AcDbText
 10
1674.15216961912
 20
997.0528931465971
 30
0.0
 40
6.0
  1

  7
ROMANS
100
AcDbText
  0
TEXT
  5
2DF8
330
1A
100
AcDbEntity
  8
COTAS
370
    -1
100
AcDbText
 10
1701.236104512562
 20
997.0528925134417
 30
0.0
 40
6.0
  1

  7
ROMANS
100
AcDbText
  0
TEXT
  5
2DF9
330
1A
100
AcDbEntity
  8
COTAS
370
    -1
100
AcDbText
 10
1619.940685358271
 20
997.0041513568741
 30
0.0
 40
6.0
  1

  7
ROMANS
100
AcDbText
  0
TEXT
  5
2DFA
330
1A
100
AcDbEntity
  8
COTAS
370
    -1
100
AcDbText
 10
1736.149209630311
 20
996.676074703513
 30
0.0
 40
6.0
  1

  7
ROMANS
100
AcDbText
  0
TEXT
  5
2DFB
330
1A
100
AcDbEntity
  8
COTAS
370
    -1
100
AcDbText
 10
1853.406435183532
 20
1081.195788789084
 30
0.0
 40
6.0
  1
  
  7
ROMANS
 11
1853.406435183532
 21
1084.195788789084
 31
0.0
100
AcDbText
 73
     2
  0
MTEXT
  5
2DFC
330
1A
100
AcDbEntity
  8
COTAS
370
    -1
100
AcDbMText
 10
596.3812211938248
 20
494.9476753341791
 30
0.0
 40
5.0
 41
0.0
 71
     4
 72
     1
  1
\A1;
  7
ESTANDAR
 73
     1
 44
1.0
  0
MTEXT
  5
2DFD
330
1A
100
AcDbEntity
  8
COTAS
370
    -1
100
AcDbMText
 10
1191.951577408121
 20
1156.246346476786
 30
0.0
 40
2.5
 41
0.0
 71
     6
 72
     1
  1
\A1; 
 73
     1
 44
1.0
  0
MTEXT
  5
2DFE
330
1A
100
AcDbEntity
  8
COTAS
370
    -1
100
AcDbMText
 10
1193.826577408121
 20
922.1346873289876
 30
0.0
 40
4.0
 41
0.0
 71
     6
 72
     1
  1
\A1; 
  7
ROMANS
 73
     1
 44
1.0
  0
MTEXT
  5
2DFF
330
1A
100
AcDbEntity
  8
COTAS
370
    -1
100
AcDbMText
 10
584.6428558980858
 20
910.2096477503381
 30
0.0
 40
2.5
 41
0.0
 71
     6
 72
     1
  1
\A1; 
 73
     1
 44
1.0
  0
MTEXT
  5
2E00
330
1A
100
AcDbEntity
  8
COTAS
370
    -1
100
AcDbMText
 10
586.5178558980858
 20
676.0979886025402
 30
0.0
 40
4.0
 41
0.0
 71
     6
 72
     1
  1
\A1; 
  7
ROMANS
 73
     1
 44
1.0
  0
INSERT
  5
2E04
330
1A
100
AcDbEntity
  8
SOMBREA
370
    -1
100
AcDbBlockReference
  2
AME_NIL
 10
605.8387717807736
 20
165.3863794267491
 30
0.0
  0
INSERT
  5
2E05
330
1A
100
AcDbEntity
  8
SOMBREA
370
    -1
100
AcDbBlockReference
  2
AME_NIL
 10
606.8387717807736
 20
166.3863794267491
 30
1.0
1001
AME_SOL
1004
C7CF0100AD005601550153014F01470122003A0129012D0017013B001000D90048013F003B019900DD00500149013C015600FD003D012A01B400FB002B01F40081004A013E012C01D1001801910005002D011901FC008E001A011500DA003F012E011B01840053001C01BF000C01F2000F002F011D010D01
1004
BC0079000E01BB0031001E010F016B00390010017400050165000400540151014B014001400030014E0019004101030031011F01FF00B1002001A90080004C01F0004201010032019700590052014D01430133018500E8003401AD0021010900440044013501220175005F002301DF002800360124012100
1004
5400250111014D0064001201D800A7004E0145013701260113016900960014010601EF00EE000701BD00A4002701150108018900380009017300620016010A0101010001F70002011C00D6000B010301BE00520004013D00660038010200C00046012B00390128016700EA00460000007D49F524E2AB4D13
1004
1313373AE652ADC721200C4BCEC721200C4BCECD834E393735323A1C8480312F20390900625E41BADF44E00A7EA12DCA9D9D4721200C4BCEC721200C4BCECD834E393735323A1C8480312F20390900625E41BADF44E00A7EA12D7D44169A8EB75AF9DF517FA85FFFFFFFA85FFFFFFFE675170CA182CF20A2
1004
E1943059E43FFFFFDF517FA85FFFFFFFA85FFFFFFFE675170CA182CF20A2E1943059E43FFFFF509B8FBEE168FF50BFFFFFFF50BFC33E9ECEE7C3CBCE328B8650C16790FF757EB99018AF60D4FD7320315EC1A7FDD77EB99018AF60D5FFFA84FD7320315EC1A56FFFFA84EAF9DF3ADFFFF509B8FAB770B47F
1004
A85FFFFFFFA85FEA2E1943059E43FFFDD5FAE64062BD8353F5CC80C57B069FF75DFAE64062BD8357FFEA13F5CC80C57B0695BFFFEA13ABE77CEB7FFFD426E3EBAEE168FF50BFFFFFFF50BFC33E9ECEE7C3CBCE328B8650C1679DFFBABF5CC80C57B06A7EB99018AF60D3FEEBBF5CC80C57B06AFE9FFA84FD
1004
7320315EC1A56FFD3FF509D5F3BE75BFF4FFD426E3EA5DC2D1FEA17FFFFFFEA17FA8B8650C1679D867D3D9DCF8790A73DFEEAFD7320315EC1A9FAE64062BD834FFBAEFD7320315EC1ABFFF509FAE64062BD834ADFFFF509D5F3BE75BFFFEA1153B2D1C8480312F3B1C8480312F3B360D38E4DCD4C8E87212
1004
00C4BC80E4240189790360D38E4DCD4C84B4E111F8F48EB75AE7F9C22FF50BFFFFFA7FEA3AFE9FFFFFFE67FFFFFFFFFF3845FEA17FFFFF4FFD475FD3FFFFFFCCFFFFFFFFFFA8454ECB4721200C4BCEC721200C4BCEDC94D72C2390E538821C8480312F20390900625E41BADF44E00A7EA12D3844DE3C23AD
1004
D69FDCE117FA85FFFFFFFA85FFFFFFFA8467FFFFFFFFFF3845FEA17FFFFFFEA17FFFFFFEA119FFFFFFFFFF509C7714721200C4BCEC721200C4BCEDC94D72C2390E538821C8480312F20390900625E41BADF44E00A7EA13584676D2AD8CCEDAC233B6956C6641D4D1A1CD39B47D3131685A6A3B78F08FBA85
1004
A6A3B78F08EB75B9A347FA85FFFFFFFA85FFFFFFFA847FD45C32860B3C828B8650C167906B08CEDA55B199DB584676D2AD8CC838EE28E424018979D8E424018979D9B069C726E6A6474390900625E40721200C4BC81B069C726E6A6426B08CEDA55B199DB584676D2AD8CC83A9A34379CE23EB531302D351
1004
CFC7A47DD4FC7A470B4D475BADCD1A3FD42FFFFFFFD42FFFFFFFF3FEA2E1943059E4145C32860B3C83584676D2AD8CCEDAC233B6956C664119A3987F
1005
0
  0
INSERT
  5
2E06
330
1A
100
AcDbEntity
  8
SOMBREA
370
    -1
100
AcDbBlockReference
  2
AME_NIL
 10
606.8387717807736
 20
166.3863794267491
 30
1.0
1001
AME_SOL
1004

1005
0
  0
INSERT
  5
2E07
330
1A
100
AcDbEntity
  8
SOMBREA
370
    -1
100
AcDbBlockReference
  2
AME_SOL
 10
605.8387717807736
 20
165.3863794267491
 30
0.0
1001
AME_SOL
1000
R2.1
1000
AME2
1000
cm^ 2
1070
     3
1070
     0
1070
     3
1000
wire
1040
45.0
1000
U
1040
1.0
1000
mm
1000
gm
1000
MILD_STEEL
1070
    25
1000
CSG
1070
     1
1070
     3
1070
     3
1070
     6
1070
     0
1000
cm^ 3
1070
     1
1070
     0
1005
0
  0
MTEXT
  5
2E43
330
1A
100
AcDbEntity
  8
TORNILLERIA
370
    -1
100
AcDbMText
 10
346.1655327460633
 20
365.4123437600182
 30
0.0
 40
5.3332
 41
0.0
 71
     6
 72
     1
  1
\A1; 
 73
     1
 44
1.0
  0
INSERT
  5
2E5A
330
1A
100
AcDbEntity
  8
ASHADE
 62
     1
370
    -1
100
AcDbBlockReference
  2
AVE_RENDER
 10
624.3016887145023
 20
144.5867225397632
 30
0.0
1001
AVE_RENDER
1002
{
1070
     2
1000
Pref
1070
    30
1070
    20
1070
     0
1070
     0
1000

1070
    10
1070
     0
1070
    30
1040
1.0
1070
     1
1040
0.3
1040
0.7
1040
0.0
1040
10.0
1010
-1.0
1020
-1.0
1030
-1.0
1040
0.3
1070
    49
1002
}
  0
INSERT
  5
2E5B
330
1A
100
AcDbEntity
  8
ASHADE
 62
     3
370
    -1
100
AcDbBlockReference
  2
AVE_RENDER
 10
624.3016887145023
 20
144.5867225397632
 30
0.0
1001
AVE_RENDER
1002
{
1070
     0
1000
Full Opt
1070
     0
1070
     1
1070
     1
1070
     1
1070
     0
1070
     0
1070
     0
1070
     1
1070
     1
1040
0.0001
1040
0.0001
1002
}
  0
INSERT
  5
2E5C
330
1A
100
AcDbEntity
  8
ASHADE
 62
     4
370
    -1
100
AcDbBlockReference
  2
AVE_RENDER
 10
624.3016887145023
 20
144.5867225397632
 30
0.0
1001
AVE_RENDER
1002
{
1070
     0
1000
Quick Opt
1070
     0
1070
     1
1070
     1
1070
     1
1070
     0
1070
     0
1070
     1
1002
}
  0
SPLINE
  5
2EDB
330
1A
100
AcDbEntity
  8
SOPORTES
370
    -1
100
AcDbSpline
210
0.0
220
0.0
230
1.0
 70
  1064
 71
     3
 72
    10
 73
     6
 74
     4
 42
0.0000000001
 43
0.0000000001
 44
0.0000000001
 40
0.0
 40
0.0
 40
0.0
 40
0.0
 40
2.876819840126755
 40
5.708878983354253
 40
8.175397470393225
 40
8.175397470393225
 40
8.175397470393225
 40
8.175397470393225
 10
188.8521014638175
 20
121.4678506122167
 30
0.0
 10
188.3522613979447
 20
120.246485990733
 30
0.0
 10
187.3603583224386
 20
117.8227600690246
 30
0.0
 10
184.9522954662476
 20
121.8237422432756
 30
0.0
 10
183.519210699184
 20
120.1587524038
 30
0.0
 10
182.8521014638176
 20
119.3836900179363
 30
0.0
 11
188.8521014638175
 21
121.4678506122167
 31
0.0
 11
187.1774553396803
 21
119.1286941934496
 31
0.0
 11
184.8810819090689
 21
120.7861706059276
 31
0.0
 11
182.8521014638176
 21
119.3836900179363
 31
0.0
  0
LINE
  5
2EDC
330
1A
100
AcDbEntity
  8
SOPORTES
370
    -1
100
AcDbLine
 10
188.8521014638174
 20
179.5737117997963
 30
0.0
 11
188.8521014638175
 21
173.7111888838379
 31
0.0
  0
LINE
  5
2EDD
330
1A
100
AcDbEntity
  8
SOPORTES
370
    -1
100
AcDbLine
 10
187.8521014638175
 20
180.5737117997964
 30
0.0
 11
187.8521014638175
 21
173.7111888838378
 31
0.0
  0
LINE
  5
2EDE
330
1A
100
AcDbEntity
  8
SOPORTES
370
    -1
100
AcDbLine
 10
183.8521014638175
 20
180.5737117997963
 30
0.0
 11
183.8521014638175
 21
173.7111888838378
 31
0.0
  0
LINE
  5
2EDF
330
1A
100
AcDbEntity
  8
SOPORTES
370
    -1
100
AcDbLine
 10
182.8521014638175
 20
179.5737117997963
 30
0.0
 11
182.8521014638175
 21
173.7111888838378
 31
0.0
  0
INSERT
  5
3035
330
1A
100
AcDbEntity
  8
ASHADE
 62
     1
370
    -1
100
AcDbBlockReference
  2
AVE_RENDER
 10
168.0630518236401
 20
27.10530400169534
 30
0.0
1001
AVE_RENDER
1002
{
1070
     2
1000
Pref
1070
    30
1070
    20
1070
     0
1070
     0
1000

1070
    10
1070
     0
1070
    30
1040
1.0
1070
     1
1040
0.3
1040
0.7
1040
0.0
1040
10.0
1010
-1.0
1020
-1.0
1030
-1.0
1040
0.3
1070
    49
1002
}
  0
INSERT
  5
3036
330
1A
100
AcDbEntity
  8
ASHADE
 62
     3
370
    -1
100
AcDbBlockReference
  2
AVE_RENDER
 10
168.0630518236401
 20
27.10530400169534
 30
0.0
1001
AVE_RENDER
1002
{
1070
     0
1000
Full Opt
1070
     0
1070
     1
1070
     1
1070
     1
1070
     0
1070
     0
1070
     0
1070
     1
1070
     1
1040
0.0001
1040
0.0001
1002
}
  0
INSERT
  5
3037
330
1A
100
AcDbEntity
  8
ASHADE
 62
     4
370
    -1
100
AcDbBlockReference
  2
AVE_RENDER
 10
168.0630518236401
 20
27.10530400169534
 30
0.0
1001
AVE_RENDER
1002
{
1070
     0
1000
Quick Opt
1070
     0
1070
     1
1070
     1
1070
     1
1070
     0
1070
     0
1070
     1
1002
}
  0
INSERT
  5
3038
330
1A
100
AcDbEntity
  8
ASHADE
 62
     1
370
    -1
100
AcDbBlockReference
  2
AVE_RENDER
 10
168.0630518236401
 20
27.10530400169534
 30
0.0
1001
AVE_RENDER
1002
{
1070
     2
1000
Pref
1070
    30
1070
    20
1070
     0
1070
     0
1000

1070
    10
1070
     0
1070
    30
1040
1.0
1070
     1
1040
0.3
1040
0.7
1040
0.0
1040
10.0
1010
-1.0
1020
-1.0
1030
-1.0
1040
0.3
1070
    49
1002
}
  0
INSERT
  5
3039
330
1A
100
AcDbEntity
  8
ASHADE
 62
     3
370
    -1
100
AcDbBlockReference
  2
AVE_RENDER
 10
168.0630518236401
 20
27.10530400169534
 30
0.0
1001
AVE_RENDER
1002
{
1070
     0
1000
Full Opt
1070
     0
1070
     1
1070
     1
1070
     1
1070
     0
1070
     0
1070
     0
1070
     1
1070
     1
1040
0.0001
1040
0.0001
1002
}
  0
INSERT
  5
303A
330
1A
100
AcDbEntity
  8
ASHADE
 62
     4
370
    -1
100
AcDbBlockReference
  2
AVE_RENDER
 10
168.0630518236401
 20
27.10530400169534
 30
0.0
1001
AVE_RENDER
1002
{
1070
     0
1000
Quick Opt
1070
     0
1070
     1
1070
     1
1070
     1
1070
     0
1070
     0
1070
     1
1002
}
  0
INSERT
  5
303B
330
1A
100
AcDbEntity
  8
SOMBREA
370
    -1
100
AcDbBlockReference
  2
AME_NIL
 10
193.2075599136444
 20
69.52740121065113
 30
0.0
  0
INSERT
  5
303C
330
1A
100
AcDbEntity
  8
SOMBREA
370
    -1
100
AcDbBlockReference
  2
AME_NIL
 10
194.2075599136444
 20
70.52740121065113
 30
1.0
1001
AME_SOL
1004
C7CF0100AD005601550153014F01470122003A0129012D0017013B001000D90048013F003B019900DD00500149013C015600FD003D012A01B400FB002B01F40081004A013E012C01D1001801910005002D011901FC008E001A011500DA003F012E011B01840053001C01BF000C01F2000F002F011D010D01
1004
BC0079000E01BB0031001E010F016B00390010017400050165000400540151014B014001400030014E0019004101030031011F01FF00B1002001A90080004C01F0004201010032019700590052014D01430133018500E8003401AD0021010900440044013501220175005F002301DF002800360124012100
1004
5400250111014D0064001201D800A7004E0145013701260113016900960014010601EF00EE000701BD00A4002701150108018900380009017300620016010A0101010001F70002011C00D6000B010301BE00520004013D00660038010200C00046012B00390128016700EA00460000007D49F524E2AB4D13
1004
1313373AE652ADC721200C4BCEC721200C4BCECD834E393735323A1C8480312F20390900625E41BADF44E00A7EA12DCA9D9D4721200C4BCEC721200C4BCECD834E393735323A1C8480312F20390900625E41BADF44E00A7EA12D7D44169A8EB75AF9DF517FA85FFFFFFFA85FFFFFFFE675170CA182CF20A2
1004
E1943059E43FFFFFDF517FA85FFFFFFFA85FFFFFFFE675170CA182CF20A2E1943059E43FFFFF509B8FBEE168FF50BFFFFFFF50BFC33E9ECEE7C3CBCE328B8650C16790FF757EB99018AF60D4FD7320315EC1A7FDD77EB99018AF60D5FFFA84FD7320315EC1A56FFFFA84EAF9DF3ADFFFF509B8FAB770B47F
1004
A85FFFFFFFA85FEA2E1943059E43FFFDD5FAE64062BD8353F5CC80C57B069FF75DFAE64062BD8357FFEA13F5CC80C57B0695BFFFEA13ABE77CEB7FFFD426E3EBAEE168FF50BFFFFFFF50BFC33E9ECEE7C3CBCE328B8650C1679DFFBABF5CC80C57B06A7EB99018AF60D3FEEBBF5CC80C57B06AFE9FFA84FD
1004
7320315EC1A56FFD3FF509D5F3BE75BFF4FFD426E3EA5DC2D1FEA17FFFFFFEA17FA8B8650C1679D867D3D9DCF8790A73DFEEAFD7320315EC1A9FAE64062BD834FFBAEFD7320315EC1ABFFF509FAE64062BD834ADFFFF509D5F3BE75BFFFEA1153B2D1C8480312F3B1C8480312F3B360D38E4DCD4C8E87212
1004
00C4BC80E4240189790360D38E4DCD4C84B4E111F8F48EB75AE7F9C22FF50BFFFFFA7FEA3AFE9FFFFFFE67FFFFFFFFFF3845FEA17FFFFF4FFD475FD3FFFFFFCCFFFFFFFFFFA8454ECB4721200C4BCEC721200C4BCEDC94D72C2390E538821C8480312F20390900625E41BADF44E00A7EA12D3844DE3C23AD
1004
D69FDCE117FA85FFFFFFFA85FFFFFFFA8467FFFFFFFFFF3845FEA17FFFFFFEA17FFFFFFEA119FFFFFFFFFF509C7714721200C4BCEC721200C4BCEDC94D72C2390E538821C8480312F20390900625E41BADF44E00A7EA13584676D2AD8CCEDAC233B6956C6641D4D1A1CD39B47D3131685A6A3B78F08FBA85
1004
A6A3B78F08EB75B9A347FA85FFFFFFFA85FFFFFFFA847FD45C32860B3C828B8650C167906B08CEDA55B199DB584676D2AD8CC838EE28E424018979D8E424018979D9B069C726E6A6474390900625E40721200C4BC81B069C726E6A6426B08CEDA55B199DB584676D2AD8CC83A9A34379CE23EB531302D351
1004
CFC7A47DD4FC7A470B4D475BADCD1A3FD42FFFFFFFD42FFFFFFFF3FEA2E1943059E4145C32860B3C83584676D2AD8CCEDAC233B6956C664119A3987F
1005
0
  0
INSERT
  5
303D
330
1A
100
AcDbEntity
  8
SOMBREA
370
    -1
100
AcDbBlockReference
  2
AME_NIL
 10
194.2075599136444
 20
70.52740121065113
 30
1.0
1001
AME_SOL
1004

1005
0
  0
INSERT
  5
303E
330
1A
100
AcDbEntity
  8
SOMBREA
370
    -1
100
AcDbBlockReference
  2
AME_SOL
 10
193.2075599136444
 20
69.52740121065113
 30
0.0
1001
AME_SOL
1000
R2.1
1000
AME2
1000
cm^ 2
1070
     3
1070
     0
1070
     3
1000
wire
1040
45.0
1000
U
1040
1.0
1000
mm
1000
gm
1000
MILD_STEEL
1070
    25
1000
CSG
1070
     1
1070
     3
1070
     3
1070
     6
1070
     0
1000
cm^ 3
1070
     1
1070
     0
1005
0
  0
INSERT
  5
304E
330
1A
100
AcDbEntity
  8
SOMBREA
370
    -1
100
AcDbBlockReference
  2
AME_NIL
 10
572.9540072127359
 20
191.8104835213679
 30
0.0
 41
0.5
 42
0.5
 43
0.5
  0
INSERT
  5
304F
330
1A
100
AcDbEntity
  8
SOMBREA
370
    -1
100
AcDbBlockReference
  2
AME_NIL
 10
573.4540072127359
 20
192.3104835213679
 30
0.5
 41
0.5
 42
0.5
 43
0.5
1001
AME_SOL
1004
C7CF0100AD005601550153014F01470122003A0129012D0017013B001000D90048013F003B019900DD00500149013C015600FD003D012A01B400FB002B01F40081004A013E012C01D1001801910005002D011901FC008E001A011500DA003F012E011B01840053001C01BF000C01F2000F002F011D010D01
1004
BC0079000E01BB0031001E010F016B00390010017400050165000400540151014B014001400030014E0019004101030031011F01FF00B1002001A90080004C01F0004201010032019700590052014D01430133018500E8003401AD0021010900440044013501220175005F002301DF002800360124012100
1004
5400250111014D0064001201D800A7004E0145013701260113016900960014010601EF00EE000701BD00A4002701150108018900380009017300620016010A0101010001F70002011C00D6000B010301BE00520004013D00660038010200C00046012B00390128016700EA00460000007D49F524E2AB4D13
1004
1313373AE652ADC721200C4BCEC721200C4BCECD834E393735323A1C8480312F20390900625E41BADF44E00A7EA12DCA9D9D4721200C4BCEC721200C4BCECD834E393735323A1C8480312F20390900625E41BADF44E00A7EA12D7D44169A8EB75AF9DF517FA85FFFFFFFA85FFFFFFFE675170CA182CF20A2
1004
E1943059E43FFFFFDF517FA85FFFFFFFA85FFFFFFFE675170CA182CF20A2E1943059E43FFFFF509B8FBEE168FF50BFFFFFFF50BFC33E9ECEE7C3CBCE328B8650C16790FF757EB99018AF60D4FD7320315EC1A7FDD77EB99018AF60D5FFFA84FD7320315EC1A56FFFFA84EAF9DF3ADFFFF509B8FAB770B47F
1004
A85FFFFFFFA85FEA2E1943059E43FFFDD5FAE64062BD8353F5CC80C57B069FF75DFAE64062BD8357FFEA13F5CC80C57B0695BFFFEA13ABE77CEB7FFFD426E3EBAEE168FF50BFFFFFFF50BFC33E9ECEE7C3CBCE328B8650C1679DFFBABF5CC80C57B06A7EB99018AF60D3FEEBBF5CC80C57B06AFE9FFA84FD
1004
7320315EC1A56FFD3FF509D5F3BE75BFF4FFD426E3EA5DC2D1FEA17FFFFFFEA17FA8B8650C1679D867D3D9DCF8790A73DFEEAFD7320315EC1A9FAE64062BD834FFBAEFD7320315EC1ABFFF509FAE64062BD834ADFFFF509D5F3BE75BFFFEA1153B2D1C8480312F3B1C8480312F3B360D38E4DCD4C8E87212
1004
00C4BC80E4240189790360D38E4DCD4C84B4E111F8F48EB75AE7F9C22FF50BFFFFFA7FEA3AFE9FFFFFFE67FFFFFFFFFF3845FEA17FFFFF4FFD475FD3FFFFFFCCFFFFFFFFFFA8454ECB4721200C4BCEC721200C4BCEDC94D72C2390E538821C8480312F20390900625E41BADF44E00A7EA12D3844DE3C23AD
1004
D69FDCE117FA85FFFFFFFA85FFFFFFFA8467FFFFFFFFFF3845FEA17FFFFFFEA17FFFFFFEA119FFFFFFFFFF509C7714721200C4BCEC721200C4BCEDC94D72C2390E538821C8480312F20390900625E41BADF44E00A7EA13584676D2AD8CCEDAC233B6956C6641D4D1A1CD39B47D3131685A6A3B78F08FBA85
1004
A6A3B78F08EB75B9A347FA85FFFFFFFA85FFFFFFFA847FD45C32860B3C828B8650C167906B08CEDA55B199DB584676D2AD8CC838EE28E424018979D8E424018979D9B069C726E6A6474390900625E40721200C4BC81B069C726E6A6426B08CEDA55B199DB584676D2AD8CC83A9A34379CE23EB531302D351
1004
CFC7A47DD4FC7A470B4D475BADCD1A3FD42FFFFFFFD42FFFFFFFF3FEA2E1943059E4145C32860B3C83584676D2AD8CCEDAC233B6956C664119A3987F
1005
0
  0
INSERT
  5
3050
330
1A
100
AcDbEntity
  8
SOMBREA
370
    -1
100
AcDbBlockReference
  2
AME_NIL
 10
573.4540072127359
 20
192.3104835213679
 30
0.5
 41
0.5
 42
0.5
 43
0.5
1001
AME_SOL
1004

1005
0
  0
INSERT
  5
3051
330
1A
100
AcDbEntity
  8
SOMBREA
370
    -1
100
AcDbBlockReference
  2
AME_SOL
 10
572.9540072127359
 20
191.8104835213679
 30
0.0
 41
0.5
 42
0.5
 43
0.5
1001
AME_SOL
1000
R2.1
1000
AME2
1000
cm^ 2
1070
     3
1070
     0
1070
     3
1000
wire
1040
45.0
1000
U
1040
1.0
1000
mm
1000
gm
1000
MILD_STEEL
1070
    25
1000
CSG
1070
     1
1070
     3
1070
     3
1070
     6
1070
     0
1000
cm^ 3
1070
     1
1070
     0
1005
0
  0
TEXT
  5
3054
330
1A
100
AcDbEntity
  8
COTAS
370
    -1
100
AcDbText
 10
673.3261911209119
 20
697.4728629213853
 30
0.0
 40
6.0
  1

 50
180.0
  7
ROMANS
 71
     4
100
AcDbText
  0
TEXT
  5
3055
330
1A
100
AcDbEntity
  8
COTAS
370
    -1
100
AcDbText
 10
646.2422562274699
 20
697.47286228823
 30
0.0
 40
6.0
  1

 50
180.0
  7
ROMANS
 71
     4
100
AcDbText
  0
TEXT
  5
3056
330
1A
100
AcDbEntity
  8
COTAS
370
    -1
100
AcDbText
 10
727.5376753817613
 20
697.4241211316623
 30
0.0
 40
6.0
  1

 50
180.0
  7
ROMANS
 71
     4
100
AcDbText
  0
TEXT
  5
3057
330
1A
100
AcDbEntity
  8
COTAS
370
    -1
100
AcDbText
 10
611.3291511097211
 20
697.0960444783012
 30
0.0
 40
6.0
  1

 50
180.0
  7
ROMANS
 71
     4
100
AcDbText
  0
TEXT
  5
3058
330
1A
100
AcDbEntity
  8
COTAS
370
    -1
100
AcDbText
 10
494.0719255565002
 20
781.6157585638725
 30
0.0
 40
6.0
  1
  
 50
180.0
  7
ROMANS
 71
     4
 11
494.0719255565002
 21
784.6157585638725
 31
0.0
100
AcDbText
 73
     2
  0
MTEXT
  5
3059
330
1A
100
AcDbEntity
  8
COTAS
370
    -1
100
AcDbMText
 10
1023.746940423109
 20
453.6879470228309
 30
0.0
 40
2.5
 41
0.0
 71
     4
 72
     1
  1
\A1;
  7
ROMANS
 73
     1
 44
1.0
  0
TEXT
  5
305A
330
1A
100
AcDbEntity
  8
0
370
    -1
100
AcDbText
 10
171.8170336692033
 20
1317.946209578803
 30
0.0
 40
2.5
  1
 
 50
180.0
 71
     4
100
AcDbText
  0
TEXT
  5
305B
330
1A
100
AcDbEntity
  8
0
370
    -1
100
AcDbText
 10
172.9420336692033
 20
1083.084550431005
 30
0.0
 40
4.0
  1
 
 50
180.0
  7
ROMANS
 71
     4
100
AcDbText
  0
TEXT
  5
305C
330
1A
100
AcDbEntity
  8
0
370
    -1
100
AcDbText
 10
537.4779940081407
 20
1106.055615242232
 30
0.0
 40
5.0
  1
 
 50
180.0
  7
ROMANS
 71
     4
100
AcDbText
  0
INSERT
  5
305D
330
1A
100
AcDbEntity
  8
SOMBREA
370
    -1
100
AcDbBlockReference
  2
AME_NIL
 10
431.4247814291671
 20
261.1371891070426
 30
0.0
  0
INSERT
  5
305E
330
1A
100
AcDbEntity
  8
SOMBREA
370
    -1
100
AcDbBlockReference
  2
AME_NIL
 10
432.4247814291671
 20
262.1371891070426
 30
1.0
1001
AME_SOL
1004
C7CF0100AD005601550153014F01470122003A0129012D0017013B001000D90048013F003B019900DD00500149013C015600FD003D012A01B400FB002B01F40081004A013E012C01D1001801910005002D011901FC008E001A011500DA003F012E011B01840053001C01BF000C01F2000F002F011D010D01
1004
BC0079000E01BB0031001E010F016B00390010017400050165000400540151014B014001400030014E0019004101030031011F01FF00B1002001A90080004C01F0004201010032019700590052014D01430133018500E8003401AD0021010900440044013501220175005F002301DF002800360124012100
1004
5400250111014D0064001201D800A7004E0145013701260113016900960014010601EF00EE000701BD00A4002701150108018900380009017300620016010A0101010001F70002011C00D6000B010301BE00520004013D00660038010200C00046012B00390128016700EA00460000007D49F524E2AB4D13
1004
1313373AE652ADC721200C4BCEC721200C4BCECD834E393735323A1C8480312F20390900625E41BADF44E00A7EA12DCA9D9D4721200C4BCEC721200C4BCECD834E393735323A1C8480312F20390900625E41BADF44E00A7EA12D7D44169A8EB75AF9DF517FA85FFFFFFFA85FFFFFFFE675170CA182CF20A2
1004
E1943059E43FFFFFDF517FA85FFFFFFFA85FFFFFFFE675170CA182CF20A2E1943059E43FFFFF509B8FBEE168FF50BFFFFFFF50BFC33E9ECEE7C3CBCE328B8650C16790FF757EB99018AF60D4FD7320315EC1A7FDD77EB99018AF60D5FFFA84FD7320315EC1A56FFFFA84EAF9DF3ADFFFF509B8FAB770B47F
1004
A85FFFFFFFA85FEA2E1943059E43FFFDD5FAE64062BD8353F5CC80C57B069FF75DFAE64062BD8357FFEA13F5CC80C57B0695BFFFEA13ABE77CEB7FFFD426E3EBAEE168FF50BFFFFFFF50BFC33E9ECEE7C3CBCE328B8650C1679DFFBABF5CC80C57B06A7EB99018AF60D3FEEBBF5CC80C57B06AFE9FFA84FD
1004
7320315EC1A56FFD3FF509D5F3BE75BFF4FFD426E3EA5DC2D1FEA17FFFFFFEA17FA8B8650C1679D867D3D9DCF8790A73DFEEAFD7320315EC1A9FAE64062BD834FFBAEFD7320315EC1ABFFF509FAE64062BD834ADFFFF509D5F3BE75BFFFEA1153B2D1C8480312F3B1C8480312F3B360D38E4DCD4C8E87212
1004
00C4BC80E4240189790360D38E4DCD4C84B4E111F8F48EB75AE7F9C22FF50BFFFFFA7FEA3AFE9FFFFFFE67FFFFFFFFFF3845FEA17FFFFF4FFD475FD3FFFFFFCCFFFFFFFFFFA8454ECB4721200C4BCEC721200C4BCEDC94D72C2390E538821C8480312F20390900625E41BADF44E00A7EA12D3844DE3C23AD
1004
D69FDCE117FA85FFFFFFFA85FFFFFFFA8467FFFFFFFFFF3845FEA17FFFFFFEA17FFFFFFEA119FFFFFFFFFF509C7714721200C4BCEC721200C4BCEDC94D72C2390E538821C8480312F20390900625E41BADF44E00A7EA13584676D2AD8CCEDAC233B6956C6641D4D1A1CD39B47D3131685A6A3B78F08FBA85
1004
A6A3B78F08EB75B9A347FA85FFFFFFFA85FFFFFFFA847FD45C32860B3C828B8650C167906B08CEDA55B199DB584676D2AD8CC838EE28E424018979D8E424018979D9B069C726E6A6474390900625E40721200C4BC81B069C726E6A6426B08CEDA55B199DB584676D2AD8CC83A9A34379CE23EB531302D351
1004
CFC7A47DD4FC7A470B4D475BADCD1A3FD42FFFFFFFD42FFFFFFFF3FEA2E1943059E4145C32860B3C83584676D2AD8CCEDAC233B6956C664119A3987F
1005
305F
  0
INSERT
  5
305F
330
1A
100
AcDbEntity
  8
SOMBREA
370
    -1
100
AcDbBlockReference
  2
AME_NIL
 10
432.4247814291671
 20
262.1371891070426
 30
1.0
1001
AME_SOL
1004

1005
0
  0
INSERT
  5
3060
330
1A
100
AcDbEntity
  8
SOMBREA
370
    -1
100
AcDbBlockReference
  2
AME_SOL
 10
431.4247814291671
 20
261.1371891070426
 30
0.0
1001
AME_SOL
1000
R2.1
1000
AME2
1000
cm^ 2
1070
     3
1070
     0
1070
     3
1000
wire
1040
45.0
1000
U
1040
1.0
1000
mm
1000
gm
1000
MILD_STEEL
1070
    25
1000
CSG
1070
     1
1070
     3
1070
     3
1070
     6
1070
     0
1000
cm^ 3
1070
     1
1070
     0
1005
305D
  0
INSERT
  5
3061
330
1A
100
AcDbEntity
  8
ASHADE
 62
     1
370
    -1
100
AcDbBlockReference
  2
AVE_RENDER
 10
514.5693806663144
 20
558.101966210514
 30
0.0
1001
AVE_RENDER
1002
{
1070
     2
1000
Pref
1070
    30
1070
    20
1070
     0
1070
     0
1000

1070
    10
1070
     0
1070
    30
1040
1.0
1070
     1
1040
0.3
1040
0.7
1040
0.0
1040
10.0
1010
-1.0
1020
-1.0
1030
-1.0
1040
0.3
1070
    49
1002
}
  0
INSERT
  5
3062
330
1A
100
AcDbEntity
  8
ASHADE
 62
     3
370
    -1
100
AcDbBlockReference
  2
AVE_RENDER
 10
514.5693806663144
 20
558.101966210514
 30
0.0
1001
AVE_RENDER
1002
{
1070
     0
1000
Full Opt
1070
     0
1070
     1
1070
     1
1070
     1
1070
     0
1070
     0
1070
     0
1070
     1
1070
     1
1040
0.0001
1040
0.0001
1002
}
  0
INSERT
  5
3063
330
1A
100
AcDbEntity
  8
ASHADE
 62
     4
370
    -1
100
AcDbBlockReference
  2
AVE_RENDER
 10
514.5693806663144
 20
558.101966210514
 30
0.0
1001
AVE_RENDER
1002
{
1070
     0
1000
Quick Opt
1070
     0
1070
     1
1070
     1
1070
     1
1070
     0
1070
     0
1070
     1
1002
}
  0
INSERT
  5
3064
330
1A
100
AcDbEntity
  8
SOMBREA
370
    -1
100
AcDbBlockReference
  2
AME_NIL
 10
404.3272744267778
 20
474.3344196622174
 30
0.0
  0
INSERT
  5
3065
330
1A
100
AcDbEntity
  8
SOMBREA
370
    -1
100
AcDbBlockReference
  2
AME_NIL
 10
405.3272744267778
 20
475.3344196622174
 30
1.0
1001
AME_SOL
1004
C7CF0100AD005601550153014F01470122003A0129012D0017013B001000D90048013F003B019900DD00500149013C015600FD003D012A01B400FB002B01F40081004A013E012C01D1001801910005002D011901FC008E001A011500DA003F012E011B01840053001C01BF000C01F2000F002F011D010D01
1004
BC0079000E01BB0031001E010F016B00390010017400050165000400540151014B014001400030014E0019004101030031011F01FF00B1002001A90080004C01F0004201010032019700590052014D01430133018500E8003401AD0021010900440044013501220175005F002301DF002800360124012100
1004
5400250111014D0064001201D800A7004E0145013701260113016900960014010601EF00EE000701BD00A4002701150108018900380009017300620016010A0101010001F70002011C00D6000B010301BE00520004013D00660038010200C00046012B00390128016700EA00460000007D49F524E2AB4D13
1004
1313373AE652ADC721200C4BCEC721200C4BCECD834E393735323A1C8480312F20390900625E41BADF44E00A7EA12DCA9D9D4721200C4BCEC721200C4BCECD834E393735323A1C8480312F20390900625E41BADF44E00A7EA12D7D44169A8EB75AF9DF517FA85FFFFFFFA85FFFFFFFE675170CA182CF20A2
1004
E1943059E43FFFFFDF517FA85FFFFFFFA85FFFFFFFE675170CA182CF20A2E1943059E43FFFFF509B8FBEE168FF50BFFFFFFF50BFC33E9ECEE7C3CBCE328B8650C16790FF757EB99018AF60D4FD7320315EC1A7FDD77EB99018AF60D5FFFA84FD7320315EC1A56FFFFA84EAF9DF3ADFFFF509B8FAB770B47F
1004
A85FFFFFFFA85FEA2E1943059E43FFFDD5FAE64062BD8353F5CC80C57B069FF75DFAE64062BD8357FFEA13F5CC80C57B0695BFFFEA13ABE77CEB7FFFD426E3EBAEE168FF50BFFFFFFF50BFC33E9ECEE7C3CBCE328B8650C1679DFFBABF5CC80C57B06A7EB99018AF60D3FEEBBF5CC80C57B06AFE9FFA84FD
1004
7320315EC1A56FFD3FF509D5F3BE75BFF4FFD426E3EA5DC2D1FEA17FFFFFFEA17FA8B8650C1679D867D3D9DCF8790A73DFEEAFD7320315EC1A9FAE64062BD834FFBAEFD7320315EC1ABFFF509FAE64062BD834ADFFFF509D5F3BE75BFFFEA1153B2D1C8480312F3B1C8480312F3B360D38E4DCD4C8E87212
1004
00C4BC80E4240189790360D38E4DCD4C84B4E111F8F48EB75AE7F9C22FF50BFFFFFA7FEA3AFE9FFFFFFE67FFFFFFFFFF3845FEA17FFFFF4FFD475FD3FFFFFFCCFFFFFFFFFFA8454ECB4721200C4BCEC721200C4BCEDC94D72C2390E538821C8480312F20390900625E41BADF44E00A7EA12D3844DE3C23AD
1004
D69FDCE117FA85FFFFFFFA85FFFFFFFA8467FFFFFFFFFF3845FEA17FFFFFFEA17FFFFFFEA119FFFFFFFFFF509C7714721200C4BCEC721200C4BCEDC94D72C2390E538821C8480312F20390900625E41BADF44E00A7EA13584676D2AD8CCEDAC233B6956C6641D4D1A1CD39B47D3131685A6A3B78F08FBA85
1004
A6A3B78F08EB75B9A347FA85FFFFFFFA85FFFFFFFA847FD45C32860B3C828B8650C167906B08CEDA55B199DB584676D2AD8CC838EE28E424018979D8E424018979D9B069C726E6A6474390900625E40721200C4BC81B069C726E6A6426B08CEDA55B199DB584676D2AD8CC83A9A34379CE23EB531302D351
1004
CFC7A47DD4FC7A470B4D475BADCD1A3FD42FFFFFFFD42FFFFFFFF3FEA2E1943059E4145C32860B3C83584676D2AD8CCEDAC233B6956C664119A3987F
1005
3066
  0
INSERT
  5
3066
330
1A
100
AcDbEntity
  8
SOMBREA
370
    -1
100
AcDbBlockReference
  2
AME_NIL
 10
405.3272744267778
 20
475.3344196622174
 30
1.0
1001
AME_SOL
1004

1005
0
  0
INSERT
  5
3067
330
1A
100
AcDbEntity
  8
SOMBREA
370
    -1
100
AcDbBlockReference
  2
AME_SOL
 10
404.3272744267778
 20
474.3344196622174
 30
0.0
1001
AME_SOL
1000
R2.1
1000
AME2
1000
cm^ 2
1070
     3
1070
     0
1070
     3
1000
wire
1040
45.0
1000
U
1040
1.0
1000
mm
1000
gm
1000
MILD_STEEL
1070
    25
1000
CSG
1070
     1
1070
     3
1070
     3
1070
     6
1070
     0
1000
cm^ 3
1070
     1
1070
     0
1005
3064
  0
INSERT
  5
3068
330
1A
100
AcDbEntity
  8
SOMBREA
370
    -1
100
AcDbBlockReference
  2
AME_NIL
 10
432.1477780014062
 20
851.4540342647525
 30
0.0
  0
INSERT
  5
3069
330
1A
100
AcDbEntity
  8
SOMBREA
370
    -1
100
AcDbBlockReference
  2
AME_NIL
 10
433.1477780014062
 20
852.4540342647525
 30
1.0
1001
AME_SOL
1004
C7CF0100AD005601550153014F01470122003A0129012D0017013B001000D90048013F003B019900DD00500149013C015600FD003D012A01B400FB002B01F40081004A013E012C01D1001801910005002D011901FC008E001A011500DA003F012E011B01840053001C01BF000C01F2000F002F011D010D01
1004
BC0079000E01BB0031001E010F016B00390010017400050165000400540151014B014001400030014E0019004101030031011F01FF00B1002001A90080004C01F0004201010032019700590052014D01430133018500E8003401AD0021010900440044013501220175005F002301DF002800360124012100
1004
5400250111014D0064001201D800A7004E0145013701260113016900960014010601EF00EE000701BD00A4002701150108018900380009017300620016010A0101010001F70002011C00D6000B010301BE00520004013D00660038010200C00046012B00390128016700EA00460000007D49F524E2AB4D13
1004
1313373AE652ADC721200C4BCEC721200C4BCECD834E393735323A1C8480312F20390900625E41BADF44E00A7EA12DCA9D9D4721200C4BCEC721200C4BCECD834E393735323A1C8480312F20390900625E41BADF44E00A7EA12D7D44169A8EB75AF9DF517FA85FFFFFFFA85FFFFFFFE675170CA182CF20A2
1004
E1943059E43FFFFFDF517FA85FFFFFFFA85FFFFFFFE675170CA182CF20A2E1943059E43FFFFF509B8FBEE168FF50BFFFFFFF50BFC33E9ECEE7C3CBCE328B8650C16790FF757EB99018AF60D4FD7320315EC1A7FDD77EB99018AF60D5FFFA84FD7320315EC1A56FFFFA84EAF9DF3ADFFFF509B8FAB770B47F
1004
A85FFFFFFFA85FEA2E1943059E43FFFDD5FAE64062BD8353F5CC80C57B069FF75DFAE64062BD8357FFEA13F5CC80C57B0695BFFFEA13ABE77CEB7FFFD426E3EBAEE168FF50BFFFFFFF50BFC33E9ECEE7C3CBCE328B8650C1679DFFBABF5CC80C57B06A7EB99018AF60D3FEEBBF5CC80C57B06AFE9FFA84FD
1004
7320315EC1A56FFD3FF509D5F3BE75BFF4FFD426E3EA5DC2D1FEA17FFFFFFEA17FA8B8650C1679D867D3D9DCF8790A73DFEEAFD7320315EC1A9FAE64062BD834FFBAEFD7320315EC1ABFFF509FAE64062BD834ADFFFF509D5F3BE75BFFFEA1153B2D1C8480312F3B1C8480312F3B360D38E4DCD4C8E87212
1004
00C4BC80E4240189790360D38E4DCD4C84B4E111F8F48EB75AE7F9C22FF50BFFFFFA7FEA3AFE9FFFFFFE67FFFFFFFFFF3845FEA17FFFFF4FFD475FD3FFFFFFCCFFFFFFFFFFA8454ECB4721200C4BCEC721200C4BCEDC94D72C2390E538821C8480312F20390900625E41BADF44E00A7EA12D3844DE3C23AD
1004
D69FDCE117FA85FFFFFFFA85FFFFFFFA8467FFFFFFFFFF3845FEA17FFFFFFEA17FFFFFFEA119FFFFFFFFFF509C7714721200C4BCEC721200C4BCEDC94D72C2390E538821C8480312F20390900625E41BADF44E00A7EA13584676D2AD8CCEDAC233B6956C6641D4D1A1CD39B47D3131685A6A3B78F08FBA85
1004
A6A3B78F08EB75B9A347FA85FFFFFFFA85FFFFFFFA847FD45C32860B3C828B8650C167906B08CEDA55B199DB584676D2AD8CC838EE28E424018979D8E424018979D9B069C726E6A6474390900625E40721200C4BC81B069C726E6A6426B08CEDA55B199DB584676D2AD8CC83A9A34379CE23EB531302D351
1004
CFC7A47DD4FC7A470B4D475BADCD1A3FD42FFFFFFFD42FFFFFFFF3FEA2E1943059E4145C32860B3C83584676D2AD8CCEDAC233B6956C664119A3987F
1005
306A
  0
INSERT
  5
306A
330
1A
100
AcDbEntity
  8
SOMBREA
370
    -1
100
AcDbBlockReference
  2
AME_NIL
 10
433.1477780014062
 20
852.4540342647525
 30
1.0
1001
AME_SOL
1004

1005
0
  0
INSERT
  5
306B
330
1A
100
AcDbEntity
  8
SOMBREA
370
    -1
100
AcDbBlockReference
  2
AME_SOL
 10
432.1477780014062
 20
851.4540342647525
 30
0.0
1001
AME_SOL
1000
R2.1
1000
AME2
1000
cm^ 2
1070
     3
1070
     0
1070
     3
1000
wire
1040
45.0
1000
U
1040
1.0
1000
mm
1000
gm
1000
MILD_STEEL
1070
    25
1000
CSG
1070
     1
1070
     3
1070
     3
1070
     6
1070
     0
1000
cm^ 3
1070
     1
1070
     0
1005
3068
  0
TEXT
  5
306C
330
1A
100
AcDbEntity
  8
COTAS
370
    -1
100
AcDbText
 10
1581.891348590006
 20
976.2026594587172
 30
0.0
 40
6.0
  1

  7
ROMANS
100
AcDbText
  0
TEXT
  5
306D
330
1A
100
AcDbEntity
  8
COTAS
370
    -1
100
AcDbText
 10
1608.975283483448
 20
976.2026588255619
 30
0.0
 40
6.0
  1

  7
ROMANS
100
AcDbText
  0
TEXT
  5
306E
330
1A
100
AcDbEntity
  8
COTAS
370
    -1
100
AcDbText
 10
1527.679864329157
 20
976.1539176689943
 30
0.0
 40
6.0
  1

  7
ROMANS
100
AcDbText
  0
TEXT
  5
306F
330
1A
100
AcDbEntity
  8
COTAS
370
    -1
100
AcDbText
 10
1643.888388601197
 20
975.8258410156332
 30
0.0
 40
6.0
  1

  7
ROMANS
100
AcDbText
  0
TEXT
  5
3070
330
1A
100
AcDbEntity
  8
COTAS
370
    -1
100
AcDbText
 10
1761.145614154418
 20
1060.345555101205
 30
0.0
 40
6.0
  1
  
  7
ROMANS
 11
1761.145614154418
 21
1063.345555101205
 31
0.0
100
AcDbText
 73
     2
  0
MTEXT
  5
3071
330
1A
100
AcDbEntity
  8
COTAS
370
    -1
100
AcDbMText
 10
504.1204001647106
 20
474.0974416462992
 30
0.0
 40
5.0
 41
0.0
 71
     4
 72
     1
  1
\A1;
  7
ESTANDAR
 73
     1
 44
1.0
  0
MTEXT
  5
3072
330
1A
100
AcDbEntity
  8
COTAS
370
    -1
100
AcDbMText
 10
1099.690756379007
 20
1135.396112788906
 30
0.0
 40
2.5
 41
0.0
 71
     6
 72
     1
  1
\A1; 
 73
     1
 44
1.0
  0
MTEXT
  5
3073
330
1A
100
AcDbEntity
  8
COTAS
370
    -1
100
AcDbMText
 10
1101.565756379007
 20
901.2844536411078
 30
0.0
 40
4.0
 41
0.0
 71
     6
 72
     1
  1
\A1; 
  7
ROMANS
 73
     1
 44
1.0
  0
MTEXT
  5
3074
330
1A
100
AcDbEntity
  8
COTAS
370
    -1
100
AcDbMText
 10
492.3820348689717
 20
889.3594140624583
 30
0.0
 40
2.5
 41
0.0
 71
     6
 72
     1
  1
\A1; 
 73
     1
 44
1.0
  0
MTEXT
  5
3075
330
1A
100
AcDbEntity
  8
COTAS
370
    -1
100
AcDbMText
 10
494.2570348689717
 20
655.2477549146604
 30
0.0
 40
4.0
 41
0.0
 71
     6
 72
     1
  1
\A1; 
  7
ROMANS
 73
     1
 44
1.0
  0
INSERT
  5
3079
330
1A
100
AcDbEntity
  8
SOMBREA
370
    -1
100
AcDbBlockReference
  2
AME_NIL
 10
513.5779507516595
 20
144.5361457388693
 30
0.0
  0
INSERT
  5
307A
330
1A
100
AcDbEntity
  8
SOMBREA
370
    -1
100
AcDbBlockReference
  2
AME_NIL
 10
514.5779507516595
 20
145.5361457388693
 30
1.0
1001
AME_SOL
1004
C7CF0100AD005601550153014F01470122003A0129012D0017013B001000D90048013F003B019900DD00500149013C015600FD003D012A01B400FB002B01F40081004A013E012C01D1001801910005002D011901FC008E001A011500DA003F012E011B01840053001C01BF000C01F2000F002F011D010D01
1004
BC0079000E01BB0031001E010F016B00390010017400050165000400540151014B014001400030014E0019004101030031011F01FF00B1002001A90080004C01F0004201010032019700590052014D01430133018500E8003401AD0021010900440044013501220175005F002301DF002800360124012100
1004
5400250111014D0064001201D800A7004E0145013701260113016900960014010601EF00EE000701BD00A4002701150108018900380009017300620016010A0101010001F70002011C00D6000B010301BE00520004013D00660038010200C00046012B00390128016700EA00460000007D49F524E2AB4D13
1004
1313373AE652ADC721200C4BCEC721200C4BCECD834E393735323A1C8480312F20390900625E41BADF44E00A7EA12DCA9D9D4721200C4BCEC721200C4BCECD834E393735323A1C8480312F20390900625E41BADF44E00A7EA12D7D44169A8EB75AF9DF517FA85FFFFFFFA85FFFFFFFE675170CA182CF20A2
1004
E1943059E43FFFFFDF517FA85FFFFFFFA85FFFFFFFE675170CA182CF20A2E1943059E43FFFFF509B8FBEE168FF50BFFFFFFF50BFC33E9ECEE7C3CBCE328B8650C16790FF757EB99018AF60D4FD7320315EC1A7FDD77EB99018AF60D5FFFA84FD7320315EC1A56FFFFA84EAF9DF3ADFFFF509B8FAB770B47F
1004
A85FFFFFFFA85FEA2E1943059E43FFFDD5FAE64062BD8353F5CC80C57B069FF75DFAE64062BD8357FFEA13F5CC80C57B0695BFFFEA13ABE77CEB7FFFD426E3EBAEE168FF50BFFFFFFF50BFC33E9ECEE7C3CBCE328B8650C1679DFFBABF5CC80C57B06A7EB99018AF60D3FEEBBF5CC80C57B06AFE9FFA84FD
1004
7320315EC1A56FFD3FF509D5F3BE75BFF4FFD426E3EA5DC2D1FEA17FFFFFFEA17FA8B8650C1679D867D3D9DCF8790A73DFEEAFD7320315EC1A9FAE64062BD834FFBAEFD7320315EC1ABFFF509FAE64062BD834ADFFFF509D5F3BE75BFFFEA1153B2D1C8480312F3B1C8480312F3B360D38E4DCD4C8E87212
1004
00C4BC80E4240189790360D38E4DCD4C84B4E111F8F48EB75AE7F9C22FF50BFFFFFA7FEA3AFE9FFFFFFE67FFFFFFFFFF3845FEA17FFFFF4FFD475FD3FFFFFFCCFFFFFFFFFFA8454ECB4721200C4BCEC721200C4BCEDC94D72C2390E538821C8480312F20390900625E41BADF44E00A7EA12D3844DE3C23AD
1004
D69FDCE117FA85FFFFFFFA85FFFFFFFA8467FFFFFFFFFF3845FEA17FFFFFFEA17FFFFFFEA119FFFFFFFFFF509C7714721200C4BCEC721200C4BCEDC94D72C2390E538821C8480312F20390900625E41BADF44E00A7EA13584676D2AD8CCEDAC233B6956C6641D4D1A1CD39B47D3131685A6A3B78F08FBA85
1004
A6A3B78F08EB75B9A347FA85FFFFFFFA85FFFFFFFA847FD45C32860B3C828B8650C167906B08CEDA55B199DB584676D2AD8CC838EE28E424018979D8E424018979D9B069C726E6A6474390900625E40721200C4BC81B069C726E6A6426B08CEDA55B199DB584676D2AD8CC83A9A34379CE23EB531302D351
1004
CFC7A47DD4FC7A470B4D475BADCD1A3FD42FFFFFFFD42FFFFFFFF3FEA2E1943059E4145C32860B3C83584676D2AD8CCEDAC233B6956C664119A3987F
1005
0
  0
INSERT
  5
307B
330
1A
100
AcDbEntity
  8
SOMBREA
370
    -1
100
AcDbBlockReference
  2
AME_NIL
 10
514.5779507516595
 20
145.5361457388693
 30
1.0
1001
AME_SOL
1004

1005
0
  0
INSERT
  5
307C
330
1A
100
AcDbEntity
  8
SOMBREA
370
    -1
100
AcDbBlockReference
  2
AME_SOL
 10
513.5779507516595
 20
144.5361457388693
 30
0.0
1001
AME_SOL
1000
R2.1
1000
AME2
1000
cm^ 2
1070
     3
1070
     0
1070
     3
1000
wire
1040
45.0
1000
U
1040
1.0
1000
mm
1000
gm
1000
MILD_STEEL
1070
    25
1000
CSG
1070
     1
1070
     3
1070
     3
1070
     6
1070
     0
1000
cm^ 3
1070
     1
1070
     0
1005
0
  0
LINE
  5
3097
330
1A
100
AcDbEntity
  8
SOPORTES
370
    -1
100
AcDbLine
 10
183.8521014638175
 20
180.5737117997963
 30
0.0
 11
187.8521014638175
 21
180.5737117997963
 31
0.0
  0
MTEXT
  5
30B4
330
1A
100
AcDbEntity
  8
TORNILLERIA
370
    -1
100
AcDbMText
 10
253.9047117169492
 20
344.5621100721384
 30
0.0
 40
5.3332
 41
0.0
 71
     6
 72
     1
  1
\A1; 
 73
     1
 44
1.0
  0
INSERT
  5
30B5
330
1A
100
AcDbEntity
  8
ASHADE
 62
     1
370
    -1
100
AcDbBlockReference
  2
AVE_RENDER
 10
532.0408676853882
 20
123.7364888518833
 30
0.0
1001
AVE_RENDER
1002
{
1070
     2
1000
Pref
1070
    30
1070
    20
1070
     0
1070
     0
1000

1070
    10
1070
     0
1070
    30
1040
1.0
1070
     1
1040
0.3
1040
0.7
1040
0.0
1040
10.0
1010
-1.0
1020
-1.0
1030
-1.0
1040
0.3
1070
    49
1002
}
  0
INSERT
  5
30B6
330
1A
100
AcDbEntity
  8
ASHADE
 62
     3
370
    -1
100
AcDbBlockReference
  2
AVE_RENDER
 10
532.0408676853882
 20
123.7364888518833
 30
0.0
1001
AVE_RENDER
1002
{
1070
     0
1000
Full Opt
1070
     0
1070
     1
1070
     1
1070
     1
1070
     0
1070
     0
1070
     0
1070
     1
1070
     1
1040
0.0001
1040
0.0001
1002
}
  0
INSERT
  5
30B7
330
1A
100
AcDbEntity
  8
ASHADE
 62
     4
370
    -1
100
AcDbBlockReference
  2
AVE_RENDER
 10
532.0408676853882
 20
123.7364888518833
 30
0.0
1001
AVE_RENDER
1002
{
1070
     0
1000
Quick Opt
1070
     0
1070
     1
1070
     1
1070
     1
1070
     0
1070
     0
1070
     1
1002
}
  0
LINE
  5
30D5
330
1A
100
AcDbEntity
  8
SOPORTES
370
    -1
100
AcDbLine
 10
177.3521014638176
 20
144.0532941469957
 30
0.0
 11
194.3521014638176
 21
144.0532941469957
 31
0.0
  0
LINE
  5
30D6
330
1A
100
AcDbEntity
  8
SOPORTES
370
    -1
100
AcDbLine
 10
196.3521014638175
 20
151.1590733503679
 30
0.0
 11
196.3521014638176
 21
146.0532941469957
 31
0.0
  0
LINE
  5
30D7
330
1A
100
AcDbEntity
  8
SOPORTES
370
    -1
100
AcDbLine
 10
175.3521014638176
 20
179.0532941469957
 30
0.0
 11
177.3521014638176
 21
179.0532941469957
 31
0.0
  0
LINE
  5
30D8
330
1A
100
AcDbEntity
  8
SOPORTES
370
    -1
100
AcDbLine
 10
176.3521014638176
 20
179.0532941469957
 30
0.0
 11
176.3521014638175
 21
146.0532941469957
 31
0.0
  0
LINE
  5
30D9
330
1A
100
AcDbEntity
  8
SOPORTES
370
    -1
100
AcDbLine
 10
177.3521014638176
 20
179.0532941469957
 30
0.0
 11
177.3521014638176
 21
169.5004045453096
 31
0.0
  0
LINE
  5
30DA
330
1A
100
AcDbEntity
  8
SOPORTES
370
    -1
100
AcDbLine
 10
177.3521014638176
 20
145.0532941469957
 30
0.0
 11
194.3521014638176
 21
145.0532941469957
 31
0.0
  0
LINE
  5
30DB
330
1A
100
AcDbEntity
  8
SOPORTES
370
    -1
100
AcDbLine
 10
195.3521014638176
 20
151.1590733503679
 30
0.0
 11
195.3521014638176
 21
146.0532941469957
 31
0.0
  0
LINE
  5
30DC
330
1A
100
AcDbEntity
  8
SOPORTES
370
    -1
100
AcDbLine
 10
195.6856911827572
 20
152.6495559774181
 30
0.0
 11
177.6853066043477
 21
168.7551632317845
 31
0.0
  0
LINE
  5
30DD
330
1A
100
AcDbEntity
  8
SOPORTES
370
    -1
100
AcDbLine
 10
195.0188963232874
 20
151.904314663893
 30
0.0
 11
177.0185117448779
 21
168.0099219182594
 31
0.0
  0
LINE
  5
30DE
330
1A
100
AcDbEntity
  8
SOPORTES
370
    -1
100
AcDbLine
 10
174.3521014638176
 20
208.0532941469957
 30
0.0
 11
174.3521014638176
 21
169.0532941469957
 31
0.0
  0
ARC
  5
30DF
330
1A
100
AcDbEntity
  8
SOPORTES
370
    -1
100
AcDbCircle
 10
169.7687681304841
 20
174.0532941469957
 30
0.0
 40
9.083333333333448
100
AcDbArc
 50
326.6015115320131
 51
33.39848846798671
  0
LINE
  5
30E0
330
1A
100
AcDbEntity
  8
SOPORTES
370
    -1
100
AcDbLine
 10
174.3521014638176
 20
169.0532941469957
 30
0.0
 11
175.3521014638176
 21
169.0532941469957
 31
0.0
  0
LINE
  5
30E1
330
1A
100
AcDbEntity
  8
SOPORTES
370
    -1
100
AcDbLine
 10
175.3521014638176
 20
146.0532941469957
 30
0.0
 11
175.3521014638176
 21
209.0532941469957
 31
0.0
  0
ARC
  5
30E2
330
1A
100
AcDbEntity
  8
SOPORTES
370
    -1
100
AcDbCircle
 10
177.3521014638176
 20
146.0532941469957
 30
0.0
 40
1.0
100
AcDbArc
 50
180.0
 51
270.0
  0
ARC
  5
30E3
330
1A
100
AcDbEntity
  8
SOPORTES
370
    -1
100
AcDbCircle
 10
194.3521014638176
 20
146.0532941469957
 30
0.0
 40
1.0
100
AcDbArc
 50
270.0
 51
359.9999999999999
  0
ARC
  5
30E4
330
1A
100
AcDbEntity
  8
SOPORTES
370
    -1
100
AcDbCircle
 10
194.3521014638176
 20
151.1590733503679
 30
0.0
 40
1.0
100
AcDbArc
 50
0.0
 51
48.17983011986411
  0
ARC
  5
30E5
330
1A
100
AcDbEntity
  8
SOPORTES
370
    -1
100
AcDbCircle
 10
178.3521014638176
 20
169.5004045453096
 30
0.0
 40
1.0
100
AcDbArc
 50
180.0000000000001
 51
228.1798301198642
  0
ARC
  5
30E6
330
1A
100
AcDbEntity
  8
SOPORTES
370
    -1
100
AcDbCircle
 10
177.3521014638176
 20
146.0532941469957
 30
0.0
 40
2.0
100
AcDbArc
 50
180.0
 51
270.0
  0
ARC
  5
30E7
330
1A
100
AcDbEntity
  8
SOPORTES
370
    -1
100
AcDbCircle
 10
194.3521014638176
 20
146.0532941469957
 30
0.0
 40
2.0
100
AcDbArc
 50
270.0
 51
0.0000000000001018
  0
ARC
  5
30E8
330
1A
100
AcDbEntity
  8
SOPORTES
370
    -1
100
AcDbCircle
 10
194.3521014638175
 20
151.1590733503679
 30
0.0
 40
2.0
100
AcDbArc
 50
0.0
 51
48.17983011986413
  0
ARC
  5
30E9
330
1A
100
AcDbEntity
  8
SOPORTES
370
    -1
100
AcDbCircle
 10
178.3521014638176
 20
169.5004045453096
 30
0.0
 40
2.0
100
AcDbArc
 50
180.0
 51
228.1798301198642
  0
LINE
  5
30EA
330
1A
100
AcDbEntity
  8
SOPORTES
370
    -1
100
AcDbLine
 10
166.7030359289704
 20
209.0532941469957
 30
0.0
 11
175.3521014638176
 21
209.0532941469957
 31
0.0
  0
LINE
  5
30EB
330
1A
100
AcDbEntity
  8
SOPORTES
370
    -1
100
AcDbLine
 10
166.1878928508265
 20
208.0532941469957
 30
0.0
 11
174.3521014638176
 21
208.0532941469957
 31
0.0
  0
SPLINE
  5
30EC
330
1A
100
AcDbEntity
  8
SOPORTES
370
    -1
100
AcDbSpline
210
0.0
220
0.0
230
1.0
 70
     8
 71
     3
 72
     9
 73
     5
 74
     0
 42
0.0000000001
 43
0.0000000001
 40
2.110472972419135
 40
2.110472972419135
 40
2.110472972419135
 40
2.110472972419135
 40
7.810249675906654
 40
13.64120157075194
 40
13.64120157075194
 40
13.64120157075194
 40
13.64120157075194
 10
165.5419802773
 20
206.2898827589746
 30
0.0
 10
167.3944310246511
 20
204.7225479663216
 30
0.0
 10
170.1670536982268
 20
201.7169699240694
 30
0.0
 10
165.6409155368632
 20
199.9478944897266
 30
0.0
 10
163.3521014638176
 20
199.0532941469957
 30
0.0
  0
ARC
  5
30ED
330
1A
100
AcDbEntity
  8
SOPORTES
370
    -1
100
AcDbCircle
 10
166.1878928508266
 20
207.0532941469956
 30
0.0
 40
1.0
100
AcDbArc
 50
90.0
 51
229.7658683743914
  0
ARC
  5
30EE
330
1A
100
AcDbEntity
  8
SOPORTES
370
    -1
100
AcDbCircle
 10
166.7030359289703
 20
207.0532941469957
 30
0.0
 40
2.0
100
AcDbArc
 50
89.99999999999878
 51
227.4594601777313
  0
SPLINE
  5
30EF
330
1A
100
AcDbEntity
  8
SOPORTES
370
    -1
100
AcDbSpline
210
0.0
220
0.0
230
1.0
 70
  1064
 71
     3
 72
    14
 73
    10
 74
     8
 42
0.0000000001
 43
0.0000000001
 44
0.0000000001
 40
0.0
 40
0.0
 40
0.0
 40
0.0
 40
1.823252100541241
 40
3.256897590491135
 40
4.1558980921413
 40
5.043215662528236
 40
6.313121718816333
 40
8.101621556111782
 40
9.759862561139817
 40
9.759862561139817
 40
9.759862561139817
 40
9.759862561139817
 10
165.3508125259094
 20
205.5796958746655
 30
0.0
 10
165.8429859987097
 20
205.2025367625169
 30
0.0
 10
166.7221615099794
 20
204.5288128144001
 30
0.0
 10
167.3615968086194
 20
203.3227589423035
 30
0.0
 10
167.8285649604228
 20
202.2422713855097
 30
0.0
 10
167.0827449349969
 20
201.3326501710208
 30
0.0
 10
165.7855111209487
 20
201.0471625790053
 30
0.0
 10
164.4640438423539
 20
200.127271989493
 30
0.0
 10
163.3282919834885
 20
199.8958319533509
 30
0.0
 10
162.7818771556658
 20
199.7844852128522
 30
0.0
 11
165.3508125259094
 21
205.5796958746655
 31
0.0
 11
166.7088519597577
 21
204.3631527729872
 31
0.0
 11
167.4360699294353
 21
203.1276393511939
 31
0.0
 11
167.654234738034
 21
202.255512056439
 31
0.0
 11
167.1451825474628
 21
201.5287395074308
 31
0.0
 11
165.9816344753338
 21
201.0199986346456
 31
0.0
 11
164.3817558154998
 21
200.2205488602297
 31
0.0
 11
162.7818771556658
 21
199.7844852128522
 31
0.0
  0
LINE
  5
30F0
330
1A
100
AcDbEntity
  8
SOPORTES
370
    -1
100
AcDbLine
 10
163.3521014638176
 20
199.0532941469957
 30
0.0
 11
162.7818771556658
 21
199.7844852128522
 31
0.0
  0
LINE
  5
30F1
330
1A
100
AcDbEntity
  8
OTROS
370
    -1
100
AcDbLine
 10
149.3521014638176
 20
183.0532941469957
 30
0.0
 11
174.3521014638176
 21
183.0532941469957
 31
0.0
  0
LINE
  5
30F2
330
1A
100
AcDbEntity
  8
OTROS
370
    -1
100
AcDbLine
 10
149.3521014638176
 20
189.0532941469957
 30
0.0
 11
149.3521014638176
 21
183.0532941469957
 31
0.0
  0
LINE
  5
30F3
330
1A
100
AcDbEntity
  8
OTROS
370
    -1
100
AcDbLine
 10
168.3521014638176
 20
208.0532941469957
 30
0.0
 11
168.3521014638176
 21
189.0532941469957
 31
0.0
  0
LINE
  5
30F4
330
1A
100
AcDbEntity
  8
OTROS
370
    -1
100
AcDbLine
 10
149.3521014638176
 20
189.0532941469957
 30
0.0
 11
168.3521014638176
 21
189.0532941469957
 31
0.0
  0
LINE
  5
3120
330
1A
100
AcDbEntity
  8
SOPORTES
370
    -1
100
AcDbLine
 10
183.8521014638175
 20
115.8159041610221
 30
0.0
 11
183.8521014638175
 21
59.52763380912455
 31
0.0
  0
LINE
  5
3121
330
1A
100
AcDbEntity
  8
SOPORTES
370
    -1
100
AcDbLine
 10
182.8521014638175
 20
114.7719827304573
 30
0.0
 11
182.8521014638175
 21
59.52763380912455
 31
0.0
  0
LINE
  5
3122
330
1A
100
AcDbEntity
  8
SOPORTES
370
    -1
100
AcDbLine
 10
187.8521014638175
 20
114.8651296974038
 30
0.0
 11
187.8521014638175
 21
59.52763380912461
 31
0.0
  0
LINE
  5
3123
330
1A
100
AcDbEntity
  8
SOPORTES
370
    -1
100
AcDbLine
 10
188.8521014638175
 20
116.8561433247378
 30
0.0
 11
188.8521014638175
 21
59.52763380912467
 31
0.0
  0
LINE
  5
3124
330
1A
100
AcDbEntity
  8
SOPORTES
370
    -1
100
AcDbLine
 10
182.8521014638175
 20
138.0532941469956
 30
0.0
 11
182.8521014638175
 21
119.3836900179362
 31
0.0
  0
LINE
  5
3125
330
1A
100
AcDbEntity
  8
SOPORTES
370
    -1
100
AcDbLine
 10
183.8521014638175
 20
138.0532941469956
 30
0.0
 11
183.8521014638175
 21
120.427611448501
 31
0.0
  0
LINE
  5
3126
330
1A
100
AcDbEntity
  8
SOPORTES
370
    -1
100
AcDbLine
 10
188.8521014638175
 20
138.0532941469957
 30
0.0
 11
188.8521014638175
 21
121.4678506122167
 31
0.0
  0
LINE
  5
3127
330
1A
100
AcDbEntity
  8
SOPORTES
370
    -1
100
AcDbLine
 10
187.8521014638175
 20
138.0532941469957
 30
0.0
 11
187.8521014638175
 21
119.4768369848827
 31
0.0
  0
LINE
  5
3128
330
1A
100
AcDbEntity
  8
SOPORTES
370
    -1
100
AcDbLine
 10
188.8521014638175
 20
157.4219732223661
 30
0.0
 11
188.8521014638175
 21
145.0532941469957
 31
0.0
  0
LINE
  5
3129
330
1A
100
AcDbEntity
  8
SOPORTES
370
    -1
100
AcDbLine
 10
187.8521014638175
 20
158.3167100644714
 30
0.0
 11
187.8521014638175
 21
145.0532941469957
 31
0.0
  0
LINE
  5
312A
330
1A
100
AcDbEntity
  8
SOPORTES
370
    -1
100
AcDbLine
 10
182.8521014638176
 20
162.7903942749976
 30
0.0
 11
182.8521014638176
 21
145.0532941469957
 31
0.0
  0
LINE
  5
312B
330
1A
100
AcDbEntity
  8
SOPORTES
370
    -1
100
AcDbLine
 10
183.8521014638175
 20
161.8956574328924
 30
0.0
 11
183.8521014638175
 21
145.0532941469957
 31
0.0
  0
LINE
  5
312C
330
1A
100
AcDbEntity
  8
SOPORTES
370
    -1
100
AcDbLine
 10
182.8521014638175
 20
179.5737117997963
 30
0.0
 11
188.8521014638174
 21
179.5737117997963
 31
0.0
  0
LINE
  5
312D
330
1A
100
AcDbEntity
  8
SOPORTES
370
    -1
100
AcDbLine
 10
183.8521014638175
 20
180.5737117997963
 30
0.0
 11
182.8521014638175
 21
179.5737117997963
 31
0.0
  0
LINE
  5
312E
330
1A
100
AcDbEntity
  8
SOPORTES
370
    -1
100
AcDbLine
 10
187.8521014638175
 20
180.5737117997963
 30
0.0
 11
188.8521014638174
 21
179.5737117997963
 31
0.0
  0
INSERT
  5
3202
330
1A
100
AcDbEntity
  8
ASHADE
 62
     1
370
    -1
100
AcDbBlockReference
  2
AVE_RENDER
 10
295.1549742614395
 20
118.9522518268772
 30
0.0
1001
AVE_RENDER
1002
{
1070
     2
1000
Pref
1070
    30
1070
    20
1070
     0
1070
     0
1000

1070
    10
1070
     0
1070
    30
1040
1.0
1070
     1
1040
0.3
1040
0.7
1040
0.0
1040
10.0
1010
-1.0
1020
-1.0
1030
-1.0
1040
0.3
1070
    49
1002
}
  0
INSERT
  5
3203
330
1A
100
AcDbEntity
  8
ASHADE
 62
     3
370
    -1
100
AcDbBlockReference
  2
AVE_RENDER
 10
295.1549742614395
 20
118.9522518268772
 30
0.0
1001
AVE_RENDER
1002
{
1070
     0
1000
Full Opt
1070
     0
1070
     1
1070
     1
1070
     1
1070
     0
1070
     0
1070
     0
1070
     1
1070
     1
1040
0.0001
1040
0.0001
1002
}
  0
INSERT
  5
3204
330
1A
100
AcDbEntity
  8
ASHADE
 62
     4
370
    -1
100
AcDbBlockReference
  2
AVE_RENDER
 10
295.1549742614395
 20
118.9522518268772
 30
0.0
1001
AVE_RENDER
1002
{
1070
     0
1000
Quick Opt
1070
     0
1070
     1
1070
     1
1070
     1
1070
     0
1070
     0
1070
     1
1002
}
  0
INSERT
  5
320C
330
1A
100
AcDbEntity
  8
ASHADE
 62
     1
370
    -1
100
AcDbBlockReference
  2
AVE_RENDER
 10
531.7866814913295
 20
544.0352887899946
 30
0.0
1001
AVE_RENDER
1002
{
1070
     2
1000
Pref
1070
    30
1070
    20
1070
     0
1070
     0
1000

1070
    10
1070
     0
1070
    30
1040
1.0
1070
     1
1040
0.3
1040
0.7
1040
0.0
1040
10.0
1010
-1.0
1020
-1.0
1030
-1.0
1040
0.3
1070
    49
1002
}
  0
INSERT
  5
320D
330
1A
100
AcDbEntity
  8
ASHADE
 62
     3
370
    -1
100
AcDbBlockReference
  2
AVE_RENDER
 10
531.7866814913295
 20
544.0352887899946
 30
0.0
1001
AVE_RENDER
1002
{
1070
     0
1000
Full Opt
1070
     0
1070
     1
1070
     1
1070
     1
1070
     0
1070
     0
1070
     0
1070
     1
1070
     1
1040
0.0001
1040
0.0001
1002
}
  0
INSERT
  5
320E
330
1A
100
AcDbEntity
  8
ASHADE
 62
     4
370
    -1
100
AcDbBlockReference
  2
AVE_RENDER
 10
531.7866814913295
 20
544.0352887899946
 30
0.0
1001
AVE_RENDER
1002
{
1070
     0
1000
Quick Opt
1070
     0
1070
     1
1070
     1
1070
     1
1070
     0
1070
     0
1070
     1
1002
}
  0
LINE
  5
320F
330
1A
100
AcDbEntity
  8
TORNILLERIA
370
    -1
100
AcDbLine
 10
192.8521014638175
 20
167.7111888838378
 30
0.0
 11
178.8521014638175
 21
167.7111888838378
 31
0.0
  0
LINE
  5
3210
330
1A
100
AcDbEntity
  8
TORNILLERIA
370
    -1
100
AcDbLine
 10
192.8521014638175
 20
168.7111888838378
 30
0.0
 11
178.8521014638175
 21
168.7111888838378
 31
0.0
  0
LINE
  5
3211
330
1A
100
AcDbEntity
  8
TORNILLERIA
370
    -1
100
AcDbLine
 10
190.3521014638175
 20
173.7111888838379
 30
0.0
 11
181.3521014638175
 21
173.7111888838378
 31
0.0
  0
LINE
  5
3212
330
1A
100
AcDbEntity
  8
TORNILLERIA
370
    -1
100
AcDbLine
 10
192.8521014638175
 20
167.7111888838378
 30
0.0
 11
192.8521014638175
 21
168.7111888838378
 31
0.0
  0
LINE
  5
3213
330
1A
100
AcDbEntity
  8
TORNILLERIA
370
    -1
100
AcDbLine
 10
178.8521014638175
 20
167.7111888838378
 30
0.0
 11
178.8521014638175
 21
168.7111888838378
 31
0.0
  0
LINE
  5
3214
330
1A
100
AcDbEntity
  8
TORNILLERIA
370
    -1
100
AcDbLine
 10
191.3521014638175
 20
170.2111888838378
 30
0.0
 11
191.3521014638175
 21
172.7111888838379
 31
0.0
  0
LINE
  5
3215
330
1A
100
AcDbEntity
  8
TORNILLERIA
370
    -1
100
AcDbLine
 10
180.3521014638175
 20
170.2111888838378
 30
0.0
 11
180.3521014638175
 21
172.7111888838378
 31
0.0
  0
LINE
  5
3216
330
1A
100
AcDbEntity
  8
TORNILLERIA
370
    -1
100
AcDbLine
 10
178.8521014638175
 20
168.7111888838378
 30
0.0
 11
180.3521014638175
 21
170.2111888838378
 31
0.0
  0
LINE
  5
3217
330
1A
100
AcDbEntity
  8
TORNILLERIA
370
    -1
100
AcDbLine
 10
192.8521014638175
 20
168.7111888838378
 30
0.0
 11
191.3521014638175
 21
170.2111888838378
 31
0.0
  0
ARC
  5
3218
330
1A
100
AcDbEntity
  8
TORNILLERIA
370
    -1
100
AcDbCircle
 10
190.3521014638175
 20
172.7111888838379
 30
0.0
 40
1.0
100
AcDbArc
 50
359.9999999999998
 51
90.0
  0
ARC
  5
3219
330
1A
100
AcDbEntity
  8
TORNILLERIA
370
    -1
100
AcDbCircle
 10
181.3521014638175
 20
172.7111888838378
 30
0.0
 40
1.0
100
AcDbArc
 50
90.00000000000031
 51
180.0
  0
LINE
  5
321A
330
1A
100
AcDbEntity
  8
TORNILLERIA
370
    -1
100
AcDbLine
 10
188.8521014638175
 20
170.2111888838378
 30
0.0
 11
188.3521014638175
 21
170.2111888838378
 31
0.0
  0
LINE
  5
321B
330
1A
100
AcDbEntity
  8
TORNILLERIA
370
    -1
100
AcDbLine
 10
188.8521014638175
 20
170.2111888838378
 30
0.0
 11
188.8521014638175
 21
172.7111888838378
 31
0.0
  0
LINE
  5
321C
330
1A
100
AcDbEntity
  8
TORNILLERIA
370
    -1
100
AcDbLine
 10
188.3521014638175
 20
170.2111888838378
 30
0.0
 11
188.3521014638175
 21
172.7111888838379
 31
0.0
  0
LINE
  5
321D
330
1A
100
AcDbEntity
  8
TORNILLERIA
370
    -1
100
AcDbLine
 10
183.3521014638175
 20
170.2111888838378
 30
0.0
 11
183.3521014638175
 21
172.8326734805213
 31
0.0
  0
LINE
  5
321E
330
1A
100
AcDbEntity
  8
TORNILLERIA
370
    -1
100
AcDbLine
 10
182.8521014638175
 20
170.2111888838378
 30
0.0
 11
182.8521014638175
 21
172.9695690351281
 31
0.0
  0
LINE
  5
321F
330
1A
100
AcDbEntity
  8
TORNILLERIA
370
    -1
100
AcDbLine
 10
183.3521014638175
 20
170.2111888838378
 30
0.0
 11
182.8521014638175
 21
170.2111888838378
 31
0.0
  0
ARC
  5
3220
330
1A
100
AcDbEntity
  8
TORNILLERIA
370
    -1
100
AcDbCircle
 10
190.1021014638175
 20
168.8986888838379
 30
0.0
 40
1.812499999999939
100
AcDbArc
 50
46.39718102729583
 51
133.6028189727046
  0
ARC
  5
3221
330
1A
100
AcDbEntity
  8
TORNILLERIA
370
    -1
100
AcDbCircle
 10
185.8521014638175
 20
164.2111888838378
 30
0.0
 40
6.500000000000058
100
AcDbArc
 50
67.38013505195971
 51
112.6198649480404
  0
ARC
  5
3222
330
1A
100
AcDbEntity
  8
TORNILLERIA
370
    -1
100
AcDbCircle
 10
181.6021014638175
 20
168.8986888838379
 30
0.0
 40
1.812499999999898
100
AcDbArc
 50
46.39718102729455
 51
133.6028189727077
  0
ARC
  5
3223
330
1A
100
AcDbEntity
  8
TORNILLERIA
370
    -1
100
AcDbCircle
 10
187.860481615108
 20
172.8403789594831
 30
0.0
 40
1.0
100
AcDbArc
 50
352.5772075955983
 51
60.55289475855617
  0
ARC
  5
3224
330
1A
100
AcDbEntity
  8
TORNILLERIA
370
    -1
100
AcDbCircle
 10
186.4700706571844
 20
172.7719311821796
 30
0.0
 40
1.883010776369531
100
AcDbArc
 50
358.1514278910232
 51
29.92105904483
  0
ARC
  5
3225
330
1A
100
AcDbEntity
  8
TORNILLERIA
370
    -1
100
AcDbCircle
 10
185.2341322704506
 20
172.7719311821796
 30
0.0
 40
1.883010776369531
100
AcDbArc
 50
150.0789409551699
 51
181.8485721089768
  0
ARC
  5
3226
330
1A
100
AcDbEntity
  8
TORNILLERIA
370
    -1
100
AcDbCircle
 10
183.8437213125271
 20
172.8403789594831
 30
0.0
 40
1.0
100
AcDbArc
 50
119.4471052414438
 51
187.4227924044017
  0
LINE
  5
324E
330
1A
100
AcDbEntity
  8
TORNILLERIA
370
    -1
100
AcDbLine
 10
192.8521014638175
 20
143.0532941469957
 30
0.0
 11
191.3521014638175
 21
141.5532941469957
 31
0.0
  0
LINE
  5
324F
330
1A
100
AcDbEntity
  8
TORNILLERIA
370
    -1
100
AcDbLine
 10
178.8521014638175
 20
143.0532941469957
 30
0.0
 11
192.8521014638175
 21
143.0532941469957
 31
0.0
  0
ARC
  5
3251
330
1A
100
AcDbEntity
  8
TORNILLERIA
370
    -1
100
AcDbCircle
 10
185.8521014638175
 20
147.5532941469957
 30
0.0
 40
6.500000000000058
100
AcDbArc
 50
247.3801350519597
 51
292.6198649480403
  0
LINE
  5
3252
330
1A
100
AcDbEntity
  8
TORNILLERIA
370
    -1
100
AcDbLine
 10
181.3521014638175
 20
138.0532941469956
 30
0.0
 11
190.3521014638175
 21
138.0532941469957
 31
0.0
  0
ARC
  5
3253
330
1A
100
AcDbEntity
  8
TORNILLERIA
370
    -1
100
AcDbCircle
 10
181.6021014638175
 20
142.8657941469956
 30
0.0
 40
1.812499999999939
100
AcDbArc
 50
226.3971810272958
 51
313.6028189727045
  0
LINE
  5
3254
330
1A
100
AcDbEntity
  8
TORNILLERIA
370
    -1
100
AcDbLine
 10
183.3521014638175
 20
141.5532941469957
 30
0.0
 11
183.3521014638175
 21
139.0532941469956
 31
0.0
  0
LINE
  5
3255
330
1A
100
AcDbEntity
  8
TORNILLERIA
370
    -1
100
AcDbLine
 10
182.8521014638175
 20
141.5532941469957
 30
0.0
 11
182.8521014638175
 21
139.0532941469957
 31
0.0
  0
LINE
  5
3256
330
1A
100
AcDbEntity
  8
TORNILLERIA
370
    -1
100
AcDbLine
 10
180.3521014638175
 20
141.5532941469957
 30
0.0
 11
180.3521014638175
 21
139.0532941469956
 31
0.0
  0
ARC
  5
3257
330
1A
100
AcDbEntity
  8
TORNILLERIA
370
    -1
100
AcDbCircle
 10
183.8437213125271
 20
138.9241040713504
 30
0.0
 40
1.0
100
AcDbArc
 50
172.5772075955983
 51
240.5528947585562
  0
ARC
  5
3258
330
1A
100
AcDbEntity
  8
TORNILLERIA
370
    -1
100
AcDbCircle
 10
181.3521014638175
 20
139.0532941469956
 30
0.0
 40
1.0
100
AcDbArc
 50
179.9999999999998
 51
270.0
  0
ARC
  5
3259
330
1A
100
AcDbEntity
  8
TORNILLERIA
370
    -1
100
AcDbCircle
 10
185.2341322704506
 20
138.9925518486539
 30
0.0
 40
1.883010776369531
100
AcDbArc
 50
178.1514278910232
 51
209.92105904483
  0
LINE
  5
325A
330
1A
100
AcDbEntity
  8
TORNILLERIA
370
    -1
100
AcDbLine
 10
178.8521014638175
 20
143.0532941469957
 30
0.0
 11
180.3521014638175
 21
141.5532941469957
 31
0.0
  0
LINE
  5
325B
330
1A
100
AcDbEntity
  8
TORNILLERIA
370
    -1
100
AcDbLine
 10
178.8521014638175
 20
144.0532941469957
 30
0.0
 11
178.8521014638175
 21
143.0532941469957
 31
0.0
  0
LINE
  5
325C
330
1A
100
AcDbEntity
  8
TORNILLERIA
370
    -1
100
AcDbLine
 10
182.8521014638175
 20
141.5532941469957
 30
0.0
 11
183.3521014638175
 21
141.5532941469957
 31
0.0
  0
ARC
  5
325D
330
1A
100
AcDbEntity
  8
TORNILLERIA
370
    -1
100
AcDbCircle
 10
190.1021014638175
 20
142.8657941469955
 30
0.0
 40
1.812499999999898
100
AcDbArc
 50
226.3971810272946
 51
313.6028189727077
  0
LINE
  5
325E
330
1A
100
AcDbEntity
  8
TORNILLERIA
370
    -1
100
AcDbLine
 10
188.8521014638175
 20
141.5532941469957
 30
0.0
 11
188.8521014638175
 21
138.7949139957054
 31
0.0
  0
LINE
  5
325F
330
1A
100
AcDbEntity
  8
TORNILLERIA
370
    -1
100
AcDbLine
 10
188.3521014638175
 20
141.5532941469957
 30
0.0
 11
188.3521014638175
 21
138.9318095503122
 31
0.0
  0
LINE
  5
3260
330
1A
100
AcDbEntity
  8
TORNILLERIA
370
    -1
100
AcDbLine
 10
191.3521014638175
 20
141.5532941469957
 30
0.0
 11
191.3521014638175
 21
139.0532941469957
 31
0.0
  0
ARC
  5
3261
330
1A
100
AcDbEntity
  8
TORNILLERIA
370
    -1
100
AcDbCircle
 10
187.860481615108
 20
138.9241040713504
 30
0.0
 40
1.0
100
AcDbArc
 50
299.4471052414438
 51
7.422792404401676
  0
ARC
  5
3262
330
1A
100
AcDbEntity
  8
TORNILLERIA
370
    -1
100
AcDbCircle
 10
186.4700706571844
 20
138.9925518486539
 30
0.0
 40
1.883010776369531
100
AcDbArc
 50
330.07894095517
 51
1.848572108976792
  0
ARC
  5
3263
330
1A
100
AcDbEntity
  8
TORNILLERIA
370
    -1
100
AcDbCircle
 10
190.3521014638175
 20
139.0532941469957
 30
0.0
 40
1.0
100
AcDbArc
 50
270.0000000000003
 51
0.0
  0
LINE
  5
3264
330
1A
100
AcDbEntity
  8
TORNILLERIA
370
    -1
100
AcDbLine
 10
188.3521014638175
 20
141.5532941469957
 30
0.0
 11
188.8521014638175
 21
141.5532941469957
 31
0.0
  0
LINE
  5
3265
330
1A
100
AcDbEntity
  8
TORNILLERIA
370
    -1
100
AcDbLine
 10
192.8521014638175
 20
144.0532941469957
 30
0.0
 11
192.8521014638175
 21
143.0532941469957
 31
0.0
  0
LINE
  5
3266
330
1A
100
AcDbEntity
  8
SOPORTES
370
    -1
100
AcDbLine
 10
188.8521014638174
 20
167.7111888838378
 30
0.0
 11
188.8521014638175
 21
158.7638204627852
 31
0.0
  0
LINE
  5
3267
330
1A
100
AcDbEntity
  8
SOPORTES
370
    -1
100
AcDbLine
 10
187.8521014638175
 20
167.7111888838378
 30
0.0
 11
187.8521014638175
 21
159.6585573048905
 31
0.0
  0
LINE
  5
3268
330
1A
100
AcDbEntity
  8
SOPORTES
370
    -1
100
AcDbLine
 10
182.8521014638175
 20
167.7111888838378
 30
0.0
 11
182.8521014638176
 21
164.1322415154167
 31
0.0
  0
LINE
  5
3269
330
1A
100
AcDbEntity
  8
SOPORTES
370
    -1
100
AcDbLine
 10
183.8521014638175
 20
167.7111888838378
 30
0.0
 11
183.8521014638175
 21
163.2375046733115
 31
0.0
  0
VIEWPORT
  5
22
102
{ACAD_XDICTIONARY
360
32F7
102
}
330
17
100
AcDbEntity
 67
     1
  8
0
370
    -1
100
AcDbViewport
 10
114.2593497890153
 20
146.3954305369894
 30
0.0
 40
471.6416306229405
 41
289.3964940228285
 68
     1
 69
     1
 12
114.2593497890153
 22
146.3954305369894
 13
0.0
 23
0.0
 14
1.0
 24
1.0
 15
10.0
 25
10.0
 16
0.0
 26
0.0
 36
1.0
 17
0.0
 27
0.0
 37
0.0
 42
50.0
 43
0.0
 44
0.0
 45
289.3964940228285
 50
0.0
 51
0.0
 72
   100
 90
    32800
  1

281
     0
 71
     1
 74
     0
110
0.0
120
0.0
130
0.0
111
1.0
121
0.0
131
0.0
112
0.0
122
1.0
132
0.0
 79
     0
146
0.0
  0
VIEWPORT
  5
CF
102
{ACAD_XDICTIONARY
360
32F9
102
}
330
17
100
AcDbEntity
 67
     1
  8
VIEWPORT
370
    -1
100
AcDbViewport
 10
102.7569583719095
 20
146.1373828500363
 30
0.0
 40
203.513916743819
 41
287.2747657000725
 68
     2
 69
     2
 12
161.7258825464575
 22
91.9892780309263
 13
0.0
 23
0.0
 14
10.0
 24
10.0
 15
10.0
 25
10.0
 16
0.0
 26
0.0
 36
1.0
 17
0.0
 27
0.0
 37
0.0
 42
50.0
 43
0.0
 44
0.0
 45
395.2404614167854
 50
0.0
 51
0.0
 72
   100
 90
    32800
  1

281
     0
 71
     1
 74
     0
110
0.0
120
0.0
130
0.0
111
1.0
121
0.0
131
0.0
112
0.0
122
1.0
132
0.0
 79
     0
146
0.0
  0
INSERT
  5
DDF
330
17
100
AcDbEntity
 67
     1
  8
SOMBREA
370
    -1
100
AcDbBlockReference
  2
AME_NIL
 10
24.008130817938
 20
40.51347084596878
 30
0.0
  0
INSERT
  5
DE0
330
17
100
AcDbEntity
 67
     1
  8
SOMBREA
370
    -1
100
AcDbBlockReference
  2
AME_NIL
 10
25.008130817938
 20
41.51347084596878
 30
1.0
1001
AME_SOL
1004
C7CF0100AD005601550153014F01470122003A0129012D0017013B001000D90048013F003B019900DD00500149013C015600FD003D012A01B400FB002B01F40081004A013E012C01D1001801910005002D011901FC008E001A011500DA003F012E011B01840053001C01BF000C01F2000F002F011D010D01
1004
BC0079000E01BB0031001E010F016B00390010017400050165000400540151014B014001400030014E0019004101030031011F01FF00B1002001A90080004C01F0004201010032019700590052014D01430133018500E8003401AD0021010900440044013501220175005F002301DF002800360124012100
1004
5400250111014D0064001201D800A7004E0145013701260113016900960014010601EF00EE000701BD00A4002701150108018900380009017300620016010A0101010001F70002011C00D6000B010301BE00520004013D00660038010200C00046012B00390128016700EA00460000007D49F524E2AB4D13
1004
1313373AE652ADC721200C4BCEC721200C4BCECD834E393735323A1C8480312F20390900625E41BADF44E00A7EA12DCA9D9D4721200C4BCEC721200C4BCECD834E393735323A1C8480312F20390900625E41BADF44E00A7EA12D7D44169A8EB75AF9DF517FA85FFFFFFFA85FFFFFFFE675170CA182CF20A2
1004
E1943059E43FFFFFDF517FA85FFFFFFFA85FFFFFFFE675170CA182CF20A2E1943059E43FFFFF509B8FBEE168FF50BFFFFFFF50BFC33E9ECEE7C3CBCE328B8650C16790FF757EB99018AF60D4FD7320315EC1A7FDD77EB99018AF60D5FFFA84FD7320315EC1A56FFFFA84EAF9DF3ADFFFF509B8FAB770B47F
1004
A85FFFFFFFA85FEA2E1943059E43FFFDD5FAE64062BD8353F5CC80C57B069FF75DFAE64062BD8357FFEA13F5CC80C57B0695BFFFEA13ABE77CEB7FFFD426E3EBAEE168FF50BFFFFFFF50BFC33E9ECEE7C3CBCE328B8650C1679DFFBABF5CC80C57B06A7EB99018AF60D3FEEBBF5CC80C57B06AFE9FFA84FD
1004
7320315EC1A56FFD3FF509D5F3BE75BFF4FFD426E3EA5DC2D1FEA17FFFFFFEA17FA8B8650C1679D867D3D9DCF8790A73DFEEAFD7320315EC1A9FAE64062BD834FFBAEFD7320315EC1ABFFF509FAE64062BD834ADFFFF509D5F3BE75BFFFEA1153B2D1C8480312F3B1C8480312F3B360D38E4DCD4C8E87212
1004
00C4BC80E4240189790360D38E4DCD4C84B4E111F8F48EB75AE7F9C22FF50BFFFFFA7FEA3AFE9FFFFFFE67FFFFFFFFFF3845FEA17FFFFF4FFD475FD3FFFFFFCCFFFFFFFFFFA8454ECB4721200C4BCEC721200C4BCEDC94D72C2390E538821C8480312F20390900625E41BADF44E00A7EA12D3844DE3C23AD
1004
D69FDCE117FA85FFFFFFFA85FFFFFFFA8467FFFFFFFFFF3845FEA17FFFFFFEA17FFFFFFEA119FFFFFFFFFF509C7714721200C4BCEC721200C4BCEDC94D72C2390E538821C8480312F20390900625E41BADF44E00A7EA13584676D2AD8CCEDAC233B6956C6641D4D1A1CD39B47D3131685A6A3B78F08FBA85
1004
A6A3B78F08EB75B9A347FA85FFFFFFFA85FFFFFFFA847FD45C32860B3C828B8650C167906B08CEDA55B199DB584676D2AD8CC838EE28E424018979D8E424018979D9B069C726E6A6474390900625E40721200C4BC81B069C726E6A6426B08CEDA55B199DB584676D2AD8CC83A9A34379CE23EB531302D351
1004
CFC7A47DD4FC7A470B4D475BADCD1A3FD42FFFFFFFD42FFFFFFFF3FEA2E1943059E4145C32860B3C83584676D2AD8CCEDAC233B6956C664119A3987F
1005
0
  0
INSERT
  5
DE1
330
17
100
AcDbEntity
 67
     1
  8
SOMBREA
370
    -1
100
AcDbBlockReference
  2
AME_NIL
 10
25.008130817938
 20
41.51347084596878
 30
1.0
1001
AME_SOL
1004

1005
0
  0
INSERT
  5
DE2
330
17
100
AcDbEntity
 67
     1
  8
SOMBREA
370
    -1
100
AcDbBlockReference
  2
AME_SOL
 10
24.008130817938
 20
40.51347084596878
 30
0.0
1001
AME_SOL
1000
R2.1
1000
AME2
1000
cm^ 2
1070
     3
1070
     0
1070
     3
1000
wire
1040
45.0
1000
U
1040
1.0
1000
mm
1000
gm
1000
MILD_STEEL
1070
    25
1000
CSG
1070
     1
1070
     3
1070
     3
1070
     6
1070
     0
1000
cm^ 3
1070
     1
1070
     0
1005
0
  0
INSERT
  5
DE3
330
17
100
AcDbEntity
 67
     1
  8
ASHADE
 62
     1
370
    -1
100
AcDbBlockReference
  2
AVE_RENDER
 10
-0.991869182062004
 20
-1.978694513292169
 30
0.0
1001
AVE_RENDER
1002
{
1070
     2
1000
Pref
1070
    30
1070
    20
1070
     0
1070
     0
1000

1070
    10
1070
     0
1070
    30
1040
1.0
1070
     1
1040
0.3
1040
0.7
1040
0.0
1040
10.0
1010
-1.0
1020
-1.0
1030
-1.0
1040
0.3
1070
    49
1002
}
  0
INSERT
  5
DE4
330
17
100
AcDbEntity
 67
     1
  8
ASHADE
 62
     3
370
    -1
100
AcDbBlockReference
  2
AVE_RENDER
 10
-0.991869182062004
 20
-1.978694513292169
 30
0.0
1001
AVE_RENDER
1002
{
1070
     0
1000
Full Opt
1070
     0
1070
     1
1070
     1
1070
     1
1070
     0
1070
     0
1070
     0
1070
     1
1070
     1
1040
0.0001
1040
0.0001
1002
}
  0
INSERT
  5
DE5
330
17
100
AcDbEntity
 67
     1
  8
ASHADE
 62
     4
370
    -1
100
AcDbBlockReference
  2
AVE_RENDER
 10
-0.991869182062004
 20
-1.978694513292169
 30
0.0
1001
AVE_RENDER
1002
{
1070
     0
1000
Quick Opt
1070
     0
1070
     1
1070
     1
1070
     1
1070
     0
1070
     0
1070
     1
1002
}
  0
LINE
  5
DE6
330
17
100
AcDbEntity
 67
     1
  8
FORMATO
370
    -1
100
AcDbLine
 10
204.513916743819
 20
289.7747657000725
 30
0.0
 11
24.00813081793802
 21
289.7747657000725
 31
0.0
  0
LINE
  5
DE7
330
17
100
AcDbEntity
 67
     1
  8
FORMATO
370
    -1
100
AcDbLine
 10
24.00813081793802
 20
289.7747657000725
 30
0.0
 11
24.008130817938
 21
3.021305486707831
 31
0.0
  0
LINE
  5
DE8
330
17
100
AcDbEntity
 67
     1
  8
FORMATO
370
    -1
100
AcDbLine
 10
204.513916743819
 20
3.021305486707831
 30
0.0
 11
204.513916743819
 21
289.7747657000725
 31
0.0
  0
LINE
  5
DE9
330
17
100
AcDbEntity
 67
     1
  8
FORMATO
370
    -1
100
AcDbLine
 10
24.008130817938
 20
3.021305486707831
 30
0.0
 11
204.513916743819
 21
3.021305486707831
 31
0.0
  0
LINE
  5
DEA
330
17
100
AcDbEntity
 67
     1
  8
FORMATO
370
    -1
100
AcDbLine
 10
204.513916743819
 20
249.7747657000725
 30
0.0
 11
24.00813081793802
 21
249.7747657000725
 31
0.0
  0
TEXT
  5
DEB
330
17
100
AcDbEntity
 67
     1
  8
FORMATO
370
    -1
100
AcDbText
 10
55.83245235230709
 20
281.7747657000725
 30
0.0
 40
6.0
  1
MONTAJE INDUCANAL 118
  7
ROMANS
 72
     1
 11
114.2610237808785
 21
281.7747657000725
 31
0.0
100
AcDbText
  0
TEXT
  5
DEC
330
17
100
AcDbEntity
 67
     1
  8
FORMATO
370
    -1
100
AcDbText
 10
42.26102378087852
 20
273.7747657000725
 30
0.0
 40
6.0
  1
TECHO HOR. CON GARRA VERT.
  7
ROMANS
 72
     1
 11
114.2610237808785
 21
273.7747657000725
 31
0.0
100
AcDbText
  0
TEXT
  5
DED
330
17
100
AcDbEntity
 67
     1
  8
FORMATO
370
    -1
100
AcDbText
 10
40.54673806659278
 20
265.7747657000725
 30
0.0
 40
6.0
  1
VAR. ROSCADA Y SUS. CENTRAL
  7
ROMANS
 72
     1
 11
114.2610237808785
 21
265.7747657000725
 31
0.0
100
AcDbText
  0
TEXT
  5
DEE
330
17
100
AcDbEntity
 67
     1
  8
0
 62
     3
370
    -1
100
AcDbText
 10
69.88007139992612
 20
259.7747657000725
 30
0.0
 40
4.0
  1
APLICACION: Bandejas de 60
  7
ROMANS
 72
     1
 11
114.2610237808785
 21
259.7747657000725
 31
0.0
100
AcDbText
  0
TEXT
  5
DEF
330
17
100
AcDbEntity
 67
     1
  8
0
 62
     3
370
    -1
100
AcDbText
 10
34.641976161831
 20
253.7747657000725
 30
0.0
 40
4.0
  1
CARGAS: Según pag. 78 Catalogo nº 206 (690 N)
  7
ROMANS
 72
     1
 11
114.2610237808785
 21
253.7747657000725
 31
0.0
100
AcDbText
  0
LINE
  5
DF0
330
17
100
AcDbEntity
 67
     1
  8
FORMATO
370
    -1
100
AcDbLine
 10
24.008130817938
 20
43.51460919536561
 30
0.0
 11
204.513916743819
 21
43.51460919536561
 31
0.0
  0
LINE
  5
DF1
330
17
100
AcDbEntity
 67
     1
  8
FORMATO
370
    -1
100
AcDbLine
 10
24.008130817938
 20
32.02565733596072
 30
0.0
 11
204.513916743819
 21
32.02565733596072
 31
0.0
  0
TEXT
  5
DF2
330
17
100
AcDbEntity
 67
     1
  8
FORMATO
370
    -1
100
AcDbText
 10
26.54443758474773
 20
36.5387190844055
 30
0.0
 40
3.0
  1
Nº
  7
ROMANS
100
AcDbText
  0
TEXT
  5
DFF
330
17
100
AcDbEntity
 67
     1
  8
FORMATO
370
    -1
100
AcDbText
 10
37.12877525591617
 20
36.5387190844055
 30
0.0
 40
3.0
  1
DENOMINACIÓN
  7
ROMANS
100
AcDbText
  0
LINE
  5
E00
330
17
100
AcDbEntity
 67
     1
  8
FORMATO
370
    -1
100
AcDbLine
 10
34.59246848910644
 20
43.51460919536562
 30
0.0
 11
34.59246848910644
 21
3.021305486707831
 31
0.0
  0
TEXT
  5
E07
330
17
100
AcDbEntity
 67
     1
  8
FORMATO
370
    -1
100
AcDbText
 10
127.4287176938689
 20
38.76563747065023
 30
0.0
 40
3.0
  1
Nº de
  7
ROMANS
100
AcDbText
  0
LINE
  5
E08
330
17
100
AcDbEntity
 67
     1
  8
FORMATO
370
    -1
100
AcDbLine
 10
124.8924109270592
 20
43.51460919536562
 30
0.0
 11
124.8924109270592
 21
3.021305486707831
 31
0.0
  0
TEXT
  5
E09
330
17
100
AcDbEntity
 67
     1
  8
FORMATO
370
    -1
100
AcDbText
 10
127.4287176938689
 20
34.68295376253462
 30
0.0
 40
3.0
  1
piezas
  7
ROMANS
100
AcDbText
  0
TEXT
  5
E10
330
17
100
AcDbEntity
 67
     1
  8
FORMATO
370
    -1
100
AcDbText
 10
146.1834215154687
 20
36.5387190844055
 30
0.0
 40
3.0
  1
OBSERVACIONES
  7
ROMANS
100
AcDbText
  0
LINE
  5
E11
330
17
100
AcDbEntity
 67
     1
  8
FORMATO
370
    -1
100
AcDbLine
 10
143.647114748659
 20
43.51460919536561
 30
0.0
 11
143.647114748659
 21
3.021305486707831
 31
0.0
  0
TEXT
  5
2F2B
330
17
100
AcDbEntity
 67
     1
  8
BANDEJAS
370
    -1
100
AcDbText
 10
26.71685272698051
 20
27.81356477674706
 30
0.0
 40
3.0
  1
04
  7
ROMANS
100
AcDbText
  0
TEXT
  5
2F2C
330
17
100
AcDbEntity
 67
     1
  8
SOPORTES
370
    -1
100
AcDbText
 10
26.71685272698051
 20
22.11356477674706
 30
0.0
 40
3.0
  1
68
  7
ROMANS
100
AcDbText
  0
TEXT
  5
2F2D
330
17
100
AcDbEntity
 67
     1
  8
SOPORTES
370
    -1
100
AcDbText
 10
26.71685272698051
 20
16.41356477674706
 30
0.0
 40
3.0
  1
61
  7
ROMANS
100
AcDbText
  0
TEXT
  5
2F2E
330
17
100
AcDbEntity
 67
     1
  8
SOPORTES
370
    -1
100
AcDbText
 10
26.71685272698051
 20
10.71356477674706
 30
0.0
 40
3.0
  1
81
  7
ROMANS
100
AcDbText
  0
TEXT
  5
2F2F
330
17
100
AcDbEntity
 67
     1
  8
TORNILLERIA
370
    -1
100
AcDbText
 10
26.71685272698051
 20
5.01356477674706
 30
0.0
 40
3.0
  1
87
  7
ROMANS
100
AcDbText
  0
TEXT
  5
2F32
330
17
100
AcDbEntity
 67
     1
  8
TORNILLERIA
370
    -1
100
AcDbText
 10
36.27120508092958
 20
5.01356477674706
 30
0.0
 40
3.0
  1
Tuerca Arandela M 6
  7
ROMANS
100
AcDbText
  0
TEXT
  5
2F33
330
17
100
AcDbEntity
 67
     1
  8
SOPORTES
370
    -1
100
AcDbText
 10
36.27120508092958
 20
10.71356477674706
 30
0.0
 40
3.0
  1
Varilla Roscada M 6 500/1000
  7
ROMANS
100
AcDbText
  0
TEXT
  5
2F34
330
17
100
AcDbEntity
 67
     1
  8
SOPORTES
370
    -1
100
AcDbText
 10
36.27120508092958
 20
16.41356477674706
 30
0.0
 40
3.0
  1
Suspensión Central 7
  7
ROMANS
100
AcDbText
  0
TEXT
  5
2F35
330
17
100
AcDbEntity
 67
     1
  8
SOPORTES
370
    -1
100
AcDbText
 10
36.27120508092958
 20
22.11356477674706
 30
0.0
 40
3.0
  1
Garra Vcal. Susp.
  7
ROMANS
100
AcDbText
  0
TEXT
  5
2F36
330
17
100
AcDbEntity
 67
     1
  8
BANDEJAS
370
    -1
100
AcDbText
 10
36.27120508092958
 20
27.81356477674706
 30
0.0
 40
3.0
  1
INDUCANAL
  7
ROMANS
100
AcDbText
  0
TEXT
  5
2F37
330
17
100
AcDbEntity
 67
     1
  8
SOPORTES
370
    -1
100
AcDbText
 10
128.174966995482
 20
10.71356477674706
 30
0.0
 40
3.0
  1
1
  7
ROMANS
100
AcDbText
  0
TEXT
  5
2F38
330
17
100
AcDbEntity
 67
     1
  8
SOPORTES
370
    -1
100
AcDbText
 10
128.174966995482
 20
16.41356477674706
 30
0.0
 40
3.0
  1
1
  7
ROMANS
100
AcDbText
  0
TEXT
  5
2F39
330
17
100
AcDbEntity
 67
     1
  8
SOPORTES
370
    -1
100
AcDbText
 10
128.174966995482
 20
22.11356477674706
 30
0.0
 40
3.0
  1
1
  7
ROMANS
100
AcDbText
  0
TEXT
  5
2F3A
330
17
100
AcDbEntity
 67
     1
  8
BANDEJAS
370
    -1
100
AcDbText
 10
128.174966995482
 20
27.81356477674706
 30
0.0
 40
3.0
  1
1
  7
ROMANS
100
AcDbText
  0
TEXT
  5
2F3B
330
17
100
AcDbEntity
 67
     1
  8
TORNILLERIA
370
    -1
100
AcDbText
 10
128.174966995482
 20
5.01356477674706
 30
0.0
 40
3.0
  1
4
  7
ROMANS
100
AcDbText
  0
TEXT
  5
2F3E
330
17
100
AcDbEntity
 67
     1
  8
TORNILLERIA
370
    -1
100
AcDbText
 10
146.3737315762733
 20
5.01356477674706
 30
0.0
 40
3.0
  1
Cat. nº 206 Pag. 99
  7
ROMANS
100
AcDbText
  0
TEXT
  5
2F3F
330
17
100
AcDbEntity
 67
     1
  8
SOPORTES
370
    -1
100
AcDbText
 10
146.3737315762733
 20
10.71356477674706
 30
0.0
 40
3.0
  1
Cat. nº 206 Pag. 92
  7
ROMANS
100
AcDbText
  0
TEXT
  5
2F40
330
17
100
AcDbEntity
 67
     1
  8
SOPORTES
370
    -1
100
AcDbText
 10
146.3737315762733
 20
16.41356477674706
 30
0.0
 40
3.0
  1
Cat. nº 206 Pag. 92
  7
ROMANS
100
AcDbText
  0
TEXT
  5
2F41
330
17
100
AcDbEntity
 67
     1
  8
SOPORTES
370
    -1
100
AcDbText
 10
146.3737315762733
 20
22.11356477674706
 30
0.0
 40
3.0
  1
Cat. nº 206 Pag. 80
  7
ROMANS
100
AcDbText
  0
TEXT
  5
2F42
330
17
100
AcDbEntity
 67
     1
  8
BANDEJAS
370
    -1
100
AcDbText
 10
146.3737315762733
 20
27.81356477674706
 30
0.0
 40
3.0
  1
Cat. nº 206 Pag. 90
  7
ROMANS
100
AcDbText
  0
LEADER
  5
326B
330
17
100
AcDbEntity
 67
     1
  8
BANDEJAS
370
    -1
100
AcDbLeader
  3
ISO-25_WS
 73
     0
 74
     0
 75
     1
 40
4.0
 41
6.666666666666666
 76
     3
 10
138.6368035964154
 20
157.4291023332284
 30
0.0
 10
156.4830768237855
 20
174.0466470730682
 30
0.0
 10
160.4830768237855
 20
174.0466470730682
 30
0.0
340
326C
1001
ACAD
1000
DSTYLE
1002
{
1070
   140
1040
4.0
1070
   340
1005
8E
1070
   178
1070
   256
1070
   177
1070
   256
1070
   176
1070
   256
1070
    41
1040
4.0
1002
}
  0
MTEXT
  5
326C
102
{ACAD_REACTORS
330
326B
102
}
330
17
100
AcDbEntity
 67
     1
  8
BANDEJAS
370
    -1
100
AcDbMText
 10
161.1080768237855
 20
176.6716470730682
 30
0.0
 40
4.0
 41
0.0
 71
     4
 72
     1
  1
\A1;04
  7
ROMANS
 73
     1
 44
1.0
  0
LEADER
  5
326D
330
17
100
AcDbEntity
 67
     1
  8
SOPORTES
370
    -1
100
AcDbLeader
  3
ISO-25_WS
 73
     0
 74
     0
 75
     1
 40
4.0
 41
5.142857142857142
 76
     3
 10
130.9066541817444
 20
115.5657648904632
 30
0.0
 10
149.6577487794323
 20
90.37384730538884
 30
0.0
 10
153.6577487794323
 20
90.37384730538884
 30
0.0
340
326E
1001
ACAD
1000
DSTYLE
1002
{
1070
   140
1040
4.0
1070
   340
1005
8E
1070
   178
1070
   256
1070
   177
1070
   256
1070
   176
1070
   256
1070
    41
1040
4.0
1002
}
  0
MTEXT
  5
326E
102
{ACAD_REACTORS
330
326D
102
}
330
17
100
AcDbEntity
 67
     1
  8
SOPORTES
370
    -1
100
AcDbMText
 10
154.2827487794323
 20
92.99884730538884
 30
0.0
 40
4.0
 41
0.0
 71
     4
 72
     1
  1
\A1;61
  7
ROMANS
 73
     1
 44
1.0
  0
LEADER
  5
326F
330
17
100
AcDbEntity
 67
     1
  8
SOPORTES
370
    -1
100
AcDbLeader
  3
ISO-25_WS
 73
     0
 75
     1
 40
4.0
 41
5.333333333333333
 76
     3
 10
120.4411502871944
 20
98.2855128382904
 30
0.0
 10
91.67957433448646
 20
86.28115656561158
 30
0.0
 10
87.67957433448646
 20
86.28115656561158
 30
0.0
340
3270
1001
ACAD
1000
DSTYLE
1002
{
1070
   140
1040
4.0
1070
   340
1005
8E
1070
   178
1070
   256
1070
   177
1070
   256
1070
   176
1070
   256
1070
    41
1040
4.0
1002
}
  0
MTEXT
  5
3270
102
{ACAD_REACTORS
330
326F
102
}
330
17
100
AcDbEntity
 67
     1
  8
SOPORTES
370
    -1
100
AcDbMText
 10
87.05457433448646
 20
88.90615656561158
 30
0.0
 40
4.0
 41
0.0
 71
     6
 72
     1
  1
\A1;81
  7
ROMANS
 73
     1
 44
1.0
  0
LEADER
  5
3273
330
17
100
AcDbEntity
 67
     1
  8
TORNILLERIA
370
    -1
100
AcDbLeader
  3
ISO-25_WS
 73
     0
 74
     0
 75
     1
 40
4.0
 41
6.476190476190476
 76
     3
 10
121.8062167892733
 20
204.2407424551818
 30
0.0
 10
143.2874421580984
 20
212.6998425957919
 30
0.0
 10
147.2874421580984
 20
212.6998425957919
 30
0.0
340
3274
1001
ACAD
1000
DSTYLE
1002
{
1070
   140
1040
4.0
1070
   340
1005
8E
1070
   178
1070
   256
1070
   177
1070
   256
1070
   176
1070
   256
1070
    41
1040
4.0
1002
}
  0
MTEXT
  5
3274
102
{ACAD_REACTORS
330
3273
102
}
330
17
100
AcDbEntity
 67
     1
  8
TORNILLERIA
370
    -1
100
AcDbMText
 10
147.9124421580984
 20
215.3248425957919
 30
0.0
 40
4.0
 41
0.0
 71
     4
 72
     1
  1
\A1;87
  7
ROMANS
 73
     1
 44
1.0
  0
LEADER
  5
3275
330
17
100
AcDbEntity
 67
     1
  8
SOPORTES
370
    -1
100
AcDbLeader
  3
ISO-25_WS
 73
     0
 75
     1
 40
4.0
 41
6.285714285714286
 76
     3
 10
112.705778280292
 20
193.7816429931723
 30
0.0
 10
85.30926771315262
 20
180.4130557953004
 30
0.0
 10
81.30926771315262
 20
180.4130557953004
 30
0.0
340
3276
1001
ACAD
1000
DSTYLE
1002
{
1070
   140
1040
4.0
1070
   340
1005
8E
1070
   178
1070
   256
1070
   177
1070
   256
1070
   176
1070
   256
1070
    41
1040
4.0
1002
}
  0
MTEXT
  5
3276
102
{ACAD_REACTORS
330
3275
102
}
330
17
100
AcDbEntity
 67
     1
  8
SOPORTES
370
    -1
100
AcDbMText
 10
80.68426771315262
 20
183.0380557953004
 30
0.0
 40
4.0
 41
0.0
 71
     6
 72
     1
  1
68
  7
ROMANS
 73
     1
 44
1.0
  0
ENDSEC
  0
SECTION
  2
OBJECTS
  0
DICTIONARY
  5
C
330
0
100
AcDbDictionary
281
     1
  3
ACAD_COLOR
350
3299
  3
ACAD_GROUP
350
D
  3
ACAD_LAYOUT
350
329E
  3
ACAD_MATERIAL
350
3284
  3
ACAD_MLEADERSTYLE
350
32E0
  3
ACAD_MLINESTYLE
350
E
  3
ACAD_PLOTSETTINGS
350
329D
  3
ACAD_PLOTSTYLENAME
350
3282
  3
ACAD_SCALELIST
350
32CE
  3
ACAD_TABLESTYLE
350
329A
  3
ACAD_VISUALSTYLE
350
3288
  3
ACDBHEADERROUNDTRIPXREC
350
32F3
  3
ACDBVARIABLEDICTIONARY
350
5D
  3
AcDsDecomposeData
350
333D
  3
DWGPROPS
350
32F6
  0
DICTIONARY
  5
32FB
330
8
100
AcDbDictionary
280
     1
281
     1
  3
ACAD_XREC_ROUNDTRIP
360
32FC
  0
DICTIONARY
  5
32BA
330
2
100
AcDbDictionary
280
     1
281
     1
  3
ACAD_LAYERSTATES
360
32BB
  0
DICTIONARY
  5
32F7
330
22
100
AcDbDictionary
280
     1
281
     1
  3
ACAD_XREC_ROUNDTRIP
360
32F8
  0
DICTIONARY
  5
32F9
330
CF
100
AcDbDictionary
280
     1
281
     1
  3
ACAD_XREC_ROUNDTRIP
360
32FA
  0
DICTIONARY
  5
3299
102
{ACAD_REACTORS
330
C
102
}
330
C
100
AcDbDictionary
281
     1
  0
DICTIONARY
  5
D
102
{ACAD_REACTORS
330
C
102
}
330
C
100
AcDbDictionary
281
     1
  0
DICTIONARY
  5
329E
102
{ACAD_REACTORS
330
C
102
}
330
C
100
AcDbDictionary
281
     1
  3
Model
350
329F
  3
Presentación1
350
32A0
  0
DICTIONARY
  5
3284
102
{ACAD_REACTORS
330
C
102
}
330
C
100
AcDbDictionary
281
     1
  3
ByBlock
350
3286
  3
ByLayer
350
3285
  3
Global
350
3287
  0
DICTIONARY
  5
32E0
102
{ACAD_REACTORS
330
C
102
}
330
C
100
AcDbDictionary
281
     1
  3
Standard
350
32E1
  0
DICTIONARY
  5
E
102
{ACAD_REACTORS
330
C
102
}
330
C
100
AcDbDictionary
281
     1
  3
STANDARD
350
13
  0
DICTIONARY
  5
329D
102
{ACAD_REACTORS
330
C
102
}
330
C
100
AcDbDictionary
281
     1
  0
ACDBDICTIONARYWDFLT
  5
3282
102
{ACAD_REACTORS
330
C
102
}
330
C
100
AcDbDictionary
281
     1
  3
Normal
350
3283
100
AcDbDictionaryWithDefault
340
3283
  0
DICTIONARY
  5
32CE
102
{ACAD_REACTORS
330
C
102
}
330
C
100
AcDbDictionary
281
     1
  3
A0
350
32CF
  3
A1
350
32D0
  3
A2
350
32D1
  3
A3
350
32D2
  3
A4
350
32D3
  3
A5
350
32D4
  3
A6
350
32D5
  3
A7
350
32D6
  3
A8
350
32D7
  3
A9
350
32D8
  3
B0
350
32D9
  3
B1
350
32DA
  3
B2
350
32DB
  3
B3
350
32DC
  3
B4
350
32DD
  3
B5
350
32DE
  3
B6
350
32DF
  0
DICTIONARY
  5
329A
102
{ACAD_REACTORS
330
C
102
}
330
C
100
AcDbDictionary
281
     1
  3
Standard
350
329B
  0
DICTIONARY
  5
3288
102
{ACAD_REACTORS
330
C
102
}
330
C
100
AcDbDictionary
281
     1
  3
2dWireframe
350
328E
  3
3D Hidden
350
3290
  3
3dWireframe
350
328F
  3
Basic
350
328D
  3
Brighten
350
3294
  3
ColorChange
350
3298
  3
Conceptual
350
3291
  3
Dim
350
3293
  3
EdgeColorOff
350
32E6
  3
Facepattern
350
3297
  3
Flat
350
3289
  3
FlatWithEdges
350
328A
  3
Gouraud
350
328B
  3
GouraudWithEdges
350
328C
  3
Hidden
350
32E3
  3
JitterOff
350
32E4
  3
Linepattern
350
3296
  3
OverhangOff
350
32E5
  3
Realistic
350
3292
  3
Shaded
350
32EB
  3
Shaded with edges
350
32EA
  3
Shades of Gray
350
32E7
  3
Sketchy
350
32E8
  3
Thicken
350
3295
  3
Wireframe
350
32E2
  3
X-Ray
350
32E9
  0
DICTIONARY
  5
32F3
102
{ACAD_REACTORS
330
C
102
}
330
C
100
AcDbDictionary
281
     1
  3
COLORDICT
350
32F4
  3
MATERIALDICT
350
32F5
  0
DICTIONARY
  5
5D
102
{ACAD_REACTORS
330
C
102
}
330
C
100
AcDbDictionary
281
     1
  3
CANNOSCALE
350
32FD
  3
CMLEADERSTYLE
350
32EC
  3
CTABLESTYLE
350
32AE
  3
DIMADEC
350
5E
  3
DIMASSOC
350
32EE
  3
HIDETEXT
350
32EF
  3
MSLTSCALE
350
32ED
  3
SORTENTS
350
CF1
  3
XCLIPFRAME
350
32F0
  0
DICTIONARY
  5
333D
102
{ACAD_REACTORS
330
C
102
}
330
C
100
AcDbDictionary
281
     1
  3
AcDsRecords
350
333E
  3
AcDsSchemas
350
333F
1001
ACAD
1070
     2
  0
XRECORD
  5
32F6
102
{ACAD_REACTORS
330
C
102
}
330
C
100
AcDbXrecord
280
     1
  1
DWGPROPS COOKIE
  2

  3

  4

  6

  7

  8
Susana
  9

300
=
301
=
302
=
303
=
304
=
305
=
306
=
307
=
308
=
309
=
 40
0.0
 41
2451967.537079502
 42
2460006.307180637
  1

 90
        0
  0
XRECORD
  5
32FC
102
{ACAD_REACTORS
330
32FB
102
}
330
32FB
100
AcDbXrecord
280
     1
102
VTR_0.000_0.000_1.000_1.000_VISUALSTYLE
340
328E
102
VTR_0.000_0.000_1.000_1.000_GRIDDISPLAY
 70
     3
102
VTR_0.000_0.000_1.000_1.000_GRIDMAJOR
 70
     5
102
VTR_0.000_0.000_1.000_1.000_DEFAULTLIGHTING
280
     1
102
VTR_0.000_0.000_1.000_1.000_DEFAULTLIGHTINGTYPE
 70
     1
102
VTR_0.000_0.000_1.000_1.000_BRIGHTNESS
141
0.0
102
VTR_0.000_0.000_1.000_1.000_CONTRAST
142
0.0
  0
DICTIONARY
  5
32BB
102
{ACAD_REACTORS
330
32BA
102
}
330
32BA
100
AcDbDictionary
281
     1
  0
XRECORD
  5
32F8
102
{ACAD_REACTORS
330
32F7
102
}
330
32F7
100
AcDbXrecord
280
     1
102
VISUALSTYLE
340
328E
102
GRIDDISPLAY
 70
     0
102
GRIDMAJOR
 70
     5
102
DEFAULTLIGHTING
280
     1
102
DEFAULTLIGHTINGTYPE
 70
     1
102
BRIGHTNESS
141
0.0
102
CONTRAST
142
0.0
  0
XRECORD
  5
32FA
102
{ACAD_REACTORS
330
32F9
102
}
330
32F9
100
AcDbXrecord
280
     1
102
VISUALSTYLE
340
328E
102
GRIDDISPLAY
 70
     0
102
GRIDMAJOR
 70
     5
102
DEFAULTLIGHTING
280
     1
102
DEFAULTLIGHTINGTYPE
 70
     1
102
BRIGHTNESS
141
0.0
102
CONTRAST
142
0.0
  0
LAYOUT
  5
329F
102
{ACAD_REACTORS
330
329E
102
}
330
329E
100
AcDbPlotSettings
  1

  2
HP DeskJet 1120C Printer
  4

  6

 40
0.0
 41
0.0
 42
0.0
 43
0.0
 44
0.0
 45
0.0
 46
0.0
 47
0.0
 48
0.0
 49
0.0
140
0.0
141
0.0
142
1.0
143
1.0
 70
  1712
 72
     0
 73
     0
 74
     0
  7

 75
     0
147
1.0
148
0.0
149
0.0
100
AcDbLayout
  1
Model
 70
     1
 71
     0
 10
0.0
 20
0.0
 11
12.0
 21
9.0
 12
0.0
 22
0.0
 32
0.0
 14
0.0
 24
0.0
 34
0.0
 15
0.0
 25
0.0
 35
0.0
146
0.0
 13
0.0
 23
0.0
 33
0.0
 16
1.0
 26
0.0
 36
0.0
 17
0.0
 27
1.0
 37
0.0
 76
     0
330
1A
331
326A
  0
LAYOUT
  5
32A0
102
{ACAD_REACTORS
330
329E
102
}
102
{ACAD_XDICTIONARY
360
32FE
102
}
330
329E
100
AcDbPlotSettings
  1

  2
Adobe PDF Esquemas Cad.pc3
  4
A4
  6

 40
3.174999952316284
 41
3.174999952316284
 42
3.175003051757812
 43
3.17498779296875
 44
209.9098358154297
 45
297.0318298339844
 46
0.0
 47
0.0
 48
0.0
 49
0.0
140
0.0
141
0.0
142
1.0
143
0.9865314984624991
 70
   688
 72
     1
 73
     0
 74
     1
  7

 75
     0
147
1.013652378619934
148
-24.00114688822231
149
-3.012039226710499
100
AcDbLayout
  1
Presentación1
 70
     1
 71
     1
 10
20.86890942764536
 20
-0.1201982338664478
 11
227.9515742966584
 21
292.9110579433122
 12
0.0
 22
0.0
 32
0.0
 14
24.00114688822231
 24
3.012039226710499
 34
-0.0000000349181948
 15
204.5223316776904
 25
289.7788324783146
 35
0.0000000814935746
146
0.0
 13
0.0
 23
0.0
 33
0.0
 16
1.0
 26
0.0
 36
0.0
 17
0.0
 27
1.0
 37
0.0
 76
     0
330
17
331
22
1001
ACAD_PSEXT
1000
Adobe PDF Esquemas Cad.pc3
1000
Adobe PDF Converter
1000
Mis documentos
1000
Creates Adobe PDF
1070
     0
  0
MATERIAL
  5
3286
102
{ACAD_REACTORS
330
3284
102
}
102
{ACAD_XDICTIONARY
360
3300
102
}
330
3284
100
AcDbMaterial
  1
ByBlock
  0
MATERIAL
  5
3285
102
{ACAD_REACTORS
330
3284
102
}
102
{ACAD_XDICTIONARY
360
3302
102
}
330
3284
100
AcDbMaterial
  1
ByLayer
  0
MATERIAL
  5
3287
102
{ACAD_REACTORS
330
3284
102
}
102
{ACAD_XDICTIONARY
360
3304
102
}
330
3284
100
AcDbMaterial
  1
Global
  0
MLEADERSTYLE
  5
32E1
102
{ACAD_REACTORS
330
32E0
102
}
102
{ACAD_XDICTIONARY
360
333B
102
}
330
32E0
100
AcDbMLeaderStyle
170
     2
171
     1
172
     0
 90
        2
 40
0.0
 41
0.0
173
     1
 91
-1056964608
340
14
 92
       -2
290
     1
 42
2.0
291
     1
 43
8.0
  3
Standard
341
0
 44
4.0
300

342
10
174
     1
178
     6
175
     1
176
     0
 93
-1056964608
 45
4.0
292
     0
297
     0
 46
4.0
343
0
 94
-1056964608
 47
1.0
 49
1.0
140
1.0
293
     1
141
0.0
294
     1
177
     0
142
1.0
295
     0
296
     0
143
3.75
1001
ACAD_MLEADERVER
1070
     2
  0
MLINESTYLE
  5
13
102
{ACAD_REACTORS
330
E
102
}
330
E
100
AcDbMlineStyle
  2
STANDARD
 70
     0
  3

 62
     0
 51
90.0
 52
90.0
 71
     2
 49
0.5
 62
   256
  6
BYLAYER
 49
-0.5
 62
   256
  6
BYLAYER
  0
ACDBPLACEHOLDER
  5
3283
102
{ACAD_REACTORS
330
3282
102
}
330
3282
  0
SCALE
  5
32CF
102
{ACAD_REACTORS
330
32CE
102
}
330
32CE
100
AcDbScale
 70
     0
300
1:1
140
1.0
141
1.0
290
     1
  0
SCALE
  5
32D0
102
{ACAD_REACTORS
330
32CE
102
}
330
32CE
100
AcDbScale
 70
     0
300
1:2
140
1.0
141
2.0
290
     0
  0
SCALE
  5
32D1
102
{ACAD_REACTORS
330
32CE
102
}
330
32CE
100
AcDbScale
 70
     0
300
1:4
140
1.0
141
4.0
290
     0
  0
SCALE
  5
32D2
102
{ACAD_REACTORS
330
32CE
102
}
330
32CE
100
AcDbScale
 70
     0
300
1:5
140
1.0
141
5.0
290
     0
  0
SCALE
  5
32D3
102
{ACAD_REACTORS
330
32CE
102
}
330
32CE
100
AcDbScale
 70
     0
300
1:8
140
1.0
141
8.0
290
     0
  0
SCALE
  5
32D4
102
{ACAD_REACTORS
330
32CE
102
}
330
32CE
100
AcDbScale
 70
     0
300
1:10
140
1.0
141
10.0
290
     0
  0
SCALE
  5
32D5
102
{ACAD_REACTORS
330
32CE
102
}
330
32CE
100
AcDbScale
 70
     0
300
1:16
140
1.0
141
16.0
290
     0
  0
SCALE
  5
32D6
102
{ACAD_REACTORS
330
32CE
102
}
330
32CE
100
AcDbScale
 70
     0
300
1:20
140
1.0
141
20.0
290
     0
  0
SCALE
  5
32D7
102
{ACAD_REACTORS
330
32CE
102
}
330
32CE
100
AcDbScale
 70
     0
300
1:30
140
1.0
141
30.0
290
     0
  0
SCALE
  5
32D8
102
{ACAD_REACTORS
330
32CE
102
}
330
32CE
100
AcDbScale
 70
     0
300
1:40
140
1.0
141
40.0
290
     0
  0
SCALE
  5
32D9
102
{ACAD_REACTORS
330
32CE
102
}
330
32CE
100
AcDbScale
 70
     0
300
1:50
140
1.0
141
50.0
290
     0
  0
SCALE
  5
32DA
102
{ACAD_REACTORS
330
32CE
102
}
330
32CE
100
AcDbScale
 70
     0
300
1:100
140
1.0
141
100.0
290
     0
  0
SCALE
  5
32DB
102
{ACAD_REACTORS
330
32CE
102
}
330
32CE
100
AcDbScale
 70
     0
300
2:1
140
2.0
141
1.0
290
     0
  0
SCALE
  5
32DC
102
{ACAD_REACTORS
330
32CE
102
}
330
32CE
100
AcDbScale
 70
     0
300
4:1
140
4.0
141
1.0
290
     0
  0
SCALE
  5
32DD
102
{ACAD_REACTORS
330
32CE
102
}
330
32CE
100
AcDbScale
 70
     0
300
8:1
140
8.0
141
1.0
290
     0
  0
SCALE
  5
32DE
102
{ACAD_REACTORS
330
32CE
102
}
330
32CE
100
AcDbScale
 70
     0
300
10:1
140
10.0
141
1.0
290
     0
  0
SCALE
  5
32DF
102
{ACAD_REACTORS
330
32CE
102
}
330
32CE
100
AcDbScale
 70
     0
300
100:1
140
100.0
141
1.0
290
     0
  0
TABLESTYLE
  5
329B
102
{ACAD_REACTORS
330
329A
102
}
330
329A
100
AcDbTableStyle
  3
Standard
 70
     0
 71
     8
 40
1.5
 41
1.5
280
     0
281
     0
  7
STANDARD
140
4.5
170
     2
 62
     0
 63
   257
283
     0
274
    -2
284
     1
 64
     0
275
    -2
285
     1
 65
     0
276
    -2
286
     1
 66
     0
277
    -2
287
     1
 67
     0
278
    -2
288
     1
 68
     0
279
    -2
289
     1
 69
     0
  7
STANDARD
140
6.0
170
     5
 62
     0
 63
   257
283
     0
274
    -2
284
     1
 64
     0
275
    -2
285
     1
 65
     0
276
    -2
286
     1
 66
     0
277
    -2
287
     1
 67
     0
278
    -2
288
     1
 68
     0
279
    -2
289
     1
 69
     0
  7
STANDARD
140
4.5
170
     5
 62
     0
 63
   257
283
     0
274
    -2
284
     1
 64
     0
275
    -2
285
     1
 65
     0
276
    -2
286
     1
 66
     0
277
    -2
287
     1
 67
     0
278
    -2
288
     1
 68
     0
279
    -2
289
     1
 69
     0
  0
VISUALSTYLE
  5
328E
102
{ACAD_REACTORS
330
3288
102
}
102
{ACAD_XDICTIONARY
360
3306
102
}
330
3288
100
AcDbVisualStyle
  2
2dWireframe
 70
     4
 71
     0
 72
     2
 73
     0
 90
        0
 40
-0.6
 41
-30.0
 62
     5
 63
     7
 74
     1
 91
        4
 64
     7
 65
   257
 75
     1
175
     1
 42
1.0
 92
        0
 66
   257
 43
1.0
 76
     1
 77
     6
 78
     2
 67
     7
 79
     5
170
     0
171
     0
290
     0
174
     0
 93
        1
 44
0.0
173
     0
291
     0
 45
0.0
1001
ACAD
1000
AcDbSavedByObjectVersion
1070
     0
  0
VISUALSTYLE
  5
3290
102
{ACAD_REACTORS
330
3288
102
}
102
{ACAD_XDICTIONARY
360
3308
102
}
330
3288
100
AcDbVisualStyle
  2
3D Hidden
 70
     6
 71
     1
 72
     2
 73
     2
 90
        0
 40
-0.6
 41
-30.0
 62
     5
 63
     7
 74
     2
 91
        2
 64
     7
 65
   257
 75
     2
175
     1
 42
40.0
 92
        0
 66
   257
 43
1.0
 76
     1
 77
     6
 78
     2
 67
     7
 79
     3
170
     0
171
     0
290
     0
174
     0
 93
        1
 44
0.0
173
     0
291
     0
 45
0.0
1001
ACAD
1000
AcDbSavedByObjectVersion
1070
     0
  0
VISUALSTYLE
  5
328F
102
{ACAD_REACTORS
330
3288
102
}
102
{ACAD_XDICTIONARY
360
330A
102
}
330
3288
100
AcDbVisualStyle
  2
3dWireframe
 70
     5
 71
     0
 72
     2
 73
     0
 90
        0
 40
-0.6
 41
-30.0
 62
     5
 63
     7
 74
     1
 91
        4
 64
     7
 65
   257
 75
     1
175
     1
 42
1.0
 92
        0
 66
   257
 43
1.0
 76
     1
 77
     6
 78
     2
 67
     7
 79
     5
170
     0
171
     0
290
     0
174
     0
 93
        1
 44
0.0
173
     0
291
     0
 45
0.0
1001
ACAD
1000
AcDbSavedByObjectVersion
1070
     0
  0
VISUALSTYLE
  5
328D
102
{ACAD_REACTORS
330
3288
102
}
102
{ACAD_XDICTIONARY
360
330C
102
}
330
3288
100
AcDbVisualStyle
  2
Basic
 70
     7
 71
     1
 72
     0
 73
     1
 90
        0
 40
-0.6
 41
-30.0
 62
     5
 63
     7
 74
     0
 91
        4
 64
     7
 65
   257
 75
     1
175
     1
 42
1.0
 92
        8
 66
     7
 43
1.0
 76
     1
 77
     6
 78
     2
 67
     7
 79
     5
170
     0
171
     0
290
     0
174
     0
 93
        1
 44
0.0
173
     0
291
     1
 45
0.0
1001
ACAD
1000
AcDbSavedByObjectVersion
1070
     0
  0
VISUALSTYLE
  5
3294
102
{ACAD_REACTORS
330
3288
102
}
102
{ACAD_XDICTIONARY
360
330E
102
}
330
3288
100
AcDbVisualStyle
  2
Brighten
 70
    12
 71
     2
 72
     2
 73
     0
 90
        0
 40
-0.6
 41
-30.0
 62
     5
 63
     7
 74
     1
 91
        4
 64
     7
 65
   257
 75
     1
175
     1
 42
1.0
 92
        8
 66
     7
 43
1.0
 76
     1
 77
     6
 78
     2
 67
     7
 79
     5
170
     0
171
     0
290
     0
174
     0
 93
        1
 44
50.0
173
     0
291
     1
 45
0.0
1001
ACAD
1000
AcDbSavedByObjectVersion
1070
     0
  0
VISUALSTYLE
  5
3298
102
{ACAD_REACTORS
330
3288
102
}
102
{ACAD_XDICTIONARY
360
3310
102
}
330
3288
100
AcDbVisualStyle
  2
ColorChange
 70
    16
 71
     2
 72
     2
 73
     3
 90
        0
 40
-0.6
 41
-30.0
 62
     5
 63
     8
 74
     1
 91
        4
 64
     7
 65
   257
 75
     1
175
     1
 42
1.0
 92
        8
 66
     8
 43
1.0
 76
     1
 77
     6
 78
     2
 67
     7
 79
     5
170
     0
171
     0
290
     0
174
     0
 93
        1
 44
0.0
173
     0
291
     1
 45
0.0
1001
ACAD
1000
AcDbSavedByObjectVersion
1070
     0
  0
VISUALSTYLE
  5
3291
102
{ACAD_REACTORS
330
3288
102
}
102
{ACAD_XDICTIONARY
360
3312
102
}
330
3288
100
AcDbVisualStyle
  2
Conceptual
 70
     9
 71
     3
 72
     2
 73
     0
 90
        0
 40
-0.6
 41
-30.0
 62
     5
 63
     7
 74
     2
 91
        2
 64
     7
 65
   257
 75
     1
175
     1
 42
40.0
 92
        8
 66
     7
 43
1.0
 76
     1
 77
     6
 78
     2
 67
     7
 79
     3
170
     0
171
     0
290
     0
174
     0
 93
        1
 44
0.0
173
     0
291
     0
 45
0.0
1001
ACAD
1000
AcDbSavedByObjectVersion
1070
     0
  0
VISUALSTYLE
  5
3293
102
{ACAD_REACTORS
330
3288
102
}
102
{ACAD_XDICTIONARY
360
3314
102
}
330
3288
100
AcDbVisualStyle
  2
Dim
 70
    11
 71
     2
 72
     2
 73
     0
 90
        0
 40
-0.6
 41
-30.0
 62
     5
 63
     7
 74
     1
 91
        4
 64
     7
 65
   257
 75
     1
175
     1
 42
1.0
 92
        8
 66
     7
 43
1.0
 76
     1
 77
     6
 78
     2
 67
     7
 79
     5
170
     0
171
     0
290
     0
174
     0
 93
        1
 44
-50.0
173
     0
291
     1
 45
0.0
1001
ACAD
1000
AcDbSavedByObjectVersion
1070
     0
  0
VISUALSTYLE
  5
32E6
102
{ACAD_REACTORS
330
3288
102
}
102
{ACAD_XDICTIONARY
360
332E
102
}
330
3288
100
AcDbVisualStyle
  2
EdgeColorOff
 70
    22
 71
     2
 72
     2
 73
     0
 90
        0
 40
0.6
 41
30.0
 62
     5
 63
     7
 74
     1
 91
        4
 64
     7
 65
   257
 75
     1
175
     1
 42
1.0
 92
        8
 66
     7
 43
1.0
 76
     1
 77
     6
 78
     2
 67
     7
 79
     5
170
     0
171
     0
290
     0
174
     0
 93
        1
 44
0.0
173
     0
291
     1
 45
0.0
1001
ACAD
1000
AcDbSavedByObjectVersion
1070
     0
  0
VISUALSTYLE
  5
3297
102
{ACAD_REACTORS
330
3288
102
}
102
{ACAD_XDICTIONARY
360
3316
102
}
330
3288
100
AcDbVisualStyle
  2
Facepattern
 70
    15
 71
     2
 72
     2
 73
     0
 90
        0
 40
-0.6
 41
-30.0
 62
     5
 63
     7
 74
     1
 91
        4
 64
     7
 65
   257
 75
     1
175
     1
 42
1.0
 92
        8
 66
     7
 43
1.0
 76
     1
 77
     6
 78
     2
 67
     7
 79
     5
170
     0
171
     0
290
     0
174
     0
 93
        1
 44
0.0
173
     0
291
     1
 45
0.0
1001
ACAD
1000
AcDbSavedByObjectVersion
1070
     0
  0
VISUALSTYLE
  5
3289
102
{ACAD_REACTORS
330
3288
102
}
102
{ACAD_XDICTIONARY
360
3318
102
}
330
3288
100
AcDbVisualStyle
  2
Flat
 70
     0
 71
     2
 72
     1
 73
     1
 90
        2
 40
-0.6
 41
30.0
 62
     5
 63
     7
 74
     0
 91
        4
 64
     7
 65
   257
 75
     1
175
     1
 42
1.0
 92
        8
 66
     7
 43
1.0
 76
     1
 77
     6
 78
     2
 67
     7
 79
     5
170
     0
171
     0
290
     0
174
     0
 93
       13
 44
0.0
173
     0
291
     1
 45
0.0
1001
ACAD
1000
AcDbSavedByObjectVersion
1070
     0
  0
VISUALSTYLE
  5
328A
102
{ACAD_REACTORS
330
3288
102
}
102
{ACAD_XDICTIONARY
360
331A
102
}
330
3288
100
AcDbVisualStyle
  2
FlatWithEdges
 70
     1
 71
     2
 72
     1
 73
     1
 90
        2
 40
-0.6
 41
30.0
 62
     5
 63
     7
 74
     1
 91
        4
 64
     7
 65
   257
 75
     1
175
     1
 42
1.0
 92
        0
 66
   257
 43
1.0
 76
     1
 77
     6
 78
     2
 67
     7
 79
     5
170
     0
171
     0
290
     0
174
     0
 93
       13
 44
0.0
173
     0
291
     1
 45
0.0
1001
ACAD
1000
AcDbSavedByObjectVersion
1070
     0
  0
VISUALSTYLE
  5
328B
102
{ACAD_REACTORS
330
3288
102
}
102
{ACAD_XDICTIONARY
360
331C
102
}
330
3288
100
AcDbVisualStyle
  2
Gouraud
 70
     2
 71
     2
 72
     2
 73
     1
 90
        2
 40
-0.6
 41
30.0
 62
     5
 63
     7
 74
     0
 91
        4
 64
     7
 65
   257
 75
     1
175
     1
 42
1.0
 92
        0
 66
     7
 43
1.0
 76
     1
 77
     6
 78
     2
 67
     7
 79
     5
170
     0
171
     0
290
     0
174
     0
 93
       13
 44
0.0
173
     0
291
     1
 45
0.0
1001
ACAD
1000
AcDbSavedByObjectVersion
1070
     0
  0
VISUALSTYLE
  5
328C
102
{ACAD_REACTORS
330
3288
102
}
102
{ACAD_XDICTIONARY
360
331E
102
}
330
3288
100
AcDbVisualStyle
  2
GouraudWithEdges
 70
     3
 71
     2
 72
     2
 73
     1
 90
        2
 40
-0.6
 41
30.0
 62
     5
 63
     7
 74
     1
 91
        4
 64
     7
 65
   257
 75
     1
175
     1
 42
1.0
 92
        0
 66
   257
 43
1.0
 76
     1
 77
     6
 78
     2
 67
     7
 79
     5
170
     0
171
     0
290
     0
174
     0
 93
       13
 44
0.0
173
     0
291
     1
 45
0.0
1001
ACAD
1000
AcDbSavedByObjectVersion
1070
     0
  0
VISUALSTYLE
  5
32E3
102
{ACAD_REACTORS
330
3288
102
}
102
{ACAD_XDICTIONARY
360
3328
102
}
330
3288
100
AcDbVisualStyle
  2
Hidden
 70
     6
 71
     1
 72
     2
 73
     2
 90
        0
 40
0.6
 41
30.0
 62
     5
 63
     7
 74
     2
 91
        2
 64
     7
 65
   257
 75
     2
175
     1
 42
40.0
 92
        0
 66
   257
 43
1.0
 76
     1
 77
     6
 78
     2
 67
     7
 79
     3
170
     0
171
     0
290
     0
174
     0
 93
        1
 44
0.0
173
     0
291
     0
 45
0.0
1001
ACAD
1000
AcDbSavedByObjectVersion
1070
     0
  0
VISUALSTYLE
  5
32E4
102
{ACAD_REACTORS
330
3288
102
}
102
{ACAD_XDICTIONARY
360
332A
102
}
330
3288
100
AcDbVisualStyle
  2
JitterOff
 70
    20
 71
     2
 72
     2
 73
     0
 90
        0
 40
0.6
 41
30.0
 62
     5
 63
     7
 74
     1
 91
        4
 64
     7
 65
   257
 75
     1
175
     1
 42
1.0
 92
       10
 66
     7
 43
1.0
 76
     1
 77
     6
 78
     2
 67
     7
 79
     5
170
     0
171
     0
290
     0
174
     0
 93
        1
 44
0.0
173
     0
291
     1
 45
0.0
1001
ACAD
1000
AcDbSavedByObjectVersion
1070
     0
  0
VISUALSTYLE
  5
3296
102
{ACAD_REACTORS
330
3288
102
}
102
{ACAD_XDICTIONARY
360
3320
102
}
330
3288
100
AcDbVisualStyle
  2
Linepattern
 70
    14
 71
     2
 72
     2
 73
     0
 90
        0
 40
-0.6
 41
-30.0
 62
     5
 63
     7
 74
     1
 91
        4
 64
     7
 65
   257
 75
     7
175
     7
 42
1.0
 92
        8
 66
     7
 43
1.0
 76
     1
 77
     6
 78
     2
 67
     7
 79
     5
170
     0
171
     0
290
     0
174
     0
 93
        1
 44
0.0
173
     0
291
     1
 45
0.0
1001
ACAD
1000
AcDbSavedByObjectVersion
1070
     0
  0
VISUALSTYLE
  5
32E5
102
{ACAD_REACTORS
330
3288
102
}
102
{ACAD_XDICTIONARY
360
332C
102
}
330
3288
100
AcDbVisualStyle
  2
OverhangOff
 70
    21
 71
     2
 72
     2
 73
     0
 90
        0
 40
0.6
 41
30.0
 62
     5
 63
     7
 74
     1
 91
        4
 64
     7
 65
   257
 75
     1
175
     1
 42
1.0
 92
        9
 66
     7
 43
1.0
 76
     1
 77
     6
 78
     2
 67
     7
 79
     5
170
     0
171
     0
290
     0
174
     0
 93
        1
 44
0.0
173
     0
291
     1
 45
0.0
1001
ACAD
1000
AcDbSavedByObjectVersion
1070
     0
  0
VISUALSTYLE
  5
3292
102
{ACAD_REACTORS
330
3288
102
}
102
{ACAD_XDICTIONARY
360
3322
102
}
330
3288
100
AcDbVisualStyle
  2
Realistic
 70
     8
 71
     2
 72
     2
 73
     0
 90
        0
 40
-0.6
 41
-30.0
 62
     5
 63
     7
 74
     1
 91
        0
 64
     7
 65
   257
 75
     1
175
     1
 42
1.0
 92
        8
 66
     8
 43
1.0
 76
     1
 77
     6
 78
     2
 67
     7
 79
     5
170
     0
171
     0
290
     0
174
     0
 93
       13
 44
0.0
173
     0
291
     0
 45
0.0
1001
ACAD
1000
AcDbSavedByObjectVersion
1070
     0
  0
VISUALSTYLE
  5
32EB
102
{ACAD_REACTORS
330
3288
102
}
102
{ACAD_XDICTIONARY
360
3338
102
}
330
3288
100
AcDbVisualStyle
  2
Shaded
 70
    27
 71
     2
 72
     2
 73
     1
 90
        2
 40
0.6
 41
30.0
 62
     5
 63
     7
 74
     0
 91
        4
 64
     7
 65
   257
 75
     1
175
     1
 42
1.0
 92
        8
 66
   257
 43
1.0
 76
     1
 77
     6
 78
     2
 67
     8
 79
     3
170
     0
171
     0
290
     0
174
     0
 93
        5
 44
0.0
173
     0
291
     0
 45
0.0
1001
ACAD
1000
AcDbSavedByObjectVersion
1070
     0
  0
VISUALSTYLE
  5
32EA
102
{ACAD_REACTORS
330
3288
102
}
102
{ACAD_XDICTIONARY
360
3336
102
}
330
3288
100
AcDbVisualStyle
  2
Shaded with edges
 70
    26
 71
     2
 72
     2
 73
     1
 90
        2
 40
0.6
 41
30.0
 62
     5
 63
     7
 74
     1
 91
       10
 64
     7
 65
   257
 75
     2
175
     1
 42
1.0
 92
        8
 66
   257
 43
1.0
 76
     1
 77
     6
 78
     2
 67
     7
 79
     3
170
     0
171
     0
290
     0
174
     0
 93
        5
 44
0.0
173
     0
291
     0
 45
0.0
1001
ACAD
1000
AcDbSavedByObjectVersion
1070
     0
  0
VISUALSTYLE
  5
32E7
102
{ACAD_REACTORS
330
3288
102
}
102
{ACAD_XDICTIONARY
360
3330
102
}
330
3288
100
AcDbVisualStyle
  2
Shades of Gray
 70
    23
 71
     2
 72
     2
 73
     3
 90
        0
 40
0.6
 41
30.0
 62
     5
 63
     7
 74
     2
 91
        2
 64
     7
 65
     7
 75
     1
175
     1
 42
40.0
 92
        8
 66
     7
 43
1.0
 76
     1
 77
     6
 78
     2
 67
     7
 79
     3
170
     0
171
     0
290
     0
174
     0
 93
        1
 44
0.0
173
     0
291
     0
 45
0.0
1001
ACAD
1000
AcDbSavedByObjectVersion
1070
     0
  0
VISUALSTYLE
  5
32E8
102
{ACAD_REACTORS
330
3288
102
}
102
{ACAD_XDICTIONARY
360
3332
102
}
330
3288
100
AcDbVisualStyle
  2
Sketchy
 70
    24
 71
     1
 72
     2
 73
     2
 90
        0
 40
0.6
 41
30.0
 62
     5
 63
     7
 74
     2
 91
        2
 64
     7
 65
     7
 75
     1
175
     1
 42
40.0
 92
       11
 66
     7
 43
1.0
 76
     1
 77
     6
 78
     2
 67
     7
 79
     6
170
     0
171
     0
290
     0
174
     0
 93
        1
 44
0.0
173
     0
291
     0
 45
0.0
1001
ACAD
1000
AcDbSavedByObjectVersion
1070
     0
  0
VISUALSTYLE
  5
3295
102
{ACAD_REACTORS
330
3288
102
}
102
{ACAD_XDICTIONARY
360
3324
102
}
330
3288
100
AcDbVisualStyle
  2
Thicken
 70
    13
 71
     2
 72
     2
 73
     0
 90
        0
 40
-0.6
 41
-30.0
 62
     5
 63
     7
 74
     1
 91
        4
 64
     7
 65
   257
 75
     1
175
     1
 42
1.0
 92
       12
 66
     7
 43
1.0
 76
     1
 77
     6
 78
     2
 67
     7
 79
     5
170
     0
171
     0
290
     0
174
     0
 93
        1
 44
0.0
173
     0
291
     1
 45
0.0
1001
ACAD
1000
AcDbSavedByObjectVersion
1070
     0
  0
VISUALSTYLE
  5
32E2
102
{ACAD_REACTORS
330
3288
102
}
102
{ACAD_XDICTIONARY
360
3326
102
}
330
3288
100
AcDbVisualStyle
  2
Wireframe
 70
     5
 71
     0
 72
     2
 73
     0
 90
        0
 40
0.6
 41
30.0
 62
     5
 63
     7
 74
     1
 91
        4
 64
     7
 65
   257
 75
     1
175
     1
 42
1.0
 92
        0
 66
   257
 43
1.0
 76
     1
 77
     6
 78
     2
 67
     7
 79
     3
170
     0
171
     0
290
     0
174
     0
 93
        1
 44
0.0
173
     0
291
     0
 45
0.0
1001
ACAD
1000
AcDbSavedByObjectVersion
1070
     0
  0
VISUALSTYLE
  5
32E9
102
{ACAD_REACTORS
330
3288
102
}
102
{ACAD_XDICTIONARY
360
3334
102
}
330
3288
100
AcDbVisualStyle
  2
X-Ray
 70
    25
 71
     2
 72
     2
 73
     1
 90
        1
 40
0.5
 41
30.0
 62
     5
 63
     7
 74
     1
 91
        0
 64
     7
 65
   257
 75
     1
175
     1
 42
1.0
 92
        8
 66
     7
 43
1.0
 76
     1
 77
     6
 78
     2
 67
     7
 79
     3
170
     0
171
     0
290
     0
174
     0
 93
       13
 44
0.0
173
     0
291
     0
 45
0.0
1001
ACAD
1000
AcDbSavedByObjectVersion
1070
     0
  0
XRECORD
  5
32F4
102
{ACAD_REACTORS
330
32F3
102
}
330
32F3
100
AcDbXrecord
280
     1
340
3299
  0
XRECORD
  5
32F5
102
{ACAD_REACTORS
330
32F3
102
}
330
32F3
100
AcDbXrecord
280
     1
340
3284
  0
DICTIONARYVAR
  5
32FD
102
{ACAD_REACTORS
330
5D
102
}
330
5D
100
DictionaryVariables
280
     0
  1
1:1
  0
DICTIONARYVAR
  5
32EC
102
{ACAD_REACTORS
330
5D
102
}
330
5D
100
DictionaryVariables
280
     0
  1
Standard
  0
DICTIONARYVAR
  5
32AE
102
{ACAD_REACTORS
330
5D
102
}
330
5D
100
DictionaryVariables
280
     0
  1
Standard
  0
DICTIONARYVAR
  5
5E
102
{ACAD_REACTORS
330
5D
102
}
330
5D
100
DictionaryVariables
280
     0
  1
0
  0
DICTIONARYVAR
  5
32EE
102
{ACAD_REACTORS
330
5D
102
}
330
5D
100
DictionaryVariables
280
     0
  1
1
  0
DICTIONARYVAR
  5
32EF
102
{ACAD_REACTORS
330
5D
102
}
330
5D
100
DictionaryVariables
280
     0
  1
0
  0
DICTIONARYVAR
  5
32ED
102
{ACAD_REACTORS
330
5D
102
}
330
5D
100
DictionaryVariables
280
     0
  1
0
  0
DICTIONARYVAR
  5
CF1
102
{ACAD_REACTORS
330
5D
102
}
330
5D
100
DictionaryVariables
280
     0
  1
96
  0
DICTIONARYVAR
  5
32F0
102
{ACAD_REACTORS
330
5D
102
}
330
5D
100
DictionaryVariables
280
     0
  1
0
  0
DICTIONARY
  5
333E
102
{ACAD_REACTORS
330
333D
102
}
330
333D
100
AcDbDictionary
281
     1
  0
DICTIONARY
  5
333F
102
{ACAD_REACTORS
330
333D
102
}
330
333D
100
AcDbDictionary
281
     1
  3
8796076268744
350
3340
  3
8796076268760
350
3341
  3
8796076268776
350
3342
  3
8796076268792
350
3343
  3
8796076268808
350
3344
  3
8796076268824
350
3345
  0
DICTIONARY
  5
32FE
330
32A0
100
AcDbDictionary
280
     1
281
     1
  3
ADSK_XREC_LAYOUTTHUMBNAIL
360
32FF
  0
DICTIONARY
  5
3300
330
3286
100
AcDbDictionary
280
     1
281
     1
  3
ACAD_XREC_ROUNDTRIP
360
3301
  0
DICTIONARY
  5
3302
330
3285
100
AcDbDictionary
280
     1
281
     1
  3
ACAD_XREC_ROUNDTRIP
360
3303
  0
DICTIONARY
  5
3304
330
3287
100
AcDbDictionary
280
     1
281
     1
  3
ACAD_XREC_ROUNDTRIP
360
3305
  0
DICTIONARY
  5
333B
330
32E1
100
AcDbDictionary
280
     1
281
     1
  3
ACAD_XREC_ROUNDTRIP
360
333C
  0
DICTIONARY
  5
3306
330
328E
100
AcDbDictionary
280
     1
281
     1
  3
ACAD_XREC_ROUNDTRIP
360
3307
  0
DICTIONARY
  5
3308
330
3290
100
AcDbDictionary
280
     1
281
     1
  3
ACAD_XREC_ROUNDTRIP
360
3309
  0
DICTIONARY
  5
330A
330
328F
100
AcDbDictionary
280
     1
281
     1
  3
ACAD_XREC_ROUNDTRIP
360
330B
  0
DICTIONARY
  5
330C
330
328D
100
AcDbDictionary
280
     1
281
     1
  3
ACAD_XREC_ROUNDTRIP
360
330D
  0
DICTIONARY
  5
330E
330
3294
100
AcDbDictionary
280
     1
281
     1
  3
ACAD_XREC_ROUNDTRIP
360
330F
  0
DICTIONARY
  5
3310
330
3298
100
AcDbDictionary
280
     1
281
     1
  3
ACAD_XREC_ROUNDTRIP
360
3311
  0
DICTIONARY
  5
3312
330
3291
100
AcDbDictionary
280
     1
281
     1
  3
ACAD_XREC_ROUNDTRIP
360
3313
  0
DICTIONARY
  5
3314
330
3293
100
AcDbDictionary
280
     1
281
     1
  3
ACAD_XREC_ROUNDTRIP
360
3315
  0
DICTIONARY
  5
332E
330
32E6
100
AcDbDictionary
280
     1
281
     1
  3
ACAD_XREC_ROUNDTRIP
360
332F
  0
DICTIONARY
  5
3316
330
3297
100
AcDbDictionary
280
     1
281
     1
  3
ACAD_XREC_ROUNDTRIP
360
3317
  0
DICTIONARY
  5
3318
330
3289
100
AcDbDictionary
280
     1
281
     1
  3
ACAD_XREC_ROUNDTRIP
360
3319
  0
DICTIONARY
  5
331A
330
328A
100
AcDbDictionary
280
     1
281
     1
  3
ACAD_XREC_ROUNDTRIP
360
331B
  0
DICTIONARY
  5
331C
330
328B
100
AcDbDictionary
280
     1
281
     1
  3
ACAD_XREC_ROUNDTRIP
360
331D
  0
DICTIONARY
  5
331E
330
328C
100
AcDbDictionary
280
     1
281
     1
  3
ACAD_XREC_ROUNDTRIP
360
331F
  0
DICTIONARY
  5
3328
330
32E3
100
AcDbDictionary
280
     1
281
     1
  3
ACAD_XREC_ROUNDTRIP
360
3329
  0
DICTIONARY
  5
332A
330
32E4
100
AcDbDictionary
280
     1
281
     1
  3
ACAD_XREC_ROUNDTRIP
360
332B
  0
DICTIONARY
  5
3320
330
3296
100
AcDbDictionary
280
     1
281
     1
  3
ACAD_XREC_ROUNDTRIP
360
3321
  0
DICTIONARY
  5
332C
330
32E5
100
AcDbDictionary
280
     1
281
     1
  3
ACAD_XREC_ROUNDTRIP
360
332D
  0
DICTIONARY
  5
3322
330
3292
100
AcDbDictionary
280
     1
281
     1
  3
ACAD_XREC_ROUNDTRIP
360
3323
  0
DICTIONARY
  5
3338
330
32EB
100
AcDbDictionary
280
     1
281
     1
  3
ACAD_XREC_ROUNDTRIP
360
3339
  0
DICTIONARY
  5
3336
330
32EA
100
AcDbDictionary
280
     1
281
     1
  3
ACAD_XREC_ROUNDTRIP
360
3337
  0
DICTIONARY
  5
3330
330
32E7
100
AcDbDictionary
280
     1
281
     1
  3
ACAD_XREC_ROUNDTRIP
360
3331
  0
DICTIONARY
  5
3332
330
32E8
100
AcDbDictionary
280
     1
281
     1
  3
ACAD_XREC_ROUNDTRIP
360
3333
  0
DICTIONARY
  5
3324
330
3295
100
AcDbDictionary
280
     1
281
     1
  3
ACAD_XREC_ROUNDTRIP
360
3325
  0
DICTIONARY
  5
3326
330
32E2
100
AcDbDictionary
280
     1
281
     1
  3
ACAD_XREC_ROUNDTRIP
360
3327
  0
DICTIONARY
  5
3334
330
32E9
100
AcDbDictionary
280
     1
281
     1
  3
ACAD_XREC_ROUNDTRIP
360
3335
  0
XRECORD
  5
3340
102
{ACAD_REACTORS
330
333F
102
}
330
333F
100
AcDbXrecord
280
     1
  1
AcDb_Thumbnail_Schema
102
{ATTRRECORD
341
3342
  2
AcDbDs::TreatedAsObjectData
280
     1
291
     1
102
ATTRRECORD}
102
{ATTRRECORD
341
3343
  2
AcDbDs::Legacy
280
     1
291
     1
102
ATTRRECORD}
  2
AcDbDs::ID
280
    10
 91
        8
102
{ATTRRECORD
341
3344
  2
AcDs:Indexable
280
     1
291
     1
102
ATTRRECORD}
102
{ATTRRECORD
341
3345
  2
AcDbDs::HandleAttribute
280
     7
282
     1
102
ATTRRECORD}
  2
Thumbnail_Data
280
    15
 91
        0
  0
XRECORD
  5
3341
102
{ACAD_REACTORS
330
333F
102
}
330
333F
100
AcDbXrecord
280
     1
  1
AcDb3DSolid_ASM_Data
102
{ATTRRECORD
341
3342
  2
AcDbDs::TreatedAsObjectData
280
     1
291
     1
102
ATTRRECORD}
102
{ATTRRECORD
341
3343
  2
AcDbDs::Legacy
280
     1
291
     1
102
ATTRRECORD}
  2
AcDbDs::ID
280
    10
 91
        8
102
{ATTRRECORD
341
3344
  2
AcDs:Indexable
280
     1
291
     1
102
ATTRRECORD}
102
{ATTRRECORD
341
3345
  2
AcDbDs::HandleAttribute
280
     7
282
     1
102
ATTRRECORD}
  2
ASM_Data
280
    15
 91
        0
  0
XRECORD
  5
3342
102
{ACAD_REACTORS
330
333F
102
}
330
333F
100
AcDbXrecord
280
     1
  1
AcDbDs::TreatedAsObjectDataSchema
  2
AcDbDs::TreatedAsObjectData
280
     1
 91
        0
  0
XRECORD
  5
3343
102
{ACAD_REACTORS
330
333F
102
}
330
333F
100
AcDbXrecord
280
     1
  1
AcDbDs::LegacySchema
  2
AcDbDs::Legacy
280
     1
 91
        0
  0
XRECORD
  5
3344
102
{ACAD_REACTORS
330
333F
102
}
330
333F
100
AcDbXrecord
280
     1
  1
AcDbDs::IndexedPropertySchema
  2
AcDs:Indexable
280
     1
 91
        0
  0
XRECORD
  5
3345
102
{ACAD_REACTORS
330
333F
102
}
330
333F
100
AcDbXrecord
280
     1
  1
AcDbDs::HandleAttributeSchema
  2
AcDbDs::HandleAttribute
280
     7
 91
        1
284
     1
  0
XRECORD
  5
32FF
102
{ACAD_REACTORS
330
32FE
102
}
330
32FE
100
AcDbXrecord
280
     1
310
28000000620000008C0000000100080000000000B036000000000000000000000001000000000000FFFFFF0000000000FFFFFF000000000000000000000000000000000000000000000000000000000000000000330000006600000099000000CC000000FF00000000330000333300006633000099330000CC330000FF3300
310
0000660000336600006666000099660000CC660000FF66000000990000339900006699000099990000CC990000FF99000000CC000033CC000066CC000099CC0000CCCC0000FFCC000000FF000033FF000066FF000099FF0000CCFF0000FFFF000000003300330033006600330099003300CC003300FF003300003333003333
310
33006633330099333300CC333300FF33330000663300336633006666330099663300CC663300FF66330000993300339933006699330099993300CC993300FF99330000CC330033CC330066CC330099CC3300CCCC3300FFCC330000FF330033FF330066FF330099FF3300CCFF3300FFFF330000006600330066006600660099
310
006600CC006600FF00660000336600333366006633660099336600CC336600FF33660000666600336666006666660099666600CC666600FF66660000996600339966006699660099996600CC996600FF99660000CC660033CC660066CC660099CC6600CCCC6600FFCC660000FF660033FF660066FF660099FF6600CCFF6600
310
FFFF660000009900330099006600990099009900CC009900FF00990000339900333399006633990099339900CC339900FF33990000669900336699006666990099669900CC669900FF66990000999900339999006699990099999900CC999900FF99990000CC990033CC990066CC990099CC9900CCCC9900FFCC990000FF99
310
0033FF990066FF990099FF9900CCFF9900FFFF99000000CC003300CC006600CC009900CC00CC00CC00FF00CC000033CC003333CC006633CC009933CC00CC33CC00FF33CC000066CC003366CC006666CC009966CC00CC66CC00FF66CC000099CC003399CC006699CC009999CC00CC99CC00FF99CC0000CCCC0033CCCC0066CC
310
CC0099CCCC00CCCCCC00FFCCCC0000FFCC0033FFCC0066FFCC0099FFCC00CCFFCC00FFFFCC000000FF003300FF006600FF009900FF00CC00FF00FF00FF000033FF003333FF006633FF009933FF00CC33FF00FF33FF000066FF003366FF006666FF009966FF00CC66FF00FF66FF000099FF003399FF006699FF009999FF00CC
310
99FF00FF99FF0000CCFF0033CCFF0066CCFF0099CCFF00CCCCFF00FFCCFF0000FFFF0033FFFF0066FFFF0099FFFF00CCFFFF00FFFFFF00000000000D0D0D001A1A1A00282828003535350043434300505050005D5D5D006B6B6B00787878008686860093939300A1A1A100AEAEAE00BBBBBB00C9C9C900D6D6D600E4E4E400
310
F1F1F100FFFFFF0000000000000000000000000000000000000000000000000000000000000000000000000000000000E2E2E2E2E2E2E2E2E2E2E2E2E2E2E2E2E2E2E2E2E2E2E2E2E2E2E2E2E2E2E2E2E2E2E2E2E2E2E2E2E2E2E2E2E2E2E2E2E2E2E2E2E2E2E2E2E2E2E2E2E2E2E2E2E2E2E2E2E2E2E2E2E2E2E2E2E2E2E2
310
E2E2E2E2E2E2E2E2E2E2E2E2E2E2E2E2E2E2E20533E2F5F5F5F5F5F5F5F5F5F5F5F5F5F5F5F5F5F5F5F5F5F5F5F5F5F5F5F5F5F5F5F5F5F5F5F5F5F5F5F5F5F5F5F5F5F5F5F5F5F5F5F5F5F5F5F5F5F5F5F5F5F5F5F5F5F5F5F5F5F5F5F5F5F5F5F5F5F5F5F5F5F5F5F5F5F5F5F5F5F5F5F5F5F5F5F5F50000E2F5E2E2E2E2
310
E2E2E2E2E2E2E2E2E2E2E2E2E2E2E2E2E2E2E2E2E2E2E2E2E2E2E2E2E2E2E2E2E2E2E2E2E2E2E2E2E2E2E2E2E2E2E2E2E2E2E2E2E2E2E2E2E2E2E2E2E2E2E2E2E2E2E2E2E2E2E2C3C3E2E2E2E2E2E2E2E2E2F5E2E2E2E2E2E2E2E2F50000E2F5E2C3C3C3F5E2C3C3C3C3C3C3C3F5C3C3C3C3C3C3C3C3C3C3C3C3C3F5C3F5F5
310
F5F5F5F5F5F5F5F5F5F5F5F5F5F5F5F5E2F5C3C3F5F5F5F5F5E2F5C3C3C3C3F5C3C3F5F5C3C3C3C3F5C3C3C3C3C3F5C3C3C3F5F5F5F5E2F5F5F5F5F5F5F5F5E2F52D0FE2F5E2C3C3C3C3E2C3C3C3C3C3C3C3F5C3C3C3C3C3C3C3C3C3C3C3F5C3F5C3F5F5F5F5F5F5F5F5F5F5F5F5F5F5F5F5F5F5E2F5F5C3F5F5F5F5F5E2F5
310
C3C3C3C3F5C3C3C3F5C3C3C3C3F5C3C3C3C3C3F5C3C3C3F5F5F5F5E2F5F5F5F5F5F5F5F5E2F50833E2F5E2F5E2E2F5E2E2E2E2E2E2E2E2E2E2E2E2E2E2E2E2E2E2F5E2E2F5E2F5F5E2E2F5E2F5F5E2E2E2E2E2F5F5F5F5F5F5E2F5F5E2F5F5F5F5F5E2F5E2E2E2E2F5E2E2F5F5E2E2E2E2F5E2F5E2E2E2F5F5E2E2F5F5F5F5
310
E2F5F5F5F5F5F5F5F5E2F50000E2F5E2E2E2E2F5E2E2E2E2E2E2E2E2E2E2E2E2E2E2E2E2E2E2F5E2E2F5E2E2E2E2E2E2E2E2F5E2E2E2E2E2F5F5F5F5F5F5E2F5F5E2F5F5F5F5F5E2F5E2E2E2E2F5E2E2E2F5E2E2E2E2F5E2E2E2E2E2F5E2E2E2F5F5F5F5E2F5F5F5F5F5F5F5F5E2F50000E2F5E2E2E2E2F5E2E2E2F5E2E2F5
310
F5E2E2F5F5F5F5F5F5E2F5F5E2E2F5E2E2F5E2E2E2E2F5E2E2E2E2E2E2F5F5F5F5F5F5E2F5E2E2F5F5F5F5F5E2F5E2E2E2F5F5F5E2E2F5E2E2E2E2F5E2E2F5F5F5F5E2E2E2F5F5F5F5E2F5F5F5F5F5F5F5F5E2F5AC0EE2F5E2E2E2E2F5E2E2E2E2E2E2E2E2E2E2E2E2E2F5E2E2E2E2E2E2E2E2F5E2F5F5F5F5F5F5F5F5F5F5
310
F5F5F5F5F5F5F5F5E2F5F5E2F5F5F5F5F5E2F5E2E2E2E2F5E2E2F5F5E2E2E2E2F5E2F5E2E2E2F5E2E2E2F5F5F5F5E2F5F5F5F5F5F5F5F5E2F50000E2F5E2E2E2E2F5E2E2E2E2E2E2E2E2E2E2E2E2E2F5E2E2E2E2E2E2E2E2F5F5E2F5F5F5F5F5F5F5F5F5F5F5F5F5F5F5F5F5E2F5E2E2F5F5F5F5F5E2F5E2E2E2E2F5E2E2E2
310
F5E2E2E2E2F5E2E2E2E2E2F5E2E2E2F5F5F5F5E2F5F5F5F5F5F5F5F5E2F55D7DE2F5E2E2E2E2F5E2E2E2F5F5F5F5F5F5E2E2E2F5F5E2E2F5F5E2F5F5E2F5E2E2F5F5F5F5F5F5F5F5F5F5F5F5F5F5F5F5F5E2F5F5E2F5F5F5F5F5E2F5E2F5E2F5F5F5E2E2F5E2E2E2E2F5E2E2F5E2E2F5E2E2E2F5F5F5F5E2F5F5F5F5F5F5F5
310
F5E2F5FFFFE2F5E2E2E2E2E2E2E2E2E2E2E2E2F5E2E2E2E2E2F5E2E2E2E2E2E2F5F5F5F5F5F5F5F5F5F5F5F5F5F5F5F5F5F5F5F5F5F5E2F5F5E2F5F5F5F5F5E2F5E2E2E2E2F5E2E2F5F5E2E2E2E2F5E2F5E2E2E2F5E2E2E2F5F5F5F5E2F5F5F5F5F5F5F5F5F5F50000E2F5E2E2E2E2F5E2E2E2E2E2E2E2F5E2E2E2E2E2F5E2
310
E2E2E2E2E2F5F5F5F5F5F5F5F5F5F5F5F5F5F5F5F5F5F5F5F5F5F5E2F5E2E2F5F5F5F5F5E2F5E2E2E2E2F5E2E2E2F5E2E2E2E2F5E2E2E2E2E2F5E2E2E2F5F5F5F5E2F5F5F5F5F5F5F5F5F5F50000E2F5E2F5F5F5F5E2F5F5F5F5F5F5F5F5F5F5F5F5F5F5F5F5F5F5F5F5F5F5F5F5F5F5F5F5F5F5F5F5F5F5F5F5F5F5F5F5F5
310
E2F5F5F5F5F5F5F5F5E2F5F5F5F5F5F5F5F5F5F5F5F5F5F5F5F5F5F52828F5F5F5F5F5F5F5F5E2F5F5F5F5F5F5F5F5F5F53300E2F5E228282828E2282828282828282828282828F5F5F5F5F5F5F5F5F5F5F5F5F5F5F5F5F5F5F5F5F5F5F5F5F5F5F5F5F5E2F5F528F5F5F5F5F5E2F528282828F5282828F528282828F52828
310
282828F5282828F5F5F5F5E2F5F5F5F5F5F5F5F5F5F53300E2F5E2282828E2E22828282828282828282828E2E2E2E2E2E2E2E2E2E2E2E2E2E2E2E2E2E2E2E2E2E2E2E2E2E2E2E2E2E2E2E22828E2E2E2E2E2E2E2282828E2E2E22828E228282828E22828E2E2E2E2282828E2E2E2E2E2F5F5F5F5F5F5F5F5F5F56600E2F5E2
310
F5F5F5F5E2F5F5F5F5F5F5F5F5F5F5F5F5F5F5F5F5F5F5F5F5F5F5F5F5F5F5F5F5F5F5F5F5F5F5F5F5F5F5F5F5F5E2F5E2F5F5F5F5F5F5E2F5F5F5F5F5F5F5F5F5F5F5F5F5F5F5F5F5F5F5F5F5F5F5F5F5F5F5F5E2F5F5F5F5F5F5F5F5F5F59900E2F5E2F5F5F5F5E2F5F5F5F5F5F5F5F5F5F5F5F5F5F5F5F5F5F5F5F5F5F5
310
F5F5F5F5F5F5F5F5F5F5F5F5F5F5F5F5F5F5F5E2F5E2E2E2E2E2E2E2E2F5F5F5F5F5F5F5F5F5F5F5F5F5F5F5F5F5F5F5F5F5F5F5F5F5F5F5F5E2F5F5F5F5F5F5F5F5F5F5CC00E2F5E2E2E2F5F5E2E2E2E2E2E2E2E2E2E2E2E2E2E2E2E2E2F5F5F5F5F5F5F5F5F5F5F5F5F5F5F5F5F5F5F5F5F5F5F5F5F5E2F5E2E2E2E2E2E2
310
E2E2E2E2E2E2E2E2E2E2E2E2E2E2E2E2E2E2E2E2F5F5F5F5F5F5F5F5F5F5E2F5F5F5F5F5F5F5F5F5F5CC00E2F5E2E2E2E2F5E2E2E2E2E2E2E2E2E2E2E2E2E2E2E2E2E2F5F5F5F5F5F5F5F5F5F5F5F5F5F5F5F5F5F5F5F5F5F5F5F5F5E2F5E2E2F5E2E2E2F5E2F5E2E2E2E2E2E2E2E2E2E2E2E2E2E2E2E2E2F5F5F5F5F5F5F5
310
F5F5F5E2F5F5F5F5F5F5F5F5F5F5FF00E2F5E2F5F5F5F5E2F5F5F5F5F5F5F5F5F5F5F5F5F5F5F5F5F5F5F5F5F5F5F5F5F5F5F5F5F5F5F5F5F5F5F5F5F5F5F5F5F5E2F5E2E2E2F5E2E2F5E2F5F5F5F5F5F5F5F5F5F5F5F5F5F5F5F5F5F5F5F5F5F5F5F5F5F5F5F5E2F5F5F5F5F5F5F5F5F5F53500E2F5E2E2E2E2E2E2E2E2E2
310
E2E2E2E2E2E2E2E2E2E2E2E2E2E2E2E2E2E2E2E2E2E2E2E2E2E2E2E2E2E2E2E2E2E2E2E2E2E2E2E2E2E2E2E2E2E2E2E2E2E2E2E2E2E2E2E2E2E2E2E2E2E2E2E2E2E2E2E2E2E2E2E2E2E2E2E2E2F5F5F5F5F5F5F5F5E2F50000E2F5E2F5F5F5F5F5F5F5F5F5F5F5F5F5F5F5F5F5F5F5F5F5F5F5F5F5F5F5F5F5F5F5F5F5F5F5
310
F5F5F5F5F5F5F5F5F5F5F5F5F5F5F5F5F5F5F5F5F5F5F5F5F5F5F5F5F5F5F5F5F5F5F5F5F5F5F5F5F5F5F5F5F5F5F5F5F5E2F5F5F5F5F5F5F5F5E2F50000E2F5E2F5F5F5F5F5F5F5F5F5F5F5F5F5F5F5F5F5F5F5F5F5F5F5F5F5F5F5F5F5F5F5F5F5F5F5F5F5F5F5F5F5F5F5F5F5F5F5F5F5F5F5F5F5F5F5F5F5F5F5F5F5F5
310
F5F5F5F5F5F5F5F5F5F5F5F5F5F5F5F5F5F5F5F5F5F5E2F5F5F5F5F5F5F5F5E2F50000E2F5E2F5F5F5F5F5F5F5F5F5F5F5F5F5F5F5F5F5F5F5F5F5F5F5F5F5F5F5F5F5F5F5F5F5F5F5F5F5F5F5F5F5F5F5F5F5F5F5F5F5F5F5F5F5F5F5F5F5F5F5F5F5F5F5F5F5F5F5F5F5F5F5F5F5F5F5F5F5F5F5F5F5F5F5F5E2F5F5F5F5
310
F5F5F5F5E2F50000E2F5E2F5F5F5F5F5F5F5F5F5F5F5F5F5F5F5F5F5F5F5F5F5F5F5F5F5F5F5F5F5F5F5F5F5F5F5F5F5F5F5F5F5F5F5F5F5F5F5F5F5F5F5F5F5F5F5F5F5F5F5F5F5F5F5F5F5F5F5F5F5F5F5F5F5F5F5F5F5F5F5F5F5F5F5F5E2F5F5F5F5F5F5F5F5E2F50000E2F5E2F5F5F5F5F5F5F5F5F5F5F5F5F5F5F5F5
310
F5F5F5F5F5F5F5F5F5F5F5F5F5F5F5F5F5F5F5F5F5F5F5F5F5F5F5F5F5F5F5F5F5F5F5F5F5F5F5F5F5F5F5F5F5F5F5F5F5F5F5F5F5F5F5F5F5F5F5F5F5F5F5F5F5F5F5F5E2F5F5F5F5F5F5F5F5E2F50000E2F5E2F5F5F5F5F5F5F5F5F5F5F5F5F5F5F5F5F5F5F5F5F5F5F5F5F5F5F5F5F5F5F5F5F5F5F5F5F5F5F5F5F5F5F5
310
F5F5F5F5F5F5F5F5F5F5F5F5F5F5F5F5F5F5F5F5F5F5F5F5F5F5F5F5F5F5F5F5F5F5F5F5F5F5F5F5F5E2F5F5F5F5F5F5F5F5E2F50000E2F5E2F5F5F5F5F5F5F5F5F5F5F5F5F5F5F5F5F5F5F5F5F5F5F5F5F5F5F5F5F5F5F5F5F5F5F5F5F5F5F5F5F5F5F5F5F5F5F5F5F5F5F5F5F5F5F5F5F5F5F5F5F5F5F5F5F5F5F5F5F5F5
310
F5F5F5F5F5F5F5F5F5F5F5F5F5F5E2F5F5F5F5F5F5F5F5E2F50000E2F5E2F5F5F5F5F5F5F5F5F5F5F5F5F5F5F5F5F5F5F5F5F5F5F5F5F5F5F5F5F5F5F5F5F5F5F5F5F5F5F5F5F5F5F5F5F5F5F5F5F5F5F5F5F5F5F5F5F5F5F5F5F5F5F5F5F5F5F5F5F5F5F5F5F5F5F5F5F5F5F5F5F5F5F5F5E2F5F5F5F5F5F5F5F5E2F50000
310
E2F5E2F5F5F5F5F5F5F5F5F5F5F5F5F5F5F5F5F5F5F5F5F5F5F5F5F5F5F5F5F5F5F5F5F5F5F5F5F5F5F5F5F5F5F5F5F5F5F5F5F5F5F5F5F5F5F5F5F5F5F5F5F5F5F5F5F5F5F5F5F5F5F5F5F5F5F5F5F5F5F5F5F5F5F5F5E2F5F5F5F5F5F5F5F5E2F50000E2F5E2F5F5F5F5F5F5F5F5F5F5F5F5F5F5F5F5F5F5F5F5F5F5F5F5
310
F5F5F5F5F5F5F5F5F5F5F5F5F5F5F5F5F5F5F5F5F5F5F5F5F5F5F5F5F5F5F5F5F5F5F5F5F5F5F5F5F5F5F5F5F5F5F5F5F5F5F5F5F5F5F5F5F5F5F5F5E2F5F5F5F5F5F5F5F5E2F50000E2F5E2F5F5F5F5F5F5F5F5F5F5F5F5F5F5F5F5F5F5F5F5F5F5F5F5F5F5F5F5F5F5F5F5F5F5F5F5F5F5F5F5F5F5F5F5F5F5F5F5F5F5F5
310
F5F5F5F5F5F5F5F5F5F5F5F5F5F5F5F5F5F5F5F5F5F5F5F5F5F5F5F5F5F5F5F5F5E2F5F5F5F5F5F5F5F5E2F50000E2F5E2F5F5F5F5F5F5F5F5F5F5F5F5F5F5F5F5F5F5F5F5F5F5F5F5F5F5F5F5F5F5F5F5F5F5F5F5F5F5F5F5F5F5F5F5F5F5F5F5F5F5F5F5F5F5F5F5F5F5F5F5F5F5F5F5F5F5F5F5F5F5F5F5F5F5F5F5F5F5
310
F5F5F5F5F5F5E2F5F5F5F5F5F5F5F5E2F50000E2F5E2F5F5F5F5F5F5F5F5F5F5F5F5F5F5F5F5F5F5F5F5F5F5F5F5F5F5F5F5F5F5F5F5F5F5F5F5F5F5F5F5F5F5F5F5F5F5F5F5F5F5F5F5F5F5F5F5F5F5F5F5F5F5F5F5F5F5F5F5F5F5F5F5F5F5F5F5F5F5F5F5F5F5F5F5E2F5F5F5F5F5F5F5F5E2F50000E2F5E2F5F5F5F5F5
310
F5F5F5F5F5F5F5F5F5F5F5F5F5F5F5F5F5F5F5F5F5F5F5F5F5F5F5F5F5F5F5F5F5F5F5F5F5F5F5F5F5F5F5F5F5F5F5F5F5F5F5F5F5F5F5F5F5F5F5F5F5F5F5F5F5F5F5F5F5F5F5F5F5F5F5F5F5F5F5E2F5F5F5F5F5F5F5F5E2F50000E2F5E2F5F5F5F5F5F5F5F5F5F5F5F5F5F5F5F5F5F5F5F5F5F5F5F5F5F5F5F5F5F5F5F5
310
F5F5F5F5F5F5F5F5F5F5F5F5F5F5F5F5F5F5F5F5F5F5F5F5F5F5F5F5F5F5F5F5F5F5F5F5F5F5F5F5F5F5F5F5F5F5F5F5F5F5F5F5E2F5F5F5F5F5F5F5F5E2F50000E2F5E2F5F5F5F5F5F5F5F5F5F5F5F5F5F5F5F5F5F5F5F5F5F5F5F5F5F5F5F5F5F5F5F5F5F5F5F5F5F5F5F5F5F5F5F5F5F5F5F5F5F5F5F5F5F5F5F5F5F5F5
310
F5F5F5F5F5F5F5F5F5F5F5F5F5F5F5F5F5F5F5F5F5F5F5F5F5E2F5F5F5F5F5F5F5F5E2F50000E2F5E2F5F5F5F5F5F5F5F5F5F5F5F5F5F5F5F5F5F5F5F5F5F5F5F5F5F5F5F5F5F5F5F5F5F5F5F5F5F5F5F5F5F5F5F5F5F5F5F5F5F5F5F5F5F5F5F5F5F5F5F5F5F5F5F5F5F5F5F5F5F5F5F5F5F5F5F5F5F5F5F5F5F5F5F5E2F5
310
F5F5F5F5F5F5F5F5F50000E2F5E2F5F5F5F5F5F5F5F5F5F5F5F5F5F5F5F5F5F5F5F5F5F5F5F5F5F5F5F5F5F5F5F5F5F5F5F5F5F5F5F5F5F5F5F5F5F5F5F5F5F5F5F5F5F5F5F5F5F5F5F5F5F5F5F5F5F5F5F5F5F5F5F5F5F5F5F5F5F5F5F5F5F5F5F5E2F5F5F5F5F5F5F5F5F5F50000E2F5E2F5F5F5F5F5F5F5F5F5F5F5F5F5
310
F5F5F5F5F5F5F5F5F5F5F5F5F5F5F5F5F5F5F5F5F5F5F5F5F5F5F5F5F5F5F5F5F5F5F5F5F5F5F5F5F5F5F5F5F5F5F5F5F5F5F5F5F5F5F5F5F5F5F5F5F5F5F5F5F5F5F5F5F5F5F5E2F5F5F5F5F5F5F5F5F5F50000E2F5E2F5F5F5F5F5F5F5F5F5F5F5F5F5F5F5F5F5F5F5F5F5F5F5F5F5F5E2E2E2E2E2E2E2F5F5F5F5F5F5F5
310
F5F5F5F5F5F5F5F5F5F5F5F5F5F5F5F5F5F5F5F5F5F5F5F5F5F5F5F5F5F5F5F5F5F5F5F5F5F5F5F5F5F5F5F5E2F5F5F5F5F5F5F5F5F5F50000E2F5E2F5F5F5F5F5F5F5F5F5F5F5F5F5F5F5F5F5F5F5F5F5F5F5F5F5F5E2E2E2F5F5F5F5E2E2F5F5F5F5F5F5F5F5F5F5F5F5F5F5F5F5F5F5F5F5F5F5F5F5F5F5F5F5F5F5F5F5
310
F5F5F5F5F5F5F5F5F5F5F5F5F5F5F5F5F5E2F5F5F5F5F5F5F5F5F5F50000E2F5E2F5F5F5F5F5F5F5F5F5F5F5F5F5F5F5F5F5F5F5F5F5F5F5F5F5F5E2E2E2F5F5F5F5F5F5E2E2F5F5F5F5F5F5F5F5F5F5F5F5F5F5F5F5F5F5F5F5F5E2E2E2E2E2F5F5F5F5F5F5F5F5F5F5F5F5F5F5F5F5F5F5F5F5F5E2F5F5F5F5F5F5F5F5F5
310
F50000E2F5E2F5F5F5F5F5F5F5F5F5F5F5F5F5F5F5F5F5F5F5F5F5F5F5F5F5F5F5F5F5F5F5F5F5F5F5F5F5E2E2F5F5F5F5F5E2E2F5F5F5F5F5F5F5F5F5F5F5E2F5F5E2E2E2F5F5F5F5F5F5F5F5F5F5F5F5F5F5F5F5F5F5F5F5F5E2F5F5F5F5F5F5F5F5F5F50000E2F5E2F5F5F5F5F5F5F5F5F5F5F5F5F5F5F5F5F5F5F5F5F5
310
F5F5F5F5F5F5F5F5F5F5F5F5F5F5F5F5F5F5E2E2F5F5E2E2E2F5F5F5F5F5F5F5F5F5F5E2F5F5F5E2E2E2F5F5F5F5F5F5F5F5F5F5F5F5F5F5F5F5F5F5F5F5F5E2F5F5F5F5F5F5F5F5F5F50000E2F5E2F5F5F5F5F5F5F5F5F5F5F5F5F5F5F5F5F5F5F5F5F5F5F5F5F5F5F5F5F5F5F5F5F5F5F5F5F5F5F5F5F5E2E2E2E2E2F5F5
310
F5F5F5F5F5F5F5F5E2F5F5F5F5F5F5F5F5F5F5F5F5F5F5F5F5F5F5F5F5F5F5F5F5F5F5F5E2F5F5F5F5F5F5F5F5F5F50000E2F5E2F5F5F5F5F5F5F5F5F5F5F5F5F5F5F5F5F5F5F5F5F5F5F5F5F5F5F5F5F5F5F5F5F5F5F5F5F5F5F5F5F5F5F5E2E2E2F5F5F5F5F5F5F5F5F5E2F5F5F5F5F5F5F5F5F5F5F5F5F5F5F5F5F5F5F5
310
F5F5F5F5F5F5F5F5F5E2F5F5F5F5F5F5F5F5F5F50000E2F5E2F5F5F5F5F5F5F5F5F5F5F5F5F5F5F5F5F5F5F5F5F5F5F5F5F5F5F5F5F5F5F5F5F5F5F5F5F5F5F5F5F5F5F5E2E2E2F5F5F5F5F5F5F5F5E2F5F5F5F5F5F5F5F5F5F5F5F5F5F5F5F5F5F5F5F5F5F5F5F5F5F5F5F5F5E2F5F5F5F5F5F5F5F5E2F50000E2F5E2F5F5
310
F5F5F5F5F5F5F5F5F5F5F5F5F5F5F5F5F5F5F5F5F5F5F5F5F5F5F5F5F5F5F5F5F5F5F5F5F5F5F5F5F5E2E2E2F5F5F5F5F5F5F5E2F5F5F5F5F5F5F5F5F5F5F5F5F5F5F5F5F5F5F5F5F5F5F5F5F5F5F5F5F5F5E2F5F5F5F5F5F5F5F5E2F50000E2F5E2F5F5F5F5F5F5F5F5F5F5F5F5F5F5F5F5F5F5F5F5F5F5F5F5F5F5F5F5F5
310
F5F5F5F5F5F5F5F5F5F5F5F5F5F5E2E2E2F5F5F5F5F5F5E2F5F5F5F5F5F5F5F5F5F5F5F5F5F5F5F5F5F5F5F5F5F5F5F5F5F5F5F5F5F5F5E2F5F5F5F5F5F5F5F5E2F50000E2F5E2F5F5F5F5F5F5F5F5F5F5F5F5F5F5F5F5F5F5F5F5F5F5F5F5F5F5F5F5F5F5F5F5F5F5F5F5F5F5F5F5F5F5F5E2E2E2F5F5F5F5F5F5E2F5F5F5
310
F5F5F5F5F5F5F5F5F5F5F5F5F5F5F5F5F5F5F5F5F5F5F5F5F5F5F5F5E2F5F5F5F5F5F5F5F5E2F50000E2F5E2F5F5F5F5F5F5F5F5F5F5F5F5F5F5F5F5F5F5F5F5F5F5F5F5F5F5F5F5F5F5F5F5F5F5F5F5F5F5F5F5F5F5F5E2E2E2C3F5F5F5F5E2F5F5F5F5F5F5F5F5F5F5F5F5F5F5F5F5F5F5F5F5F5F5F5F5F5F5F5F5F5F5F5
310
F5E2F5F5F5F5F5F5F5F5E2F50000E2F5E2F5F5F5F5F5F5F5F5F5F5F5F5F5F5F5F5F5F5F5F5F5F5F5F5F5F5F5F5F5F5F5F5F5F5F5F5F5F5F5F5F5F5C3C3C3C3C3F5F5F5E2F5F5F5F5F5F5F5F5F5F5F5F5F5F5F5F5F5F5F5F5F5F5F5F5F5F5F5F5F5F5F5F5F5E2F5F5F5F5F5F5F5F5E2F50000E2F5E2F5F5F5F5F5F5F5F5F5F5
310
F5F5F5F5F5F5F5F5F5F5F5F5F5F5F5F5F5F5F5F5F5F5F5F5F5E2E2E2E2E2E2E2C3C3C3C3C3C3E2E2E2E2E2E2F5F5F5F5F5F5F5F5F5F5F5F5F5F5F5F5F5F5F5F5F5F5F5F5F5F5F5F5F5F5E2F5F5F5F5F5F5F5F5E2F50000E2F5E2F5F5F5F5F5F5F5F5F5F5F5F5F5F5F5F5F5F5F5F5F5F5F5F5F5F5F5F5F5F5F5F5F5F5E2E2E2
310
E2E2E2E2E2E2E2E2E2E2E2E2E2E2E2E2E2E2F5F5F5F5F5F5F5F5F5F5F5F5F5F5F5F5F5F5F5F5F5F5F5F5F5F5F5F5F5E2F5F5F5F5F5F5F5F5E2F50000E2F5E2F5F5F5F5F5F5F5F5F5F5F5F5F5F5F5F5F5F5F5F5F5F5F5F5F5F5F5F5F5F5F5F5F5F528E228E228282828C3C3C3C3C3C328282828E228E2F5F5F5F5F5F5F5F5F5
310
F5F5F5F5F5F5F5F5F5F5F5F5F5F5F5F5F5F5F5F5E2F5F5F5F5F5F5F5F5E2F50000E2F5E2F5F5F5F5F5F5F5F5F5F5F5F5F5F5F5F5F5F5F5F5F5F5F5F5F5F5F5F5F5F5F5F5F5F528F5F5F5F5F5F5F5C3C3C3C3C3F5F5F5F5F5F5F52828F5F5F5F5F5F5F5F5F5F5F5F5F5F5F5F5F5F5F5F5F5F5F5F5F5F5F5F5E2F5F5F5F5F5F5
310
F5F5E2F50000E2F5E2F5F5F5F5F5F5F5F5F5F5F5F5F5F5F5F5F5F5F5F5F5F5F5F5F5F5F5F5F5F5F5F5F5F528F5F5F5F5F5F5F5C3E2E2E2C3F5F5F5F5F5F5F52828F5F5F5F5F5F5F5F5F5F5F5F5F5F5F5F5F5F5F5F5F5F5F5F5F5F5F5F5E2F5F5F5F5F5F5F5F5E2F50000E2F5E2F5F5F5F5F5F5F5F5F5F5F5F5F5F5F5F5F5F5
310
F5F5F5F5F5F5F5F5F5F5F5F5F5F5F5F528F5F5F5F5F5F5F5F5E2E2E2F5F5F5F5F5F5F5F52828F5F5F5F5F5F5F5F5F5F5F5F5F5F5F5F5F5F5F5F5F5F5F5F5F5F5F5F5E2F5F5F5F5F5F5F5F5E2F50000E2F5E2F5F5F5F5F5F5F5F5F5F5F5F5F5F5F5F5F5F5F5F5F5F5F5F5F5F5F5F5F5F5F5F5F5F528F5F5F5F5F5F5F5F5E2E2
310
E2F5F5F5F5F5F5F5F52828F5F5F5F5F5F5F5F5F5F5F5F5F5F5F5F5F5F5F5F5F5F5F5F5F5F5F5F5E2F5F5F5F5F5F5F5F5E2F50000E2F5E2F5F5F5F5F5F5F5F5F5F5F5F5F5F5F5F5F5F5F5F5F5F5F5F5F5F5F5F5F5F5F5F5F5F528F5F5F5F5F5F5F5F5E2E2E2F5F5F5F5F5F5F5F52828F5F5F5F5F5F5F5F5F5F5F5F5F5F5F5F5
310
F5F5F5F5F5F5F5F5F5F5F5F5E2F5F5F5F5F5F5F5F5E2F50000E2F5E2F5F5F5F5F5F5F5F5F5F5F5F5F5F5F5F5F5F5F5F5F5F5F5F5F5F5F5F5F5F5F5F5F5F528F5F5F5F5F5F5F5F5E2E2E2F5F5F5F5F5F5F5F52828F5F5F5F5F5F5F5F5F5F5F5F5F5F5F5F5F5F5F5F5F5F5F5F5F5F5F5F5E2F5F5F5F5F5F5F5F5E2F50000E2F5
310
E2F5F5F5F5F5F5F5F5F5F5F5F5F5F5F5F5F5F5F5F5F5F5F5F5F5F5F5F5F5F5F5F5F5F528F5F5F5F5F5F5F5F5E2E2E2F5F5F5F5F5F5F5F52828F5F5F5F5F5F5F5F5F5F5F5F5F5F5F5F5F5F5F5F5F5F5F5F5F5F5F5F5E2F5F5F5F5F5F5F5F5E2F50000E2F5E2F5F5F5F5F5F5F5F5F5F5F5F5F5F5F5F5F5F5F5F5F5F5F5F5F5F5
310
F5F5F5F5F5F5F5F528F5F5F5F5F5F5F5F5E2E2E2F5F5F5F5F5F5F5F52828F5F5F5F5F5F5F5F5F5F5F5F5F5F5F5F5F5F5F5F5F5F5F5F5F5F5F5F5E2F5F5F5F5F5F5F5F5E2F5CDCDE2F5E2F5F5F5F5F5F5F5F5F5F5F5F5F5F5F5F5F5F5F5F5F5F5F5F5F5F5F5F5F5F5F5F5F5F528F5F5F5F5F5F5F5F5E2E2E2F5F5F5F5F5F5F5
310
F52828F5F5F5F5F5F5F5F5F5F5F5F5F5F5F5F5F5F5F5F5F5F5F5F5F5F5F5F5E2F5F5F5F5F5F5F5F5F5F50000E2F5E2F5F5F5F5F5F5F5F5F5F5F5F5F5F5F5F5F5F5F5F5F5F5F5F5F5F5F5F5F5F5F5F5F5F528F5F5F5F5F5F5F5F5E2E2E2F5F5F5F5F5F5F5F52828F5F5F5F5F5F5F5F5F5F5F5F5F5F5F5F5F5F5F5F5F5F5F5F5
310
F5F5F5F5E2F5F5F5F5F5F5F5F5F5F5CDCDE2F5E2F5F5F5F5F5F5F5F5F5F5F5F5F5F5F5F5F5F5F5F5F5F5F5F5F5F5F5F5F5F5F5F5F5F528F5F5F5F5F5F5F5F5E2E2E2F5F5F5F5F5F5F5F52828F5F5F5F5F5F5F5F5F5F5F5F5F5F5F5F5F5F5F5F5F5F5F5F5F5F5F5F5E2F5F5F5F5F5F5F5F5F5F50000E2F5E2F5F5F5F5F5F5F5
310
F5F5F5F5F5F5F5F5F5F5F5F5F5F5F5F5F5F5F5F5F5F5F5F5F5F5F528F5F5F5F5F5F5F5F5E2E2E2F5F5F5F5F5F5F5F52828F5F5F5F5F5F5F5F5F5F5F5F5F5F5F5F5F5F5F5F5F5F5F5F5F5F5F5F5E2F5F5F5F5F5F5F5F5F5F5CDCDE2F5E2F5F5F5F5F5F5F5F5F5F5F5F5F5F5F5F5F5F5F5F5F5F5F5F5F5F5F5F5F5F5F5F5F5F5
310
28F5F5F5F5F5F5F5F5E2E2E2F5F5F5F5F5F5F5F52828F5F5F5F5F5F5F5F5F5F5F5F5F5F5F5F5F5F5F5F5F5F5F5F5F5F5F5F5E2F5F5F5F5F5F5F5F5F5F50000E2F5E2F5F5F5F5F5F5F5F5F5F5F5F5F5F5F5F5F5F5F5F5F5F5F5F5F5F5F5F5F5F5F5F5F5F528F5F5F5F5F5F5F5F5E2E2E2F5F5F5F5F5F5F5F52828F5F5F5F5F5
310
F5F5F5F5F5F5F5F5F5F5F5F5F5F5F5F5F5F5F5F5F5F5F5E2F5F5F5F5F5F5F5F5F5F5CDCDE2F5E2F5F5F5F5F5F5F5F5F5F5F5F5F5F5F5F5F5F5F5F5F5F5F5F5F5F5F5F5F5F5F5F5F5F528F5F5F5F5F5F5F5F5E2E2E2F5F5F5F5F5F5F5F52828F5F5F5F5F5F5F5F5F5F5F5F5F5F5F5F5F5F5F5F5F5F5F5F5F5F5F5F5E2F5F5F5
310
F5F5F5F5F5F5F50000E2F5E2F5F5F5F5F5F5F5F5F5F5F5F5F5F5F5F5F5F5F5F5F5F5F5F5F5F5F5F5F5F5F5F5F5F5F52828F5F5F5F5F5F5E2E2E2F5F5F5F5F5F5F52828F5F5F5F5F5F5F5F5F5F5F5F5F5F5F5F5F5F5F5F5F5F5F5F5F5F5F5F5F5E2F5F5F5F5F5F5F5F5F5F5CDCDE2F5E2F5F5F5F5F5F5F5F5F5F5F5F5F5F5F5
310
F5F5F5F5F5F5F5F5F5F5F5F5F5F5F5F5F5F5F5F5282828F5F5F5F5F5E2E2E2F5F5F5F5F5F5282828F5F5F5F5F5F5F5F5F5F5F5F5F5F5F5F5F5F5F5F5F5F5F5F5F5F5F5F5F5E2F5F5F5F5F5F5F5F5F5F50000E2F5E2F5F5F5F5F5F5F5F5F5F5F5F5F5F5F5F5F5F5F5F5F5F5F5F5F5F5F5F5F5F5F5F5F5F528F5F528F5F5F5F5
310
F5E2E2E2F5F5F5F5F5F528282828F5F5F5F5F5F5F5F5F5F5F5F5F5F5F5F5F5F5F5F5F5F5F5F5F5F5F5F5E2F5F5F5F5F5F5F5F5E2F5CDCDE2F5E2F5F5F5F5F5F5F5F5F5F5F5F5F5F5F5F5F5F5F5F5F5F5F5F5F5F5F5F5F5F5F5F5F5F52828F528F5F5F5F5F5E2E2E2F5F5F5F5F52828F528F5F5F5F5F5F5F5F5F5F5F5F5F5F5
310
F5F5F5F5F5F5F5F5F5F5F5F5F5F5F5E2F5F5F5F5F5F5F5F5E2F50000E2F5E2F5F5F5F5F5F5F5F5F5F5F5F5F5F5F5F5F5F5F5F5F5F5F5F5F5F5F5F5F5F5F5F5F5F5F5282828F5F5F5F5F5E2E2E2F5F5F5F5F5F528282828F5F5F5F5F5F5F5F5F5F5F5F5F5F5F5F5F5F5F5F5F5F5F5F5F5F5F5F5E2F5F5F5F5F5F5F5F5E2F5CD
310
CDE2F5E2F5F5F5F5F5F5F5F5F5F5F5F5F5F5F5F5F5F5F5F5F5F5F5F5F5F5F5F5F5F5F5F5F5F5F5F5F5F5F5F5F5F5F5E2E2E2F5F5F5F5F5F5F5F5F5F528F5F5F5F5F5F5F5F5F5F5F5F5F5F5F5F5F5F5F5F5F5F5F5F5F5F5F5E2F5F5F5F5F5F5F5F5E2F50000E2F5E2F5F5F5F5F5F5F5F5F5F5F5F5F5F5F5F5F5F5F5F5F5F5F5
310
F5F5F5F5F5F5F5F5F5F5F5F5F5F5F5F5F5F5F5F5E2E2E2F5F5F5F5F5F5F5F5F5F5F528F5F5F5F5F5F5F5F5F5F5F5F5F5F5F5F5F5F5F5F5F5F5F5F5F5F5E2F5F5F5F5F5F5F5F5E2F5CDCDE2F5E2F5F5F5F5F5F5F5F5F5F5F5F5F5F5F5F5F5F5F5F5F5F5F5F5F5F5F5F5F5F5F5F5F5F5F5F5F5F5F5F5F5F5F5E2E2E2F5F5F5F5
310
F5F5F5F5F5F5F5F528F5F5F5F5F5F5F5F5F5F5F5F5F5F5F5F5F5F5F5F5F5F5F5F5F5E2F5F5F5F5F5F5F5F5E2F50000E2F5E2F5F5F5F5F5F5F5F5F5F5F5F5F5F5F5F5F5F5F5F5F5F5F5F5F5F5F5F5F5F5F5F5F5F5F5F5F5F5F5F5F5F5F5E2E2E2F5F5F5F5F5F5F5F5F5F5F5F5F528F5F5F5F5F5F5F5F5F5F5F5F5F5F5F5F5F5
310
F5F5F5F5F5F5F5E2F5F5F5F5F5F5F5F5E2F5CDCDE2F5E2F5F5F5F5F5F5F5F5F5F5F5F5F5F5F5F5F5F5F5F5F5F5F5F5F5F5F5F5F5F5F5F5F5F5F5F5F5F5F5F5F5F5F5E2E2E2F5F5F5F5F5F5F5F5F5F5F5F5F5F528F5F5F5F5F5F5F5F5F5F5F5F5F5F5F5F5F5F5F5F5F5F5F5E2F5F5F5F5F5F5F5F5E2F50000E2F5E2F5F5F5F5
310
F5F5F5F5F5F5F5F5F5F5F5F5F5F5F5F5F5F5F5F5F5F5F5F5F5F5F5F5F5F5F5F5F5F5F5F5F5F5F5E2E2E2F5F5F5F5F5F5F5F5F5F5F5F5F5F5F5282828282828F5F5F5F5F5F5F5F5F5F5F5F5F5F5F5F5F5E2F5F5F5F5F5F5F5F5E2F5CDCDE2F5E2F5F5F5F5F5F5F5F5F5F5F5F5F5F5F5F5F5F5F5F5F5F5F5F5F5F5F5F5F5F5F5
310
F5F5F5F5F5F5F5F5F5F5F5F5E2E2E2F5F5F5F5F5F5F5F5F5F5F5F5F5F5F5F5F528282828F5F5F5F5F5F5F5F5F5F5F5F5F5F5F5F5F5E2F5F5F5F5F5F5F5F5E2F50000E2F5E2F5F5F5F5F5F5F5F5F5F5F5F5F5F5F5F5F5F5F5F5F5F5F5F5F5F5F5F5F5F5F5F5F5F5F5F5F5F5F5F5F5F5F5E2E2E2F5F5F5F5F5F5F5F5F5F5F5F5
310
F5F5F5F5F52828F528F5F5F5F5F5F5F5F5F5F5F5F5F5F5F5F5F5E2F5F5F5F5F5F5F5F5E2F5CDCDE2F5E2F5F5F5F5F5F5F5F5F5F5F5F5F5F5F5F5F5F5F5F5F5F5E2E2E2E2E2E2E2E2F5F5F5F5F5F5F5F5F5F5F5F5C3C3C3C3C3F5F5F5F5F5F5F5F5F5F5F5F5F5F5F5F5F5F5F5F5F5F5F5F5F5F5F5F5F5F5F5F5F5F5F5F5F5E2
310
F5F5F5F5F5F5F5F5E2F50000E2F5E2F5F5F5F5F5F5F5F5F5F5F5F5F5F5F5F5F5F5F5F5F5F5E2E2E2E2F5F5F5F5E2E2F5F5F5F5F5F5F5F5F5F5C3C3C3C3C3C3F5F5F5F5F5F5F5F5F5F5F5F5F5F5F5F5F5F5F5F5F5F5F5F5F5F5F5F5F5F5F5F5F5F5F5F5E2F5F5F5F5F5F5F5F5E2F5CDCDE2F5E2F5F5F5F5F5F5F5F5F5F5F5F5
310
F5F5F5F5F5F5F5F5F5F5F5E2E2E2F5F5F5F5F5F5E2E2F5F5F5F5F5F5F5E2C3E2E2E2E2C3E2F5F5F5F5F5F5F5F5F5F5F5F5F5F5F5F5F5F5F5F5F5F5F5F5F5F5F5F5F5F5F5F5F5F5F5E2F5F5F5F5F5F5F5F5E2F50000E2F5E2F5F5F5F5F5F5F5F5F5F5F5F5F5F5F5F5F5F5F5F5F5F5F5F5F5F5F5F5F5F5F5F5F5F5E2E2F5F5F5
310
F5F5E2F5E2E2E2F5F5E2F5F5F5F5F5F5F5F5F5F5F5F5F5F5F5F5F5F5F5F5F5F5F5F5F5F5F5F5F5F5F5F5F5F5F5E2F5F5F5F5F5F5F5F5E2F5CDCDE2F5E2F5F5F5F5F5F5F5F5F5F5F5F5F5F5F5F5F5F5F5F5F5F5F5F5F5F5F5F5F5F5F5F5F5F5F5F5E2E2F5F5F5E2F5E2E2E2F5E2E2F5F5F5F5F5F5F5F5F5F5F5F5F5F5F5F5F5
310
F5F5F5F5F5F5F5F5F5F5F5F5F5F5F5F5F5F5E2F5F5F5F5F5F5F5F5E2F50000E2F5E2F5F5F5F5F5F5F5F5F5F5F5F5F5F5F5F5F5F5F5F5F5F5F5F5F5F5F5F5F5F5F5F5F5F5F5F5F5F5E2E2F5E2F5E2E2E2E2F5E2F5F5F5F5F5F5F5F5F5F5F5F5F5F5F5F5F5F5F5F5F5F5F5F5F5F5F5F5F5F5F5F5F5F5F5E2F5F5F5F5F5F5F5F5
310
E2F5CDCDE2F5E2F5F5F5F5F5F5F5F5F5F5F5F5F5F5F5F5F5F5F5F5F5F5F5F5F5F5F5F5F5F5F5F5F5F5F5F5F5F5F5E2E2E2F5E2E2E2E2E2F5F5F5F5F5F5F5F5F5F5F5F5F5F5F5F5F5F5F5F5F5F5F5F5F5F5F5F5F5F5F5F5F5F5F5F5E2F5F5F5F5F5F5F5F5F5F50000E2F5E2F5F5F5F5F5F5F5F5F5F5F5F5F5F5F5F5F5F5F5F5
310
F5F5F5F5F5F5F5F5F5F5F5F5F5F5F5F5F5F5F5F5F5E2F5E2E2E2F5F5F5F5F5F5F5F5F5F5F5F5F5F5F5F5F5F5F5F5F5F5F5F5F5F5F5F5F5F5F5F5F5F5F5F5F5F5E2F5F5F5F5F5F5F5F5F5F5CDCDE2F5E2F5F5F5F5F5F5F5F5F5F5F5F5F5F5F5F5F5F5F5F5F5F5F5F5F5F5F5F5F5F5F5F5F5F5F5F5F5F5F5F5F5E2F5E2E2E2F5
310
F5F5F5F5F5F5F5F5F5F5F5F5F5F5F5F5F5F5F5F5F5F5F5F5F5F5F5F5F5F5F5F5F5F5F5F5F5E2F5F5F5F5F5F5F5F5F5F50000E2F5E2F5F5F5F5F5F5F5F5F5F5F5F5F5F5F5F5F5F5F5F5F5F5F5F5F5F5F5F5F5F5F5F5F5F5F5F5F5F5F5F5F5E2E2E2E2E2F5F5F5F5F5F5F5F5F5F5F5F5F5F5F5F5F5F5F5F5F5F5F5F5F5F5F5F5
310
F5F5F5F5F5F5F5F5F5F5E2F5F5F5F5F5F5F5F5F5F5CDCDE2F5E2F5F5F5F5F5F5F5F5F5F5F5F5F5F5F5F5F5F5F5F5F5F5F5F5F5F5F5F5F5F5F5F5F5F5F5F5F5F5F5F5E2E2C3E2E2E2C3C3F5F5F5F5F5F5F5F5F5F5F5F5F5F5F5F5F5F5F5F5F5F5F5F5F5F5F5F5F5F5F5F5F5F5F5F5E2F5F5F5F5F5F5F5F5F5F50000E2F5E2F5
310
F5F5F5F5F5F5F5F5F5F5F5F5F5F5F5F5F5F5F5F5F5F5F5F5F5F5F5F5F5F5F5F5F5F5F5F5F5F5F5E2E2C3C3C3C3C3C3F5F5F5F5F5F5F5F5F5F5F5F5F5F5F5F5F5F5F5F5F5F5F5F5F5F5F5F5F5F5F5F5F5F5F5F5E2F5F5F5F5F5F5F5F5F5F5CDCDE2F5E2F5F5F5F5F5F5F5F5F5F5F5F5F5F5F5F5F5F5F5F5F5F5F5F5F5F5F5F5
310
F5F5F5F5F5F5F5F5F5F5F5F5E2E2E2C3C3C3C3C3C3F5F5F5F5F5F5F5F5F5F5F5F5F5F5F5F5F5F5F5F5F5F5F5F5F5F5F5F5F5F5F5F5F5F5F5E2F5F5F5F5F5F5F5F5F5F50000E2F5E2F5F5F5F5F5F5F5F5F5F5F5F5F5F5F5F5F5F5F5F5F5F5F5F5F5F5F5F5F5F5F5F5F5F5F5F5F5F5F5F5E2E2E2E2E2E2F5F5F5C3C3F5F5F5F5
310
F5F5F5F5F5F5F5F5F5F5F5F5F5F5F5F5F5F5F5F5F5F5F5F5F5F5F5F5F5E2F5F5F5F5F5F5F5F5F5F5CDCDE2F5E2F5F5F5F5F5F5F5F5F5F5F5F5F5F5F5F5F5F5F5F5F5F5F5F5F5F5F5F5F5F5F5F5F5F5F5F5F5F5F5F5E2E2F5E2E2E2F5F5F5F5F5C3C3C3F5F5F5F5F5F5F5F5F5F5F5F5F5F5F5F5F5F5F5F5F5F5F5F5F5F5F5F5
310
F5F5E2F5F5F5F5F5F5F5F5F5F50000E2F5E2F5F5F5F5F5F5F5F5F5F5F5F5F5F5F5F5F5F5F5F5F5F5F5F5F5F5F5F5F5F5F5F52D2D2D2D2D2D2D2D2DE2F5F5F5F5F5F5F5F5F5F5F5F5C3C3C3C3C3C3C3F5F5F5F5F5F5F5F5F5F5F5F5F5F5F5F5F5F5F5F5F5F5F5E2F5F5F5F5F5F5F5F5F5F5CDCDE2F5E2F5F5F5F5F5F5F5F5F5
310
F5F5F5F5F5F5F5F5F5F5F5F5F5F5F5F5F5F5F5F5F5F5F52DF5F5F5F5F5F5F5E2E2F5F5F5F5F5F5F5F5F5F5F5F5F5F5F5C3C3F5C3F5F5F5F5F5F5F5F5F5F5F5F5F5F5F5F5F5F5F5F5F5F5F5E2F5F5F5F5F5F5F5F5E2F50000E2F5E2F5F5F5F5F5F5F5F5F5F5F5F5F5F5F5F5F5F5F5F5F5F5F5F5F5F5F5F5F5F5F5F52D2D2D2D
310
2D2D2DF5E2E2F5F5F5F5F5F5F5F5F5F5F5F5F5F5F5C3C3C3C3F5F5F5F5F5F5F5F5F5F5F5F5F5F5F5F5F5F5F5F5F5F5F5E2F5F5F5F5F5F5F5F5E2F5CDCDE2F5E2F5F5F5F5F5F5F5F5F5F5F5F5F5F5F5F5F5F5F5F5F5F5F5F5F5F5F5F5F5F5F5F5F5F5F5F5F5F52DF5E2E2F5F5F5F5F5F5F5F5F5F5F5F5F5F5F5F5F5F5F5F5F5
310
F5F5F5F5F5F5F5F5F5F5F5F5F5F5F5F5F5F5F5F5F5E2F5F5F5F5F5F5F5F5E2F50000E2F5E2F5F5F5F5F5F5F5F5F5F5F5F5F5F5F5F5F5F5F5F5F5F5F5F5F5F5F5F5F5F5F5F5F5F5F5F5F5F52DF5E2E2F5F5F5F5F5F5F5F5F5F5F5F5F5F5F5F5F5F5F5F5F5F5F5F5F5F5F5F5F5F5F5F5F5F5F5F5F5F5F5F5F5F5E2F5F5F5F5F5
310
F5F5F5E2F5CDCDE2F5E2F5F5F5F5F5F5F5F5F5F5F5F5F5F5F5F5F5F5F5F5F5F5F5F5F5F5F5F5F5F5F5F5F5F5F5F5F5E22DF5E2E2F5F5F5F5F5F5F5F5F5F5F5F5F5F5F5F5F5F5F5F5F5F5F5F5F5F5F5F5F5F5F5F5F5F5F5F5F5F5F5F5F5F5E2F5F5F5F5F5F5F5F5E2F50000E2F5E2F5F5F5F5F5F5F5F5F5F5F5F5F5F5F5F5F5
310
F5F5F5F5F5F5F5F5F5F5F5F5F5F5F5F5F5F5F5E2E22DF5E2E2F5F5F5F5F5F5F5F5F5F5F5F5F5F5F5F5F5F5F5F5F5F5F5F5F5F5F5F5F5F5F5F5F5F5F5F5F5F5F5F5F5F5E2F5F5F5F5F5F5F5F5E2F50000E2F5E2F5F5F5F5F5F5F5F5F5F5F5F5F5F5F5F5F5F5F5F5F5F5F5F5F5F5F5F5F5F5F5F5F5F5F5F5F5F52DF5E2E2F5F5
310
F5F5F5F5F5F5F5F5F5F5F5F5F5F5F5F5F5F5F5F5F5F5F5F5F5F5F5F5F5F5F5F5F5F5F5F5F5F5F5F5E2F5F5F5F5F5F5F5F5E2F50836E2F5E2F5F5F5F5F5F5F5F5F5F5F5F5F5F5F5F5F5F5F5F5F5F5F5F5F5F5F5F5F5F5F5F5F5F5F5F5F5E22DE2E2E2F5F5F5F5F5F5F5F5F5F5F5F5F5F5F5F5F5F5F5F5F5F5F5F5F5F5F5F5F5
310
F5F5F5F5F5F5F5F5F5F5F5F5F5E2F5F5F5F5F5F5F5F5E2F50000E2F5E2F5F5F5F5F5F5F5F5F5F5F5F5F5F5F5F5F5F5F5F5F5F5F5F5F5F5F5F5F5F5F5F5F5F5F5F5F5E2E2E2E2E2F5F5F5F5F5F5F5F5F5F5F5F5F5F5F5F5F5F5F5F5F5F5F5F5F5F5F5F5F5F5F5F5F5F5F5F5F5F5F5F5F5F5E2F5F5F5F5F5F5F5F5E2F50836E2
310
F5E2F5F5F5F5F5F5F5F5F5F5F5F5F5F5F5F5F5F5F5F5F5F5F5F5F5F5F5F5F5F5F5F5F5F5F5F5F5F5F5F5F5F5F5F5F5F5F5F5F5F5F5F5F5F5F5F5F5F5F5F5F5F5F5F5F5F5F5F5F5F5F5F5F5F5F5F5F5F5F5F5F5F5F5F5E2F5F5F5F5F5F5F5F5E2F50000E2F5E2F5F5F5F5F5F5F5F5F5F5F5F5F5F5F5F5F5F5F5F5F5F5F5F5F5
310
F5F5F5F5F5F5F5F5F5F5F5F5F5F5F5F5F5F5F5F5F5F5F5F5F5F5F5F5F5F5F5F5F5F5F5F5F5F5F5F5F5F5F5F5F5F5F5F5F5F5F5F5F5F5F5F5F5F5F5E2F5F5F5F5F5F5F5F5E2F50836E2F5E2F5F5F5F5F5F5F5F5F5F5F5F5F5F5F5F5F5F5F5F5F5F5F5F5F5F5F5F5F5F5F5F5F5F5F5F5F5F5F5F5F5F5F5F5F5F5F5F5F5F5F5F5
310
F5F5F5F5F5F5F5F5F5F5F5F5F5F5F5F5F5F5F5F5F5F5F5F5F5F5F5F5F5F5F5F5E2F5F5F5F5F5F5F5F5E2F50000E2F5E2F5F5F5F5F5F5F5F5F5F5F5F5F5F5F5F5F5F5F5F5F5F5F5F5F5F5F5F5F5F5F5F5F5F5F5F5F5F5F5F5F5F5F5F5F5F5F5F5F5F5F5F5F5F5F5F5F5F5F5F5F5F5F5F5F5F5F5F5F5F5F5F5F5F5F5F5F5F5F5
310
F5F5F5F5F5E2F5F5F5F5F5F5F5F5E2F50836E2F5E2F5F5F5F5F5F5F5F5F5F5F5F5F5F5F5F5F5F5F5F5F5F5F5F5F5F5F5F5F5F5F5F5F5F5F5F5F5F5F5F5F5F5F5F5F5F5F5F5F5F5F5F5F5F5F5F5F5F5F5F5F5F5F5F5F5F5F5F5F5F5F5F5F5F5F5F5F5F5F5F5F5F5F5F5E2F5F5F5F5F5F5F5F5E2F50000E2F5E2F5F5F5F5F5F5
310
F5F5F5F5F5F5F5F5F5F5F5F5F5F5F5F5F5F5F5F5F5F5F5F5F5F5F5F5F5F5F5F5F5F5F5F5F5F5F5F5F5F5F5F5F5F5F5F5F5F5F5F5F5F5F5F5F5F5F5F5F5F5F5F5F5F5F5F5F5F5F5F5F5F5F5F5F5F5E2F5F5F5F5F5F5F5F5E2F50836E2F5E2F5F5F5F5F5F5F5F5F5F5F5F5F5F5F5F5F5F5F5F5F5F5F5F5F5F5F5F5F5F5F5F5F5
310
F5F5F5F5F5F5F5F5F5F5F5F5F5F5F5F5F5F5F5F5F5F5F5F5F5F5F5F5F5F5F5F5F5F5F5F5F5F5F5F5F5F5F5F5F5F5F5F5F5F5F5E2F5F5F5F5F5F5F5F5E2F50000E2F5E2E2E2E2E2E2E2E2E2E2E2E2E2E2E2E2E2E2E2E2E2E2E2E2E2E2E2E2E2E2E2E2E2E2E2E2E2E2E2E2E2E2E2E2E2E2E2E2E2E2E2E2E2E2E2E2E2E2E2E2E2
310
E2E2E2E2E2E2E2E2E2E2E2E2E2E2E2E2E2E2E2E2E2E2E2E2E2F5F5F5F5F5F5F5F5E2F50836E2F5E2F5F5F5F5F5F5F5F5F5F5F5F5F5F5F5F5F5F5F5F5F5F5F5F5F5F5F5F5F5F5F5F5F5F5F5F5F5F5F5F5F5F5F5F5F5F5F5F5F5F5F5F5F5F5F5F5F5F5F5F5F5F5F5F5F5F5F5F5F5F5F5F5F5F5F5F5F5F5F5F5F5F5F5F5E2F5F5
310
F5F5F5F5F5F5F5F50000E2F5E2F5F5F5F52828282828282828F5282828F5F52828282828282828F5F5282828282828F5F528F52828F5F5282828282828282828282828F52828F5F5F5282828282828F528282828282828F5F5282828F5F5F5F5F5E2F5F5F5F5F5F5F5F5F5F50836E2F5E2F5F5F5F528282828282828282828
310
2828F5282828282828282828F5F52828282828F5F5F5F5282828F528282828282828282828282828F52828F5F5F5F52828282828F528F52828282828F5F5282828F5F5F5F5F5E2F5F5F5F5F5F5F5F5F5F50000E2F5E2F5F5F5F5282828F52828282828282828F5282828282828282828F5F52828282828F5F5F528282828F5
310
282828282828282828282828F5F528282828F5282828282828F528282828282828F5F5282828F5F5F5F5F5E2F5F5F5F5F5F5F5F5F5F50836E2F5E2F5F5F5F5F5F5F5F5F5F5F5F5F5F5F5F5F5F5F5F528F528F52828282828282828282828F52828F528282828282828282828282828F5F528282828F528282828F5F5F5F5F5
310
F5F5F5F5F5F5F5F5F5F5F5F5F5F5F5F5E2F5F5F5F5F5F5F5F5F5F50000E2F5E2F5F5F5F5F5F5F5F5F5F5F5F5F5F5F5F5F5F5F5F5F528282828F528F528282828282828282828F528282828282828282828282828F5F528282828F528282828F5F5F5F5F5F5F5F5F5F5F5F5F5F5F5F5F5F5F5F5F5E2F5F5F5F5F5F5F5F5F5F5
310
0836E2F5E2F5F5F5F5F5F5F5F5F5F5F5F5F5F5F5F5F5F5F5F5F528282828F5282828282828282828F528F5F5282828F5F5F5F528F528F5F5F5F5F5F528F5F5F528282828F5F5F5F5F5F5F5F5F5F5F5F5F5F5F5F5F5F5F5F5F5E2F5F5F5F5F5F5F5F5F5F50000E2F5E2F5F5F5F5F5F5F5F5E2E2F5E2E2F5E2E2F5F5F5E2F5E2
310
E2E2F5E2E2F5E2E2E2F5E2E2E2E2F5E2F5F5F5E2F5F5F5F5E2E2E2E2E2E2E2E2E2E2F5F5F5E2E2E2E2E2E2F5E2E2F5E2F5E2F5E2E2E2E2F5F5F5F5F5F5F5E2F5F5F5F5F5F5F5F5F5F50000E2F5E2F5F5F5F5F5F5F5F5E2E2E2E2E2E2E2F5F5F5F5E2E2E2E2F5E2E2E2E2F5E2E2E2E2E2E2E2E2E2F5F5F5E2F5F5F5F5E2E2E2
310
E2F5E2E2E2F5F5F5F5E2F5E2E2E2F5E2E2E2E2F5E2E2E2E2E2E2F5F5F5F5F5F5F5F5F5E2F5F5F5F5F5F5F5F5F5F50000E2F5E2F5F5F5F5F5F5F5E2F5E2E2F5E2F5E2F5F5F5F5E2F5E2E2E2E2E2E2E2E2E2F5E2F5E2E2F5E2F5F5F5F5E2E2F5F5F5E2F5E2E2F5E2E2E2F5F5F5F5E2E2E2E2F5F5E2E2E2E2F5E2F5E2E2F5E2F5
310
F5F5F5F5F5F5F5F5E2F5F5F5F5F5F5F5F5F5F50000E2F5E2F5F5F5F5F5F5F5E2F5E2E2F5E2E2E2F5F5F5F5E2E2E2E2E2F5E2E2F5E2E2F5E2F5E2E2F5E2F5F5F5E2F5E2F5F5F5E2E2F5E2F5E2E2E2F5F5F5F5F5E2E2E2E2E2E2F5E2E2E2E2E2E2E2F5E2F5F5F5F5F5F5F5F5F5E2F5F5F5F5F5F5F5F5E2F50000E2F5E2F5F5F5
310
F5F5F5F5F5E2F5E2E2E2E2E2E2F5E2E2E2E2F5F5F5E2F5E2E2E2E2E2F5E2E2F5F5F5E2E2E2E2E2E2E2F5E2F5F5F5E2E2E2F5E2E2F5E2E2F5E2F5E2F5F5F5E2F5E2E2E2E2F5E2E2F5E2F5F5F5F5F5F5F5F5E2F5F5F5F5F5F5F5F5E2F50000E2F5E2F5F5F5F5F5F5F5F5E2F5E2E2E2F5F5E2E2E2E2F5E2F5F5F5E2E2E2E2F5E2
310
E2E2E2F5F5F5F5E2F5F5E2F5E2E2E2E2F5F5E2F5E2E2E2E2E2E2E2E2E2F5E2E2F5F5F5E2E2E2E2F5E2E2F5E2F5F5F5F5F5F5F5F5F5F5E2F5F5F5F5F5F5F5F5E2F50000E2F5E2F5F5F5F5F5F5F5E2E2E2E2E2E2E2E2E2F5E2E2E2E2F5F5F5E2F5E2E2E2E2E2E2E2F5F5F5F5E2E2E2E2E2E2E2F5E2F5F5F5E2E2E2E2F5E2E2E2
310
E2E2E2E2F5F5F5E2F5F5E2E2E2E2E2E2E2E2F5F5F5F5F5F5F5F5F5E2F5F5F5F5F5F5F5F5E2F50000E2F5E2F5F5F5F5F5F5F5F5F5F5F5F5F5F5E2E2E2F5E2E2E2F5E2F5E2E2F5E2E2E2E2E2E2F5F5F5E2E2E2F5E2E2F5E2E2F5E2E2E2F5E2E2E2E2F5E2E2E2E2F5F5F5E2F5F5E2F5E2E2F5F5F5F5F5F5F5F5F5F5F5F5F5F5F5
310
E2F5F5F5F5F5F5F5F5E2F50000E2F5E2F5F5F5F5F5F5F5F5F5F5F5F5F5F5E2E2E2E2E2E2E2E2E2F5E2E2E2E2E2E2E2F5F5F5F5F5E2E2E2F5E2E2E2E2E2E2F5E2E2E2E2E2E2E2E2E2E2F5F5F5F5F5E2F5F5E2E2F5E2F5F5F5F5F5F5F5F5F5F5F5F5F5F5F5E2F5F5F5F5F5F5F5F5E2F50000E2F5E2F5F5F5F5F5F5F5F5F5F5F5
310
F5F5F5E2F5E2E2F5E2E2E2E2F5E2F5E2F5F5E2E2E2F5F5F5F5E2E2E2F5E2E2E2F5E2E2F5E2F5E2F5E2E2F5E2F5E2F5F5F5F5F5E2F5F5E2E2E2E2F5F5F5F5F5F5F5F5F5F5F5F5F5F5F5E2F5F5F5F5F5F5F5F5E2F50000E2F5E2F5F5F5F5F5F5F5F5F5F5F5F5F5F5E2F5E2F5E2E2E2F5E2E2E2E2E2F5F5E2E2E2E2F5F5F5E2E2
310
E2F5E2E2E2F5E2E2E2E2F5E2F5E2E2F5E2F5E2F5F5F5F5E2E2F5E2E2E2E2E2F5F5F5F5F5F5F5F5F5F5F5F5F5F5F5E2F5F5F5F5F5F5F5F5E2F50000E2F5E2E2E2E2E2E2E2E2E2E2E2E2E2E2E2E2E2E2E2E2E2E2E2E2E2E2E2E2E2E2E2E2E2E2E2E2E2E2E2E2E2E2E2E2E2E2E2E2E2E2E2E2E2E2E2E2E2E2E2E2E2E2E2E2E2E2
310
E2E2E2E2E2E2E2E2E2E2E2E2E2E2E2E2E2E2E2E2F5E2E2E2E2E2E2E2E2F50000E2F5F5F5F5F5F5F5F5F5F5F5F5F5F5F5F5F5F5F5F5F5F5F5F5F5F5F5F5F5F5F5F5F5F5F5F5F5F5F5F5F5F5F5F5F5F5F5F5F5F5F5F5F5F5F5F5F5F5F5F5F5F5F5F5F5F5F5F5F5F5F5F5F5F5F5F5F5F5F5F5F5F5F5F5F5F5F5F5F5F5F5F5F5F5
310
F5F5F50000E2E2E2E2E2E2E2E2E2E2E2E2E2E2E2E2E2E2E2E2E2E2E2E2E2E2E2E2E2E2E2E2E2E2E2E2E2E2E2E2E2E2E2E2E2E2E2E2E2E2E2E2E2E2E2E2E2E2E2E2E2E2E2E2E2E2E2E2E2E2E2E2E2E2E2E2E2E2E2E2E2E2E2E2E2E2E2E2E2E2E2E2E2E2E2E2E2E20000EFEFEFEFEFEFEFEFEFEFEFEFEFEFEFEFEFEFEFEFEFEF
310
EFEFEFEFEFEFEFEFEFEFEFEFEFEFEFEFEFEFEFEFEFEFEFEFEFEFEFEFEFEFEFEFEFEFEFEFEFEFEFEFEFEFEFEFEFEFEFEFEFEFEFEFEFEFEFEFEFEFEFEFEFEFEFEFEFEFEFEFEFEFEFEFEFEFEFEF0000
  0
XRECORD
  5
3301
102
{ACAD_REACTORS
330
3300
102
}
330
3300
100
AcDbXrecord
280
     1
102
MATERIAL
148
0.0
149
0.0
149
0.0
 93
        0
 94
       63
282
     0
 72
     1
 77
     1
171
     1
175
     1
179
     1
273
     0
  0
XRECORD
  5
3303
102
{ACAD_REACTORS
330
3302
102
}
330
3302
100
AcDbXrecord
280
     1
102
MATERIAL
148
0.0
149
0.0
149
0.0
 93
        0
 94
       63
282
     0
 72
     1
 77
     1
171
     1
175
     1
179
     1
273
     0
  0
XRECORD
  5
3305
102
{ACAD_REACTORS
330
3304
102
}
330
3304
100
AcDbXrecord
280
     1
102
MATERIAL
148
0.0
149
0.0
149
0.0
 93
        0
 94
       63
282
     0
 72
     1
 77
     1
171
     1
175
     1
179
     1
273
     0
  0
XRECORD
  5
333C
102
{ACAD_REACTORS
330
333B
102
}
330
333B
100
AcDbXrecord
280
     1
102
ACAD_ROUNDTRIP_2010_MLEADER_STYLE
  0
XRECORD
  5
3307
102
{ACAD_REACTORS
330
3306
102
}
330
3306
100
AcDbXrecord
280
     1
102
RTVSPropertyOp0
 70
     1
102
RTVSPropertyOp1
 70
     1
102
RTVSPropertyOp2
 70
     1
102
RTVSPropertyOp3
 70
     1
102
RTVSPropertyOp4
 70
     1
102
RTVSPropertyOp5
 70
     1
102
RTVSPropertyOp6
 70
     1
102
RTVSPropertyOp7
 70
     1
102
RTVSPropertyOp8
 70
     1
102
RTVSPropertyOp9
 70
     1
102
RTVSPropertyOp10
 70
     1
102
RTVSPropertyOp11
 70
     1
102
RTVSPropertyOp12
 70
     1
102
RTVSPropertyOp13
 70
     1
102
RTVSPropertyOp14
 70
     1
102
RTVSPropertyOp15
 70
     1
102
RTVSPropertyOp16
 70
     1
102
RTVSPropertyOp17
 70
     1
102
RTVSPropertyOp18
 70
     1
102
RTVSPropertyOp19
 70
     1
102
RTVSPropertyOp20
 70
     1
102
RTVSPropertyOp21
 70
     1
102
RTVSPropertyOp22
 70
     1
102
RTVSPropertyOp23
 70
     1
102
RTVSPropertyOp24
 70
     1
102
RTVSPropertyOp25
 70
     1
102
RTVSPropertyOp26
 70
     1
102
RTVSPropertyOp27
 70
     1
102
RTVSPropertyOp28
 70
     1
102
RTVSPropertyOp29
 70
     1
102
RTVSPropertyOp30
 70
     1
102
RTVSPropertyOp31
 70
     1
102
RTVSPropertyOp32
 70
     1
102
RTVSPropertyOp33
 70
     1
102
RTVSPropertyOp34
 70
     1
102
RTVSPropertyOp35
 70
     1
102
RTVSPropertyOp36
 70
     1
102
RTVSPropertyOp37
 70
     1
102
RTVSPropertyOp38
 70
     1
102
RTVSPropertyOp39
 70
     1
102
RTVSPropertyOp40
 70
     1
102
RTVSPropertyOp41
 70
     1
102
RTVSPropertyOp42
 70
     1
102
RTVSPropertyOp43
 70
     1
102
RTVSPropertyOp44
 70
     1
102
RTVSPropertyOp45
 70
     1
102
RTVSPropertyOp46
 70
     1
102
RTVSPropertyOp47
 70
     1
102
RTVSPropertyOp48
 70
     1
102
RTVSPropertyOp49
 70
     1
102
RTVSPropertyOp50
 70
     1
102
RTVSPropertyOp51
 70
     0
102
RTVSPropertyOp52
 70
     0
102
RTVSPropertyOp53
 70
     1
102
RTVSPropertyOp54
 70
     1
102
RTVSPropertyOp55
 70
     1
102
RTVSPropertyOp56
 70
     1
102
RTVSPropertyOp57
 70
     1
102
RTVSPost2010Prop28
280
     1
102
RTVSPost2010PropOp28
 70
     1
102
RTVSPost2010Prop29
280
     1
102
RTVSPost2010PropOp29
 70
     1
102
RTVSPost2010Prop30
280
     0
102
RTVSPost2010PropOp30
 70
     1
102
RTVSPost2010Prop31
280
     0
102
RTVSPost2010PropOp31
 70
     1
102
RTVSPost2010Prop32
280
     0
102
RTVSPost2010PropOp32
 70
     1
102
RTVSPost2010Prop33
280
     0
102
RTVSPost2010PropOp33
 70
     1
102
RTVSPost2010Prop34
280
     0
102
RTVSPost2010PropOp34
 70
     1
102
RTVSPost2010Prop35
280
     0
102
RTVSPost2010PropOp35
 70
     1
102
RTVSPost2010Prop36
280
     0
102
RTVSPost2010PropOp36
 70
     1
102
RTVSPost2010Prop37
 90
       50
102
RTVSPost2010PropOp37
 70
     1
102
RTVSPost2010Prop38
140
0.0
102
RTVSPost2010PropOp38
 70
     1
102
RTVSPost2010Prop39
140
1.0
102
RTVSPost2010PropOp39
 70
     1
102
RTVSPost2010Prop40
 90
        0
102
RTVSPost2010PropOp40
 70
     1
102
RTVSPost2010Prop41ColorIndex
 90
       18
102
RTVSPost2010Prop41ColorRGB
 90
        0
102
RTVSPost2010PropOp41
 70
     1
102
RTVSPost2010Prop42
 90
       50
102
RTVSPost2010PropOp42
 70
     1
102
RTVSPost2010Prop43
 90
        3
102
RTVSPost2010PropOp43
 70
     1
102
RTVSPost2010Prop44ColorIndex
 90
        5
102
RTVSPost2010Prop44ColorRGB
 90
      255
102
RTVSPost2010PropOp44
 70
     1
102
RTVSPost2010Prop45
280
     0
102
RTVSPost2010PropOp45
 70
     1
102
RTVSPost2010Prop46
 90
       50
102
RTVSPost2010PropOp46
 70
     1
102
RTVSPost2010Prop47
 90
       50
102
RTVSPost2010PropOp47
 70
     1
102
RTVSPost2010Prop48
 90
       50
102
RTVSPost2010PropOp48
 70
     1
102
RTVSPost2010Prop49
280
     0
102
RTVSPost2010PropOp49
 70
     1
102
RTVSPost2010Prop50
 90
       50
102
RTVSPost2010PropOp50
 70
     1
102
RTVSPost2010Prop51ColorIndex
 90
      256
102
RTVSPost2010Prop51ColorRGB
 90
-16777216
102
RTVSPost2010PropOp51
 70
     0
102
RTVSPost2010Prop52
140
1.0
102
RTVSPost2010PropOp52
 70
     0
102
RTVSPost2010Prop53
 90
        2
102
RTVSPost2010PropOp53
 70
     1
102
RTVSPost2010Prop54
  1
strokes_ogs.tif
102
RTVSPost2010PropOp54
 70
     1
102
RTVSPost2010Prop55
280
     0
102
RTVSPost2010PropOp55
 70
     1
102
RTVSPost2010Prop56
140
1.0
102
RTVSPost2010PropOp56
 70
     1
102
RTVSPost2010Prop57
140
1.0
102
RTVSPost2010PropOp57
 70
     1
  0
XRECORD
  5
3309
102
{ACAD_REACTORS
330
3308
102
}
330
3308
100
AcDbXrecord
280
     1
102
RTVSPropertyOp0
 70
     1
102
RTVSPropertyOp1
 70
     1
102
RTVSPropertyOp2
 70
     1
102
RTVSPropertyOp3
 70
     1
102
RTVSPropertyOp4
 70
     1
102
RTVSPropertyOp5
 70
     1
102
RTVSPropertyOp6
 70
     1
102
RTVSPropertyOp7
 70
     1
102
RTVSPropertyOp8
 70
     1
102
RTVSPropertyOp9
 70
     1
102
RTVSPropertyOp10
 70
     1
102
RTVSPropertyOp11
 70
     1
102
RTVSPropertyOp12
 70
     1
102
RTVSPropertyOp13
 70
     1
102
RTVSPropertyOp14
 70
     1
102
RTVSPropertyOp15
 70
     1
102
RTVSPropertyOp16
 70
     1
102
RTVSPropertyOp17
 70
     1
102
RTVSPropertyOp18
 70
     1
102
RTVSPropertyOp19
 70
     1
102
RTVSPropertyOp20
 70
     1
102
RTVSPropertyOp21
 70
     1
102
RTVSPropertyOp22
 70
     1
102
RTVSPropertyOp23
 70
     1
102
RTVSPropertyOp24
 70
     1
102
RTVSPropertyOp25
 70
     1
102
RTVSPropertyOp26
 70
     1
102
RTVSPropertyOp27
 70
     1
102
RTVSPropertyOp28
 70
     1
102
RTVSPropertyOp29
 70
     1
102
RTVSPropertyOp30
 70
     1
102
RTVSPropertyOp31
 70
     1
102
RTVSPropertyOp32
 70
     1
102
RTVSPropertyOp33
 70
     1
102
RTVSPropertyOp34
 70
     1
102
RTVSPropertyOp35
 70
     1
102
RTVSPropertyOp36
 70
     1
102
RTVSPropertyOp37
 70
     1
102
RTVSPropertyOp38
 70
     1
102
RTVSPropertyOp39
 70
     1
102
RTVSPropertyOp40
 70
     1
102
RTVSPropertyOp41
 70
     1
102
RTVSPropertyOp42
 70
     1
102
RTVSPropertyOp43
 70
     1
102
RTVSPropertyOp44
 70
     1
102
RTVSPropertyOp45
 70
     1
102
RTVSPropertyOp46
 70
     1
102
RTVSPropertyOp47
 70
     1
102
RTVSPropertyOp48
 70
     1
102
RTVSPropertyOp49
 70
     1
102
RTVSPropertyOp50
 70
     1
102
RTVSPropertyOp51
 70
     0
102
RTVSPropertyOp52
 70
     0
102
RTVSPropertyOp53
 70
     1
102
RTVSPropertyOp54
 70
     1
102
RTVSPropertyOp55
 70
     1
102
RTVSPropertyOp56
 70
     1
102
RTVSPropertyOp57
 70
     1
102
RTVSPost2010Prop28
280
     0
102
RTVSPost2010PropOp28
 70
     1
102
RTVSPost2010Prop29
280
     1
102
RTVSPost2010PropOp29
 70
     1
102
RTVSPost2010Prop30
280
     1
102
RTVSPost2010PropOp30
 70
     1
102
RTVSPost2010Prop31
280
     0
102
RTVSPost2010PropOp31
 70
     1
102
RTVSPost2010Prop32
280
     0
102
RTVSPost2010PropOp32
 70
     1
102
RTVSPost2010Prop33
280
     0
102
RTVSPost2010PropOp33
 70
     1
102
RTVSPost2010Prop34
280
     0
102
RTVSPost2010PropOp34
 70
     1
102
RTVSPost2010Prop35
280
     0
102
RTVSPost2010PropOp35
 70
     1
102
RTVSPost2010Prop36
280
     0
102
RTVSPost2010PropOp36
 70
     1
102
RTVSPost2010Prop37
 90
       50
102
RTVSPost2010PropOp37
 70
     1
102
RTVSPost2010Prop38
140
0.0
102
RTVSPost2010PropOp38
 70
     1
102
RTVSPost2010Prop39
140
1.0
102
RTVSPost2010PropOp39
 70
     1
102
RTVSPost2010Prop40
 90
        0
102
RTVSPost2010PropOp40
 70
     1
102
RTVSPost2010Prop41ColorIndex
 90
       18
102
RTVSPost2010Prop41ColorRGB
 90
        0
102
RTVSPost2010PropOp41
 70
     1
102
RTVSPost2010Prop42
 90
       50
102
RTVSPost2010PropOp42
 70
     1
102
RTVSPost2010Prop43
 90
        3
102
RTVSPost2010PropOp43
 70
     1
102
RTVSPost2010Prop44ColorIndex
 90
        5
102
RTVSPost2010Prop44ColorRGB
 90
      255
102
RTVSPost2010PropOp44
 70
     1
102
RTVSPost2010Prop45
280
     0
102
RTVSPost2010PropOp45
 70
     1
102
RTVSPost2010Prop46
 90
       50
102
RTVSPost2010PropOp46
 70
     1
102
RTVSPost2010Prop47
 90
       50
102
RTVSPost2010PropOp47
 70
     1
102
RTVSPost2010Prop48
 90
       50
102
RTVSPost2010PropOp48
 70
     1
102
RTVSPost2010Prop49
280
     0
102
RTVSPost2010PropOp49
 70
     1
102
RTVSPost2010Prop50
 90
       50
102
RTVSPost2010PropOp50
 70
     1
102
RTVSPost2010Prop51ColorIndex
 90
      256
102
RTVSPost2010Prop51ColorRGB
 90
-16777216
102
RTVSPost2010PropOp51
 70
     0
102
RTVSPost2010Prop52
140
1.0
102
RTVSPost2010PropOp52
 70
     0
102
RTVSPost2010Prop53
 90
        2
102
RTVSPost2010PropOp53
 70
     1
102
RTVSPost2010Prop54
  1
strokes_ogs.tif
102
RTVSPost2010PropOp54
 70
     1
102
RTVSPost2010Prop55
280
     0
102
RTVSPost2010PropOp55
 70
     1
102
RTVSPost2010Prop56
140
1.0
102
RTVSPost2010PropOp56
 70
     1
102
RTVSPost2010Prop57
140
1.0
102
RTVSPost2010PropOp57
 70
     1
  0
XRECORD
  5
330B
102
{ACAD_REACTORS
330
330A
102
}
330
330A
100
AcDbXrecord
280
     1
102
RTVSPropertyOp0
 70
     1
102
RTVSPropertyOp1
 70
     1
102
RTVSPropertyOp2
 70
     1
102
RTVSPropertyOp3
 70
     1
102
RTVSPropertyOp4
 70
     1
102
RTVSPropertyOp5
 70
     1
102
RTVSPropertyOp6
 70
     1
102
RTVSPropertyOp7
 70
     1
102
RTVSPropertyOp8
 70
     1
102
RTVSPropertyOp9
 70
     1
102
RTVSPropertyOp10
 70
     1
102
RTVSPropertyOp11
 70
     1
102
RTVSPropertyOp12
 70
     1
102
RTVSPropertyOp13
 70
     1
102
RTVSPropertyOp14
 70
     1
102
RTVSPropertyOp15
 70
     1
102
RTVSPropertyOp16
 70
     1
102
RTVSPropertyOp17
 70
     1
102
RTVSPropertyOp18
 70
     1
102
RTVSPropertyOp19
 70
     1
102
RTVSPropertyOp20
 70
     1
102
RTVSPropertyOp21
 70
     1
102
RTVSPropertyOp22
 70
     1
102
RTVSPropertyOp23
 70
     1
102
RTVSPropertyOp24
 70
     1
102
RTVSPropertyOp25
 70
     1
102
RTVSPropertyOp26
 70
     1
102
RTVSPropertyOp27
 70
     1
102
RTVSPropertyOp28
 70
     1
102
RTVSPropertyOp29
 70
     1
102
RTVSPropertyOp30
 70
     1
102
RTVSPropertyOp31
 70
     1
102
RTVSPropertyOp32
 70
     1
102
RTVSPropertyOp33
 70
     1
102
RTVSPropertyOp34
 70
     1
102
RTVSPropertyOp35
 70
     1
102
RTVSPropertyOp36
 70
     1
102
RTVSPropertyOp37
 70
     1
102
RTVSPropertyOp38
 70
     1
102
RTVSPropertyOp39
 70
     1
102
RTVSPropertyOp40
 70
     1
102
RTVSPropertyOp41
 70
     1
102
RTVSPropertyOp42
 70
     1
102
RTVSPropertyOp43
 70
     1
102
RTVSPropertyOp44
 70
     1
102
RTVSPropertyOp45
 70
     1
102
RTVSPropertyOp46
 70
     1
102
RTVSPropertyOp47
 70
     1
102
RTVSPropertyOp48
 70
     1
102
RTVSPropertyOp49
 70
     1
102
RTVSPropertyOp50
 70
     1
102
RTVSPropertyOp51
 70
     0
102
RTVSPropertyOp52
 70
     0
102
RTVSPropertyOp53
 70
     1
102
RTVSPropertyOp54
 70
     1
102
RTVSPropertyOp55
 70
     1
102
RTVSPropertyOp56
 70
     1
102
RTVSPropertyOp57
 70
     1
102
RTVSPost2010Prop28
280
     0
102
RTVSPost2010PropOp28
 70
     1
102
RTVSPost2010Prop29
280
     1
102
RTVSPost2010PropOp29
 70
     1
102
RTVSPost2010Prop30
280
     1
102
RTVSPost2010PropOp30
 70
     1
102
RTVSPost2010Prop31
280
     0
102
RTVSPost2010PropOp31
 70
     1
102
RTVSPost2010Prop32
280
     0
102
RTVSPost2010PropOp32
 70
     1
102
RTVSPost2010Prop33
280
     0
102
RTVSPost2010PropOp33
 70
     1
102
RTVSPost2010Prop34
280
     0
102
RTVSPost2010PropOp34
 70
     1
102
RTVSPost2010Prop35
280
     0
102
RTVSPost2010PropOp35
 70
     1
102
RTVSPost2010Prop36
280
     0
102
RTVSPost2010PropOp36
 70
     1
102
RTVSPost2010Prop37
 90
       50
102
RTVSPost2010PropOp37
 70
     1
102
RTVSPost2010Prop38
140
0.0
102
RTVSPost2010PropOp38
 70
     1
102
RTVSPost2010Prop39
140
1.0
102
RTVSPost2010PropOp39
 70
     1
102
RTVSPost2010Prop40
 90
        0
102
RTVSPost2010PropOp40
 70
     1
102
RTVSPost2010Prop41ColorIndex
 90
       18
102
RTVSPost2010Prop41ColorRGB
 90
        0
102
RTVSPost2010PropOp41
 70
     1
102
RTVSPost2010Prop42
 90
       50
102
RTVSPost2010PropOp42
 70
     1
102
RTVSPost2010Prop43
 90
        3
102
RTVSPost2010PropOp43
 70
     1
102
RTVSPost2010Prop44ColorIndex
 90
        5
102
RTVSPost2010Prop44ColorRGB
 90
      255
102
RTVSPost2010PropOp44
 70
     1
102
RTVSPost2010Prop45
280
     0
102
RTVSPost2010PropOp45
 70
     1
102
RTVSPost2010Prop46
 90
       50
102
RTVSPost2010PropOp46
 70
     1
102
RTVSPost2010Prop47
 90
       50
102
RTVSPost2010PropOp47
 70
     1
102
RTVSPost2010Prop48
 90
       50
102
RTVSPost2010PropOp48
 70
     1
102
RTVSPost2010Prop49
280
     0
102
RTVSPost2010PropOp49
 70
     1
102
RTVSPost2010Prop50
 90
       50
102
RTVSPost2010PropOp50
 70
     1
102
RTVSPost2010Prop51ColorIndex
 90
      256
102
RTVSPost2010Prop51ColorRGB
 90
-16777216
102
RTVSPost2010PropOp51
 70
     0
102
RTVSPost2010Prop52
140
1.0
102
RTVSPost2010PropOp52
 70
     0
102
RTVSPost2010Prop53
 90
        2
102
RTVSPost2010PropOp53
 70
     1
102
RTVSPost2010Prop54
  1
strokes_ogs.tif
102
RTVSPost2010PropOp54
 70
     1
102
RTVSPost2010Prop55
280
     0
102
RTVSPost2010PropOp55
 70
     1
102
RTVSPost2010Prop56
140
1.0
102
RTVSPost2010PropOp56
 70
     1
102
RTVSPost2010Prop57
140
1.0
102
RTVSPost2010PropOp57
 70
     1
  0
XRECORD
  5
330D
102
{ACAD_REACTORS
330
330C
102
}
330
330C
100
AcDbXrecord
280
     1
102
RTVSPropertyOp0
 70
     1
102
RTVSPropertyOp1
 70
     1
102
RTVSPropertyOp2
 70
     1
102
RTVSPropertyOp3
 70
     1
102
RTVSPropertyOp4
 70
     1
102
RTVSPropertyOp5
 70
     1
102
RTVSPropertyOp6
 70
     1
102
RTVSPropertyOp7
 70
     1
102
RTVSPropertyOp8
 70
     1
102
RTVSPropertyOp9
 70
     1
102
RTVSPropertyOp10
 70
     1
102
RTVSPropertyOp11
 70
     1
102
RTVSPropertyOp12
 70
     1
102
RTVSPropertyOp13
 70
     1
102
RTVSPropertyOp14
 70
     1
102
RTVSPropertyOp15
 70
     1
102
RTVSPropertyOp16
 70
     1
102
RTVSPropertyOp17
 70
     1
102
RTVSPropertyOp18
 70
     1
102
RTVSPropertyOp19
 70
     1
102
RTVSPropertyOp20
 70
     1
102
RTVSPropertyOp21
 70
     1
102
RTVSPropertyOp22
 70
     1
102
RTVSPropertyOp23
 70
     1
102
RTVSPropertyOp24
 70
     1
102
RTVSPropertyOp25
 70
     1
102
RTVSPropertyOp26
 70
     1
102
RTVSPropertyOp27
 70
     1
102
RTVSPropertyOp28
 70
     1
102
RTVSPropertyOp29
 70
     1
102
RTVSPropertyOp30
 70
     1
102
RTVSPropertyOp31
 70
     1
102
RTVSPropertyOp32
 70
     1
102
RTVSPropertyOp33
 70
     1
102
RTVSPropertyOp34
 70
     1
102
RTVSPropertyOp35
 70
     1
102
RTVSPropertyOp36
 70
     1
102
RTVSPropertyOp37
 70
     1
102
RTVSPropertyOp38
 70
     1
102
RTVSPropertyOp39
 70
     1
102
RTVSPropertyOp40
 70
     1
102
RTVSPropertyOp41
 70
     1
102
RTVSPropertyOp42
 70
     1
102
RTVSPropertyOp43
 70
     1
102
RTVSPropertyOp44
 70
     1
102
RTVSPropertyOp45
 70
     1
102
RTVSPropertyOp46
 70
     1
102
RTVSPropertyOp47
 70
     1
102
RTVSPropertyOp48
 70
     1
102
RTVSPropertyOp49
 70
     1
102
RTVSPropertyOp50
 70
     1
102
RTVSPropertyOp51
 70
     0
102
RTVSPropertyOp52
 70
     0
102
RTVSPropertyOp53
 70
     1
102
RTVSPropertyOp54
 70
     1
102
RTVSPropertyOp55
 70
     1
102
RTVSPropertyOp56
 70
     1
102
RTVSPropertyOp57
 70
     1
102
RTVSPost2010Prop28
280
     0
102
RTVSPost2010PropOp28
 70
     1
102
RTVSPost2010Prop29
280
     1
102
RTVSPost2010PropOp29
 70
     1
102
RTVSPost2010Prop30
280
     1
102
RTVSPost2010PropOp30
 70
     1
102
RTVSPost2010Prop31
280
     0
102
RTVSPost2010PropOp31
 70
     1
102
RTVSPost2010Prop32
280
     0
102
RTVSPost2010PropOp32
 70
     1
102
RTVSPost2010Prop33
280
     0
102
RTVSPost2010PropOp33
 70
     1
102
RTVSPost2010Prop34
280
     0
102
RTVSPost2010PropOp34
 70
     1
102
RTVSPost2010Prop35
280
     0
102
RTVSPost2010PropOp35
 70
     1
102
RTVSPost2010Prop36
280
     0
102
RTVSPost2010PropOp36
 70
     1
102
RTVSPost2010Prop37
 90
       50
102
RTVSPost2010PropOp37
 70
     1
102
RTVSPost2010Prop38
140
0.0
102
RTVSPost2010PropOp38
 70
     1
102
RTVSPost2010Prop39
140
1.0
102
RTVSPost2010PropOp39
 70
     1
102
RTVSPost2010Prop40
 90
        0
102
RTVSPost2010PropOp40
 70
     1
102
RTVSPost2010Prop41ColorIndex
 90
       18
102
RTVSPost2010Prop41ColorRGB
 90
        0
102
RTVSPost2010PropOp41
 70
     1
102
RTVSPost2010Prop42
 90
       50
102
RTVSPost2010PropOp42
 70
     1
102
RTVSPost2010Prop43
 90
        3
102
RTVSPost2010PropOp43
 70
     1
102
RTVSPost2010Prop44ColorIndex
 90
        5
102
RTVSPost2010Prop44ColorRGB
 90
      255
102
RTVSPost2010PropOp44
 70
     1
102
RTVSPost2010Prop45
280
     0
102
RTVSPost2010PropOp45
 70
     1
102
RTVSPost2010Prop46
 90
       50
102
RTVSPost2010PropOp46
 70
     1
102
RTVSPost2010Prop47
 90
       50
102
RTVSPost2010PropOp47
 70
     1
102
RTVSPost2010Prop48
 90
       50
102
RTVSPost2010PropOp48
 70
     1
102
RTVSPost2010Prop49
280
     0
102
RTVSPost2010PropOp49
 70
     1
102
RTVSPost2010Prop50
 90
       50
102
RTVSPost2010PropOp50
 70
     1
102
RTVSPost2010Prop51ColorIndex
 90
      256
102
RTVSPost2010Prop51ColorRGB
 90
-16777216
102
RTVSPost2010PropOp51
 70
     0
102
RTVSPost2010Prop52
140
1.0
102
RTVSPost2010PropOp52
 70
     0
102
RTVSPost2010Prop53
 90
        2
102
RTVSPost2010PropOp53
 70
     1
102
RTVSPost2010Prop54
  1
strokes_ogs.tif
102
RTVSPost2010PropOp54
 70
     1
102
RTVSPost2010Prop55
280
     0
102
RTVSPost2010PropOp55
 70
     1
102
RTVSPost2010Prop56
140
1.0
102
RTVSPost2010PropOp56
 70
     1
102
RTVSPost2010Prop57
140
1.0
102
RTVSPost2010PropOp57
 70
     1
  0
XRECORD
  5
330F
102
{ACAD_REACTORS
330
330E
102
}
330
330E
100
AcDbXrecord
280
     1
102
RTVSPropertyOp0
 70
     1
102
RTVSPropertyOp1
 70
     1
102
RTVSPropertyOp2
 70
     1
102
RTVSPropertyOp3
 70
     1
102
RTVSPropertyOp4
 70
     1
102
RTVSPropertyOp5
 70
     1
102
RTVSPropertyOp6
 70
     1
102
RTVSPropertyOp7
 70
     1
102
RTVSPropertyOp8
 70
     1
102
RTVSPropertyOp9
 70
     1
102
RTVSPropertyOp10
 70
     1
102
RTVSPropertyOp11
 70
     1
102
RTVSPropertyOp12
 70
     1
102
RTVSPropertyOp13
 70
     1
102
RTVSPropertyOp14
 70
     1
102
RTVSPropertyOp15
 70
     1
102
RTVSPropertyOp16
 70
     1
102
RTVSPropertyOp17
 70
     1
102
RTVSPropertyOp18
 70
     1
102
RTVSPropertyOp19
 70
     1
102
RTVSPropertyOp20
 70
     1
102
RTVSPropertyOp21
 70
     1
102
RTVSPropertyOp22
 70
     1
102
RTVSPropertyOp23
 70
     1
102
RTVSPropertyOp24
 70
     1
102
RTVSPropertyOp25
 70
     1
102
RTVSPropertyOp26
 70
     1
102
RTVSPropertyOp27
 70
     1
102
RTVSPropertyOp28
 70
     1
102
RTVSPropertyOp29
 70
     1
102
RTVSPropertyOp30
 70
     1
102
RTVSPropertyOp31
 70
     1
102
RTVSPropertyOp32
 70
     1
102
RTVSPropertyOp33
 70
     1
102
RTVSPropertyOp34
 70
     1
102
RTVSPropertyOp35
 70
     1
102
RTVSPropertyOp36
 70
     1
102
RTVSPropertyOp37
 70
     1
102
RTVSPropertyOp38
 70
     1
102
RTVSPropertyOp39
 70
     1
102
RTVSPropertyOp40
 70
     1
102
RTVSPropertyOp41
 70
     1
102
RTVSPropertyOp42
 70
     1
102
RTVSPropertyOp43
 70
     1
102
RTVSPropertyOp44
 70
     1
102
RTVSPropertyOp45
 70
     1
102
RTVSPropertyOp46
 70
     1
102
RTVSPropertyOp47
 70
     1
102
RTVSPropertyOp48
 70
     1
102
RTVSPropertyOp49
 70
     1
102
RTVSPropertyOp50
 70
     1
102
RTVSPropertyOp51
 70
     0
102
RTVSPropertyOp52
 70
     0
102
RTVSPropertyOp53
 70
     1
102
RTVSPropertyOp54
 70
     1
102
RTVSPropertyOp55
 70
     1
102
RTVSPropertyOp56
 70
     1
102
RTVSPropertyOp57
 70
     1
102
RTVSPost2010Prop28
280
     0
102
RTVSPost2010PropOp28
 70
     1
102
RTVSPost2010Prop29
280
     1
102
RTVSPost2010PropOp29
 70
     1
102
RTVSPost2010Prop30
280
     1
102
RTVSPost2010PropOp30
 70
     1
102
RTVSPost2010Prop31
280
     0
102
RTVSPost2010PropOp31
 70
     1
102
RTVSPost2010Prop32
280
     0
102
RTVSPost2010PropOp32
 70
     1
102
RTVSPost2010Prop33
280
     0
102
RTVSPost2010PropOp33
 70
     1
102
RTVSPost2010Prop34
280
     0
102
RTVSPost2010PropOp34
 70
     1
102
RTVSPost2010Prop35
280
     0
102
RTVSPost2010PropOp35
 70
     1
102
RTVSPost2010Prop36
280
     0
102
RTVSPost2010PropOp36
 70
     1
102
RTVSPost2010Prop37
 90
       50
102
RTVSPost2010PropOp37
 70
     1
102
RTVSPost2010Prop38
140
0.0
102
RTVSPost2010PropOp38
 70
     1
102
RTVSPost2010Prop39
140
1.0
102
RTVSPost2010PropOp39
 70
     1
102
RTVSPost2010Prop40
 90
        0
102
RTVSPost2010PropOp40
 70
     1
102
RTVSPost2010Prop41ColorIndex
 90
       18
102
RTVSPost2010Prop41ColorRGB
 90
        0
102
RTVSPost2010PropOp41
 70
     1
102
RTVSPost2010Prop42
 90
       50
102
RTVSPost2010PropOp42
 70
     1
102
RTVSPost2010Prop43
 90
        3
102
RTVSPost2010PropOp43
 70
     1
102
RTVSPost2010Prop44ColorIndex
 90
        5
102
RTVSPost2010Prop44ColorRGB
 90
      255
102
RTVSPost2010PropOp44
 70
     1
102
RTVSPost2010Prop45
280
     0
102
RTVSPost2010PropOp45
 70
     1
102
RTVSPost2010Prop46
 90
       50
102
RTVSPost2010PropOp46
 70
     1
102
RTVSPost2010Prop47
 90
       50
102
RTVSPost2010PropOp47
 70
     1
102
RTVSPost2010Prop48
 90
       50
102
RTVSPost2010PropOp48
 70
     1
102
RTVSPost2010Prop49
280
     0
102
RTVSPost2010PropOp49
 70
     1
102
RTVSPost2010Prop50
 90
       50
102
RTVSPost2010PropOp50
 70
     1
102
RTVSPost2010Prop51ColorIndex
 90
      256
102
RTVSPost2010Prop51ColorRGB
 90
-16777216
102
RTVSPost2010PropOp51
 70
     0
102
RTVSPost2010Prop52
140
1.0
102
RTVSPost2010PropOp52
 70
     0
102
RTVSPost2010Prop53
 90
        2
102
RTVSPost2010PropOp53
 70
     1
102
RTVSPost2010Prop54
  1
strokes_ogs.tif
102
RTVSPost2010PropOp54
 70
     1
102
RTVSPost2010Prop55
280
     0
102
RTVSPost2010PropOp55
 70
     1
102
RTVSPost2010Prop56
140
1.0
102
RTVSPost2010PropOp56
 70
     1
102
RTVSPost2010Prop57
140
1.0
102
RTVSPost2010PropOp57
 70
     1
  0
XRECORD
  5
3311
102
{ACAD_REACTORS
330
3310
102
}
330
3310
100
AcDbXrecord
280
     1
102
RTVSPropertyOp0
 70
     1
102
RTVSPropertyOp1
 70
     1
102
RTVSPropertyOp2
 70
     1
102
RTVSPropertyOp3
 70
     1
102
RTVSPropertyOp4
 70
     1
102
RTVSPropertyOp5
 70
     1
102
RTVSPropertyOp6
 70
     1
102
RTVSPropertyOp7
 70
     1
102
RTVSPropertyOp8
 70
     1
102
RTVSPropertyOp9
 70
     1
102
RTVSPropertyOp10
 70
     1
102
RTVSPropertyOp11
 70
     1
102
RTVSPropertyOp12
 70
     1
102
RTVSPropertyOp13
 70
     1
102
RTVSPropertyOp14
 70
     1
102
RTVSPropertyOp15
 70
     1
102
RTVSPropertyOp16
 70
     1
102
RTVSPropertyOp17
 70
     1
102
RTVSPropertyOp18
 70
     1
102
RTVSPropertyOp19
 70
     1
102
RTVSPropertyOp20
 70
     1
102
RTVSPropertyOp21
 70
     1
102
RTVSPropertyOp22
 70
     1
102
RTVSPropertyOp23
 70
     1
102
RTVSPropertyOp24
 70
     1
102
RTVSPropertyOp25
 70
     1
102
RTVSPropertyOp26
 70
     1
102
RTVSPropertyOp27
 70
     1
102
RTVSPropertyOp28
 70
     1
102
RTVSPropertyOp29
 70
     1
102
RTVSPropertyOp30
 70
     1
102
RTVSPropertyOp31
 70
     1
102
RTVSPropertyOp32
 70
     1
102
RTVSPropertyOp33
 70
     1
102
RTVSPropertyOp34
 70
     1
102
RTVSPropertyOp35
 70
     1
102
RTVSPropertyOp36
 70
     1
102
RTVSPropertyOp37
 70
     1
102
RTVSPropertyOp38
 70
     1
102
RTVSPropertyOp39
 70
     1
102
RTVSPropertyOp40
 70
     1
102
RTVSPropertyOp41
 70
     1
102
RTVSPropertyOp42
 70
     1
102
RTVSPropertyOp43
 70
     1
102
RTVSPropertyOp44
 70
     1
102
RTVSPropertyOp45
 70
     1
102
RTVSPropertyOp46
 70
     1
102
RTVSPropertyOp47
 70
     1
102
RTVSPropertyOp48
 70
     1
102
RTVSPropertyOp49
 70
     1
102
RTVSPropertyOp50
 70
     1
102
RTVSPropertyOp51
 70
     0
102
RTVSPropertyOp52
 70
     0
102
RTVSPropertyOp53
 70
     1
102
RTVSPropertyOp54
 70
     1
102
RTVSPropertyOp55
 70
     1
102
RTVSPropertyOp56
 70
     1
102
RTVSPropertyOp57
 70
     1
102
RTVSPost2010Prop28
280
     0
102
RTVSPost2010PropOp28
 70
     1
102
RTVSPost2010Prop29
280
     1
102
RTVSPost2010PropOp29
 70
     1
102
RTVSPost2010Prop30
280
     1
102
RTVSPost2010PropOp30
 70
     1
102
RTVSPost2010Prop31
280
     0
102
RTVSPost2010PropOp31
 70
     1
102
RTVSPost2010Prop32
280
     0
102
RTVSPost2010PropOp32
 70
     1
102
RTVSPost2010Prop33
280
     0
102
RTVSPost2010PropOp33
 70
     1
102
RTVSPost2010Prop34
280
     0
102
RTVSPost2010PropOp34
 70
     1
102
RTVSPost2010Prop35
280
     0
102
RTVSPost2010PropOp35
 70
     1
102
RTVSPost2010Prop36
280
     0
102
RTVSPost2010PropOp36
 70
     1
102
RTVSPost2010Prop37
 90
       50
102
RTVSPost2010PropOp37
 70
     1
102
RTVSPost2010Prop38
140
0.0
102
RTVSPost2010PropOp38
 70
     1
102
RTVSPost2010Prop39
140
1.0
102
RTVSPost2010PropOp39
 70
     1
102
RTVSPost2010Prop40
 90
        0
102
RTVSPost2010PropOp40
 70
     1
102
RTVSPost2010Prop41ColorIndex
 90
       18
102
RTVSPost2010Prop41ColorRGB
 90
        0
102
RTVSPost2010PropOp41
 70
     1
102
RTVSPost2010Prop42
 90
       50
102
RTVSPost2010PropOp42
 70
     1
102
RTVSPost2010Prop43
 90
        3
102
RTVSPost2010PropOp43
 70
     1
102
RTVSPost2010Prop44ColorIndex
 90
        5
102
RTVSPost2010Prop44ColorRGB
 90
      255
102
RTVSPost2010PropOp44
 70
     1
102
RTVSPost2010Prop45
280
     0
102
RTVSPost2010PropOp45
 70
     1
102
RTVSPost2010Prop46
 90
       50
102
RTVSPost2010PropOp46
 70
     1
102
RTVSPost2010Prop47
 90
       50
102
RTVSPost2010PropOp47
 70
     1
102
RTVSPost2010Prop48
 90
       50
102
RTVSPost2010PropOp48
 70
     1
102
RTVSPost2010Prop49
280
     0
102
RTVSPost2010PropOp49
 70
     1
102
RTVSPost2010Prop50
 90
       50
102
RTVSPost2010PropOp50
 70
     1
102
RTVSPost2010Prop51ColorIndex
 90
      256
102
RTVSPost2010Prop51ColorRGB
 90
-16777216
102
RTVSPost2010PropOp51
 70
     0
102
RTVSPost2010Prop52
140
1.0
102
RTVSPost2010PropOp52
 70
     0
102
RTVSPost2010Prop53
 90
        2
102
RTVSPost2010PropOp53
 70
     1
102
RTVSPost2010Prop54
  1
strokes_ogs.tif
102
RTVSPost2010PropOp54
 70
     1
102
RTVSPost2010Prop55
280
     0
102
RTVSPost2010PropOp55
 70
     1
102
RTVSPost2010Prop56
140
1.0
102
RTVSPost2010PropOp56
 70
     1
102
RTVSPost2010Prop57
140
1.0
102
RTVSPost2010PropOp57
 70
     1
  0
XRECORD
  5
3313
102
{ACAD_REACTORS
330
3312
102
}
330
3312
100
AcDbXrecord
280
     1
102
RTVSPropertyOp0
 70
     1
102
RTVSPropertyOp1
 70
     1
102
RTVSPropertyOp2
 70
     1
102
RTVSPropertyOp3
 70
     1
102
RTVSPropertyOp4
 70
     1
102
RTVSPropertyOp5
 70
     1
102
RTVSPropertyOp6
 70
     1
102
RTVSPropertyOp7
 70
     1
102
RTVSPropertyOp8
 70
     1
102
RTVSPropertyOp9
 70
     1
102
RTVSPropertyOp10
 70
     1
102
RTVSPropertyOp11
 70
     1
102
RTVSPropertyOp12
 70
     1
102
RTVSPropertyOp13
 70
     1
102
RTVSPropertyOp14
 70
     1
102
RTVSPropertyOp15
 70
     1
102
RTVSPropertyOp16
 70
     1
102
RTVSPropertyOp17
 70
     1
102
RTVSPropertyOp18
 70
     1
102
RTVSPropertyOp19
 70
     1
102
RTVSPropertyOp20
 70
     1
102
RTVSPropertyOp21
 70
     1
102
RTVSPropertyOp22
 70
     1
102
RTVSPropertyOp23
 70
     1
102
RTVSPropertyOp24
 70
     1
102
RTVSPropertyOp25
 70
     1
102
RTVSPropertyOp26
 70
     1
102
RTVSPropertyOp27
 70
     1
102
RTVSPropertyOp28
 70
     1
102
RTVSPropertyOp29
 70
     1
102
RTVSPropertyOp30
 70
     1
102
RTVSPropertyOp31
 70
     1
102
RTVSPropertyOp32
 70
     1
102
RTVSPropertyOp33
 70
     1
102
RTVSPropertyOp34
 70
     1
102
RTVSPropertyOp35
 70
     1
102
RTVSPropertyOp36
 70
     1
102
RTVSPropertyOp37
 70
     1
102
RTVSPropertyOp38
 70
     1
102
RTVSPropertyOp39
 70
     1
102
RTVSPropertyOp40
 70
     1
102
RTVSPropertyOp41
 70
     1
102
RTVSPropertyOp42
 70
     1
102
RTVSPropertyOp43
 70
     1
102
RTVSPropertyOp44
 70
     1
102
RTVSPropertyOp45
 70
     1
102
RTVSPropertyOp46
 70
     1
102
RTVSPropertyOp47
 70
     1
102
RTVSPropertyOp48
 70
     1
102
RTVSPropertyOp49
 70
     1
102
RTVSPropertyOp50
 70
     1
102
RTVSPropertyOp51
 70
     0
102
RTVSPropertyOp52
 70
     0
102
RTVSPropertyOp53
 70
     1
102
RTVSPropertyOp54
 70
     1
102
RTVSPropertyOp55
 70
     1
102
RTVSPropertyOp56
 70
     1
102
RTVSPropertyOp57
 70
     1
102
RTVSPost2010Prop28
280
     0
102
RTVSPost2010PropOp28
 70
     1
102
RTVSPost2010Prop29
280
     1
102
RTVSPost2010PropOp29
 70
     1
102
RTVSPost2010Prop30
280
     1
102
RTVSPost2010PropOp30
 70
     1
102
RTVSPost2010Prop31
280
     0
102
RTVSPost2010PropOp31
 70
     1
102
RTVSPost2010Prop32
280
     0
102
RTVSPost2010PropOp32
 70
     1
102
RTVSPost2010Prop33
280
     0
102
RTVSPost2010PropOp33
 70
     1
102
RTVSPost2010Prop34
280
     0
102
RTVSPost2010PropOp34
 70
     1
102
RTVSPost2010Prop35
280
     0
102
RTVSPost2010PropOp35
 70
     1
102
RTVSPost2010Prop36
280
     0
102
RTVSPost2010PropOp36
 70
     1
102
RTVSPost2010Prop37
 90
       50
102
RTVSPost2010PropOp37
 70
     1
102
RTVSPost2010Prop38
140
0.0
102
RTVSPost2010PropOp38
 70
     1
102
RTVSPost2010Prop39
140
1.0
102
RTVSPost2010PropOp39
 70
     1
102
RTVSPost2010Prop40
 90
        0
102
RTVSPost2010PropOp40
 70
     1
102
RTVSPost2010Prop41ColorIndex
 90
       18
102
RTVSPost2010Prop41ColorRGB
 90
        0
102
RTVSPost2010PropOp41
 70
     1
102
RTVSPost2010Prop42
 90
       50
102
RTVSPost2010PropOp42
 70
     1
102
RTVSPost2010Prop43
 90
        3
102
RTVSPost2010PropOp43
 70
     1
102
RTVSPost2010Prop44ColorIndex
 90
        5
102
RTVSPost2010Prop44ColorRGB
 90
      255
102
RTVSPost2010PropOp44
 70
     1
102
RTVSPost2010Prop45
280
     0
102
RTVSPost2010PropOp45
 70
     1
102
RTVSPost2010Prop46
 90
       50
102
RTVSPost2010PropOp46
 70
     1
102
RTVSPost2010Prop47
 90
       50
102
RTVSPost2010PropOp47
 70
     1
102
RTVSPost2010Prop48
 90
       50
102
RTVSPost2010PropOp48
 70
     1
102
RTVSPost2010Prop49
280
     0
102
RTVSPost2010PropOp49
 70
     1
102
RTVSPost2010Prop50
 90
       50
102
RTVSPost2010PropOp50
 70
     1
102
RTVSPost2010Prop51ColorIndex
 90
      256
102
RTVSPost2010Prop51ColorRGB
 90
-16777216
102
RTVSPost2010PropOp51
 70
     0
102
RTVSPost2010Prop52
140
1.0
102
RTVSPost2010PropOp52
 70
     0
102
RTVSPost2010Prop53
 90
        2
102
RTVSPost2010PropOp53
 70
     1
102
RTVSPost2010Prop54
  1
strokes_ogs.tif
102
RTVSPost2010PropOp54
 70
     1
102
RTVSPost2010Prop55
280
     0
102
RTVSPost2010PropOp55
 70
     1
102
RTVSPost2010Prop56
140
1.0
102
RTVSPost2010PropOp56
 70
     1
102
RTVSPost2010Prop57
140
1.0
102
RTVSPost2010PropOp57
 70
     1
  0
XRECORD
  5
3315
102
{ACAD_REACTORS
330
3314
102
}
330
3314
100
AcDbXrecord
280
     1
102
RTVSPropertyOp0
 70
     1
102
RTVSPropertyOp1
 70
     1
102
RTVSPropertyOp2
 70
     1
102
RTVSPropertyOp3
 70
     1
102
RTVSPropertyOp4
 70
     1
102
RTVSPropertyOp5
 70
     1
102
RTVSPropertyOp6
 70
     1
102
RTVSPropertyOp7
 70
     1
102
RTVSPropertyOp8
 70
     1
102
RTVSPropertyOp9
 70
     1
102
RTVSPropertyOp10
 70
     1
102
RTVSPropertyOp11
 70
     1
102
RTVSPropertyOp12
 70
     1
102
RTVSPropertyOp13
 70
     1
102
RTVSPropertyOp14
 70
     1
102
RTVSPropertyOp15
 70
     1
102
RTVSPropertyOp16
 70
     1
102
RTVSPropertyOp17
 70
     1
102
RTVSPropertyOp18
 70
     1
102
RTVSPropertyOp19
 70
     1
102
RTVSPropertyOp20
 70
     1
102
RTVSPropertyOp21
 70
     1
102
RTVSPropertyOp22
 70
     1
102
RTVSPropertyOp23
 70
     1
102
RTVSPropertyOp24
 70
     1
102
RTVSPropertyOp25
 70
     1
102
RTVSPropertyOp26
 70
     1
102
RTVSPropertyOp27
 70
     1
102
RTVSPropertyOp28
 70
     1
102
RTVSPropertyOp29
 70
     1
102
RTVSPropertyOp30
 70
     1
102
RTVSPropertyOp31
 70
     1
102
RTVSPropertyOp32
 70
     1
102
RTVSPropertyOp33
 70
     1
102
RTVSPropertyOp34
 70
     1
102
RTVSPropertyOp35
 70
     1
102
RTVSPropertyOp36
 70
     1
102
RTVSPropertyOp37
 70
     1
102
RTVSPropertyOp38
 70
     1
102
RTVSPropertyOp39
 70
     1
102
RTVSPropertyOp40
 70
     1
102
RTVSPropertyOp41
 70
     1
102
RTVSPropertyOp42
 70
     1
102
RTVSPropertyOp43
 70
     1
102
RTVSPropertyOp44
 70
     1
102
RTVSPropertyOp45
 70
     1
102
RTVSPropertyOp46
 70
     1
102
RTVSPropertyOp47
 70
     1
102
RTVSPropertyOp48
 70
     1
102
RTVSPropertyOp49
 70
     1
102
RTVSPropertyOp50
 70
     1
102
RTVSPropertyOp51
 70
     0
102
RTVSPropertyOp52
 70
     0
102
RTVSPropertyOp53
 70
     1
102
RTVSPropertyOp54
 70
     1
102
RTVSPropertyOp55
 70
     1
102
RTVSPropertyOp56
 70
     1
102
RTVSPropertyOp57
 70
     1
102
RTVSPost2010Prop28
280
     0
102
RTVSPost2010PropOp28
 70
     1
102
RTVSPost2010Prop29
280
     1
102
RTVSPost2010PropOp29
 70
     1
102
RTVSPost2010Prop30
280
     1
102
RTVSPost2010PropOp30
 70
     1
102
RTVSPost2010Prop31
280
     0
102
RTVSPost2010PropOp31
 70
     1
102
RTVSPost2010Prop32
280
     0
102
RTVSPost2010PropOp32
 70
     1
102
RTVSPost2010Prop33
280
     0
102
RTVSPost2010PropOp33
 70
     1
102
RTVSPost2010Prop34
280
     0
102
RTVSPost2010PropOp34
 70
     1
102
RTVSPost2010Prop35
280
     0
102
RTVSPost2010PropOp35
 70
     1
102
RTVSPost2010Prop36
280
     0
102
RTVSPost2010PropOp36
 70
     1
102
RTVSPost2010Prop37
 90
       50
102
RTVSPost2010PropOp37
 70
     1
102
RTVSPost2010Prop38
140
0.0
102
RTVSPost2010PropOp38
 70
     1
102
RTVSPost2010Prop39
140
1.0
102
RTVSPost2010PropOp39
 70
     1
102
RTVSPost2010Prop40
 90
        0
102
RTVSPost2010PropOp40
 70
     1
102
RTVSPost2010Prop41ColorIndex
 90
       18
102
RTVSPost2010Prop41ColorRGB
 90
        0
102
RTVSPost2010PropOp41
 70
     1
102
RTVSPost2010Prop42
 90
       50
102
RTVSPost2010PropOp42
 70
     1
102
RTVSPost2010Prop43
 90
        3
102
RTVSPost2010PropOp43
 70
     1
102
RTVSPost2010Prop44ColorIndex
 90
        5
102
RTVSPost2010Prop44ColorRGB
 90
      255
102
RTVSPost2010PropOp44
 70
     1
102
RTVSPost2010Prop45
280
     0
102
RTVSPost2010PropOp45
 70
     1
102
RTVSPost2010Prop46
 90
       50
102
RTVSPost2010PropOp46
 70
     1
102
RTVSPost2010Prop47
 90
       50
102
RTVSPost2010PropOp47
 70
     1
102
RTVSPost2010Prop48
 90
       50
102
RTVSPost2010PropOp48
 70
     1
102
RTVSPost2010Prop49
280
     0
102
RTVSPost2010PropOp49
 70
     1
102
RTVSPost2010Prop50
 90
       50
102
RTVSPost2010PropOp50
 70
     1
102
RTVSPost2010Prop51ColorIndex
 90
      256
102
RTVSPost2010Prop51ColorRGB
 90
-16777216
102
RTVSPost2010PropOp51
 70
     0
102
RTVSPost2010Prop52
140
1.0
102
RTVSPost2010PropOp52
 70
     0
102
RTVSPost2010Prop53
 90
        2
102
RTVSPost2010PropOp53
 70
     1
102
RTVSPost2010Prop54
  1
strokes_ogs.tif
102
RTVSPost2010PropOp54
 70
     1
102
RTVSPost2010Prop55
280
     0
102
RTVSPost2010PropOp55
 70
     1
102
RTVSPost2010Prop56
140
1.0
102
RTVSPost2010PropOp56
 70
     1
102
RTVSPost2010Prop57
140
1.0
102
RTVSPost2010PropOp57
 70
     1
  0
XRECORD
  5
332F
102
{ACAD_REACTORS
330
332E
102
}
330
332E
100
AcDbXrecord
280
     1
102
RTVSPropertyOp0
 70
     0
102
RTVSPropertyOp1
 70
     0
102
RTVSPropertyOp2
 70
     0
102
RTVSPropertyOp3
 70
     0
102
RTVSPropertyOp4
 70
     0
102
RTVSPropertyOp5
 70
     0
102
RTVSPropertyOp6
 70
     0
102
RTVSPropertyOp7
 70
     0
102
RTVSPropertyOp8
 70
     0
102
RTVSPropertyOp9
 70
     0
102
RTVSPropertyOp10
 70
     0
102
RTVSPropertyOp11
 70
     0
102
RTVSPropertyOp12
 70
     0
102
RTVSPropertyOp13
 70
     0
102
RTVSPropertyOp14
 70
     2
102
RTVSPropertyOp15
 70
     0
102
RTVSPropertyOp16
 70
     0
102
RTVSPropertyOp17
 70
     0
102
RTVSPropertyOp18
 70
     0
102
RTVSPropertyOp19
 70
     0
102
RTVSPropertyOp20
 70
     0
102
RTVSPropertyOp21
 70
     0
102
RTVSPropertyOp22
 70
     0
102
RTVSPropertyOp23
 70
     0
102
RTVSPropertyOp24
 70
     0
102
RTVSPropertyOp25
 70
     0
102
RTVSPropertyOp26
 70
     0
102
RTVSPropertyOp27
 70
     0
102
RTVSPropertyOp28
 70
     0
102
RTVSPropertyOp29
 70
     0
102
RTVSPropertyOp30
 70
     0
102
RTVSPropertyOp31
 70
     0
102
RTVSPropertyOp32
 70
     0
102
RTVSPropertyOp33
 70
     0
102
RTVSPropertyOp34
 70
     0
102
RTVSPropertyOp35
 70
     0
102
RTVSPropertyOp36
 70
     0
102
RTVSPropertyOp37
 70
     0
102
RTVSPropertyOp38
 70
     0
102
RTVSPropertyOp39
 70
     0
102
RTVSPropertyOp40
 70
     0
102
RTVSPropertyOp41
 70
     0
102
RTVSPropertyOp42
 70
     0
102
RTVSPropertyOp43
 70
     0
102
RTVSPropertyOp44
 70
     0
102
RTVSPropertyOp45
 70
     0
102
RTVSPropertyOp46
 70
     0
102
RTVSPropertyOp47
 70
     0
102
RTVSPropertyOp48
 70
     0
102
RTVSPropertyOp49
 70
     0
102
RTVSPropertyOp50
 70
     0
102
RTVSPropertyOp51
 70
     0
102
RTVSPropertyOp52
 70
     0
102
RTVSPropertyOp53
 70
     0
102
RTVSPropertyOp54
 70
     0
102
RTVSPropertyOp55
 70
     0
102
RTVSPropertyOp56
 70
     0
102
RTVSPropertyOp57
 70
     0
102
RTVSPost2010Prop28
280
     0
102
RTVSPost2010PropOp28
 70
     0
102
RTVSPost2010Prop29
280
     1
102
RTVSPost2010PropOp29
 70
     0
102
RTVSPost2010Prop30
280
     1
102
RTVSPost2010PropOp30
 70
     0
102
RTVSPost2010Prop31
280
     0
102
RTVSPost2010PropOp31
 70
     0
102
RTVSPost2010Prop32
280
     0
102
RTVSPost2010PropOp32
 70
     0
102
RTVSPost2010Prop33
280
     0
102
RTVSPost2010PropOp33
 70
     0
102
RTVSPost2010Prop34
280
     0
102
RTVSPost2010PropOp34
 70
     0
102
RTVSPost2010Prop35
280
     0
102
RTVSPost2010PropOp35
 70
     0
102
RTVSPost2010Prop36
280
     0
102
RTVSPost2010PropOp36
 70
     0
102
RTVSPost2010Prop37
 90
       50
102
RTVSPost2010PropOp37
 70
     0
102
RTVSPost2010Prop38
140
0.0
102
RTVSPost2010PropOp38
 70
     0
102
RTVSPost2010Prop39
140
1.0
102
RTVSPost2010PropOp39
 70
     0
102
RTVSPost2010Prop40
 90
        0
102
RTVSPost2010PropOp40
 70
     0
102
RTVSPost2010Prop41ColorIndex
 90
       18
102
RTVSPost2010Prop41ColorRGB
 90
        0
102
RTVSPost2010PropOp41
 70
     0
102
RTVSPost2010Prop42
 90
       50
102
RTVSPost2010PropOp42
 70
     0
102
RTVSPost2010Prop43
 90
        3
102
RTVSPost2010PropOp43
 70
     0
102
RTVSPost2010Prop44ColorIndex
 90
        5
102
RTVSPost2010Prop44ColorRGB
 90
      255
102
RTVSPost2010PropOp44
 70
     0
102
RTVSPost2010Prop45
280
     0
102
RTVSPost2010PropOp45
 70
     0
102
RTVSPost2010Prop46
 90
       50
102
RTVSPost2010PropOp46
 70
     0
102
RTVSPost2010Prop47
 90
       50
102
RTVSPost2010PropOp47
 70
     0
102
RTVSPost2010Prop48
 90
       50
102
RTVSPost2010PropOp48
 70
     0
102
RTVSPost2010Prop49
280
     0
102
RTVSPost2010PropOp49
 70
     0
102
RTVSPost2010Prop50
 90
       50
102
RTVSPost2010PropOp50
 70
     0
102
RTVSPost2010Prop51ColorIndex
 90
      256
102
RTVSPost2010Prop51ColorRGB
 90
-16777216
102
RTVSPost2010PropOp51
 70
     0
102
RTVSPost2010Prop52
140
1.0
102
RTVSPost2010PropOp52
 70
     0
102
RTVSPost2010Prop53
 90
        2
102
RTVSPost2010PropOp53
 70
     0
102
RTVSPost2010Prop54
  1
strokes_ogs.tif
102
RTVSPost2010PropOp54
 70
     0
102
RTVSPost2010Prop55
280
     0
102
RTVSPost2010PropOp55
 70
     0
102
RTVSPost2010Prop56
140
1.0
102
RTVSPost2010PropOp56
 70
     0
102
RTVSPost2010Prop57
140
1.0
102
RTVSPost2010PropOp57
 70
     0
  0
XRECORD
  5
3317
102
{ACAD_REACTORS
330
3316
102
}
330
3316
100
AcDbXrecord
280
     1
102
RTVSPropertyOp0
 70
     1
102
RTVSPropertyOp1
 70
     1
102
RTVSPropertyOp2
 70
     1
102
RTVSPropertyOp3
 70
     1
102
RTVSPropertyOp4
 70
     1
102
RTVSPropertyOp5
 70
     1
102
RTVSPropertyOp6
 70
     1
102
RTVSPropertyOp7
 70
     1
102
RTVSPropertyOp8
 70
     1
102
RTVSPropertyOp9
 70
     1
102
RTVSPropertyOp10
 70
     1
102
RTVSPropertyOp11
 70
     1
102
RTVSPropertyOp12
 70
     1
102
RTVSPropertyOp13
 70
     1
102
RTVSPropertyOp14
 70
     1
102
RTVSPropertyOp15
 70
     1
102
RTVSPropertyOp16
 70
     1
102
RTVSPropertyOp17
 70
     1
102
RTVSPropertyOp18
 70
     1
102
RTVSPropertyOp19
 70
     1
102
RTVSPropertyOp20
 70
     1
102
RTVSPropertyOp21
 70
     1
102
RTVSPropertyOp22
 70
     1
102
RTVSPropertyOp23
 70
     1
102
RTVSPropertyOp24
 70
     1
102
RTVSPropertyOp25
 70
     1
102
RTVSPropertyOp26
 70
     1
102
RTVSPropertyOp27
 70
     1
102
RTVSPropertyOp28
 70
     1
102
RTVSPropertyOp29
 70
     1
102
RTVSPropertyOp30
 70
     1
102
RTVSPropertyOp31
 70
     1
102
RTVSPropertyOp32
 70
     1
102
RTVSPropertyOp33
 70
     1
102
RTVSPropertyOp34
 70
     1
102
RTVSPropertyOp35
 70
     1
102
RTVSPropertyOp36
 70
     1
102
RTVSPropertyOp37
 70
     1
102
RTVSPropertyOp38
 70
     1
102
RTVSPropertyOp39
 70
     1
102
RTVSPropertyOp40
 70
     1
102
RTVSPropertyOp41
 70
     1
102
RTVSPropertyOp42
 70
     1
102
RTVSPropertyOp43
 70
     1
102
RTVSPropertyOp44
 70
     1
102
RTVSPropertyOp45
 70
     1
102
RTVSPropertyOp46
 70
     1
102
RTVSPropertyOp47
 70
     1
102
RTVSPropertyOp48
 70
     1
102
RTVSPropertyOp49
 70
     1
102
RTVSPropertyOp50
 70
     1
102
RTVSPropertyOp51
 70
     0
102
RTVSPropertyOp52
 70
     0
102
RTVSPropertyOp53
 70
     1
102
RTVSPropertyOp54
 70
     1
102
RTVSPropertyOp55
 70
     1
102
RTVSPropertyOp56
 70
     1
102
RTVSPropertyOp57
 70
     1
102
RTVSPost2010Prop28
280
     0
102
RTVSPost2010PropOp28
 70
     1
102
RTVSPost2010Prop29
280
     1
102
RTVSPost2010PropOp29
 70
     1
102
RTVSPost2010Prop30
280
     1
102
RTVSPost2010PropOp30
 70
     1
102
RTVSPost2010Prop31
280
     0
102
RTVSPost2010PropOp31
 70
     1
102
RTVSPost2010Prop32
280
     0
102
RTVSPost2010PropOp32
 70
     1
102
RTVSPost2010Prop33
280
     0
102
RTVSPost2010PropOp33
 70
     1
102
RTVSPost2010Prop34
280
     0
102
RTVSPost2010PropOp34
 70
     1
102
RTVSPost2010Prop35
280
     0
102
RTVSPost2010PropOp35
 70
     1
102
RTVSPost2010Prop36
280
     0
102
RTVSPost2010PropOp36
 70
     1
102
RTVSPost2010Prop37
 90
       50
102
RTVSPost2010PropOp37
 70
     1
102
RTVSPost2010Prop38
140
0.0
102
RTVSPost2010PropOp38
 70
     1
102
RTVSPost2010Prop39
140
1.0
102
RTVSPost2010PropOp39
 70
     1
102
RTVSPost2010Prop40
 90
        0
102
RTVSPost2010PropOp40
 70
     1
102
RTVSPost2010Prop41ColorIndex
 90
       18
102
RTVSPost2010Prop41ColorRGB
 90
        0
102
RTVSPost2010PropOp41
 70
     1
102
RTVSPost2010Prop42
 90
       50
102
RTVSPost2010PropOp42
 70
     1
102
RTVSPost2010Prop43
 90
        3
102
RTVSPost2010PropOp43
 70
     1
102
RTVSPost2010Prop44ColorIndex
 90
        5
102
RTVSPost2010Prop44ColorRGB
 90
      255
102
RTVSPost2010PropOp44
 70
     1
102
RTVSPost2010Prop45
280
     0
102
RTVSPost2010PropOp45
 70
     1
102
RTVSPost2010Prop46
 90
       50
102
RTVSPost2010PropOp46
 70
     1
102
RTVSPost2010Prop47
 90
       50
102
RTVSPost2010PropOp47
 70
     1
102
RTVSPost2010Prop48
 90
       50
102
RTVSPost2010PropOp48
 70
     1
102
RTVSPost2010Prop49
280
     0
102
RTVSPost2010PropOp49
 70
     1
102
RTVSPost2010Prop50
 90
       50
102
RTVSPost2010PropOp50
 70
     1
102
RTVSPost2010Prop51ColorIndex
 90
      256
102
RTVSPost2010Prop51ColorRGB
 90
-16777216
102
RTVSPost2010PropOp51
 70
     0
102
RTVSPost2010Prop52
140
1.0
102
RTVSPost2010PropOp52
 70
     0
102
RTVSPost2010Prop53
 90
        2
102
RTVSPost2010PropOp53
 70
     1
102
RTVSPost2010Prop54
  1
strokes_ogs.tif
102
RTVSPost2010PropOp54
 70
     1
102
RTVSPost2010Prop55
280
     0
102
RTVSPost2010PropOp55
 70
     1
102
RTVSPost2010Prop56
140
1.0
102
RTVSPost2010PropOp56
 70
     1
102
RTVSPost2010Prop57
140
1.0
102
RTVSPost2010PropOp57
 70
     1
  0
XRECORD
  5
3319
102
{ACAD_REACTORS
330
3318
102
}
330
3318
100
AcDbXrecord
280
     1
102
RTVSPropertyOp0
 70
     1
102
RTVSPropertyOp1
 70
     1
102
RTVSPropertyOp2
 70
     1
102
RTVSPropertyOp3
 70
     1
102
RTVSPropertyOp4
 70
     1
102
RTVSPropertyOp5
 70
     1
102
RTVSPropertyOp6
 70
     1
102
RTVSPropertyOp7
 70
     1
102
RTVSPropertyOp8
 70
     1
102
RTVSPropertyOp9
 70
     1
102
RTVSPropertyOp10
 70
     1
102
RTVSPropertyOp11
 70
     1
102
RTVSPropertyOp12
 70
     1
102
RTVSPropertyOp13
 70
     1
102
RTVSPropertyOp14
 70
     1
102
RTVSPropertyOp15
 70
     1
102
RTVSPropertyOp16
 70
     1
102
RTVSPropertyOp17
 70
     1
102
RTVSPropertyOp18
 70
     1
102
RTVSPropertyOp19
 70
     1
102
RTVSPropertyOp20
 70
     1
102
RTVSPropertyOp21
 70
     1
102
RTVSPropertyOp22
 70
     1
102
RTVSPropertyOp23
 70
     1
102
RTVSPropertyOp24
 70
     1
102
RTVSPropertyOp25
 70
     1
102
RTVSPropertyOp26
 70
     1
102
RTVSPropertyOp27
 70
     1
102
RTVSPropertyOp28
 70
     1
102
RTVSPropertyOp29
 70
     1
102
RTVSPropertyOp30
 70
     1
102
RTVSPropertyOp31
 70
     1
102
RTVSPropertyOp32
 70
     1
102
RTVSPropertyOp33
 70
     1
102
RTVSPropertyOp34
 70
     1
102
RTVSPropertyOp35
 70
     1
102
RTVSPropertyOp36
 70
     1
102
RTVSPropertyOp37
 70
     1
102
RTVSPropertyOp38
 70
     1
102
RTVSPropertyOp39
 70
     1
102
RTVSPropertyOp40
 70
     1
102
RTVSPropertyOp41
 70
     1
102
RTVSPropertyOp42
 70
     1
102
RTVSPropertyOp43
 70
     1
102
RTVSPropertyOp44
 70
     1
102
RTVSPropertyOp45
 70
     1
102
RTVSPropertyOp46
 70
     1
102
RTVSPropertyOp47
 70
     1
102
RTVSPropertyOp48
 70
     1
102
RTVSPropertyOp49
 70
     1
102
RTVSPropertyOp50
 70
     1
102
RTVSPropertyOp51
 70
     0
102
RTVSPropertyOp52
 70
     0
102
RTVSPropertyOp53
 70
     1
102
RTVSPropertyOp54
 70
     1
102
RTVSPropertyOp55
 70
     1
102
RTVSPropertyOp56
 70
     1
102
RTVSPropertyOp57
 70
     1
102
RTVSPost2010Prop28
280
     0
102
RTVSPost2010PropOp28
 70
     1
102
RTVSPost2010Prop29
280
     1
102
RTVSPost2010PropOp29
 70
     1
102
RTVSPost2010Prop30
280
     1
102
RTVSPost2010PropOp30
 70
     1
102
RTVSPost2010Prop31
280
     0
102
RTVSPost2010PropOp31
 70
     1
102
RTVSPost2010Prop32
280
     0
102
RTVSPost2010PropOp32
 70
     1
102
RTVSPost2010Prop33
280
     0
102
RTVSPost2010PropOp33
 70
     1
102
RTVSPost2010Prop34
280
     0
102
RTVSPost2010PropOp34
 70
     1
102
RTVSPost2010Prop35
280
     0
102
RTVSPost2010PropOp35
 70
     1
102
RTVSPost2010Prop36
280
     0
102
RTVSPost2010PropOp36
 70
     1
102
RTVSPost2010Prop37
 90
       50
102
RTVSPost2010PropOp37
 70
     1
102
RTVSPost2010Prop38
140
0.0
102
RTVSPost2010PropOp38
 70
     1
102
RTVSPost2010Prop39
140
1.0
102
RTVSPost2010PropOp39
 70
     1
102
RTVSPost2010Prop40
 90
        0
102
RTVSPost2010PropOp40
 70
     1
102
RTVSPost2010Prop41ColorIndex
 90
       18
102
RTVSPost2010Prop41ColorRGB
 90
        0
102
RTVSPost2010PropOp41
 70
     1
102
RTVSPost2010Prop42
 90
       50
102
RTVSPost2010PropOp42
 70
     1
102
RTVSPost2010Prop43
 90
        3
102
RTVSPost2010PropOp43
 70
     1
102
RTVSPost2010Prop44ColorIndex
 90
        5
102
RTVSPost2010Prop44ColorRGB
 90
      255
102
RTVSPost2010PropOp44
 70
     1
102
RTVSPost2010Prop45
280
     0
102
RTVSPost2010PropOp45
 70
     1
102
RTVSPost2010Prop46
 90
       50
102
RTVSPost2010PropOp46
 70
     1
102
RTVSPost2010Prop47
 90
       50
102
RTVSPost2010PropOp47
 70
     1
102
RTVSPost2010Prop48
 90
       50
102
RTVSPost2010PropOp48
 70
     1
102
RTVSPost2010Prop49
280
     0
102
RTVSPost2010PropOp49
 70
     1
102
RTVSPost2010Prop50
 90
       50
102
RTVSPost2010PropOp50
 70
     1
102
RTVSPost2010Prop51ColorIndex
 90
      256
102
RTVSPost2010Prop51ColorRGB
 90
-16777216
102
RTVSPost2010PropOp51
 70
     0
102
RTVSPost2010Prop52
140
1.0
102
RTVSPost2010PropOp52
 70
     0
102
RTVSPost2010Prop53
 90
        2
102
RTVSPost2010PropOp53
 70
     1
102
RTVSPost2010Prop54
  1
strokes_ogs.tif
102
RTVSPost2010PropOp54
 70
     1
102
RTVSPost2010Prop55
280
     0
102
RTVSPost2010PropOp55
 70
     1
102
RTVSPost2010Prop56
140
1.0
102
RTVSPost2010PropOp56
 70
     1
102
RTVSPost2010Prop57
140
1.0
102
RTVSPost2010PropOp57
 70
     1
  0
XRECORD
  5
331B
102
{ACAD_REACTORS
330
331A
102
}
330
331A
100
AcDbXrecord
280
     1
102
RTVSPropertyOp0
 70
     1
102
RTVSPropertyOp1
 70
     1
102
RTVSPropertyOp2
 70
     1
102
RTVSPropertyOp3
 70
     1
102
RTVSPropertyOp4
 70
     1
102
RTVSPropertyOp5
 70
     1
102
RTVSPropertyOp6
 70
     1
102
RTVSPropertyOp7
 70
     1
102
RTVSPropertyOp8
 70
     1
102
RTVSPropertyOp9
 70
     1
102
RTVSPropertyOp10
 70
     1
102
RTVSPropertyOp11
 70
     1
102
RTVSPropertyOp12
 70
     1
102
RTVSPropertyOp13
 70
     1
102
RTVSPropertyOp14
 70
     1
102
RTVSPropertyOp15
 70
     1
102
RTVSPropertyOp16
 70
     1
102
RTVSPropertyOp17
 70
     1
102
RTVSPropertyOp18
 70
     1
102
RTVSPropertyOp19
 70
     1
102
RTVSPropertyOp20
 70
     1
102
RTVSPropertyOp21
 70
     1
102
RTVSPropertyOp22
 70
     1
102
RTVSPropertyOp23
 70
     1
102
RTVSPropertyOp24
 70
     1
102
RTVSPropertyOp25
 70
     1
102
RTVSPropertyOp26
 70
     1
102
RTVSPropertyOp27
 70
     1
102
RTVSPropertyOp28
 70
     1
102
RTVSPropertyOp29
 70
     1
102
RTVSPropertyOp30
 70
     1
102
RTVSPropertyOp31
 70
     1
102
RTVSPropertyOp32
 70
     1
102
RTVSPropertyOp33
 70
     1
102
RTVSPropertyOp34
 70
     1
102
RTVSPropertyOp35
 70
     1
102
RTVSPropertyOp36
 70
     1
102
RTVSPropertyOp37
 70
     1
102
RTVSPropertyOp38
 70
     1
102
RTVSPropertyOp39
 70
     1
102
RTVSPropertyOp40
 70
     1
102
RTVSPropertyOp41
 70
     1
102
RTVSPropertyOp42
 70
     1
102
RTVSPropertyOp43
 70
     1
102
RTVSPropertyOp44
 70
     1
102
RTVSPropertyOp45
 70
     1
102
RTVSPropertyOp46
 70
     1
102
RTVSPropertyOp47
 70
     1
102
RTVSPropertyOp48
 70
     1
102
RTVSPropertyOp49
 70
     1
102
RTVSPropertyOp50
 70
     1
102
RTVSPropertyOp51
 70
     0
102
RTVSPropertyOp52
 70
     0
102
RTVSPropertyOp53
 70
     1
102
RTVSPropertyOp54
 70
     1
102
RTVSPropertyOp55
 70
     1
102
RTVSPropertyOp56
 70
     1
102
RTVSPropertyOp57
 70
     1
102
RTVSPost2010Prop28
280
     0
102
RTVSPost2010PropOp28
 70
     1
102
RTVSPost2010Prop29
280
     1
102
RTVSPost2010PropOp29
 70
     1
102
RTVSPost2010Prop30
280
     1
102
RTVSPost2010PropOp30
 70
     1
102
RTVSPost2010Prop31
280
     0
102
RTVSPost2010PropOp31
 70
     1
102
RTVSPost2010Prop32
280
     0
102
RTVSPost2010PropOp32
 70
     1
102
RTVSPost2010Prop33
280
     0
102
RTVSPost2010PropOp33
 70
     1
102
RTVSPost2010Prop34
280
     0
102
RTVSPost2010PropOp34
 70
     1
102
RTVSPost2010Prop35
280
     0
102
RTVSPost2010PropOp35
 70
     1
102
RTVSPost2010Prop36
280
     0
102
RTVSPost2010PropOp36
 70
     1
102
RTVSPost2010Prop37
 90
       50
102
RTVSPost2010PropOp37
 70
     1
102
RTVSPost2010Prop38
140
0.0
102
RTVSPost2010PropOp38
 70
     1
102
RTVSPost2010Prop39
140
1.0
102
RTVSPost2010PropOp39
 70
     1
102
RTVSPost2010Prop40
 90
        0
102
RTVSPost2010PropOp40
 70
     1
102
RTVSPost2010Prop41ColorIndex
 90
       18
102
RTVSPost2010Prop41ColorRGB
 90
        0
102
RTVSPost2010PropOp41
 70
     1
102
RTVSPost2010Prop42
 90
       50
102
RTVSPost2010PropOp42
 70
     1
102
RTVSPost2010Prop43
 90
        3
102
RTVSPost2010PropOp43
 70
     1
102
RTVSPost2010Prop44ColorIndex
 90
        5
102
RTVSPost2010Prop44ColorRGB
 90
      255
102
RTVSPost2010PropOp44
 70
     1
102
RTVSPost2010Prop45
280
     0
102
RTVSPost2010PropOp45
 70
     1
102
RTVSPost2010Prop46
 90
       50
102
RTVSPost2010PropOp46
 70
     1
102
RTVSPost2010Prop47
 90
       50
102
RTVSPost2010PropOp47
 70
     1
102
RTVSPost2010Prop48
 90
       50
102
RTVSPost2010PropOp48
 70
     1
102
RTVSPost2010Prop49
280
     0
102
RTVSPost2010PropOp49
 70
     1
102
RTVSPost2010Prop50
 90
       50
102
RTVSPost2010PropOp50
 70
     1
102
RTVSPost2010Prop51ColorIndex
 90
      256
102
RTVSPost2010Prop51ColorRGB
 90
-16777216
102
RTVSPost2010PropOp51
 70
     0
102
RTVSPost2010Prop52
140
1.0
102
RTVSPost2010PropOp52
 70
     0
102
RTVSPost2010Prop53
 90
        2
102
RTVSPost2010PropOp53
 70
     1
102
RTVSPost2010Prop54
  1
strokes_ogs.tif
102
RTVSPost2010PropOp54
 70
     1
102
RTVSPost2010Prop55
280
     0
102
RTVSPost2010PropOp55
 70
     1
102
RTVSPost2010Prop56
140
1.0
102
RTVSPost2010PropOp56
 70
     1
102
RTVSPost2010Prop57
140
1.0
102
RTVSPost2010PropOp57
 70
     1
  0
XRECORD
  5
331D
102
{ACAD_REACTORS
330
331C
102
}
330
331C
100
AcDbXrecord
280
     1
102
RTVSPropertyOp0
 70
     1
102
RTVSPropertyOp1
 70
     1
102
RTVSPropertyOp2
 70
     1
102
RTVSPropertyOp3
 70
     1
102
RTVSPropertyOp4
 70
     1
102
RTVSPropertyOp5
 70
     1
102
RTVSPropertyOp6
 70
     1
102
RTVSPropertyOp7
 70
     1
102
RTVSPropertyOp8
 70
     1
102
RTVSPropertyOp9
 70
     1
102
RTVSPropertyOp10
 70
     1
102
RTVSPropertyOp11
 70
     1
102
RTVSPropertyOp12
 70
     1
102
RTVSPropertyOp13
 70
     1
102
RTVSPropertyOp14
 70
     1
102
RTVSPropertyOp15
 70
     1
102
RTVSPropertyOp16
 70
     1
102
RTVSPropertyOp17
 70
     1
102
RTVSPropertyOp18
 70
     1
102
RTVSPropertyOp19
 70
     1
102
RTVSPropertyOp20
 70
     1
102
RTVSPropertyOp21
 70
     1
102
RTVSPropertyOp22
 70
     1
102
RTVSPropertyOp23
 70
     1
102
RTVSPropertyOp24
 70
     1
102
RTVSPropertyOp25
 70
     1
102
RTVSPropertyOp26
 70
     1
102
RTVSPropertyOp27
 70
     1
102
RTVSPropertyOp28
 70
     1
102
RTVSPropertyOp29
 70
     1
102
RTVSPropertyOp30
 70
     1
102
RTVSPropertyOp31
 70
     1
102
RTVSPropertyOp32
 70
     1
102
RTVSPropertyOp33
 70
     1
102
RTVSPropertyOp34
 70
     1
102
RTVSPropertyOp35
 70
     1
102
RTVSPropertyOp36
 70
     1
102
RTVSPropertyOp37
 70
     1
102
RTVSPropertyOp38
 70
     1
102
RTVSPropertyOp39
 70
     1
102
RTVSPropertyOp40
 70
     1
102
RTVSPropertyOp41
 70
     1
102
RTVSPropertyOp42
 70
     1
102
RTVSPropertyOp43
 70
     1
102
RTVSPropertyOp44
 70
     1
102
RTVSPropertyOp45
 70
     1
102
RTVSPropertyOp46
 70
     1
102
RTVSPropertyOp47
 70
     1
102
RTVSPropertyOp48
 70
     1
102
RTVSPropertyOp49
 70
     1
102
RTVSPropertyOp50
 70
     1
102
RTVSPropertyOp51
 70
     0
102
RTVSPropertyOp52
 70
     0
102
RTVSPropertyOp53
 70
     1
102
RTVSPropertyOp54
 70
     1
102
RTVSPropertyOp55
 70
     1
102
RTVSPropertyOp56
 70
     1
102
RTVSPropertyOp57
 70
     1
102
RTVSPost2010Prop28
280
     0
102
RTVSPost2010PropOp28
 70
     1
102
RTVSPost2010Prop29
280
     1
102
RTVSPost2010PropOp29
 70
     1
102
RTVSPost2010Prop30
280
     1
102
RTVSPost2010PropOp30
 70
     1
102
RTVSPost2010Prop31
280
     0
102
RTVSPost2010PropOp31
 70
     1
102
RTVSPost2010Prop32
280
     0
102
RTVSPost2010PropOp32
 70
     1
102
RTVSPost2010Prop33
280
     0
102
RTVSPost2010PropOp33
 70
     1
102
RTVSPost2010Prop34
280
     0
102
RTVSPost2010PropOp34
 70
     1
102
RTVSPost2010Prop35
280
     0
102
RTVSPost2010PropOp35
 70
     1
102
RTVSPost2010Prop36
280
     0
102
RTVSPost2010PropOp36
 70
     1
102
RTVSPost2010Prop37
 90
       50
102
RTVSPost2010PropOp37
 70
     1
102
RTVSPost2010Prop38
140
0.0
102
RTVSPost2010PropOp38
 70
     1
102
RTVSPost2010Prop39
140
1.0
102
RTVSPost2010PropOp39
 70
     1
102
RTVSPost2010Prop40
 90
        0
102
RTVSPost2010PropOp40
 70
     1
102
RTVSPost2010Prop41ColorIndex
 90
       18
102
RTVSPost2010Prop41ColorRGB
 90
        0
102
RTVSPost2010PropOp41
 70
     1
102
RTVSPost2010Prop42
 90
       50
102
RTVSPost2010PropOp42
 70
     1
102
RTVSPost2010Prop43
 90
        3
102
RTVSPost2010PropOp43
 70
     1
102
RTVSPost2010Prop44ColorIndex
 90
        5
102
RTVSPost2010Prop44ColorRGB
 90
      255
102
RTVSPost2010PropOp44
 70
     1
102
RTVSPost2010Prop45
280
     0
102
RTVSPost2010PropOp45
 70
     1
102
RTVSPost2010Prop46
 90
       50
102
RTVSPost2010PropOp46
 70
     1
102
RTVSPost2010Prop47
 90
       50
102
RTVSPost2010PropOp47
 70
     1
102
RTVSPost2010Prop48
 90
       50
102
RTVSPost2010PropOp48
 70
     1
102
RTVSPost2010Prop49
280
     0
102
RTVSPost2010PropOp49
 70
     1
102
RTVSPost2010Prop50
 90
       50
102
RTVSPost2010PropOp50
 70
     1
102
RTVSPost2010Prop51ColorIndex
 90
      256
102
RTVSPost2010Prop51ColorRGB
 90
-16777216
102
RTVSPost2010PropOp51
 70
     0
102
RTVSPost2010Prop52
140
1.0
102
RTVSPost2010PropOp52
 70
     0
102
RTVSPost2010Prop53
 90
        2
102
RTVSPost2010PropOp53
 70
     1
102
RTVSPost2010Prop54
  1
strokes_ogs.tif
102
RTVSPost2010PropOp54
 70
     1
102
RTVSPost2010Prop55
280
     0
102
RTVSPost2010PropOp55
 70
     1
102
RTVSPost2010Prop56
140
1.0
102
RTVSPost2010PropOp56
 70
     1
102
RTVSPost2010Prop57
140
1.0
102
RTVSPost2010PropOp57
 70
     1
  0
XRECORD
  5
331F
102
{ACAD_REACTORS
330
331E
102
}
330
331E
100
AcDbXrecord
280
     1
102
RTVSPropertyOp0
 70
     1
102
RTVSPropertyOp1
 70
     1
102
RTVSPropertyOp2
 70
     1
102
RTVSPropertyOp3
 70
     1
102
RTVSPropertyOp4
 70
     1
102
RTVSPropertyOp5
 70
     1
102
RTVSPropertyOp6
 70
     1
102
RTVSPropertyOp7
 70
     1
102
RTVSPropertyOp8
 70
     1
102
RTVSPropertyOp9
 70
     1
102
RTVSPropertyOp10
 70
     1
102
RTVSPropertyOp11
 70
     1
102
RTVSPropertyOp12
 70
     1
102
RTVSPropertyOp13
 70
     1
102
RTVSPropertyOp14
 70
     1
102
RTVSPropertyOp15
 70
     1
102
RTVSPropertyOp16
 70
     1
102
RTVSPropertyOp17
 70
     1
102
RTVSPropertyOp18
 70
     1
102
RTVSPropertyOp19
 70
     1
102
RTVSPropertyOp20
 70
     1
102
RTVSPropertyOp21
 70
     1
102
RTVSPropertyOp22
 70
     1
102
RTVSPropertyOp23
 70
     1
102
RTVSPropertyOp24
 70
     1
102
RTVSPropertyOp25
 70
     1
102
RTVSPropertyOp26
 70
     1
102
RTVSPropertyOp27
 70
     1
102
RTVSPropertyOp28
 70
     1
102
RTVSPropertyOp29
 70
     1
102
RTVSPropertyOp30
 70
     1
102
RTVSPropertyOp31
 70
     1
102
RTVSPropertyOp32
 70
     1
102
RTVSPropertyOp33
 70
     1
102
RTVSPropertyOp34
 70
     1
102
RTVSPropertyOp35
 70
     1
102
RTVSPropertyOp36
 70
     1
102
RTVSPropertyOp37
 70
     1
102
RTVSPropertyOp38
 70
     1
102
RTVSPropertyOp39
 70
     1
102
RTVSPropertyOp40
 70
     1
102
RTVSPropertyOp41
 70
     1
102
RTVSPropertyOp42
 70
     1
102
RTVSPropertyOp43
 70
     1
102
RTVSPropertyOp44
 70
     1
102
RTVSPropertyOp45
 70
     1
102
RTVSPropertyOp46
 70
     1
102
RTVSPropertyOp47
 70
     1
102
RTVSPropertyOp48
 70
     1
102
RTVSPropertyOp49
 70
     1
102
RTVSPropertyOp50
 70
     1
102
RTVSPropertyOp51
 70
     0
102
RTVSPropertyOp52
 70
     0
102
RTVSPropertyOp53
 70
     1
102
RTVSPropertyOp54
 70
     1
102
RTVSPropertyOp55
 70
     1
102
RTVSPropertyOp56
 70
     1
102
RTVSPropertyOp57
 70
     1
102
RTVSPost2010Prop28
280
     0
102
RTVSPost2010PropOp28
 70
     1
102
RTVSPost2010Prop29
280
     1
102
RTVSPost2010PropOp29
 70
     1
102
RTVSPost2010Prop30
280
     1
102
RTVSPost2010PropOp30
 70
     1
102
RTVSPost2010Prop31
280
     0
102
RTVSPost2010PropOp31
 70
     1
102
RTVSPost2010Prop32
280
     0
102
RTVSPost2010PropOp32
 70
     1
102
RTVSPost2010Prop33
280
     0
102
RTVSPost2010PropOp33
 70
     1
102
RTVSPost2010Prop34
280
     0
102
RTVSPost2010PropOp34
 70
     1
102
RTVSPost2010Prop35
280
     0
102
RTVSPost2010PropOp35
 70
     1
102
RTVSPost2010Prop36
280
     0
102
RTVSPost2010PropOp36
 70
     1
102
RTVSPost2010Prop37
 90
       50
102
RTVSPost2010PropOp37
 70
     1
102
RTVSPost2010Prop38
140
0.0
102
RTVSPost2010PropOp38
 70
     1
102
RTVSPost2010Prop39
140
1.0
102
RTVSPost2010PropOp39
 70
     1
102
RTVSPost2010Prop40
 90
        0
102
RTVSPost2010PropOp40
 70
     1
102
RTVSPost2010Prop41ColorIndex
 90
       18
102
RTVSPost2010Prop41ColorRGB
 90
        0
102
RTVSPost2010PropOp41
 70
     1
102
RTVSPost2010Prop42
 90
       50
102
RTVSPost2010PropOp42
 70
     1
102
RTVSPost2010Prop43
 90
        3
102
RTVSPost2010PropOp43
 70
     1
102
RTVSPost2010Prop44ColorIndex
 90
        5
102
RTVSPost2010Prop44ColorRGB
 90
      255
102
RTVSPost2010PropOp44
 70
     1
102
RTVSPost2010Prop45
280
     0
102
RTVSPost2010PropOp45
 70
     1
102
RTVSPost2010Prop46
 90
       50
102
RTVSPost2010PropOp46
 70
     1
102
RTVSPost2010Prop47
 90
       50
102
RTVSPost2010PropOp47
 70
     1
102
RTVSPost2010Prop48
 90
       50
102
RTVSPost2010PropOp48
 70
     1
102
RTVSPost2010Prop49
280
     0
102
RTVSPost2010PropOp49
 70
     1
102
RTVSPost2010Prop50
 90
       50
102
RTVSPost2010PropOp50
 70
     1
102
RTVSPost2010Prop51ColorIndex
 90
      256
102
RTVSPost2010Prop51ColorRGB
 90
-16777216
102
RTVSPost2010PropOp51
 70
     0
102
RTVSPost2010Prop52
140
1.0
102
RTVSPost2010PropOp52
 70
     0
102
RTVSPost2010Prop53
 90
        2
102
RTVSPost2010PropOp53
 70
     1
102
RTVSPost2010Prop54
  1
strokes_ogs.tif
102
RTVSPost2010PropOp54
 70
     1
102
RTVSPost2010Prop55
280
     0
102
RTVSPost2010PropOp55
 70
     1
102
RTVSPost2010Prop56
140
1.0
102
RTVSPost2010PropOp56
 70
     1
102
RTVSPost2010Prop57
140
1.0
102
RTVSPost2010PropOp57
 70
     1
  0
XRECORD
  5
3329
102
{ACAD_REACTORS
330
3328
102
}
330
3328
100
AcDbXrecord
280
     1
102
RTVSPropertyOp0
 70
     1
102
RTVSPropertyOp1
 70
     1
102
RTVSPropertyOp2
 70
     1
102
RTVSPropertyOp3
 70
     1
102
RTVSPropertyOp4
 70
     1
102
RTVSPropertyOp5
 70
     1
102
RTVSPropertyOp6
 70
     1
102
RTVSPropertyOp7
 70
     1
102
RTVSPropertyOp8
 70
     1
102
RTVSPropertyOp9
 70
     1
102
RTVSPropertyOp10
 70
     1
102
RTVSPropertyOp11
 70
     1
102
RTVSPropertyOp12
 70
     1
102
RTVSPropertyOp13
 70
     1
102
RTVSPropertyOp14
 70
     1
102
RTVSPropertyOp15
 70
     1
102
RTVSPropertyOp16
 70
     1
102
RTVSPropertyOp17
 70
     1
102
RTVSPropertyOp18
 70
     1
102
RTVSPropertyOp19
 70
     1
102
RTVSPropertyOp20
 70
     1
102
RTVSPropertyOp21
 70
     1
102
RTVSPropertyOp22
 70
     1
102
RTVSPropertyOp23
 70
     1
102
RTVSPropertyOp24
 70
     1
102
RTVSPropertyOp25
 70
     1
102
RTVSPropertyOp26
 70
     1
102
RTVSPropertyOp27
 70
     1
102
RTVSPropertyOp28
 70
     1
102
RTVSPropertyOp29
 70
     1
102
RTVSPropertyOp30
 70
     1
102
RTVSPropertyOp31
 70
     1
102
RTVSPropertyOp32
 70
     1
102
RTVSPropertyOp33
 70
     1
102
RTVSPropertyOp34
 70
     1
102
RTVSPropertyOp35
 70
     1
102
RTVSPropertyOp36
 70
     1
102
RTVSPropertyOp37
 70
     1
102
RTVSPropertyOp38
 70
     1
102
RTVSPropertyOp39
 70
     1
102
RTVSPropertyOp40
 70
     1
102
RTVSPropertyOp41
 70
     1
102
RTVSPropertyOp42
 70
     1
102
RTVSPropertyOp43
 70
     1
102
RTVSPropertyOp44
 70
     1
102
RTVSPropertyOp45
 70
     1
102
RTVSPropertyOp46
 70
     1
102
RTVSPropertyOp47
 70
     1
102
RTVSPropertyOp48
 70
     1
102
RTVSPropertyOp49
 70
     1
102
RTVSPropertyOp50
 70
     1
102
RTVSPropertyOp51
 70
     0
102
RTVSPropertyOp52
 70
     0
102
RTVSPropertyOp53
 70
     1
102
RTVSPropertyOp54
 70
     1
102
RTVSPropertyOp55
 70
     1
102
RTVSPropertyOp56
 70
     1
102
RTVSPropertyOp57
 70
     1
102
RTVSPost2010Prop28
280
     0
102
RTVSPost2010PropOp28
 70
     1
102
RTVSPost2010Prop29
280
     1
102
RTVSPost2010PropOp29
 70
     1
102
RTVSPost2010Prop30
280
     1
102
RTVSPost2010PropOp30
 70
     1
102
RTVSPost2010Prop31
280
     0
102
RTVSPost2010PropOp31
 70
     1
102
RTVSPost2010Prop32
280
     0
102
RTVSPost2010PropOp32
 70
     1
102
RTVSPost2010Prop33
280
     0
102
RTVSPost2010PropOp33
 70
     1
102
RTVSPost2010Prop34
280
     0
102
RTVSPost2010PropOp34
 70
     1
102
RTVSPost2010Prop35
280
     0
102
RTVSPost2010PropOp35
 70
     1
102
RTVSPost2010Prop36
280
     0
102
RTVSPost2010PropOp36
 70
     1
102
RTVSPost2010Prop37
 90
       50
102
RTVSPost2010PropOp37
 70
     1
102
RTVSPost2010Prop38
140
0.0
102
RTVSPost2010PropOp38
 70
     1
102
RTVSPost2010Prop39
140
1.0
102
RTVSPost2010PropOp39
 70
     1
102
RTVSPost2010Prop40
 90
        0
102
RTVSPost2010PropOp40
 70
     1
102
RTVSPost2010Prop41ColorIndex
 90
       18
102
RTVSPost2010Prop41ColorRGB
 90
        0
102
RTVSPost2010PropOp41
 70
     1
102
RTVSPost2010Prop42
 90
       50
102
RTVSPost2010PropOp42
 70
     1
102
RTVSPost2010Prop43
 90
        3
102
RTVSPost2010PropOp43
 70
     1
102
RTVSPost2010Prop44ColorIndex
 90
        5
102
RTVSPost2010Prop44ColorRGB
 90
      255
102
RTVSPost2010PropOp44
 70
     1
102
RTVSPost2010Prop45
280
     0
102
RTVSPost2010PropOp45
 70
     1
102
RTVSPost2010Prop46
 90
       50
102
RTVSPost2010PropOp46
 70
     1
102
RTVSPost2010Prop47
 90
       50
102
RTVSPost2010PropOp47
 70
     1
102
RTVSPost2010Prop48
 90
       50
102
RTVSPost2010PropOp48
 70
     1
102
RTVSPost2010Prop49
280
     0
102
RTVSPost2010PropOp49
 70
     1
102
RTVSPost2010Prop50
 90
       50
102
RTVSPost2010PropOp50
 70
     1
102
RTVSPost2010Prop51ColorIndex
 90
      256
102
RTVSPost2010Prop51ColorRGB
 90
-16777216
102
RTVSPost2010PropOp51
 70
     0
102
RTVSPost2010Prop52
140
1.0
102
RTVSPost2010PropOp52
 70
     0
102
RTVSPost2010Prop53
 90
        2
102
RTVSPost2010PropOp53
 70
     1
102
RTVSPost2010Prop54
  1
strokes_ogs.tif
102
RTVSPost2010PropOp54
 70
     1
102
RTVSPost2010Prop55
280
     0
102
RTVSPost2010PropOp55
 70
     1
102
RTVSPost2010Prop56
140
1.0
102
RTVSPost2010PropOp56
 70
     1
102
RTVSPost2010Prop57
140
1.0
102
RTVSPost2010PropOp57
 70
     1
  0
XRECORD
  5
332B
102
{ACAD_REACTORS
330
332A
102
}
330
332A
100
AcDbXrecord
280
     1
102
RTVSPropertyOp0
 70
     0
102
RTVSPropertyOp1
 70
     0
102
RTVSPropertyOp2
 70
     0
102
RTVSPropertyOp3
 70
     0
102
RTVSPropertyOp4
 70
     0
102
RTVSPropertyOp5
 70
     0
102
RTVSPropertyOp6
 70
     0
102
RTVSPropertyOp7
 70
     0
102
RTVSPropertyOp8
 70
     0
102
RTVSPropertyOp9
 70
     0
102
RTVSPropertyOp10
 70
     0
102
RTVSPropertyOp11
 70
     0
102
RTVSPropertyOp12
 70
     0
102
RTVSPropertyOp13
 70
     0
102
RTVSPropertyOp14
 70
     2
102
RTVSPropertyOp15
 70
     0
102
RTVSPropertyOp16
 70
     0
102
RTVSPropertyOp17
 70
     0
102
RTVSPropertyOp18
 70
     0
102
RTVSPropertyOp19
 70
     0
102
RTVSPropertyOp20
 70
     0
102
RTVSPropertyOp21
 70
     0
102
RTVSPropertyOp22
 70
     0
102
RTVSPropertyOp23
 70
     0
102
RTVSPropertyOp24
 70
     0
102
RTVSPropertyOp25
 70
     0
102
RTVSPropertyOp26
 70
     0
102
RTVSPropertyOp27
 70
     0
102
RTVSPropertyOp28
 70
     0
102
RTVSPropertyOp29
 70
     0
102
RTVSPropertyOp30
 70
     0
102
RTVSPropertyOp31
 70
     0
102
RTVSPropertyOp32
 70
     0
102
RTVSPropertyOp33
 70
     0
102
RTVSPropertyOp34
 70
     0
102
RTVSPropertyOp35
 70
     0
102
RTVSPropertyOp36
 70
     0
102
RTVSPropertyOp37
 70
     0
102
RTVSPropertyOp38
 70
     0
102
RTVSPropertyOp39
 70
     0
102
RTVSPropertyOp40
 70
     0
102
RTVSPropertyOp41
 70
     0
102
RTVSPropertyOp42
 70
     0
102
RTVSPropertyOp43
 70
     0
102
RTVSPropertyOp44
 70
     0
102
RTVSPropertyOp45
 70
     0
102
RTVSPropertyOp46
 70
     0
102
RTVSPropertyOp47
 70
     0
102
RTVSPropertyOp48
 70
     0
102
RTVSPropertyOp49
 70
     0
102
RTVSPropertyOp50
 70
     0
102
RTVSPropertyOp51
 70
     0
102
RTVSPropertyOp52
 70
     0
102
RTVSPropertyOp53
 70
     0
102
RTVSPropertyOp54
 70
     0
102
RTVSPropertyOp55
 70
     0
102
RTVSPropertyOp56
 70
     0
102
RTVSPropertyOp57
 70
     0
102
RTVSPost2010Prop28
280
     0
102
RTVSPost2010PropOp28
 70
     0
102
RTVSPost2010Prop29
280
     1
102
RTVSPost2010PropOp29
 70
     0
102
RTVSPost2010Prop30
280
     1
102
RTVSPost2010PropOp30
 70
     0
102
RTVSPost2010Prop31
280
     0
102
RTVSPost2010PropOp31
 70
     0
102
RTVSPost2010Prop32
280
     0
102
RTVSPost2010PropOp32
 70
     0
102
RTVSPost2010Prop33
280
     0
102
RTVSPost2010PropOp33
 70
     0
102
RTVSPost2010Prop34
280
     0
102
RTVSPost2010PropOp34
 70
     0
102
RTVSPost2010Prop35
280
     0
102
RTVSPost2010PropOp35
 70
     0
102
RTVSPost2010Prop36
280
     0
102
RTVSPost2010PropOp36
 70
     0
102
RTVSPost2010Prop37
 90
       50
102
RTVSPost2010PropOp37
 70
     0
102
RTVSPost2010Prop38
140
0.0
102
RTVSPost2010PropOp38
 70
     0
102
RTVSPost2010Prop39
140
1.0
102
RTVSPost2010PropOp39
 70
     0
102
RTVSPost2010Prop40
 90
        0
102
RTVSPost2010PropOp40
 70
     0
102
RTVSPost2010Prop41ColorIndex
 90
       18
102
RTVSPost2010Prop41ColorRGB
 90
        0
102
RTVSPost2010PropOp41
 70
     0
102
RTVSPost2010Prop42
 90
       50
102
RTVSPost2010PropOp42
 70
     0
102
RTVSPost2010Prop43
 90
        3
102
RTVSPost2010PropOp43
 70
     0
102
RTVSPost2010Prop44ColorIndex
 90
        5
102
RTVSPost2010Prop44ColorRGB
 90
      255
102
RTVSPost2010PropOp44
 70
     0
102
RTVSPost2010Prop45
280
     0
102
RTVSPost2010PropOp45
 70
     0
102
RTVSPost2010Prop46
 90
       50
102
RTVSPost2010PropOp46
 70
     0
102
RTVSPost2010Prop47
 90
       50
102
RTVSPost2010PropOp47
 70
     0
102
RTVSPost2010Prop48
 90
       50
102
RTVSPost2010PropOp48
 70
     0
102
RTVSPost2010Prop49
280
     0
102
RTVSPost2010PropOp49
 70
     0
102
RTVSPost2010Prop50
 90
       50
102
RTVSPost2010PropOp50
 70
     0
102
RTVSPost2010Prop51ColorIndex
 90
      256
102
RTVSPost2010Prop51ColorRGB
 90
-16777216
102
RTVSPost2010PropOp51
 70
     0
102
RTVSPost2010Prop52
140
1.0
102
RTVSPost2010PropOp52
 70
     0
102
RTVSPost2010Prop53
 90
        2
102
RTVSPost2010PropOp53
 70
     0
102
RTVSPost2010Prop54
  1
strokes_ogs.tif
102
RTVSPost2010PropOp54
 70
     0
102
RTVSPost2010Prop55
280
     0
102
RTVSPost2010PropOp55
 70
     0
102
RTVSPost2010Prop56
140
1.0
102
RTVSPost2010PropOp56
 70
     0
102
RTVSPost2010Prop57
140
1.0
102
RTVSPost2010PropOp57
 70
     0
  0
XRECORD
  5
3321
102
{ACAD_REACTORS
330
3320
102
}
330
3320
100
AcDbXrecord
280
     1
102
RTVSPropertyOp0
 70
     1
102
RTVSPropertyOp1
 70
     1
102
RTVSPropertyOp2
 70
     1
102
RTVSPropertyOp3
 70
     1
102
RTVSPropertyOp4
 70
     1
102
RTVSPropertyOp5
 70
     1
102
RTVSPropertyOp6
 70
     1
102
RTVSPropertyOp7
 70
     1
102
RTVSPropertyOp8
 70
     1
102
RTVSPropertyOp9
 70
     1
102
RTVSPropertyOp10
 70
     1
102
RTVSPropertyOp11
 70
     1
102
RTVSPropertyOp12
 70
     1
102
RTVSPropertyOp13
 70
     1
102
RTVSPropertyOp14
 70
     1
102
RTVSPropertyOp15
 70
     1
102
RTVSPropertyOp16
 70
     1
102
RTVSPropertyOp17
 70
     1
102
RTVSPropertyOp18
 70
     1
102
RTVSPropertyOp19
 70
     1
102
RTVSPropertyOp20
 70
     1
102
RTVSPropertyOp21
 70
     1
102
RTVSPropertyOp22
 70
     1
102
RTVSPropertyOp23
 70
     1
102
RTVSPropertyOp24
 70
     1
102
RTVSPropertyOp25
 70
     1
102
RTVSPropertyOp26
 70
     1
102
RTVSPropertyOp27
 70
     1
102
RTVSPropertyOp28
 70
     1
102
RTVSPropertyOp29
 70
     1
102
RTVSPropertyOp30
 70
     1
102
RTVSPropertyOp31
 70
     1
102
RTVSPropertyOp32
 70
     1
102
RTVSPropertyOp33
 70
     1
102
RTVSPropertyOp34
 70
     1
102
RTVSPropertyOp35
 70
     1
102
RTVSPropertyOp36
 70
     1
102
RTVSPropertyOp37
 70
     1
102
RTVSPropertyOp38
 70
     1
102
RTVSPropertyOp39
 70
     1
102
RTVSPropertyOp40
 70
     1
102
RTVSPropertyOp41
 70
     1
102
RTVSPropertyOp42
 70
     1
102
RTVSPropertyOp43
 70
     1
102
RTVSPropertyOp44
 70
     1
102
RTVSPropertyOp45
 70
     1
102
RTVSPropertyOp46
 70
     1
102
RTVSPropertyOp47
 70
     1
102
RTVSPropertyOp48
 70
     1
102
RTVSPropertyOp49
 70
     1
102
RTVSPropertyOp50
 70
     1
102
RTVSPropertyOp51
 70
     0
102
RTVSPropertyOp52
 70
     0
102
RTVSPropertyOp53
 70
     1
102
RTVSPropertyOp54
 70
     1
102
RTVSPropertyOp55
 70
     1
102
RTVSPropertyOp56
 70
     1
102
RTVSPropertyOp57
 70
     1
102
RTVSPost2010Prop28
280
     0
102
RTVSPost2010PropOp28
 70
     1
102
RTVSPost2010Prop29
280
     1
102
RTVSPost2010PropOp29
 70
     1
102
RTVSPost2010Prop30
280
     1
102
RTVSPost2010PropOp30
 70
     1
102
RTVSPost2010Prop31
280
     0
102
RTVSPost2010PropOp31
 70
     1
102
RTVSPost2010Prop32
280
     0
102
RTVSPost2010PropOp32
 70
     1
102
RTVSPost2010Prop33
280
     0
102
RTVSPost2010PropOp33
 70
     1
102
RTVSPost2010Prop34
280
     0
102
RTVSPost2010PropOp34
 70
     1
102
RTVSPost2010Prop35
280
     0
102
RTVSPost2010PropOp35
 70
     1
102
RTVSPost2010Prop36
280
     0
102
RTVSPost2010PropOp36
 70
     1
102
RTVSPost2010Prop37
 90
       50
102
RTVSPost2010PropOp37
 70
     1
102
RTVSPost2010Prop38
140
0.0
102
RTVSPost2010PropOp38
 70
     1
102
RTVSPost2010Prop39
140
1.0
102
RTVSPost2010PropOp39
 70
     1
102
RTVSPost2010Prop40
 90
        0
102
RTVSPost2010PropOp40
 70
     1
102
RTVSPost2010Prop41ColorIndex
 90
       18
102
RTVSPost2010Prop41ColorRGB
 90
        0
102
RTVSPost2010PropOp41
 70
     1
102
RTVSPost2010Prop42
 90
       50
102
RTVSPost2010PropOp42
 70
     1
102
RTVSPost2010Prop43
 90
        3
102
RTVSPost2010PropOp43
 70
     1
102
RTVSPost2010Prop44ColorIndex
 90
        5
102
RTVSPost2010Prop44ColorRGB
 90
      255
102
RTVSPost2010PropOp44
 70
     1
102
RTVSPost2010Prop45
280
     0
102
RTVSPost2010PropOp45
 70
     1
102
RTVSPost2010Prop46
 90
       50
102
RTVSPost2010PropOp46
 70
     1
102
RTVSPost2010Prop47
 90
       50
102
RTVSPost2010PropOp47
 70
     1
102
RTVSPost2010Prop48
 90
       50
102
RTVSPost2010PropOp48
 70
     1
102
RTVSPost2010Prop49
280
     0
102
RTVSPost2010PropOp49
 70
     1
102
RTVSPost2010Prop50
 90
       50
102
RTVSPost2010PropOp50
 70
     1
102
RTVSPost2010Prop51ColorIndex
 90
      256
102
RTVSPost2010Prop51ColorRGB
 90
-16777216
102
RTVSPost2010PropOp51
 70
     0
102
RTVSPost2010Prop52
140
1.0
102
RTVSPost2010PropOp52
 70
     0
102
RTVSPost2010Prop53
 90
        2
102
RTVSPost2010PropOp53
 70
     1
102
RTVSPost2010Prop54
  1
strokes_ogs.tif
102
RTVSPost2010PropOp54
 70
     1
102
RTVSPost2010Prop55
280
     0
102
RTVSPost2010PropOp55
 70
     1
102
RTVSPost2010Prop56
140
1.0
102
RTVSPost2010PropOp56
 70
     1
102
RTVSPost2010Prop57
140
1.0
102
RTVSPost2010PropOp57
 70
     1
  0
XRECORD
  5
332D
102
{ACAD_REACTORS
330
332C
102
}
330
332C
100
AcDbXrecord
280
     1
102
RTVSPropertyOp0
 70
     0
102
RTVSPropertyOp1
 70
     0
102
RTVSPropertyOp2
 70
     0
102
RTVSPropertyOp3
 70
     0
102
RTVSPropertyOp4
 70
     0
102
RTVSPropertyOp5
 70
     0
102
RTVSPropertyOp6
 70
     0
102
RTVSPropertyOp7
 70
     0
102
RTVSPropertyOp8
 70
     0
102
RTVSPropertyOp9
 70
     0
102
RTVSPropertyOp10
 70
     0
102
RTVSPropertyOp11
 70
     0
102
RTVSPropertyOp12
 70
     0
102
RTVSPropertyOp13
 70
     0
102
RTVSPropertyOp14
 70
     2
102
RTVSPropertyOp15
 70
     0
102
RTVSPropertyOp16
 70
     0
102
RTVSPropertyOp17
 70
     0
102
RTVSPropertyOp18
 70
     0
102
RTVSPropertyOp19
 70
     0
102
RTVSPropertyOp20
 70
     0
102
RTVSPropertyOp21
 70
     0
102
RTVSPropertyOp22
 70
     0
102
RTVSPropertyOp23
 70
     0
102
RTVSPropertyOp24
 70
     0
102
RTVSPropertyOp25
 70
     0
102
RTVSPropertyOp26
 70
     0
102
RTVSPropertyOp27
 70
     0
102
RTVSPropertyOp28
 70
     0
102
RTVSPropertyOp29
 70
     0
102
RTVSPropertyOp30
 70
     0
102
RTVSPropertyOp31
 70
     0
102
RTVSPropertyOp32
 70
     0
102
RTVSPropertyOp33
 70
     0
102
RTVSPropertyOp34
 70
     0
102
RTVSPropertyOp35
 70
     0
102
RTVSPropertyOp36
 70
     0
102
RTVSPropertyOp37
 70
     0
102
RTVSPropertyOp38
 70
     0
102
RTVSPropertyOp39
 70
     0
102
RTVSPropertyOp40
 70
     0
102
RTVSPropertyOp41
 70
     0
102
RTVSPropertyOp42
 70
     0
102
RTVSPropertyOp43
 70
     0
102
RTVSPropertyOp44
 70
     0
102
RTVSPropertyOp45
 70
     0
102
RTVSPropertyOp46
 70
     0
102
RTVSPropertyOp47
 70
     0
102
RTVSPropertyOp48
 70
     0
102
RTVSPropertyOp49
 70
     0
102
RTVSPropertyOp50
 70
     0
102
RTVSPropertyOp51
 70
     0
102
RTVSPropertyOp52
 70
     0
102
RTVSPropertyOp53
 70
     0
102
RTVSPropertyOp54
 70
     0
102
RTVSPropertyOp55
 70
     0
102
RTVSPropertyOp56
 70
     0
102
RTVSPropertyOp57
 70
     0
102
RTVSPost2010Prop28
280
     0
102
RTVSPost2010PropOp28
 70
     0
102
RTVSPost2010Prop29
280
     1
102
RTVSPost2010PropOp29
 70
     0
102
RTVSPost2010Prop30
280
     1
102
RTVSPost2010PropOp30
 70
     0
102
RTVSPost2010Prop31
280
     0
102
RTVSPost2010PropOp31
 70
     0
102
RTVSPost2010Prop32
280
     0
102
RTVSPost2010PropOp32
 70
     0
102
RTVSPost2010Prop33
280
     0
102
RTVSPost2010PropOp33
 70
     0
102
RTVSPost2010Prop34
280
     0
102
RTVSPost2010PropOp34
 70
     0
102
RTVSPost2010Prop35
280
     0
102
RTVSPost2010PropOp35
 70
     0
102
RTVSPost2010Prop36
280
     0
102
RTVSPost2010PropOp36
 70
     0
102
RTVSPost2010Prop37
 90
       50
102
RTVSPost2010PropOp37
 70
     0
102
RTVSPost2010Prop38
140
0.0
102
RTVSPost2010PropOp38
 70
     0
102
RTVSPost2010Prop39
140
1.0
102
RTVSPost2010PropOp39
 70
     0
102
RTVSPost2010Prop40
 90
        0
102
RTVSPost2010PropOp40
 70
     0
102
RTVSPost2010Prop41ColorIndex
 90
       18
102
RTVSPost2010Prop41ColorRGB
 90
        0
102
RTVSPost2010PropOp41
 70
     0
102
RTVSPost2010Prop42
 90
       50
102
RTVSPost2010PropOp42
 70
     0
102
RTVSPost2010Prop43
 90
        3
102
RTVSPost2010PropOp43
 70
     0
102
RTVSPost2010Prop44ColorIndex
 90
        5
102
RTVSPost2010Prop44ColorRGB
 90
      255
102
RTVSPost2010PropOp44
 70
     0
102
RTVSPost2010Prop45
280
     0
102
RTVSPost2010PropOp45
 70
     0
102
RTVSPost2010Prop46
 90
       50
102
RTVSPost2010PropOp46
 70
     0
102
RTVSPost2010Prop47
 90
       50
102
RTVSPost2010PropOp47
 70
     0
102
RTVSPost2010Prop48
 90
       50
102
RTVSPost2010PropOp48
 70
     0
102
RTVSPost2010Prop49
280
     0
102
RTVSPost2010PropOp49
 70
     0
102
RTVSPost2010Prop50
 90
       50
102
RTVSPost2010PropOp50
 70
     0
102
RTVSPost2010Prop51ColorIndex
 90
      256
102
RTVSPost2010Prop51ColorRGB
 90
-16777216
102
RTVSPost2010PropOp51
 70
     0
102
RTVSPost2010Prop52
140
1.0
102
RTVSPost2010PropOp52
 70
     0
102
RTVSPost2010Prop53
 90
        2
102
RTVSPost2010PropOp53
 70
     0
102
RTVSPost2010Prop54
  1
strokes_ogs.tif
102
RTVSPost2010PropOp54
 70
     0
102
RTVSPost2010Prop55
280
     0
102
RTVSPost2010PropOp55
 70
     0
102
RTVSPost2010Prop56
140
1.0
102
RTVSPost2010PropOp56
 70
     0
102
RTVSPost2010Prop57
140
1.0
102
RTVSPost2010PropOp57
 70
     0
  0
XRECORD
  5
3323
102
{ACAD_REACTORS
330
3322
102
}
330
3322
100
AcDbXrecord
280
     1
102
RTVSPropertyOp0
 70
     1
102
RTVSPropertyOp1
 70
     1
102
RTVSPropertyOp2
 70
     1
102
RTVSPropertyOp3
 70
     1
102
RTVSPropertyOp4
 70
     1
102
RTVSPropertyOp5
 70
     1
102
RTVSPropertyOp6
 70
     1
102
RTVSPropertyOp7
 70
     1
102
RTVSPropertyOp8
 70
     1
102
RTVSPropertyOp9
 70
     1
102
RTVSPropertyOp10
 70
     1
102
RTVSPropertyOp11
 70
     1
102
RTVSPropertyOp12
 70
     1
102
RTVSPropertyOp13
 70
     1
102
RTVSPropertyOp14
 70
     1
102
RTVSPropertyOp15
 70
     1
102
RTVSPropertyOp16
 70
     1
102
RTVSPropertyOp17
 70
     1
102
RTVSPropertyOp18
 70
     1
102
RTVSPropertyOp19
 70
     1
102
RTVSPropertyOp20
 70
     1
102
RTVSPropertyOp21
 70
     1
102
RTVSPropertyOp22
 70
     1
102
RTVSPropertyOp23
 70
     1
102
RTVSPropertyOp24
 70
     1
102
RTVSPropertyOp25
 70
     1
102
RTVSPropertyOp26
 70
     1
102
RTVSPropertyOp27
 70
     1
102
RTVSPropertyOp28
 70
     1
102
RTVSPropertyOp29
 70
     1
102
RTVSPropertyOp30
 70
     1
102
RTVSPropertyOp31
 70
     1
102
RTVSPropertyOp32
 70
     1
102
RTVSPropertyOp33
 70
     1
102
RTVSPropertyOp34
 70
     1
102
RTVSPropertyOp35
 70
     1
102
RTVSPropertyOp36
 70
     1
102
RTVSPropertyOp37
 70
     1
102
RTVSPropertyOp38
 70
     1
102
RTVSPropertyOp39
 70
     1
102
RTVSPropertyOp40
 70
     1
102
RTVSPropertyOp41
 70
     1
102
RTVSPropertyOp42
 70
     1
102
RTVSPropertyOp43
 70
     1
102
RTVSPropertyOp44
 70
     1
102
RTVSPropertyOp45
 70
     1
102
RTVSPropertyOp46
 70
     1
102
RTVSPropertyOp47
 70
     1
102
RTVSPropertyOp48
 70
     1
102
RTVSPropertyOp49
 70
     1
102
RTVSPropertyOp50
 70
     1
102
RTVSPropertyOp51
 70
     0
102
RTVSPropertyOp52
 70
     0
102
RTVSPropertyOp53
 70
     1
102
RTVSPropertyOp54
 70
     1
102
RTVSPropertyOp55
 70
     1
102
RTVSPropertyOp56
 70
     1
102
RTVSPropertyOp57
 70
     1
102
RTVSPost2010Prop28
280
     0
102
RTVSPost2010PropOp28
 70
     1
102
RTVSPost2010Prop29
280
     1
102
RTVSPost2010PropOp29
 70
     1
102
RTVSPost2010Prop30
280
     1
102
RTVSPost2010PropOp30
 70
     1
102
RTVSPost2010Prop31
280
     0
102
RTVSPost2010PropOp31
 70
     1
102
RTVSPost2010Prop32
280
     0
102
RTVSPost2010PropOp32
 70
     1
102
RTVSPost2010Prop33
280
     0
102
RTVSPost2010PropOp33
 70
     1
102
RTVSPost2010Prop34
280
     0
102
RTVSPost2010PropOp34
 70
     1
102
RTVSPost2010Prop35
280
     0
102
RTVSPost2010PropOp35
 70
     1
102
RTVSPost2010Prop36
280
     0
102
RTVSPost2010PropOp36
 70
     1
102
RTVSPost2010Prop37
 90
       50
102
RTVSPost2010PropOp37
 70
     1
102
RTVSPost2010Prop38
140
0.0
102
RTVSPost2010PropOp38
 70
     1
102
RTVSPost2010Prop39
140
1.0
102
RTVSPost2010PropOp39
 70
     1
102
RTVSPost2010Prop40
 90
        0
102
RTVSPost2010PropOp40
 70
     1
102
RTVSPost2010Prop41ColorIndex
 90
       18
102
RTVSPost2010Prop41ColorRGB
 90
        0
102
RTVSPost2010PropOp41
 70
     1
102
RTVSPost2010Prop42
 90
       50
102
RTVSPost2010PropOp42
 70
     1
102
RTVSPost2010Prop43
 90
        3
102
RTVSPost2010PropOp43
 70
     1
102
RTVSPost2010Prop44ColorIndex
 90
        5
102
RTVSPost2010Prop44ColorRGB
 90
      255
102
RTVSPost2010PropOp44
 70
     1
102
RTVSPost2010Prop45
280
     0
102
RTVSPost2010PropOp45
 70
     1
102
RTVSPost2010Prop46
 90
       50
102
RTVSPost2010PropOp46
 70
     1
102
RTVSPost2010Prop47
 90
       50
102
RTVSPost2010PropOp47
 70
     1
102
RTVSPost2010Prop48
 90
       50
102
RTVSPost2010PropOp48
 70
     1
102
RTVSPost2010Prop49
280
     0
102
RTVSPost2010PropOp49
 70
     1
102
RTVSPost2010Prop50
 90
       50
102
RTVSPost2010PropOp50
 70
     1
102
RTVSPost2010Prop51ColorIndex
 90
      256
102
RTVSPost2010Prop51ColorRGB
 90
-16777216
102
RTVSPost2010PropOp51
 70
     0
102
RTVSPost2010Prop52
140
1.0
102
RTVSPost2010PropOp52
 70
     0
102
RTVSPost2010Prop53
 90
        2
102
RTVSPost2010PropOp53
 70
     1
102
RTVSPost2010Prop54
  1
strokes_ogs.tif
102
RTVSPost2010PropOp54
 70
     1
102
RTVSPost2010Prop55
280
     0
102
RTVSPost2010PropOp55
 70
     1
102
RTVSPost2010Prop56
140
1.0
102
RTVSPost2010PropOp56
 70
     1
102
RTVSPost2010Prop57
140
1.0
102
RTVSPost2010PropOp57
 70
     1
  0
XRECORD
  5
3339
102
{ACAD_REACTORS
330
3338
102
}
330
3338
100
AcDbXrecord
280
     1
102
RTVSPropertyOp0
 70
     1
102
RTVSPropertyOp1
 70
     1
102
RTVSPropertyOp2
 70
     1
102
RTVSPropertyOp3
 70
     1
102
RTVSPropertyOp4
 70
     1
102
RTVSPropertyOp5
 70
     1
102
RTVSPropertyOp6
 70
     1
102
RTVSPropertyOp7
 70
     1
102
RTVSPropertyOp8
 70
     1
102
RTVSPropertyOp9
 70
     1
102
RTVSPropertyOp10
 70
     1
102
RTVSPropertyOp11
 70
     1
102
RTVSPropertyOp12
 70
     1
102
RTVSPropertyOp13
 70
     1
102
RTVSPropertyOp14
 70
     1
102
RTVSPropertyOp15
 70
     1
102
RTVSPropertyOp16
 70
     1
102
RTVSPropertyOp17
 70
     1
102
RTVSPropertyOp18
 70
     1
102
RTVSPropertyOp19
 70
     1
102
RTVSPropertyOp20
 70
     1
102
RTVSPropertyOp21
 70
     1
102
RTVSPropertyOp22
 70
     1
102
RTVSPropertyOp23
 70
     1
102
RTVSPropertyOp24
 70
     1
102
RTVSPropertyOp25
 70
     1
102
RTVSPropertyOp26
 70
     1
102
RTVSPropertyOp27
 70
     1
102
RTVSPropertyOp28
 70
     1
102
RTVSPropertyOp29
 70
     1
102
RTVSPropertyOp30
 70
     1
102
RTVSPropertyOp31
 70
     1
102
RTVSPropertyOp32
 70
     1
102
RTVSPropertyOp33
 70
     1
102
RTVSPropertyOp34
 70
     1
102
RTVSPropertyOp35
 70
     1
102
RTVSPropertyOp36
 70
     1
102
RTVSPropertyOp37
 70
     1
102
RTVSPropertyOp38
 70
     1
102
RTVSPropertyOp39
 70
     1
102
RTVSPropertyOp40
 70
     1
102
RTVSPropertyOp41
 70
     1
102
RTVSPropertyOp42
 70
     1
102
RTVSPropertyOp43
 70
     1
102
RTVSPropertyOp44
 70
     1
102
RTVSPropertyOp45
 70
     1
102
RTVSPropertyOp46
 70
     1
102
RTVSPropertyOp47
 70
     1
102
RTVSPropertyOp48
 70
     1
102
RTVSPropertyOp49
 70
     1
102
RTVSPropertyOp50
 70
     1
102
RTVSPropertyOp51
 70
     0
102
RTVSPropertyOp52
 70
     0
102
RTVSPropertyOp53
 70
     1
102
RTVSPropertyOp54
 70
     1
102
RTVSPropertyOp55
 70
     1
102
RTVSPropertyOp56
 70
     1
102
RTVSPropertyOp57
 70
     1
102
RTVSPost2010Prop28
280
     0
102
RTVSPost2010PropOp28
 70
     1
102
RTVSPost2010Prop29
280
     1
102
RTVSPost2010PropOp29
 70
     1
102
RTVSPost2010Prop30
280
     1
102
RTVSPost2010PropOp30
 70
     1
102
RTVSPost2010Prop31
280
     0
102
RTVSPost2010PropOp31
 70
     1
102
RTVSPost2010Prop32
280
     0
102
RTVSPost2010PropOp32
 70
     1
102
RTVSPost2010Prop33
280
     0
102
RTVSPost2010PropOp33
 70
     1
102
RTVSPost2010Prop34
280
     0
102
RTVSPost2010PropOp34
 70
     1
102
RTVSPost2010Prop35
280
     0
102
RTVSPost2010PropOp35
 70
     1
102
RTVSPost2010Prop36
280
     0
102
RTVSPost2010PropOp36
 70
     1
102
RTVSPost2010Prop37
 90
       50
102
RTVSPost2010PropOp37
 70
     1
102
RTVSPost2010Prop38
140
0.0
102
RTVSPost2010PropOp38
 70
     1
102
RTVSPost2010Prop39
140
1.0
102
RTVSPost2010PropOp39
 70
     1
102
RTVSPost2010Prop40
 90
        0
102
RTVSPost2010PropOp40
 70
     1
102
RTVSPost2010Prop41ColorIndex
 90
       18
102
RTVSPost2010Prop41ColorRGB
 90
        0
102
RTVSPost2010PropOp41
 70
     1
102
RTVSPost2010Prop42
 90
       50
102
RTVSPost2010PropOp42
 70
     1
102
RTVSPost2010Prop43
 90
        3
102
RTVSPost2010PropOp43
 70
     1
102
RTVSPost2010Prop44ColorIndex
 90
        5
102
RTVSPost2010Prop44ColorRGB
 90
      255
102
RTVSPost2010PropOp44
 70
     1
102
RTVSPost2010Prop45
280
     0
102
RTVSPost2010PropOp45
 70
     1
102
RTVSPost2010Prop46
 90
       50
102
RTVSPost2010PropOp46
 70
     1
102
RTVSPost2010Prop47
 90
       50
102
RTVSPost2010PropOp47
 70
     1
102
RTVSPost2010Prop48
 90
       50
102
RTVSPost2010PropOp48
 70
     1
102
RTVSPost2010Prop49
280
     0
102
RTVSPost2010PropOp49
 70
     1
102
RTVSPost2010Prop50
 90
       50
102
RTVSPost2010PropOp50
 70
     1
102
RTVSPost2010Prop51ColorIndex
 90
      256
102
RTVSPost2010Prop51ColorRGB
 90
-16777216
102
RTVSPost2010PropOp51
 70
     0
102
RTVSPost2010Prop52
140
1.0
102
RTVSPost2010PropOp52
 70
     0
102
RTVSPost2010Prop53
 90
        2
102
RTVSPost2010PropOp53
 70
     1
102
RTVSPost2010Prop54
  1
strokes_ogs.tif
102
RTVSPost2010PropOp54
 70
     1
102
RTVSPost2010Prop55
280
     0
102
RTVSPost2010PropOp55
 70
     1
102
RTVSPost2010Prop56
140
1.0
102
RTVSPost2010PropOp56
 70
     1
102
RTVSPost2010Prop57
140
1.0
102
RTVSPost2010PropOp57
 70
     1
  0
XRECORD
  5
3337
102
{ACAD_REACTORS
330
3336
102
}
330
3336
100
AcDbXrecord
280
     1
102
RTVSPropertyOp0
 70
     1
102
RTVSPropertyOp1
 70
     1
102
RTVSPropertyOp2
 70
     1
102
RTVSPropertyOp3
 70
     1
102
RTVSPropertyOp4
 70
     1
102
RTVSPropertyOp5
 70
     1
102
RTVSPropertyOp6
 70
     1
102
RTVSPropertyOp7
 70
     1
102
RTVSPropertyOp8
 70
     1
102
RTVSPropertyOp9
 70
     1
102
RTVSPropertyOp10
 70
     1
102
RTVSPropertyOp11
 70
     1
102
RTVSPropertyOp12
 70
     1
102
RTVSPropertyOp13
 70
     1
102
RTVSPropertyOp14
 70
     1
102
RTVSPropertyOp15
 70
     1
102
RTVSPropertyOp16
 70
     1
102
RTVSPropertyOp17
 70
     1
102
RTVSPropertyOp18
 70
     1
102
RTVSPropertyOp19
 70
     1
102
RTVSPropertyOp20
 70
     1
102
RTVSPropertyOp21
 70
     1
102
RTVSPropertyOp22
 70
     1
102
RTVSPropertyOp23
 70
     1
102
RTVSPropertyOp24
 70
     1
102
RTVSPropertyOp25
 70
     1
102
RTVSPropertyOp26
 70
     1
102
RTVSPropertyOp27
 70
     1
102
RTVSPropertyOp28
 70
     1
102
RTVSPropertyOp29
 70
     1
102
RTVSPropertyOp30
 70
     1
102
RTVSPropertyOp31
 70
     1
102
RTVSPropertyOp32
 70
     1
102
RTVSPropertyOp33
 70
     1
102
RTVSPropertyOp34
 70
     1
102
RTVSPropertyOp35
 70
     1
102
RTVSPropertyOp36
 70
     1
102
RTVSPropertyOp37
 70
     1
102
RTVSPropertyOp38
 70
     1
102
RTVSPropertyOp39
 70
     1
102
RTVSPropertyOp40
 70
     1
102
RTVSPropertyOp41
 70
     1
102
RTVSPropertyOp42
 70
     1
102
RTVSPropertyOp43
 70
     1
102
RTVSPropertyOp44
 70
     1
102
RTVSPropertyOp45
 70
     1
102
RTVSPropertyOp46
 70
     1
102
RTVSPropertyOp47
 70
     1
102
RTVSPropertyOp48
 70
     1
102
RTVSPropertyOp49
 70
     1
102
RTVSPropertyOp50
 70
     1
102
RTVSPropertyOp51
 70
     0
102
RTVSPropertyOp52
 70
     0
102
RTVSPropertyOp53
 70
     1
102
RTVSPropertyOp54
 70
     1
102
RTVSPropertyOp55
 70
     1
102
RTVSPropertyOp56
 70
     1
102
RTVSPropertyOp57
 70
     1
102
RTVSPost2010Prop28
280
     0
102
RTVSPost2010PropOp28
 70
     1
102
RTVSPost2010Prop29
280
     1
102
RTVSPost2010PropOp29
 70
     1
102
RTVSPost2010Prop30
280
     1
102
RTVSPost2010PropOp30
 70
     1
102
RTVSPost2010Prop31
280
     0
102
RTVSPost2010PropOp31
 70
     1
102
RTVSPost2010Prop32
280
     0
102
RTVSPost2010PropOp32
 70
     1
102
RTVSPost2010Prop33
280
     0
102
RTVSPost2010PropOp33
 70
     1
102
RTVSPost2010Prop34
280
     0
102
RTVSPost2010PropOp34
 70
     1
102
RTVSPost2010Prop35
280
     0
102
RTVSPost2010PropOp35
 70
     1
102
RTVSPost2010Prop36
280
     0
102
RTVSPost2010PropOp36
 70
     1
102
RTVSPost2010Prop37
 90
       50
102
RTVSPost2010PropOp37
 70
     1
102
RTVSPost2010Prop38
140
0.0
102
RTVSPost2010PropOp38
 70
     1
102
RTVSPost2010Prop39
140
1.0
102
RTVSPost2010PropOp39
 70
     1
102
RTVSPost2010Prop40
 90
        0
102
RTVSPost2010PropOp40
 70
     1
102
RTVSPost2010Prop41ColorIndex
 90
       18
102
RTVSPost2010Prop41ColorRGB
 90
        0
102
RTVSPost2010PropOp41
 70
     1
102
RTVSPost2010Prop42
 90
       50
102
RTVSPost2010PropOp42
 70
     1
102
RTVSPost2010Prop43
 90
        3
102
RTVSPost2010PropOp43
 70
     1
102
RTVSPost2010Prop44ColorIndex
 90
        5
102
RTVSPost2010Prop44ColorRGB
 90
      255
102
RTVSPost2010PropOp44
 70
     1
102
RTVSPost2010Prop45
280
     0
102
RTVSPost2010PropOp45
 70
     1
102
RTVSPost2010Prop46
 90
       50
102
RTVSPost2010PropOp46
 70
     1
102
RTVSPost2010Prop47
 90
       50
102
RTVSPost2010PropOp47
 70
     1
102
RTVSPost2010Prop48
 90
       50
102
RTVSPost2010PropOp48
 70
     1
102
RTVSPost2010Prop49
280
     0
102
RTVSPost2010PropOp49
 70
     1
102
RTVSPost2010Prop50
 90
       50
102
RTVSPost2010PropOp50
 70
     1
102
RTVSPost2010Prop51ColorIndex
 90
      256
102
RTVSPost2010Prop51ColorRGB
 90
-16777216
102
RTVSPost2010PropOp51
 70
     0
102
RTVSPost2010Prop52
140
1.0
102
RTVSPost2010PropOp52
 70
     0
102
RTVSPost2010Prop53
 90
        2
102
RTVSPost2010PropOp53
 70
     1
102
RTVSPost2010Prop54
  1
strokes_ogs.tif
102
RTVSPost2010PropOp54
 70
     1
102
RTVSPost2010Prop55
280
     0
102
RTVSPost2010PropOp55
 70
     1
102
RTVSPost2010Prop56
140
1.0
102
RTVSPost2010PropOp56
 70
     1
102
RTVSPost2010Prop57
140
1.0
102
RTVSPost2010PropOp57
 70
     1
  0
XRECORD
  5
3331
102
{ACAD_REACTORS
330
3330
102
}
330
3330
100
AcDbXrecord
280
     1
102
RTVSPropertyOp0
 70
     1
102
RTVSPropertyOp1
 70
     1
102
RTVSPropertyOp2
 70
     1
102
RTVSPropertyOp3
 70
     1
102
RTVSPropertyOp4
 70
     1
102
RTVSPropertyOp5
 70
     1
102
RTVSPropertyOp6
 70
     1
102
RTVSPropertyOp7
 70
     1
102
RTVSPropertyOp8
 70
     1
102
RTVSPropertyOp9
 70
     1
102
RTVSPropertyOp10
 70
     1
102
RTVSPropertyOp11
 70
     1
102
RTVSPropertyOp12
 70
     1
102
RTVSPropertyOp13
 70
     1
102
RTVSPropertyOp14
 70
     1
102
RTVSPropertyOp15
 70
     1
102
RTVSPropertyOp16
 70
     1
102
RTVSPropertyOp17
 70
     1
102
RTVSPropertyOp18
 70
     1
102
RTVSPropertyOp19
 70
     1
102
RTVSPropertyOp20
 70
     1
102
RTVSPropertyOp21
 70
     1
102
RTVSPropertyOp22
 70
     1
102
RTVSPropertyOp23
 70
     1
102
RTVSPropertyOp24
 70
     1
102
RTVSPropertyOp25
 70
     1
102
RTVSPropertyOp26
 70
     1
102
RTVSPropertyOp27
 70
     1
102
RTVSPropertyOp28
 70
     1
102
RTVSPropertyOp29
 70
     1
102
RTVSPropertyOp30
 70
     1
102
RTVSPropertyOp31
 70
     1
102
RTVSPropertyOp32
 70
     1
102
RTVSPropertyOp33
 70
     1
102
RTVSPropertyOp34
 70
     1
102
RTVSPropertyOp35
 70
     1
102
RTVSPropertyOp36
 70
     1
102
RTVSPropertyOp37
 70
     1
102
RTVSPropertyOp38
 70
     1
102
RTVSPropertyOp39
 70
     1
102
RTVSPropertyOp40
 70
     1
102
RTVSPropertyOp41
 70
     1
102
RTVSPropertyOp42
 70
     1
102
RTVSPropertyOp43
 70
     1
102
RTVSPropertyOp44
 70
     1
102
RTVSPropertyOp45
 70
     1
102
RTVSPropertyOp46
 70
     1
102
RTVSPropertyOp47
 70
     1
102
RTVSPropertyOp48
 70
     1
102
RTVSPropertyOp49
 70
     1
102
RTVSPropertyOp50
 70
     1
102
RTVSPropertyOp51
 70
     0
102
RTVSPropertyOp52
 70
     0
102
RTVSPropertyOp53
 70
     1
102
RTVSPropertyOp54
 70
     1
102
RTVSPropertyOp55
 70
     1
102
RTVSPropertyOp56
 70
     1
102
RTVSPropertyOp57
 70
     1
102
RTVSPost2010Prop28
280
     0
102
RTVSPost2010PropOp28
 70
     1
102
RTVSPost2010Prop29
280
     1
102
RTVSPost2010PropOp29
 70
     1
102
RTVSPost2010Prop30
280
     1
102
RTVSPost2010PropOp30
 70
     1
102
RTVSPost2010Prop31
280
     0
102
RTVSPost2010PropOp31
 70
     1
102
RTVSPost2010Prop32
280
     0
102
RTVSPost2010PropOp32
 70
     1
102
RTVSPost2010Prop33
280
     0
102
RTVSPost2010PropOp33
 70
     1
102
RTVSPost2010Prop34
280
     0
102
RTVSPost2010PropOp34
 70
     1
102
RTVSPost2010Prop35
280
     0
102
RTVSPost2010PropOp35
 70
     1
102
RTVSPost2010Prop36
280
     0
102
RTVSPost2010PropOp36
 70
     1
102
RTVSPost2010Prop37
 90
       50
102
RTVSPost2010PropOp37
 70
     1
102
RTVSPost2010Prop38
140
0.0
102
RTVSPost2010PropOp38
 70
     1
102
RTVSPost2010Prop39
140
1.0
102
RTVSPost2010PropOp39
 70
     1
102
RTVSPost2010Prop40
 90
        0
102
RTVSPost2010PropOp40
 70
     1
102
RTVSPost2010Prop41ColorIndex
 90
       18
102
RTVSPost2010Prop41ColorRGB
 90
        0
102
RTVSPost2010PropOp41
 70
     1
102
RTVSPost2010Prop42
 90
       50
102
RTVSPost2010PropOp42
 70
     1
102
RTVSPost2010Prop43
 90
        3
102
RTVSPost2010PropOp43
 70
     1
102
RTVSPost2010Prop44ColorIndex
 90
        5
102
RTVSPost2010Prop44ColorRGB
 90
      255
102
RTVSPost2010PropOp44
 70
     1
102
RTVSPost2010Prop45
280
     0
102
RTVSPost2010PropOp45
 70
     1
102
RTVSPost2010Prop46
 90
       50
102
RTVSPost2010PropOp46
 70
     1
102
RTVSPost2010Prop47
 90
       50
102
RTVSPost2010PropOp47
 70
     1
102
RTVSPost2010Prop48
 90
       50
102
RTVSPost2010PropOp48
 70
     1
102
RTVSPost2010Prop49
280
     0
102
RTVSPost2010PropOp49
 70
     1
102
RTVSPost2010Prop50
 90
       50
102
RTVSPost2010PropOp50
 70
     1
102
RTVSPost2010Prop51ColorIndex
 90
      256
102
RTVSPost2010Prop51ColorRGB
 90
-16777216
102
RTVSPost2010PropOp51
 70
     0
102
RTVSPost2010Prop52
140
1.0
102
RTVSPost2010PropOp52
 70
     0
102
RTVSPost2010Prop53
 90
        2
102
RTVSPost2010PropOp53
 70
     1
102
RTVSPost2010Prop54
  1
strokes_ogs.tif
102
RTVSPost2010PropOp54
 70
     1
102
RTVSPost2010Prop55
280
     0
102
RTVSPost2010PropOp55
 70
     1
102
RTVSPost2010Prop56
140
1.0
102
RTVSPost2010PropOp56
 70
     1
102
RTVSPost2010Prop57
140
1.0
102
RTVSPost2010PropOp57
 70
     1
  0
XRECORD
  5
3333
102
{ACAD_REACTORS
330
3332
102
}
330
3332
100
AcDbXrecord
280
     1
102
RTVSPropertyOp0
 70
     1
102
RTVSPropertyOp1
 70
     1
102
RTVSPropertyOp2
 70
     1
102
RTVSPropertyOp3
 70
     1
102
RTVSPropertyOp4
 70
     1
102
RTVSPropertyOp5
 70
     1
102
RTVSPropertyOp6
 70
     1
102
RTVSPropertyOp7
 70
     1
102
RTVSPropertyOp8
 70
     1
102
RTVSPropertyOp9
 70
     1
102
RTVSPropertyOp10
 70
     1
102
RTVSPropertyOp11
 70
     1
102
RTVSPropertyOp12
 70
     1
102
RTVSPropertyOp13
 70
     1
102
RTVSPropertyOp14
 70
     1
102
RTVSPropertyOp15
 70
     1
102
RTVSPropertyOp16
 70
     1
102
RTVSPropertyOp17
 70
     1
102
RTVSPropertyOp18
 70
     1
102
RTVSPropertyOp19
 70
     1
102
RTVSPropertyOp20
 70
     1
102
RTVSPropertyOp21
 70
     1
102
RTVSPropertyOp22
 70
     1
102
RTVSPropertyOp23
 70
     1
102
RTVSPropertyOp24
 70
     1
102
RTVSPropertyOp25
 70
     1
102
RTVSPropertyOp26
 70
     1
102
RTVSPropertyOp27
 70
     1
102
RTVSPropertyOp28
 70
     1
102
RTVSPropertyOp29
 70
     1
102
RTVSPropertyOp30
 70
     1
102
RTVSPropertyOp31
 70
     1
102
RTVSPropertyOp32
 70
     1
102
RTVSPropertyOp33
 70
     1
102
RTVSPropertyOp34
 70
     1
102
RTVSPropertyOp35
 70
     1
102
RTVSPropertyOp36
 70
     1
102
RTVSPropertyOp37
 70
     1
102
RTVSPropertyOp38
 70
     1
102
RTVSPropertyOp39
 70
     1
102
RTVSPropertyOp40
 70
     1
102
RTVSPropertyOp41
 70
     1
102
RTVSPropertyOp42
 70
     1
102
RTVSPropertyOp43
 70
     1
102
RTVSPropertyOp44
 70
     1
102
RTVSPropertyOp45
 70
     1
102
RTVSPropertyOp46
 70
     1
102
RTVSPropertyOp47
 70
     1
102
RTVSPropertyOp48
 70
     1
102
RTVSPropertyOp49
 70
     1
102
RTVSPropertyOp50
 70
     1
102
RTVSPropertyOp51
 70
     0
102
RTVSPropertyOp52
 70
     0
102
RTVSPropertyOp53
 70
     1
102
RTVSPropertyOp54
 70
     1
102
RTVSPropertyOp55
 70
     1
102
RTVSPropertyOp56
 70
     1
102
RTVSPropertyOp57
 70
     1
102
RTVSPost2010Prop28
280
     0
102
RTVSPost2010PropOp28
 70
     1
102
RTVSPost2010Prop29
280
     1
102
RTVSPost2010PropOp29
 70
     1
102
RTVSPost2010Prop30
280
     1
102
RTVSPost2010PropOp30
 70
     1
102
RTVSPost2010Prop31
280
     0
102
RTVSPost2010PropOp31
 70
     1
102
RTVSPost2010Prop32
280
     0
102
RTVSPost2010PropOp32
 70
     1
102
RTVSPost2010Prop33
280
     0
102
RTVSPost2010PropOp33
 70
     1
102
RTVSPost2010Prop34
280
     0
102
RTVSPost2010PropOp34
 70
     1
102
RTVSPost2010Prop35
280
     0
102
RTVSPost2010PropOp35
 70
     1
102
RTVSPost2010Prop36
280
     0
102
RTVSPost2010PropOp36
 70
     1
102
RTVSPost2010Prop37
 90
       50
102
RTVSPost2010PropOp37
 70
     1
102
RTVSPost2010Prop38
140
0.0
102
RTVSPost2010PropOp38
 70
     1
102
RTVSPost2010Prop39
140
1.0
102
RTVSPost2010PropOp39
 70
     1
102
RTVSPost2010Prop40
 90
        0
102
RTVSPost2010PropOp40
 70
     1
102
RTVSPost2010Prop41ColorIndex
 90
       18
102
RTVSPost2010Prop41ColorRGB
 90
        0
102
RTVSPost2010PropOp41
 70
     1
102
RTVSPost2010Prop42
 90
       50
102
RTVSPost2010PropOp42
 70
     1
102
RTVSPost2010Prop43
 90
        3
102
RTVSPost2010PropOp43
 70
     1
102
RTVSPost2010Prop44ColorIndex
 90
        5
102
RTVSPost2010Prop44ColorRGB
 90
      255
102
RTVSPost2010PropOp44
 70
     1
102
RTVSPost2010Prop45
280
     0
102
RTVSPost2010PropOp45
 70
     1
102
RTVSPost2010Prop46
 90
       50
102
RTVSPost2010PropOp46
 70
     1
102
RTVSPost2010Prop47
 90
       50
102
RTVSPost2010PropOp47
 70
     1
102
RTVSPost2010Prop48
 90
       50
102
RTVSPost2010PropOp48
 70
     1
102
RTVSPost2010Prop49
280
     0
102
RTVSPost2010PropOp49
 70
     1
102
RTVSPost2010Prop50
 90
       50
102
RTVSPost2010PropOp50
 70
     1
102
RTVSPost2010Prop51ColorIndex
 90
      256
102
RTVSPost2010Prop51ColorRGB
 90
-16777216
102
RTVSPost2010PropOp51
 70
     0
102
RTVSPost2010Prop52
140
1.0
102
RTVSPost2010PropOp52
 70
     0
102
RTVSPost2010Prop53
 90
        2
102
RTVSPost2010PropOp53
 70
     1
102
RTVSPost2010Prop54
  1
strokes_ogs.tif
102
RTVSPost2010PropOp54
 70
     1
102
RTVSPost2010Prop55
280
     0
102
RTVSPost2010PropOp55
 70
     1
102
RTVSPost2010Prop56
140
1.0
102
RTVSPost2010PropOp56
 70
     1
102
RTVSPost2010Prop57
140
1.0
102
RTVSPost2010PropOp57
 70
     1
  0
XRECORD
  5
3325
102
{ACAD_REACTORS
330
3324
102
}
330
3324
100
AcDbXrecord
280
     1
102
RTVSPropertyOp0
 70
     1
102
RTVSPropertyOp1
 70
     1
102
RTVSPropertyOp2
 70
     1
102
RTVSPropertyOp3
 70
     1
102
RTVSPropertyOp4
 70
     1
102
RTVSPropertyOp5
 70
     1
102
RTVSPropertyOp6
 70
     1
102
RTVSPropertyOp7
 70
     1
102
RTVSPropertyOp8
 70
     1
102
RTVSPropertyOp9
 70
     1
102
RTVSPropertyOp10
 70
     1
102
RTVSPropertyOp11
 70
     1
102
RTVSPropertyOp12
 70
     1
102
RTVSPropertyOp13
 70
     1
102
RTVSPropertyOp14
 70
     1
102
RTVSPropertyOp15
 70
     1
102
RTVSPropertyOp16
 70
     1
102
RTVSPropertyOp17
 70
     1
102
RTVSPropertyOp18
 70
     1
102
RTVSPropertyOp19
 70
     1
102
RTVSPropertyOp20
 70
     1
102
RTVSPropertyOp21
 70
     1
102
RTVSPropertyOp22
 70
     1
102
RTVSPropertyOp23
 70
     1
102
RTVSPropertyOp24
 70
     1
102
RTVSPropertyOp25
 70
     1
102
RTVSPropertyOp26
 70
     1
102
RTVSPropertyOp27
 70
     1
102
RTVSPropertyOp28
 70
     1
102
RTVSPropertyOp29
 70
     1
102
RTVSPropertyOp30
 70
     1
102
RTVSPropertyOp31
 70
     1
102
RTVSPropertyOp32
 70
     1
102
RTVSPropertyOp33
 70
     1
102
RTVSPropertyOp34
 70
     1
102
RTVSPropertyOp35
 70
     1
102
RTVSPropertyOp36
 70
     1
102
RTVSPropertyOp37
 70
     1
102
RTVSPropertyOp38
 70
     1
102
RTVSPropertyOp39
 70
     1
102
RTVSPropertyOp40
 70
     1
102
RTVSPropertyOp41
 70
     1
102
RTVSPropertyOp42
 70
     1
102
RTVSPropertyOp43
 70
     1
102
RTVSPropertyOp44
 70
     1
102
RTVSPropertyOp45
 70
     1
102
RTVSPropertyOp46
 70
     1
102
RTVSPropertyOp47
 70
     1
102
RTVSPropertyOp48
 70
     1
102
RTVSPropertyOp49
 70
     1
102
RTVSPropertyOp50
 70
     1
102
RTVSPropertyOp51
 70
     0
102
RTVSPropertyOp52
 70
     0
102
RTVSPropertyOp53
 70
     1
102
RTVSPropertyOp54
 70
     1
102
RTVSPropertyOp55
 70
     1
102
RTVSPropertyOp56
 70
     1
102
RTVSPropertyOp57
 70
     1
102
RTVSPost2010Prop28
280
     0
102
RTVSPost2010PropOp28
 70
     1
102
RTVSPost2010Prop29
280
     1
102
RTVSPost2010PropOp29
 70
     1
102
RTVSPost2010Prop30
280
     1
102
RTVSPost2010PropOp30
 70
     1
102
RTVSPost2010Prop31
280
     0
102
RTVSPost2010PropOp31
 70
     1
102
RTVSPost2010Prop32
280
     0
102
RTVSPost2010PropOp32
 70
     1
102
RTVSPost2010Prop33
280
     0
102
RTVSPost2010PropOp33
 70
     1
102
RTVSPost2010Prop34
280
     0
102
RTVSPost2010PropOp34
 70
     1
102
RTVSPost2010Prop35
280
     0
102
RTVSPost2010PropOp35
 70
     1
102
RTVSPost2010Prop36
280
     0
102
RTVSPost2010PropOp36
 70
     1
102
RTVSPost2010Prop37
 90
       50
102
RTVSPost2010PropOp37
 70
     1
102
RTVSPost2010Prop38
140
0.0
102
RTVSPost2010PropOp38
 70
     1
102
RTVSPost2010Prop39
140
1.0
102
RTVSPost2010PropOp39
 70
     1
102
RTVSPost2010Prop40
 90
        0
102
RTVSPost2010PropOp40
 70
     1
102
RTVSPost2010Prop41ColorIndex
 90
       18
102
RTVSPost2010Prop41ColorRGB
 90
        0
102
RTVSPost2010PropOp41
 70
     1
102
RTVSPost2010Prop42
 90
       50
102
RTVSPost2010PropOp42
 70
     1
102
RTVSPost2010Prop43
 90
        3
102
RTVSPost2010PropOp43
 70
     1
102
RTVSPost2010Prop44ColorIndex
 90
        5
102
RTVSPost2010Prop44ColorRGB
 90
      255
102
RTVSPost2010PropOp44
 70
     1
102
RTVSPost2010Prop45
280
     0
102
RTVSPost2010PropOp45
 70
     1
102
RTVSPost2010Prop46
 90
       50
102
RTVSPost2010PropOp46
 70
     1
102
RTVSPost2010Prop47
 90
       50
102
RTVSPost2010PropOp47
 70
     1
102
RTVSPost2010Prop48
 90
       50
102
RTVSPost2010PropOp48
 70
     1
102
RTVSPost2010Prop49
280
     0
102
RTVSPost2010PropOp49
 70
     1
102
RTVSPost2010Prop50
 90
       50
102
RTVSPost2010PropOp50
 70
     1
102
RTVSPost2010Prop51ColorIndex
 90
      256
102
RTVSPost2010Prop51ColorRGB
 90
-16777216
102
RTVSPost2010PropOp51
 70
     0
102
RTVSPost2010Prop52
140
1.0
102
RTVSPost2010PropOp52
 70
     0
102
RTVSPost2010Prop53
 90
        2
102
RTVSPost2010PropOp53
 70
     1
102
RTVSPost2010Prop54
  1
strokes_ogs.tif
102
RTVSPost2010PropOp54
 70
     1
102
RTVSPost2010Prop55
280
     0
102
RTVSPost2010PropOp55
 70
     1
102
RTVSPost2010Prop56
140
1.0
102
RTVSPost2010PropOp56
 70
     1
102
RTVSPost2010Prop57
140
1.0
102
RTVSPost2010PropOp57
 70
     1
  0
XRECORD
  5
3327
102
{ACAD_REACTORS
330
3326
102
}
330
3326
100
AcDbXrecord
280
     1
102
RTVSPropertyOp0
 70
     1
102
RTVSPropertyOp1
 70
     1
102
RTVSPropertyOp2
 70
     1
102
RTVSPropertyOp3
 70
     1
102
RTVSPropertyOp4
 70
     1
102
RTVSPropertyOp5
 70
     1
102
RTVSPropertyOp6
 70
     1
102
RTVSPropertyOp7
 70
     1
102
RTVSPropertyOp8
 70
     1
102
RTVSPropertyOp9
 70
     1
102
RTVSPropertyOp10
 70
     1
102
RTVSPropertyOp11
 70
     1
102
RTVSPropertyOp12
 70
     1
102
RTVSPropertyOp13
 70
     1
102
RTVSPropertyOp14
 70
     1
102
RTVSPropertyOp15
 70
     1
102
RTVSPropertyOp16
 70
     1
102
RTVSPropertyOp17
 70
     1
102
RTVSPropertyOp18
 70
     1
102
RTVSPropertyOp19
 70
     1
102
RTVSPropertyOp20
 70
     1
102
RTVSPropertyOp21
 70
     1
102
RTVSPropertyOp22
 70
     1
102
RTVSPropertyOp23
 70
     1
102
RTVSPropertyOp24
 70
     1
102
RTVSPropertyOp25
 70
     1
102
RTVSPropertyOp26
 70
     1
102
RTVSPropertyOp27
 70
     1
102
RTVSPropertyOp28
 70
     1
102
RTVSPropertyOp29
 70
     1
102
RTVSPropertyOp30
 70
     1
102
RTVSPropertyOp31
 70
     1
102
RTVSPropertyOp32
 70
     1
102
RTVSPropertyOp33
 70
     1
102
RTVSPropertyOp34
 70
     1
102
RTVSPropertyOp35
 70
     1
102
RTVSPropertyOp36
 70
     1
102
RTVSPropertyOp37
 70
     1
102
RTVSPropertyOp38
 70
     1
102
RTVSPropertyOp39
 70
     1
102
RTVSPropertyOp40
 70
     1
102
RTVSPropertyOp41
 70
     1
102
RTVSPropertyOp42
 70
     1
102
RTVSPropertyOp43
 70
     1
102
RTVSPropertyOp44
 70
     1
102
RTVSPropertyOp45
 70
     1
102
RTVSPropertyOp46
 70
     1
102
RTVSPropertyOp47
 70
     1
102
RTVSPropertyOp48
 70
     1
102
RTVSPropertyOp49
 70
     1
102
RTVSPropertyOp50
 70
     1
102
RTVSPropertyOp51
 70
     0
102
RTVSPropertyOp52
 70
     0
102
RTVSPropertyOp53
 70
     1
102
RTVSPropertyOp54
 70
     1
102
RTVSPropertyOp55
 70
     1
102
RTVSPropertyOp56
 70
     1
102
RTVSPropertyOp57
 70
     1
102
RTVSPost2010Prop28
280
     0
102
RTVSPost2010PropOp28
 70
     1
102
RTVSPost2010Prop29
280
     1
102
RTVSPost2010PropOp29
 70
     1
102
RTVSPost2010Prop30
280
     1
102
RTVSPost2010PropOp30
 70
     1
102
RTVSPost2010Prop31
280
     0
102
RTVSPost2010PropOp31
 70
     1
102
RTVSPost2010Prop32
280
     0
102
RTVSPost2010PropOp32
 70
     1
102
RTVSPost2010Prop33
280
     0
102
RTVSPost2010PropOp33
 70
     1
102
RTVSPost2010Prop34
280
     0
102
RTVSPost2010PropOp34
 70
     1
102
RTVSPost2010Prop35
280
     0
102
RTVSPost2010PropOp35
 70
     1
102
RTVSPost2010Prop36
280
     0
102
RTVSPost2010PropOp36
 70
     1
102
RTVSPost2010Prop37
 90
       50
102
RTVSPost2010PropOp37
 70
     1
102
RTVSPost2010Prop38
140
0.0
102
RTVSPost2010PropOp38
 70
     1
102
RTVSPost2010Prop39
140
1.0
102
RTVSPost2010PropOp39
 70
     1
102
RTVSPost2010Prop40
 90
        0
102
RTVSPost2010PropOp40
 70
     1
102
RTVSPost2010Prop41ColorIndex
 90
       18
102
RTVSPost2010Prop41ColorRGB
 90
        0
102
RTVSPost2010PropOp41
 70
     1
102
RTVSPost2010Prop42
 90
       50
102
RTVSPost2010PropOp42
 70
     1
102
RTVSPost2010Prop43
 90
        3
102
RTVSPost2010PropOp43
 70
     1
102
RTVSPost2010Prop44ColorIndex
 90
        5
102
RTVSPost2010Prop44ColorRGB
 90
      255
102
RTVSPost2010PropOp44
 70
     1
102
RTVSPost2010Prop45
280
     0
102
RTVSPost2010PropOp45
 70
     1
102
RTVSPost2010Prop46
 90
       50
102
RTVSPost2010PropOp46
 70
     1
102
RTVSPost2010Prop47
 90
       50
102
RTVSPost2010PropOp47
 70
     1
102
RTVSPost2010Prop48
 90
       50
102
RTVSPost2010PropOp48
 70
     1
102
RTVSPost2010Prop49
280
     0
102
RTVSPost2010PropOp49
 70
     1
102
RTVSPost2010Prop50
 90
       50
102
RTVSPost2010PropOp50
 70
     1
102
RTVSPost2010Prop51ColorIndex
 90
      256
102
RTVSPost2010Prop51ColorRGB
 90
-16777216
102
RTVSPost2010PropOp51
 70
     0
102
RTVSPost2010Prop52
140
1.0
102
RTVSPost2010PropOp52
 70
     0
102
RTVSPost2010Prop53
 90
        2
102
RTVSPost2010PropOp53
 70
     1
102
RTVSPost2010Prop54
  1
strokes_ogs.tif
102
RTVSPost2010PropOp54
 70
     1
102
RTVSPost2010Prop55
280
     0
102
RTVSPost2010PropOp55
 70
     1
102
RTVSPost2010Prop56
140
1.0
102
RTVSPost2010PropOp56
 70
     1
102
RTVSPost2010Prop57
140
1.0
102
RTVSPost2010PropOp57
 70
     1
  0
XRECORD
  5
3335
102
{ACAD_REACTORS
330
3334
102
}
330
3334
100
AcDbXrecord
280
     1
102
RTVSPropertyOp0
 70
     1
102
RTVSPropertyOp1
 70
     1
102
RTVSPropertyOp2
 70
     1
102
RTVSPropertyOp3
 70
     1
102
RTVSPropertyOp4
 70
     1
102
RTVSPropertyOp5
 70
     1
102
RTVSPropertyOp6
 70
     1
102
RTVSPropertyOp7
 70
     1
102
RTVSPropertyOp8
 70
     1
102
RTVSPropertyOp9
 70
     1
102
RTVSPropertyOp10
 70
     1
102
RTVSPropertyOp11
 70
     1
102
RTVSPropertyOp12
 70
     1
102
RTVSPropertyOp13
 70
     1
102
RTVSPropertyOp14
 70
     1
102
RTVSPropertyOp15
 70
     1
102
RTVSPropertyOp16
 70
     1
102
RTVSPropertyOp17
 70
     1
102
RTVSPropertyOp18
 70
     1
102
RTVSPropertyOp19
 70
     1
102
RTVSPropertyOp20
 70
     1
102
RTVSPropertyOp21
 70
     1
102
RTVSPropertyOp22
 70
     1
102
RTVSPropertyOp23
 70
     1
102
RTVSPropertyOp24
 70
     1
102
RTVSPropertyOp25
 70
     1
102
RTVSPropertyOp26
 70
     1
102
RTVSPropertyOp27
 70
     1
102
RTVSPropertyOp28
 70
     1
102
RTVSPropertyOp29
 70
     1
102
RTVSPropertyOp30
 70
     1
102
RTVSPropertyOp31
 70
     1
102
RTVSPropertyOp32
 70
     1
102
RTVSPropertyOp33
 70
     1
102
RTVSPropertyOp34
 70
     1
102
RTVSPropertyOp35
 70
     1
102
RTVSPropertyOp36
 70
     1
102
RTVSPropertyOp37
 70
     1
102
RTVSPropertyOp38
 70
     1
102
RTVSPropertyOp39
 70
     1
102
RTVSPropertyOp40
 70
     1
102
RTVSPropertyOp41
 70
     1
102
RTVSPropertyOp42
 70
     1
102
RTVSPropertyOp43
 70
     1
102
RTVSPropertyOp44
 70
     1
102
RTVSPropertyOp45
 70
     1
102
RTVSPropertyOp46
 70
     1
102
RTVSPropertyOp47
 70
     1
102
RTVSPropertyOp48
 70
     1
102
RTVSPropertyOp49
 70
     1
102
RTVSPropertyOp50
 70
     1
102
RTVSPropertyOp51
 70
     0
102
RTVSPropertyOp52
 70
     0
102
RTVSPropertyOp53
 70
     1
102
RTVSPropertyOp54
 70
     1
102
RTVSPropertyOp55
 70
     1
102
RTVSPropertyOp56
 70
     1
102
RTVSPropertyOp57
 70
     1
102
RTVSPost2010Prop28
280
     0
102
RTVSPost2010PropOp28
 70
     1
102
RTVSPost2010Prop29
280
     1
102
RTVSPost2010PropOp29
 70
     1
102
RTVSPost2010Prop30
280
     1
102
RTVSPost2010PropOp30
 70
     1
102
RTVSPost2010Prop31
280
     0
102
RTVSPost2010PropOp31
 70
     1
102
RTVSPost2010Prop32
280
     0
102
RTVSPost2010PropOp32
 70
     1
102
RTVSPost2010Prop33
280
     0
102
RTVSPost2010PropOp33
 70
     1
102
RTVSPost2010Prop34
280
     0
102
RTVSPost2010PropOp34
 70
     1
102
RTVSPost2010Prop35
280
     0
102
RTVSPost2010PropOp35
 70
     1
102
RTVSPost2010Prop36
280
     0
102
RTVSPost2010PropOp36
 70
     1
102
RTVSPost2010Prop37
 90
       50
102
RTVSPost2010PropOp37
 70
     1
102
RTVSPost2010Prop38
140
0.0
102
RTVSPost2010PropOp38
 70
     1
102
RTVSPost2010Prop39
140
1.0
102
RTVSPost2010PropOp39
 70
     1
102
RTVSPost2010Prop40
 90
        0
102
RTVSPost2010PropOp40
 70
     1
102
RTVSPost2010Prop41ColorIndex
 90
       18
102
RTVSPost2010Prop41ColorRGB
 90
        0
102
RTVSPost2010PropOp41
 70
     1
102
RTVSPost2010Prop42
 90
       50
102
RTVSPost2010PropOp42
 70
     1
102
RTVSPost2010Prop43
 90
        3
102
RTVSPost2010PropOp43
 70
     1
102
RTVSPost2010Prop44ColorIndex
 90
        5
102
RTVSPost2010Prop44ColorRGB
 90
      255
102
RTVSPost2010PropOp44
 70
     1
102
RTVSPost2010Prop45
280
     0
102
RTVSPost2010PropOp45
 70
     1
102
RTVSPost2010Prop46
 90
       50
102
RTVSPost2010PropOp46
 70
     1
102
RTVSPost2010Prop47
 90
       50
102
RTVSPost2010PropOp47
 70
     1
102
RTVSPost2010Prop48
 90
       50
102
RTVSPost2010PropOp48
 70
     1
102
RTVSPost2010Prop49
280
     0
102
RTVSPost2010PropOp49
 70
     1
102
RTVSPost2010Prop50
 90
       50
102
RTVSPost2010PropOp50
 70
     1
102
RTVSPost2010Prop51ColorIndex
 90
      256
102
RTVSPost2010Prop51ColorRGB
 90
-16777216
102
RTVSPost2010PropOp51
 70
     0
102
RTVSPost2010Prop52
140
1.0
102
RTVSPost2010PropOp52
 70
     0
102
RTVSPost2010Prop53
 90
        2
102
RTVSPost2010PropOp53
 70
     1
102
RTVSPost2010Prop54
  1
strokes_ogs.tif
102
RTVSPost2010PropOp54
 70
     1
102
RTVSPost2010Prop55
280
     0
102
RTVSPost2010PropOp55
 70
     1
102
RTVSPost2010Prop56
140
1.0
102
RTVSPost2010PropOp56
 70
     1
102
RTVSPost2010Prop57
140
1.0
102
RTVSPost2010PropOp57
 70
     1
  0
ENDSEC
  0
EOF
